  0
SECTION
  2
HEADER
  9
$ACADVER
  1
AC1015
  9
$ACADMAINTVER
 70
     6
  9
$DWGCODEPAGE
  3
ANSI_1251
  9
$INSBASE
 10
0.0
 20
0.0
 30
0.0
  9
$EXTMIN
 10
0.0
 20
0.0
 30
0.0
  9
$EXTMAX
 10
431.8
 20
279.4
 30
0.0
  9
$LIMMIN
 10
0.0
 20
0.0
  9
$LIMMAX
 10
431.8
 20
279.4
  9
$ORTHOMODE
 70
     0
  9
$REGENMODE
 70
     1
  9
$FILLMODE
 70
     1
  9
$QTEXTMODE
 70
     0
  9
$MIRRTEXT
 70
     1
  9
$LTSCALE
 40
1.0
  9
$ATTMODE
 70
     1
  9
$TEXTSIZE
 40
3.5
  9
$TRACEWID
 40
1.0
  9
$TEXTSTYLE
  7
STANDARD
  9
$CLAYER
  8
0
  9
$CELTYPE
  6
ByLayer
  9
$CECOLOR
 62
   256
  9
$CELTSCALE
 40
1.0
  9
$DISPSILH
 70
     0
  9
$DIMSCALE
 40
1.0
  9
$DIMASZ
 40
5.0
  9
$DIMEXO
 40
0.0
  9
$DIMDLI
 40
3.75
  9
$DIMRND
 40
0.0
  9
$DIMDLE
 40
0.0
  9
$DIMEXE
 40
1.0
  9
$DIMTP
 40
0.0
  9
$DIMTM
 40
0.0
  9
$DIMTXT
 40
3.5
  9
$DIMCEN
 40
2.5
  9
$DIMTSZ
 40
0.0
  9
$DIMTOL
 70
     0
  9
$DIMLIM
 70
     0
  9
$DIMTIH
 70
     1
  9
$DIMTOH
 70
     1
  9
$DIMSE1
 70
     0
  9
$DIMSE2
 70
     0
  9
$DIMTAD
 70
     1
  9
$DIMZIN
 70
     0
  9
$DIMBLK
  1

  9
$DIMASO
 70
     1
  9
$DIMSHO
 70
     1
  9
$DIMPOST
  1

  9
$DIMAPOST
  1

  9
$DIMALT
 70
     0
  9
$DIMALTD
 70
     3
  9
$DIMALTF
 40
0.0393700787
  9
$DIMLFAC
 40
1.0
  9
$DIMTOFL
 70
     1
  9
$DIMTVP
 40
0.0
  9
$DIMTIX
 70
     0
  9
$DIMSOXD
 70
     0
  9
$DIMSAH
 70
     0
  9
$DIMBLK1
  1

  9
$DIMBLK2
  1

  9
$DIMSTYLE
  2
ISO-25
  9
$DIMCLRD
 70
     0
  9
$DIMCLRE
 70
     0
  9
$DIMCLRT
 70
     0
  9
$DIMTFAC
 40
1.0
  9
$DIMGAP
 40
1.5
  9
$DIMJUST
 70
     0
  9
$DIMSD1
 70
     0
  9
$DIMSD2
 70
     0
  9
$DIMTOLJ
 70
     0
  9
$DIMTZIN
 70
     0
  9
$DIMALTZ
 70
     0
  9
$DIMALTTZ
 70
     0
  9
$DIMUPT
 70
     0
  9
$DIMDEC
 70
     1
  9
$DIMTDEC
 70
     3
  9
$DIMALTU
 70
     2
  9
$DIMALTTD
 70
     3
  9
$DIMTXSTY
  7
STANDARD
  9
$DIMAUNIT
 70
     0
  9
$DIMADEC
 70
     2
  9
$DIMALTRND
 40
0.0
  9
$DIMAZIN
 70
     0
  9
$DIMDSEP
 70
    44
  9
$DIMATFIT
 70
     3
  9
$DIMFRAC
 70
     0
  9
$DIMLDRBLK
  1

  9
$DIMLUNIT
 70
     2
  9
$DIMLWD
 70
    -2
  9
$DIMLWE
 70
    -2
  9
$DIMTMOVE
 70
     0
  9
$LUNITS
 70
     2
  9
$LUPREC
 70
     1
  9
$SKETCHINC
 40
1.0
  9
$FILLETRAD
 40
0.0
  9
$AUNITS
 70
     0
  9
$AUPREC
 70
     2
  9
$MENU
  1
.
  9
$ELEVATION
 40
0.0
  9
$PELEVATION
 40
0.0
  9
$THICKNESS
 40
0.0
  9
$LIMCHECK
 70
     0
  9
$CHAMFERA
 40
0.0
  9
$CHAMFERB
 40
0.0
  9
$CHAMFERC
 40
0.0
  9
$CHAMFERD
 40
0.0
  9
$SKPOLY
 70
     0
  9
$TDCREATE
 40
2460934.689078877
  9
$TDUCREATE
 40
2460934.564078877
  9
$TDUPDATE
 40
2460934.689079595
  9
$TDUUPDATE
 40
2460934.564079595
  9
$TDINDWG
 40
0.0000000116
  9
$TDUSRTIMER
 40
0.0000000116
  9
$USRTIMER
 70
     1
  9
$ANGBASE
 50
0.0
  9
$ANGDIR
 70
     0
  9
$PDMODE
 70
     0
  9
$PDSIZE
 40
-1.0
  9
$PLINEWID
 40
0.0
  9
$SPLFRAME
 70
     0
  9
$SPLINETYPE
 70
     6
  9
$SPLINESEGS
 70
     8
  9
$HANDSEED
  5
318
  9
$SURFTAB1
 70
     6
  9
$SURFTAB2
 70
     6
  9
$SURFTYPE
 70
     6
  9
$SURFU
 70
     6
  9
$SURFV
 70
     6
  9
$UCSBASE
  2

  9
$UCSNAME
  2

  9
$UCSORG
 10
0.0
 20
0.0
 30
0.0
  9
$UCSXDIR
 10
1.0
 20
0.0
 30
0.0
  9
$UCSYDIR
 10
0.0
 20
1.0
 30
0.0
  9
$UCSORTHOREF
  2

  9
$UCSORTHOVIEW
 70
     0
  9
$UCSORGTOP
 10
0.0
 20
0.0
 30
0.0
  9
$UCSORGBOTTOM
 10
0.0
 20
0.0
 30
0.0
  9
$UCSORGLEFT
 10
0.0
 20
0.0
 30
0.0
  9
$UCSORGRIGHT
 10
0.0
 20
0.0
 30
0.0
  9
$UCSORGFRONT
 10
0.0
 20
0.0
 30
0.0
  9
$UCSORGBACK
 10
0.0
 20
0.0
 30
0.0
  9
$PUCSBASE
  2

  9
$PUCSNAME
  2

  9
$PUCSORG
 10
0.0
 20
0.0
 30
0.0
  9
$PUCSXDIR
 10
1.0
 20
0.0
 30
0.0
  9
$PUCSYDIR
 10
0.0
 20
1.0
 30
0.0
  9
$PUCSORTHOREF
  2

  9
$PUCSORTHOVIEW
 70
     0
  9
$PUCSORGTOP
 10
0.0
 20
0.0
 30
0.0
  9
$PUCSORGBOTTOM
 10
0.0
 20
0.0
 30
0.0
  9
$PUCSORGLEFT
 10
0.0
 20
0.0
 30
0.0
  9
$PUCSORGRIGHT
 10
0.0
 20
0.0
 30
0.0
  9
$PUCSORGFRONT
 10
0.0
 20
0.0
 30
0.0
  9
$PUCSORGBACK
 10
0.0
 20
0.0
 30
0.0
  9
$USERI1
 70
     0
  9
$USERI2
 70
     0
  9
$USERI3
 70
     0
  9
$USERI4
 70
     0
  9
$USERI5
 70
     0
  9
$USERR1
 40
0.0
  9
$USERR2
 40
0.0
  9
$USERR3
 40
0.0
  9
$USERR4
 40
0.0
  9
$USERR5
 40
0.0
  9
$WORLDVIEW
 70
     1
  9
$SHADEDGE
 70
     3
  9
$SHADEDIF
 70
    70
  9
$TILEMODE
 70
     1
  9
$MAXACTVP
 70
    64
  9
$PINSBASE
 10
0.0
 20
0.0
 30
0.0
  9
$PLIMCHECK
 70
     0
  9
$PEXTMIN
 10
1.0000000000E+20
 20
1.0000000000E+20
 30
1.0000000000E+20
  9
$PEXTMAX
 10
-1.0000000000E+20
 20
-1.0000000000E+20
 30
-1.0000000000E+20
  9
$PLIMMIN
 10
0.0
 20
0.0
  9
$PLIMMAX
 10
420.0
 20
297.0
  9
$UNITMODE
 70
     0
  9
$VISRETAIN
 70
     1
  9
$PLINEGEN
 70
     0
  9
$PSLTSCALE
 70
     1
  9
$TREEDEPTH
 70
  3020
  9
$CMLSTYLE
  2
Standard
  9
$CMLJUST
 70
     0
  9
$CMLSCALE
 40
20.0
  9
$PROXYGRAPHICS
 70
     1
  9
$MEASUREMENT
 70
     1
  9
$CELWEIGHT
370
    -1
  9
$ENDCAPS
280
     0
  9
$JOINSTYLE
280
     0
  9
$LWDISPLAY
290
     1
  9
$INSUNITS
 70
     4
  9
$HYPERLINKBASE
  1

  9
$STYLESHEET
  1

  9
$XEDIT
290
     1
  9
$CEPSNTYPE
380
     0
  9
$PSTYLEMODE
290
     1
  9
$FINGERPRINTGUID
  2
{72c2664e-83ad-485e-a899-2d409403c136}
  9
$VERSIONGUID
  2
{FAEB1C32-E019-11D5-929B-00C0DF256EC4}
  9
$EXTNAMES
290
     1
  9
$PSVPSCALE
 40
0.0
  9
$OLESTARTUP
290
     0
  0
ENDSEC
  0
SECTION
  2
CLASSES
  0
CLASS
  1
ACDBDICTIONARYWDFLT
  2
AcDbDictionaryWithDefault
  3
ObjectDBX Classes
 90
        0
280
     0
281
     0
  0
CLASS
  1
VISUALSTYLE
  2
AcDbVisualStyle
  3
ObjectDBX Classes
 90
     4095
280
     0
281
     0
  0
CLASS
  1
MATERIAL
  2
AcDbMaterial
  3
ObjectDBX Classes
 90
     1153
280
     0
281
     0
  0
CLASS
  1
SCALE
  2
AcDbScale
  3
ObjectDBX Classes
 90
     1153
280
     0
281
     0
  0
CLASS
  1
TABLESTYLE
  2
AcDbTableStyle
  3
ObjectDBX Classes
 90
     4095
280
     0
281
     0
  0
CLASS
  1
MLEADERSTYLE
  2
AcDbMLeaderStyle
  3
ACDB_MLEADERSTYLE_CLASS
 90
     4095
280
     0
281
     0
  0
CLASS
  1
SUN
  2
AcDbSun
  3
SCENEOE
 90
     1153
280
     0
281
     0
  0
CLASS
  1
ACDBPLACEHOLDER
  2
AcDbPlaceHolder
  3
ObjectDBX Classes
 90
        0
280
     0
281
     0
  0
CLASS
  1
LAYOUT
  2
AcDbLayout
  3
ObjectDBX Classes
 90
        0
280
     0
281
     0
  0
ENDSEC
  0
SECTION
  2
TABLES
  0
TABLE
  2
VPORT
  5
8
330
0
100
AcDbSymbolTable
 70
     1
  0
VPORT
  5
29
330
8
100
AcDbSymbolTableRecord
100
AcDbViewportTableRecord
  2
*Active
 70
     0
 10
0.0
 20
0.0
 11
1.0
 21
1.0
 12
215.9
 22
139.7
 13
0.0
 23
0.0
 14
10.0
 24
10.0
 15
10.0
 25
10.0
 16
0.0
 26
0.0
 36
1.0
 17
0.0
 27
0.0
 37
0.0
 40
279.4
 41
1.5454545455
 42
50.0
 43
0.0
 44
0.0
 50
0.0
 51
0.0
 71
     0
 72
  2000
 73
     1
 74
     3
 75
     0
 76
     0
 77
     0
 78
     0
281
     0
 65
     1
110
0.0
120
0.0
130
0.0
111
1.0
121
0.0
131
0.0
112
0.0
122
1.0
132
0.0
 79
     0
146
0.0
  0
ENDTAB
  0
TABLE
  2
LTYPE
  5
5
330
0
100
AcDbSymbolTable
 70
     8
  0
LTYPE
  5
14
330
5
100
AcDbSymbolTableRecord
100
AcDbLinetypeTableRecord
  2
ByBlock
 70
     0
  3

 72
    65
 73
     0
 40
0.0
  0
LTYPE
  5
15
330
5
100
AcDbSymbolTableRecord
100
AcDbLinetypeTableRecord
  2
ByLayer
 70
     0
  3

 72
    65
 73
     0
 40
0.0
  0
LTYPE
  5
16
330
5
100
AcDbSymbolTableRecord
100
AcDbLinetypeTableRecord
  2
Continuous
 70
     0
  3
Solid line
 72
    65
 73
     0
 40
0.0
  0
LTYPE
  5
5E
330
5
100
AcDbSymbolTableRecord
100
AcDbLinetypeTableRecord
  2
SLD-Сплошная
 70
     0
  3
SolidWorks Line Style
 72
    65
 73
     0
 40
0.0
  0
LTYPE
  5
5F
330
5
100
AcDbSymbolTableRecord
100
AcDbLinetypeTableRecord
  2
SLD-Штриховая
 70
     0
  3
SolidWorks Line Style
 72
    65
 73
     2
 40
1.905
 49
1.27
 74
     0
 49
-0.635
 74
     0
  0
LTYPE
  5
60
330
5
100
AcDbSymbolTableRecord
100
AcDbLinetypeTableRecord
  2
SLD-Штрихпункт.-с-двумя-точками
 70
     0
  3
SolidWorks Line Style
 72
    65
 73
     6
 40
12.7
 49
6.35
 74
     0
 49
-1.27
 74
     0
 49
1.27
 74
     0
 49
-1.27
 74
     0
 49
1.27
 74
     0
 49
-1.27
 74
     0
  0
LTYPE
  5
61
330
5
100
AcDbSymbolTableRecord
100
AcDbLinetypeTableRecord
  2
SLD-Штрихпункт.-утолщ.
 70
     0
  3
SolidWorks Line Style
 72
    65
 73
     4
 40
10.16
 49
6.35
 74
     0
 49
-1.27
 74
     0
 49
1.27
 74
     0
 49
-1.27
 74
     0
  0
LTYPE
  5
62
330
5
100
AcDbSymbolTableRecord
100
AcDbLinetypeTableRecord
  2
SLD-Осевая
 70
     0
  3
SolidWorks Line Style
 72
    65
 73
     4
 40
19.05
 49
15.24
 74
     0
 49
-1.27
 74
     0
 49
1.27
 74
     0
 49
-1.27
 74
     0
  0
LTYPE
  5
63
330
5
100
AcDbSymbolTableRecord
100
AcDbLinetypeTableRecord
  2
SLD-Сшитая
 70
     0
  3
SolidWorks Line Style
 72
    65
 73
     2
 40
0.635
 49
0.0
 74
     0
 49
-0.635
 74
     0
  0
LTYPE
  5
64
330
5
100
AcDbSymbolTableRecord
100
AcDbLinetypeTableRecord
  2
SLD-Тонкая-Толстая
 70
     0
  3
SolidWorks Line Style
 72
    65
 73
     2
 40
5.080508
 49
0.000508
 74
     0
 49
-5.08
 74
     0
  0
ENDTAB
  0
TABLE
  2
LAYER
  5
2
330
0
100
AcDbSymbolTable
 70
     3
  0
LAYER
  5
10
330
2
100
AcDbSymbolTableRecord
100
AcDbLayerTableRecord
  2
0
 70
     0
 62
     7
  6
Continuous
370
    -3
390
F
  0
LAYER
  5
65
330
2
100
AcDbSymbolTableRecord
100
AcDbLayerTableRecord
  2
ВОДЯНОЙ_ЗНАК
 70
     0
 62
    11
  6
SLD-Сплошная
370
    -3
390
F
  0
LAYER
  5
66
330
2
100
AcDbSymbolTableRecord
100
AcDbLayerTableRecord
  2
ОСНОВНОЙ
 70
     0
 62
     7
  6
SLD-Сплошная
370
    -3
390
F
  0
ENDTAB
  0
TABLE
  2
STYLE
  5
3
330
0
100
AcDbSymbolTable
 70
     1
  0
STYLE
  5
11
330
3
100
AcDbSymbolTableRecord
100
AcDbTextStyleTableRecord
  2
STANDARD
 70
     0
 40
0.0
 41
1.0
 50
0.0
 71
     0
 42
3.5
  3
GOST-TYPE-A.TTF
  4

1001
ACAD
1000
GOST TYPE A
1071
 16777250
  0
ENDTAB
  0
TABLE
  2
VIEW
  5
6
330
0
100
AcDbSymbolTable
 70
     0
  0
ENDTAB
  0
TABLE
  2
UCS
  5
7
330
0
100
AcDbSymbolTable
 70
     0
  0
ENDTAB
  0
TABLE
  2
APPID
  5
9
330
0
100
AcDbSymbolTable
 70
     1
  0
APPID
  5
12
330
9
100
AcDbSymbolTableRecord
100
AcDbRegAppTableRecord
  2
ACAD
 70
     0
  0
ENDTAB
  0
TABLE
  2
DIMSTYLE
  5
A
330
0
100
AcDbSymbolTable
 70
     1
100
AcDbDimStyleTable
  0
DIMSTYLE
105
27
330
A
100
AcDbSymbolTableRecord
100
AcDbDimStyleTableRecord
  2
ISO-25
 70
     0
 41
2.5
 42
0.625
 43
3.75
 44
1.25
 73
     0
 74
     0
 77
     1
 78
     8
140
2.5
141
2.5
143
0.0393700787
147
0.625
171
     3
172
     1
178
     0
271
     2
272
     2
274
     3
278
    44
283
     0
284
     8
340
11
  0
ENDTAB
  0
TABLE
  2
BLOCK_RECORD
  5
1
330
0
100
AcDbSymbolTable
 70
     1
  0
BLOCK_RECORD
  5
1F
330
1
100
AcDbSymbolTableRecord
100
AcDbBlockTableRecord
  2
*Model_Space
340
22
  0
BLOCK_RECORD
  5
1B
330
1
100
AcDbSymbolTableRecord
100
AcDbBlockTableRecord
  2
*Paper_Space
340
1E
  0
BLOCK_RECORD
  5
23
330
1
100
AcDbSymbolTableRecord
100
AcDbBlockTableRecord
  2
*Paper_Space0
340
26
  0
ENDTAB
  0
ENDSEC
  0
SECTION
  2
BLOCKS
  0
BLOCK
  5
20
330
1F
100
AcDbEntity
  8
0
100
AcDbBlockBegin
  2
*Model_Space
 70
     0
 10
0.0
 20
0.0
 30
0.0
  3
*Model_Space
  1

  0
ENDBLK
  5
21
330
1F
100
AcDbEntity
  8
0
100
AcDbBlockEnd
  0
BLOCK
  5
1C
330
1B
100
AcDbEntity
 67
     1
  8
0
100
AcDbBlockBegin
  2
*Paper_Space
 70
     0
 10
0.0
 20
0.0
 30
0.0
  3
*Paper_Space
  1

  0
ENDBLK
  5
1D
330
1B
100
AcDbEntity
 67
     1
  8
0
100
AcDbBlockEnd
  0
BLOCK
  5
24
330
23
100
AcDbEntity
  8
0
100
AcDbBlockBegin
  2
*Paper_Space0
 70
     0
 10
0.0
 20
0.0
 30
0.0
  3
*Paper_Space0
  1

  0
ENDBLK
  5
25
330
23
100
AcDbEntity
  8
0
100
AcDbBlockEnd
  0
ENDSEC
  0
SECTION
  2
ENTITIES
  0
LINE
  5
67
330
1F
100
AcDbEntity
  8
0
  6
SLD-Сплошная
 62
     7
370
    25
100
AcDbLine
 10
202.9583393125
 20
200.15808894
 30
0.0
 11
199.0946360074
 21
201.1933651204
 31
0.0
  0
LINE
  5
68
330
1F
100
AcDbEntity
  8
0
  6
SLD-Сплошная
 62
     7
370
    25
100
AcDbLine
 10
289.7753434664
 20
160.7311639347
 30
0.0
 11
289.780026759
 21
160.78336245
 31
0.0
  0
SPLINE
  5
69
330
1F
100
AcDbEntity
  8
0
  6
SLD-Сплошная
 62
     7
370
    25
100
AcDbSpline
210
0.0
220
0.0
230
1.0
 70
     8
 71
     3
 72
    13
 73
     9
 74
     0
 42
0.00000001
 43
0.00000001
 40
0.0
 40
0.0
 40
0.0
 40
0.0
 40
0.1652109362469285
 40
0.3038552155354738
 40
0.4999732069754965
 40
0.6961460105480851
 40
0.8347311856066586
 40
1.0
 40
1.0
 40
1.0
 40
1.0
 10
289.7798102556206
 20
160.7861463260867
 30
0.0
 10
289.7097047190322
 20
161.1829150035306
 30
0.0
 10
289.5807669294753
 20
161.9126501817287
 30
0.0
 10
288.9386484696524
 20
162.9620492254784
 30
0.0
 10
287.9449590188509
 20
163.8203603059463
 30
0.0
 10
286.7001906714559
 20
164.2391391341219
 30
0.0
 10
285.4699449174639
 20
164.2551219841963
 30
0.0
 10
284.7763218906079
 20
163.9945430489501
 30
0.0
 10
284.3990543237375
 20
163.8528119110385
 30
0.0
  0
ARC
  5
6A
330
1F
100
AcDbEntity
  8
0
  6
SLD-Сплошная
 62
     7
370
    25
100
AcDbCircle
 10
117.5881713807
 20
-118.4477152323
 30
0.0
 40
328.045
100
AcDbArc
 50
68.7867991876
 51
74.947602505
  0
ARC
  5
6B
330
1F
100
AcDbEntity
  8
0
  6
SLD-Сплошная
 62
     7
370
    25
100
AcDbCircle
 10
117.5881713807
 20
-118.4477152323
 30
0.0
 40
328.045
100
AcDbArc
 50
59.4002710003
 51
66.2682570776
  0
ARC
  5
6C
330
1F
100
AcDbEntity
  8
0
  6
SLD-Сплошная
 62
     7
370
    25
100
AcDbCircle
 10
117.5881713807
 20
-118.4477152323
 30
0.0
 40
328.045
100
AcDbArc
 50
58.1024179917
 51
58.3366103582
  0
LINE
  5
6D
330
1F
100
AcDbEntity
  8
0
  6
SLD-Сплошная
 62
     7
370
    25
100
AcDbLine
 10
202.2257818323
 20
196.2650362126
 30
0.0
 11
201.9360040844
 21
196.3426819262
 31
0.0
  0
LINE
  5
6E
330
1F
100
AcDbEntity
  8
0
  6
SLD-Сплошная
 62
     7
370
    25
100
AcDbLine
 10
177.8197105
 20
121.7942621994
 30
0.0
 11
181.6834138051
 21
120.758986019
 31
0.0
  0
LINE
  5
6F
330
1F
100
AcDbEntity
  8
0
  6
SLD-Сплошная
 62
     7
370
    25
100
AcDbLine
 10
134.8305032264
 20
139.4730788451
 30
0.0
 11
179.3596838183
 21
127.5415208659
 31
0.0
  0
LINE
  5
70
330
1F
100
AcDbEntity
  8
0
  6
SLD-Сплошная
 62
     7
370
    25
100
AcDbLine
 10
197.606426498
 20
195.6392916192
 30
0.0
 11
197.2711630833
 21
195.7291251805
 31
0.0
  0
ARC
  5
71
330
1F
100
AcDbEntity
  8
0
  6
SLD-Сплошная
 62
     7
370
    25
100
AcDbCircle
 10
280.0117111911
 20
140.3782605516
 30
0.0
 40
150.0000000000001
100
AcDbArc
 50
152.662684676
 51
180.6841030833
  0
LINE
  5
72
330
1F
100
AcDbEntity
  8
0
  6
SLD-Сплошная
 62
     7
370
    25
100
AcDbLine
 10
171.2626857636
 20
112.6957973015
 30
0.0
 11
284.9266730281
 21
112.6957973015
 31
0.0
  0
LINE
  5
73
330
1F
100
AcDbEntity
  8
0
  6
SLD-Сплошная
 62
     7
370
    25
100
AcDbLine
 10
173.1383301106
 20
119.6957973015
 30
0.0
 11
284.9266730281
 21
119.6957973015
 31
0.0
  0
SPLINE
  5
74
330
1F
100
AcDbEntity
  8
0
  6
SLD-Сплошная
 62
     7
370
    25
100
AcDbSpline
210
0.0
220
0.0
230
1.0
 70
    24
 71
     3
 72
    22
 73
    18
 74
     0
 42
0.00000001
 43
0.00000001
 40
0.0
 40
0.0
 40
0.0
 40
0.0
 40
0.1250000000000002
 40
0.1250000000000002
 40
0.2500000000000004
 40
0.2500000000000004
 40
0.3750000000000006
 40
0.3750000000000006
 40
0.5000000000000008
 40
0.5000000000000008
 40
0.625000000000001
 40
0.625000000000001
 40
0.7500000000000011
 40
0.7500000000000011
 40
0.8750000000000006
 40
0.8750000000000006
 40
1.0
 40
1.0
 40
1.0
 40
1.0
 10
171.2626857635611
 20
112.6957973015297
 30
0.0
 10
170.8966603597767
 20
112.6957973015297
 30
0.0
 10
170.5169469002141
 20
112.6957973015297
 30
0.0
 10
169.7478404603841
 20
112.6957973015297
 30
0.0
 10
169.3585256757356
 20
112.6957973015297
 30
0.0
 10
168.5938896320543
 20
112.6957973015297
 30
0.0
 10
168.2187233601992
 20
112.6957973015297
 30
0.0
 10
167.5084894865106
 20
112.6957973015296
 30
0.0
 10
167.1736062909891
 20
112.6957973015296
 30
0.0
 10
166.5671555453067
 20
112.6957973015296
 30
0.0
 10
166.2957245220567
 20
112.6957973015296
 30
0.0
 10
165.8313888145676
 20
112.6957973015296
 30
0.0
 10
165.6385158965298
 20
112.6957973015296
 30
0.0
 10
165.3358034596259
 20
112.6957973015296
 30
0.0
 10
165.2258925172057
 20
112.6957973015296
 30
0.0
 10
165.0835674980241
 20
112.6957973015296
 30
0.0
 10
165.0510286811007
 20
112.6957973015296
 30
0.0
 10
165.0510286811006
 20
112.6957973015296
 30
0.0
  0
LINE
  5
75
330
1F
100
AcDbEntity
  8
0
  6
SLD-Сплошная
 62
     7
370
    25
100
AcDbLine
 10
165.0510286811
 20
112.6957973015
 30
0.0
 11
166.9266730281
 21
119.6957973015
 31
0.0
  0
SPLINE
  5
76
330
1F
100
AcDbEntity
  8
0
  6
SLD-Сплошная
 62
     7
370
    25
100
AcDbSpline
210
0.0
220
0.0
230
1.0
 70
    24
 71
     3
 72
    22
 73
    18
 74
     0
 42
0.00000001
 43
0.00000001
 40
0.0
 40
0.0
 40
0.0
 40
0.0
 40
0.125
 40
0.125
 40
0.25
 40
0.25
 40
0.375
 40
0.375
 40
0.5
 40
0.5
 40
0.625
 40
0.625
 40
0.75
 40
0.75
 40
0.875
 40
0.875
 40
1.0
 40
1.0
 40
1.0
 40
1.0
 10
166.9266730281184
 20
119.6957973015297
 30
0.0
 10
166.9266730281184
 20
119.6957973015297
 30
0.0
 10
166.9592118450418
 20
119.6957973015296
 30
0.0
 10
167.1015368642235
 20
119.6957973015296
 30
0.0
 10
167.2114478066436
 20
119.6957973015296
 30
0.0
 10
167.5141602435476
 20
119.6957973015296
 30
0.0
 10
167.7070331615854
 20
119.6957973015296
 30
0.0
 10
168.1713688690745
 20
119.6957973015296
 30
0.0
 10
168.4427998923245
 20
119.6957973015296
 30
0.0
 10
169.0492506380069
 20
119.6957973015296
 30
0.0
 10
169.3841338335283
 20
119.6957973015296
 30
0.0
 10
170.094367707217
 20
119.6957973015296
 30
0.0
 10
170.4695339790721
 20
119.6957973015296
 30
0.0
 10
171.2341700227533
 20
119.6957973015296
 30
0.0
 10
171.6234848074019
 20
119.6957973015296
 30
0.0
 10
172.3925912472319
 20
119.6957973015297
 30
0.0
 10
172.7723047067945
 20
119.6957973015296
 30
0.0
 10
173.1383301105789
 20
119.6957973015297
 30
0.0
  0
LINE
  5
77
330
1F
100
AcDbEntity
  8
0
  6
SLD-Сплошная
 62
     7
370
    25
100
AcDbLine
 10
290.9266730281
 20
119.6957973015
 30
0.0
 11
290.9266730281
 21
112.6957973015
 31
0.0
  0
LINE
  5
78
330
1F
100
AcDbEntity
  8
0
  6
SLD-Сплошная
 62
     7
370
    25
100
AcDbLine
 10
290.9266730281
 20
112.6957973015
 30
0.0
 11
284.9266730281
 21
112.6957973015
 31
0.0
  0
LINE
  5
79
330
1F
100
AcDbEntity
  8
0
  6
SLD-Сплошная
 62
     7
370
    25
100
AcDbLine
 10
284.9266730281
 20
119.6957973015
 30
0.0
 11
290.9266730281
 21
119.6957973015
 31
0.0
  0
LINE
  5
7A
330
1F
100
AcDbEntity
  8
0
  6
SLD-Сплошная
 62
     7
370
    25
100
AcDbLine
 10
202.9583393125
 20
200.15808894
 30
0.0
 11
190.1919285062
 21
152.5131951805
 31
0.0
  0
LINE
  5
7B
330
1F
100
AcDbEntity
  8
0
  6
SLD-Сплошная
 62
     7
370
    25
100
AcDbLine
 10
179.8199171716
 20
129.2591351236
 30
0.0
 11
183.6836204768
 21
128.2238589432
 31
0.0
  0
LINE
  5
7C
330
1F
100
AcDbEntity
  8
0
  6
SLD-Сплошная
 62
     7
370
    25
100
AcDbLine
 10
199.0946360074
 20
201.1933651204
 30
0.0
 11
179.8199171716
 21
129.2591351236
 31
0.0
  0
SPLINE
  5
7D
330
1F
100
AcDbEntity
  8
0
  6
SLD-Сплошная
 62
     7
370
    25
100
AcDbSpline
210
0.0
220
0.0
230
1.0
 70
     8
 71
     3
 72
    29
 73
    25
 74
     0
 42
0.00000001
 43
0.00000001
 40
0.0
 40
0.0
 40
0.0
 40
0.0
 40
0.0386106812137526
 40
0.0771714463511084
 40
0.1156886998347438
 40
0.1541688678127185
 40
0.1926183950274399
 40
0.231043741638489
 40
0.2694513800068179
 40
0.3078477914483218
 40
0.3462394629647325
 40
0.38463288396019
 40
0.4230345429517831
 40
0.4614509242822344
 40
0.499888504843207
 40
0.5623778619135434
 40
0.6249944481806136
 40
0.690647101667379
 40
0.749920590733938
 40
0.7999864111225014
 40
0.8499883429832212
 40
0.8999652855058781
 40
0.9499561962122177
 40
1.0
 40
1.0
 40
1.0
 40
1.0
 10
188.8821008983752
 20
147.6248519988826
 30
0.0
 10
189.0663232170691
 20
147.8248071650484
 30
0.0
 10
189.4345296909475
 20
148.224458994369
 30
0.0
 10
189.9962255420604
 20
148.8145171124997
 30
0.0
 10
190.5642976081149
 20
149.3971322899803
 30
0.0
 10
191.1394463553734
 20
149.9716634604401
 30
0.0
 10
191.7214834382409
 20
150.5382822913016
 30
0.0
 10
192.310458189736
 20
151.0969430474138
 30
0.0
 10
192.9063562224765
 20
151.6476582050749
 30
0.0
 10
193.5091801043524
 20
152.190424681748
 30
0.0
 10
194.1189276724184
 20
152.7252436378235
 30
0.0
 10
194.7355981525032
 20
153.2521149779291
 30
0.0
 10
195.3591893248459
 20
153.7710395665631
 30
0.0
 10
195.9897027197446
 20
154.2820158689696
 30
0.0
 10
196.7599180693494
 20
154.8898470547176
 30
0.0
 10
197.6759710568532
 20
155.5877523875182
 30
0.0
 10
198.7612005553679
 20
156.3792554471874
 30
0.0
 10
199.8448687539339
 20
157.1339863884581
 30
0.0
 10
200.8769176194199
 20
157.8073004938481
 30
0.0
 10
201.8363516116369
 20
158.3888840056948
 30
0.0
 10
202.7542259383551
 20
158.911912958798
 30
0.0
 10
203.6861383245011
 20
159.4081885998623
 30
0.0
 10
204.6308664625284
 20
159.8803568724934
 30
0.0
 10
205.2714305466399
 20
160.1727298943879
 30
0.0
 10
205.5918819369486
 20
160.3189937010527
 30
0.0
  0
SPLINE
  5
7E
330
1F
100
AcDbEntity
  8
0
  6
SLD-Сплошная
 62
     7
370
    25
100
AcDbSpline
210
0.0
220
0.0
230
1.0
 70
     8
 71
     3
 72
    24
 73
    20
 74
     0
 42
0.00000001
 43
0.00000001
 40
0.0
 40
0.0
 40
0.0
 40
0.0
 40
0.0564507739944187
 40
0.111485269992764
 40
0.1650944406812606
 40
0.2172705820840435
 40
0.2679970310846231
 40
0.317254799185105
 40
0.3650366303091557
 40
0.4113343659376196
 40
0.4561394702921778
 40
0.4994435640376992
 40
0.5815231752208305
 40
0.6600491898031788
 40
0.7350128623874018
 40
0.8064269091135003
 40
0.8743363728732674
 40
0.9388316054048684
 40
0.9999999999999999
 40
0.9999999999999999
 40
0.9999999999999999
 40
0.9999999999999999
 10
211.6596982707685
 20
158.6931272145869
 30
0.0
 10
211.5420941142424
 20
158.7246636502622
 30
0.0
 10
211.3098363396389
 20
158.7869453126221
 30
0.0
 10
210.9645064222206
 20
158.879751213717
 30
0.0
 10
210.6273795321059
 20
158.9703744634706
 30
0.0
 10
210.2986943062144
 20
159.0587546534188
 30
0.0
 10
209.9788168101712
 20
159.1446453255064
 30
0.0
 10
209.6680716306094
 20
159.2278132858618
 30
0.0
 10
209.3668103645242
 20
159.3082754135436
 30
0.0
 10
209.075331636337
 20
159.3860343690546
 30
0.0
 10
208.7939144842636
 20
159.4611115886831
 30
0.0
 10
208.4388089668912
 20
159.5561041855078
 30
0.0
 10
208.0159156882976
 20
159.6695264515163
 30
0.0
 10
207.5332087550399
 20
159.7989214530322
 30
0.0
 10
207.0800856691295
 20
159.9203847948196
 30
0.0
 10
206.657933344977
 20
160.0335099073948
 30
0.0
 10
206.2688887078061
 20
160.1377499163693
 30
0.0
 10
205.9123628958672
 20
160.2332783023379
 30
0.0
 10
205.6968067007801
 20
160.2909306673008
 30
0.0
 10
205.5918819369484
 20
160.3189937010523
 30
0.0
  0
SPLINE
  5
7F
330
1F
100
AcDbEntity
  8
0
  6
SLD-Сплошная
 62
     7
370
    25
100
AcDbSpline
210
0.0
220
0.0
230
1.0
 70
     8
 71
     3
 72
    12
 73
     8
 74
     0
 42
0.00000001
 43
0.00000001
 40
0.0
 40
0.0
 40
0.0
 40
0.0
 40
0.221121136983869
 40
0.4317745711122843
 40
0.631866425900564
 40
0.821304580649564
 40
0.9999999999999999
 40
0.9999999999999999
 40
0.9999999999999999
 40
0.9999999999999999
 10
213.1948008160974
 20
158.281797727267
 30
0.0
 10
213.0827880034469
 20
158.3118272529856
 30
0.0
 10
212.8640649776841
 20
158.3704647300024
 30
0.0
 10
212.5417827369827
 20
158.4569060039987
 30
0.0
 10
212.2343284449628
 20
158.5392854336574
 30
0.0
 10
211.9420946445745
 20
158.617503290739
 30
0.0
 10
211.7519811216136
 20
158.6684144635317
 30
0.0
 10
211.6596982707685
 20
158.6931272145869
 30
0.0
  0
SPLINE
  5
80
330
1F
100
AcDbEntity
  8
0
  6
SLD-Сплошная
 62
     7
370
    25
100
AcDbSpline
210
0.0
220
0.0
230
1.0
 70
     8
 71
     3
 72
    15
 73
    11
 74
     0
 42
0.00000001
 43
0.00000001
 40
0.0
 40
0.0
 40
0.0
 40
0.0
 40
0.0786357998245216
 40
0.1620913677835652
 40
0.2504296801827517
 40
0.3635446419240215
 40
0.4996824897563298
 40
0.7494675270153913
 40
0.8961127519955123
 40
1.0
 40
1.0
 40
1.0
 40
1.0
 10
216.589646777613
 20
157.3721514934441
 30
0.0
 10
216.5067384692721
 20
157.3943763764485
 30
0.0
 10
216.3358402126309
 20
157.4401883563999
 30
0.0
 10
216.0659800728843
 20
157.5126061366179
 30
0.0
 10
215.7545297676364
 20
157.5961231510927
 30
0.0
 10
215.379226262926
 20
157.6964696411019
 30
0.0
 10
214.8154115892861
 20
157.8475598628175
 30
0.0
 10
214.200758093238
 20
158.0122765457557
 30
0.0
 10
213.6145480566534
 20
158.1694690601801
 30
0.0
 10
213.3178368186007
 20
158.248872030968
 30
0.0
 10
213.1948008160974
 20
158.281797727267
 30
0.0
  0
SPLINE
  5
81
330
1F
100
AcDbEntity
  8
0
  6
SLD-Сплошная
 62
     7
370
    25
100
AcDbSpline
210
0.0
220
0.0
230
1.0
 70
     8
 71
     3
 72
    34
 73
    30
 74
     0
 42
0.00000001
 43
0.00000001
 40
0.0
 40
0.0
 40
0.0
 40
0.0
 40
0.0139471059362247
 40
0.0278738599525203
 40
0.0417849909295224
 40
0.0556852436928369
 40
0.0695793742127694
 40
0.0834721447472128
 40
0.0973683189523117
 40
0.1112726569859134
 40
0.1251899106290132
 40
0.1877623041837546
 40
0.25034791049137
 40
0.2816625874549787
 40
0.3129689820548953
 40
0.3442530100588652
 40
0.3590292868443468
 40
0.3754881528925985
 40
0.4380041455264068
 40
0.5004826089374842
 40
0.5629031954874109
 40
0.6254759746734977
 40
0.6880626510639639
 40
0.7505159307659964
 40
0.8127986039638609
 40
0.8752151278192628
 40
0.889104593093954
 40
0.9306995508756296
 40
1.0
 40
1.0
 40
1.0
 40
1.0
 10
216.5896467776137
 20
157.3721514934492
 30
0.0
 10
216.3947490093013
 20
157.3435989007304
 30
0.0
 10
216.0052378717335
 20
157.2865353798563
 30
0.0
 10
215.4233489993748
 20
157.1873896128568
 30
0.0
 10
214.8438482266608
 20
157.0784079172871
 30
0.0
 10
214.2668686181966
 20
156.9586152162789
 30
0.0
 10
213.6923787737622
 20
156.828271471938
 30
0.0
 10
213.1203905049043
 20
156.6873058532332
 30
0.0
 10
212.5509064488888
 20
156.5357375640365
 30
0.0
 10
211.9839221922805
 20
156.3735564083207
 30
0.0
 10
210.762003007517
 20
155.9995321428045
 30
0.0
 10
208.9107024454552
 20
155.3287034659745
 30
0.0
 10
206.8976950462855
 20
154.4022403587586
 30
0.0
 10
205.3372486641188
 20
153.5630849601102
 30
0.0
 10
204.1937502887855
 20
152.885764625467
 30
0.0
 10
203.275691963085
 20
152.2887724826752
 30
0.0
 10
202.5488160752142
 20
151.7843953387113
 30
0.0
 10
201.4678646950826
 20
151.0151747023453
 30
0.0
 10
199.8699014991126
 20
149.8080012396235
 30
0.0
 10
197.8307143830388
 20
148.1101581261123
 30
0.0
 10
195.8723979550723
 20
146.3182255847153
 30
0.0
 10
193.9988848491835
 20
144.4355455096199
 30
0.0
 10
192.2142805122125
 20
142.467657316053
 30
0.0
 10
190.5268766193473
 20
140.4211164450975
 30
0.0
 10
188.9376108667474
 20
138.3003761727393
 30
0.0
 10
187.8388566232569
 20
136.6743283190655
 30
0.0
 10
186.9374656410792
 20
135.2698188149336
 30
0.0
 10
185.9799886906
 20
133.785498594916
 30
0.0
 10
185.1302338609885
 20
132.465663606906
 30
0.0
 10
184.5992074372561
 20
131.640875998555
 30
0.0
  0
SPLINE
  5
82
330
1F
100
AcDbEntity
  8
0
  6
SLD-Сплошная
 62
     7
370
    25
100
AcDbSpline
210
0.0
220
0.0
230
1.0
 70
     8
 71
     3
 72
    36
 73
    32
 74
     0
 42
0.00000001
 43
0.00000001
 40
0.0
 40
0.0
 40
0.0
 40
0.0
 40
0.0141581473200879
 40
0.0288682063022385
 40
0.0441393177761856
 40
0.0599762153697216
 40
0.0763826665959787
 40
0.0933643498282871
 40
0.1109256737167831
 40
0.1290699644103278
 40
0.1477996317063549
 40
0.1671163172034646
 40
0.1870210272162161
 40
0.2075142528810558
 40
0.2285960795627315
 40
0.2502662873755513
 40
0.3065175777631591
 40
0.3669110099519161
 40
0.4314314783086859
 40
0.5000608205824046
 40
0.5608689895948693
 40
0.6248814318986113
 40
0.6560730712166425
 40
0.6872709529821365
 40
0.7497146255510055
 40
0.8159194893183558
 40
0.8749183224088214
 40
0.9095426687836593
 40
0.9419198723200576
 40
0.9720656009573393
 40
1.0
 40
1.0
 40
1.0
 40
1.0
 10
188.8821008983738
 20
147.6248519988829
 30
0.0
 10
188.8641820331876
 20
147.5580333708023
 30
0.0
 10
188.8276457911779
 20
147.4217913967182
 30
0.0
 10
188.770177390155
 20
147.2078561162762
 30
0.0
 10
188.7096440774582
 20
146.9821894224161
 30
0.0
 10
188.6459484507774
 20
146.7443904454488
 30
0.0
 10
188.579081660174
 20
146.4947521123928
 30
0.0
 10
188.5090852929378
 20
146.2333832104756
 30
0.0
 10
188.4359844037676
 20
145.9604242535565
 30
0.0
 10
188.359810684779
 20
145.6760038419932
 30
0.0
 10
188.2805966602885
 20
145.3802554691213
 30
0.0
 10
188.1983769572659
 20
145.0733124581396
 30
0.0
 10
188.1131867754206
 20
144.7553090053038
 30
0.0
 10
188.0250642158464
 20
144.4263795649784
 30
0.0
 10
187.9340394788518
 20
144.0866583152638
 30
0.0
 10
187.7910936418602
 20
143.5530708497691
 30
0.0
 10
187.5900780782439
 20
142.8038578989774
 30
0.0
 10
187.3256690418295
 20
141.8185170768669
 30
0.0
 10
187.0432555322408
 20
140.7635780288456
 30
0.0
 10
186.7604626751927
 20
139.7062074280074
 30
0.0
 10
186.4779061284783
 20
138.6532459517337
 30
0.0
 10
186.2510814138576
 20
137.8055645730909
 30
0.0
 10
186.0673414796625
 20
137.1201698102508
 30
0.0
 10
185.8863521872564
 20
136.4441454079947
 30
0.0
 10
185.6549079703566
 20
135.581040575675
 30
0.0
 10
185.3850480238645
 20
134.5733116710774
 30
0.0
 10
185.156764968354
 20
133.721857625223
 30
0.0
 10
184.9786102797167
 20
133.0566101497434
 30
0.0
 10
184.8425652161872
 20
132.5482256981919
 30
0.0
 10
184.7167811007242
 20
132.0792903028432
 30
0.0
 10
184.6373910994494
 20
131.7832570659016
 30
0.0
 10
184.5992074372538
 20
131.6408759985564
 30
0.0
  0
SPLINE
  5
83
330
1F
100
AcDbEntity
  8
0
  6
SLD-Сплошная
 62
     7
370
    25
100
AcDbSpline
210
0.0
220
0.0
230
1.0
 70
     8
 71
     3
 72
    51
 73
    47
 74
     0
 42
0.00000001
 43
0.00000001
 40
0.0
 40
0.0
 40
0.0
 40
0.0
 40
0.0350130321974477
 40
0.0698644145517188
 40
0.0777300005094277
 40
0.0855787420449606
 40
0.0934157508519777
 40
0.1012393430051324
 40
0.1090639103527334
 40
0.1168763161755724
 40
0.1247012831057083
 40
0.1348256994497518
 40
0.1449204509774749
 40
0.1549856987357693
 40
0.165021602772778
 40
0.1750283219735233
 40
0.1850060138982005
 40
0.1949548346232634
 40
0.2491624836886511
 40
0.3332127767130952
 40
0.4166005350365042
 40
0.4981312393358838
 40
0.5292594070924225
 40
0.5603920048487383
 40
0.5915806310542663
 40
0.6227196221420331
 40
0.6540077687037184
 40
0.6851833746258972
 40
0.7164033305022909
 40
0.7476675554418304
 40
0.7788027440493611
 40
0.8100862829542964
 40
0.8162225376523893
 40
0.8224647134177387
 40
0.8284531232024354
 40
0.834730507873586
 40
0.8411646388034472
 40
0.8491615765476066
 40
0.8570359075228126
 40
0.8647872383831285
 40
0.8724151927673351
 40
0.9036490545415609
 40
0.9345116305800071
 40
0.9654425218087538
 40
0.9966275016662457
 40
1.0
 40
1.0
 40
1.0
 40
1.0
 10
216.5883299872503
 20
157.3725043263673
 30
0.0
 10
217.7507357949146
 20
157.5194321745114
 30
0.0
 10
220.0701807594643
 20
157.8126095272766
 30
0.0
 10
222.672039837216
 20
157.7624912098561
 30
0.0
 10
224.352122670251
 20
157.625867472791
 30
0.0
 10
225.1327176155249
 20
157.5413940518881
 30
0.0
 10
225.9093300826734
 20
157.4372081816879
 30
0.0
 10
226.6820997350686
 20
157.3130924133793
 30
0.0
 10
227.4506006639285
 20
157.1696033216014
 30
0.0
 10
228.2149595237753
 20
157.0057464541874
 30
0.0
 10
229.0520755099101
 20
156.8170133803975
 30
0.0
 10
229.9630848541511
 20
156.611696106491
 30
0.0
 10
230.9453267944722
 20
156.3846925838667
 30
0.0
 10
231.9234563595255
 20
156.1545530002859
 30
0.0
 10
232.8973912114306
 20
155.9209221267879
 30
0.0
 10
233.8671569808869
 20
155.6839406220675
 30
0.0
 10
234.8327531773917
 20
155.4436212016968
 30
0.0
 10
237.2207819446237
 20
154.8385184848104
 30
0.0
 10
241.9728690882577
 20
153.5655371544295
 30
0.0
 10
249.0016620688543
 20
151.4585465708701
 30
0.0
 10
256.7791006080163
 20
148.8279558339565
 30
0.0
 10
262.7881544539756
 20
146.5242753673954
 30
0.0
 10
267.1543427698271
 20
144.7853141239677
 30
0.0
 10
269.923908949969
 20
143.4990747131722
 30
0.0
 10
272.899456059768
 20
142.7769069260763
 30
0.0
 10
275.9590011994629
 20
142.754184761315
 30
0.0
 10
278.9369707544292
 20
143.3918402507391
 30
0.0
 10
281.689485159176
 20
144.6274158603325
 30
0.0
 10
284.0830058493669
 20
146.3573825503121
 30
0.0
 10
286.0229397631113
 20
148.4372279629679
 30
0.0
 10
287.4604830062577
 20
150.7083649143128
 30
0.0
 10
288.1470723405542
 20
152.3972019461637
 30
0.0
 10
288.4533625006137
 20
153.4468580959371
 30
0.0
 10
288.5650876810964
 20
153.8843018183128
 30
0.0
 10
288.660730222351
 20
154.3202926899846
 30
0.0
 10
288.7404387692115
 20
154.7553947408037
 30
0.0
 10
288.8203996346812
 20
155.2254311756438
 30
0.0
 10
288.905171709076
 20
155.712686999419
 30
0.0
 10
288.990547771683
 20
156.2070597507805
 30
0.0
 10
289.0709474053904
 20
156.6717194982419
 30
0.0
 10
289.224424066736
 20
157.5587733728029
 30
0.0
 10
289.4246626519989
 20
158.711936034554
 30
0.0
 10
289.6232038804964
 20
159.8607007010827
 30
0.0
 10
289.7411577288593
 20
160.5408221633715
 30
0.0
 10
289.7905992803035
 20
160.8264995395542
 30
0.0
 10
289.7785582278494
 20
160.7568157896654
 30
0.0
 10
289.7773831296807
 20
160.7500152838794
 30
0.0
  0
SPLINE
  5
84
330
1F
100
AcDbEntity
  8
0
  6
SLD-Сплошная
 62
     7
370
    25
100
AcDbSpline
210
0.0
220
0.0
230
1.0
 70
     8
 71
     3
 72
    43
 73
    39
 74
     0
 42
0.00000001
 43
0.00000001
 40
0.0
 40
0.0
 40
0.0
 40
0.0
 40
0.0188013349303078
 40
0.0491012957930244
 40
0.0808985403931691
 40
0.1122015961128503
 40
0.1436093701917738
 40
0.1748282647508527
 40
0.1910781305294984
 40
0.2062131355920786
 40
0.2223690788245015
 40
0.2376597357775562
 40
0.2534330740570616
 40
0.2690366488127745
 40
0.2847971999424299
 40
0.30047919549949
 40
0.3162180593091785
 40
0.3319704308646754
 40
0.33755154991612
 40
0.3431533936511127
 40
0.3482121562314247
 40
0.3489314262296246
 40
0.3512976461506535
 40
0.355782774258302
 40
0.363763052736453
 40
0.4047108041481423
 40
0.4472643421453267
 40
0.4914328925699376
 40
0.5540555478416556
 40
0.6190972774890022
 40
0.6823086405456733
 40
0.7467626900133769
 40
0.7892070503275745
 40
0.8312375144742031
 40
0.8735563203209064
 40
0.9157261985076516
 40
0.9575361153322087
 40
1.0
 40
1.0
 40
1.0
 40
1.0
 10
284.5471684110506
 20
163.8680414145001
 30
0.0
 10
284.5478980104857
 20
163.8742428598085
 30
0.0
 10
284.549803421873
 20
163.8904384651504
 30
0.0
 10
284.4621546717385
 20
163.3976570366202
 30
0.0
 10
284.2856433175324
 20
162.457008348906
 30
0.0
 10
284.027548618712
 20
161.0368029610327
 30
0.0
 10
283.6823321428914
 20
159.2281449463809
 30
0.0
 10
283.3756104128668
 20
157.3774052146965
 30
0.0
 10
283.0038275126287
 20
155.788742281162
 30
0.0
 10
282.561687596159
 20
154.5746231355166
 30
0.0
 10
281.9711022083025
 20
153.3945753584057
 30
0.0
 10
281.1912538723072
 20
152.2445948000739
 30
0.0
 10
280.2301947922034
 20
151.1977339680036
 30
0.0
 10
279.0689599576966
 20
150.2790967028861
 30
0.0
 10
277.7277718203126
 20
149.570031340585
 30
0.0
 10
276.2481791696201
 20
149.0932834700155
 30
0.0
 10
274.6745736406427
 20
148.912364987984
 30
0.0
 10
273.4134865617601
 20
149.0142070911066
 30
0.0
 10
272.5122609954694
 20
149.210589147982
 30
0.0
 10
271.9758946247927
 20
149.3684288020985
 30
0.0
 10
271.6059901830295
 20
149.502683207581
 30
0.0
 10
271.3454471694436
 20
149.6112392768047
 30
0.0
 10
271.1033936667898
 20
149.7126361440775
 30
0.0
 10
270.6293370348499
 20
149.912140161958
 30
0.0
 10
268.9191293745685
 20
150.6247536370785
 30
0.0
 10
265.9736828278317
 20
151.8162905165633
 30
0.0
 10
261.8253430681775
 20
153.4062060496378
 30
0.0
 10
256.9294392884472
 20
155.1769068069611
 30
0.0
 10
251.2384698464605
 20
157.0884751570222
 30
0.0
 10
244.8455833438498
 20
159.0392733807709
 30
0.0
 10
238.326257506447
 20
160.84262804079
 30
0.0
 10
232.5143872482025
 20
162.249305133408
 30
0.0
 10
227.3996295626541
 20
163.4407484939445
 30
0.0
 10
222.9521495524407
 20
163.9056951634142
 30
0.0
 10
218.4963054034316
 20
163.8190234033054
 30
0.0
 10
214.0865905712341
 20
163.1910830050344
 30
0.0
 10
209.7628244419011
 20
162.0318039091912
 30
0.0
 10
206.999075773653
 20
160.8902758606005
 30
0.0
 10
205.6064780431483
 20
160.3150826861855
 30
0.0
  0
LINE
  5
85
330
1F
100
AcDbEntity
  8
0
  6
SLD-Сплошная
 62
     7
370
    25
100
AcDbLine
 10
193.4647571556
 20
163.5684469927
 30
0.0
 11
193.1749794077
 21
163.6460927063
 31
0.0
  0
LINE
  5
86
330
1F
100
AcDbEntity
  8
0
  6
SLD-Сплошная
 62
     7
370
    25
100
AcDbLine
 10
188.8821008984
 20
147.6248519989
 30
0.0
 11
190.1919285062
 21
152.5131951805
 31
0.0
  0
LINE
  5
87
330
1F
100
AcDbEntity
  8
0
  6
SLD-Сплошная
 62
     7
370
    25
100
AcDbLine
 10
181.3985332469
 20
119.6957973015
 30
0.0
 11
184.5992074372
 21
131.6408759986
 31
0.0
  0
SPLINE
  5
88
330
1F
100
AcDbEntity
  8
0
  6
SLD-Сплошная
 62
     7
370
    25
100
AcDbSpline
210
0.0
220
0.0
230
1.0
 70
    24
 71
     3
 72
     8
 73
     4
 74
     0
 42
0.00000001
 43
0.00000001
 40
0.0
 40
0.0
 40
0.0
 40
0.0
 40
1.0
 40
1.0
 40
1.0
 40
1.0
 10
290.9266730281186
 20
119.6957973015307
 30
0.0
 10
290.9266730281185
 20
125.6003762443012
 30
0.0
 10
290.9266730281184
 20
131.5199681852587
 30
0.0
 10
290.9266730281186
 20
137.4536053418959
 30
0.0
  0
LINE
  5
89
330
1F
100
AcDbEntity
  8
0
  6
SLD-Сплошная
 62
     7
370
    25
100
AcDbLine
 10
202.7822072754
 20
198.341644237
 30
0.0
 11
193.4647571556
 21
163.5684469927
 31
0.0
  0
SPLINE
  5
8A
330
1F
100
AcDbEntity
  8
0
  6
SLD-Сплошная
 62
     7
370
    25
100
AcDbSpline
210
0.0
220
0.0
230
1.0
 70
     8
 71
     3
 72
    16
 73
    12
 74
     0
 42
0.00000001
 43
0.00000001
 40
0.0
 40
0.0
 40
0.0
 40
0.0
 40
0.2499999999999958
 40
0.3749999999999938
 40
0.4374999999999932
 40
0.4531249999999932
 40
0.4531249999999932
 40
0.4687499999999933
 40
0.4687499999999933
 40
0.4999999999999938
 40
1.0
 40
1.0
 40
1.0
 40
1.0
 10
235.8995163560161
 20
187.3786249380883
 30
0.0
 10
237.0725362569758
 20
186.9243326417349
 30
0.0
 10
238.8284716178202
 20
186.2325944534
 30
0.0
 10
240.8707619970001
 20
185.4075118808291
 30
0.0
 10
241.8175040205254
 20
185.0202422051227
 30
0.0
 10
242.1814007891132
 20
184.8706195884195
 30
0.0
 10
242.326940711583
 20
184.810716714827
 30
0.0
 10
242.3960216983464
 20
184.7822541651338
 30
0.0
 10
242.6063670167983
 20
184.6955051511323
 30
0.0
 10
244.9894436734315
 20
183.7107497703471
 30
0.0
 10
247.3583009320925
 20
182.6988130915366
 30
0.0
 10
249.5752732671979
 20
181.7224303550825
 30
0.0
  0
LINE
  5
8B
330
1F
100
AcDbEntity
  8
0
  6
SLD-Сплошная
 62
     7
370
    25
100
AcDbLine
 10
226.4984630955
 20
175.963631065
 30
0.0
 11
224.0597197707
 21
166.8621170701
 31
0.0
  0
SPLINE
  5
8C
330
1F
100
AcDbEntity
  8
0
  6
SLD-Сплошная
 62
     7
370
    25
100
AcDbSpline
210
0.0
220
0.0
230
1.0
 70
    24
 71
     3
 72
    13
 73
     9
 74
     0
 42
0.00000001
 43
0.00000001
 40
0.0
 40
0.0
 40
0.0
 40
0.0
 40
0.5000000000000003
 40
0.5000000000000003
 40
0.6250000000000003
 40
0.6250000000000003
 40
0.7500000000000002
 40
1.0
 40
1.0
 40
1.0
 40
1.0
 10
224.0597197706854
 20
166.8621170701057
 30
0.0
 10
225.6765705637987
 20
166.4288832058093
 30
0.0
 10
227.2940642850139
 20
165.9954770694473
 30
0.0
 10
229.3167448903176
 20
165.4535014347101
 30
0.0
 10
229.7166607779059
 20
165.3463442955905
 30
0.0
 10
230.5180909069526
 20
165.1316017397224
 30
0.0
 10
231.7196991550513
 20
164.8096317800258
 30
0.0
 10
232.9196963893714
 20
164.4880934901702
 30
0.0
 10
233.718978033576
 20
164.2739266190806
 30
0.0
  0
LINE
  5
8D
330
1F
100
AcDbEntity
  8
0
  6
SLD-Сплошная
 62
     7
370
    25
100
AcDbLine
 10
233.7189780336
 20
164.2739266191
 30
0.0
 11
235.687473915
 21
171.6204532631
 31
0.0
  0
SPLINE
  5
8E
330
1F
100
AcDbEntity
  8
0
  6
SLD-Сплошная
 62
     7
370
    25
100
AcDbSpline
210
0.0
220
0.0
230
1.0
 70
     8
 71
     3
 72
    31
 73
    27
 74
     0
 42
0.00000001
 43
0.00000001
 40
0.0
 40
0.0
 40
0.0
 40
0.0
 40
0.0190231735041334
 40
0.0376104423101018
 40
0.055763484964217
 40
0.0734841034165867
 40
0.0907742348277331
 40
0.1076359647387399
 40
0.1240715417840091
 40
0.1889580503196596
 40
0.2485839807625471
 40
0.342194920093027
 40
0.424600302838412
 40
0.4987103978605948
 40
0.5589239757908356
 40
0.6187587807410321
 40
0.6812595188337112
 40
0.7491129654539108
 40
0.7781789790806335
 40
0.8086822052455139
 40
0.8407145086823329
 40
0.8743552298244923
 40
0.9036044639473653
 40
0.9342760700417093
 40
0.9663993996441098
 40
1.0
 40
1.0
 40
1.0
 40
1.0
 10
235.6874739150222
 20
171.620453263128
 30
0.0
 10
235.7141979478125
 20
171.7235831890911
 30
0.0
 10
235.7670336480879
 20
171.9274798801474
 30
0.0
 10
235.8335442834628
 20
172.2304172695773
 30
0.0
 10
235.8897962465778
 20
172.5266320976889
 30
0.0
 10
235.935268233992
 20
172.816097050744
 30
0.0
 10
235.9704670538675
 20
173.0987157761048
 30
0.0
 10
235.9956459861809
 20
173.3744248327426
 30
0.0
 10
236.026474482115
 20
173.9093782301881
 30
0.0
 10
236.0047812658553
 20
174.6772345507591
 30
0.0
 10
235.7884354645262
 20
175.85281307764
 30
0.0
 10
235.2694893448702
 20
177.0923007198504
 30
0.0
 10
234.2975230826316
 20
178.2932916942
 30
0.0
 10
233.1145663772649
 20
179.1397931897293
 30
0.0
 10
231.8747095090187
 20
179.6308778292888
 30
0.0
 10
230.6784140242631
 20
179.8013837124128
 30
0.0
 10
229.536197422656
 20
179.6604490500025
 30
0.0
 10
228.7375005309438
 20
179.3031562636577
 30
0.0
 10
228.2003795597901
 20
178.9142681263047
 30
0.0
 10
227.855196642401
 20
178.5946738207477
 30
0.0
 10
227.5357928186893
 20
178.2215145496797
 30
0.0
 10
227.2616849246247
 20
177.8198054743985
 30
0.0
 10
227.0268889324507
 20
177.3970710050806
 30
0.0
 10
226.8269711550542
 20
176.9590388595414
 30
0.0
 10
226.646488401846
 20
176.4806981997472
 30
0.0
 10
226.5485387328663
 20
176.1385502525802
 30
0.0
 10
226.4984630955077
 20
175.9636310649625
 30
0.0
  0
SPLINE
  5
8F
330
1F
100
AcDbEntity
  8
0
  6
SLD-Сплошная
 62
     7
370
    25
100
AcDbSpline
210
0.0
220
0.0
230
1.0
 70
    24
 71
     3
 72
    17
 73
    13
 74
     0
 42
0.00000001
 43
0.00000001
 40
0.0
 40
0.0
 40
0.0
 40
0.0
 40
0.0614452352164455
 40
0.1242062137149084
 40
0.2491151746621184
 40
0.3740108427613009
 40
0.4366266913367276
 40
0.4994903841559454
 40
0.6242647514317022
 40
0.7493508863564203
 40
0.8745675678019941
 40
1.0
 40
1.0
 40
1.0
 40
1.0
 10
290.9266730281181
 20
160.0590597364428
 30
0.0
 10
290.9266730281182
 20
160.0383456136217
 30
0.0
 10
290.9266730281182
 20
159.9964738109183
 30
0.0
 10
290.9266730281182
 20
159.5236257952256
 30
0.0
 10
290.9266730281182
 20
158.3939215930255
 30
0.0
 10
290.9266730281182
 20
156.5601783351803
 30
0.0
 10
290.9266730281182
 20
154.7396890906037
 30
0.0
 10
290.9266730281182
 20
152.7030408341071
 30
0.0
 10
290.9266730281183
 20
149.7938390608359
 30
0.0
 10
290.9266730281183
 20
145.8880997452222
 30
0.0
 10
290.9266730281183
 20
141.7108738713487
 30
0.0
 10
290.9266730281183
 20
138.8735089560824
 30
0.0
 10
290.9266730281183
 20
137.4536053418959
 30
0.0
  0
LINE
  5
90
330
1F
100
AcDbEntity
  8
0
  6
SLD-Сплошная
 62
     7
370
    25
100
AcDbLine
 10
163.7827242162
 20
189.9936963574
 30
0.0
 11
154.6985308503
 21
156.0910251699
 31
0.0
  0
LINE
  5
91
330
1F
100
AcDbEntity
  8
0
  6
SLD-Сплошная
 62
     7
370
    25
100
AcDbLine
 10
154.6985308503
 20
156.0910251699
 30
0.0
 11
176.1002274081
 21
150.3564578606
 31
0.0
  0
LINE
  5
92
330
1F
100
AcDbEntity
  8
0
  6
SLD-Сплошная
 62
     7
370
    25
100
AcDbLine
 10
185.184420774
 20
184.259129048
 30
0.0
 11
176.1002274081
 21
150.3564578606
 31
0.0
  0
LINE
  5
93
330
1F
100
AcDbEntity
  8
0
  6
SLD-Сплошная
 62
     7
370
    25
100
AcDbLine
 10
185.184420774
 20
184.259129048
 30
0.0
 11
163.7827242162
 21
189.9936963574
 31
0.0
  0
LINE
  5
94
330
1F
100
AcDbEntity
  8
0
  6
SLD-Сплошная
 62
     7
370
    25
100
AcDbLine
 10
165.5355696102
 20
200.7468410282
 30
0.0
 11
196.7349737994
 21
192.3869858714
 31
0.0
  0
LINE
  5
95
330
1F
100
AcDbEntity
  8
0
  6
SLD-Сплошная
 62
     7
370
    25
100
AcDbLine
 10
181.2045361588
 20
134.4266035329
 30
0.0
 11
136.6753555668
 21
146.3581615121
 31
0.0
  0
LINE
  5
96
330
1F
100
AcDbEntity
  8
0
  6
SLD-Сплошная
 62
     7
370
    25
100
AcDbLine
 10
152.663135434
 20
206.0253682764
 30
0.0
 11
136.9010555872
 21
147.2004854554
 31
0.0
  0
LINE
  5
97
330
1F
100
AcDbEntity
  8
0
  6
SLD-Сплошная
 62
     7
370
    25
100
AcDbLine
 10
164.6901177801
 20
172.7594180975
 30
0.0
 11
161.8679945766
 21
162.2271109165
 31
0.0
  0
LINE
  5
98
330
1F
100
AcDbEntity
  8
0
  6
SLD-Сплошная
 62
     7
370
    25
100
AcDbLine
 10
167.7150214815
 20
171.9488975936
 30
0.0
 11
164.6901177801
 21
172.7594180975
 31
0.0
  0
LINE
  5
99
330
1F
100
AcDbEntity
  8
0
  6
SLD-Сплошная
 62
     7
370
    25
100
AcDbLine
 10
161.8679945766
 20
162.2271109165
 30
0.0
 11
164.8928982779
 21
161.4165904126
 31
0.0
  0
LINE
  5
9A
330
1F
100
AcDbEntity
  8
0
  6
SLD-Сплошная
 62
     7
370
    25
100
AcDbLine
 10
167.7150214815
 20
171.9488975936
 30
0.0
 11
164.8928982779
 21
161.4165904126
 31
0.0
  0
LINE
  5
9B
330
1F
100
AcDbEntity
  8
0
  6
SLD-Сплошная
 62
     7
370
    25
100
AcDbLine
 10
171.748238624
 20
170.8682003173
 30
0.0
 11
168.7233349227
 21
171.6787208213
 31
0.0
  0
LINE
  5
9C
330
1F
100
AcDbEntity
  8
0
  6
SLD-Сплошная
 62
     7
370
    25
100
AcDbLine
 10
170.8513348893
 20
163.487656245
 30
0.0
 11
169.8430214481
 21
163.7578330173
 31
0.0
  0
LINE
  5
9D
330
1F
100
AcDbEntity
  8
0
  6
SLD-Сплошная
 62
     7
370
    25
100
AcDbLine
 10
172.7565520652
 20
170.5980235451
 30
0.0
 11
170.8513348893
 21
163.487656245
 31
0.0
  0
LINE
  5
9E
330
1F
100
AcDbEntity
  8
0
  6
SLD-Сплошная
 62
     7
370
    25
100
AcDbLine
 10
175.7814557666
 20
169.7875030411
 30
0.0
 11
172.7565520652
 21
170.5980235451
 31
0.0
  0
LINE
  5
9F
330
1F
100
AcDbEntity
  8
0
  6
SLD-Сплошная
 62
     7
370
    25
100
AcDbLine
 10
165.9012117191
 20
161.1464136403
 30
0.0
 11
172.959332563
 21
159.2551958601
 31
0.0
  0
LINE
  5
A0
330
1F
100
AcDbEntity
  8
0
  6
SLD-Сплошная
 62
     7
370
    25
100
AcDbLine
 10
168.7233349227
 20
171.6787208213
 30
0.0
 11
165.9012117191
 21
161.1464136403
 31
0.0
  0
LINE
  5
A1
330
1F
100
AcDbEntity
  8
0
  6
SLD-Сплошная
 62
     7
370
    25
100
AcDbLine
 10
175.7814557666
 20
169.7875030411
 30
0.0
 11
172.959332563
 21
159.2551958601
 31
0.0
  0
LINE
  5
A2
330
1F
100
AcDbEntity
  8
0
  6
SLD-Сплошная
 62
     7
370
    25
100
AcDbLine
 10
171.748238624
 20
170.8682003173
 30
0.0
 11
169.8430214481
 21
163.7578330173
 31
0.0
  0
LINE
  5
A3
330
1F
100
AcDbEntity
  8
0
  6
SLD-Сплошная
 62
     7
370
    25
100
AcDbLine
 10
165.8962186654
 20
177.2606478803
 30
0.0
 11
164.959774819
 21
173.7657918671
 31
0.0
  0
LINE
  5
A4
330
1F
100
AcDbEntity
  8
0
  6
SLD-Сплошная
 62
     7
370
    25
100
AcDbLine
 10
171.3002839122
 20
175.8126329616
 30
0.0
 11
165.8962186654
 21
177.2606478803
 31
0.0
  0
LINE
  5
A5
330
1F
100
AcDbEntity
  8
0
  6
SLD-Сплошная
 62
     7
370
    25
100
AcDbLine
 10
171.3314432216
 20
175.9289210872
 30
0.0
 11
171.3002839122
 21
175.8126329616
 31
0.0
  0
SPLINE
  5
A6
330
1F
100
AcDbEntity
  8
0
  6
SLD-Сплошная
 62
     7
370
    25
100
AcDbSpline
210
0.0
220
0.0
230
1.0
 70
     8
 71
     3
 72
     8
 73
     4
 74
     0
 42
0.00000001
 43
0.00000001
 40
0.0
 40
0.0
 40
0.0
 40
0.0
 40
1.0
 40
1.0
 40
1.0
 40
1.0
 10
167.094448139453
 20
181.7325011566551
 30
0.0
 10
168.5157281037148
 20
179.8296466740638
 30
0.0
 10
169.9262990744651
 20
177.8903690824795
 30
0.0
 10
171.3314432215651
 20
175.9289210871773
 30
0.0
  0
LINE
  5
A7
330
1F
100
AcDbEntity
  8
0
  6
SLD-Сплошная
 62
     7
370
    25
100
AcDbLine
 10
168.0642350916
 20
185.3517953345
 30
0.0
 11
167.0944481395
 21
181.7325011567
 31
0.0
  0
SPLINE
  5
A8
330
1F
100
AcDbEntity
  8
0
  6
SLD-Сплошная
 62
     7
370
    25
100
AcDbSpline
210
0.0
220
0.0
230
1.0
 70
     8
 71
     3
 72
     8
 73
     4
 74
     0
 42
0.00000001
 43
0.00000001
 40
0.0
 40
0.0
 40
0.0
 40
0.0
 40
1.0
 40
1.0
 40
1.0
 40
1.0
 10
172.4635583223668
 20
179.587617177913
 30
0.0
 10
171.008524222343
 20
181.5511828202987
 30
0.0
 10
169.543940395907
 20
183.4774787951754
 30
0.0
 10
168.0642350915779
 20
185.3517953345028
 30
0.0
  0
SPLINE
  5
A9
330
1F
100
AcDbEntity
  8
0
  6
SLD-Сплошная
 62
     7
370
    25
100
AcDbSpline
210
0.0
220
0.0
230
1.0
 70
     8
 71
     3
 72
     8
 73
     4
 74
     0
 42
0.00000001
 43
0.00000001
 40
0.0
 40
0.0
 40
0.0
 40
0.0
 40
1.0
 40
1.0
 40
1.0
 40
1.0
 10
179.1555730779809
 20
182.3798802780672
 30
0.0
 10
176.9369521483262
 20
181.4965270824188
 30
0.0
 10
174.7054378729688
 20
180.5605979583777
 30
0.0
 10
172.4635583223668
 20
179.587617177913
 30
0.0
  0
LINE
  5
AA
330
1F
100
AcDbEntity
  8
0
  6
SLD-Сплошная
 62
     7
370
    25
100
AcDbLine
 10
179.155573078
 20
182.3798802781
 30
0.0
 11
178.1857861259
 21
178.7605861002
 31
0.0
  0
SPLINE
  5
AB
330
1F
100
AcDbEntity
  8
0
  6
SLD-Сплошная
 62
     7
370
    25
100
AcDbSpline
210
0.0
220
0.0
230
1.0
 70
     8
 71
     3
 72
     8
 73
     4
 74
     0
 42
0.00000001
 43
0.00000001
 40
0.0
 40
0.0
 40
0.0
 40
0.0
 40
1.0
 40
1.0
 40
1.0
 40
1.0
 10
171.6146507142992
 20
175.8530358682106
 30
0.0
 10
173.8122651120866
 20
176.8491275291257
 30
0.0
 10
176.0034944856019
 20
177.8233058277145
 30
0.0
 10
178.185786125856
 20
178.7605861002196
 30
0.0
  0
LINE
  5
AC
330
1F
100
AcDbEntity
  8
0
  6
SLD-Сплошная
 62
     7
370
    25
100
AcDbLine
 10
171.6146507143
 20
175.8530358682
 30
0.0
 11
171.583491405
 21
175.7367477426
 31
0.0
  0
LINE
  5
AD
330
1F
100
AcDbEntity
  8
0
  6
SLD-Сплошная
 62
     7
370
    25
100
AcDbLine
 10
176.9875566518
 20
174.2887328239
 30
0.0
 11
171.583491405
 21
175.7367477426
 31
0.0
  0
LINE
  5
AE
330
1F
100
AcDbEntity
  8
0
  6
SLD-Сплошная
 62
     7
370
    25
100
AcDbLine
 10
176.9875566518
 20
174.2887328239
 30
0.0
 11
176.0511128054
 21
170.7938768106
 31
0.0
  0
LINE
  5
AF
330
1F
100
AcDbEntity
  8
0
  6
SLD-Сплошная
 62
     7
370
    25
100
AcDbLine
 10
164.959774819
 20
173.7657918671
 30
0.0
 11
176.0511128054
 21
170.7938768106
 31
0.0
  0
LINE
  5
B0
330
1F
100
AcDbEntity
  8
0
  6
SLD-Сплошная
 62
     7
370
    25
100
AcDbLine
 10
165.6446291112
 20
160.1888343114
 30
0.0
 11
164.771314744
 21
156.9295807217
 31
0.0
  0
LINE
  5
B1
330
1F
100
AcDbEntity
  8
0
  6
SLD-Сплошная
 62
     7
370
    25
100
AcDbLine
 10
172.7027499551
 20
158.2976165312
 30
0.0
 11
165.6446291112
 21
160.1888343114
 31
0.0
  0
LINE
  5
B2
330
1F
100
AcDbEntity
  8
0
  6
SLD-Сплошная
 62
     7
370
    25
100
AcDbLine
 10
172.7027499551
 20
158.2976165312
 30
0.0
 11
171.8294355878
 21
155.0383629415
 31
0.0
  0
LINE
  5
B3
330
1F
100
AcDbEntity
  8
0
  6
SLD-Сплошная
 62
     7
370
    25
100
AcDbLine
 10
164.771314744
 20
156.9295807217
 30
0.0
 11
171.8294355878
 21
155.0383629415
 31
0.0
  0
LINE
  5
B4
330
1F
100
AcDbEntity
  8
0
  6
SLD-Сплошная
 62
     7
370
    25
100
AcDbLine
 10
160.7380976014
 20
158.010277998
 30
0.0
 11
163.7630013027
 21
157.199757494
 31
0.0
  0
LINE
  5
B5
330
1F
100
AcDbEntity
  8
0
  6
SLD-Сплошная
 62
     7
370
    25
100
AcDbLine
 10
164.63631567
 20
160.4590110837
 30
0.0
 11
163.7630013027
 21
157.199757494
 31
0.0
  0
LINE
  5
B6
330
1F
100
AcDbEntity
  8
0
  6
SLD-Сплошная
 62
     7
370
    25
100
AcDbLine
 10
164.63631567
 20
160.4590110837
 30
0.0
 11
161.6114119687
 21
161.2695315876
 31
0.0
  0
LINE
  5
B7
330
1F
100
AcDbEntity
  8
0
  6
SLD-Сплошная
 62
     7
370
    25
100
AcDbLine
 10
161.6114119687
 20
161.2695315876
 30
0.0
 11
160.7380976014
 21
158.010277998
 31
0.0
  0
LINE
  5
B8
330
1F
100
AcDbEntity
  8
0
  6
SLD-Сплошная
 62
     7
370
    25
100
AcDbLine
 10
169.6940241817
 20
216.2664047699
 30
0.0
 11
165.5355696102
 21
200.7468410282
 31
0.0
  0
ARC
  5
B9
330
1F
100
AcDbEntity
  8
0
  6
SLD-Сплошная
 62
     7
370
    25
100
AcDbCircle
 10
174.2338755653
 20
215.0499552579
 30
0.0
 40
4.699999999999998
100
AcDbArc
 50
41.0
 51
165.0
  0
CIRCLE
  5
BA
330
1F
100
AcDbEntity
  8
0
  6
SLD-Сплошная
 62
     7
370
    25
100
AcDbCircle
 10
174.2338755653
 20
215.0499552579
 30
0.0
 40
2.099999999999948
  0
LINE
  5
BB
330
1F
100
AcDbEntity
  8
0
  6
SLD-Сплошная
 62
     7
370
    25
100
AcDbLine
 10
197.5424436589
 20
195.4005044129
 30
0.0
 11
177.7810105923
 21
218.1334326942
 31
0.0
  0
LINE
  5
BC
330
1F
100
AcDbEntity
  8
0
  6
SLD-Сплошная
 62
     7
370
    25
100
AcDbLine
 10
179.8199171716
 20
129.2591351236
 30
0.0
 11
177.8197105
 21
121.7942621994
 31
0.0
  0
ARC
  5
BD
330
1F
100
AcDbEntity
  8
0
  6
SLD-Сплошная
 62
     7
370
    25
100
AcDbCircle
 10
249.2835133086
 20
189.1946826311
 30
0.0
 40
0.8000000000000345
100
AcDbArc
 50
75.0
 51
113.8516479117
  0
LINE
  5
BE
330
1F
100
AcDbEntity
  8
0
  6
SLD-Сплошная
 62
     7
370
    25
100
AcDbLine
 10
250.8581066999
 20
189.6009925478
 30
0.0
 11
249.4905685447
 21
189.9674232921
 31
0.0
  0
ARC
  5
BF
330
1F
100
AcDbEntity
  8
0
  6
SLD-Сплошная
 62
     7
370
    25
100
AcDbCircle
 10
250.6510514638
 20
188.8282518868
 30
0.0
 40
0.8000000000000046
100
AcDbArc
 50
345.0
 51
75.0
  0
LINE
  5
C0
330
1F
100
AcDbEntity
  8
0
  6
SLD-Сплошная
 62
     7
370
    25
100
AcDbLine
 10
249.5752732672
 20
181.7224303551
 30
0.0
 11
251.4237921249
 21
188.6211966507
 31
0.0
  0
ARC
  5
C1
330
1F
100
AcDbEntity
  8
0
  6
SLD-Сплошная
 62
     7
370
    25
100
AcDbCircle
 10
236.8289203633
 20
217.364224952
 30
0.0
 40
29.99999999999999
100
AcDbArc
 50
268.2246850381
 51
293.8516479117
  0
ARC
  5
C2
330
1F
100
AcDbEntity
  8
0
  6
SLD-Сплошная
 62
     7
370
    25
100
AcDbCircle
 10
280.0117111911
 20
140.3782605516
 30
0.0
 40
149.6662954709577
100
AcDbArc
 50
176.7389318979
 51
180.7199768871
  0
LINE
  5
C3
330
1F
100
AcDbEntity
  8
0
  6
SLD-Сплошная
 62
     7
370
    25
100
AcDbLine
 10
130.357231983
 20
138.4976082834
 30
0.0
 11
130.0224030676
 21
138.5873254209
 31
0.0
  0
LINE
  5
C4
330
1F
100
AcDbEntity
  8
0
  6
SLD-Сплошная
 62
     7
370
    25
100
AcDbLine
 10
130.587770306
 20
148.8921251481
 30
0.0
 11
146.3498501527
 21
207.7170079691
 31
0.0
  0
LINE
  5
C5
330
1F
100
AcDbEntity
  8
0
  6
SLD-Сплошная
 62
     7
370
    25
100
AcDbLine
 10
136.9010555872
 20
147.2004854554
 30
0.0
 11
130.587770306
 21
148.8921251481
 31
0.0
  0
LINE
  5
C6
330
1F
100
AcDbEntity
  8
0
  6
SLD-Сплошная
 62
     7
370
    25
100
AcDbLine
 10
146.3498501527
 20
207.7170079691
 30
0.0
 11
152.663135434
 21
206.0253682764
 31
0.0
  0
ARC
  5
C7
330
1F
100
AcDbEntity
  8
0
  6
SLD-Сплошная
 62
     7
370
    25
100
AcDbCircle
 10
174.2338755653
 20
215.0499552579
 30
0.0
 40
6.200000000000035
100
AcDbArc
 50
0.2938657321
 51
55.6298277121
  0
CIRCLE
  5
C8
330
1F
100
AcDbEntity
  8
0
  6
SLD-Сплошная
 62
     7
370
    25
100
AcDbCircle
 10
174.2338755653
 20
215.0499552579
 30
0.0
 40
1.899999999999993
  0
LINE
  5
C9
330
1F
100
AcDbEntity
  8
0
  6
SLD-Сплошная
 62
     7
370
    25
100
AcDbLine
 10
177.7340073187
 20
220.1674817805
 30
0.0
 11
173.7614358115
 21
221.2319291077
 31
0.0
  0
ARC
  5
CA
330
1F
100
AcDbEntity
  8
0
  6
SLD-Сплошная
 62
     7
370
    25
100
AcDbCircle
 10
174.2338755653
 20
215.0499552579
 30
0.0
 40
6.199999999999999
100
AcDbArc
 50
94.3701722879
 51
108.801636395
  0
ARC
  5
CB
330
1F
100
AcDbEntity
  8
0
  6
SLD-Сплошная
 62
     7
370
    25
100
AcDbCircle
 10
165.5136653979
 20
205.6879076915
 30
0.0
 40
2.000000000000007
100
AcDbArc
 50
255.0
 51
295.5416018735
  0
LINE
  5
CC
330
1F
100
AcDbEntity
  8
0
  6
SLD-Сплошная
 62
     7
370
    25
100
AcDbLine
 10
147.6439453782
 20
212.5466371006
 30
0.0
 11
172.2356606278
 21
220.9191236031
 31
0.0
  0
LINE
  5
CD
330
1F
100
AcDbEntity
  8
0
  6
SLD-Сплошная
 62
     7
370
    25
100
AcDbLine
 10
164.9960273077
 20
203.7560560389
 30
0.0
 11
152.9219544791
 21
206.9912941027
 31
0.0
  0
LINE
  5
CE
330
1F
100
AcDbEntity
  8
0
  6
SLD-Сплошная
 62
     7
370
    25
100
AcDbLine
 10
146.3498501527
 20
207.7170079691
 30
0.0
 11
147.6439453782
 21
212.5466371006
 31
0.0
  0
LINE
  5
CF
330
1F
100
AcDbEntity
  8
0
  6
SLD-Сплошная
 62
     7
370
    25
100
AcDbLine
 10
152.9219544791
 20
206.9912941027
 30
0.0
 11
152.663135434
 21
206.0253682764
 31
0.0
  0
LINE
  5
D0
330
1F
100
AcDbEntity
  8
0
  6
SLD-Сплошная
 62
     7
370
    25
100
AcDbLine
 10
134.2869832317
 20
137.4446346099
 30
0.0
 11
130.357231983
 21
138.4976082834
 31
0.0
  0
LINE
  5
D1
330
1F
100
AcDbEntity
  8
0
  6
SLD-Сплошная
 62
     7
370
    25
100
AcDbLine
 10
136.9010555872
 20
147.2004854554
 30
0.0
 11
134.2869832317
 21
137.4446346099
 31
0.0
  0
ARC
  5
D2
330
1F
100
AcDbEntity
  8
0
  6
SLD-Сплошная
 62
     7
370
    25
100
AcDbCircle
 10
182.659825351
 20
220.7982915571
 30
0.0
 40
3.999999999999964
100
AcDbArc
 50
150.9533504974
 51
214.3025200123
  0
LINE
  5
D3
330
1F
100
AcDbEntity
  8
0
  6
SLD-Сплошная
 62
     7
370
    25
100
AcDbLine
 10
179.1629265854
 20
222.7403778124
 30
0.0
 11
180.8681638631
 21
225.8108089608
 31
0.0
  0
ARC
  5
D4
330
1F
100
AcDbEntity
  8
0
  6
SLD-Сплошная
 62
     7
370
    25
100
AcDbCircle
 10
174.2338755653
 20
215.0499552579
 30
0.0
 40
6.200000000000058
100
AcDbArc
 50
82.2431238543
 51
94.3701722879
  0
ARC
  5
D5
330
1F
100
AcDbEntity
  8
0
  6
SLD-Сплошная
 62
     7
370
    25
100
AcDbCircle
 10
162.848481082
 20
237.6512805344
 30
0.0
 40
19.99999999999993
100
AcDbArc
 50
304.9071399179
 51
327.7825323316
  0
ARC
  5
D6
330
1F
100
AcDbEntity
  8
0
  6
SLD-Сплошная
 62
     7
370
    25
100
AcDbCircle
 10
180.192109811
 20
226.7220288441
 30
0.0
 40
0.5000000000000878
100
AcDbArc
 50
36.5725316321
 51
147.7825323316
  0
LINE
  5
D7
330
1F
100
AcDbEntity
  8
0
  6
SLD-Сплошная
 62
     7
370
    25
100
AcDbLine
 10
180.5936614216
 20
227.0199488066
 30
0.0
 11
180.9426263244
 21
226.5495962408
 31
0.0
  0
SPLINE
  5
D8
330
1F
100
AcDbEntity
  8
0
  6
SLD-Сплошная
 62
     7
370
    25
100
AcDbSpline
210
0.0
220
0.0
230
1.0
 70
     8
 71
     3
 72
    10
 73
     6
 74
     0
 42
0.00000001
 43
0.00000001
 40
0.0
 40
0.0
 40
0.0
 40
0.0
 40
0.5
 40
0.5
 40
1.0
 40
1.0
 40
1.0
 40
1.0
 10
180.9426263243725
 20
226.5495962407735
 30
0.0
 10
180.9964355259497
 20
226.4770694742648
 30
0.0
 10
181.0335562802547
 20
226.3824146144812
 30
0.0
 10
181.0464372729003
 20
226.1865664502622
 30
0.0
 10
181.0220336139213
 20
226.0878651113186
 30
0.0
 10
180.9781870594962
 20
226.0089154963757
 30
0.0
  0
SPLINE
  5
D9
330
1F
100
AcDbEntity
  8
0
  6
SLD-Сплошная
 62
     7
370
    25
100
AcDbSpline
210
0.0
220
0.0
230
1.0
 70
    24
 71
     3
 72
     8
 73
     4
 74
     0
 42
0.00000001
 43
0.00000001
 40
0.0
 40
0.0
 40
0.0
 40
0.0
 40
1.0
 40
1.0
 40
1.0
 40
1.0
 10
180.9781870594962
 20
226.0089154963757
 30
0.0
 10
180.9440126229501
 20
225.9473813885864
 30
0.0
 10
180.9056843007
 20
225.8783678407098
 30
0.0
 10
180.8681638630527
 20
225.8108089608029
 30
0.0
  0
SPLINE
  5
DA
330
1F
100
AcDbEntity
  8
0
  6
SLD-Сплошная
 62
     7
370
    25
100
AcDbSpline
210
0.0
220
0.0
230
1.0
 70
     8
 71
     3
 72
    10
 73
     6
 74
     0
 42
0.00000001
 43
0.00000001
 40
0.0
 40
0.0
 40
0.0
 40
0.0
 40
0.5
 40
0.5
 40
1.0
 40
1.0
 40
1.0
 40
1.0
 10
175.8918485354014
 20
223.1313365357581
 30
0.0
 10
175.7554375157137
 20
223.0640559117083
 30
0.0
 10
175.6531999331634
 20
222.9313090668266
 30
0.0
 10
175.5927695332572
 20
222.6331702377113
 30
0.0
 10
175.6352480957314
 20
222.4710905664324
 30
0.0
 10
175.7346946106697
 20
222.3560034718848
 30
0.0
  0
SPLINE
  5
DB
330
1F
100
AcDbEntity
  8
0
  6
SLD-Сплошная
 62
     7
370
    25
100
AcDbSpline
210
0.0
220
0.0
230
1.0
 70
     8
 71
     3
 72
    10
 73
     6
 74
     0
 42
0.00000001
 43
0.00000001
 40
0.0
 40
0.0
 40
0.0
 40
0.0
 40
0.5
 40
0.5
 40
1.0
 40
1.0
 40
1.0
 40
1.0
 10
176.4830544890926
 20
223.0191785932351
 30
0.0
 10
176.4106799913655
 20
223.0988213304125
 30
0.0
 10
176.3119421858883
 20
223.1540937213676
 30
0.0
 10
176.10048333773
 20
223.1942096728218
 30
0.0
 10
175.9883628342907
 20
223.1789393047562
 30
0.0
 10
175.8918485354014
 20
223.1313365357581
 30
0.0
  0
SPLINE
  5
DC
330
1F
100
AcDbEntity
  8
0
  6
SLD-Сплошная
 62
     7
370
    25
100
AcDbSpline
210
0.0
220
0.0
230
1.0
 70
     8
 71
     3
 72
    10
 73
     6
 74
     0
 42
0.00000001
 43
0.00000001
 40
0.0
 40
0.0
 40
0.0
 40
0.0
 40
0.5
 40
0.5
 40
1.0
 40
1.0
 40
1.0
 40
1.0
 10
177.2867282496586
 20
224.512680922117
 30
0.0
 10
177.1542212923154
 20
224.4341413830387
 30
0.0
 10
177.0619227627344
 20
224.291291348684
 30
0.0
 10
177.0276316009879
 20
223.9851372567662
 30
0.0
 10
177.0860392780439
 20
223.8254071902826
 30
0.0
 10
177.1978868781414
 20
223.7194984215455
 30
0.0
  0
SPLINE
  5
DD
330
1F
100
AcDbEntity
  8
0
  6
SLD-Сплошная
 62
     7
370
    25
100
AcDbSpline
210
0.0
220
0.0
230
1.0
 70
     8
 71
     3
 72
    10
 73
     6
 74
     0
 42
0.00000001
 43
0.00000001
 40
0.0
 40
0.0
 40
0.0
 40
0.0
 40
0.5
 40
0.5
 40
1.0
 40
1.0
 40
1.0
 40
1.0
 10
177.8762699334542
 20
224.4541004767451
 30
0.0
 10
177.7977396819442
 20
224.5248226723577
 30
0.0
 10
177.696273441392
 20
224.5696592208205
 30
0.0
 10
177.485945766136
 20
224.5905586571609
 30
0.0
 10
177.3776402675106
 20
224.5665663038504
 30
0.0
 10
177.2867282496586
 20
224.512680922117
 30
0.0
  0
ARC
  5
DE
330
1F
100
AcDbEntity
  8
0
  6
SLD-Сплошная
 62
     7
370
    25
100
AcDbCircle
 10
178.8232927325
 20
225.6179640051
 30
0.0
 40
0.5000000000000528
100
AcDbArc
 50
53.7132446021
 51
232.3076556417
  0
LINE
  5
DF
330
1F
100
AcDbEntity
  8
0
  6
SLD-Сплошная
 62
     7
370
    25
100
AcDbLine
 10
178.8177460888
 20
225.6104095053
 30
0.0
 11
179.119206164
 21
226.0209965609
 31
0.0
  0
SPLINE
  5
E0
330
1F
100
AcDbEntity
  8
0
  6
SLD-Сплошная
 62
     7
370
    25
100
AcDbSpline
210
0.0
220
0.0
230
1.0
 70
     8
 71
     3
 72
    15
 73
    11
 74
     0
 42
0.00000001
 43
0.00000001
 40
0.0
 40
0.0
 40
0.0
 40
0.0
 40
0.0183226590428582
 40
0.1532329237433999
 40
0.2889238677131911
 40
0.4254416038150133
 40
0.5628345512151122
 40
0.7567478107905595
 40
0.9526219184068084
 40
1.0
 40
1.0
 40
1.0
 40
1.0
 10
90.54879271606413
 20
146.509526337037
 30
0.0
 10
90.58387187175425
 20
146.5661680020913
 30
0.0
 10
90.87723985815148
 20
147.0398638735069
 30
0.0
 10
91.38384512527381
 20
147.8839296224322
 30
0.0
 10
92.06922093998311
 20
149.03738692349
 30
0.0
 10
92.70841559886466
 20
150.1355618505828
 30
0.0
 10
93.39094592119999
 20
151.3264336780149
 30
0.0
 10
94.08613138627214
 20
152.5675556224601
 30
0.0
 10
94.61856054797707
 20
153.5347120616103
 30
0.0
 10
94.86337800179514
 20
154.0070828659403
 30
0.0
 10
94.91106094902834
 20
154.0990862414598
 30
0.0
  0
SPLINE
  5
E1
330
1F
100
AcDbEntity
  8
0
  6
SLD-Сплошная
 62
     7
370
    25
100
AcDbSpline
210
0.0
220
0.0
230
1.0
 70
     8
 71
     3
 72
    12
 73
     8
 74
     0
 42
0.00000001
 43
0.00000001
 40
0.0
 40
0.0
 40
0.0
 40
0.0
 40
0.1002133258842197
 40
0.5375578394359721
 40
0.734660420320933
 40
0.9175067762656084
 40
1.0
 40
1.0
 40
1.0
 40
1.0
 10
99.3380786405176
 20
159.4343892470856
 30
0.0
 10
99.3168788128053
 20
159.6147718526079
 30
0.0
 10
99.20316006850764
 20
160.5823685553502
 30
0.0
 10
98.78820196950396
 20
161.6643887371169
 30
0.0
 10
98.05577780650236
 20
162.7577907604518
 30
0.0
 10
97.53723979207906
 20
163.3155540956479
 30
0.0
 10
97.13361259825498
 20
163.560489308989
 30
0.0
 10
97.00812619910683
 20
163.6366388807153
 30
0.0
  0
SPLINE
  5
E2
330
1F
100
AcDbEntity
  8
0
  6
SLD-Сплошная
 62
     7
370
    25
100
AcDbSpline
210
0.0
220
0.0
230
1.0
 70
     8
 71
     3
 72
    34
 73
    30
 74
     0
 42
0.00000001
 43
0.00000001
 40
0.0
 40
0.0
 40
0.0
 40
0.0
 40
0.0087549471933726
 40
0.0251455748055687
 40
0.0403672214108495
 40
0.0546382038659026
 40
0.0690860805734376
 40
0.0989191825938214
 40
0.1298458212274745
 40
0.1617937096777181
 40
0.1946900718249861
 40
0.2295336288392643
 40
0.2775414257618799
 40
0.3240667709679231
 40
0.3691180811060481
 40
0.4336252272195367
 40
0.496404709265678
 40
0.5598467071737424
 40
0.6243473165055282
 40
0.6894940709272458
 40
0.7574495799629074
 40
0.7924641273149203
 40
0.8243327116987343
 40
0.8561272461866554
 40
0.8881930965886594
 40
0.9207151439637586
 40
0.9552857542702298
 40
0.9910181935756285
 40
1.0
 40
1.0
 40
1.0
 40
1.0
 10
86.13560407033768
 20
149.3081277418709
 30
0.0
 10
86.16185991363986
 20
149.3003818669727
 30
0.0
 10
86.23727079359792
 20
149.2781345052943
 30
0.0
 10
86.08086717065312
 20
149.4437646046538
 30
0.0
 10
85.84651859548453
 20
149.7333708466653
 30
0.0
 10
85.48402919295425
 20
150.1817212269124
 30
0.0
 10
84.97003948037491
 20
150.8516986458382
 30
0.0
 10
84.21513344262272
 20
151.8555873596225
 30
0.0
 10
83.14343895249237
 20
153.2416563095691
 30
0.0
 10
81.88872411209391
 20
154.7551937948453
 30
0.0
 10
80.45221780326001
 20
156.3414300620007
 30
0.0
 10
78.65908972750023
 20
158.1394157179696
 30
0.0
 10
76.43603252573669
 20
159.9105471058251
 30
0.0
 10
73.80898414561116
 20
161.5012000604368
 30
0.0
 10
70.67215834042962
 20
162.9043501077507
 30
0.0
 10
67.00202980295911
 20
163.9292976500801
 30
0.0
 10
62.80577738565951
 20
164.3474857897441
 30
0.0
 10
58.5984600797557
 20
164.0495602122501
 30
0.0
 10
54.45610481553155
 20
163.0180040026013
 30
0.0
 10
50.47327875719176
 20
161.2373867815877
 30
0.0
 10
47.40962381689023
 20
159.1474949011702
 30
0.0
 10
45.23483199042257
 20
157.1430652741354
 30
0.0
 10
43.75762512930732
 20
155.5845707674142
 30
0.0
 10
42.43117470158016
 20
154.0578454082308
 30
0.0
 10
41.21556714102042
 20
152.5402494304347
 30
0.0
 10
40.12379708570353
 20
151.1063380453436
 30
0.0
 10
39.3413407332039
 20
150.0344343765275
 30
0.0
 10
38.93637156789996
 20
149.4910546449496
 30
0.0
 10
38.95308824637237
 20
149.4510753039812
 30
0.0
 10
38.95644614646991
 20
149.4430446037941
 30
0.0
  0
SPLINE
  5
E3
330
1F
100
AcDbEntity
  8
0
  6
SLD-Сплошная
 62
     7
370
    25
100
AcDbSpline
210
0.0
220
0.0
230
1.0
 70
     8
 71
     3
 72
    12
 73
     8
 74
     0
 42
0.00000001
 43
0.00000001
 40
0.0
 40
0.0
 40
0.0
 40
0.0
 40
0.0398958870443034
 40
0.2114983595923549
 40
0.4045331067730832
 40
0.6947088902642741
 40
1.0
 40
1.0
 40
1.0
 40
1.0
 10
27.89623643430499
 20
163.6421825170457
 30
0.0
 10
27.83443049079771
 20
163.6070638293792
 30
0.0
 10
27.50678128599802
 20
163.4208906325218
 30
0.0
 10
27.04642372454451
 20
162.962789815242
 30
0.0
 10
26.41349136978897
 20
162.1453598967577
 30
0.0
 10
25.87895651443236
 20
161.011212007188
 30
0.0
 10
25.66910086670575
 20
159.9953341058182
 30
0.0
 10
25.56150955590831
 20
159.4745016373924
 30
0.0
  0
LINE
  5
E4
330
1F
100
AcDbEntity
  8
0
  6
SLD-Сплошная
 62
     7
370
    25
100
AcDbLine
 10
65.4554400259
 20
189.9946826311
 30
0.0
 11
59.4554400259
 21
189.9946826311
 31
0.0
  0
SPLINE
  5
E5
330
1F
100
AcDbEntity
  8
0
  6
SLD-Сплошная
 62
     7
370
    25
100
AcDbSpline
210
0.0
220
0.0
230
1.0
 70
     8
 71
     3
 72
    16
 73
    12
 74
     0
 42
0.00000001
 43
0.00000001
 40
0.0
 40
0.0
 40
0.0
 40
0.0
 40
0.102395713991303
 40
0.2791409101539952
 40
0.4349602486925701
 40
0.5702707657380203
 40
0.6850714103821084
 40
0.7790782316279842
 40
0.8527614968997621
 40
0.9332551346258486
 40
1.0
 40
1.0
 40
1.0
 40
1.0
 10
99.90404695134175
 20
140.6023358007001
 30
0.0
 10
99.9044058094134
 20
141.4071668116719
 30
0.0
 10
99.90538409224213
 20
143.6012162710262
 30
0.0
 10
99.89202523966838
 20
146.7215605352283
 30
0.0
 10
99.86133099988787
 20
149.8850539895819
 30
0.0
 10
99.81472871748433
 20
152.4219188661594
 30
0.0
 10
99.75795579206512
 20
154.4331030046807
 30
0.0
 10
99.69637161755932
 20
155.9657056377085
 30
0.0
 10
99.6279225283993
 20
157.1569238786365
 30
0.0
 10
99.5503260864845
 20
158.2079584139651
 30
0.0
 10
99.46821176885537
 20
158.8346242477904
 30
0.0
 10
99.43098842740564
 20
159.1186989010405
 30
0.0
  0
LINE
  5
E6
330
1F
100
AcDbEntity
  8
0
  6
SLD-Сплошная
 62
     7
370
    25
100
AcDbLine
 10
99.4226552837
 20
159.1872615924
 30
0.0
 11
99.4001231573
 21
159.3726493986
 31
0.0
  0
SPLINE
  5
E7
330
1F
100
AcDbEntity
  8
0
  6
SLD-Сплошная
 62
     7
370
    25
100
AcDbSpline
210
0.0
220
0.0
230
1.0
 70
     8
 71
     3
 72
    16
 73
    12
 74
     0
 42
0.00000001
 43
0.00000001
 40
0.0
 40
0.0
 40
0.0
 40
0.0
 40
0.0803759005714317
 40
0.1953049898990576
 40
0.332346894280016
 40
0.4502389443879174
 40
0.5499248872937923
 40
0.639864871849149
 40
0.7445521916861612
 40
0.8658136749749158
 40
1.0
 40
1.0
 40
1.0
 40
1.0
 10
25.50543028027941
 20
159.0347456027496
 30
0.0
 10
25.46290707143145
 20
158.7068200801255
 30
0.0
 10
25.35958014363982
 20
157.9099955291296
 30
0.0
 10
25.24164392595502
 20
156.2491115162613
 30
0.0
 10
25.14661754760917
 20
154.1656129678753
 30
0.0
 10
25.0882300693252
 20
152.0333850595647
 30
0.0
 10
25.05441679726781
 20
150.1167136816302
 30
0.0
 10
25.03246682106782
 20
148.2450902025396
 30
0.0
 10
25.01653214568462
 20
146.134195504177
 30
0.0
 10
25.00647511557515
 20
143.6231174159967
 30
0.0
 10
25.00558625291913
 20
141.7268677928695
 30
0.0
 10
25.00511933478799
 20
140.7307708995854
 30
0.0
  0
LINE
  5
E8
330
1F
100
AcDbEntity
  8
0
  6
SLD-Сплошная
 62
     7
370
    25
100
AcDbLine
 10
100.2554400259
 20
163.6460927063
 30
0.0
 11
100.2554400259
 21
164.6813688867
 31
0.0
  0
LINE
  5
E9
330
1F
100
AcDbEntity
  8
0
  6
SLD-Сплошная
 62
     7
370
    25
100
AcDbLine
 10
24.6554400259
 20
164.6813688867
 30
0.0
 11
24.6554400259
 21
163.6460927063
 31
0.0
  0
LINE
  5
EA
330
1F
100
AcDbEntity
  8
0
  6
SLD-Сплошная
 62
     7
370
    25
100
AcDbLine
 10
76.7554400259
 20
219.7499552579
 30
0.0
 11
72.7554400259
 21
219.7499552579
 31
0.0
  0
LINE
  5
EB
330
1F
100
AcDbEntity
  8
0
  6
SLD-Сплошная
 62
     7
370
    25
100
AcDbLine
 10
52.1554400259
 20
219.7499552579
 30
0.0
 11
48.1554400259
 21
219.7499552579
 31
0.0
  0
ARC
  5
EC
330
1F
100
AcDbEntity
  8
0
  6
SLD-Сплошная
 62
     7
370
    25
100
AcDbCircle
 10
68.9554400259
 20
226.7220288441
 30
0.0
 40
0.5
100
AcDbArc
 50
0.0
 51
90.0
  0
LINE
  5
ED
330
1F
100
AcDbEntity
  8
0
  6
SLD-Сплошная
 62
     7
370
    25
100
AcDbLine
 10
68.9554400259
 20
227.2220288441
 30
0.0
 11
55.9554400259
 21
227.2220288441
 31
0.0
  0
ARC
  5
EE
330
1F
100
AcDbEntity
  8
0
  6
SLD-Сплошная
 62
     7
370
    25
100
AcDbCircle
 10
55.9554400259
 20
226.7220288441
 30
0.0
 40
0.5
100
AcDbArc
 50
90.0
 51
180.0
  0
LINE
  5
EF
330
1F
100
AcDbEntity
  8
0
  6
SLD-Сплошная
 62
     7
370
    25
100
AcDbLine
 10
52.4554400259
 20
208.8499552579
 30
0.0
 11
72.4554400259
 21
208.8499552579
 31
0.0
  0
LINE
  5
F0
330
1F
100
AcDbEntity
  8
0
  6
SLD-Сплошная
 62
     7
370
    25
100
AcDbLine
 10
97.5585915393
 20
157.3721514934
 30
0.0
 11
97.5588831214
 21
157.3731700679
 31
0.0
  0
SPLINE
  5
F1
330
1F
100
AcDbEntity
  8
0
  6
SLD-Сплошная
 62
     7
370
    25
100
AcDbSpline
210
0.0
220
0.0
230
1.0
 70
     8
 71
     3
 72
    49
 73
    45
 74
     0
 42
0.00000001
 43
0.00000001
 40
0.0
 40
0.0
 40
0.0
 40
0.0
 40
0.0069446150296498
 40
0.013877664048292
 40
0.0208024311860365
 40
0.0277222123647525
 40
0.0346403106325479
 40
0.0415600314474846
 40
0.0484846779440718
 40
0.0554175462163645
 40
0.0623619206512189
 40
0.093618553131593
 40
0.1248353146845662
 40
0.1560202563894366
 40
0.1871294206653791
 40
0.2184919593015653
 40
0.2497537147646927
 40
0.2809329330116895
 40
0.3120058442848989
 40
0.3433405003114756
 40
0.3745803582288426
 40
0.4058689085674196
 40
0.4370945337102162
 40
0.4682781956911823
 40
0.4994443757880322
 40
0.530755231558221
 40
0.5620990320859834
 40
0.5932965384318682
 40
0.6245724057645878
 40
0.6557492158975542
 40
0.6870360638009436
 40
0.7183073842070271
 40
0.7497024818505789
 40
0.780842159144844
 40
0.8120979866694511
 40
0.8433259897655582
 40
0.8746467834392815
 40
0.9059246643876143
 40
0.9372590014877399
 40
0.9498239930933946
 40
0.9623609777456356
 40
0.9748895559437037
 40
0.987429367606322
 40
1.0
 40
1.0
 40
1.0
 40
1.0
 10
82.45544002593189
 20
137.4536053418959
 30
0.0
 10
82.46759235028495
 20
137.6100989505566
 30
0.0
 10
82.49187675972414
 20
137.9228255333011
 30
0.0
 10
82.51536263195372
 20
138.3924606132506
 30
0.0
 10
82.5293176010589
 20
138.8618865900414
 30
0.0
 10
82.53282033289278
 20
139.3311805693328
 30
0.0
 10
82.5261173669053
 20
139.8003213324579
 30
0.0
 10
82.50914235761057
 20
140.2693148471232
 30
0.0
 10
82.48191438129278
 20
140.7381565173086
 30
0.0
 10
82.44442365332432
 20
141.2068568630509
 30
0.0
 10
82.3410287610356
 20
142.2217208782824
 30
0.0
 10
82.08871888845098
 20
143.7732055338193
 30
0.0
 10
81.54216943735146
 20
145.8216815253301
 30
0.0
 10
80.79815813964345
 20
147.8036450634385
 30
0.0
 10
79.85758023821316
 20
149.7038958423649
 30
0.0
 10
78.73082623581986
 20
151.5022586633947
 30
0.0
 10
77.42420146512544
 20
153.1765653193607
 30
0.0
 10
75.95817323020744
 20
154.7042534601847
 30
0.0
 10
74.33934164909368
 20
156.0715945423659
 30
0.0
 10
72.58563641499778
 20
157.263780439155
 30
0.0
 10
70.70986550643724
 20
158.2633603719241
 30
0.0
 10
68.74059530617227
 20
159.0568127718045
 30
0.0
 10
66.69778741717064
 20
159.6306278832485
 30
0.0
 10
64.6077869766808
 20
159.9807874898737
 30
0.0
 10
62.49004888822626
 20
160.0996486103489
 30
0.0
 10
60.36822381963938
 20
159.9883326897057
 30
0.0
 10
58.27091747310615
 20
159.6436313333946
 30
0.0
 10
56.22388249431376
 20
159.0749460787
 30
0.0
 10
54.25449174621407
 20
158.2881071758939
 30
0.0
 10
52.37819896257657
 20
157.2955070189675
 30
0.0
 10
50.61908278082847
 20
156.1077988323444
 30
0.0
 10
48.98990163340931
 20
154.7397792663643
 30
0.0
 10
47.51594104012173
 20
153.2104560320887
 30
0.0
 10
46.20618573659598
 20
151.5390119866736
 30
0.0
 10
45.07655369961336
 20
149.7454278394146
 30
0.0
 10
44.13008914732276
 20
147.8443205253188
 30
0.0
 10
43.37983503775362
 20
145.8570415558445
 30
0.0
 10
42.82847359174343
 20
143.8033730821636
 30
0.0
 10
42.55303684876922
 20
142.1235969982168
 30
0.0
 10
42.43332429810869
 20
140.8534587271941
 30
0.0
 10
42.3868236807269
 20
140.0039663985274
 30
0.0
 10
42.37465247815938
 20
139.153948129144
 30
0.0
 10
42.39378919803055
 20
138.3031292069198
 30
0.0
 10
42.43487294114219
 20
137.7370115824541
 30
0.0
 10
42.45544002593188
 20
137.4536053418959
 30
0.0
  0
LINE
  5
F2
330
1F
100
AcDbEntity
  8
0
  6
SLD-Сплошная
 62
     7
370
    25
100
AcDbLine
 10
27.3522885126
 20
157.3721514934
 30
0.0
 11
27.3521875035
 21
157.3725043264
 31
0.0
  0
SPLINE
  5
F3
330
1F
100
AcDbEntity
  8
0
  6
SLD-Сплошная
 62
     7
370
    25
100
AcDbSpline
210
0.0
220
0.0
230
1.0
 70
     8
 71
     3
 72
    67
 73
    63
 74
     0
 42
0.00000001
 43
0.00000001
 40
0.0
 40
0.0
 40
0.0
 40
0.0
 40
0.0231104514083148
 40
0.0461142053782351
 40
0.0513059077434706
 40
0.0564864918999773
 40
0.0616593318356829
 40
0.0668233160708767
 40
0.0719879439859363
 40
0.077144544652014
 40
0.0823094363126614
 40
0.0889920860939512
 40
0.0956551555289218
 40
0.1022987509170319
 40
0.108922977898513
 40
0.1155279413458757
 40
0.1221137452571746
 40
0.1286804926511168
 40
0.1644604054738613
 40
0.2199380402540227
 40
0.2749783671218547
 40
0.3287929402034128
 40
0.3493391757967928
 40
0.3698883354241156
 40
0.3904744767885728
 40
0.4110278563524897
 40
0.4316796864108635
 40
0.4522572337002926
 40
0.4728640543030431
 40
0.4935000948267347
 40
0.5140509645527652
 40
0.5346997533142063
 40
0.5387500056668049
 40
0.5428701715208717
 40
0.5468228384182106
 40
0.5509662440106146
 40
0.5552131104165504
 40
0.560491511901732
 40
0.5656889864406195
 40
0.5708052744041099
 40
0.5758401273739107
 40
0.5964561266040455
 40
0.6168270576290917
 40
0.6372430802896464
 40
0.6578268148717195
 40
0.677866459558373
 40
0.6982347780291746
 40
0.718923759372737
 40
0.739924667737666
 40
0.7604515703575179
 40
0.7810186054079403
 40
0.8014874142606021
 40
0.8221602098260623
 40
0.8427462952391963
 40
0.8633722593573885
 40
0.8839993916269421
 40
0.904566579394703
 40
0.9252415189968953
 40
0.9458041401043543
 40
0.9666481135729096
 40
0.9875088877405311
 40
1.0
 40
1.0
 40
1.0
 40
1.0
 10
27.35218750350597
 20
157.3725043263673
 30
0.0
 10
27.44112502734349
 20
157.5194321745114
 30
0.0
 10
27.61858946400091
 20
157.8126095272766
 30
0.0
 10
27.88325830404827
 20
157.7624912098561
 30
0.0
 10
28.06140183564743
 20
157.625867472791
 30
0.0
 10
28.1459419366626
 20
157.5413940518881
 30
0.0
 10
28.23143069173454
 20
157.4372081816879
 30
0.0
 10
28.31776306660239
 20
157.3130924133793
 30
0.0
 10
28.40475875554297
 20
157.1696033216014
 30
0.0
 10
28.49228081070926
 20
157.0057464541874
 30
0.0
 10
28.58982705832394
 20
156.8170133803975
 30
0.0
 10
28.69865200055015
 20
156.611696106491
 30
0.0
 10
28.81894997857015
 20
156.3846925838667
 30
0.0
 10
28.94175162658843
 20
156.1545530002859
 30
0.0
 10
29.06698886992648
 20
155.9209221267879
 30
0.0
 10
29.19463246811243
 20
155.6839406220675
 30
0.0
 10
29.32464514159181
 20
155.4436212016968
 30
0.0
 10
29.65337682104021
 20
154.8385184848104
 30
0.0
 10
30.35377726181687
 20
153.5655371544295
 30
0.0
 10
31.53828302310051
 20
151.4585465708701
 30
0.0
 10
33.05559495926048
 20
148.8279558339565
 30
0.0
 10
34.40049836767024
 20
146.5242753673954
 30
0.0
 10
35.47127789947348
 20
144.7853141239677
 30
0.0
 10
36.19401159039455
 20
143.4990747131722
 30
0.0
 10
36.97393829711312
 20
142.7769069260761
 30
0.0
 10
37.77725860551195
 20
142.7541847613159
 30
0.0
 10
38.62223869125445
 20
143.391840250736
 30
0.0
 10
39.56951287620868
 20
144.6274158603441
 30
0.0
 10
40.69590009949722
 20
146.357382550269
 30
0.0
 10
42.07044566134788
 20
148.4372279631289
 30
0.0
 10
43.72943098827684
 20
150.7083649137135
 30
0.0
 10
45.15104273109377
 20
152.3972019476481
 30
0.0
 10
46.12421952151169
 20
153.4468580949945
 30
0.0
 10
46.54310936190488
 20
153.8843018220053
 30
0.0
 10
46.97424109769939
 20
154.3202926765248
 30
0.0
 10
47.4186091846471
 20
154.7553947943907
 30
0.0
 10
47.92336345715838
 20
155.2254309492632
 30
0.0
 10
48.48448486241568
 20
155.7126880674211
 30
0.0
 10
49.09746475225114
 20
156.2070558865981
 30
0.0
 10
49.71847094347985
 20
156.6717335737256
 30
0.0
 10
50.99607929400469
 20
157.5586543332037
 30
0.0
 10
53.02902994476001
 20
158.7140220798674
 30
0.0
 10
55.93669633144425
 20
159.8533069227519
 30
0.0
 10
58.97934661625343
 20
160.5685107366403
 30
0.0
 10
62.0783105134152
 20
160.8411406723725
 30
0.0
 10
65.18184021171996
 20
160.6734845690149
 30
0.0
 10
68.23500633721675
 20
160.0700786026206
 30
0.0
 10
71.21401742140749
 20
159.0218845800476
 30
0.0
 10
74.01161072069168
 20
157.549358384228
 30
0.0
 10
76.5571788947977
 20
155.6971118505274
 30
0.0
 10
78.77926971932523
 20
153.50994162789
 30
0.0
 10
80.7767870725441
 20
151.2204620180734
 30
0.0
 10
82.4969523923549
 20
148.9316160604604
 30
0.0
 10
83.93493878764785
 20
146.795120969534
 30
0.0
 10
85.11127892795515
 20
144.9686125425298
 30
0.0
 10
86.09104129284084
 20
143.6175557791718
 30
0.0
 10
86.95346639164426
 20
142.8361845442117
 30
0.0
 10
87.7622211684771
 20
142.7186283078361
 30
0.0
 10
88.5556225321949
 20
143.2694260767194
 30
0.0
 10
89.29180111398118
 20
144.5351782557289
 30
0.0
 10
89.9218411131575
 20
145.5573112476603
 30
0.0
 10
90.26349884923759
 20
146.1394438416175
 30
0.0
 10
90.39145818206339
 20
146.3574669989256
 30
0.0
  0
SPLINE
  5
F4
330
1F
100
AcDbEntity
  8
0
  6
SLD-Сплошная
 62
     7
370
    25
100
AcDbSpline
210
0.0
220
0.0
230
1.0
 70
     8
 71
     3
 72
    12
 73
     8
 74
     0
 42
0.00000001
 43
0.00000001
 40
0.0
 40
0.0
 40
0.0
 40
0.0
 40
0.093757869295584
 40
0.4853291760051671
 40
0.6574782754107316
 40
0.8284576139724042
 40
1.0
 40
1.0
 40
1.0
 40
1.0
 10
94.75468317985636
 20
153.9353790135944
 30
0.0
 10
94.87339385571075
 20
154.1469279804637
 30
0.0
 10
95.4878889901275
 20
155.2419921766409
 30
0.0
 10
96.13259884133868
 20
156.4886211109073
 30
0.0
 10
96.79267739406461
 20
157.6694480546959
 30
0.0
 10
97.23497909266831
 20
157.8657658235912
 30
0.0
 10
97.45079685591965
 20
157.5375484976389
 30
0.0
 10
97.55888312139568
 20
157.3731700679292
 30
0.0
  0
SPLINE
  5
F5
330
1F
100
AcDbEntity
  8
0
  6
SLD-Сплошная
 62
     7
370
    25
100
AcDbSpline
210
0.0
220
0.0
230
1.0
 70
     8
 71
     3
 72
     8
 73
     4
 74
     0
 42
0.00000001
 43
0.00000001
 40
0.0
 40
0.0
 40
0.0
 40
0.0
 40
1.0
 40
1.0
 40
1.0
 40
1.0
 10
80.92729293728391
 20
119.6957973015307
 30
0.0
 10
81.44797123681089
 20
125.6003762443007
 30
0.0
 10
81.95738136051511
 20
131.5199681852586
 30
0.0
 10
82.45544002593184
 20
137.4536053418959
 30
0.0
  0
LINE
  5
F6
330
1F
100
AcDbEntity
  8
0
  6
SLD-Сплошная
 62
     7
370
    25
100
AcDbLine
 10
100.4554400259
 20
119.6957973015
 30
0.0
 11
80.9272929373
 21
119.6957973015
 31
0.0
  0
LINE
  5
F7
330
1F
100
AcDbEntity
  8
0
  6
SLD-Сплошная
 62
     7
370
    25
100
AcDbLine
 10
100.4554400259
 20
112.6957973015
 30
0.0
 11
24.4554400259
 21
112.6957973015
 31
0.0
  0
LINE
  5
F8
330
1F
100
AcDbEntity
  8
0
  6
SLD-Сплошная
 62
     7
370
    25
100
AcDbLine
 10
43.9835871146
 20
119.6957973015
 30
0.0
 11
24.4554400259
 21
119.6957973015
 31
0.0
  0
SPLINE
  5
F9
330
1F
100
AcDbEntity
  8
0
  6
SLD-Сплошная
 62
     7
370
    25
100
AcDbSpline
210
0.0
220
0.0
230
1.0
 70
     8
 71
     3
 72
     8
 73
     4
 74
     0
 42
0.00000001
 43
0.00000001
 40
0.0
 40
0.0
 40
0.0
 40
0.0
 40
1.0
 40
1.0
 40
1.0
 40
1.0
 10
43.98358711457979
 20
119.6957973015307
 30
0.0
 10
43.46290881505288
 20
125.6003762443012
 30
0.0
 10
42.95349869134859
 20
131.5199681852587
 30
0.0
 10
42.45544002593199
 20
137.4536053418959
 30
0.0
  0
CIRCLE
  5
FA
330
1F
100
AcDbEntity
  8
0
  6
SLD-Сплошная
 62
     7
370
    25
100
AcDbCircle
 10
62.4554400259
 20
133.4536053419
 30
0.0
 40
12.50000000000006
  0
SPLINE
  5
FB
330
1F
100
AcDbEntity
  8
0
  6
SLD-Сплошная
 62
     7
370
    25
100
AcDbSpline
210
0.0
220
0.0
230
1.0
 70
     8
 71
     3
 72
    32
 73
    28
 74
     0
 42
0.00000001
 43
0.00000001
 40
0.0
 40
0.0
 40
0.0
 40
0.0
 40
0.0693856327857628
 40
0.1111108444514914
 40
0.125175633833591
 40
0.1564965250106319
 40
0.1877724010417094
 40
0.2190204353737114
 40
0.2502578473714756
 40
0.3126746689165257
 40
0.3752423137975884
 40
0.4377860624214192
 40
0.5001925573916379
 40
0.5627041798758466
 40
0.6252701165624793
 40
0.6418071433437773
 40
0.656536073217027
 40
0.6878274381908929
 40
0.7190903133363451
 40
0.7503763757900761
 40
0.8128539313107244
 40
0.8753298841337588
 40
0.9002658970133456
 40
0.9251734967870573
 40
0.9500801091123554
 40
0.9750131629042894
 40
1.0
 40
1.0
 40
1.0
 40
1.0
 10
98.45544002593259
 20
131.6408759985519
 30
0.0
 10
98.45521257699826
 20
132.4666722670176
 30
0.0
 10
98.45484835111823
 20
133.7890630423157
 30
0.0
 10
98.45284262044257
 20
135.2780986717521
 30
0.0
 10
98.4510970621185
 20
136.3157218035161
 30
0.0
 10
98.44919175981433
 20
137.2214989614038
 30
0.0
 10
98.44608964545196
 20
138.311680709796
 30
0.0
 10
98.4421115070877
 20
139.3831186640074
 30
0.0
 10
98.43547165264044
 20
140.7853749814446
 30
0.0
 10
98.42432775509253
 20
142.4912707712498
 30
0.0
 10
98.40529537245172
 20
144.4573444696737
 30
0.0
 10
98.37944096737597
 20
146.3384326617108
 30
0.0
 10
98.34552126798285
 20
148.1292822582041
 30
0.0
 10
98.30223565256671
 20
149.8267237413425
 30
0.0
 10
98.26141682730078
 20
151.0343549708406
 30
0.0
 10
98.23060217429278
 20
151.8036733503242
 30
0.0
 10
98.20901413790354
 20
152.3077761388157
 30
0.0
 10
98.17998311277698
 20
152.9030485088398
 30
0.0
 10
98.14055455647586
 20
153.5787831333683
 30
0.0
 10
98.08211920967932
 20
154.415199801032
 30
0.0
 10
97.99735640638058
 20
155.338518379939
 30
0.0
 10
97.89944712460641
 20
156.0599938818369
 30
0.0
 10
97.81675017462754
 20
156.5126181944466
 30
0.0
 10
97.75809066069476
 20
156.7802759131647
 30
0.0
 10
97.69563830696053
 20
157.0131596820253
 30
0.0
 10
97.62960361572642
 20
157.2144057967233
 30
0.0
 10
97.58227922708399
 20
157.3195318405419
 30
0.0
 10
97.55859153929785
 20
157.372151493444
 30
0.0
  0
LINE
  5
FC
330
1F
100
AcDbEntity
  8
0
  6
SLD-Сплошная
 62
     7
370
    25
100
AcDbLine
 10
98.4554400259
 20
119.6957973015
 30
0.0
 11
98.4554400259
 21
131.6408759986
 31
0.0
  0
LINE
  5
FD
330
1F
100
AcDbEntity
  8
0
  6
SLD-Сплошная
 62
     7
370
    25
100
AcDbLine
 10
26.4554400259
 20
119.6957973015
 30
0.0
 11
26.4554400259
 21
131.6408759986
 31
0.0
  0
SPLINE
  5
FE
330
1F
100
AcDbEntity
  8
0
  6
SLD-Сплошная
 62
     7
370
    25
100
AcDbSpline
210
0.0
220
0.0
230
1.0
 70
     8
 71
     3
 72
    34
 73
    30
 74
     0
 42
0.00000001
 43
0.00000001
 40
0.0
 40
0.0
 40
0.0
 40
0.0
 40
0.0139471059362247
 40
0.0278738599525203
 40
0.0417849909295224
 40
0.0556852436928369
 40
0.0695793742127694
 40
0.0834721447472128
 40
0.0973683189523117
 40
0.1112726569859134
 40
0.1251899106290132
 40
0.1877623041837546
 40
0.25034791049137
 40
0.2816625874549787
 40
0.3129689820548953
 40
0.3442530100588652
 40
0.3590292868443468
 40
0.3754881528925985
 40
0.4380041455264068
 40
0.5004826089374842
 40
0.5629031954874109
 40
0.6254759746734977
 40
0.6880626510639639
 40
0.7505159307659964
 40
0.8127986039638609
 40
0.8752151278192628
 40
0.889104593093954
 40
0.9306995508756296
 40
1.0
 40
1.0
 40
1.0
 40
1.0
 10
27.3522885125635
 20
157.3721514934492
 30
0.0
 10
27.33897430830074
 20
157.3435989007304
 30
0.0
 10
27.31236532815126
 20
157.2865353798563
 30
0.0
 10
27.27401034904812
 20
157.1873896128568
 30
0.0
 10
27.23680873201543
 20
157.0784079172871
 30
0.0
 10
27.20084569485324
 20
156.9586152162789
 30
0.0
 10
27.16606663301124
 20
156.828271471938
 30
0.0
 10
27.13245463587984
 20
156.6873058532332
 30
0.0
 10
27.09998309110955
 20
156.5357375640365
 30
0.0
 10
27.06862797365942
 20
156.3735564083207
 30
0.0
 10
27.00311731782391
 20
155.9995321428045
 30
0.0
 10
26.91241158356408
 20
155.3287034659745
 30
0.0
 10
26.82770041833694
 20
154.4022403587586
 30
0.0
 10
26.76932440416283
 20
153.5630849601102
 30
0.0
 10
26.72997324600063
 20
152.885764625467
 30
0.0
 10
26.70099882418801
 20
152.2887724826752
 30
0.0
 10
26.67948315882323
 20
151.7843953387113
 30
0.0
 10
26.64876990502345
 20
151.0151747023453
 30
0.0
 10
26.60809925396273
 20
149.8080012396235
 30
0.0
 10
26.56493906135033
 20
148.1101581261123
 30
0.0
 10
26.53111213484643
 20
146.3182255847153
 30
0.0
 10
26.50533234219957
 20
144.4355455096199
 30
0.0
 10
26.48636293908125
 20
142.467657316053
 30
0.0
 10
26.47306319566729
 20
140.4211164450975
 30
0.0
 10
26.46428429839526
 20
138.3003761727393
 30
0.0
 10
26.4603820634567
 20
136.6743283190655
 30
0.0
 10
26.45802615998435
 20
135.2698188149336
 30
0.0
 10
26.45602978881378
 20
133.785498594916
 30
0.0
 10
26.45566683931872
 20
132.465663606906
 30
0.0
 10
26.45544002593015
 20
131.640875998555
 30
0.0
  0
LINE
  5
FF
330
1F
100
AcDbEntity
  8
0
  6
SLD-Сплошная
 62
     7
370
    25
100
AcDbLine
 10
100.4554400259
 20
119.6957973015
 30
0.0
 11
106.4554400259
 21
119.6957973015
 31
0.0
  0
LINE
  5
100
330
1F
100
AcDbEntity
  8
0
  6
SLD-Сплошная
 62
     7
370
    25
100
AcDbLine
 10
106.4554400259
 20
119.6957973015
 30
0.0
 11
106.4554400259
 21
112.6957973015
 31
0.0
  0
LINE
  5
101
330
1F
100
AcDbEntity
  8
0
  6
SLD-Сплошная
 62
     7
370
    25
100
AcDbLine
 10
106.4554400259
 20
112.6957973015
 30
0.0
 11
100.4554400259
 21
112.6957973015
 31
0.0
  0
LINE
  5
102
330
1F
100
AcDbEntity
  8
0
  6
SLD-Сплошная
 62
     7
370
    25
100
AcDbLine
 10
18.4554400259
 20
112.6957973015
 30
0.0
 11
18.4554400259
 21
119.6957973015
 31
0.0
  0
LINE
  5
103
330
1F
100
AcDbEntity
  8
0
  6
SLD-Сплошная
 62
     7
370
    25
100
AcDbLine
 10
18.4554400259
 20
119.6957973015
 30
0.0
 11
24.4554400259
 21
119.6957973015
 31
0.0
  0
LINE
  5
104
330
1F
100
AcDbEntity
  8
0
  6
SLD-Сплошная
 62
     7
370
    25
100
AcDbLine
 10
24.4554400259
 20
112.6957973015
 30
0.0
 11
18.4554400259
 21
112.6957973015
 31
0.0
  0
SPLINE
  5
105
330
1F
100
AcDbEntity
  8
0
  6
SLD-Сплошная
 62
     7
370
    25
100
AcDbSpline
210
0.0
220
0.0
230
1.0
 70
     8
 71
     3
 72
    12
 73
     8
 74
     0
 42
0.00000001
 43
0.00000001
 40
0.0
 40
0.0
 40
0.0
 40
0.0
 40
0.1759306487275035
 40
0.3640084448022142
 40
0.5641229059148675
 40
0.7761591648086217
 40
1.0
 40
1.0
 40
1.0
 40
1.0
 10
99.30904150900169
 20
158.7047145150548
 30
0.0
 10
99.29375057488421
 20
158.677910274511
 30
0.0
 10
99.26211294273804
 20
158.6224510922423
 30
0.0
 10
99.20366748333394
 20
158.5369458003524
 30
0.0
 10
99.13367282353187
 20
158.4462313506666
 30
0.0
 10
99.05095729046484
 20
158.3504426902548
 30
0.0
 10
98.98618587854966
 20
158.2853447207061
 30
0.0
 10
98.95292309154765
 20
158.2519142329131
 30
0.0
  0
SPLINE
  5
106
330
1F
100
AcDbEntity
  8
0
  6
SLD-Сплошная
 62
     7
370
    25
100
AcDbSpline
210
0.0
220
0.0
230
1.0
 70
     8
 71
     3
 72
    15
 73
    11
 74
     0
 42
0.00000001
 43
0.00000001
 40
0.0
 40
0.0
 40
0.0
 40
0.0
 40
0.0999447170192983
 40
0.1996300822384494
 40
0.2991180499869837
 40
0.398470943873574
 40
0.4977513418864638
 40
0.6695021105629693
 40
0.8367985296723842
 40
1.0
 40
1.0
 40
1.0
 40
1.0
 10
98.9529230915474
 20
158.2519142329111
 30
0.0
 10
98.92028736679242
 20
158.2213225559499
 30
0.0
 10
98.85510060544023
 20
158.1602185859781
 30
0.0
 10
98.7463255486599
 20
158.0694946152143
 30
0.0
 10
98.62968180764031
 20
157.9796335790128
 30
0.0
 10
98.50436749787053
 20
157.8906917436879
 30
0.0
 10
98.33808096762279
 20
157.7812305919731
 30
0.0
 10
98.12401656366565
 20
157.6535167623351
 30
0.0
 10
97.85551884730262
 20
157.5098787154387
 30
0.0
 10
97.65694155647928
 20
157.4183616442169
 30
0.0
 10
97.55888312139743
 20
157.373170067929
 30
0.0
  0
SPLINE
  5
107
330
1F
100
AcDbEntity
  8
0
  6
SLD-Сплошная
 62
     7
370
    25
100
AcDbSpline
210
0.0
220
0.0
230
1.0
 70
     8
 71
     3
 72
    16
 73
    12
 74
     0
 42
0.00000001
 43
0.00000001
 40
0.0
 40
0.0
 40
0.0
 40
0.0
 40
0.0804950099089514
 40
0.161992000494648
 40
0.2445402070976822
 40
0.3281870088105836
 40
0.4129779431419434
 40
0.4989567296962037
 40
0.6655238713382863
 40
0.8324343070096193
 40
1.0
 40
1.0
 40
1.0
 40
1.0
 10
27.35218750350289
 20
157.3725043263633
 30
0.0
 10
27.30164922428391
 20
157.3954427236158
 30
0.0
 10
27.19994357866069
 20
157.4416050492465
 30
0.0
 10
27.05502284718938
 20
157.5125249589146
 30
0.0
 10
26.91450631332267
 20
157.5851865168445
 30
0.0
 10
26.77902020452252
 20
157.6596840335973
 30
0.0
 10
26.64842044707159
 20
157.7359945652969
 30
0.0
 10
26.48394923518937
 20
157.8381440157145
 30
0.0
 10
26.29588579673033
 20
157.9668777919263
 30
0.0
 10
26.09539732352332
 20
158.1229067950468
 30
0.0
 10
25.98371835088408
 20
158.2287649558529
 30
0.0
 10
25.9277694719084
 20
158.2817977272651
 30
0.0
  0
SPLINE
  5
108
330
1F
100
AcDbEntity
  8
0
  6
SLD-Сплошная
 62
     7
370
    25
100
AcDbSpline
210
0.0
220
0.0
230
1.0
 70
     8
 71
     3
 72
    12
 73
     8
 74
     0
 42
0.00000001
 43
0.00000001
 40
0.0
 40
0.0
 40
0.0
 40
0.0
 40
0.221121136983869
 40
0.4317745711122843
 40
0.631866425900564
 40
0.821304580649564
 40
0.9999999999999999
 40
0.9999999999999999
 40
0.9999999999999999
 40
0.9999999999999999
 10
25.9277694719084
 20
158.281797727267
 30
0.0
 10
25.89874521062115
 20
158.3118272529856
 30
0.0
 10
25.84207067402962
 20
158.3704647300024
 30
0.0
 10
25.76872876612877
 20
158.4569060039987
 30
0.0
 10
25.70570789309874
 20
158.5392854336574
 30
0.0
 10
25.65215658533008
 20
158.617503290739
 30
0.0
 10
25.62257797995213
 20
158.6684144635317
 30
0.0
 10
25.60822025312772
 20
158.6931272145869
 30
0.0
  0
SPLINE
  5
109
330
1F
100
AcDbEntity
  8
0
  6
SLD-Сплошная
 62
     7
370
    25
100
AcDbSpline
210
0.0
220
0.0
230
1.0
 70
     8
 71
     3
 72
     9
 73
     5
 74
     0
 42
0.00000001
 43
0.00000001
 40
0.0
 40
0.0
 40
0.0
 40
0.0
 40
0.5361025011923236
 40
0.9999999999999999
 40
0.9999999999999999
 40
0.9999999999999999
 40
0.9999999999999999
 10
25.60822025312778
 20
158.6931272145849
 30
0.0
 10
25.54619384951173
 20
158.8323322071626
 30
0.0
 10
25.43049507273285
 20
159.0919933582823
 30
0.0
 10
25.52489813512068
 20
159.3520942189501
 30
0.0
 10
25.56869147964217
 20
159.4727543576516
 30
0.0
  0
SPLINE
  5
10A
330
1F
100
AcDbEntity
  8
0
  6
SLD-Сплошная
 62
     7
370
    25
100
AcDbSpline
210
0.0
220
0.0
230
1.0
 70
     8
 71
     3
 72
    24
 73
    20
 74
     0
 42
0.00000001
 43
0.00000001
 40
0.0
 40
0.0
 40
0.0
 40
0.0
 40
0.005689302216135
 40
0.0753659496640548
 40
0.1446294782027721
 40
0.2141697326978283
 40
0.3540159384614573
 40
0.493774789705731
 40
0.6314221203105228
 40
0.6920703380389245
 40
0.7510008480147243
 40
0.808222160469375
 40
0.8412155473207039
 40
0.8758290190408639
 40
0.9101112139044024
 40
0.944488016358205
 40
0.9713467078728467
 40
0.9980784497320697
 40
1.0
 40
1.0
 40
1.0
 40
1.0
 10
97.01042983587742
 20
163.6415938312987
 30
0.0
 10
96.99549441427952
 20
163.6596516432867
 30
0.0
 10
96.79764550599573
 20
163.8988627271116
 30
0.0
 10
96.36389225360051
 20
163.8823507498849
 30
0.0
 10
95.77417000787905
 20
163.5620679281481
 30
0.0
 10
95.07144253071587
 20
162.3083555604402
 30
0.0
 10
94.08803231023623
 20
160.5979057014834
 30
0.0
 10
92.75537758397891
 20
158.2454083313865
 30
0.0
 10
91.55501615733954
 20
156.1161453222738
 30
0.0
 10
90.57651788914781
 20
154.3746770247769
 30
0.0
 10
89.87726246387501
 20
153.1264341311564
 30
0.0
 10
89.26408596322244
 20
152.035569166426
 30
0.0
 10
88.7382137070769
 20
151.0885688995873
 30
0.0
 10
88.29288368330941
 20
150.3230618308396
 30
0.0
 10
87.85784912133398
 20
149.4407156341164
 30
0.0
 10
87.34724825327895
 20
148.950012776399
 30
0.0
 10
86.76459472106886
 20
148.9586936776091
 30
0.0
 10
86.36791798104932
 20
149.1013168010583
 30
0.0
 10
86.12799456391653
 20
149.3025415344307
 30
0.0
 10
86.11190479299496
 20
149.3160360899118
 30
0.0
  0
SPLINE
  5
10B
330
1F
100
AcDbEntity
  8
0
  6
SLD-Сплошная
 62
     7
370
    25
100
AcDbSpline
210
0.0
220
0.0
230
1.0
 70
     8
 71
     3
 72
    28
 73
    24
 74
     0
 42
0.00000001
 43
0.00000001
 40
0.0
 40
0.0
 40
0.0
 40
0.0
 40
0.0173950759338028
 40
0.044054273058111
 40
0.0707363502112806
 40
0.0801899012913211
 40
0.08967855677475
 40
0.0982473169129876
 40
0.0994656488649936
 40
0.1034736588507807
 40
0.111070771056299
 40
0.1245881265419561
 40
0.1939472740561118
 40
0.2660263752873798
 40
0.34084105738278
 40
0.4469141342912056
 40
0.557084748443619
 40
0.6641550051407165
 40
0.7733301801086626
 40
0.8452243512580954
 40
0.9164174464179494
 40
0.988098947749583
 40
1.0
 40
1.0
 40
1.0
 40
1.0
 10
38.95379958110802
 20
149.447544154764
 30
0.0
 10
38.81066115118198
 20
149.3355708547052
 30
0.0
 10
38.44815284704646
 20
149.0519904693833
 30
0.0
 10
37.94922907444682
 20
148.9190330842442
 30
0.0
 10
37.55479771766221
 20
149.0136395513809
 30
0.0
 10
37.30186370245309
 20
149.2106759579562
 30
0.0
 10
37.15997920737696
 20
149.3684069209241
 30
0.0
 10
37.06758835611544
 20
149.5026838132296
 30
0.0
 10
37.0054101937633
 20
149.6112390941055
 30
0.0
 10
36.94789815718417
 20
149.7126362795757
 30
0.0
 10
36.83609544946054
 20
149.9121400780079
 30
0.0
 10
36.43573913072606
 20
150.6247538297829
 30
0.0
 10
35.76824872106147
 20
151.8162896404581
 30
0.0
 10
34.87753867703039
 20
153.4062091329292
 30
0.0
 10
33.8840430661723
 20
155.1768928273238
 30
0.0
 10
32.80904156764934
 20
157.0885532085632
 30
0.0
 10
31.70477607792031
 20
159.0389767162902
 30
0.0
 10
30.6854698525412
 20
160.8437072513123
 30
0.0
 10
29.86505533314656
 20
162.2457814229711
 30
0.0
 10
29.22829431505581
 20
163.4489808730873
 30
0.0
 10
28.62477640142505
 20
163.874796878658
 30
0.0
 10
28.15813109892215
 20
163.9184203078369
 30
0.0
 10
27.93574140747685
 20
163.660245306195
 30
0.0
 10
27.9040760511983
 20
163.6234845941491
 30
0.0
  0
SPLINE
  5
10C
330
1F
100
AcDbEntity
  8
0
  6
SLD-Сплошная
 62
     7
370
    25
100
AcDbSpline
210
0.0
220
0.0
230
1.0
 70
     8
 71
     3
 72
     9
 73
     5
 74
     0
 42
0.00000001
 43
0.00000001
 40
0.0
 40
0.0
 40
0.0
 40
0.0
 40
0.4299954412148695
 40
1.0
 40
1.0
 40
1.0
 40
1.0
 10
99.35027960633006
 20
159.4364254667231
 30
0.0
 10
99.38854460955274
 20
159.3314923909387
 30
0.0
 10
99.47753393258967
 20
159.0874593949424
 30
0.0
 10
99.37021422918801
 20
158.8436735551192
 30
0.0
 10
99.30904150900162
 20
158.7047145150528
 30
0.0
  0
LWPOLYLINE
  5
10D
330
1F
100
AcDbEntity
  8
0
  6
SLD-Сплошная
 62
     7
370
    25
100
AcDbPolyline
 90
       39
 70
   128
 43
0.0
 10
98.4553028496
 20
163.5684469927
 10
98.3323450664
 20
166.4399948611
 10
97.964311643
 20
169.2919271459
 10
97.353716621
 20
172.1047622577
 10
96.5047309834
 20
174.8592856805
 10
95.4231541631
 20
177.5366812263
 10
94.1163744264
 20
180.1186595687
 10
92.593318404
 20
182.5875831775
 10
90.8643901128
 20
184.926586801
 10
88.9413998863
 20
187.1196926728
 10
86.8374836975
 20
189.1519196559
 10
84.5670134273
 20
191.0093855794
 10
82.14549869
 20
192.6794020676
 10
79.5894808865
 20
194.1505612146
 10
76.9164202103
 20
195.4128135115
 10
74.1445763762
 20
196.4575364954
 10
71.2928838882
 20
197.2775936489
 10
68.3808226976
 20
197.8673831501
 10
65.428285135
 20
198.2228761386
 10
62.4554400259
 20
198.341644237
 10
59.4825949169
 20
198.2228761386
 10
56.5300573543
 20
197.8673831501
 10
53.6179961637
 20
197.2775936489
 10
50.7663036756
 20
196.4575364954
 10
47.9944598415
 20
195.4128135115
 10
45.3213991653
 20
194.1505612146
 10
42.7653813619
 20
192.6794020676
 10
40.3438666246
 20
191.0093855794
 10
38.0733963544
 20
189.1519196559
 10
35.9694801656
 20
187.1196926728
 10
34.0464899391
 20
184.926586801
 10
32.3175616479
 20
182.5875831775
 10
30.7945056255
 20
180.1186595687
 10
29.4877258888
 20
177.5366812263
 10
28.4061490684
 20
174.8592856805
 10
27.5571634309
 20
172.1047622577
 10
26.9465684089
 20
169.2919271459
 10
26.5785349855
 20
166.4399948611
 10
26.4555772023
 20
163.5684469927
  0
ARC
  5
10E
330
1F
100
AcDbEntity
  8
0
  6
SLD-Сплошная
 62
     7
370
    25
100
AcDbCircle
 10
62.4554400259
 20
148.5296326342
 30
0.0
 40
33.32809356291229
100
AcDbArc
 50
84.8355788926
 51
95.1644211074
  0
ARC
  5
10F
330
1F
100
AcDbEntity
  8
0
  6
SLD-Сплошная
 62
     7
370
    25
100
AcDbCircle
 10
60.8432905319
 20
155.9105634176
 30
0.0
 40
33.14278468075386
100
AcDbArc
 50
142.7675041092
 51
160.7047874302
  0
SPLINE
  5
110
330
1F
100
AcDbEntity
  8
0
  6
SLD-Сплошная
 62
     7
370
    25
100
AcDbSpline
210
0.0
220
0.0
230
1.0
 70
     8
 71
     3
 72
    13
 73
     9
 74
     0
 42
0.00000001
 43
0.00000001
 40
0.0
 40
0.0
 40
0.0
 40
0.0
 40
0.5000000000000003
 40
0.5000000000000003
 40
0.6250000000000003
 40
0.6250000000000003
 40
0.7500000000000002
 40
1.0
 40
1.0
 40
1.0
 40
1.0
 10
29.56218363025369
 20
166.8621170701057
 30
0.0
 10
29.71897163637741
 20
166.4288832058093
 30
0.0
 10
29.88961586778343
 20
165.9954770694473
 30
0.0
 10
30.12045250908794
 20
165.4535014347101
 30
0.0
 10
30.16695685753198
 20
165.3463442955905
 30
0.0
 10
30.26185534123322
 20
165.1316017397224
 30
0.0
 10
30.40671356378848
 20
164.8096317800258
 30
0.0
 10
30.55910410662067
 20
164.4880934901702
 30
0.0
 10
30.66404786501709
 20
164.2739266190806
 30
0.0
  0
ARC
  5
111
330
1F
100
AcDbEntity
  8
0
  6
SLD-Сплошная
 62
     7
370
    25
100
AcDbCircle
 10
60.8473591901
 20
153.348530209
 30
0.0
 40
32.09979079781987
100
AcDbArc
 50
145.3039741523
 51
160.1013590531
  0
SPLINE
  5
112
330
1F
100
AcDbEntity
  8
0
  6
SLD-Сплошная
 62
     7
370
    25
100
AcDbSpline
210
0.0
220
0.0
230
1.0
 70
     8
 71
     3
 72
    31
 73
    27
 74
     0
 42
0.00000001
 43
0.00000001
 40
0.0
 40
0.0
 40
0.0
 40
0.0
 40
0.0190231735041334
 40
0.0376104423101018
 40
0.055763484964217
 40
0.0734841034165867
 40
0.0907742348277331
 40
0.1076359647387399
 40
0.1240715417840091
 40
0.1889580503196596
 40
0.2485839807625471
 40
0.342194920093027
 40
0.424600302838412
 40
0.4987103978605948
 40
0.5589239757908356
 40
0.6187587807410321
 40
0.6812595188337112
 40
0.7491129654539108
 40
0.7781789790806335
 40
0.8086822052455139
 40
0.8407145086823329
 40
0.8743552298244923
 40
0.9036044639473653
 40
0.9342760700417093
 40
0.9663993996441098
 40
1.0
 40
1.0
 40
1.0
 40
1.0
 10
34.45544002593189
 20
171.620453263128
 30
0.0
 10
34.52699998763755
 20
171.7235831890911
 30
0.0
 10
34.66848015711917
 20
171.9274798801474
 30
0.0
 10
34.88147582726064
 20
172.2304172695773
 30
0.0
 10
35.09146861142948
 20
172.5266320976889
 30
0.0
 10
35.2983561338626
 20
172.816097050744
 30
0.0
 10
35.50174852743278
 20
173.0987157761048
 30
0.0
 10
35.7013722880634
 20
173.3744248327426
 30
0.0
 10
36.09071711857979
 20
173.9093782301881
 30
0.0
 10
36.65579629968899
 20
174.6772345507591
 30
0.0
 10
37.51899412142591
 20
175.85281307764
 30
0.0
 10
38.40242203482512
 20
177.0923007198504
 30
0.0
 10
39.14285856482509
 20
178.2932916942
 30
0.0
 10
39.4841612467913
 20
179.1397931897293
 30
0.0
 10
39.449267104474
 20
179.6308778292888
 30
0.0
 10
39.11124690452144
 20
179.8013837124128
 30
0.0
 10
38.49937460340048
 20
179.6604490500025
 30
0.0
 10
37.84990926412784
 20
179.3031562636577
 30
0.0
 10
37.30184346375137
 20
178.9142681263047
 30
0.0
 10
36.8996329859183
 20
178.5946738207477
 30
0.0
 10
36.47458877890148
 20
178.2215145496797
 30
0.0
 10
36.05692363899911
 20
177.8198054743985
 30
0.0
 10
35.65062999383183
 20
177.3970710050806
 30
0.0
 10
35.25806253777708
 20
176.9590388595414
 30
0.0
 10
34.8553532791101
 20
176.4806981997472
 30
0.0
 10
34.59072710309762
 20
176.1385502525802
 30
0.0
 10
34.45544002593188
 20
175.9636310649625
 30
0.0
  0
ARC
  5
113
330
1F
100
AcDbEntity
  8
0
  6
SLD-Сплошная
 62
     7
370
    25
100
AcDbCircle
 10
64.0635208618
 20
153.348530209
 30
0.0
 40
32.09979079781895
100
AcDbArc
 50
19.8986409469
 51
34.6960258477
  0
SPLINE
  5
114
330
1F
100
AcDbEntity
  8
0
  6
SLD-Сплошная
 62
     7
370
    25
100
AcDbSpline
210
0.0
220
0.0
230
1.0
 70
     8
 71
     3
 72
    13
 73
     9
 74
     0
 42
0.00000001
 43
0.00000001
 40
0.0
 40
0.0
 40
0.0
 40
0.0
 40
0.5000000000000001
 40
0.5000000000000001
 40
0.6250000000000001
 40
0.6250000000000001
 40
0.7500000000000002
 40
1.0
 40
1.0
 40
1.0
 40
1.0
 10
95.34869642161003
 20
166.8621170701057
 30
0.0
 10
95.19190841548678
 20
166.4288832058103
 30
0.0
 10
95.02126418408105
 20
165.9954770694493
 30
0.0
 10
94.79042754277714
 20
165.4535014347133
 30
0.0
 10
94.7439231943333
 20
165.346344295594
 30
0.0
 10
94.64902471063218
 20
165.1316017397263
 30
0.0
 10
94.50416648807712
 20
164.8096317800303
 30
0.0
 10
94.35177594524546
 20
164.4880934901752
 30
0.0
 10
94.24683218684667
 20
164.2739266190862
 30
0.0
  0
ARC
  5
115
330
1F
100
AcDbEntity
  8
0
  6
SLD-Сплошная
 62
     7
370
    25
100
AcDbCircle
 10
64.06758952
 20
155.9105634176
 30
0.0
 40
33.14278468075353
100
AcDbArc
 50
19.2952125698
 51
37.2324958908
  0
SPLINE
  5
116
330
1F
100
AcDbEntity
  8
0
  6
SLD-Сплошная
 62
     7
370
    25
100
AcDbSpline
210
0.0
220
0.0
230
1.0
 70
     8
 71
     3
 72
    33
 73
    29
 74
     0
 42
0.00000001
 43
0.00000001
 40
0.0
 40
0.0
 40
0.0
 40
0.0
 40
0.0167698686912492
 40
0.0331766068077675
 40
0.0492229838964125
 40
0.0649119603481437
 40
0.0802467035465168
 40
0.095230605517703
 40
0.1098673022115901
 40
0.1241606945479014
 40
0.1896920090388357
 40
0.2491295055361845
 40
0.3113120657070066
 40
0.3688334321753882
 40
0.4236626420191862
 40
0.4780618578837505
 40
0.4888638583483011
 40
0.4997285980742734
 40
0.5547948129075319
 40
0.6140076692088287
 40
0.6787750614335956
 40
0.7501770658739401
 40
0.8099829267840445
 40
0.8750954599440609
 40
0.9043170099288216
 40
0.9348675956411532
 40
0.9667585926074015
 40
1.0
 40
1.0
 40
1.0
 40
1.0
 10
90.45544002593186
 20
175.9636310649625
 30
0.0
 10
90.38820566095757
 20
176.0513947640519
 30
0.0
 10
90.25519280726206
 20
176.2250217488717
 30
0.0
 10
90.05393494079166
 20
176.4768977251329
 30
0.0
 10
89.85455923892799
 20
176.7188656984118
 30
0.0
 10
89.65708682045053
 20
176.9505804141041
 30
0.0
 10
89.46188769054943
 20
177.1721853656736
 30
0.0
 10
89.26923277583077
 20
177.3836954844184
 30
0.0
 10
89.07938405034837
 20
177.5851812689317
 30
0.0
 10
88.66809388589047
 20
178.0068916937829
 30
0.0
 10
88.04980787873228
 20
178.5794300240963
 30
0.0
 10
87.22842900726252
 20
179.2036690325167
 30
0.0
 10
86.49474367834203
 20
179.6186395044502
 30
0.0
 10
85.90653764855874
 20
179.7896284510983
 30
0.0
 10
85.53716755112087
 20
179.7028163425029
 30
0.0
 10
85.44745671867565
 20
179.4597843696869
 30
0.0
 10
85.45859468718723
 20
179.2497379764429
 30
0.0
 10
85.49146594672932
 20
179.0200736452655
 30
0.0
 10
85.65229664491562
 20
178.5590081638219
 30
0.0
 10
86.08866688457702
 20
177.7591037027909
 30
0.0
 10
86.72591857655105
 20
176.7871670525802
 30
0.0
 10
87.46392529049774
 20
175.7547719537802
 30
0.0
 10
88.24129748917537
 20
174.6959471015407
 30
0.0
 10
88.85948746004426
 20
173.856009746518
 30
0.0
 10
89.35442630999674
 20
173.1750134886433
 30
0.0
 10
89.71382615656213
 20
172.6752663901428
 30
0.0
 10
90.08411398181958
 20
172.1543017441377
 30
0.0
 10
90.3299655720294
 20
171.800845529395
 30
0.0
 10
90.45544002593189
 20
171.620453263128
 30
0.0
  0
LINE
  5
117
330
1F
100
AcDbEntity
  8
0
  6
SLD-Сплошная
 62
     7
370
    25
100
AcDbLine
 10
59.4554400259
 20
188.6211966507
 30
0.0
 11
59.4554400259
 21
189.6009925478
 31
0.0
  0
LINE
  5
118
330
1F
100
AcDbEntity
  8
0
  6
SLD-Сплошная
 62
     7
370
    25
100
AcDbLine
 10
65.4554400259
 20
189.6009925478
 30
0.0
 11
65.4554400259
 21
188.6211966507
 31
0.0
  0
LINE
  5
119
330
1F
100
AcDbEntity
  8
0
  6
SLD-Сплошная
 62
     7
370
    25
100
AcDbLine
 10
59.4554400259
 20
181.7224303551
 30
0.0
 11
59.4554400259
 21
188.6211966507
 31
0.0
  0
LINE
  5
11A
330
1F
100
AcDbEntity
  8
0
  6
SLD-Сплошная
 62
     7
370
    25
100
AcDbLine
 10
65.4554400259
 20
181.7224303551
 30
0.0
 11
65.4554400259
 21
188.6211966507
 31
0.0
  0
LINE
  5
11B
330
1F
100
AcDbEntity
  8
0
  6
SLD-Сплошная
 62
     7
370
    25
100
AcDbLine
 10
59.4554400259
 20
189.6009925478
 30
0.0
 11
59.4554400259
 21
189.9674232921
 31
0.0
  0
LINE
  5
11C
330
1F
100
AcDbEntity
  8
0
  6
SLD-Сплошная
 62
     7
370
    25
100
AcDbLine
 10
65.4554400259
 20
189.6009925478
 30
0.0
 11
65.4554400259
 21
189.9674232921
 31
0.0
  0
LINE
  5
11D
330
1F
100
AcDbEntity
  8
0
  6
SLD-Сплошная
 62
     7
370
    25
100
AcDbLine
 10
59.4554400259
 20
189.9674232921
 30
0.0
 11
59.4554400259
 21
189.9946826311
 31
0.0
  0
LINE
  5
11E
330
1F
100
AcDbEntity
  8
0
  6
SLD-Сплошная
 62
     7
370
    25
100
AcDbLine
 10
65.4554400259
 20
189.9946826311
 30
0.0
 11
65.4554400259
 21
189.9674232921
 31
0.0
  0
LINE
  5
11F
330
1F
100
AcDbEntity
  8
0
  6
SLD-Сплошная
 62
     7
370
    25
100
AcDbLine
 10
93.1804822202
 20
166.8621170701
 30
0.0
 11
95.3486964216
 21
166.8621170701
 31
0.0
  0
LINE
  5
120
330
1F
100
AcDbEntity
  8
0
  6
SLD-Сплошная
 62
     7
370
    25
100
AcDbLine
 10
29.5621836303
 20
166.8621170701
 30
0.0
 11
31.7303978317
 21
166.8621170701
 31
0.0
  0
SPLINE
  5
121
330
1F
100
AcDbEntity
  8
0
  6
SLD-Сплошная
 62
     7
370
    25
100
AcDbSpline
210
0.0
220
0.0
230
1.0
 70
     8
 71
     3
 72
    11
 73
     7
 74
     0
 42
0.00000001
 43
0.00000001
 40
0.0
 40
0.0
 40
0.0
 40
0.0
 40
0.2969341629220716
 40
0.5946926989398654
 40
0.8952194599060646
 40
1.0
 40
1.0
 40
1.0
 40
1.0
 10
98.45544002593188
 20
131.6408759985518
 30
0.0
 10
98.7403304634246
 20
132.5012857706257
 30
0.0
 10
99.31090227472261
 20
134.2244940552956
 30
0.0
 10
99.68788344841757
 20
136.9256327757912
 30
0.0
 10
99.90203978122528
 20
139.0530918798435
 30
0.0
 10
99.88759866328033
 20
140.2840431602822
 30
0.0
 10
99.88386532777446
 20
140.6022701935883
 30
0.0
  0
SPLINE
  5
122
330
1F
100
AcDbEntity
  8
0
  6
SLD-Сплошная
 62
     7
370
    25
100
AcDbSpline
210
0.0
220
0.0
230
1.0
 70
     8
 71
     3
 72
    14
 73
    10
 74
     0
 42
0.00000001
 43
0.00000001
 40
0.0
 40
0.0
 40
0.0
 40
0.0
 40
0.0989297025385305
 40
0.2502578309477913
 40
0.5004245118163759
 40
0.6360057005210862
 40
0.7498294784749157
 40
0.880205551791818
 40
0.9999999999999999
 40
0.9999999999999999
 40
0.9999999999999999
 40
0.9999999999999999
 10
98.95292309154765
 20
158.2519142329131
 30
0.0
 10
98.92091877552828
 20
158.221604886296
 30
0.0
 10
98.83995895757216
 20
158.144932752981
 30
0.0
 10
98.65658094928183
 20
157.9928637772212
 30
0.0
 10
98.43058418090641
 20
157.8323140737527
 30
0.0
 10
98.19082813551786
 20
157.6860174899935
 30
0.0
 10
97.99276361891506
 20
157.5768717370566
 30
0.0
 10
97.78844320226308
 20
157.4737191166852
 30
0.0
 10
97.63301737792335
 20
157.4050390324743
 30
0.0
 10
97.55859153929708
 20
157.3721514934437
 30
0.0
  0
SPLINE
  5
123
330
1F
100
AcDbEntity
  8
0
  6
SLD-Сплошная
 62
     7
370
    25
100
AcDbSpline
210
0.0
220
0.0
230
1.0
 70
     8
 71
     3
 72
     9
 73
     5
 74
     0
 42
0.00000001
 43
0.00000001
 40
0.0
 40
0.0
 40
0.0
 40
0.0
 40
0.3515453630461171
 40
1.0
 40
1.0
 40
1.0
 40
1.0
 10
99.37669047169203
 20
159.3687337434371
 30
0.0
 10
99.40390242145371
 20
159.2908744416995
 30
0.0
 10
99.48130907397187
 20
159.0693971874897
 30
0.0
 10
99.37680661384438
 20
158.8481701884193
 30
0.0
 10
99.30904150900162
 20
158.7047145150528
 30
0.0
  0
SPLINE
  5
124
330
1F
100
AcDbEntity
  8
0
  6
SLD-Сплошная
 62
     7
370
    25
100
AcDbSpline
210
0.0
220
0.0
230
1.0
 70
     8
 71
     3
 72
    11
 73
     7
 74
     0
 42
0.00000001
 43
0.00000001
 40
0.0
 40
0.0
 40
0.0
 40
0.0
 40
0.115521724236673
 40
0.4131685451121459
 40
0.7080733540871703
 40
1.0
 40
1.0
 40
1.0
 40
1.0
 10
25.01263055089466
 20
140.7309021334502
 30
0.0
 10
25.01360343429119
 20
140.375110847708
 30
0.0
 10
25.01708299469563
 20
139.1026076119312
 30
0.0
 10
25.21775060221295
 20
136.9295119971491
 30
0.0
 10
25.60118057862417
 20
134.2230620691095
 30
0.0
 10
26.17165192205583
 20
132.4986876284152
 30
0.0
 10
26.45544002593179
 20
131.6408759985566
 30
0.0
  0
SPLINE
  5
125
330
1F
100
AcDbEntity
  8
0
  6
SLD-Сплошная
 62
     7
370
    25
100
AcDbSpline
210
0.0
220
0.0
230
1.0
 70
     8
 71
     3
 72
     9
 73
     5
 74
     0
 42
0.00000001
 43
0.00000001
 40
0.0
 40
0.0
 40
0.0
 40
0.0
 40
0.5371445771607656
 40
1.0
 40
1.0
 40
1.0
 40
1.0
 10
25.60822025312778
 20
158.6931272145849
 30
0.0
 10
25.54252632415592
 20
158.8377053550108
 30
0.0
 10
25.42022418844581
 20
159.1068659247594
 30
0.0
 10
25.52023844572605
 20
159.3764903680696
 30
0.0
 10
25.56653058706946
 20
159.5012875037858
 30
0.0
  0
SPLINE
  5
126
330
1F
100
AcDbEntity
  8
0
  6
SLD-Сплошная
 62
     7
370
    25
100
AcDbSpline
210
0.0
220
0.0
230
1.0
 70
     8
 71
     3
 72
    15
 73
    11
 74
     0
 42
0.00000001
 43
0.00000001
 40
0.0
 40
0.0
 40
0.0
 40
0.0
 40
0.0786357998245216
 40
0.1620913677835652
 40
0.2504296801827517
 40
0.3635446419240215
 40
0.4996824897563298
 40
0.7494675270153913
 40
0.8961127519955123
 40
1.0
 40
1.0
 40
1.0
 40
1.0
 10
27.3522885125614
 20
157.3721514934441
 30
0.0
 10
27.30148439437496
 20
157.3943763764485
 30
0.0
 10
27.19676225732982
 20
157.4401883563999
 30
0.0
 10
27.04554904840443
 20
157.5126061366179
 30
0.0
 10
26.88235412109251
 20
157.5961231510927
 30
0.0
 10
26.70207595408326
 20
157.6964696411019
 30
0.0
 10
26.45695114537271
 20
157.8475598628175
 30
0.0
 10
26.22885211375912
 20
158.0122765457557
 30
0.0
 10
26.04304260077216
 20
158.1694690601801
 30
0.0
 10
25.96155824667835
 20
158.248872030968
 30
0.0
 10
25.92776947190841
 20
158.281797727267
 30
0.0
  0
LINE
  5
127
330
1F
100
AcDbEntity
  8
0
  6
SLD-Сплошная
 62
     7
370
    25
100
AcDbLine
 10
26.4554400259
 20
162.0950645758
 30
0.0
 11
26.4554400259
 21
163.6460927063
 31
0.0
  0
ARC
  5
128
330
1F
100
AcDbEntity
  8
0
  6
SLD-Сплошная
 62
     7
370
    25
100
AcDbCircle
 10
48.4304030305
 20
163.6460927961
 30
0.0
 40
21.97496300455215
100
AcDbArc
 50
180.0000002342
 51
180.2024479443
  0
LINE
  5
129
330
1F
100
AcDbEntity
  8
0
  6
SLD-Сплошная
 62
     7
370
    25
100
AcDbLine
 10
98.4554400259
 20
162.1209072075
 30
0.0
 11
98.4554400259
 21
163.6460927063
 31
0.0
  0
ARC
  5
12A
330
1F
100
AcDbEntity
  8
0
  6
SLD-Сплошная
 62
     7
370
    25
100
AcDbCircle
 10
76.4804771084
 20
163.6460927959
 30
0.0
 40
21.97496291752238
100
AcDbArc
 50
359.7975520555
 51
359.9999997664
  0
LWPOLYLINE
  5
12B
330
1F
100
AcDbEntity
  8
0
  6
SLD-Сплошная
 62
     7
370
    25
100
AcDbPolyline
 90
       46
 70
   128
 43
0.0
 10
99.674625787
 20
157.2700887403
 10
99.8321716834
 20
158.1973864902
 10
100.163493856
 20
161.1009787169
 10
100.2534487553
 20
164.0208620847
 10
100.1014605848
 20
166.9383465733
 10
99.7085022127
 20
169.8347575178
 10
99.0770889449
 20
172.6915551437
 10
98.2112624246
 20
175.4904532393
 10
97.116564762
 20
178.2135362048
 10
95.8000030594
 20
180.8433737291
 10
94.2700045589
 20
183.3631323603
 10
92.5363627009
 20
185.7566832556
 10
90.6101744357
 20
188.0087054213
 10
88.5037691934
 20
190.1047837819
 10
86.2306299634
 20
192.0315014497
 10
83.8053069905
 20
193.7765256061
 10
81.2433246399
 20
195.328686443
 10
78.561082026
 20
196.6780486604
 10
75.775748043
 20
197.8159750616
 10
72.9051514676
 20
198.7351818394
 10
69.9676668378
 20
199.4297851995
 10
66.9820968384
 20
199.8953390222
 10
63.9675519464
 20
200.1288633219
 10
60.9433281054
 20
200.1288633219
 10
57.9287832134
 20
199.8953390222
 10
54.9432132141
 20
199.4297851995
 10
52.0057285842
 20
198.7351818394
 10
49.1351320088
 20
197.8159750616
 10
46.3497980259
 20
196.6780486604
 10
43.667555412
 20
195.328686443
 10
41.1055730613
 20
193.7765256061
 10
38.6802500885
 20
192.0315014497
 10
36.4071108585
 20
190.1047837819
 10
34.3007056162
 20
188.0087054213
 10
32.374517351
 20
185.7566832556
 10
30.6408754929
 20
183.3631323603
 10
29.1108769925
 20
180.8433737291
 10
27.7943152898
 20
178.2135362048
 10
26.6996176272
 20
175.4904532393
 10
25.833791107
 20
172.6915551437
 10
25.2023778392
 20
169.8347575178
 10
24.8094194671
 20
166.9383465733
 10
24.6574312965
 20
164.0208620847
 10
24.7473861959
 20
161.1009787169
 10
25.0787083685
 20
158.1973864902
 10
25.2685975334
 20
157.0963787041
  0
LWPOLYLINE
  5
12C
330
1F
100
AcDbEntity
  8
0
  6
SLD-Сплошная
 62
     7
370
    25
100
AcDbPolyline
 90
       42
 70
   128
 43
0.0
 10
100.2554400259
 20
164.6813688867
 10
100.2452094177
 20
165.530795797
 10
100.0565544544
 20
168.4219088525
 10
99.6312085446
 20
171.2894760115
 10
98.9718491495
 20
174.1154465543
 10
98.0826267951
 20
176.8820316026
 10
96.9691389451
 20
179.5718160972
 10
95.6383947667
 20
182.167868422
 10
94.098771009
 20
184.6538469846
 10
92.359959273
 20
187.0141030835
 10
90.4329050056
 20
189.233779413
 10
88.3297385998
 20
191.2989035869
 10
86.0636990368
 20
193.1964760917
 10
83.6490505495
 20
194.9145521157
 10
81.1009928318
 20
196.442316739
 10
78.4355653604
 20
197.7701530112
 10
75.6695464292
 20
198.8897024878
 10
72.8203475337
 20
199.7939178451
 10
69.9059037697
 20
200.4771072415
 10
66.9445609352
 20
200.9349701464
 10
63.954960048
 20
201.164624411
 10
60.9559200039
 20
201.164624411
 10
57.9663191166
 20
200.9349701464
 10
55.0049762822
 20
200.4771072415
 10
52.0905325181
 20
199.7939178451
 10
49.2413336227
 20
198.8897024878
 10
46.4753146915
 20
197.7701530112
 10
43.80988722
 20
196.442316739
 10
41.2618295024
 20
194.9145521157
 10
38.847181015
 20
193.1964760917
 10
36.5811414521
 20
191.2989035869
 10
34.4779750463
 20
189.233779413
 10
32.5509207788
 20
187.0141030835
 10
30.8121090429
 20
184.6538469846
 10
29.2724852851
 20
182.167868422
 10
27.9417411068
 20
179.5718160972
 10
26.8282532568
 20
176.8820316026
 10
25.9390309023
 20
174.1154465543
 10
25.2796715072
 20
171.2894760115
 10
24.8543255974
 20
168.4219088525
 10
24.6656706342
 20
165.530795797
 10
24.6554400259
 20
164.6813688867
  0
LINE
  5
12D
330
1F
100
AcDbEntity
  8
0
  6
SLD-Сплошная
 62
     7
370
    25
100
AcDbLine
 10
98.4552131032
 20
163.6460927063
 30
0.0
 11
98.4554400259
 21
163.6460927063
 31
0.0
  0
LINE
  5
12E
330
1F
100
AcDbEntity
  8
0
  6
SLD-Сплошная
 62
     7
370
    25
100
AcDbLine
 10
26.4554400259
 20
163.6460927063
 30
0.0
 11
26.4556669487
 21
163.6460927063
 31
0.0
  0
LINE
  5
12F
330
1F
100
AcDbEntity
  8
0
  6
SLD-Сплошная
 62
     7
370
    25
100
AcDbLine
 10
48.1554400259
 20
198.4798023054
 30
0.0
 11
48.1554400259
 21
218.1334326942
 31
0.0
  0
LINE
  5
130
330
1F
100
AcDbEntity
  8
0
  6
SLD-Сплошная
 62
     7
370
    25
100
AcDbLine
 10
52.1554400259
 20
218.1334326942
 30
0.0
 11
52.1554400259
 21
207.341085697
 31
0.0
  0
LINE
  5
131
330
1F
100
AcDbEntity
  8
0
  6
SLD-Сплошная
 62
     7
370
    25
100
AcDbLine
 10
72.7554400259
 20
207.341085697
 30
0.0
 11
52.1554400259
 21
207.341085697
 31
0.0
  0
LINE
  5
132
330
1F
100
AcDbEntity
  8
0
  6
SLD-Сплошная
 62
     7
370
    25
100
AcDbLine
 10
72.7554400259
 20
207.341085697
 30
0.0
 11
72.7554400259
 21
218.1334326942
 31
0.0
  0
LINE
  5
133
330
1F
100
AcDbEntity
  8
0
  6
SLD-Сплошная
 62
     7
370
    25
100
AcDbLine
 10
76.7554400259
 20
198.4798023054
 30
0.0
 11
76.7554400259
 21
218.1334326942
 31
0.0
  0
ARC
  5
134
330
1F
100
AcDbEntity
  8
0
  6
SLD-Сплошная
 62
     7
370
    25
100
AcDbCircle
 10
63.2963164874
 20
176.023319156
 30
0.0
 40
31.3331732664899
100
AcDbArc
 50
19.2442079321
 51
64.5610776946
  0
ARC
  5
135
330
1F
100
AcDbEntity
  8
0
  6
SLD-Сплошная
 62
     7
370
    25
100
AcDbCircle
 10
62.4554400259
 20
174.3995572674
 30
0.0
 40
33.1712996809032
100
AcDbArc
 50
83.2523081778
 51
96.7476918222
  0
ARC
  5
136
330
1F
100
AcDbEntity
  8
0
  6
SLD-Сплошная
 62
     7
370
    25
100
AcDbCircle
 10
61.6145635644
 20
176.023319156
 30
0.0
 40
31.33317326648993
100
AcDbArc
 50
115.4389223054
 51
160.7557920679
  0
LINE
  5
137
330
1F
100
AcDbEntity
  8
0
  6
SLD-Сплошная
 62
     7
370
    25
100
AcDbLine
 10
72.7554400259
 20
218.1334326942
 30
0.0
 11
72.7554400259
 21
219.7499552579
 31
0.0
  0
LINE
  5
138
330
1F
100
AcDbEntity
  8
0
  6
SLD-Сплошная
 62
     7
370
    25
100
AcDbLine
 10
76.7554400259
 20
218.1334326942
 30
0.0
 11
76.7554400259
 21
219.7499552579
 31
0.0
  0
LINE
  5
139
330
1F
100
AcDbEntity
  8
0
  6
SLD-Сплошная
 62
     7
370
    25
100
AcDbLine
 10
52.1554400259
 20
219.7499552579
 30
0.0
 11
52.1554400259
 21
218.1334326942
 31
0.0
  0
LINE
  5
13A
330
1F
100
AcDbEntity
  8
0
  6
SLD-Сплошная
 62
     7
370
    25
100
AcDbLine
 10
48.1554400259
 20
218.1334326942
 30
0.0
 11
48.1554400259
 21
219.7499552579
 31
0.0
  0
SPLINE
  5
13B
330
1F
100
AcDbEntity
  8
0
  6
SLD-Сплошная
 62
     7
370
    25
100
AcDbSpline
210
0.0
220
0.0
230
1.0
 70
     8
 71
     3
 72
    10
 73
     6
 74
     0
 42
0.00000001
 43
0.00000001
 40
0.0
 40
0.0
 40
0.0
 40
0.0
 40
0.5
 40
0.5
 40
1.0
 40
1.0
 40
1.0
 40
1.0
 10
68.95544002593189
 20
226.5495962407735
 30
0.0
 10
69.04574817636464
 20
226.4770694742648
 30
0.0
 10
69.14388382661404
 20
226.3824146144812
 30
0.0
 10
69.30884512784628
 20
226.1865664502622
 30
0.0
 10
69.37357181674902
 20
226.0878651113186
 30
0.0
 10
69.41085097911979
 20
226.0089154963757
 30
0.0
  0
SPLINE
  5
13C
330
1F
100
AcDbEntity
  8
0
  6
SLD-Сплошная
 62
     7
370
    25
100
AcDbSpline
210
0.0
220
0.0
230
1.0
 70
     8
 71
     3
 72
    10
 73
     6
 74
     0
 42
0.00000001
 43
0.00000001
 40
0.0
 40
0.0
 40
0.0
 40
0.0
 40
0.5
 40
0.5
 40
1.0
 40
1.0
 40
1.0
 40
1.0
 10
55.95544002593184
 20
226.5495962407735
 30
0.0
 10
55.86513187549909
 20
226.4770694742648
 30
0.0
 10
55.76699622524967
 20
226.3824146144812
 30
0.0
 10
55.60203492401745
 20
226.1865664502622
 30
0.0
 10
55.53730823511471
 20
226.0878651113186
 30
0.0
 10
55.50002907274393
 20
226.0089154963757
 30
0.0
  0
LINE
  5
13D
330
1F
100
AcDbEntity
  8
0
  6
SLD-Сплошная
 62
     7
370
    25
100
AcDbLine
 10
69.4554400259
 20
226.7220288441
 30
0.0
 11
69.4554400259
 21
225.8108089608
 31
0.0
  0
SPLINE
  5
13E
330
1F
100
AcDbEntity
  8
0
  6
SLD-Сплошная
 62
     7
370
    25
100
AcDbSpline
210
0.0
220
0.0
230
1.0
 70
     8
 71
     3
 72
     8
 73
     4
 74
     0
 42
0.00000001
 43
0.00000001
 40
0.0
 40
0.0
 40
0.0
 40
0.0
 40
1.0
 40
1.0
 40
1.0
 40
1.0
 10
69.45544002593189
 20
225.8108089608029
 30
0.0
 10
69.45544002593186
 20
225.8783678407097
 30
0.0
 10
69.43990672558903
 20
225.9473813885863
 30
0.0
 10
69.41085097911979
 20
226.0089154963757
 30
0.0
  0
SPLINE
  5
13F
330
1F
100
AcDbEntity
  8
0
  6
SLD-Сплошная
 62
     7
370
    25
100
AcDbSpline
210
0.0
220
0.0
230
1.0
 70
     8
 71
     3
 72
     8
 73
     4
 74
     0
 42
0.00000001
 43
0.00000001
 40
0.0
 40
0.0
 40
0.0
 40
0.0
 40
1.0
 40
1.0
 40
1.0
 40
1.0
 10
55.50002907274393
 20
226.0089154963757
 30
0.0
 10
55.47097332627467
 20
225.9473813885864
 30
0.0
 10
55.45544002593185
 20
225.8783678407098
 30
0.0
 10
55.45544002593184
 20
225.8108089608029
 30
0.0
  0
LINE
  5
140
330
1F
100
AcDbEntity
  8
0
  6
SLD-Сплошная
 62
     7
370
    25
100
AcDbLine
 10
55.4554400259
 20
225.8108089608
 30
0.0
 11
55.4554400259
 21
226.7220288441
 31
0.0
  0
LINE
  5
141
330
1F
100
AcDbEntity
  8
0
  6
SLD-Сплошная
 62
     7
370
    25
100
AcDbLine
 10
55.4554400259
 20
222.7403778124
 30
0.0
 11
55.4554400259
 21
225.8108089608
 31
0.0
  0
LINE
  5
142
330
1F
100
AcDbEntity
  8
0
  6
SLD-Сплошная
 62
     7
370
    25
100
AcDbLine
 10
69.4554400259
 20
222.7403778124
 30
0.0
 11
69.4554400259
 21
225.8108089608
 31
0.0
  0
LINE
  5
143
330
1F
100
AcDbEntity
  8
0
  6
SLD-Сплошная
 62
     7
370
    25
100
AcDbLine
 10
52.4554400259
 20
220.1674817805
 30
0.0
 11
52.4554400259
 21
208.8499552579
 31
0.0
  0
LINE
  5
144
330
1F
100
AcDbEntity
  8
0
  6
SLD-Сплошная
 62
     7
370
    25
100
AcDbLine
 10
52.4554400259
 20
220.1674817805
 30
0.0
 11
55.4554400259
 21
220.1674817805
 31
0.0
  0
LINE
  5
145
330
1F
100
AcDbEntity
  8
0
  6
SLD-Сплошная
 62
     7
370
    25
100
AcDbLine
 10
69.4554400259
 20
220.1674817805
 30
0.0
 11
72.4554400259
 21
220.1674817805
 31
0.0
  0
LINE
  5
146
330
1F
100
AcDbEntity
  8
0
  6
SLD-Сплошная
 62
     7
370
    25
100
AcDbLine
 10
72.4554400259
 20
208.8499552579
 30
0.0
 11
72.4554400259
 21
220.1674817805
 31
0.0
  0
LINE
  5
147
330
1F
100
AcDbEntity
  8
0
  6
SLD-Сплошная
 62
     7
370
    25
100
AcDbLine
 10
55.4554400259
 20
218.544042028
 30
0.0
 11
55.4554400259
 21
222.7403778124
 31
0.0
  0
LINE
  5
148
330
1F
100
AcDbEntity
  8
0
  6
SLD-Сплошная
 62
     7
370
    25
100
AcDbLine
 10
69.4554400259
 20
222.7403778124
 30
0.0
 11
69.4554400259
 21
218.544042028
 31
0.0
  0
LINE
  5
149
330
1F
100
AcDbEntity
  8
0
  6
SLD-Сплошная
 62
     7
370
    25
100
AcDbLine
 10
72.4554400259
 20
221.2319291077
 30
0.0
 11
69.4554400259
 21
221.2319291077
 31
0.0
  0
LINE
  5
14A
330
1F
100
AcDbEntity
  8
0
  6
SLD-Сплошная
 62
     7
370
    25
100
AcDbLine
 10
72.4554400259
 20
221.2319291077
 30
0.0
 11
72.4554400259
 21
220.1674817805
 31
0.0
  0
LINE
  5
14B
330
1F
100
AcDbEntity
  8
0
  6
SLD-Сплошная
 62
     7
370
    25
100
AcDbLine
 10
55.4554400259
 20
221.2319291077
 30
0.0
 11
52.4554400259
 21
221.2319291077
 31
0.0
  0
LINE
  5
14C
330
1F
100
AcDbEntity
  8
0
  6
SLD-Сплошная
 62
     7
370
    25
100
AcDbLine
 10
52.4554400259
 20
220.1674817805
 30
0.0
 11
52.4554400259
 21
221.2319291077
 31
0.0
  0
LINE
  5
14D
330
1F
100
AcDbEntity
  8
0
  6
SLD-Сплошная
 62
     7
370
    25
100
AcDbLine
 10
70.4554400259
 20
208.8499552579
 30
0.0
 11
70.4554400259
 21
207.341085697
 31
0.0
  0
LINE
  5
14E
330
1F
100
AcDbEntity
  8
0
  6
SLD-Сплошная
 62
     7
370
    25
100
AcDbLine
 10
72.4554400259
 20
208.8499552579
 30
0.0
 11
72.4554400259
 21
207.341085697
 31
0.0
  0
LINE
  5
14F
330
1F
100
AcDbEntity
  8
0
  6
SLD-Сплошная
 62
     7
370
    25
100
AcDbLine
 10
54.4554400259
 20
208.8499552579
 30
0.0
 11
54.4554400259
 21
207.341085697
 31
0.0
  0
LINE
  5
150
330
1F
100
AcDbEntity
  8
0
  6
SLD-Сплошная
 62
     7
370
    25
100
AcDbLine
 10
52.4554400259
 20
208.8499552579
 30
0.0
 11
52.4554400259
 21
207.341085697
 31
0.0
  0
LINE
  5
151
330
1F
100
AcDbEntity
  8
0
  6
SLD-Сплошная
 62
     7
370
    25
100
AcDbLine
 10
54.4554400259
 20
208.1071772674
 30
0.0
 11
70.4554400259
 21
208.1071772674
 31
0.0
  0
ARC
  5
152
330
1F
100
AcDbEntity
  8
0
  6
SLD-Сплошная
 62
     7
370
    25
100
AcDbCircle
 10
63.3008131347
 20
176.0273541412
 30
0.0
 40
31.32759805595014
100
AcDbArc
 50
19.2399512108
 51
64.5653344159
  0
ARC
  5
153
330
1F
100
AcDbEntity
  8
0
  6
SLD-Сплошная
 62
     7
370
    25
100
AcDbCircle
 10
61.6100669171
 20
176.0273541412
 30
0.0
 40
31.32759805595015
100
AcDbArc
 50
115.4346655841
 51
160.7600487892
  0
LINE
  5
154
330
1F
100
AcDbEntity
  8
0
  6
SLD-Сплошная
 62
     7
370
    25
100
AcDbLine
 10
72.4554400259
 20
207.7170079691
 30
0.0
 11
72.7554400259
 21
207.6202562549
 31
0.0
  0
ARC
  5
155
330
1F
100
AcDbEntity
  8
0
  6
SLD-Сплошная
 62
     7
370
    25
100
AcDbCircle
 10
63.4261181334
 20
177.8524127838
 30
0.0
 40
31.15334454377941
100
AcDbArc
 50
13.729797037
 51
64.6680675646
  0
ARC
  5
156
330
1F
100
AcDbEntity
  8
0
  6
SLD-Сплошная
 62
     7
370
    25
100
AcDbCircle
 10
61.5544164786
 20
177.7956060721
 30
0.0
 40
31.23451539339696
100
AcDbArc
 50
115.4028336791
 51
166.1993017193
  0
LINE
  5
157
330
1F
100
AcDbEntity
  8
0
  6
SLD-Сплошная
 62
     7
370
    25
100
AcDbLine
 10
52.1554400259
 20
207.6202562549
 30
0.0
 11
52.4554400259
 21
207.7170079691
 31
0.0
  0
LINE
  5
158
330
1F
100
AcDbEntity
  8
0
  6
SLD-Сплошная
 62
     7
370
    25
100
AcDbLine
 10
352.5676705089
 20
137.4446346099
 30
0.0
 11
352.5676705089
 21
134.1098164846
 31
0.0
  0
LINE
  5
159
330
1F
100
AcDbEntity
  8
0
  6
SLD-Сплошная
 62
     7
370
    25
100
AcDbLine
 10
366.1676705089
 20
134.1098164846
 30
0.0
 11
366.1676705089
 21
137.4446346099
 31
0.0
  0
LINE
  5
15A
330
1F
100
AcDbEntity
  8
0
  6
SLD-Сплошная
 62
     7
370
    25
100
AcDbLine
 10
391.4176705089
 20
172.7591112843
 30
0.0
 11
391.4176705089
 21
176.6129268659
 31
0.0
  0
LINE
  5
15B
330
1F
100
AcDbEntity
  8
0
  6
SLD-Сплошная
 62
     7
370
    25
100
AcDbLine
 10
391.4176705089
 20
164.6813688867
 30
0.0
 11
391.4176705089
 21
167.024543975
 31
0.0
  0
LINE
  5
15C
330
1F
100
AcDbEntity
  8
0
  6
SLD-Сплошная
 62
     7
370
    25
100
AcDbLine
 10
327.3176705089
 20
167.024543975
 30
0.0
 11
327.3176705089
 21
164.6813688867
 31
0.0
  0
LINE
  5
15D
330
1F
100
AcDbEntity
  8
0
  6
SLD-Сплошная
 62
     7
370
    25
100
AcDbLine
 10
327.3176705089
 20
176.6129268659
 30
0.0
 11
327.3176705089
 21
172.7591112843
 31
0.0
  0
LINE
  5
15E
330
1F
100
AcDbEntity
  8
0
  6
SLD-Сплошная
 62
     7
370
    25
100
AcDbLine
 10
327.7176705089
 20
167.8833381514
 30
0.0
 11
327.7176705089
 21
167.024543975
 31
0.0
  0
LINE
  5
15F
330
1F
100
AcDbEntity
  8
0
  6
SLD-Сплошная
 62
     7
370
    25
100
AcDbLine
 10
391.4176705089
 20
170.5672646539
 30
0.0
 11
391.4176705089
 21
171.3777851579
 31
0.0
  0
LINE
  5
160
330
1F
100
AcDbEntity
  8
0
  6
SLD-Сплошная
 62
     7
370
    25
100
AcDbLine
 10
391.4176705089
 20
169.4865673777
 30
0.0
 11
391.4176705089
 21
170.2970878816
 31
0.0
  0
LINE
  5
161
330
1F
100
AcDbEntity
  8
0
  6
SLD-Сплошная
 62
     7
370
    25
100
AcDbLine
 10
391.4176705089
 20
168.4058701014
 30
0.0
 11
391.4176705089
 21
169.2163906054
 31
0.0
  0
LINE
  5
162
330
1F
100
AcDbEntity
  8
0
  6
SLD-Сплошная
 62
     7
370
    25
100
AcDbLine
 10
373.6676705089
 20
219.7499552579
 30
0.0
 11
369.6676705089
 21
219.7499552579
 31
0.0
  0
LINE
  5
163
330
1F
100
AcDbEntity
  8
0
  6
SLD-Сплошная
 62
     7
370
    25
100
AcDbLine
 10
349.0676705089
 20
219.7499552579
 30
0.0
 11
345.0676705089
 21
219.7499552579
 31
0.0
  0
SPLINE
  5
164
330
1F
100
AcDbEntity
  8
0
  6
SLD-Сплошная
 62
     7
370
    25
100
AcDbSpline
210
0.0
220
0.0
230
1.0
 70
     8
 71
     3
 72
    15
 73
    11
 74
     0
 42
0.00000001
 43
0.00000001
 40
0.0
 40
0.0
 40
0.0
 40
0.0
 40
0.0359684418316534
 40
0.1123561321139156
 40
0.2071455697040565
 40
0.3400079229237411
 40
0.4966069887719016
 40
0.6769415509997789
 40
0.8814942584802372
 40
0.9999999999999999
 40
0.9999999999999999
 40
0.9999999999999999
 40
0.9999999999999999
 10
322.209108138218
 20
157.2814639362774
 30
0.0
 10
322.1984011833175
 20
157.1350391451644
 30
0.0
 10
322.1649554186949
 20
156.6776458765862
 30
0.0
 10
322.1204196301989
 20
155.7931097414267
 30
0.0
 10
322.0628215576093
 20
154.3627492233736
 30
0.0
 10
322.0085041165382
 20
152.4217793378873
 30
0.0
 10
321.961738729224
 20
149.8851005438902
 30
0.0
 10
321.9310987690628
 20
146.7215451631875
 30
0.0
 10
321.9177245669117
 20
143.6012184109595
 30
0.0
 10
321.9187042220396
 20
141.407167385981
 30
0.0
 10
321.9190635835042
 20
140.6023358007
 30
0.0
  0
SPLINE
  5
165
330
1F
100
AcDbEntity
  8
0
  6
SLD-Сплошная
 62
     7
370
    25
100
AcDbSpline
210
0.0
220
0.0
230
1.0
 70
     8
 71
     3
 72
    15
 73
    11
 74
     0
 42
0.00000001
 43
0.00000001
 40
0.0
 40
0.0
 40
0.0
 40
0.0
 40
0.1565139146117268
 40
0.2979523915772414
 40
0.4200588896487666
 40
0.5249642073869598
 40
0.6412371372331489
 40
0.7787455328207029
 40
0.9385901735953875
 40
1.0
 40
1.0
 40
1.0
 40
1.0
 10
396.817991200058
 20
140.7307708995854
 30
0.0
 10
396.8175251837877
 20
141.726872897338
 30
0.0
 10
396.8166380379862
 20
143.6231322377394
 30
0.0
 10
396.8065696050231
 20
146.1341457865798
 30
0.0
 10
396.7906701131162
 20
148.2452396209158
 30
0.0
 10
396.7686063515252
 20
150.116219082786
 30
0.0
 10
396.7352769748683
 20
152.0356292742709
 30
0.0
 10
396.6745912732918
 20
154.1548494022035
 30
0.0
 10
396.6036016004253
 20
155.9329971272524
 30
0.0
 10
396.5298589161192
 20
156.8483971268002
 30
0.0
 10
396.5093914177695
 20
157.1024690819551
 30
0.0
  0
LINE
  5
166
330
1F
100
AcDbEntity
  8
0
  6
SLD-Сплошная
 62
     7
370
    25
100
AcDbLine
 10
397.1676705089
 20
163.6460927063
 30
0.0
 11
397.1676705089
 21
164.6813688867
 31
0.0
  0
LINE
  5
167
330
1F
100
AcDbEntity
  8
0
  6
SLD-Сплошная
 62
     7
370
    25
100
AcDbLine
 10
321.5676705089
 20
164.6813688867
 30
0.0
 11
321.5676705089
 21
163.6460927063
 31
0.0
  0
LINE
  5
168
330
1F
100
AcDbEntity
  8
0
  6
SLD-Сплошная
 62
     7
370
    25
100
AcDbLine
 10
391.4176705089
 20
176.6129268659
 30
0.0
 11
391.4176705089
 21
178.3045665586
 31
0.0
  0
LINE
  5
169
330
1F
100
AcDbEntity
  8
0
  6
SLD-Сплошная
 62
     7
370
    25
100
AcDbLine
 10
327.3176705089
 20
178.3045665586
 30
0.0
 11
327.3176705089
 21
176.6129268659
 31
0.0
  0
LINE
  5
16A
330
1F
100
AcDbEntity
  8
0
  6
SLD-Сплошная
 62
     7
370
    25
100
AcDbLine
 10
366.3676705089
 20
221.2499552579
 30
0.0
 11
352.3676705089
 21
221.2499552579
 31
0.0
  0
ARC
  5
16B
330
1F
100
AcDbEntity
  8
0
  6
SLD-Сплошная
 62
     7
370
    25
100
AcDbCircle
 10
363.3676705089
 20
222.6829134061
 30
0.0
 40
0.5
100
AcDbArc
 50
0.0
 51
89.89653903
  0
LINE
  5
16C
330
1F
100
AcDbEntity
  8
0
  6
SLD-Сплошная
 62
     7
370
    25
100
AcDbLine
 10
363.3676705089
 20
223.183008843
 30
0.0
 11
355.3676705089
 21
223.183008843
 31
0.0
  0
ARC
  5
16D
330
1F
100
AcDbEntity
  8
0
  6
SLD-Сплошная
 62
     7
370
    25
100
AcDbCircle
 10
355.3676705089
 20
222.6829134061
 30
0.0
 40
0.5000000000000081
100
AcDbArc
 50
89.8983391458
 51
180.200162166
  0
ARC
  5
16E
330
1F
100
AcDbEntity
  8
0
  6
SLD-Сплошная
 62
     7
370
    25
100
AcDbCircle
 10
363.3676705089
 20
224.0825592134
 30
0.0
 40
0.5000000000000048
100
AcDbArc
 50
0.0
 51
89.9148011944
  0
LINE
  5
16F
330
1F
100
AcDbEntity
  8
0
  6
SLD-Сплошная
 62
     7
370
    25
100
AcDbLine
 10
363.3676705089
 20
224.5826426268
 30
0.0
 11
355.3676705089
 21
224.5826426268
 31
0.0
  0
ARC
  5
170
330
1F
100
AcDbEntity
  8
0
  6
SLD-Сплошная
 62
     7
370
    25
100
AcDbCircle
 10
355.3676705089
 20
224.0825592134
 30
0.0
 40
0.5000000000000054
100
AcDbArc
 50
89.9164010169
 51
180.2599290831
  0
ARC
  5
171
330
1F
100
AcDbEntity
  8
0
  6
SLD-Сплошная
 62
     7
370
    25
100
AcDbCircle
 10
363.3676705089
 20
225.6179640051
 30
0.0
 40
0.5
100
AcDbArc
 50
0.0
 51
90.0
  0
LINE
  5
172
330
1F
100
AcDbEntity
  8
0
  6
SLD-Сплошная
 62
     7
370
    25
100
AcDbLine
 10
363.3676705089
 20
226.1179640051
 30
0.0
 11
355.3676705089
 21
226.1179640051
 31
0.0
  0
ARC
  5
173
330
1F
100
AcDbEntity
  8
0
  6
SLD-Сплошная
 62
     7
370
    25
100
AcDbCircle
 10
355.3676705089
 20
225.6179640051
 30
0.0
 40
0.5000000000000295
100
AcDbArc
 50
90.0
 51
183.167076021
  0
LINE
  5
174
330
1F
100
AcDbEntity
  8
0
  6
SLD-Сплошная
 62
     7
370
    25
100
AcDbLine
 10
365.8676705089
 20
227.2220288441
 30
0.0
 11
352.8676705089
 21
227.2220288441
 31
0.0
  0
ARC
  5
175
330
1F
100
AcDbEntity
  8
0
  6
SLD-Сплошная
 62
     7
370
    25
100
AcDbCircle
 10
365.8676705089
 20
226.7220288441
 30
0.0
 40
0.5
100
AcDbArc
 50
0.0
 51
90.0
  0
ARC
  5
176
330
1F
100
AcDbEntity
  8
0
  6
SLD-Сплошная
 62
     7
370
    25
100
AcDbCircle
 10
352.8676705089
 20
226.7220288441
 30
0.0
 40
0.5
100
AcDbArc
 50
90.0
 51
180.0
  0
ARC
  5
177
330
1F
100
AcDbEntity
  8
0
  6
SLD-Сплошная
 62
     7
370
    25
100
AcDbCircle
 10
359.3676705089
 20
134.2909568456
 30
0.0
 40
6.80241220673639
100
AcDbArc
 50
181.5259006398
 51
358.4740993602
  0
ARC
  5
178
330
1F
100
AcDbEntity
  8
0
  6
SLD-Сплошная
 62
     7
370
    25
100
AcDbCircle
 10
358.3590671738
 20
176.9126534841
 30
0.0
 40
31.04284366726078
100
AcDbArc
 50
180.5532140434
 51
253.1633111325
  0
ARC
  5
179
330
1F
100
AcDbEntity
  8
0
  6
SLD-Сплошная
 62
     7
370
    25
100
AcDbCircle
 10
360.3072957083
 20
176.9643652027
 30
0.0
 40
31.11235974883335
100
AcDbArc
 50
286.9306890454
 51
359.3527857786
  0
ARC
  5
17A
330
1F
100
AcDbEntity
  8
0
  6
SLD-Сплошная
 62
     7
370
    25
100
AcDbCircle
 10
361.2064624919
 20
172.8012414018
 30
0.0
 40
30.21123739267041
100
AcDbArc
 50
326.4191861089
 51
359.9200999724
  0
LINE
  5
17B
330
1F
100
AcDbEntity
  8
0
  6
SLD-Сплошная
 62
     7
370
    25
100
AcDbLine
 10
386.3756408313
 20
156.0910251699
 30
0.0
 11
386.3756408313
 21
150.3564578606
 31
0.0
  0
ARC
  5
17C
330
1F
100
AcDbEntity
  8
0
  6
SLD-Сплошная
 62
     7
370
    25
100
AcDbCircle
 10
361.2152965995
 20
167.0622944523
 30
0.0
 40
30.20145523132289
100
AcDbArc
 50
326.4168383291
 51
1.2387499154
  0
ARC
  5
17D
330
1F
100
AcDbEntity
  8
0
  6
SLD-Сплошная
 62
     7
370
    25
100
AcDbCircle
 10
358.5271864
 20
165.0657956477
 30
0.0
 40
31.21188341147281
100
AcDbArc
 50
180.7057115901
 51
259.0073036071
  0
ARC
  5
17E
330
1F
100
AcDbEntity
  8
0
  6
SLD-Сплошная
 62
     7
370
    25
100
AcDbCircle
 10
360.2081546178
 20
165.0657956477
 30
0.0
 40
31.21188341147249
100
AcDbArc
 50
280.9926963929
 51
359.2942884099
  0
ARC
  5
17F
330
1F
100
AcDbEntity
  8
0
  6
SLD-Сплошная
 62
     7
370
    25
100
AcDbCircle
 10
357.4821023458
 20
172.7870917935
 30
0.0
 40
30.16444481426969
100
AcDbArc
 50
180.0531475161
 51
213.6075664026
  0
ARC
  5
180
330
1F
100
AcDbEntity
  8
0
  6
SLD-Сплошная
 62
     7
370
    25
100
AcDbCircle
 10
357.4514223887
 20
167.0389049479
 30
0.0
 40
30.13135516184407
100
AcDbArc
 50
174.566933632
 51
213.6182880046
  0
LINE
  5
181
330
1F
100
AcDbEntity
  8
0
  6
SLD-Сплошная
 62
     7
370
    25
100
AcDbLine
 10
332.3597001865
 20
156.0910251699
 30
0.0
 11
332.3597001865
 21
150.3564578606
 31
0.0
  0
ARC
  5
182
330
1F
100
AcDbEntity
  8
0
  6
SLD-Сплошная
 62
     7
370
    25
100
AcDbCircle
 10
361.1471688777
 20
167.0917400987
 30
0.0
 40
30.07611957868038
100
AcDbArc
 50
327.015798141
 51
352.9476319726
  0
ARC
  5
183
330
1F
100
AcDbEntity
  8
0
  6
SLD-Сплошная
 62
     7
370
    25
100
AcDbCircle
 10
361.0495027834
 20
171.500458442
 30
0.0
 40
30.18650961300653
100
AcDbArc
 50
333.4553977424
 51
340.1886796622
  0
LINE
  5
184
330
1F
100
AcDbEntity
  8
0
  6
SLD-Сплошная
 62
     7
370
    25
100
AcDbLine
 10
388.053954161
 20
158.010277998
 30
0.0
 11
388.053954161
 21
157.199757494
 31
0.0
  0
LINE
  5
185
330
1F
100
AcDbEntity
  8
0
  6
SLD-Сплошная
 62
     7
370
    25
100
AcDbLine
 10
388.1872196778
 20
157.199757494
 30
0.0
 11
388.053954161
 21
156.9295807217
 31
0.0
  0
LINE
  5
186
330
1F
100
AcDbEntity
  8
0
  6
SLD-Сплошная
 62
     7
370
    25
100
AcDbLine
 10
388.053954161
 20
156.9295807217
 30
0.0
 11
388.053954161
 21
155.0383629415
 31
0.0
  0
LINE
  5
187
330
1F
100
AcDbEntity
  8
0
  6
SLD-Сплошная
 62
     7
370
    25
100
AcDbLine
 10
389.8618853563
 20
161.4165904126
 30
0.0
 11
389.7761523844
 21
161.1464136403
 31
0.0
  0
LINE
  5
188
330
1F
100
AcDbEntity
  8
0
  6
SLD-Сплошная
 62
     7
370
    25
100
AcDbLine
 10
389.7761523844
 20
161.1464136403
 30
0.0
 11
389.7761523844
 21
159.2551958601
 31
0.0
  0
ARC
  5
189
330
1F
100
AcDbEntity
  8
0
  6
SLD-Сплошная
 62
     7
370
    25
100
AcDbCircle
 10
361.3616669562
 20
171.3962899656
 30
0.0
 40
29.85727426580323
100
AcDbArc
 50
342.1154299504
 51
352.9898259693
  0
LINE
  5
18A
330
1F
100
AcDbEntity
  8
0
  6
SLD-Сплошная
 62
     7
370
    25
100
AcDbLine
 10
389.7761523844
 20
162.2271109165
 30
0.0
 11
389.7761523844
 21
161.4165904126
 31
0.0
  0
ARC
  5
18B
330
1F
100
AcDbEntity
  8
0
  6
SLD-Сплошная
 62
     7
370
    25
100
AcDbCircle
 10
357.4943387068
 20
167.051144891
 30
0.0
 40
29.77668007984635
100
AcDbArc
 50
180.0511850353
 51
212.4238511401
  0
ARC
  5
18C
330
1F
100
AcDbEntity
  8
0
  6
SLD-Сплошная
 62
     7
370
    25
100
AcDbCircle
 10
361.0655184763
 20
171.4989251637
 30
0.0
 40
30.37014604193415
100
AcDbArc
 50
333.6315643233
 51
340.3165083168
  0
LINE
  5
18D
330
1F
100
AcDbEntity
  8
0
  6
SLD-Сплошная
 62
     7
370
    25
100
AcDbLine
 10
388.053954161
 20
158.010277998
 30
0.0
 11
388.2758504891
 21
158.010277998
 31
0.0
  0
LINE
  5
18E
330
1F
100
AcDbEntity
  8
0
  6
SLD-Сплошная
 62
     7
370
    25
100
AcDbLine
 10
389.4493883169
 20
161.2695315876
 30
0.0
 11
389.661064942
 21
161.2695315876
 31
0.0
  0
LINE
  5
18F
330
1F
100
AcDbEntity
  8
0
  6
SLD-Сплошная
 62
     7
370
    25
100
AcDbLine
 10
388.2758504891
 20
158.010277998
 30
0.0
 11
388.2758504891
 21
157.199757494
 31
0.0
  0
LINE
  5
190
330
1F
100
AcDbEntity
  8
0
  6
SLD-Сплошная
 62
     7
370
    25
100
AcDbLine
 10
388.053954161
 20
157.199757494
 30
0.0
 11
388.2758504891
 21
157.199757494
 31
0.0
  0
LINE
  5
191
330
1F
100
AcDbEntity
  8
0
  6
SLD-Сплошная
 62
     7
370
    25
100
AcDbLine
 10
389.661064942
 20
160.4590110837
 30
0.0
 11
389.661064942
 21
161.2695315876
 31
0.0
  0
ARC
  5
192
330
1F
100
AcDbEntity
  8
0
  6
SLD-Сплошная
 62
     7
370
    25
100
AcDbCircle
 10
361.0655184763
 20
170.6884046597
 30
0.0
 40
30.37014604193747
100
AcDbArc
 50
333.6315643233
 51
340.3165083168
  0
LINE
  5
193
330
1F
100
AcDbEntity
  8
0
  6
SLD-Сплошная
 62
     7
370
    25
100
AcDbLine
 10
389.9855700118
 20
162.2271109165
 30
0.0
 11
389.9855700118
 21
161.4165904126
 31
0.0
  0
LINE
  5
194
330
1F
100
AcDbEntity
  8
0
  6
SLD-Сплошная
 62
     7
370
    25
100
AcDbLine
 10
389.7761523844
 20
161.4165904126
 30
0.0
 11
389.9855700118
 21
161.4165904126
 31
0.0
  0
LINE
  5
195
330
1F
100
AcDbEntity
  8
0
  6
SLD-Сплошная
 62
     7
370
    25
100
AcDbLine
 10
389.7761523844
 20
162.2271109165
 30
0.0
 11
389.9855700118
 21
162.2271109165
 31
0.0
  0
ARC
  5
196
330
1F
100
AcDbEntity
  8
0
  6
SLD-Сплошная
 62
     7
370
    25
100
AcDbCircle
 10
361.4400687846
 20
171.3815926044
 30
0.0
 40
29.97749447980344
100
AcDbArc
 50
342.2190644091
 51
1.3128973182
  0
ARC
  5
197
330
1F
100
AcDbEntity
  8
0
  6
SLD-Сплошная
 62
     7
370
    25
100
AcDbCircle
 10
361.421918128
 20
170.5742648423
 30
0.0
 40
29.99575319775285
100
AcDbArc
 50
342.2238446845
 51
359.9866287322
  0
ARC
  5
198
330
1F
100
AcDbEntity
  8
0
  6
SLD-Сплошная
 62
     7
370
    25
100
AcDbCircle
 10
361.0655184763
 20
170.4182278874
 30
0.0
 40
30.37014604193565
100
AcDbArc
 50
333.6315643233
 51
340.3165083168
  0
LINE
  5
199
330
1F
100
AcDbEntity
  8
0
  6
SLD-Сплошная
 62
     7
370
    25
100
AcDbLine
 10
389.661064942
 20
158.2976165312
 30
0.0
 11
389.661064942
 21
160.1888343114
 31
0.0
  0
ARC
  5
19A
330
1F
100
AcDbEntity
  8
0
  6
SLD-Сплошная
 62
     7
370
    25
100
AcDbCircle
 10
361.0655184762
 20
168.5270101072
 30
0.0
 40
30.37014604194838
100
AcDbArc
 50
333.6315643234
 51
340.3165083168
  0
LINE
  5
19B
330
1F
100
AcDbEntity
  8
0
  6
SLD-Сплошная
 62
     7
370
    25
100
AcDbLine
 10
388.2758504891
 20
156.9295807217
 30
0.0
 11
388.2758504891
 21
155.0383629415
 31
0.0
  0
LINE
  5
19C
330
1F
100
AcDbEntity
  8
0
  6
SLD-Сплошная
 62
     7
370
    25
100
AcDbLine
 10
388.053954161
 20
155.0383629415
 30
0.0
 11
388.2758504891
 21
155.0383629415
 31
0.0
  0
LINE
  5
19D
330
1F
100
AcDbEntity
  8
0
  6
SLD-Сплошная
 62
     7
370
    25
100
AcDbLine
 10
388.053954161
 20
156.9295807217
 30
0.0
 11
388.2758504891
 21
156.9295807217
 31
0.0
  0
LINE
  5
19E
330
1F
100
AcDbEntity
  8
0
  6
SLD-Сплошная
 62
     7
370
    25
100
AcDbLine
 10
389.5629900659
 20
160.1888343114
 30
0.0
 11
389.661064942
 21
160.1888343114
 31
0.0
  0
LINE
  5
19F
330
1F
100
AcDbEntity
  8
0
  6
SLD-Сплошная
 62
     7
370
    25
100
AcDbLine
 10
315.3676705089
 20
112.6957973015
 30
0.0
 11
315.3676705089
 21
119.6957973015
 31
0.0
  0
SPLINE
  5
1A0
330
1F
100
AcDbEntity
  8
0
  6
SLD-Сплошная
 62
     7
370
    25
100
AcDbSpline
210
0.0
220
0.0
230
1.0
 70
    24
 71
     3
 72
    22
 73
    18
 74
     0
 42
0.00000001
 43
0.00000001
 40
0.0
 40
0.0
 40
0.0
 40
0.0
 40
0.125
 40
0.125
 40
0.25
 40
0.25
 40
0.375
 40
0.375
 40
0.5
 40
0.5
 40
0.625
 40
0.625
 40
0.75
 40
0.75
 40
0.875
 40
0.875
 40
1.0
 40
1.0
 40
1.0
 40
1.0
 10
315.367670508914
 20
119.6957973015297
 30
0.0
 10
315.367670508914
 20
119.6957973015297
 30
0.0
 10
315.3991005925373
 20
119.6957973015296
 30
0.0
 10
315.536576004292
 20
119.6957973015297
 30
0.0
 10
315.6427418221672
 20
119.6957973015296
 30
0.0
 10
315.9351395829117
 20
119.6957973015297
 30
0.0
 10
316.1214405156362
 20
119.6957973015296
 30
0.0
 10
316.5699543675681
 20
119.6957973015296
 30
0.0
 10
316.8321366029813
 20
119.6957973015296
 30
0.0
 10
317.4179230406082
 20
119.6957973015297
 30
0.0
 10
317.7413953679526
 20
119.6957973015296
 30
0.0
 10
318.4274286092538
 20
119.6957973015296
 30
0.0
 10
318.7898114003912
 20
119.6957973015296
 30
0.0
 10
319.5283931026945
 20
119.6957973015296
 30
0.0
 10
319.9044423077427
 20
119.6957973015296
 30
0.0
 10
320.6473420811398
 20
119.6957973015296
 30
0.0
 10
321.0141171183208
 20
119.6957973015296
 30
0.0
 10
321.367670508914
 20
119.6957973015297
 30
0.0
  0
SPLINE
  5
1A1
330
1F
100
AcDbEntity
  8
0
  6
SLD-Сплошная
 62
     7
370
    25
100
AcDbSpline
210
0.0
220
0.0
230
1.0
 70
    24
 71
     3
 72
    22
 73
    18
 74
     0
 42
0.00000001
 43
0.00000001
 40
0.0
 40
0.0
 40
0.0
 40
0.0
 40
0.1250000000000006
 40
0.1250000000000006
 40
0.2500000000000012
 40
0.2500000000000012
 40
0.375000000000001
 40
0.375000000000001
 40
0.5000000000000008
 40
0.5000000000000008
 40
0.6250000000000006
 40
0.6250000000000006
 40
0.7500000000000004
 40
0.7500000000000004
 40
0.8750000000000002
 40
0.8750000000000002
 40
1.0
 40
1.0
 40
1.0
 40
1.0
 10
321.367670508914
 20
112.6957973015296
 30
0.0
 10
321.0141171183208
 20
112.6957973015295
 30
0.0
 10
320.6473420811397
 20
112.6957973015296
 30
0.0
 10
319.9044423077427
 20
112.6957973015296
 30
0.0
 10
319.5283931026945
 20
112.6957973015296
 30
0.0
 10
318.7898114003912
 20
112.6957973015296
 30
0.0
 10
318.4274286092538
 20
112.6957973015296
 30
0.0
 10
317.7413953679526
 20
112.6957973015296
 30
0.0
 10
317.4179230406082
 20
112.6957973015296
 30
0.0
 10
316.8321366029813
 20
112.6957973015296
 30
0.0
 10
316.5699543675681
 20
112.6957973015296
 30
0.0
 10
316.1214405156362
 20
112.6957973015296
 30
0.0
 10
315.9351395829117
 20
112.6957973015296
 30
0.0
 10
315.6427418221672
 20
112.6957973015296
 30
0.0
 10
315.5365760042919
 20
112.6957973015296
 30
0.0
 10
315.3991005925373
 20
112.6957973015296
 30
0.0
 10
315.367670508914
 20
112.6957973015297
 30
0.0
 10
315.367670508914
 20
112.6957973015297
 30
0.0
  0
LINE
  5
1A2
330
1F
100
AcDbEntity
  8
0
  6
SLD-Сплошная
 62
     7
370
    25
100
AcDbLine
 10
403.3676705089
 20
119.6957973015
 30
0.0
 11
403.3676705089
 21
112.6957973015
 31
0.0
  0
SPLINE
  5
1A3
330
1F
100
AcDbEntity
  8
0
  6
SLD-Сплошная
 62
     7
370
    25
100
AcDbSpline
210
0.0
220
0.0
230
1.0
 70
    24
 71
     3
 72
    22
 73
    18
 74
     0
 42
0.00000001
 43
0.00000001
 40
0.0
 40
0.0
 40
0.0
 40
0.0
 40
0.125
 40
0.125
 40
0.25
 40
0.25
 40
0.375
 40
0.375
 40
0.5
 40
0.5
 40
0.625
 40
0.625
 40
0.75
 40
0.75
 40
0.875
 40
0.875
 40
1.0
 40
1.0
 40
1.0
 40
1.0
 10
397.367670508914
 20
119.6957973015297
 30
0.0
 10
397.7212238995073
 20
119.6957973015297
 30
0.0
 10
398.0879989366884
 20
119.6957973015296
 30
0.0
 10
398.8308987100855
 20
119.6957973015296
 30
0.0
 10
399.2069479151336
 20
119.6957973015296
 30
0.0
 10
399.9455296174369
 20
119.6957973015296
 30
0.0
 10
400.3079124085743
 20
119.6957973015296
 30
0.0
 10
400.9939456498755
 20
119.6957973015296
 30
0.0
 10
401.3174179772199
 20
119.6957973015296
 30
0.0
 10
401.9032044148468
 20
119.6957973015296
 30
0.0
 10
402.16538665026
 20
119.6957973015296
 30
0.0
 10
402.6139005021919
 20
119.6957973015296
 30
0.0
 10
402.8002014349164
 20
119.6957973015296
 30
0.0
 10
403.0925991956609
 20
119.6957973015296
 30
0.0
 10
403.1987650135361
 20
119.6957973015296
 30
0.0
 10
403.3362404252908
 20
119.6957973015297
 30
0.0
 10
403.367670508914
 20
119.6957973015296
 30
0.0
 10
403.367670508914
 20
119.6957973015297
 30
0.0
  0
SPLINE
  5
1A4
330
1F
100
AcDbEntity
  8
0
  6
SLD-Сплошная
 62
     7
370
    25
100
AcDbSpline
210
0.0
220
0.0
230
1.0
 70
    24
 71
     3
 72
    22
 73
    18
 74
     0
 42
0.00000001
 43
0.00000001
 40
0.0
 40
0.0
 40
0.0
 40
0.0
 40
0.1250000000000002
 40
0.1250000000000002
 40
0.2500000000000004
 40
0.2500000000000004
 40
0.3750000000000006
 40
0.3750000000000006
 40
0.5000000000000008
 40
0.5000000000000008
 40
0.625000000000001
 40
0.625000000000001
 40
0.7500000000000011
 40
0.7500000000000011
 40
0.8750000000000006
 40
0.8750000000000006
 40
1.0
 40
1.0
 40
1.0
 40
1.0
 10
403.367670508914
 20
112.6957973015297
 30
0.0
 10
403.367670508914
 20
112.6957973015297
 30
0.0
 10
403.3362404252908
 20
112.6957973015297
 30
0.0
 10
403.1987650135361
 20
112.6957973015297
 30
0.0
 10
403.0925991956608
 20
112.6957973015297
 30
0.0
 10
402.8002014349163
 20
112.6957973015297
 30
0.0
 10
402.6139005021919
 20
112.6957973015297
 30
0.0
 10
402.1653866502599
 20
112.6957973015296
 30
0.0
 10
401.9032044148468
 20
112.6957973015296
 30
0.0
 10
401.3174179772199
 20
112.6957973015296
 30
0.0
 10
400.9939456498755
 20
112.6957973015296
 30
0.0
 10
400.3079124085743
 20
112.6957973015296
 30
0.0
 10
399.9455296174369
 20
112.6957973015296
 30
0.0
 10
399.2069479151336
 20
112.6957973015296
 30
0.0
 10
398.8308987100854
 20
112.6957973015296
 30
0.0
 10
398.0879989366883
 20
112.6957973015296
 30
0.0
 10
397.7212238995073
 20
112.6957973015296
 30
0.0
 10
397.367670508914
 20
112.6957973015296
 30
0.0
  0
LINE
  5
1A5
330
1F
100
AcDbEntity
  8
0
  6
SLD-Сплошная
 62
     7
370
    25
100
AcDbLine
 10
321.3676705089
 20
119.6957973015
 30
0.0
 11
397.3676705089
 21
119.6957973015
 31
0.0
  0
LINE
  5
1A6
330
1F
100
AcDbEntity
  8
0
  6
SLD-Сплошная
 62
     7
370
    25
100
AcDbLine
 10
321.3676705089
 20
112.6957973015
 30
0.0
 11
397.3676705089
 21
112.6957973015
 31
0.0
  0
LINE
  5
1A7
330
1F
100
AcDbEntity
  8
0
  6
SLD-Сплошная
 62
     7
370
    25
100
AcDbLine
 10
369.6676705089
 20
207.6202562549
 30
0.0
 11
369.6676705089
 21
216.2664047699
 31
0.0
  0
LINE
  5
1A8
330
1F
100
AcDbEntity
  8
0
  6
SLD-Сплошная
 62
     7
370
    25
100
AcDbLine
 10
373.6676705089
 20
216.2664047699
 30
0.0
 11
373.6676705089
 21
206.0101835434
 31
0.0
  0
LINE
  5
1A9
330
1F
100
AcDbEntity
  8
0
  6
SLD-Сплошная
 62
     7
370
    25
100
AcDbLine
 10
349.0676705089
 20
216.2664047699
 30
0.0
 11
349.0676705089
 21
207.6202562549
 31
0.0
  0
LINE
  5
1AA
330
1F
100
AcDbEntity
  8
0
  6
SLD-Сплошная
 62
     7
370
    25
100
AcDbLine
 10
345.0676705089
 20
216.2664047699
 30
0.0
 11
345.0676705089
 21
206.0101835434
 31
0.0
  0
LINE
  5
1AB
330
1F
100
AcDbEntity
  8
0
  6
SLD-Сплошная
 62
     7
370
    25
100
AcDbLine
 10
389.7761523844
 20
161.1464136403
 30
0.0
 11
389.9855700118
 21
161.1464136403
 31
0.0
  0
LINE
  5
1AC
330
1F
100
AcDbEntity
  8
0
  6
SLD-Сплошная
 62
     7
370
    25
100
AcDbLine
 10
389.9855700118
 20
161.1464136403
 30
0.0
 11
389.9855700118
 21
159.2551958601
 31
0.0
  0
LINE
  5
1AD
330
1F
100
AcDbEntity
  8
0
  6
SLD-Сплошная
 62
     7
370
    25
100
AcDbLine
 10
389.7761523844
 20
159.2551958601
 30
0.0
 11
389.9855700118
 21
159.2551958601
 31
0.0
  0
ARC
  5
1AE
330
1F
100
AcDbEntity
  8
0
  6
SLD-Сплошная
 62
     7
370
    25
100
AcDbCircle
 10
361.4363277891
 20
170.3017613239
 30
0.0
 40
29.98132123004785
100
AcDbArc
 50
342.2196717242
 51
0.2492301458
  0
ARC
  5
1AF
330
1F
100
AcDbEntity
  8
0
  6
SLD-Сплошная
 62
     7
370
    25
100
AcDbCircle
 10
361.479763092
 20
169.4881433635
 30
0.0
 40
29.93790745843041
100
AcDbArc
 50
348.9651221732
 51
359.9969838461
  0
LINE
  5
1B0
330
1F
100
AcDbEntity
  8
0
  6
SLD-Сплошная
 62
     7
370
    25
100
AcDbLine
 10
390.8641440847
 20
163.487656245
 30
0.0
 11
390.8641440847
 21
163.7578330173
 31
0.0
  0
ARC
  5
1B1
330
1F
100
AcDbEntity
  8
0
  6
SLD-Сплошная
 62
     7
370
    25
100
AcDbCircle
 10
361.4804124409
 20
169.2178672086
 30
0.0
 40
29.93725109298495
100
AcDbArc
 50
348.9650709879
 51
0.25571556
  0
ARC
  5
1B2
330
1F
100
AcDbEntity
  8
0
  6
SLD-Сплошная
 62
     7
370
    25
100
AcDbCircle
 10
361.421918128
 20
168.4128702898
 30
0.0
 40
29.99575319775462
100
AcDbArc
 50
342.2238446845
 51
359.9866287322
  0
LINE
  5
1B3
330
1F
100
AcDbEntity
  8
0
  6
SLD-Сплошная
 62
     7
370
    25
100
AcDbLine
 10
369.6676705089
 20
216.2664047699
 30
0.0
 11
369.6676705089
 21
219.7499552579
 31
0.0
  0
LINE
  5
1B4
330
1F
100
AcDbEntity
  8
0
  6
SLD-Сплошная
 62
     7
370
    25
100
AcDbLine
 10
373.6676705089
 20
219.7499552579
 30
0.0
 11
373.6676705089
 21
216.2664047699
 31
0.0
  0
LINE
  5
1B5
330
1F
100
AcDbEntity
  8
0
  6
SLD-Сплошная
 62
     7
370
    25
100
AcDbLine
 10
349.0676705089
 20
219.7499552579
 30
0.0
 11
349.0676705089
 21
216.2664047699
 31
0.0
  0
LINE
  5
1B6
330
1F
100
AcDbEntity
  8
0
  6
SLD-Сплошная
 62
     7
370
    25
100
AcDbLine
 10
345.0676705089
 20
219.7499552579
 30
0.0
 11
345.0676705089
 21
216.2664047699
 31
0.0
  0
LWPOLYLINE
  5
1B7
330
1F
100
AcDbEntity
  8
0
  6
SLD-Сплошная
 62
     7
370
    25
100
AcDbPolyline
 90
       26
 70
   128
 43
0.0
 10
350.2014575024
 20
129.2591351236
 10
347.323068827
 20
130.0725340408
 10
344.5204983346
 20
131.1037881466
 10
341.8113876049
 20
132.3464059178
 10
339.2127899087
 20
133.7925653421
 10
336.7410628609
 20
135.4331631563
 10
334.4117654528
 20
137.2578721492
 10
332.2395601117
 20
139.2552061693
 10
330.2381204042
 20
141.4125924275
 10
328.4200449637
 20
143.7164506403
 10
326.7967781849
 20
146.1522785146
 10
325.378538184
 20
148.7047430366
 10
324.1742524773
 20
151.3577769899
 10
323.191501785
 20
154.0946800952
 10
322.4364723118
 20
156.8982241345
 10
321.9139168062
 20
159.7507613999
 10
321.6271246429
 20
162.6343357814
 10
321.5779011172
 20
165.530795797
 10
321.7665560804
 20
168.4219088525
 10
322.1919019902
 20
171.2894760115
 10
322.8512613853
 20
174.1154465543
 10
323.7404837398
 20
176.8820316026
 10
324.8539715897
 20
179.5718160972
 10
326.1847157681
 20
182.167868422
 10
327.7243395259
 20
184.6538469846
 10
328.1338291501
 20
185.2464527003
  0
LWPOLYLINE
  5
1B8
330
1F
100
AcDbEntity
  8
0
  6
SLD-Сплошная
 62
     7
370
    25
100
AcDbPolyline
 90
       26
 70
   128
 43
0.0
 10
390.6015118677
 20
185.2464527003
 10
391.011001492
 20
184.6538469846
 10
392.5506252497
 20
182.167868422
 10
393.8813694281
 20
179.5718160972
 10
394.994857278
 20
176.8820316026
 10
395.8840796325
 20
174.1154465543
 10
396.5434390276
 20
171.2894760115
 10
396.9687849374
 20
168.4219088525
 10
397.1574399007
 20
165.530795797
 10
397.1082163749
 20
162.6343357814
 10
396.8214242117
 20
159.7507613999
 10
396.298868706
 20
156.8982241345
 10
395.5438392328
 20
154.0946800952
 10
394.5610885405
 20
151.3577769899
 10
393.3568028338
 20
148.7047430366
 10
391.9385628329
 20
146.1522785146
 10
390.3152960542
 20
143.7164506403
 10
388.4972206136
 20
141.4125924275
 10
386.4957809061
 20
139.2552061693
 10
384.323575565
 20
137.2578721492
 10
381.9942781569
 20
135.4331631563
 10
379.5225511091
 20
133.7925653421
 10
376.9239534129
 20
132.3464059178
 10
374.2148426833
 20
131.1037881466
 10
371.4122721908
 20
130.0725340408
 10
368.5338835154
 20
129.2591351236
  0
ARC
  5
1B9
330
1F
100
AcDbEntity
  8
0
  6
SLD-Сплошная
 62
     7
370
    25
100
AcDbCircle
 10
359.3676705089
 20
131.0975180741
 30
0.0
 40
9.34874926146151
100
AcDbArc
 50
191.3408244077
 51
348.6591755923
  0
LINE
  5
1BA
330
1F
100
AcDbEntity
  8
0
  6
SLD-Сплошная
 62
     7
370
    25
100
AcDbLine
 10
350.2014575024
 20
129.2591351236
 30
0.0
 11
350.2014575024
 21
128.2238589432
 31
0.0
  0
LINE
  5
1BB
330
1F
100
AcDbEntity
  8
0
  6
SLD-Сплошная
 62
     7
370
    25
100
AcDbLine
 10
368.5338835154
 20
129.2591351236
 30
0.0
 11
368.5338835154
 21
128.2238589432
 31
0.0
  0
ARC
  5
1BC
330
1F
100
AcDbEntity
  8
0
  6
SLD-Сплошная
 62
     7
370
    25
100
AcDbCircle
 10
359.3676705089
 20
130.0622418937
 30
0.0
 40
9.348749261461554
100
AcDbArc
 50
191.3408244077
 51
348.6591755923
  0
SPLINE
  5
1BD
330
1F
100
AcDbEntity
  8
0
  6
SLD-Сплошная
 62
     7
370
    25
100
AcDbSpline
210
0.0
220
0.0
230
1.0
 70
     8
 71
     3
 72
    32
 73
    28
 74
     0
 42
0.00000001
 43
0.00000001
 40
0.0
 40
0.0
 40
0.0
 40
0.0
 40
0.0184579222408604
 40
0.0379042700784172
 40
0.0583466115698738
 40
0.0797904717626679
 40
0.1022396972377722
 40
0.1257002253029758
 40
0.1844784104382109
 40
0.2504086644734578
 40
0.3125445565824853
 40
0.3435981742765287
 40
0.3746510650607996
 40
0.4384289098069227
 40
0.4989710067320461
 40
0.5677349052680003
 40
0.6323774767217589
 40
0.6928802445890981
 40
0.7492280564318847
 40
0.7868497763902451
 40
0.8226630158706585
 40
0.8566685500442062
 40
0.8888714946390073
 40
0.9192832788811867
 40
0.9479240099149646
 40
0.9748201095787405
 40
1.0
 40
1.0
 40
1.0
 40
1.0
 10
323.367670508914
 20
131.6408759985518
 30
0.0
 10
323.330369306407
 20
131.7348034401192
 30
0.0
 10
323.2537694141966
 20
131.9276881573961
 30
0.0
 10
323.1459212933186
 20
132.2281632351392
 30
0.0
 10
323.0396855134554
 20
132.5463073397034
 30
0.0
 10
322.9363012563609
 20
132.8824805693211
 30
0.0
 10
322.8359267241706
 20
133.2365830216447
 30
0.0
 10
322.6916433600081
 20
133.7899173017352
 30
0.0
 10
322.5143009389342
 20
134.5793353189924
 30
0.0
 10
322.3327591471003
 20
135.5827505754634
 30
0.0
 10
322.2096999041939
 20
136.441917634572
 30
0.0
 10
322.1299855097809
 20
137.114723304612
 30
0.0
 10
322.0581913913798
 20
137.7972914078546
 30
0.0
 10
321.9865652574675
 20
138.6414718744499
 30
0.0
 10
321.9293395735716
 20
139.6923967875233
 30
0.0
 10
321.9093873925545
 20
140.7496919222083
 30
0.0
 10
321.9353073521532
 20
141.8066259303558
 30
0.0
 10
322.0042142473468
 20
142.7937757590411
 30
0.0
 10
322.1030097824732
 20
143.6305258135284
 30
0.0
 10
322.2172333226159
 20
144.3293690409103
 30
0.0
 10
322.3342160466254
 20
144.9040850372373
 30
0.0
 10
322.4679695173423
 20
145.4450840687326
 30
0.0
 10
322.6177134066484
 20
145.9516194331366
 30
0.0
 10
322.7823921495567
 20
146.4231201830738
 30
0.0
 10
322.9619911828294
 20
146.8584355116013
 30
0.0
 10
323.1529755184386
 20
147.2582744193566
 30
0.0
 10
323.2976953005709
 20
147.5053739316674
 30
0.0
 10
323.3676705089141
 20
147.6248519988721
 30
0.0
  0
SPLINE
  5
1BE
330
1F
100
AcDbEntity
  8
0
  6
SLD-Сплошная
 62
     7
370
    25
100
AcDbSpline
210
0.0
220
0.0
230
1.0
 70
     8
 71
     3
 72
    36
 73
    32
 74
     0
 42
0.00000001
 43
0.00000001
 40
0.0
 40
0.0
 40
0.0
 40
0.0
 40
0.0141581473200879
 40
0.0288682063022385
 40
0.0441393177761856
 40
0.0599762153697216
 40
0.0763826665959787
 40
0.0933643498282871
 40
0.1109256737167831
 40
0.1290699644103278
 40
0.1477996317063549
 40
0.1671163172034646
 40
0.1870210272162161
 40
0.2075142528810558
 40
0.2285960795627315
 40
0.2502662873755513
 40
0.3065175777631591
 40
0.3669110099519161
 40
0.4314314783086859
 40
0.5000608205824046
 40
0.5608689895948693
 40
0.6248814318986113
 40
0.6560730712166425
 40
0.6872709529821365
 40
0.7497146255510055
 40
0.8159194893183558
 40
0.8749183224088214
 40
0.9095426687836593
 40
0.9419198723200576
 40
0.9720656009573393
 40
1.0
 40
1.0
 40
1.0
 40
1.0
 10
395.3676705089073
 20
147.6248519988829
 30
0.0
 10
395.4076423026056
 20
147.5580333708023
 30
0.0
 10
395.4891440669722
 20
147.4217913967182
 30
0.0
 10
395.6031729332963
 20
147.2078561162762
 30
0.0
 10
395.7139276782719
 20
146.9821894224161
 30
0.0
 10
395.8202393496315
 20
146.7443904454488
 30
0.0
 10
395.9221217954208
 20
146.4947521123928
 30
0.0
 10
396.01937104682
 20
146.2333832104756
 30
0.0
 10
396.1118527834849
 20
145.9604242535565
 30
0.0
 10
396.1994121935608
 20
145.6760038419932
 30
0.0
 10
396.281897377529
 20
145.3802554691213
 30
0.0
 10
396.3591528478893
 20
145.0733124581396
 30
0.0
 10
396.4310214298849
 20
144.7553090053038
 30
0.0
 10
396.4973438272805
 20
144.4263795649784
 30
0.0
 10
396.5579586812398
 20
144.0866583152638
 30
0.0
 10
396.6413283492306
 20
143.5530708497691
 30
0.0
 10
396.7301635704944
 20
142.8038578989774
 30
0.0
 10
396.7994552392136
 20
141.8185170768669
 30
0.0
 10
396.8258954475324
 20
140.7635780288456
 30
0.0
 10
396.8065276626531
 20
139.7062074280074
 30
0.0
 10
396.749639951074
 20
138.6532459517337
 30
0.0
 10
396.6779500220553
 20
137.8055645730909
 30
0.0
 10
396.6059717348907
 20
137.1201698102508
 30
0.0
 10
396.5259669707359
 20
136.4441454079947
 30
0.0
 10
396.4023613054754
 20
135.581040575675
 30
0.0
 10
396.2199016540939
 20
134.5733116710774
 30
0.0
 10
396.0282414429449
 20
133.721857625223
 30
0.0
 10
395.8512290138086
 20
133.0566101497434
 30
0.0
 10
395.6976637512638
 20
132.5482256981919
 30
0.0
 10
395.5396480055337
 20
132.0792903028432
 30
0.0
 10
395.4235225632105
 20
131.7832570659016
 30
0.0
 10
395.3676705089117
 20
131.6408759985564
 30
0.0
  0
ARC
  5
1BF
330
1F
100
AcDbEntity
  8
0
  6
SLD-Сплошная
 62
     7
370
    25
100
AcDbCircle
 10
356.9410286186
 20
163.6533990645
 30
0.0
 40
35.37335886422765
100
AcDbArc
 50
180.0118344287
 51
198.3567108455
  0
ARC
  5
1C0
330
1F
100
AcDbEntity
  8
0
  6
SLD-Сплошная
 62
     7
370
    25
100
AcDbCircle
 10
361.7943123993
 20
163.6533990645
 30
0.0
 40
35.37335886422081
100
AcDbArc
 50
341.6432891545
 51
359.9881655713
  0
ARC
  5
1C1
330
1F
100
AcDbEntity
  8
0
  6
SLD-Сплошная
 62
     7
370
    25
100
AcDbCircle
 10
360.0691075877
 20
164.5424299904
 30
0.0
 40
37.29197010639339
100
AcDbArc
 50
283.1197224581
 51
341.1816394131
  0
ARC
  5
1C2
330
1F
100
AcDbEntity
  8
0
  6
SLD-Сплошная
 62
     7
370
    25
100
AcDbCircle
 10
358.6662334301
 20
164.5424299904
 30
0.0
 40
37.29197010639322
100
AcDbArc
 50
198.8183605869
 51
256.8802775419
  0
LINE
  5
1C3
330
1F
100
AcDbEntity
  8
0
  6
SLD-Сплошная
 62
     7
370
    25
100
AcDbLine
 10
323.3676705089
 20
119.6957973015
 30
0.0
 11
323.3676705089
 21
131.6408759986
 31
0.0
  0
LINE
  5
1C4
330
1F
100
AcDbEntity
  8
0
  6
SLD-Сплошная
 62
     7
370
    25
100
AcDbLine
 10
395.3676705089
 20
147.6248519989
 30
0.0
 11
395.3676705089
 21
152.5131951805
 31
0.0
  0
LINE
  5
1C5
330
1F
100
AcDbEntity
  8
0
  6
SLD-Сплошная
 62
     7
370
    25
100
AcDbLine
 10
395.3676705089
 20
119.6957973015
 30
0.0
 11
395.3676705089
 21
131.6408759986
 31
0.0
  0
LINE
  5
1C6
330
1F
100
AcDbEntity
  8
0
  6
SLD-Сплошная
 62
     7
370
    25
100
AcDbLine
 10
323.3676705089
 20
147.6248519989
 30
0.0
 11
323.3676705089
 21
152.5131951805
 31
0.0
  0
LINE
  5
1C7
330
1F
100
AcDbEntity
  8
0
  6
SLD-Сплошная
 62
     7
370
    25
100
AcDbLine
 10
369.3676705089
 20
148.8921251481
 30
0.0
 11
369.3676705089
 21
138.4976082834
 31
0.0
  0
LWPOLYLINE
  5
1C8
330
1F
100
AcDbEntity
  8
0
  6
SLD-Сплошная
 62
     7
370
    25
100
AcDbPolyline
 90
        9
 70
   128
 43
0.0
 10
369.3676705089
 20
138.4976082834
 10
366.8702980131
 20
138.5368506936
 10
364.3706735962
 20
138.5648894029
 10
361.869547523
 20
138.5817159955
 10
359.3676705089
 20
138.5873254209
 10
356.8657934948
 20
138.5817159955
 10
354.3646674216
 20
138.5648894029
 10
351.8650430047
 20
138.5368506936
 10
349.3676705089
 20
138.4976082834
  0
LINE
  5
1C9
330
1F
100
AcDbEntity
  8
0
  6
SLD-Сплошная
 62
     7
370
    25
100
AcDbLine
 10
349.3676705089
 20
138.4976082834
 30
0.0
 11
349.3676705089
 21
148.8921251481
 31
0.0
  0
LWPOLYLINE
  5
1CA
330
1F
100
AcDbEntity
  8
0
  6
SLD-Сплошная
 62
     7
370
    25
100
AcDbPolyline
 90
       30
 70
   128
 43
0.0
 10
349.3676705089
 20
207.7170079691
 10
346.7759701245
 20
206.7731976987
 10
344.2783106314
 20
205.6167699608
 10
341.8933457553
 20
204.2563615155
 10
339.6388875642
 20
202.7021325492
 10
337.531773439
 20
200.9656907934
 10
335.5877403245
 20
199.0600048325
 10
333.8213071974
 20
196.9993072484
 10
332.2456666322
 20
194.7989883246
 10
330.8725862727
 20
192.475481104
 10
329.7123209452
 20
190.046138659
 10
328.7735360707
 20
187.5291044907
 10
328.0632429474
 20
184.9431770243
 10
327.586746387
 20
182.3076692132
 10
327.3476050955
 20
179.6422643008
 10
327.3476050955
 20
176.9668688164
 10
327.586746387
 20
174.301463904
 10
328.0632429474
 20
171.6659560929
 10
328.7735360707
 20
169.0800286265
 10
329.7123209452
 20
166.5629944582
 10
330.8725862727
 20
164.1336520132
 10
332.2456666322
 20
161.8101447926
 10
333.8213071974
 20
159.6098258688
 10
335.5877403245
 20
157.5491282847
 10
337.531773439
 20
155.6434423239
 10
339.6388875642
 20
153.907000568
 10
341.8933457553
 20
152.3527716017
 10
344.2783106314
 20
150.9923631564
 10
346.7759701245
 20
149.8359354185
 10
349.3676705089
 20
148.8921251481
  0
ARC
  5
1CB
330
1F
100
AcDbEntity
  8
0
  6
SLD-Сплошная
 62
     7
370
    25
100
AcDbCircle
 10
359.3676705089
 20
176.1466731396
 30
0.0
 40
33.11625041045215
100
AcDbArc
 50
72.4242427618
 51
107.5757572382
  0
LWPOLYLINE
  5
1CC
330
1F
100
AcDbEntity
  8
0
  6
SLD-Сплошная
 62
     7
370
    25
100
AcDbPolyline
 90
       30
 70
   128
 43
0.0
 10
369.3676705089
 20
148.8921251481
 10
371.9593708933
 20
149.8359354185
 10
374.4570303864
 20
150.9923631564
 10
376.8419952625
 20
152.3527716017
 10
379.0964534537
 20
153.907000568
 10
381.2035675788
 20
155.6434423239
 10
383.1476006933
 20
157.5491282847
 10
384.9140338204
 20
159.6098258688
 10
386.4896743856
 20
161.8101447926
 10
387.8627547451
 20
164.1336520132
 10
389.0230200726
 20
166.5629944582
 10
389.9618049472
 20
169.0800286265
 10
390.6720980704
 20
171.6659560929
 10
391.1485946309
 20
174.301463904
 10
391.3877359223
 20
176.9668688164
 10
391.3877359223
 20
179.6422643008
 10
391.1485946309
 20
182.3076692132
 10
390.6720980704
 20
184.9431770243
 10
389.9618049472
 20
187.5291044907
 10
389.0230200726
 20
190.046138659
 10
387.8627547451
 20
192.475481104
 10
386.4896743856
 20
194.7989883246
 10
384.9140338204
 20
196.9993072484
 10
383.1476006933
 20
199.0600048325
 10
381.2035675788
 20
200.9656907934
 10
379.0964534537
 20
202.7021325492
 10
376.8419952625
 20
204.2563615155
 10
374.4570303864
 20
205.6167699608
 10
371.9593708933
 20
206.7731976987
 10
369.3676705089
 20
207.7170079691
  0
LINE
  5
1CD
330
1F
100
AcDbEntity
  8
0
  6
SLD-Сплошная
 62
     7
370
    25
100
AcDbLine
 10
369.3676705089
 20
137.4446346099
 30
0.0
 11
349.3676705089
 21
137.4446346099
 31
0.0
  0
LINE
  5
1CE
330
1F
100
AcDbEntity
  8
0
  6
SLD-Сплошная
 62
     7
370
    25
100
AcDbLine
 10
349.3676705089
 20
137.4446346099
 30
0.0
 11
349.3676705089
 21
138.4976082834
 31
0.0
  0
LINE
  5
1CF
330
1F
100
AcDbEntity
  8
0
  6
SLD-Сплошная
 62
     7
370
    25
100
AcDbLine
 10
369.3676705089
 20
137.4446346099
 30
0.0
 11
369.3676705089
 21
138.4976082834
 31
0.0
  0
ARC
  5
1D0
330
1F
100
AcDbEntity
  8
0
  6
SLD-Сплошная
 62
     7
370
    25
100
AcDbCircle
 10
360.3833087396
 20
176.9073795443
 30
0.0
 40
31.03575861500272
100
AcDbArc
 50
286.8270783833
 51
359.4563964408
  0
ARC
  5
1D1
330
1F
100
AcDbEntity
  8
0
  6
SLD-Сплошная
 62
     7
370
    25
100
AcDbCircle
 10
358.4200997398
 20
176.9584085461
 30
0.0
 40
31.10434795412817
100
AcDbArc
 50
180.6364077857
 51
253.0801173903
  0
LINE
  5
1D2
330
1F
100
AcDbEntity
  8
0
  6
SLD-Сплошная
 62
     7
370
    25
100
AcDbLine
 10
349.3676705089
 20
212.5466371006
 30
0.0
 11
369.3676705089
 21
212.5466371006
 31
0.0
  0
LINE
  5
1D3
330
1F
100
AcDbEntity
  8
0
  6
SLD-Сплошная
 62
     7
370
    25
100
AcDbLine
 10
369.3676705089
 20
207.7170079691
 30
0.0
 11
369.3676705089
 21
212.5466371006
 31
0.0
  0
LINE
  5
1D4
330
1F
100
AcDbEntity
  8
0
  6
SLD-Сплошная
 62
     7
370
    25
100
AcDbLine
 10
349.3676705089
 20
207.7170079691
 30
0.0
 11
349.3676705089
 21
212.5466371006
 31
0.0
  0
LINE
  5
1D5
330
1F
100
AcDbEntity
  8
0
  6
SLD-Сплошная
 62
     7
370
    25
100
AcDbLine
 10
369.3676705089
 20
212.5466371006
 30
0.0
 11
369.3676705089
 21
220.9191236031
 31
0.0
  0
LINE
  5
1D6
330
1F
100
AcDbEntity
  8
0
  6
SLD-Сплошная
 62
     7
370
    25
100
AcDbLine
 10
349.3676705089
 20
212.5466371006
 30
0.0
 11
349.3676705089
 21
220.9191236031
 31
0.0
  0
LINE
  5
1D7
330
1F
100
AcDbEntity
  8
0
  6
SLD-Сплошная
 62
     7
370
    25
100
AcDbLine
 10
366.3676705089
 20
221.2319291077
 30
0.0
 11
369.3676705089
 21
221.2319291077
 31
0.0
  0
LINE
  5
1D8
330
1F
100
AcDbEntity
  8
0
  6
SLD-Сплошная
 62
     7
370
    25
100
AcDbLine
 10
349.3676705089
 20
221.2319291077
 30
0.0
 11
352.3676705089
 21
221.2319291077
 31
0.0
  0
LINE
  5
1D9
330
1F
100
AcDbEntity
  8
0
  6
SLD-Сплошная
 62
     7
370
    25
100
AcDbLine
 10
352.3676705089
 20
221.2319291077
 30
0.0
 11
352.3676705089
 21
221.2499552579
 31
0.0
  0
LINE
  5
1DA
330
1F
100
AcDbEntity
  8
0
  6
SLD-Сплошная
 62
     7
370
    25
100
AcDbLine
 10
366.3676705089
 20
221.2499552579
 30
0.0
 11
366.3676705089
 21
221.2319291077
 31
0.0
  0
LINE
  5
1DB
330
1F
100
AcDbEntity
  8
0
  6
SLD-Сплошная
 62
     7
370
    25
100
AcDbLine
 10
369.3676705089
 20
220.9191236031
 30
0.0
 11
369.3676705089
 21
221.2319291077
 31
0.0
  0
LINE
  5
1DC
330
1F
100
AcDbEntity
  8
0
  6
SLD-Сплошная
 62
     7
370
    25
100
AcDbLine
 10
349.3676705089
 20
221.2319291077
 30
0.0
 11
349.3676705089
 21
220.9191236031
 31
0.0
  0
LINE
  5
1DD
330
1F
100
AcDbEntity
  8
0
  6
SLD-Сплошная
 62
     7
370
    25
100
AcDbLine
 10
352.3676705089
 20
221.1932234389
 30
0.0
 11
352.3676705089
 21
226.7220288441
 31
0.0
  0
SPLINE
  5
1DE
330
1F
100
AcDbEntity
  8
0
  6
SLD-Сплошная
 62
     7
370
    25
100
AcDbSpline
210
0.0
220
0.0
230
1.0
 70
     8
 71
     3
 72
    15
 73
    11
 74
     0
 42
0.00000001
 43
0.00000001
 40
0.0
 40
0.0
 40
0.0
 40
0.0
 40
0.0836897243153296
 40
0.16704803460157
 40
0.2515337334085382
 40
0.3770447411924276
 40
0.5013934448412355
 40
0.7504955524191036
 40
0.9995635117731465
 40
1.0
 40
1.0
 40
1.0
 40
1.0
 10
355.3676705089141
 20
223.7194973217957
 30
0.0
 10
355.3458371816969
 20
223.7200986075929
 30
0.0
 10
355.3022569879481
 20
223.7212987980762
 30
0.0
 10
355.2377822577616
 20
223.7309840398639
 30
0.0
 10
355.165288485879
 20
223.7487903187386
 30
0.0
 10
355.0877423561216
 20
223.7783694010366
 30
0.0
 10
354.9865040414566
 20
223.8381643441387
 30
0.0
 10
354.8947273189667
 20
223.9388832328929
 30
0.0
 10
354.8676957121228
 20
224.0346899536959
 30
0.0
 10
354.8676704959133
 20
224.0824756043009
 30
0.0
 10
354.8676704517996
 20
224.0825592015037
 30
0.0
  0
LINE
  5
1DF
330
1F
100
AcDbEntity
  8
0
  6
SLD-Сплошная
 62
     7
370
    25
100
AcDbLine
 10
355.3676705089
 20
223.7194973218
 30
0.0
 11
363.3676705089
 21
223.7194973218
 31
0.0
  0
SPLINE
  5
1E0
330
1F
100
AcDbEntity
  8
0
  6
SLD-Сплошная
 62
     7
370
    25
100
AcDbSpline
210
0.0
220
0.0
230
1.0
 70
     8
 71
     3
 72
    16
 73
    12
 74
     0
 42
0.00000001
 43
0.00000001
 40
0.0
 40
0.0
 40
0.0
 40
0.0
 40
0.0826057483843501
 40
0.1651284531162499
 40
0.2489988093887612
 40
0.3748844277483985
 40
0.4995992960333482
 40
0.6243065662496198
 40
0.7497515587058503
 40
0.8749853543341879
 40
1.0
 40
1.0
 40
1.0
 40
1.0
 10
363.8676705660286
 20
224.0825592253828
 30
0.0
 10
363.8668650525742
 20
224.0666983059397
 30
0.0
 10
363.865254835449
 20
224.0349924120538
 30
0.0
 10
363.851933422722
 20
223.988188366752
 30
0.0
 10
363.8273371395699
 20
223.9353430220374
 30
0.0
 10
363.7863445278914
 20
223.8787295684824
 30
0.0
 10
363.7237455097052
 20
223.8234922879495
 30
0.0
 10
363.6476211445952
 20
223.7782004980649
 30
0.0
 10
363.5603875768469
 20
223.7451291506018
 30
0.0
 10
363.4659367593918
 20
223.7234820410535
 30
0.0
 10
363.4004067968978
 20
223.7208252227348
 30
0.0
 10
363.3676705089141
 20
223.7194979769027
 30
0.0
  0
SPLINE
  5
1E1
330
1F
100
AcDbEntity
  8
0
  6
SLD-Сплошная
 62
     7
370
    25
100
AcDbSpline
210
0.0
220
0.0
230
1.0
 70
     8
 71
     3
 72
    16
 73
    12
 74
     0
 42
0.00000001
 43
0.00000001
 40
0.0
 40
0.0
 40
0.0
 40
0.0
 40
0.0840391706692243
 40
0.1672314412152277
 40
0.2509731440495199
 40
0.3762421442702994
 40
0.5003681935812996
 40
0.6243511874398695
 40
0.7502785025752388
 40
0.876077177460518
 40
1.0
 40
1.0
 40
1.0
 40
1.0
 10
355.3676705089141
 20
225.2223113871752
 30
0.0
 10
355.3459576860412
 20
225.2229972202663
 30
0.0
 10
355.3027508500742
 20
225.2243619750033
 30
0.0
 10
355.2390000924131
 20
225.2346482914047
 30
0.0
 10
355.16737297778
 20
225.2535899377346
 30
0.0
 10
355.0906252008704
 20
225.285111347103
 30
0.0
 10
355.0151753319977
 20
225.3330754725018
 30
0.0
 10
354.9527018308585
 20
225.3918917425834
 30
0.0
 10
354.9064530342894
 20
225.4597868962204
 30
0.0
 10
354.8750530498581
 20
225.5334103445715
 30
0.0
 10
354.8701777107008
 20
225.5848719744668
 30
0.0
 10
354.8677583523538
 20
225.6104095052556
 30
0.0
  0
LINE
  5
1E2
330
1F
100
AcDbEntity
  8
0
  6
SLD-Сплошная
 62
     7
370
    25
100
AcDbLine
 10
355.3676705089
 20
225.2223113872
 30
0.0
 11
363.3676705089
 21
225.2223113872
 31
0.0
  0
SPLINE
  5
1E3
330
1F
100
AcDbEntity
  8
0
  6
SLD-Сплошная
 62
     7
370
    25
100
AcDbSpline
210
0.0
220
0.0
230
1.0
 70
     8
 71
     3
 72
    16
 73
    12
 74
     0
 42
0.00000001
 43
0.00000001
 40
0.0
 40
0.0
 40
0.0
 40
0.0
 40
0.0828237427028544
 40
0.1654970401220556
 40
0.2494227466584153
 40
0.3752242674242031
 40
0.499900392564573
 40
0.6246000200977386
 40
0.7499224465144276
 40
0.8744880360468354
 40
1.0
 40
1.0
 40
1.0
 40
1.0
 10
363.8675826654744
 20
225.6104095052556
 30
0.0
 10
363.8663905480029
 20
225.5933435734821
 30
0.0
 10
363.8640084784829
 20
225.5592427093669
 30
0.0
 10
363.8497887776306
 20
225.509031550176
 30
0.0
 10
363.8243832270724
 20
225.4524770324646
 30
0.0
 10
363.7828313665742
 20
225.392018441531
 30
0.0
 10
363.7201717536668
 20
225.3330985452023
 30
0.0
 10
363.644468507349
 20
225.2848306115333
 30
0.0
 10
363.5582104172826
 20
225.2496104328416
 30
0.0
 10
363.4648303597291
 20
225.2266824215318
 30
0.0
 10
363.4001387305416
 20
225.223772069865
 30
0.0
 10
363.3676705089141
 20
225.2223113871752
 30
0.0
  0
SPLINE
  5
1E4
330
1F
100
AcDbEntity
  8
0
  6
SLD-Сплошная
 62
     7
370
    25
100
AcDbSpline
210
0.0
220
0.0
230
1.0
 70
     8
 71
     3
 72
    15
 73
    11
 74
     0
 42
0.00000001
 43
0.00000001
 40
0.0
 40
0.0
 40
0.0
 40
0.0
 40
0.0836897301042998
 40
0.1670480433186791
 40
0.2515337397898666
 40
0.3770447544431751
 40
0.5013934519903454
 40
0.7504955559965617
 40
0.9995635117794293
 40
0.9999999999999999
 40
0.9999999999999999
 40
0.9999999999999999
 40
0.9999999999999999
 10
355.3676705089141
 20
222.3560024463072
 30
0.0
 10
355.345837180257
 20
222.3565424127329
 30
0.0
 10
355.3022569843743
 20
222.3576202072814
 30
0.0
 10
355.2377822553085
 20
222.3663184465723
 30
0.0
 10
355.1652884841602
 20
222.382313207869
 30
0.0
 10
355.087742356173
 20
222.4088914413064
 30
0.0
 10
354.9865040407476
 20
222.4626512651718
 30
0.0
 10
354.8947273189904
 20
222.5532988944573
 30
0.0
 10
354.8676957121286
 20
222.6396986261022
 30
0.0
 10
354.8676704959133
 20
222.6828379264965
 30
0.0
 10
354.8676704517995
 20
222.6829133952784
 30
0.0
  0
LINE
  5
1E5
330
1F
100
AcDbEntity
  8
0
  6
SLD-Сплошная
 62
     7
370
    25
100
AcDbLine
 10
355.3676705089
 20
222.3560024463
 30
0.0
 11
363.3676705089
 21
222.3560024463
 31
0.0
  0
SPLINE
  5
1E6
330
1F
100
AcDbEntity
  8
0
  6
SLD-Сплошная
 62
     7
370
    25
100
AcDbSpline
210
0.0
220
0.0
230
1.0
 70
     8
 71
     3
 72
    16
 73
    12
 74
     0
 42
0.00000001
 43
0.00000001
 40
0.0
 40
0.0
 40
0.0
 40
0.0
 40
0.0826057478958064
 40
0.1651284521459835
 40
0.2489988079349737
 40
0.3748844255723137
 40
0.4995992931177831
 40
0.6243065609396448
 40
0.7497515560673407
 40
0.8749853511587425
 40
1.0
 40
1.0
 40
1.0
 40
1.0
 10
363.8676705660286
 20
222.6829134168356
 30
0.0
 10
363.8668650525742
 20
222.6685974524219
 30
0.0
 10
363.8652548354488
 20
222.6399799154487
 30
0.0
 10
363.8519334227212
 20
222.5977706616246
 30
0.0
 10
363.8273371395696
 20
222.5501421399732
 30
0.0
 10
363.786344527893
 20
222.499159838211
 30
0.0
 10
363.7237455099876
 20
222.4494602063346
 30
0.0
 10
363.6476211445806
 20
222.4087395782242
 30
0.0
 10
363.5603875774214
 20
222.379023430841
 30
0.0
 10
363.4659367604261
 20
222.3595806739655
 30
0.0
 10
363.4004067975667
 20
222.3571948990688
 30
0.0
 10
363.3676705089141
 20
222.3560030562495
 30
0.0
  0
LINE
  5
1E7
330
1F
100
AcDbEntity
  8
0
  6
SLD-Сплошная
 62
     7
370
    25
100
AcDbLine
 10
366.3676705089
 20
226.7220288441
 30
0.0
 11
366.3676705089
 21
221.1932234389
 31
0.0
  0
LINE
  5
1E8
330
1F
100
AcDbEntity
  8
0
  6
SLD-Сплошная
 62
     7
370
    25
100
AcDbLine
 10
136.5904727331
 20
285.7459466062
 30
0.0
 11
165.0510286811
 21
285.7459466062
 31
0.0
  0
LINE
  5
1E9
330
1F
100
AcDbEntity
  8
0
  6
SLD-Сплошная
 62
     7
370
    25
100
AcDbLine
 10
165.0510286811
 20
299.3459466062
 30
0.0
 11
136.5904727331
 21
299.3459466062
 31
0.0
  0
LINE
  5
1EA
330
1F
100
AcDbEntity
  8
0
  6
SLD-Сплошная
 62
     7
370
    25
100
AcDbLine
 10
159.164731064
 20
324.5959466062
 30
0.0
 11
144.7820955106
 21
324.5959466062
 31
0.0
  0
LINE
  5
1EB
330
1F
100
AcDbEntity
  8
0
  6
SLD-Сплошная
 62
     7
370
    25
100
AcDbLine
 10
144.7820955106
 20
260.4959466062
 30
0.0
 11
159.164731064
 21
260.4959466062
 31
0.0
  0
LINE
  5
1EC
330
1F
100
AcDbEntity
  8
0
  6
SLD-Сплошная
 62
     7
370
    25
100
AcDbLine
 10
163.3946548878
 20
324.3959466062
 30
0.0
 11
159.164731064
 21
324.3959466062
 31
0.0
  0
LINE
  5
1ED
330
1F
100
AcDbEntity
  8
0
  6
SLD-Сплошная
 62
     7
370
    25
100
AcDbLine
 10
159.164731064
 20
260.8959466062
 30
0.0
 11
165.0510286811
 21
260.8959466062
 31
0.0
  0
LINE
  5
1EE
330
1F
100
AcDbEntity
  8
0
  6
SLD-Сплошная
 62
     7
370
    25
100
AcDbLine
 10
165.0510286811
 20
324.5959466062
 30
0.0
 11
164.3199103497
 21
324.5959466062
 31
0.0
  0
ARC
  5
1EF
330
1F
100
AcDbEntity
  8
0
  6
SLD-Сплошная
 62
     7
370
    25
100
AcDbCircle
 10
280.0117111911
 20
292.5459466062
 30
0.0
 40
150.0
100
AcDbArc
 50
176.1774462707
 51
183.8225537293
  0
LINE
  5
1F0
330
1F
100
AcDbEntity
  8
0
  6
SLD-Сплошная
 62
     7
370
    25
100
AcDbLine
 10
138.4688102293
 20
260.4959466062
 30
0.0
 11
144.7820955106
 21
260.4959466062
 31
0.0
  0
LINE
  5
1F1
330
1F
100
AcDbEntity
  8
0
  6
SLD-Сплошная
 62
     7
370
    25
100
AcDbLine
 10
144.7820955106
 20
324.5959466062
 30
0.0
 11
138.4688102293
 21
324.5959466062
 31
0.0
  0
SPLINE
  5
1F2
330
1F
100
AcDbEntity
  8
0
  6
SLD-Сплошная
 62
     7
370
    25
100
AcDbSpline
210
0.0
220
0.0
230
1.0
 70
     8
 71
     3
 72
    22
 73
    18
 74
     0
 42
0.00000001
 43
0.00000001
 40
0.0
 40
0.0
 40
0.0
 40
0.0
 40
0.1250000000000002
 40
0.1250000000000002
 40
0.2500000000000004
 40
0.2500000000000004
 40
0.3750000000000006
 40
0.3750000000000006
 40
0.5000000000000008
 40
0.5000000000000008
 40
0.625000000000001
 40
0.625000000000001
 40
0.7500000000000011
 40
0.7500000000000011
 40
0.8750000000000006
 40
0.8750000000000006
 40
1.0
 40
1.0
 40
1.0
 40
1.0
 10
171.2626857635611
 20
336.5459466061588
 30
0.0
 10
170.8966603597767
 20
336.5459466061588
 30
0.0
 10
170.5169469002141
 20
336.5145165225355
 30
0.0
 10
169.7478404603841
 20
336.3770411107809
 30
0.0
 10
169.3585256757356
 20
336.2708752929055
 30
0.0
 10
168.5938896320543
 20
335.9784775321612
 30
0.0
 10
168.2187233601992
 20
335.7921765994367
 30
0.0
 10
167.5084894865106
 20
335.3436627475047
 30
0.0
 10
167.1736062909891
 20
335.0814805120915
 30
0.0
 10
166.5671555453067
 20
334.4956940744646
 30
0.0
 10
166.2957245220567
 20
334.1722217471203
 30
0.0
 10
165.8313888145676
 20
333.486188505819
 30
0.0
 10
165.6385158965298
 20
333.1238057146816
 30
0.0
 10
165.3358034596259
 20
332.3852240123783
 30
0.0
 10
165.2258925172057
 20
332.0091748073302
 30
0.0
 10
165.0835674980241
 20
331.2662750339331
 30
0.0
 10
165.0510286811007
 20
330.8994999967521
 30
0.0
 10
165.0510286811006
 20
330.5459466061588
 30
0.0
  0
LINE
  5
1F3
330
1F
100
AcDbEntity
  8
0
  6
SLD-Сплошная
 62
     7
370
    25
100
AcDbLine
 10
171.2626857636
 20
336.5459466062
 30
0.0
 11
284.9266730281
 21
336.5459466062
 31
0.0
  0
ARC
  5
1F4
330
1F
100
AcDbEntity
  8
0
  6
SLD-Сплошная
 62
     7
370
    25
100
AcDbCircle
 10
284.9266730281
 20
330.5459466062
 30
0.0
 40
6.000000000000057
100
AcDbArc
 50
0.0
 51
90.0
  0
LINE
  5
1F5
330
1F
100
AcDbEntity
  8
0
  6
SLD-Сплошная
 62
     7
370
    25
100
AcDbLine
 10
290.9266730281
 20
254.5459466062
 30
0.0
 11
290.9266730281
 21
330.5459466062
 31
0.0
  0
ARC
  5
1F6
330
1F
100
AcDbEntity
  8
0
  6
SLD-Сплошная
 62
     7
370
    25
100
AcDbCircle
 10
284.9266730281
 20
254.5459466062
 30
0.0
 40
6.000000000000057
100
AcDbArc
 50
270.0
 51
0.0
  0
LINE
  5
1F7
330
1F
100
AcDbEntity
  8
0
  6
SLD-Сплошная
 62
     7
370
    25
100
AcDbLine
 10
284.9266730281
 20
248.5459466062
 30
0.0
 11
171.2626857636
 21
248.5459466062
 31
0.0
  0
SPLINE
  5
1F8
330
1F
100
AcDbEntity
  8
0
  6
SLD-Сплошная
 62
     7
370
    25
100
AcDbSpline
210
0.0
220
0.0
230
1.0
 70
     8
 71
     3
 72
    22
 73
    18
 74
     0
 42
0.00000001
 43
0.00000001
 40
0.0
 40
0.0
 40
0.0
 40
0.0
 40
0.1250000000000006
 40
0.1250000000000006
 40
0.2500000000000012
 40
0.2500000000000012
 40
0.375000000000001
 40
0.375000000000001
 40
0.5000000000000008
 40
0.5000000000000008
 40
0.6250000000000006
 40
0.6250000000000006
 40
0.7500000000000004
 40
0.7500000000000004
 40
0.8750000000000002
 40
0.8750000000000002
 40
1.0
 40
1.0
 40
1.0
 40
1.0
 10
165.0510286811006
 20
254.5459466061588
 30
0.0
 10
165.0510286811006
 20
254.1923932155655
 30
0.0
 10
165.0835674980241
 20
253.8256181783844
 30
0.0
 10
165.2258925172057
 20
253.0827184049874
 30
0.0
 10
165.3358034596258
 20
252.7066691999392
 30
0.0
 10
165.6385158965297
 20
251.9680874976359
 30
0.0
 10
165.8313888145676
 20
251.6057047064986
 30
0.0
 10
166.2957245220568
 20
250.9196714651973
 30
0.0
 10
166.5671555453067
 20
250.596199137853
 30
0.0
 10
167.1736062909891
 20
250.0104127002261
 30
0.0
 10
167.5084894865105
 20
249.7482304648129
 30
0.0
 10
168.2187233601992
 20
249.2997166128809
 30
0.0
 10
168.5938896320542
 20
249.1134156801564
 30
0.0
 10
169.3585256757356
 20
248.821017919412
 30
0.0
 10
169.7478404603841
 20
248.7148521015367
 30
0.0
 10
170.5169469002141
 20
248.577376689782
 30
0.0
 10
170.8966603597767
 20
248.5459466061588
 30
0.0
 10
171.2626857635611
 20
248.5459466061588
 30
0.0
  0
LINE
  5
1F9
330
1F
100
AcDbEntity
  8
0
  6
SLD-Сплошная
 62
     7
370
    25
100
AcDbLine
 10
165.0510286811
 20
254.5459466062
 30
0.0
 11
165.0510286811
 21
330.5459466062
 31
0.0
  0
SPLINE
  5
1FA
330
1F
100
AcDbEntity
  8
0
  6
SLD-Сплошная
 62
     7
370
    25
100
AcDbSpline
210
0.0
220
0.0
230
1.0
 70
    11
 71
     3
 72
    70
 73
    66
 74
     0
 42
0.00000001
 43
0.00000001
 40
0.0
 40
0.0
 40
0.0
 40
0.0
 40
0.03125
 40
0.03125
 40
0.0625
 40
0.0625
 40
0.09375
 40
0.09375
 40
0.1250000000000001
 40
0.1250000000000001
 40
0.1562500000000001
 40
0.1562500000000001
 40
0.1875000000000001
 40
0.1875000000000001
 40
0.2187500000000001
 40
0.2187500000000001
 40
0.2500000000000001
 40
0.2500000000000001
 40
0.2812500000000001
 40
0.2812500000000001
 40
0.3125000000000001
 40
0.3125000000000001
 40
0.3437500000000001
 40
0.3437500000000001
 40
0.3750000000000001
 40
0.3750000000000001
 40
0.40625
 40
0.40625
 40
0.4374999999999999
 40
0.4374999999999999
 40
0.4687499999999999
 40
0.4687499999999999
 40
0.4999999999999999
 40
0.4999999999999999
 40
0.5312499999999999
 40
0.5312499999999999
 40
0.5624999999999999
 40
0.5624999999999999
 40
0.5937499999999999
 40
0.5937499999999999
 40
0.6249999999999999
 40
0.6249999999999999
 40
0.65625
 40
0.65625
 40
0.6875
 40
0.6875
 40
0.71875
 40
0.71875
 40
0.75
 40
0.75
 40
0.78125
 40
0.78125
 40
0.8125
 40
0.8125
 40
0.84375
 40
0.84375
 40
0.875
 40
0.875
 40
0.9062500000000001
 40
0.9062500000000001
 40
0.9375000000000001
 40
0.9375000000000001
 40
0.9687500000000001
 40
0.9687500000000001
 40
1.0
 40
1.0
 40
1.0
 40
1.0
 10
254.3206969501818
 20
292.5459466061589
 30
0.0
 10
254.3206969501818
 20
292.0646966061588
 30
0.0
 10
254.289794333206
 20
291.5530693252441
 30
0.0
 10
254.1399634630206
 20
290.4724522056576
 30
0.0
 10
254.0209637904295
 20
289.9033066061588
 30
0.0
 10
253.6638349192352
 20
288.7205866061588
 30
0.0
 10
253.4255117650971
 20
288.1068543198314
 30
0.0
 10
252.7975235070951
 20
286.8625669823739
 30
0.0
 10
252.407506568784
 20
286.2319466061588
 30
0.0
 10
251.4509113780851
 20
284.9999466061588
 30
0.0
 10
250.8838772675791
 20
284.3987426279265
 30
0.0
 10
249.5674893151568
 20
283.28904099535
 30
0.0
 10
248.8177920901923
 20
282.7810677134253
 30
0.0
 10
247.1627831097444
 20
281.9284725577159
 30
0.0
 10
246.2575617481072
 20
281.5846093280523
 30
0.0
 10
244.3556920198537
 20
281.1180531150346
 30
0.0
 10
243.35971039009
 20
280.9959466061588
 30
0.0
 10
241.3668037428006
 20
280.9959466061588
 30
0.0
 10
240.370822113037
 20
281.1180531150345
 30
0.0
 10
238.4689523847835
 20
281.5846093280523
 30
0.0
 10
237.5637310231463
 20
281.9284725577159
 30
0.0
 10
235.9087220426983
 20
282.7810677134253
 30
0.0
 10
235.1590248177339
 20
283.28904099535
 30
0.0
 10
233.8426368653116
 20
284.3987426279265
 30
0.0
 10
233.2756027548056
 20
284.9999466061588
 30
0.0
 10
232.3190075641067
 20
286.2319466061588
 30
0.0
 10
231.9289906257956
 20
286.8625669823739
 30
0.0
 10
231.3010023677936
 20
288.1068543198314
 30
0.0
 10
231.0626792136555
 20
288.7205866061588
 30
0.0
 10
230.7055503424612
 20
289.9033066061588
 30
0.0
 10
230.58655066987
 20
290.4724522056576
 30
0.0
 10
230.4367197996846
 20
291.5530693252441
 30
0.0
 10
230.4058171827089
 20
292.0646966061588
 30
0.0
 10
230.4058171827089
 20
293.0271966061588
 30
0.0
 10
230.4367197996846
 20
293.5388238870735
 30
0.0
 10
230.58655066987
 20
294.6194410066601
 30
0.0
 10
230.7055503424612
 20
295.1885866061588
 30
0.0
 10
231.0626792136555
 20
296.3713066061588
 30
0.0
 10
231.3010023677936
 20
296.9850388924863
 30
0.0
 10
231.9289906257956
 20
298.2293262299437
 30
0.0
 10
232.3190075641067
 20
298.8599466061588
 30
0.0
 10
233.2756027548056
 20
300.0919466061588
 30
0.0
 10
233.8426368653116
 20
300.6931505843911
 30
0.0
 10
235.1590248177339
 20
301.8028522169676
 30
0.0
 10
235.9087220426983
 20
302.3108254988924
 30
0.0
 10
237.5637310231463
 20
303.1634206546017
 30
0.0
 10
238.4689523847835
 20
303.5072838842653
 30
0.0
 10
240.370822113037
 20
303.9738400972831
 30
0.0
 10
241.3668037428006
 20
304.0959466061588
 30
0.0
 10
243.35971039009
 20
304.0959466061588
 30
0.0
 10
244.3556920198537
 20
303.9738400972831
 30
0.0
 10
246.2575617481072
 20
303.5072838842653
 30
0.0
 10
247.1627831097444
 20
303.1634206546017
 30
0.0
 10
248.8177920901923
 20
302.3108254988924
 30
0.0
 10
249.5674893151568
 20
301.8028522169676
 30
0.0
 10
250.8838772675791
 20
300.6931505843911
 30
0.0
 10
251.4509113780851
 20
300.0919466061588
 30
0.0
 10
252.407506568784
 20
298.8599466061588
 30
0.0
 10
252.7975235070951
 20
298.2293262299437
 30
0.0
 10
253.4255117650971
 20
296.9850388924863
 30
0.0
 10
253.6638349192352
 20
296.3713066061588
 30
0.0
 10
254.0209637904295
 20
295.1885866061588
 30
0.0
 10
254.1399634630206
 20
294.6194410066601
 30
0.0
 10
254.289794333206
 20
293.5388238870735
 30
0.0
 10
254.3206969501818
 20
293.0271966061588
 30
0.0
 10
254.3206969501818
 20
292.5459466061589
 30
0.0
  0
SPLINE
  5
1FB
330
1F
100
AcDbEntity
  8
0
  6
SLD-Сплошная
 62
     7
370
    25
100
AcDbSpline
210
0.0
220
0.0
230
1.0
 70
     8
 71
     3
 72
    15
 73
    11
 74
     0
 42
0.00000001
 43
0.00000001
 40
0.0
 40
0.0
 40
0.0
 40
0.0
 40
0.125
 40
0.25
 40
0.375
 40
0.5
 40
0.625
 40
0.75
 40
0.875
 40
1.0
 40
1.0
 40
1.0
 40
1.0
 10
283.0510286810554
 20
333.1959466061588
 30
0.0
 10
282.7110872813879
 20
333.1959466061591
 30
0.0
 10
282.0259650975139
 20
333.0634924369219
 30
0.0
 10
281.1406782598711
 20
332.4814839778337
 30
0.0
 10
280.5420134376892
 20
331.5972064650533
 30
0.0
 10
280.3303724225633
 20
330.5459466060861
 30
0.0
 10
280.5420134377431
 20
329.4946867471295
 30
0.0
 10
281.1406782599706
 20
328.6104092343789
 30
0.0
 10
282.0259650976047
 20
328.028400775361
 30
0.0
 10
282.7110872814337
 20
327.8959466061586
 30
0.0
 10
283.0510286811926
 20
327.8959466061588
 30
0.0
  0
LINE
  5
1FC
330
1F
100
AcDbEntity
  8
0
  6
SLD-Сплошная
 62
     7
370
    25
100
AcDbLine
 10
283.0510286812
 20
327.8959466062
 30
0.0
 11
284.9266730281
 21
327.8959466062
 31
0.0
  0
SPLINE
  5
1FD
330
1F
100
AcDbEntity
  8
0
  6
SLD-Сплошная
 62
     7
370
    25
100
AcDbSpline
210
0.0
220
0.0
230
1.0
 70
     8
 71
     3
 72
    15
 73
    11
 74
     0
 42
0.00000001
 43
0.00000001
 40
0.0
 40
0.0
 40
0.0
 40
0.0
 40
0.125
 40
0.25
 40
0.375
 40
0.5
 40
0.625
 40
0.75
 40
0.875
 40
1.0
 40
1.0
 40
1.0
 40
1.0
 10
284.9266730281185
 20
327.8959466061588
 30
0.0
 10
285.2666144278513
 20
327.8959466061588
 30
0.0
 10
285.9517366117823
 20
328.0284007754158
 30
0.0
 10
286.8370234494832
 20
328.6104092345993
 30
0.0
 10
287.4356882716536
 20
329.4946867475288
 30
0.0
 10
287.6473292866672
 20
330.5459466066376
 30
0.0
 10
287.4356882712851
 20
331.5972064656705
 30
0.0
 10
286.8370234488085
 20
332.481483978387
 30
0.0
 10
285.9517366111738
 20
333.0634924370867
 30
0.0
 10
285.2666144275497
 20
333.1959466061588
 30
0.0
 10
284.9266730281185
 20
333.1959466061588
 30
0.0
  0
LINE
  5
1FE
330
1F
100
AcDbEntity
  8
0
  6
SLD-Сплошная
 62
     7
370
    25
100
AcDbLine
 10
284.9266730281
 20
333.1959466062
 30
0.0
 11
283.0510286811
 21
333.1959466062
 31
0.0
  0
SPLINE
  5
1FF
330
1F
100
AcDbEntity
  8
0
  6
SLD-Сплошная
 62
     7
370
    25
100
AcDbSpline
210
0.0
220
0.0
230
1.0
 70
     8
 71
     3
 72
    28
 73
    24
 74
     0
 42
0.00000001
 43
0.00000001
 40
0.0
 40
0.0
 40
0.0
 40
0.0
 40
0.0207510104810283
 40
0.0413180931861348
 40
0.0617869995019423
 40
0.0822447154126594
 40
0.1027783691195284
 40
0.1234741297621162
 40
0.1858319500764053
 40
0.2481887377492111
 40
0.3110287356906391
 40
0.3738626285559881
 40
0.436947476477229
 40
0.500032127727195
 40
0.5631121921454937
 40
0.6262016342673612
 40
0.689031825853762
 40
0.7518755527178392
 40
0.8142297173645453
 40
0.8765901761323502
 40
0.9177972864990533
 40
0.95870209235634
 40
1.0
 40
1.0
 40
1.0
 40
1.0
 10
172.9266730281185
 20
333.1959466061588
 30
0.0
 10
172.9841992541427
 20
333.1948876194069
 30
0.0
 10
173.0987418191752
 20
333.192779032293
 30
0.0
 10
173.2693332478058
 20
333.1757835674936
 30
0.0
 10
173.4376971766896
 20
333.1486185627022
 30
0.0
 10
173.6038196987749
 20
333.1103221637657
 30
0.0
 10
173.7677106289866
 20
333.061138909707
 30
0.0
 10
174.0369294392397
 20
332.9610451453844
 30
0.0
 10
174.3965835480226
 20
332.772673199279
 30
0.0
 10
174.8018851919937
 20
332.442022807345
 30
0.0
 10
175.1380607078027
 20
332.0392823318966
 30
0.0
 10
175.3869934679149
 20
331.5752438229864
 30
0.0
 10
175.5429464970694
 20
331.0715142703
 30
0.0
 10
175.593698784702
 20
330.5459592517179
 30
0.0
 10
175.5429494861063
 20
330.0203920285441
 30
0.0
 10
175.387002819875
 20
329.5166697698679
 30
0.0
 10
175.1380651868438
 20
329.0526222850203
 30
0.0
 10
174.801909382918
 20
328.6498693075774
 30
0.0
 10
174.396545823616
 20
328.319274190191
 30
0.0
 10
173.9863472712636
 20
328.1041159290363
 30
0.0
 10
173.6059094252199
 20
327.9768069997962
 30
0.0
 10
173.269230838041
 20
327.9084101527528
 30
0.0
 10
173.041222417957
 20
327.9001143454899
 30
0.0
 10
172.9266730281185
 20
327.8959466061588
 30
0.0
  0
LINE
  5
200
330
1F
100
AcDbEntity
  8
0
  6
SLD-Сплошная
 62
     7
370
    25
100
AcDbLine
 10
171.0510286811
 20
333.1959466062
 30
0.0
 11
172.9266730281
 21
333.1959466062
 31
0.0
  0
SPLINE
  5
201
330
1F
100
AcDbEntity
  8
0
  6
SLD-Сплошная
 62
     7
370
    25
100
AcDbSpline
210
0.0
220
0.0
230
1.0
 70
     8
 71
     3
 72
    28
 73
    24
 74
     0
 42
0.00000001
 43
0.00000001
 40
0.0
 40
0.0
 40
0.0
 40
0.0
 40
0.0207510079033379
 40
0.0413180890618405
 40
0.0617869948560558
 40
0.0822447112511094
 40
0.102778366416338
 40
0.1234741294475604
 40
0.1858319406698634
 40
0.2481887374445693
 40
0.311028726031082
 40
0.3738626282618001
 40
0.4369474666281277
 40
0.5000321274461054
 40
0.5631121822366146
 40
0.626201634002216
 40
0.6890318160722122
 40
0.7518755524732235
 40
0.8142297077781596
 40
0.8765901759061802
 40
0.9177972822732682
 40
0.958702088135755
 40
1.0
 40
1.0
 40
1.0
 40
1.0
 10
171.0510286811006
 20
327.8959466061588
 30
0.0
 10
170.9935024622233
 20
327.8970055929445
 30
0.0
 10
170.8789599086262
 20
327.899114180177
 30
0.0
 10
170.7083684929597
 20
327.9161096452525
 30
0.0
 10
170.5400045686083
 20
327.9432746502701
 30
0.0
 10
170.3738820424931
 20
327.9815710492273
 30
0.0
 10
170.2099911001528
 20
328.0307543040748
 30
0.0
 10
169.9407722976116
 20
328.1308480478906
 30
0.0
 10
169.5811181848902
 20
328.3192200010315
 30
0.0
 10
169.1758165536422
 20
328.6498703678404
 30
0.0
 10
168.8396410172972
 20
329.0526108579122
 30
0.0
 10
168.5907082616027
 20
329.5166493404558
 30
0.0
 10
168.4347552179156
 20
330.0203789145023
 30
0.0
 10
168.3840029244744
 20
330.5459339070607
 30
0.0
 10
168.4347522175583
 20
331.0715011561165
 30
0.0
 10
168.5906988688131
 20
331.5752233932135
 30
0.0
 10
168.8396365065169
 20
332.0392709045749
 30
0.0
 10
169.175792289234
 20
332.4420238673932
 30
0.0
 10
169.5811558623113
 20
332.7726190090065
 30
0.0
 10
169.9913544051647
 20
332.9877772644631
 30
0.0
 10
170.3717922583644
 20
333.1150862187246
 30
0.0
 10
170.7084708478748
 20
333.1834830609469
 30
0.0
 10
170.936479279597
 20
333.191778867149
 30
0.0
 10
171.0510286811006
 20
333.1959466061588
 30
0.0
  0
LINE
  5
202
330
1F
100
AcDbEntity
  8
0
  6
SLD-Сплошная
 62
     7
370
    25
100
AcDbLine
 10
172.9266730281
 20
327.8959466062
 30
0.0
 11
171.0510286811
 21
327.8959466062
 31
0.0
  0
SPLINE
  5
203
330
1F
100
AcDbEntity
  8
0
  6
SLD-Сплошная
 62
     7
370
    25
100
AcDbSpline
210
0.0
220
0.0
230
1.0
 70
     8
 71
     3
 72
    15
 73
    11
 74
     0
 42
0.00000001
 43
0.00000001
 40
0.0
 40
0.0
 40
0.0
 40
0.0
 40
0.125
 40
0.2500000000000001
 40
0.3750000000000001
 40
0.5000000000000001
 40
0.6250000000000001
 40
0.7500000000000002
 40
0.8750000000000002
 40
1.0
 40
1.0
 40
1.0
 40
1.0
 10
172.9266730281638
 20
251.8959466061588
 30
0.0
 10
173.2666144278268
 20
251.8959466061588
 30
0.0
 10
173.951736611693
 20
252.028400775393
 30
0.0
 10
174.8370234493293
 20
252.6104092344686
 30
0.0
 10
175.4356882715131
 20
253.4946867472317
 30
0.0
 10
175.6473292866533
 20
254.5459466061829
 30
0.0
 10
175.4356882714969
 20
255.5972064651313
 30
0.0
 10
174.8370234492954
 20
256.4814839778827
 30
0.0
 10
173.9517366116625
 20
257.063492436934
 30
0.0
 10
173.2666144278117
 20
257.1959466061588
 30
0.0
 10
172.9266730281185
 20
257.1959466061588
 30
0.0
  0
LINE
  5
204
330
1F
100
AcDbEntity
  8
0
  6
SLD-Сплошная
 62
     7
370
    25
100
AcDbLine
 10
172.9266730281
 20
257.1959466062
 30
0.0
 11
171.0510286811
 21
257.1959466062
 31
0.0
  0
SPLINE
  5
205
330
1F
100
AcDbEntity
  8
0
  6
SLD-Сплошная
 62
     7
370
    25
100
AcDbSpline
210
0.0
220
0.0
230
1.0
 70
     8
 71
     3
 72
    15
 73
    11
 74
     0
 42
0.00000001
 43
0.00000001
 40
0.0
 40
0.0
 40
0.0
 40
0.0
 40
0.125
 40
0.25
 40
0.375
 40
0.5
 40
0.625
 40
0.75
 40
0.875
 40
1.0
 40
1.0
 40
1.0
 40
1.0
 10
171.0510286811006
 20
257.1959466061588
 30
0.0
 10
170.7110872813679
 20
257.1959466061588
 30
0.0
 10
170.0259650974368
 20
257.0634924369018
 30
0.0
 10
169.1406782597359
 20
256.4814839777183
 30
0.0
 10
168.5420134375656
 20
255.5972064647888
 30
0.0
 10
168.3303724225521
 20
254.54594660568
 30
0.0
 10
168.5420134379339
 20
253.4946867466471
 30
0.0
 10
169.140678260411
 20
252.6104092339307
 30
0.0
 10
170.0259650980452
 20
252.0284007752309
 30
0.0
 10
170.7110872816696
 20
251.8959466061588
 30
0.0
 10
171.0510286811919
 20
251.8959466061588
 30
0.0
  0
LINE
  5
206
330
1F
100
AcDbEntity
  8
0
  6
SLD-Сплошная
 62
     7
370
    25
100
AcDbLine
 10
171.0510286812
 20
251.8959466062
 30
0.0
 11
172.9266730282
 21
251.8959466062
 31
0.0
  0
LINE
  5
207
330
1F
100
AcDbEntity
  8
0
  6
SLD-Сплошная
 62
     7
370
    25
100
AcDbLine
 10
284.9266730281
 20
251.8959466062
 30
0.0
 11
283.051028681
 21
251.8959466062
 31
0.0
  0
SPLINE
  5
208
330
1F
100
AcDbEntity
  8
0
  6
SLD-Сплошная
 62
     7
370
    25
100
AcDbSpline
210
0.0
220
0.0
230
1.0
 70
     8
 71
     3
 72
    15
 73
    11
 74
     0
 42
0.00000001
 43
0.00000001
 40
0.0
 40
0.0
 40
0.0
 40
0.0
 40
0.125
 40
0.2500000000000001
 40
0.3750000000000001
 40
0.5000000000000001
 40
0.6250000000000001
 40
0.7500000000000002
 40
0.8750000000000002
 40
1.0
 40
1.0
 40
1.0
 40
1.0
 10
284.9266730281235
 20
251.8959466061588
 30
0.0
 10
285.2666144278151
 20
251.8959466061588
 30
0.0
 10
285.9517366116711
 20
252.0284007753861
 30
0.0
 10
286.8370234493071
 20
252.6104092344457
 30
0.0
 10
287.4356882715037
 20
253.4946867472067
 30
0.0
 10
287.647329286654
 20
254.5459466061615
 30
0.0
 10
287.4356882715042
 20
255.5972064651168
 30
0.0
 10
286.8370234493033
 20
256.4814839778757
 30
0.0
 10
285.9517366116679
 20
257.0634924369326
 30
0.0
 10
285.2666144278134
 20
257.1959466061588
 30
0.0
 10
284.9266730281186
 20
257.1959466061588
 30
0.0
  0
LINE
  5
209
330
1F
100
AcDbEntity
  8
0
  6
SLD-Сплошная
 62
     7
370
    25
100
AcDbLine
 10
283.0510286811
 20
257.1959466062
 30
0.0
 11
284.9266730281
 21
257.1959466062
 31
0.0
  0
SPLINE
  5
20A
330
1F
100
AcDbEntity
  8
0
  6
SLD-Сплошная
 62
     7
370
    25
100
AcDbSpline
210
0.0
220
0.0
230
1.0
 70
     8
 71
     3
 72
    15
 73
    11
 74
     0
 42
0.00000001
 43
0.00000001
 40
0.0
 40
0.0
 40
0.0
 40
0.0
 40
0.125
 40
0.25
 40
0.375
 40
0.5
 40
0.625
 40
0.75
 40
0.875
 40
1.0
 40
1.0
 40
1.0
 40
1.0
 10
283.0510286811008
 20
257.1959466061588
 30
0.0
 10
282.7110872816724
 20
257.1959466061588
 30
0.0
 10
282.0259650980537
 20
257.0634924370904
 30
0.0
 10
281.1406782604229
 20
256.4814839784007
 30
0.0
 10
280.5420134379416
 20
255.5972064656967
 30
0.0
 10
280.3303724225479
 20
254.5459466066735
 30
0.0
 10
280.542013437543
 20
253.4946867475676
 30
0.0
 10
281.1406782596938
 20
252.6104092346314
 30
0.0
 10
282.0259650973978
 20
252.0284007754183
 30
0.0
 10
282.7110872813481
 20
251.8959466061588
 30
0.0
 10
283.0510286810328
 20
251.8959466061588
 30
0.0
  0
SPLINE
  5
20B
330
1F
100
AcDbEntity
  8
0
  6
SLD-Сплошная
 62
     7
370
    25
100
AcDbSpline
210
0.0
220
0.0
230
1.0
 70
     8
 71
     3
 72
    16
 73
    12
 74
     0
 42
0.00000001
 43
0.00000001
 40
0.0
 40
0.0
 40
0.0
 40
0.0
 40
0.1097222712575966
 40
0.2322593107521324
 40
0.3531579889123153
 40
0.4733035429472998
 40
0.593285071965569
 40
0.7137696974052092
 40
0.835605460311199
 40
0.9639589408201134
 40
1.0
 40
1.0
 40
1.0
 40
1.0
 10
172.9531092684774
 20
327.9323659574114
 30
0.0
 10
172.6432126275116
 20
327.9460532958358
 30
0.0
 10
171.9872256577729
 20
327.9750265548839
 30
0.0
 10
171.1203269780198
 20
328.5255975404195
 30
0.0
 10
170.490938491405
 20
329.3426129770203
 30
0.0
 10
170.2190732674053
 20
330.3408018296007
 30
0.0
 10
170.3380134754125
 20
331.3612891503919
 30
0.0
 10
170.8303499585265
 20
332.2792613830383
 30
0.0
 10
171.6467197818511
 20
332.9258567321008
 30
0.0
 10
172.4386282478254
 20
333.2409722522812
 30
0.0
 10
172.8933632827206
 20
333.1645230627063
 30
0.0
 10
172.9930571797007
 20
333.1477627142729
 30
0.0
  0
SPLINE
  5
20C
330
1F
100
AcDbEntity
  8
0
  6
SLD-Сплошная
 62
     7
370
    25
100
AcDbSpline
210
0.0
220
0.0
230
1.0
 70
     8
 71
     3
 72
    16
 73
    12
 74
     0
 42
0.00000001
 43
0.00000001
 40
0.0
 40
0.0
 40
0.0
 40
0.0
 40
0.1097222712576363
 40
0.2322593107521682
 40
0.353157988912336
 40
0.4733035429473004
 40
0.5932850719655668
 40
0.7137696974051925
 40
0.8356054603111795
 40
0.963958940820081
 40
1.0
 40
1.0
 40
1.0
 40
1.0
 10
284.9531092684779
 20
327.9323659574114
 30
0.0
 10
284.6432126275119
 20
327.9460532958358
 30
0.0
 10
283.9872256577731
 20
327.9750265548839
 30
0.0
 10
283.1203269780198
 20
328.5255975404194
 30
0.0
 10
282.4909384914048
 20
329.3426129770203
 30
0.0
 10
282.2190732674055
 20
330.3408018296006
 30
0.0
 10
282.3380134754124
 20
331.3612891503918
 30
0.0
 10
282.8303499585264
 20
332.2792613830384
 30
0.0
 10
283.6467197818512
 20
332.9258567321007
 30
0.0
 10
284.4386282478255
 20
333.240972252281
 30
0.0
 10
284.8933632827208
 20
333.1645230627062
 30
0.0
 10
284.9930571797011
 20
333.1477627142728
 30
0.0
  0
LINE
  5
20D
330
1F
100
AcDbEntity
  8
0
  6
SLD-Сплошная
 62
     7
370
    25
100
AcDbLine
 10
172.0425808025
 20
252.0477710846
 30
0.0
 11
172.9477413052
 21
251.9079995966
 31
0.0
  0
SPLINE
  5
20E
330
1F
100
AcDbEntity
  8
0
  6
SLD-Сплошная
 62
     7
370
    25
100
AcDbSpline
210
0.0
220
0.0
230
1.0
 70
     8
 71
     3
 72
    19
 73
    15
 74
     0
 42
0.00000001
 43
0.00000001
 40
0.0
 40
0.0
 40
0.0
 40
0.0
 40
0.0210423967283033
 40
0.0985625543438704
 40
0.1758696152523797
 40
0.2873515408583182
 40
0.3721361598932671
 40
0.4571205619399316
 40
0.5580478151094412
 40
0.6591533414576899
 40
0.7940231447196515
 40
0.844936805129369
 40
0.922758745143276
 40
1.0
 40
1.0
 40
1.0
 40
1.0
 10
172.9951792606211
 20
257.1704404329923
 30
0.0
 10
172.9434594113904
 20
257.1800061850035
 30
0.0
 10
172.7012037160779
 20
257.224812152908
 30
0.0
 10
172.2603276741385
 20
257.1234258751551
 30
0.0
 10
171.6372932673469
 20
256.9007903257482
 30
0.0
 10
171.0753080731805
 20
256.4885681502646
 30
0.0
 10
170.6375180542561
 20
255.9345342921494
 30
0.0
 10
170.3593504945929
 20
255.31313149845
 30
0.0
 10
170.2396622535604
 20
254.5981608170966
 30
0.0
 10
170.3452899994367
 20
253.7553571892709
 30
0.0
 10
170.6682147085339
 20
253.0943418830706
 30
0.0
 10
171.1050698273304
 20
252.6033552829409
 30
0.0
 10
171.507885380295
 20
252.2749555074327
 30
0.0
 10
171.8647945163403
 20
252.1233099299419
 30
0.0
 10
172.042580802512
 20
252.0477710845786
 30
0.0
  0
ARC
  5
20F
330
1F
100
AcDbEntity
  8
0
  6
SLD-Сплошная
 62
     7
370
    25
100
AcDbCircle
 10
246.2373560773
 20
292.544773082
 30
0.0
 40
11.60689026531563
100
AcDbArc
 50
100.7674828455
 51
258.6998565621
  0
SPLINE
  5
210
330
1F
100
AcDbEntity
  8
0
  6
SLD-Сплошная
 62
     7
370
    25
100
AcDbSpline
210
0.0
220
0.0
230
1.0
 70
     8
 71
     3
 72
    18
 73
    14
 74
     0
 42
0.00000001
 43
0.00000001
 40
0.0
 40
0.0
 40
0.0
 40
0.0
 40
0.0815492573227349
 40
0.1635561777573558
 40
0.2714601849588865
 40
0.3265339977115678
 40
0.4586730778340592
 40
0.5549209487538517
 40
0.6634573612705482
 40
0.7933276471139898
 40
0.8788388940436024
 40
0.964240645073123
 40
1.0
 40
1.0
 40
1.0
 40
1.0
 10
284.0425808025121
 20
257.044122127739
 30
0.0
 10
283.8551856412912
 20
256.9635701087242
 30
0.0
 10
283.479343637259
 20
256.8020140041901
 30
0.0
 10
282.9555700465013
 20
256.3615610717314
 30
0.0
 10
282.5957360398073
 20
255.8574967400349
 30
0.0
 10
282.3187738851204
 20
255.174824931903
 30
0.0
 10
282.2296914505429
 20
254.4552194039008
 30
0.0
 10
282.4033361446212
 20
253.6248666477819
 30
0.0
 10
282.8002986302409
 20
252.8788712351596
 30
0.0
 10
283.412376101239
 20
252.3180892218412
 30
0.0
 10
284.0951264771214
 20
252.0110185074114
 30
0.0
 10
284.6075687804234
 20
251.8730262776617
 30
0.0
 10
284.9071958552063
 20
251.9197021889566
 30
0.0
 10
284.9956274589647
 20
251.9334780658386
 30
0.0
  0
SPLINE
  5
211
330
1F
100
AcDbEntity
  8
0
  6
SLD-Сплошная
 62
     7
370
    25
100
AcDbSpline
210
0.0
220
0.0
230
1.0
 70
     8
 71
     3
 72
     9
 73
     5
 74
     0
 42
0.00000001
 43
0.00000001
 40
0.0
 40
0.0
 40
0.0
 40
0.0
 40
0.2118593570496865
 40
1.0
 40
1.0
 40
1.0
 40
1.0
 10
284.9442008930192
 20
257.1845197135171
 30
0.0
 10
284.8793592724477
 20
257.187934712251
 30
0.0
 10
284.5732995285002
 20
257.2040538904715
 30
0.0
 10
284.2765003208537
 20
257.1146136311926
 30
0.0
 10
284.0425808025121
 20
257.044122127739
 30
0.0
  0
LWPOLYLINE
  5
212
330
1F
100
AcDbEntity
  8
0
  6
SLD-Сплошная
 62
     7
370
    25
100
AcDbPolyline
 90
       18
 70
   128
 43
0.0
 10
136.5904727331
 20
285.7459466062
 10
136.3409998854
 20
285.8146081161
 10
136.0156680087
 20
286.1188388103
 10
135.7111276759
 20
286.6555475751
 10
135.4383945647
 20
287.4053208543
 10
135.2073338384
 20
288.3410382306
 10
135.0263033079
 20
289.4288534116
 10
134.9018511174
 20
290.6294185004
 10
134.8384788882
 20
291.8993072679
 10
134.8384788882
 20
293.1925859444
 10
134.9018511174
 20
294.462474712
 10
135.0263033079
 20
295.6630398008
 10
135.2073338384
 20
296.7508549817
 10
135.4383945647
 20
297.6865723581
 10
135.7111276759
 20
298.4363456372
 10
136.0156680087
 20
298.973054402
 10
136.3409998854
 20
299.2772850962
 10
136.5904727331
 20
299.3459466062
  0
LWPOLYLINE
  5
213
330
1F
100
AcDbEntity
  8
0
  6
SLD-Сплошная
 62
     7
370
    25
100
AcDbPolyline
 90
        9
 70
   128
 43
0.0
 10
160.0899865259
 20
324.3959466062
 10
159.624963703
 20
324.5465793552
 10
158.8857271343
 20
324.5778126305
 10
158.148706621
 20
324.3546251575
 10
157.4197561246
 20
323.8787896561
 10
156.7046655085
 20
323.1540855634
 10
156.0091145507
 20
322.1862690148
 10
155.338627831
 20
320.9830271245
 10
154.6985308503
 20
319.5539169285
  0
LINE
  5
214
330
1F
100
AcDbEntity
  8
0
  6
SLD-Сплошная
 62
     7
370
    25
100
AcDbLine
 10
154.6985308503
 20
319.5539169285
 30
0.0
 11
165.0510286811
 21
319.5539169285
 31
0.0
  0
LWPOLYLINE
  5
215
330
1F
100
AcDbEntity
  8
0
  6
SLD-Сплошная
 62
     7
370
    25
100
AcDbPolyline
 90
       17
 70
   128
 43
0.0
 10
136.6753555668
 20
285.7538599702
 10
136.8597565267
 20
283.0455840509
 10
137.1046420899
 20
280.4098404561
 10
137.4081426311
 20
277.8667522713
 10
137.7679410177
 20
275.4357351869
 10
138.1812903006
 20
273.1353492651
 10
138.6450346859
 20
270.9831572396
 10
139.1556336291
 20
268.9955904297
 10
139.7091888653
 20
267.187823292
 10
140.301474172
 20
265.5736575686
 10
140.9279676342
 20
264.1654169147
 10
141.5838861686
 20
262.9738528111
 10
142.2642220404
 20
262.0080624808
 10
142.9637810959
 20
261.2754194336
 10
143.6772224186
 20
260.7815171721
 10
144.3990991049
 20
260.5301264871
 10
144.7820955106
 20
260.4959466062
  0
LWPOLYLINE
  5
216
330
1F
100
AcDbEntity
  8
0
  6
SLD-Сплошная
 62
     7
370
    25
100
AcDbPolyline
 90
       17
 70
   128
 43
0.0
 10
144.7820955106
 20
324.5959466062
 10
144.3990991049
 20
324.5617667252
 10
143.6772224186
 20
324.3103760402
 10
142.9637810959
 20
323.8164737788
 10
142.2642220404
 20
323.0838307315
 10
141.5838861686
 20
322.1180404012
 10
140.9279676342
 20
320.9264762977
 10
140.301474172
 20
319.5182356437
 10
139.7091888653
 20
317.9040699203
 10
139.1556336291
 20
316.0963027827
 10
138.6450346859
 20
314.1087359727
 10
138.1812903006
 20
311.9565439472
 10
137.7679410177
 20
309.6561580254
 10
137.4081426311
 20
307.225140941
 10
137.1046420899
 20
304.6820527562
 10
136.8597565267
 20
302.0463091614
 10
136.6753555668
 20
299.3380332421
  0
LWPOLYLINE
  5
217
330
1F
100
AcDbEntity
  8
0
  6
SLD-Сплошная
 62
     7
370
    25
100
AcDbPolyline
 90
       10
 70
   128
 43
0.0
 10
154.6985308503
 20
265.5379762838
 10
155.338627831
 20
264.1088660879
 10
156.0091145507
 20
262.9056241975
 10
156.7046655085
 20
261.9378076489
 10
157.4197561246
 20
261.2131035562
 10
158.148706621
 20
260.7372680548
 10
158.8857271343
 20
260.5140805819
 10
159.624963703
 20
260.5453138572
 10
160.360544764
 20
260.8307198029
 10
160.4711905375
 20
260.8959466062
  0
LINE
  5
218
330
1F
100
AcDbEntity
  8
0
  6
SLD-Сплошная
 62
     7
370
    25
100
AcDbLine
 10
154.6985308503
 20
265.5379762838
 30
0.0
 11
165.0510286811
 21
265.5379762838
 31
0.0
  0
LWPOLYLINE
  5
219
330
1F
100
AcDbEntity
  8
0
  6
SLD-Сплошная
 62
     7
370
    25
100
AcDbPolyline
 90
        8
 70
   128
 43
0.0
 10
159.164731064
 20
324.3959466062
 10
158.885671206
 20
324.3776913756
 10
158.1480824364
 20
324.1527985662
 10
157.4186836747
 20
323.6732844814
 10
156.7033508762
 20
322.9430120331
 10
156.007846682
 20
321.9678642148
 10
155.3377739964
 20
320.7556967086
 10
154.7954237185
 20
319.5539169285
  0
LINE
  5
21A
330
1F
100
AcDbEntity
  8
0
  6
SLD-Сплошная
 62
     7
370
    25
100
AcDbLine
 10
160.7380976014
 20
321.2322302582
 30
0.0
 11
163.7630013027
 21
321.2322302582
 31
0.0
  0
ARC
  5
21B
330
1F
100
AcDbEntity
  8
0
  6
SLD-Сплошная
 62
     7
370
    25
100
AcDbCircle
 10
173.7214648499
 20
315.9708483243
 30
0.0
 40
11.26290975171021
100
AcDbArc
 50
143.7692443215
 51
152.151041519
  0
LINE
  5
21C
330
1F
100
AcDbEntity
  8
0
  6
SLD-Сплошная
 62
     7
370
    25
100
AcDbLine
 10
164.771314744
 20
321.2322302582
 30
0.0
 11
165.0510286811
 21
321.2322302582
 31
0.0
  0
LINE
  5
21D
330
1F
100
AcDbEntity
  8
0
  6
SLD-Сплошная
 62
     7
370
    25
100
AcDbLine
 10
161.8679945766
 20
322.9544284816
 30
0.0
 11
164.8928982779
 21
322.9544284816
 31
0.0
  0
LINE
  5
21E
330
1F
100
AcDbEntity
  8
0
  6
SLD-Сплошная
 62
     7
370
    25
100
AcDbLine
 10
165.0510286811
 20
323.1380777081
 30
0.0
 11
164.8928982779
 21
322.9544284816
 31
0.0
  0
LWPOLYLINE
  5
21F
330
1F
100
AcDbEntity
  8
0
  6
SLD-Сплошная
 62
     7
370
    25
100
AcDbPolyline
 90
        8
 70
   128
 43
0.0
 10
154.8938871201
 20
265.5379762838
 10
155.3369003243
 20
264.5639851957
 10
156.0065493005
 20
263.3427459552
 10
156.7020056754
 20
262.360143594
 10
157.4175864575
 20
261.6242075457
 10
158.1474442068
 20
261.1409515854
 10
158.8856148175
 20
260.9143246875
 10
159.164731064
 20
260.8959466062
  0
LINE
  5
220
330
1F
100
AcDbEntity
  8
0
  6
SLD-Сплошная
 62
     7
370
    25
100
AcDbLine
 10
164.771314744
 20
321.4541265863
 30
0.0
 11
165.0510286811
 21
321.4541265863
 31
0.0
  0
LINE
  5
221
330
1F
100
AcDbEntity
  8
0
  6
SLD-Сплошная
 62
     7
370
    25
100
AcDbLine
 10
164.771314744
 20
321.2322302582
 30
0.0
 11
164.771314744
 21
321.4541265863
 31
0.0
  0
ARC
  5
222
330
1F
100
AcDbEntity
  8
0
  6
SLD-Сплошная
 62
     7
370
    25
100
AcDbCircle
 10
176.5566705657
 20
315.0928650903
 30
0.0
 40
13.39254492862134
100
AcDbArc
 50
149.216571182
 51
151.6416093907
  0
LINE
  5
223
330
1F
100
AcDbEntity
  8
0
  6
SLD-Сплошная
 62
     7
370
    25
100
AcDbLine
 10
160.7380976014
 20
321.4541265863
 30
0.0
 11
163.7630013027
 21
321.4541265863
 31
0.0
  0
LINE
  5
224
330
1F
100
AcDbEntity
  8
0
  6
SLD-Сплошная
 62
     7
370
    25
100
AcDbLine
 10
163.7630013027
 20
321.2322302582
 30
0.0
 11
163.7630013027
 21
321.4541265863
 31
0.0
  0
LINE
  5
225
330
1F
100
AcDbEntity
  8
0
  6
SLD-Сплошная
 62
     7
370
    25
100
AcDbLine
 10
160.7380976014
 20
321.2322302582
 30
0.0
 11
160.7380976014
 21
321.4541265863
 31
0.0
  0
ARC
  5
226
330
1F
100
AcDbEntity
  8
0
  6
SLD-Сплошная
 62
     7
370
    25
100
AcDbCircle
 10
173.6417638742
 20
316.1939181494
 30
0.0
 40
11.19194990800274
100
AcDbArc
 50
143.5751371537
 51
151.9657499795
  0
LINE
  5
227
330
1F
100
AcDbEntity
  8
0
  6
SLD-Сплошная
 62
     7
370
    25
100
AcDbLine
 10
164.63631567
 20
322.6276644141
 30
0.0
 11
164.63631567
 21
322.8393410393
 31
0.0
  0
ARC
  5
228
330
1F
100
AcDbEntity
  8
0
  6
SLD-Сплошная
 62
     7
370
    25
100
AcDbCircle
 10
170.6168601729
 20
316.1939181494
 30
0.0
 40
11.19194990800706
100
AcDbArc
 50
143.5751371537
 51
151.9657499795
  0
LINE
  5
229
330
1F
100
AcDbEntity
  8
0
  6
SLD-Сплошная
 62
     7
370
    25
100
AcDbLine
 10
164.63631567
 20
322.8393410393
 30
0.0
 11
161.6114119687
 21
322.8393410393
 31
0.0
  0
LINE
  5
22A
330
1F
100
AcDbEntity
  8
0
  6
SLD-Сплошная
 62
     7
370
    25
100
AcDbLine
 10
161.8679945766
 20
323.1638461091
 30
0.0
 11
164.8928982779
 21
323.1638461091
 31
0.0
  0
LINE
  5
22B
330
1F
100
AcDbEntity
  8
0
  6
SLD-Сплошная
 62
     7
370
    25
100
AcDbLine
 10
164.8928982779
 20
322.9544284816
 30
0.0
 11
164.8928982779
 21
323.1638461091
 31
0.0
  0
LINE
  5
22C
330
1F
100
AcDbEntity
  8
0
  6
SLD-Сплошная
 62
     7
370
    25
100
AcDbLine
 10
161.8679945766
 20
322.9544284816
 30
0.0
 11
161.8679945766
 21
323.1638461091
 31
0.0
  0
LINE
  5
22D
330
1F
100
AcDbEntity
  8
0
  6
SLD-Сплошная
 62
     7
370
    25
100
AcDbLine
 10
165.0510286811
 20
323.3462466917
 30
0.0
 11
164.8928982779
 21
323.1638461091
 31
0.0
  0
ARC
  5
22E
330
1F
100
AcDbEntity
  8
0
  6
SLD-Сплошная
 62
     7
370
    25
100
AcDbCircle
 10
164.6837854735
 20
321.1579249299
 30
0.0
 40
3.457224052956669
100
AcDbArc
 50
96.041608516
 51
144.5345796822
  0
LWPOLYLINE
  5
22F
330
1F
100
AcDbEntity
  8
0
  6
SLD-Сплошная
 62
     7
370
    25
100
AcDbPolyline
 90
       16
 70
   128
 43
0.0
 10
144.7820955106
 20
260.4959466062
 10
144.4236604809
 20
260.5258811927
 10
143.7094673871
 20
260.7650224842
 10
143.0032851974
 20
261.2415190446
 10
142.3103880211
 20
261.9518121679
 10
141.6359507484
 20
262.8905970424
 10
140.9850104021
 20
264.05086237
 10
140.3624285188
 20
265.4239427295
 10
139.77285484
 20
266.9995832946
 10
139.2206925865
 20
268.7660164217
 10
138.7100655723
 20
270.7100495363
 10
138.2447874061
 20
272.8171636614
 10
137.8283330097
 20
275.0716218525
 10
137.4638126654
 20
277.4565867286
 10
137.153948787
 20
279.9542462217
 10
136.9010555872
 20
282.5459466062
  0
LINE
  5
230
330
1F
100
AcDbEntity
  8
0
  6
SLD-Сплошная
 62
     7
370
    25
100
AcDbLine
 10
134.2869832317
 20
282.5459466062
 30
0.0
 11
136.9010555872
 21
282.5459466062
 31
0.0
  0
LINE
  5
231
330
1F
100
AcDbEntity
  8
0
  6
SLD-Сплошная
 62
     7
370
    25
100
AcDbLine
 10
134.2869832317
 20
302.5459466062
 30
0.0
 11
134.2869832317
 21
282.5459466062
 31
0.0
  0
LINE
  5
232
330
1F
100
AcDbEntity
  8
0
  6
SLD-Сплошная
 62
     7
370
    25
100
AcDbLine
 10
136.9010555872
 20
302.5459466062
 30
0.0
 11
134.2869832317
 21
302.5459466062
 31
0.0
  0
LWPOLYLINE
  5
233
330
1F
100
AcDbEntity
  8
0
  6
SLD-Сплошная
 62
     7
370
    25
100
AcDbPolyline
 90
       16
 70
   128
 43
0.0
 10
136.9010555872
 20
302.5459466062
 10
137.153948787
 20
305.1376469906
 10
137.4638126654
 20
307.6353064837
 10
137.8283330097
 20
310.0202713598
 10
138.2447874061
 20
312.2747295509
 10
138.7100655723
 20
314.381843676
 10
139.2206925865
 20
316.3258767906
 10
139.77285484
 20
318.0923099177
 10
140.3624285188
 20
319.6679504828
 10
140.9850104021
 20
321.0410308423
 10
141.6359507484
 20
322.2012961699
 10
142.3103880211
 20
323.1400810444
 10
143.0032851974
 20
323.8503741677
 10
143.7094673871
 20
324.3268707281
 10
144.4236604809
 20
324.5660120196
 10
144.7820955106
 20
324.5959466062
  0
LINE
  5
234
330
1F
100
AcDbEntity
  8
0
  6
SLD-Сплошная
 62
     7
370
    25
100
AcDbLine
 10
134.2869832317
 20
282.5459466062
 30
0.0
 11
130.357231983
 21
282.5459466062
 31
0.0
  0
ARC
  5
235
330
1F
100
AcDbEntity
  8
0
  6
SLD-Сплошная
 62
     7
370
    25
100
AcDbCircle
 10
279.5178078475
 20
292.5459466062
 30
0.0
 40
149.4954092681475
100
AcDbArc
 50
176.1645247594
 51
183.8354752406
  0
LINE
  5
236
330
1F
100
AcDbEntity
  8
0
  6
SLD-Сплошная
 62
     7
370
    25
100
AcDbLine
 10
134.2869832317
 20
302.5459466062
 30
0.0
 11
130.357231983
 21
302.5459466062
 31
0.0
  0
LWPOLYLINE
  5
237
330
1F
100
AcDbEntity
  8
0
  6
SLD-Сплошная
 62
     7
370
    25
100
AcDbPolyline
 90
       16
 70
   128
 43
0.0
 10
138.4688102293
 20
260.4959466062
 10
138.1103751996
 20
260.5258811927
 10
137.3961821058
 20
260.7650224842
 10
136.6899999162
 20
261.2415190446
 10
135.9971027399
 20
261.9518121679
 10
135.3226654672
 20
262.8905970424
 10
134.6717251209
 20
264.05086237
 10
134.0491432375
 20
265.4239427295
 10
133.4595695588
 20
266.9995832946
 10
132.9074073053
 20
268.7660164217
 10
132.396780291
 20
270.7100495363
 10
131.9315021249
 20
272.8171636614
 10
131.5150477285
 20
275.0716218525
 10
131.1505273842
 20
277.4565867286
 10
130.8406635057
 20
279.9542462217
 10
130.587770306
 20
282.5459466062
  0
LWPOLYLINE
  5
238
330
1F
100
AcDbEntity
  8
0
  6
SLD-Сплошная
 62
     7
370
    25
100
AcDbPolyline
 90
       16
 70
   128
 43
0.0
 10
130.587770306
 20
302.5459466062
 10
130.8406635057
 20
305.1376469906
 10
131.1505273842
 20
307.6353064837
 10
131.5150477285
 20
310.0202713598
 10
131.9315021249
 20
312.2747295509
 10
132.396780291
 20
314.381843676
 10
132.9074073053
 20
316.3258767906
 10
133.4595695588
 20
318.0923099177
 10
134.0491432375
 20
319.6679504828
 10
134.6717251209
 20
321.0410308423
 10
135.3226654672
 20
322.2012961699
 10
135.9971027399
 20
323.1400810444
 10
136.6899999162
 20
323.8503741677
 10
137.3961821058
 20
324.3268707281
 10
138.1103751996
 20
324.5660120196
 10
138.4688102293
 20
324.5959466062
  0
LINE
  5
239
330
1F
100
AcDbEntity
  8
0
  6
SLD-Сплошная
 62
     7
370
    25
100
AcDbLine
 10
130.3454157201
 20
302.5459466062
 30
0.0
 11
130.357231983
 21
302.5459466062
 31
0.0
  0
LINE
  5
23A
330
1F
100
AcDbEntity
  8
0
  6
SLD-Сплошная
 62
     7
370
    25
100
AcDbLine
 10
130.357231983
 20
282.5459466062
 30
0.0
 11
130.3454157201
 21
282.5459466062
 31
0.0
  0
LINE
  5
23B
330
1F
100
AcDbEntity
  8
0
  6
SLD-Сплошная
 62
     7
370
    25
100
AcDbLine
 10
159.164731064
 20
78.3663146062
 30
0.0
 11
144.7820955106
 21
78.3663146062
 31
0.0
  0
LINE
  5
23C
330
1F
100
AcDbEntity
  8
0
  6
SLD-Сплошная
 62
     7
370
    25
100
AcDbLine
 10
189.3112761025
 20
78.3663146062
 30
0.0
 11
180.5664276218
 21
78.3663146062
 31
0.0
  0
LINE
  5
23D
330
1F
100
AcDbEntity
  8
0
  6
SLD-Сплошная
 62
     7
370
    25
100
AcDbLine
 10
180.5664276218
 20
14.2663146062
 30
0.0
 11
189.3112761025
 21
14.2663146062
 31
0.0
  0
LINE
  5
23E
330
1F
100
AcDbEntity
  8
0
  6
SLD-Сплошная
 62
     7
370
    25
100
AcDbLine
 10
144.7820955106
 20
14.2663146062
 30
0.0
 11
159.164731064
 21
14.2663146062
 31
0.0
  0
LINE
  5
23F
330
1F
100
AcDbEntity
  8
0
  6
SLD-Сплошная
 62
     7
370
    25
100
AcDbLine
 10
193.1749794077
 20
84.1163146062
 30
0.0
 11
189.3112761025
 21
84.1163146062
 31
0.0
  0
LINE
  5
240
330
1F
100
AcDbEntity
  8
0
  6
SLD-Сплошная
 62
     7
370
    25
100
AcDbLine
 10
189.3112761025
 20
8.5163146062
 30
0.0
 11
193.1749794077
 21
8.5163146062
 31
0.0
  0
SPLINE
  5
241
330
1F
100
AcDbEntity
  8
0
  6
SLD-Сплошная
 62
     7
370
    25
100
AcDbSpline
210
0.0
220
0.0
230
1.0
 70
     8
 71
     3
 72
    10
 73
     6
 74
     0
 42
0.00000001
 43
0.00000001
 40
0.0
 40
0.0
 40
0.0
 40
0.0
 40
0.0767429395494917
 40
0.8849367070950815
 40
1.0
 40
1.0
 40
1.0
 40
1.0
 10
206.2238629913123
 20
82.03092393319284
 30
0.0
 10
205.9662946919794
 20
82.04480547469613
 30
0.0
 10
202.9962280773588
 20
82.20487603883463
 30
0.0
 10
199.633728703158
 20
82.29214024354398
 30
0.0
 10
196.5300940387435
 20
82.28926265153392
 30
0.0
 10
196.1432955621771
 20
82.28890402420627
 30
0.0
  0
SPLINE
  5
242
330
1F
100
AcDbEntity
  8
0
  6
SLD-Сплошная
 62
     7
370
    25
100
AcDbSpline
210
0.0
220
0.0
230
1.0
 70
     8
 71
     3
 72
    10
 73
     6
 74
     0
 42
0.00000001
 43
0.00000001
 40
0.0
 40
0.0
 40
0.0
 40
0.0
 40
0.1054677132536991
 40
0.9097667820468467
 40
1.0
 40
1.0
 40
1.0
 40
1.0
 10
196.1205934401088
 20
10.34260302322502
 30
0.0
 10
196.4759408013248
 20
10.34216182548102
 30
0.0
 10
199.5411748464076
 20
10.33835604417192
 30
0.0
 10
202.9112858412652
 20
10.42588282818267
 30
0.0
 10
205.9204427780715
 20
10.5868608416639
 30
0.0
 10
206.2239823123702
 20
10.60309900812399
 30
0.0
  0
SPLINE
  5
243
330
1F
100
AcDbEntity
  8
0
  6
SLD-Сплошная
 62
     7
370
    25
100
AcDbSpline
210
0.0
220
0.0
230
1.0
 70
     8
 71
     3
 72
     9
 73
     5
 74
     0
 42
0.00000001
 43
0.00000001
 40
0.0
 40
0.0
 40
0.0
 40
0.0
 40
0.8048715691114045
 40
1.0
 40
1.0
 40
1.0
 40
1.0
 10
290.9493803024481
 20
66.35859214770944
 30
0.0
 10
289.2343429953856
 20
66.94597099689231
 30
0.0
 10
287.1035219142584
 20
67.67575059369352
 30
0.0
 10
284.9420552877314
 20
68.3203872878462
 30
0.0
 10
284.5202916964791
 20
68.44617423446941
 30
0.0
  0
LINE
  5
244
330
1F
100
AcDbEntity
  8
0
  6
SLD-Сплошная
 62
     7
370
    25
100
AcDbLine
 10
284.4390173914
 20
24.1467589054
 30
0.0
 11
290.9534236544
 21
26.2616674786
 31
0.0
  0
LINE
  5
245
330
1F
100
AcDbEntity
  8
0
  6
SLD-Сплошная
 62
     7
370
    25
100
AcDbLine
 10
180.5664276218
 20
77.9663146062
 30
0.0
 11
160.4711905375
 21
77.9663146062
 31
0.0
  0
LINE
  5
246
330
1F
100
AcDbEntity
  8
0
  6
SLD-Сплошная
 62
     7
370
    25
100
AcDbLine
 10
176.3365037981
 20
14.4663146062
 30
0.0
 11
180.5664276218
 21
14.4663146062
 31
0.0
  0
LINE
  5
247
330
1F
100
AcDbEntity
  8
0
  6
SLD-Сплошная
 62
     7
370
    25
100
AcDbLine
 10
160.0899865259
 20
14.4663146062
 30
0.0
 11
164.3199103497
 21
14.4663146062
 31
0.0
  0
LINE
  5
248
330
1F
100
AcDbEntity
  8
0
  6
SLD-Сплошная
 62
     7
370
    25
100
AcDbLine
 10
251.4510514638
 20
43.3163146062
 30
0.0
 11
251.4510514638
 21
49.3163146062
 31
0.0
  0
LINE
  5
249
330
1F
100
AcDbEntity
  8
0
  6
SLD-Сплошная
 62
     7
370
    25
100
AcDbLine
 10
164.3199103497
 20
14.2663146062
 30
0.0
 11
167.344814051
 21
14.2663146062
 31
0.0
  0
LINE
  5
24A
330
1F
100
AcDbEntity
  8
0
  6
SLD-Сплошная
 62
     7
370
    25
100
AcDbLine
 10
172.3863446348
 20
14.2663146062
 30
0.0
 11
175.4112483361
 21
14.2663146062
 31
0.0
  0
LINE
  5
24B
330
1F
100
AcDbEntity
  8
0
  6
SLD-Сплошная
 62
     7
370
    25
100
AcDbLine
 10
168.3531274923
 20
14.2663146062
 30
0.0
 11
171.3780311936
 21
14.2663146062
 31
0.0
  0
SPLINE
  5
24C
330
1F
100
AcDbEntity
  8
0
  6
SLD-Сплошная
 62
     7
370
    25
100
AcDbSpline
210
0.0
220
0.0
230
1.0
 70
     8
 71
     3
 72
    33
 73
    29
 74
     0
 42
0.00000001
 43
0.00000001
 40
0.0
 40
0.0
 40
0.0
 40
0.0
 40
0.0131941111284561
 40
0.035463875273758
 40
0.0566266160530725
 40
0.0828186587867369
 40
0.1095957145976459
 40
0.1350773853511634
 40
0.1585916828853655
 40
0.1801354451797053
 40
0.2015422590287358
 40
0.2237996647003121
 40
0.2470927639668711
 40
0.2711952552322007
 40
0.3052762187754675
 40
0.3417195396137567
 40
0.383882326453909
 40
0.4325473215920532
 40
0.4877088391871757
 40
0.5493883571492824
 40
0.6176535782498874
 40
0.6926167663405884
 40
0.7744504454848997
 40
0.8177880886286855
 40
0.8625491931888778
 40
0.9093090015340035
 40
0.9577558717703095
 40
0.9999999999999999
 40
0.9999999999999999
 40
0.9999999999999999
 40
0.9999999999999999
 10
288.5795061742911
 20
61.99745845474827
 30
0.0
 10
288.5219970467653
 20
62.2905720481553
 30
0.0
 10
288.3674207736217
 20
63.07841927912266
 30
0.0
 10
287.8812418936799
 20
64.3157149657779
 30
0.0
 10
287.0649213372625
 20
65.82271070174913
 30
0.0
 10
285.9250118652452
 20
67.26307271251474
 30
0.0
 10
284.4509936929288
 20
68.57654542291786
 30
0.0
 10
282.822538421479
 20
69.65336247528836
 30
0.0
 10
281.1315777917054
 20
70.51762077212906
 30
0.0
 10
279.430802833988
 20
71.23004775933484
 30
0.0
 10
277.6683139220574
 20
71.86193253931461
 30
0.0
 10
275.7895109872237
 20
72.45868211258407
 30
0.0
 10
273.8119883577857
 20
73.03171737041212
 30
0.0
 10
271.5251456845298
 20
73.65003516915483
 30
0.0
 10
269.031183940653
 20
74.26593879176582
 30
0.0
 10
266.0106534896051
 20
74.9862245065596
 30
0.0
 10
262.5832795699204
 20
75.7617176938585
 30
0.0
 10
258.618271421428
 20
76.6087432587752
 30
0.0
 10
254.0857343277231
 20
77.51327942229653
 30
0.0
 10
248.970592311041
 20
78.45828178203914
 30
0.0
 10
243.2561015480816
 20
79.42392084808567
 30
0.0
 10
236.919248095316
 20
80.38449845679882
 30
0.0
 10
231.233672438921
 20
81.1373151871228
 30
0.0
 10
226.3678649913368
 20
81.71100185371495
 30
0.0
 10
222.4247070460644
 20
82.18528000154834
 30
0.0
 10
218.3193003757914
 20
82.64640708343725
 30
0.0
 10
214.3024845143604
 20
83.05302138251503
 30
0.0
 10
211.7374020878375
 20
83.1971216204235
 30
0.0
 10
210.5425793074225
 20
83.2642439261771
 30
0.0
  0
SPLINE
  5
24D
330
1F
100
AcDbEntity
  8
0
  6
SLD-Сплошная
 62
     7
370
    25
100
AcDbSpline
210
0.0
220
0.0
230
1.0
 70
     8
 71
     3
 72
    33
 73
    29
 74
     0
 42
0.00000001
 43
0.00000001
 40
0.0
 40
0.0
 40
0.0
 40
0.0
 40
0.0331000404919166
 40
0.0778563311251469
 40
0.121017687479082
 40
0.1763949384738879
 40
0.2298625035994679
 40
0.2811612577210971
 40
0.3299932112778018
 40
0.3764117108699347
 40
0.4607132352070468
 40
0.5360793621606452
 40
0.6032542589768835
 40
0.6614577721965594
 40
0.7106606134789343
 40
0.7414763517259122
 40
0.7671779515275465
 40
0.7879198427467585
 40
0.8067397534766898
 40
0.8314951279505514
 40
0.8558657386145586
 40
0.883180925678815
 40
0.9082933894440849
 40
0.9381751092089011
 40
0.9594544579593364
 40
0.9771387059094124
 40
0.9909942288793291
 40
0.9999999999999999
 40
0.9999999999999999
 40
0.9999999999999999
 40
0.9999999999999999
 10
210.5551149388272
 20
9.370967639524983
 30
0.0
 10
211.4833120453923
 20
9.419489405672527
 30
0.0
 10
213.6665728572872
 20
9.53361998182338
 30
0.0
 10
217.1756463345399
 20
9.867621458100926
 30
0.0
 10
221.3538878455522
 20
10.3211339651765
 30
0.0
 10
225.7970463231526
 20
10.8535686324016
 30
0.0
 10
230.3669418044583
 20
11.39201199440804
 30
0.0
 10
234.7168762063796
 20
11.9552600338501
 30
0.0
 10
238.8455371452834
 20
12.54054121919131
 30
0.0
 10
243.8736565947458
 20
13.31081089243795
 30
0.0
 10
249.5958310648672
 20
14.27840715780084
 30
0.0
 10
255.8231033224187
 20
15.45166367323272
 30
0.0
 10
261.2685237981225
 20
16.57754882497544
 30
0.0
 10
265.9629227909861
 20
17.63143025720418
 30
0.0
 10
269.6156675395751
 20
18.50485602816664
 30
0.0
 10
272.4501533022374
 20
19.22610282108124
 30
0.0
 10
274.6375391670319
 20
19.83470687992626
 30
0.0
 10
276.4759095261099
 20
20.38682160510633
 30
0.0
 10
278.2530419095526
 20
20.97059282087172
 30
0.0
 10
280.0622276036721
 20
21.64793882037618
 30
0.0
 10
281.9564301273563
 20
22.50564858549467
 30
0.0
 10
283.6972028829829
 20
23.51414436740198
 30
0.0
 10
285.3555316489134
 20
24.80027269451572
 30
0.0
 10
286.6276902441671
 20
26.195078183789
 30
0.0
 10
287.5325510789793
 20
27.61513838425961
 30
0.0
 10
288.0556351557661
 20
28.7609937028923
 30
0.0
 10
288.3782588080172
 20
29.65781910533147
 30
0.0
 10
288.4858646277122
 20
30.16036366596656
 30
0.0
 10
288.5282538896492
 20
30.35833151822742
 30
0.0
  0
SPLINE
  5
24E
330
1F
100
AcDbEntity
  8
0
  6
SLD-Сплошная
 62
     7
370
    25
100
AcDbSpline
210
0.0
220
0.0
230
1.0
 70
     8
 71
     3
 72
    15
 73
    11
 74
     0
 42
0.00000001
 43
0.00000001
 40
0.0
 40
0.0
 40
0.0
 40
0.0
 40
0.0460534116272777
 40
0.190547923629466
 40
0.3090468625466824
 40
0.419526742641013
 40
0.5606985484577424
 40
0.7330075091254064
 40
0.9356423699113964
 40
1.0
 40
1.0
 40
1.0
 40
1.0
 10
210.4928638763165
 20
83.27950703831027
 30
0.0
 10
210.2102846572843
 20
83.29389854492736
 30
0.0
 10
209.0411012777076
 20
83.3534440076171
 30
0.0
 10
207.2149391786937
 20
83.42594419160328
 30
0.0
 10
205.0587483501515
 20
83.5041361419254
 30
0.0
 10
202.9916445008882
 20
83.56759605526572
 30
0.0
 10
200.7254793709088
 20
83.62622802571485
 30
0.0
 10
198.0920172865091
 20
83.67965543642086
 30
0.0
 10
195.909389953648
 20
83.71467590527004
 30
0.0
 10
194.6927863467874
 20
83.72556579703132
 30
0.0
 10
194.399528193203
 20
83.72819076833063
 30
0.0
  0
LINE
  5
24F
330
1F
100
AcDbEntity
  8
0
  6
SLD-Сплошная
 62
     7
370
    25
100
AcDbLine
 10
188.2077406018
 20
83.7651909509
 30
0.0
 11
186.9730408875
 21
83.7651755741
 31
0.0
  0
SPLINE
  5
250
330
1F
100
AcDbEntity
  8
0
  6
SLD-Сплошная
 62
     7
370
    25
100
AcDbSpline
210
0.0
220
0.0
230
1.0
 70
     8
 71
     3
 72
     9
 73
     5
 74
     0
 42
0.00000001
 43
0.00000001
 40
0.0
 40
0.0
 40
0.0
 40
0.0
 40
0.9118089623918826
 40
1.0
 40
1.0
 40
1.0
 40
1.0
 10
186.9942037352107
 20
8.866818810165086
 30
0.0
 10
187.2802955406102
 20
8.866092268596512
 30
0.0
 10
187.594058419897
 20
8.865295455230404
 30
0.0
 10
187.9610690384784
 20
8.866375730480685
 30
0.0
 10
187.9934360857443
 20
8.866471001075904
 30
0.0
  0
SPLINE
  5
251
330
1F
100
AcDbEntity
  8
0
  6
SLD-Сплошная
 62
     7
370
    25
100
AcDbSpline
210
0.0
220
0.0
230
1.0
 70
     8
 71
     3
 72
    14
 73
    10
 74
     0
 42
0.00000001
 43
0.00000001
 40
0.0
 40
0.0
 40
0.0
 40
0.0
 40
0.0666889178323993
 40
0.2113792013253394
 40
0.3827408769132059
 40
0.5810086564922815
 40
0.7462811799053811
 40
0.9246980881482612
 40
1.0
 40
1.0
 40
1.0
 40
1.0
 10
194.4952639681075
 20
8.904774092290499
 30
0.0
 10
194.8019664951426
 20
8.907863360875956
 30
0.0
 10
195.7741000567047
 20
8.91765519957262
 30
0.0
 10
197.6390847460756
 20
8.945727037616882
 30
0.0
 10
200.2224815418456
 20
8.994606965155471
 30
0.0
 10
203.0359292226063
 20
9.06399797327892
 30
0.0
 10
206.0776870615892
 20
9.162995256434492
 30
0.0
 10
208.5147461424173
 20
9.254883376202866
 30
0.0
 10
210.0588718305219
 20
9.33260609710858
 30
0.0
 10
210.5171571733684
 20
9.355673638871313
 30
0.0
  0
LINE
  5
252
330
1F
100
AcDbEntity
  8
0
  6
SLD-Сплошная
 62
     7
370
    25
100
AcDbLine
 10
172.9444624522
 20
86.9663079294
 30
0.0
 11
172.9828420913
 21
86.9596817474
 31
0.0
  0
SPLINE
  5
253
330
1F
100
AcDbEntity
  8
0
  6
SLD-Сплошная
 62
     7
370
    25
100
AcDbSpline
210
0.0
220
0.0
230
1.0
 70
     8
 71
     3
 72
     9
 73
     5
 74
     0
 42
0.00000001
 43
0.00000001
 40
0.0
 40
0.0
 40
0.0
 40
0.0
 40
0.1911425309972793
 40
1.0
 40
1.0
 40
1.0
 40
1.0
 10
286.0183231080993
 20
5.941223749793931
 30
0.0
 10
285.9681331767109
 20
5.915941965072405
 30
0.0
 10
285.7055546122934
 20
5.783675302129199
 30
0.0
 10
285.566600620165
 20
5.777744312239985
 30
0.0
 10
285.4542066457843
 20
5.772946986769501
 30
0.0
  0
LINE
  5
254
330
1F
100
AcDbEntity
  8
0
  6
SLD-Сплошная
 62
     7
370
    25
100
AcDbLine
 10
181.0410747138
 20
39.5186402564
 30
0.0
 11
181.0410747138
 21
53.1139889559
 31
0.0
  0
LINE
  5
255
330
1F
100
AcDbEntity
  8
0
  6
SLD-Сплошная
 62
     7
370
    25
100
AcDbLine
 10
178.3232927325
 20
50.3163146062
 30
0.0
 11
178.3232927325
 21
42.3163146062
 31
0.0
  0
ARC
  5
256
330
1F
100
AcDbEntity
  8
0
  6
SLD-Сплошная
 62
     7
370
    25
100
AcDbCircle
 10
178.8232927325
 20
50.3163146062
 30
0.0
 40
0.5
100
AcDbArc
 50
90.0
 51
180.0
  0
ARC
  5
257
330
1F
100
AcDbEntity
  8
0
  6
SLD-Сплошная
 62
     7
370
    25
100
AcDbCircle
 10
178.8232927325
 20
42.3163146062
 30
0.0
 40
0.5
100
AcDbArc
 50
180.0
 51
270.0
  0
LINE
  5
258
330
1F
100
AcDbEntity
  8
0
  6
SLD-Сплошная
 62
     7
370
    25
100
AcDbLine
 10
177.0415797126
 20
50.3163146062
 30
0.0
 11
177.0415797126
 21
42.3163146062
 31
0.0
  0
ARC
  5
259
330
1F
100
AcDbEntity
  8
0
  6
SLD-Сплошная
 62
     7
370
    25
100
AcDbCircle
 10
177.5416700386
 20
42.3163146062
 30
0.0
 40
0.5000000000000459
100
AcDbArc
 50
179.9545909919
 51
270.211016319
  0
ARC
  5
25A
330
1F
100
AcDbEntity
  8
0
  6
SLD-Сплошная
 62
     7
370
    25
100
AcDbCircle
 10
177.5416700386
 20
50.3163146062
 30
0.0
 40
0.5000000000000453
100
AcDbArc
 50
90.0
 51
179.956313517
  0
LINE
  5
25B
330
1F
100
AcDbEntity
  8
0
  6
SLD-Сплошная
 62
     7
370
    25
100
AcDbLine
 10
175.6129351552
 20
50.3163146062
 30
0.0
 11
175.6129351552
 21
42.3163146062
 31
0.0
  0
ARC
  5
25C
330
1F
100
AcDbEntity
  8
0
  6
SLD-Сплошная
 62
     7
370
    25
100
AcDbCircle
 10
176.1130197287
 20
50.3163146062
 30
0.0
 40
0.5000000000000107
100
AcDbArc
 50
90.0
 51
179.9931343211
  0
ARC
  5
25D
330
1F
100
AcDbEntity
  8
0
  6
SLD-Сплошная
 62
     7
370
    25
100
AcDbCircle
 10
176.1130197287
 20
42.3163146062
 30
0.0
 40
0.5000000000000036
100
AcDbArc
 50
179.991468094
 51
270.2745892219
  0
LINE
  5
25E
330
1F
100
AcDbEntity
  8
0
  6
SLD-Сплошная
 62
     7
370
    25
100
AcDbLine
 10
180.4338755653
 20
36.3163146062
 30
0.0
 11
180.4338755653
 21
39.3163146062
 31
0.0
  0
LINE
  5
25F
330
1F
100
AcDbEntity
  8
0
  6
SLD-Сплошная
 62
     7
370
    25
100
AcDbLine
 10
180.4338755653
 20
53.3163146062
 30
0.0
 11
180.4338755653
 21
56.3163146062
 31
0.0
  0
ARC
  5
260
330
1F
100
AcDbEntity
  8
0
  6
SLD-Сплошная
 62
     7
370
    25
100
AcDbCircle
 10
280.0117111911
 20
46.3163146062
 30
0.0
 40
150.0
100
AcDbArc
 50
176.1774462707
 51
183.8225537293
  0
LINE
  5
261
330
1F
100
AcDbEntity
  8
0
  6
SLD-Сплошная
 62
     7
370
    25
100
AcDbLine
 10
144.7820955106
 20
78.3663146062
 30
0.0
 11
138.4688102293
 21
78.3663146062
 31
0.0
  0
LINE
  5
262
330
1F
100
AcDbEntity
  8
0
  6
SLD-Сплошная
 62
     7
370
    25
100
AcDbLine
 10
138.4688102293
 20
14.2663146062
 30
0.0
 11
144.7820955106
 21
14.2663146062
 31
0.0
  0
LINE
  5
263
330
1F
100
AcDbEntity
  8
0
  6
SLD-Сплошная
 62
     7
370
    25
100
AcDbLine
 10
177.7810105923
 20
56.6163146062
 30
0.0
 11
169.6940241817
 21
56.6163146062
 31
0.0
  0
LINE
  5
264
330
1F
100
AcDbEntity
  8
0
  6
SLD-Сплошная
 62
     7
370
    25
100
AcDbLine
 10
177.7810105923
 20
60.6163146062
 30
0.0
 11
169.6940241817
 21
60.6163146062
 31
0.0
  0
LINE
  5
265
330
1F
100
AcDbEntity
  8
0
  6
SLD-Сплошная
 62
     7
370
    25
100
AcDbLine
 10
177.7810105923
 20
32.0163146062
 30
0.0
 11
169.6940241817
 21
32.0163146062
 31
0.0
  0
LINE
  5
266
330
1F
100
AcDbEntity
  8
0
  6
SLD-Сплошная
 62
     7
370
    25
100
AcDbLine
 10
169.6940241817
 20
36.0163146062
 30
0.0
 11
177.7810105923
 21
36.0163146062
 31
0.0
  0
SPLINE
  5
267
330
1F
100
AcDbEntity
  8
0
  6
SLD-Сплошная
 62
     7
370
    25
100
AcDbSpline
210
0.0
220
0.0
230
1.0
 70
     8
 71
     3
 72
    10
 73
     6
 74
     0
 42
0.00000001
 43
0.00000001
 40
0.0
 40
0.0
 40
0.0
 40
0.0
 40
0.5
 40
0.5
 40
1.0
 40
1.0
 40
1.0
 40
1.0
 10
197.5424436589492
 20
42.34326877486393
 30
0.0
 10
197.3498335278704
 20
43.65740231022087
 30
0.0
 10
197.2524099061838
 20
44.98683868398767
 30
0.0
 10
197.2524099061838
 20
47.64579052833001
 30
0.0
 10
197.3498335278704
 20
48.97522690209684
 30
0.0
 10
197.5424436589492
 20
50.28936043745382
 30
0.0
  0
LINE
  5
268
330
1F
100
AcDbEntity
  8
0
  6
SLD-Сплошная
 62
     7
370
    25
100
AcDbLine
 10
197.5424436589
 20
42.3432687749
 30
0.0
 11
197.5424436589
 21
32.0163146062
 31
0.0
  0
LINE
  5
269
330
1F
100
AcDbEntity
  8
0
  6
SLD-Сплошная
 62
     7
370
    25
100
AcDbLine
 10
187.1626547069
 20
56.6163146062
 30
0.0
 11
187.1626547069
 21
36.0163146062
 31
0.0
  0
LINE
  5
26A
330
1F
100
AcDbEntity
  8
0
  6
SLD-Сплошная
 62
     7
370
    25
100
AcDbLine
 10
197.5424436589
 20
60.6163146062
 30
0.0
 11
197.5424436589
 21
50.2893604375
 31
0.0
  0
LINE
  5
26B
330
1F
100
AcDbEntity
  8
0
  6
SLD-Сплошная
 62
     7
370
    25
100
AcDbLine
 10
197.5424436589
 20
32.0163146062
 30
0.0
 11
177.7810105923
 21
32.0163146062
 31
0.0
  0
LINE
  5
26C
330
1F
100
AcDbEntity
  8
0
  6
SLD-Сплошная
 62
     7
370
    25
100
AcDbLine
 10
177.7810105923
 20
36.0163146062
 30
0.0
 11
187.1626547069
 21
36.0163146062
 31
0.0
  0
LINE
  5
26D
330
1F
100
AcDbEntity
  8
0
  6
SLD-Сплошная
 62
     7
370
    25
100
AcDbLine
 10
187.1626547069
 20
56.6163146062
 30
0.0
 11
177.7810105923
 21
56.6163146062
 31
0.0
  0
LINE
  5
26E
330
1F
100
AcDbEntity
  8
0
  6
SLD-Сплошная
 62
     7
370
    25
100
AcDbLine
 10
197.5424436589
 20
60.6163146062
 30
0.0
 11
177.7810105923
 21
60.6163146062
 31
0.0
  0
ARC
  5
26F
330
1F
100
AcDbEntity
  8
0
  6
SLD-Сплошная
 62
     7
370
    25
100
AcDbCircle
 10
67.3804832475
 20
48.006589475
 30
0.0
 40
98.96174082319735
100
AcDbArc
 50
4.9910737702
 51
7.3205410383
  0
LINE
  5
270
330
1F
100
AcDbEntity
  8
0
  6
SLD-Сплошная
 62
     7
370
    25
100
AcDbLine
 10
169.6940241817
 20
56.6163146062
 30
0.0
 11
165.9669872931
 21
56.6163146062
 31
0.0
  0
LINE
  5
271
330
1F
100
AcDbEntity
  8
0
  6
SLD-Сплошная
 62
     7
370
    25
100
AcDbLine
 10
169.6940241817
 20
60.6163146062
 30
0.0
 11
165.5355696102
 21
60.6163146062
 31
0.0
  0
ARC
  5
272
330
1F
100
AcDbEntity
  8
0
  6
SLD-Сплошная
 62
     7
370
    25
100
AcDbCircle
 10
67.3804832474
 20
44.6260397373
 30
0.0
 40
98.96174082326095
100
AcDbArc
 50
352.6794589617
 51
355.0089262298
  0
LINE
  5
273
330
1F
100
AcDbEntity
  8
0
  6
SLD-Сплошная
 62
     7
370
    25
100
AcDbLine
 10
169.6940241817
 20
32.0163146062
 30
0.0
 11
165.5355696102
 21
32.0163146062
 31
0.0
  0
LINE
  5
274
330
1F
100
AcDbEntity
  8
0
  6
SLD-Сплошная
 62
     7
370
    25
100
AcDbLine
 10
165.9669872931
 20
36.0163146062
 30
0.0
 11
169.6940241817
 21
36.0163146062
 31
0.0
  0
LWPOLYLINE
  5
275
330
1F
100
AcDbEntity
  8
0
  6
SLD-Сплошная
 62
     7
370
    25
100
AcDbPolyline
 90
       16
 70
   128
 43
0.0
 10
144.7820955106
 20
78.3663146062
 10
145.1238998502
 20
78.3390945438
 10
145.8460910253
 20
78.1015703598
 10
146.5601589242
 20
77.6213755968
 10
147.26065186
 20
76.902176393
 10
147.942221786
 20
75.9494636116
 10
148.599665127
 20
74.7705109194
 10
149.2279625069
 20
73.3743192549
 10
149.8223170699
 20
71.7715481088
 10
150.3781911029
 20
69.9744341423
 10
150.8913406801
 20
67.9966977636
 10
151.3578480633
 20
65.8534383772
 10
151.7741516134
 20
63.5610191045
 10
152.1370729815
 20
61.1369418561
 10
152.4438413757
 20
58.5997137109
 10
152.6617271284
 20
56.3328681063
  0
LWPOLYLINE
  5
276
330
1F
100
AcDbEntity
  8
0
  6
SLD-Сплошная
 62
     7
370
    25
100
AcDbPolyline
 90
       16
 70
   128
 43
0.0
 10
152.6616326934
 20
36.2986521821
 10
152.4438413757
 20
34.0329155014
 10
152.1370729815
 20
31.4956873562
 10
151.7741516134
 20
29.0716101079
 10
151.3578480633
 20
26.7791908351
 10
150.8913406801
 20
24.6359314487
 10
150.3781911029
 20
22.65819507
 10
149.8223170699
 20
20.8610811035
 10
149.2279625069
 20
19.2583099574
 10
148.599665127
 20
17.8621182929
 10
147.942221786
 20
16.6831656007
 10
147.26065186
 20
15.7304528193
 10
146.5601589242
 20
15.0112536155
 10
145.8460910253
 20
14.5310588526
 10
145.1238998502
 20
14.2935346685
 10
144.7820955106
 20
14.2663146062
  0
LWPOLYLINE
  5
277
330
1F
100
AcDbEntity
  8
0
  6
SLD-Сплошная
 62
     7
370
    25
100
AcDbPolyline
 90
        8
 70
   128
 43
0.0
 10
163.7827242162
 20
19.6921579696
 10
163.1508688471
 20
18.2093068745
 10
162.4873526264
 20
16.9497024031
 10
161.7974456901
 20
15.9233492647
 10
161.086627789
 20
15.1383995143
 10
160.360544764
 20
14.6010878029
 10
159.624963703
 20
14.3156818572
 10
159.164731064
 20
14.2663146062
  0
LWPOLYLINE
  5
278
330
1F
100
AcDbEntity
  8
0
  6
SLD-Сплошная
 62
     7
370
    25
100
AcDbPolyline
 90
        9
 70
   128
 43
0.0
 10
185.184420774
 20
19.6921579696
 10
184.5525654049
 20
18.2093068745
 10
183.8890491842
 20
16.9497024031
 10
183.199142248
 20
15.9233492647
 10
182.4883243468
 20
15.1383995143
 10
181.7622413218
 20
14.6010878029
 10
181.0266602608
 20
14.3156818572
 10
180.2874236922
 20
14.2844485819
 10
179.6411721599
 20
14.4663146062
  0
LINE
  5
279
330
1F
100
AcDbEntity
  8
0
  6
SLD-Сплошная
 62
     7
370
    25
100
AcDbLine
 10
185.184420774
 20
19.6921579696
 30
0.0
 11
163.7827242162
 21
19.6921579696
 31
0.0
  0
LWPOLYLINE
  5
27A
330
1F
100
AcDbEntity
  8
0
  6
SLD-Сплошная
 62
     7
370
    25
100
AcDbPolyline
 90
       14
 70
   128
 43
0.0
 10
189.3112761025
 20
78.3663146062
 10
189.7394223445
 20
78.3235953863
 10
190.4662835827
 20
78.054109831
 10
191.184194885
 20
77.5386940638
 10
191.8875932915
 20
76.7813419447
 10
192.5710283002
 20
75.7879220529
 10
193.2292041016
 20
74.5661322125
 10
193.8570206151
 20
73.1254398434
 10
194.4496130085
 20
71.4770086002
 10
195.0023893947
 20
69.6336118666
 10
195.5110664133
 20
67.6095337778
 10
195.9717024216
 20
65.4204585345
 10
196.3807280379
 20
63.0833488694
 10
196.7349737994
 20
60.6163146062
  0
LWPOLYLINE
  5
27B
330
1F
100
AcDbEntity
  8
0
  6
SLD-Сплошная
 62
     7
370
    25
100
AcDbPolyline
 90
       14
 70
   128
 43
0.0
 10
196.7349737994
 20
32.0163146062
 10
196.3807280379
 20
29.549280343
 10
195.9717024216
 20
27.2121706779
 10
195.5110664133
 20
25.0230954345
 10
195.0023893947
 20
22.9990173457
 10
194.4496130085
 20
21.1556206122
 10
193.8570206151
 20
19.5071893689
 10
193.2292041016
 20
18.0664969998
 10
192.5710283002
 20
16.8447071594
 10
191.8875932915
 20
15.8512872676
 10
191.184194885
 20
15.0939351485
 10
190.4662835827
 20
14.5785193813
 10
189.7394223445
 20
14.309033826
 10
189.3112761025
 20
14.2663146062
  0
LWPOLYLINE
  5
27C
330
1F
100
AcDbEntity
  8
0
  6
SLD-Сплошная
 62
     7
370
    25
100
AcDbPolyline
 90
        8
 70
   128
 43
0.0
 10
159.164731064
 20
78.3663146062
 10
159.624963703
 20
78.3169473552
 10
160.360544764
 20
78.0315414094
 10
161.086627789
 20
77.494229698
 10
161.7974456901
 20
76.7092799476
 10
162.4873526264
 20
75.6829268092
 10
163.1508688471
 20
74.4233223378
 10
163.7827242162
 20
72.9404712427
  0
LINE
  5
27D
330
1F
100
AcDbEntity
  8
0
  6
SLD-Сплошная
 62
     7
370
    25
100
AcDbLine
 10
185.184420774
 20
72.9404712427
 30
0.0
 11
163.7827242162
 21
72.9404712427
 31
0.0
  0
LWPOLYLINE
  5
27E
330
1F
100
AcDbEntity
  8
0
  6
SLD-Сплошная
 62
     7
370
    25
100
AcDbPolyline
 90
       10
 70
   128
 43
0.0
 10
179.2599681484
 20
77.9663146062
 10
179.5504031789
 20
78.1249931575
 10
180.2874236922
 20
78.3481806305
 10
181.0266602608
 20
78.3169473552
 10
181.7622413218
 20
78.0315414094
 10
182.4883243468
 20
77.494229698
 10
183.199142248
 20
76.7092799476
 10
183.8890491842
 20
75.6829268092
 10
184.5525654049
 20
74.4233223378
 10
185.184420774
 20
72.9404712427
  0
LINE
  5
27F
330
1F
100
AcDbEntity
  8
0
  6
SLD-Сплошная
 62
     7
370
    25
100
AcDbLine
 10
185.6532355464
 20
56.6163146062
 30
0.0
 11
185.6532355464
 21
36.0163146062
 31
0.0
  0
LWPOLYLINE
  5
280
330
1F
100
AcDbEntity
  8
0
  6
SLD-Сплошная
 62
     7
370
    25
100
AcDbPolyline
 90
       56
 70
   128
 43
0.0
 10
184.1243106174
 20
78.3663146062
 10
184.3464213008
 20
78.8872069301
 10
185.0303521082
 20
80.3054469311
 10
185.7412304135
 20
81.5097326378
 10
186.4745813903
 20
82.4924833301
 10
187.2257887516
 20
83.2475128033
 10
187.9901238082
 20
83.7700683089
 10
188.7627752351
 20
84.0568604722
 10
189.5388793572
 20
84.1060839979
 10
190.3135507656
 20
83.9174290346
 10
191.0819130701
 20
83.4920831249
 10
191.8391295949
 20
82.8327237298
 10
192.5804338244
 20
81.9435013753
 10
193.3011594075
 20
80.8300135253
 10
193.9967695314
 20
79.499269347
 10
194.6628854797
 20
77.9596455892
 10
195.2953141953
 20
76.2208338532
 10
195.8900746753
 20
74.2937795858
 10
196.4434230299
 20
72.19061318
 10
196.9518760502
 20
69.9245736171
 10
197.4122331333
 20
67.5099251297
 10
197.8215964304
 20
64.9618674121
 10
198.1773890872
 20
62.2964399406
 10
198.4773714653
 20
59.5304210094
 10
198.7196552401
 20
56.6812221139
 10
198.9027152872
 20
53.7667783499
 10
199.0253992828
 20
50.8054355155
 10
199.0869349575
 20
47.8158346282
 10
199.0869349575
 20
44.8167945841
 10
199.0253992828
 20
41.8271936969
 10
198.9027152872
 20
38.8658508624
 10
198.7196552401
 20
35.9514070984
 10
198.4773714653
 20
33.1022082029
 10
198.1773890872
 20
30.3361892717
 10
197.8215964304
 20
27.6707618003
 10
197.4122331333
 20
25.1227040826
 10
196.9518760502
 20
22.7080555952
 10
196.4434230299
 20
20.4420160323
 10
195.8900746753
 20
18.3388496265
 10
195.2953141953
 20
16.4117953591
 10
194.6628854797
 20
14.6729836231
 10
193.9967695314
 20
13.1333598654
 10
193.3011594075
 20
11.802615687
 10
192.5804338244
 20
10.689127837
 10
191.8391295949
 20
9.7999054825
 10
191.0819130701
 20
9.1405460875
 10
190.3135507656
 20
8.7152001777
 10
189.5388793572
 20
8.5265452144
 10
188.7627752351
 20
8.5757687402
 10
187.9901238082
 20
8.8625609034
 10
187.2257887516
 20
9.385116409
 10
186.4745813903
 20
10.1401458822
 10
185.7412304135
 20
11.1228965746
 10
185.0303521082
 20
12.3271822812
 10
184.3464213008
 20
13.7454222822
 10
184.1243106174
 20
14.2663146062
  0
ARC
  5
281
330
1F
100
AcDbEntity
  8
0
  6
SLD-Сплошная
 62
     7
370
    25
100
AcDbCircle
 10
74.2946541337
 20
46.3163146062
 30
0.0
 40
123.3118109348957
100
AcDbArc
 50
358.1536386515
 51
1.8463613485
  0
LWPOLYLINE
  5
282
330
1F
100
AcDbEntity
  8
0
  6
SLD-Сплошная
 62
     7
370
    25
100
AcDbPolyline
 90
       42
 70
   128
 43
0.0
 10
193.1749794077
 20
84.1163146062
 10
193.27539856
 20
84.1143233355
 10
194.0571361726
 20
83.962335165
 10
194.8332271461
 20
83.5693767929
 10
195.5987037629
 20
82.9379635251
 10
196.3486662473
 20
82.0721370049
 10
197.0783141289
 20
80.9774393423
 10
197.7829769697
 20
79.6608776396
 10
198.4581442601
 20
78.1308791392
 10
199.0994942895
 20
76.3972372811
 10
199.7029218102
 20
74.4710490159
 10
200.2645643142
 20
72.3646437736
 10
200.7808267573
 20
70.0915045436
 10
201.2484045708
 20
67.6661815708
 10
201.6643048135
 20
65.1041992201
 10
202.02586533
 20
62.4219566062
 10
202.3307717902
 20
59.6366226232
 10
202.577072504
 20
56.7660260478
 10
202.7631909134
 20
53.828541418
 10
202.8879356842
 20
50.8429714187
 10
202.9505083318
 20
47.8284265267
 10
202.9505083318
 20
44.8042026856
 10
202.8879356842
 20
41.7896577936
 10
202.7631909134
 20
38.8040877943
 10
202.577072504
 20
35.8666031645
 10
202.3307717902
 20
32.9960065891
 10
202.02586533
 20
30.2106726061
 10
201.6643048135
 20
27.5284299922
 10
201.2484045708
 20
24.9664476416
 10
200.7808267573
 20
22.5411246687
 10
200.2645643142
 20
20.2679854387
 10
199.7029218102
 20
18.1615801964
 10
199.0994942895
 20
16.2353919312
 10
198.4581442601
 20
14.5017500732
 10
197.7829769697
 20
12.9717515727
 10
197.0783141289
 20
11.65518987
 10
196.3486662473
 20
10.5604922074
 10
195.5987037629
 20
9.6946656872
 10
194.8332271461
 20
9.0632524194
 10
194.0571361726
 20
8.6702940473
 10
193.27539856
 20
8.5183058768
 10
193.1749794077
 20
8.5163146062
  0
SPLINE
  5
283
330
1F
100
AcDbEntity
  8
0
  6
SLD-Сплошная
 62
     7
370
    25
100
AcDbSpline
210
0.0
220
0.0
230
1.0
 70
     8
 71
     3
 72
    74
 73
    70
 74
     0
 42
0.00000001
 43
0.00000001
 40
0.0
 40
0.0
 40
0.0
 40
0.0
 40
0.0176936120761827
 40
0.0380552407010925
 40
0.0585741640327269
 40
0.0791439750826971
 40
0.0995918259320159
 40
0.1201213713065881
 40
0.1614065096416844
 40
0.2026658593370668
 40
0.2433018498127807
 40
0.2612063045316037
 40
0.2786036607431901
 40
0.2954964308223368
 40
0.3052366774944758
 40
0.3154552026265777
 40
0.3255759288174918
 40
0.3357245848863047
 40
0.3436537581422162
 40
0.3515454535555439
 40
0.3595035144009757
 40
0.3674159767856062
 40
0.3751577229564788
 40
0.3832699989497538
 40
0.3909657341737425
 40
0.3991301600326417
 40
0.4096229256773805
 40
0.4202460444871544
 40
0.430694579027595
 40
0.4466364758455387
 40
0.4621709586651866
 40
0.4778497497139726
 40
0.4936169415866175
 40
0.5095075202999109
 40
0.5247509757114506
 40
0.5407476920923137
 40
0.5564957894667577
 40
0.5722965690755818
 40
0.5880023262336527
 40
0.5961773897448761
 40
0.6037915835674414
 40
0.6119193960557353
 40
0.61961189600757
 40
0.6275472256881648
 40
0.6353971498886282
 40
0.643326046546109
 40
0.6512154230743855
 40
0.6591334091667864
 40
0.6670581908033094
 40
0.6698659680077965
 40
0.6726841714894336
 40
0.675229158995521
 40
0.675591012933092
 40
0.6767814226508974
 40
0.6790378232658602
 40
0.6830525815589327
 40
0.7036527805385604
 40
0.7250608266414024
 40
0.7472813612500248
 40
0.7787858789525955
 40
0.8115073966555678
 40
0.843308084406378
 40
0.8757339490339148
 40
0.8970870694835492
 40
0.9182319649851737
 40
0.9395219208671824
 40
0.9607369534793426
 40
0.9817708949343475
 40
1.0
 40
1.0
 40
1.0
 40
1.0
 10
206.2235615253996
 20
82.02558129182644
 30
0.0
 10
207.3774293738437
 20
81.96529262199378
 30
0.0
 10
209.8591565938555
 20
81.83562436476333
 30
0.0
 10
213.8362646741066
 20
81.38856034837174
 30
0.0
 10
218.0955208513317
 20
80.83423828834681
 30
0.0
 10
222.4011607327566
 20
80.22893418812427
 30
0.0
 10
226.6995503558259
 20
79.63395078204316
 30
0.0
 10
232.3317104193422
 20
78.9329534951274
 30
0.0
 10
239.3267272369793
 20
77.94869006698066
 30
0.0
 10
247.5885498080329
 20
76.6163104204409
 30
0.0
 10
254.1919695473645
 20
75.41588548151005
 30
0.0
 10
259.1624957676229
 20
74.43739198137511
 30
0.0
 10
262.5550561472051
 20
73.73814245525135
 30
0.0
 10
265.3979329069329
 20
73.12494365394521
 30
0.0
 10
267.7609018715013
 20
72.59912328118968
 30
0.0
 10
269.6894631613885
 20
72.15361842719857
 30
0.0
 10
271.6030723309002
 20
71.71924047296658
 30
0.0
 10
273.4854498323941
 20
71.20636661451545
 30
0.0
 10
275.2377004641162
 20
70.63044044551303
 30
0.0
 10
276.7873412679243
 20
70.03122518079427
 30
0.0
 10
278.2254815163432
 20
69.35981954218892
 30
0.0
 10
279.5022812497788
 20
68.61827487768704
 30
0.0
 10
280.5982697789074
 20
67.79597326787656
 30
0.0
 10
281.4921997833084
 20
66.90584373118827
 30
0.0
 10
282.2116431327052
 20
65.92605814142125
 30
0.0
 10
282.8070339900171
 20
64.7719143626464
 30
0.0
 10
283.2379707933732
 20
63.39594517620994
 30
0.0
 10
283.49262656934
 20
61.80396130630281
 30
0.0
 10
283.7978147478266
 20
59.76246059605282
 30
0.0
 10
284.0799914476398
 20
57.24283205924533
 30
0.0
 10
284.3241817460377
 20
54.1873478789973
 30
0.0
 10
284.4865840581352
 20
50.98458792213557
 30
0.0
 10
284.5666003475698
 20
47.66215513365434
 30
0.0
 10
284.5549923277384
 20
44.34239511987496
 30
0.0
 10
284.4645621346112
 20
41.04789857040151
 30
0.0
 10
284.2849964906666
 20
37.86725751768685
 30
0.0
 10
284.0277217244088
 20
34.82549139675332
 30
0.0
 10
283.6822850257087
 20
32.03329841473622
 30
0.0
 10
283.3756165290547
 20
29.94277257194338
 30
0.0
 10
283.0038264271264
 20
28.43156588268993
 30
0.0
 10
282.5616879000598
 20
27.34226015970372
 30
0.0
 10
281.9711021296829
 20
26.34082490987415
 30
0.0
 10
281.1912538936139
 20
25.39642176115588
 30
0.0
 10
280.2301947864905
 20
24.53545710661241
 30
0.0
 10
279.0689599592377
 20
23.74166106499677
 30
0.0
 10
277.7277718199002
 20
23.02577267036987
 30
0.0
 10
276.2481791697311
 20
22.38044007852919
 30
0.0
 10
274.674573640612
 20
21.80823313169646
 30
0.0
 10
273.4134865617628
 20
21.41583150316359
 30
0.0
 10
272.512260995469
 20
21.16271393089486
 30
0.0
 10
271.9758946247928
 20
21.02085992567164
 30
0.0
 10
271.6059901830295
 20
20.92846276645119
 30
0.0
 10
271.3454471694437
 20
20.86628482523723
 30
0.0
 10
271.1033936667895
 20
20.8087726994785
 30
0.0
 10
270.6293370348529
 20
20.69697005248281
 30
0.0
 10
268.9191293745104
 20
20.2966136716282
 30
0.0
 10
265.9736828291038
 20
19.62912322467827
 30
0.0
 10
261.8253430633666
 20
18.73841361153985
 30
0.0
 10
256.9294393103794
 20
17.7449160097643
 30
0.0
 10
251.2384697239467
 20
16.66992530105333
 30
0.0
 10
244.8455838095229
 20
15.56561586470762
 30
0.0
 10
238.3262558124111
 20
14.54647100570071
 30
0.0
 10
232.514392779369
 20
13.72551664220831
 30
0.0
 10
227.3996166402925
 20
13.09013441304264
 30
0.0
 10
222.9521980534637
 20
12.48202713947531
 30
0.0
 10
218.4961230437603
 20
11.85315478579348
 30
0.0
 10
214.0872659459202
 20
11.27383532700872
 30
0.0
 10
209.9734782961365
 20
10.80531097232011
 30
0.0
 10
207.4126705109278
 20
10.67021229972538
 30
0.0
 10
206.2237349008255
 20
10.60748848903829
 30
0.0
  0
SPLINE
  5
284
330
1F
100
AcDbEntity
  8
0
  6
SLD-Сплошная
 62
     7
370
    25
100
AcDbSpline
210
0.0
220
0.0
230
1.0
 70
     8
 71
     3
 72
    13
 73
     9
 74
     0
 42
0.00000001
 43
0.00000001
 40
0.0
 40
0.0
 40
0.0
 40
0.0
 40
0.1664643222379615
 40
0.332822654241491
 40
0.4992153629130231
 40
0.6657827283434848
 40
0.8326645902600109
 40
1.0
 40
1.0
 40
1.0
 40
1.0
 10
235.8995163559976
 20
49.31631460613496
 30
0.0
 10
235.9274079649397
 20
49.20705077158571
 30
0.0
 10
235.9831734238342
 20
48.98859267234629
 30
0.0
 10
236.0547142185228
 20
48.65801189933183
 30
0.0
 10
236.1173710963174
 20
48.32559057721643
 30
0.0
 10
236.1700473103396
 20
47.99108171401738
 30
0.0
 10
236.2138490568478
 20
47.65462147948993
 30
0.0
 10
236.234868249963
 20
47.4291855394955
 30
0.0
 10
236.2453921085144
 20
47.31631460615887
 30
0.0
  0
ARC
  5
285
330
1F
100
AcDbEntity
  8
0
  6
SLD-Сплошная
 62
     7
370
    25
100
AcDbCircle
 10
121.1527892769
 20
46.3163146062
 30
0.0
 40
125.938728623344
100
AcDbArc
 50
359.545045577
 51
0.454954423
  0
SPLINE
  5
286
330
1F
100
AcDbEntity
  8
0
  6
SLD-Сплошная
 62
     7
370
    25
100
AcDbSpline
210
0.0
220
0.0
230
1.0
 70
     8
 71
     3
 72
    13
 73
     9
 74
     0
 42
0.00000001
 43
0.00000001
 40
0.0
 40
0.0
 40
0.0
 40
0.0
 40
0.1673354097300533
 40
0.3342172716406734
 40
0.5007846370692256
 40
0.6671773457428003
 40
0.8335356777522657
 40
1.0
 40
1.0
 40
1.0
 40
1.0
 10
236.2453921085123
 20
45.31631460615887
 30
0.0
 10
236.2348682499618
 20
45.20344367282785
 30
0.0
 10
236.2138490568481
 20
44.9780077328419
 30
0.0
 10
236.170047310343
 20
44.64154749832299
 30
0.0
 10
236.1173710963241
 20
44.30703863512414
 30
0.0
 10
236.054714218533
 20
43.97461731300068
 30
0.0
 10
235.9831734238479
 20
43.64403653996992
 30
0.0
 10
235.927407964957
 20
43.42557844071643
 30
0.0
 10
235.8995163560164
 20
43.31631460615887
 30
0.0
  0
ARC
  5
287
330
1F
100
AcDbEntity
  8
0
  6
SLD-Сплошная
 62
     7
370
    25
100
AcDbCircle
 10
209.2428457956
 20
23.8619688152
 30
0.0
 40
18.12486162731447
100
AcDbArc
 50
324.834211578
 51
342.1835012763
  0
SPLINE
  5
288
330
1F
100
AcDbEntity
  8
0
  6
SLD-Сплошная
 62
     7
370
    25
100
AcDbSpline
210
0.0
220
0.0
230
1.0
 70
     8
 71
     3
 72
    13
 73
     9
 74
     0
 42
0.00000001
 43
0.00000001
 40
0.0
 40
0.0
 40
0.0
 40
0.0
 40
0.5000000000000003
 40
0.5000000000000003
 40
0.6250000000000003
 40
0.6250000000000003
 40
0.7500000000000002
 40
1.0
 40
1.0
 40
1.0
 40
1.0
 10
224.0597197706854
 20
13.42305821048068
 30
0.0
 10
225.6765705637987
 20
13.57984621660439
 30
0.0
 10
227.2940642850139
 20
13.75049044801041
 30
0.0
 10
229.3167448903176
 20
13.98132708931492
 30
0.0
 10
229.7166607779059
 20
14.02783143775896
 30
0.0
 10
230.5180909069526
 20
14.1227299214602
 30
0.0
 10
231.7196991550513
 20
14.26758814401546
 30
0.0
 10
232.9196963893714
 20
14.41997868684765
 30
0.0
 10
233.718978033576
 20
14.52492244524407
 30
0.0
  0
ARC
  5
289
330
1F
100
AcDbEntity
  8
0
  6
SLD-Сплошная
 62
     7
370
    25
100
AcDbCircle
 10
220.2617774558
 20
23.9186379139
 30
0.0
 40
16.41152453904261
100
AcDbArc
 50
325.0832716599
 51
340.0399289114
  0
SPLINE
  5
28A
330
1F
100
AcDbEntity
  8
0
  6
SLD-Сплошная
 62
     7
370
    25
100
AcDbSpline
210
0.0
220
0.0
230
1.0
 70
     8
 71
     3
 72
    31
 73
    27
 74
     0
 42
0.00000001
 43
0.00000001
 40
0.0
 40
0.0
 40
0.0
 40
0.0
 40
0.0190231735041334
 40
0.0376104423101018
 40
0.055763484964217
 40
0.0734841034165867
 40
0.0907742348277331
 40
0.1076359647387399
 40
0.1240715417840091
 40
0.1889580503196596
 40
0.2485839807625471
 40
0.342194920093027
 40
0.424600302838412
 40
0.4987103978605948
 40
0.5589239757908356
 40
0.6187587807410321
 40
0.6812595188337112
 40
0.7491129654539108
 40
0.7781789790806335
 40
0.8086822052455139
 40
0.8407145086823329
 40
0.8743552298244923
 40
0.9036044639473653
 40
0.9342760700417093
 40
0.9663993996441098
 40
1.0
 40
1.0
 40
1.0
 40
1.0
 10
235.6874739150222
 20
18.31631460615887
 30
0.0
 10
235.7141979478125
 20
18.38787456786453
 30
0.0
 10
235.7670336480879
 20
18.52935473734615
 30
0.0
 10
235.8335442834628
 20
18.74235040748763
 30
0.0
 10
235.8897962465778
 20
18.95234319165646
 30
0.0
 10
235.935268233992
 20
19.15923071408959
 30
0.0
 10
235.9704670538675
 20
19.36262310765977
 30
0.0
 10
235.9956459861809
 20
19.56224686829038
 30
0.0
 10
236.026474482115
 20
19.95159169880677
 30
0.0
 10
236.0047812658553
 20
20.51667087991597
 30
0.0
 10
235.7884354645262
 20
21.3798687016529
 30
0.0
 10
235.2694893448702
 20
22.26329661505211
 30
0.0
 10
234.2975230826316
 20
23.00373314505208
 30
0.0
 10
233.1145663772649
 20
23.34503582701828
 30
0.0
 10
231.8747095090187
 20
23.31014168470098
 30
0.0
 10
230.6784140242631
 20
22.97212148474842
 30
0.0
 10
229.536197422656
 20
22.36024918362747
 30
0.0
 10
228.7375005309438
 20
21.71078384435482
 30
0.0
 10
228.2003795597901
 20
21.16271804397836
 30
0.0
 10
227.855196642401
 20
20.76050756614529
 30
0.0
 10
227.5357928186893
 20
20.33546335912846
 30
0.0
 10
227.2616849246247
 20
19.91779821922609
 30
0.0
 10
227.0268889324507
 20
19.51150457405881
 30
0.0
 10
226.8269711550542
 20
19.11893711800406
 30
0.0
 10
226.646488401846
 20
18.71622785933708
 30
0.0
 10
226.5485387328663
 20
18.45160168332461
 30
0.0
 10
226.4984630955077
 20
18.31631460615886
 30
0.0
  0
ARC
  5
28B
330
1F
100
AcDbEntity
  8
0
  6
SLD-Сплошная
 62
     7
370
    25
100
AcDbCircle
 10
220.2617774558
 20
68.7139912984
 30
0.0
 40
16.41152453904403
100
AcDbArc
 50
19.9600710886
 51
34.9167283401
  0
SPLINE
  5
28C
330
1F
100
AcDbEntity
  8
0
  6
SLD-Сплошная
 62
     7
370
    25
100
AcDbSpline
210
0.0
220
0.0
230
1.0
 70
     8
 71
     3
 72
    13
 73
     9
 74
     0
 42
0.00000001
 43
0.00000001
 40
0.0
 40
0.0
 40
0.0
 40
0.0
 40
0.5000000000000001
 40
0.5000000000000001
 40
0.6250000000000001
 40
0.6250000000000001
 40
0.7500000000000002
 40
1.0
 40
1.0
 40
1.0
 40
1.0
 10
224.0597197706853
 20
79.20957100183702
 30
0.0
 10
225.676570563795
 20
79.05278299571377
 30
0.0
 10
227.2940642850067
 20
78.88213876430802
 30
0.0
 10
229.3167448903057
 20
78.65130212300413
 30
0.0
 10
229.7166607778929
 20
78.6047977745603
 30
0.0
 10
230.5180909069382
 20
78.50989929085917
 30
0.0
 10
231.7196991550347
 20
78.36504106830411
 30
0.0
 10
232.9196963893527
 20
78.21265052547244
 30
0.0
 10
233.718978033555
 20
78.10770676707368
 30
0.0
  0
ARC
  5
28D
330
1F
100
AcDbEntity
  8
0
  6
SLD-Сплошная
 62
     7
370
    25
100
AcDbCircle
 10
209.2428457956
 20
68.7706603971
 30
0.0
 40
18.12486162731385
100
AcDbArc
 50
17.8164987237
 51
35.165788422
  0
SPLINE
  5
28E
330
1F
100
AcDbEntity
  8
0
  6
SLD-Сплошная
 62
     7
370
    25
100
AcDbSpline
210
0.0
220
0.0
230
1.0
 70
     8
 71
     3
 72
    33
 73
    29
 74
     0
 42
0.00000001
 43
0.00000001
 40
0.0
 40
0.0
 40
0.0
 40
0.0
 40
0.0167698686912492
 40
0.0331766068077675
 40
0.0492229838964125
 40
0.0649119603481437
 40
0.0802467035465168
 40
0.095230605517703
 40
0.1098673022115901
 40
0.1241606945479014
 40
0.1896920090388357
 40
0.2491295055361845
 40
0.3113120657070066
 40
0.3688334321753882
 40
0.4236626420191862
 40
0.4780618578837505
 40
0.4888638583483011
 40
0.4997285980742734
 40
0.5547948129075319
 40
0.6140076692088287
 40
0.6787750614335956
 40
0.7501770658739401
 40
0.8099829267840445
 40
0.8750954599440609
 40
0.9043170099288216
 40
0.9348675956411532
 40
0.9667585926074015
 40
1.0
 40
1.0
 40
1.0
 40
1.0
 10
226.4984630955077
 20
74.31631460615885
 30
0.0
 10
226.5227807185383
 20
74.24908024118456
 30
0.0
 10
226.5708893968257
 20
74.11606738748905
 30
0.0
 10
226.6514024210308
 20
73.91480952101864
 30
0.0
 10
226.7369306170121
 20
73.71543381915498
 30
0.0
 10
226.8279495163725
 20
73.5179614006775
 30
0.0
 10
226.9241400342603
 20
73.32276227077641
 30
0.0
 10
227.0253736302442
 20
73.13010735605776
 30
0.0
 10
227.1314706753428
 20
72.94025863057534
 30
0.0
 10
227.3754136940679
 20
72.52896846611745
 30
0.0
 10
227.8026511251735
 20
71.91068245895926
 30
0.0
 10
228.5432761797821
 20
71.0893035874895
 30
0.0
 10
229.4272048842979
 20
70.35561825856902
 30
0.0
 10
230.4512480616926
 20
69.76741222878573
 30
0.0
 10
231.528472953103
 20
69.39804213134784
 30
0.0
 10
232.3111811884741
 20
69.30833129890264
 30
0.0
 10
232.7796304676107
 20
69.3194692674142
 30
0.0
 10
233.2429152018185
 20
69.35234052695631
 30
0.0
 10
233.9467311513286
 20
69.51317122514261
 30
0.0
 10
234.7581218126272
 20
69.949541464804
 30
0.0
 10
235.4030835702285
 20
70.58679315677804
 30
0.0
 10
235.8044549966587
 20
71.32479987072472
 30
0.0
 10
236.0031178494599
 20
72.10217206940234
 30
0.0
 10
236.028728133537
 20
72.72036204027124
 30
0.0
 10
235.9816773132515
 20
73.21530089022373
 30
0.0
 10
235.9173066217859
 20
73.57470073678913
 30
0.0
 10
235.8223033879218
 20
73.94498856204656
 30
0.0
 10
235.733034022508
 20
74.19084015225638
 30
0.0
 10
235.6874739150222
 20
74.31631460615887
 30
0.0
  0
SPLINE
  5
28F
330
1F
100
AcDbEntity
  8
0
  6
SLD-Сплошная
 62
     7
370
    25
100
AcDbSpline
210
0.0
220
0.0
230
1.0
 70
    24
 71
     3
 72
    28
 73
    24
 74
     0
 42
0.00000001
 43
0.00000001
 40
0.0
 40
0.0
 40
0.0
 40
0.0
 40
0.037898847540394
 40
0.1038428903414866
 40
0.1368006662507285
 40
0.1696783568564535
 40
0.2357759880912308
 40
0.2687277151694756
 40
0.3015670918238256
 40
0.3676045733225881
 40
0.4335753271081223
 40
0.4665317505423759
 40
0.4994696982640683
 40
0.5325605463331962
 40
0.5656862120379562
 40
0.6316140000179914
 40
0.6975347719436156
 40
0.7305838371008815
 40
0.7637637161135571
 40
0.8296204646504032
 40
0.8956417662449633
 40
0.9617319711694625
 40
1.0
 40
1.0
 40
1.0
 40
1.0
 10
290.9266730281183
 20
66.29069683790777
 30
0.0
 10
290.9266730281183
 20
66.30442660717587
 30
0.0
 10
290.9266730281183
 20
66.34204619238885
 30
0.0
 10
290.9266730281183
 20
65.64009988457764
 30
0.0
 10
290.9266730281183
 20
64.6609005278153
 30
0.0
 10
290.9266730281182
 20
63.40510097918848
 30
0.0
 10
290.9266730281182
 20
61.77553514194109
 30
0.0
 10
290.9266730281182
 20
59.81889172897281
 30
0.0
 10
290.9266730281182
 20
57.66224790515388
 30
0.0
 10
290.9266730281182
 20
54.62209607042657
 30
0.0
 10
290.9266730281181
 20
51.25480230074207
 30
0.0
 10
290.9266730281182
 20
48.46877260941265
 30
0.0
 10
290.9266730281181
 20
46.35092384737949
 30
0.0
 10
290.9266730281182
 20
44.22898459764217
 30
0.0
 10
290.9266730281182
 20
41.43556994172269
 30
0.0
 10
290.9266730281182
 20
38.06478277282243
 30
0.0
 10
290.9266730281182
 20
35.01826287224785
 30
0.0
 10
290.9266730281182
 20
32.85076327171763
 30
0.0
 10
290.9266730281182
 20
30.8878283205564
 30
0.0
 10
290.9266730281182
 20
28.83453322889814
 30
0.0
 10
290.9266730281183
 20
27.16284988208223
 30
0.0
 10
290.9266730281183
 20
26.29351083922219
 30
0.0
 10
290.9266730281183
 20
26.32974967960184
 30
0.0
 10
290.9266730281183
 20
26.34303841532047
 30
0.0
  0
SPLINE
  5
290
330
1F
100
AcDbEntity
  8
0
  6
SLD-Сплошная
 62
     7
370
    25
100
AcDbSpline
210
0.0
220
0.0
230
1.0
 70
     8
 71
     3
 72
    24
 73
    20
 74
     0
 42
0.00000001
 43
0.00000001
 40
0.0
 40
0.0
 40
0.0
 40
0.0
 40
0.0171042809986813
 40
0.0350339409939874
 40
0.0534113044950434
 40
0.0762524050915007
 40
0.0987433124473614
 40
0.1208829030758124
 40
0.1426701020023138
 40
0.231881222761878
 40
0.3200318657345337
 40
0.4083776326638638
 40
0.4974491353829748
 40
0.584166210901032
 40
0.6723055486301426
 40
0.7618324831449165
 40
0.8527092120043972
 40
0.9415347871316349
 40
1.0
 40
1.0
 40
1.0
 40
1.0
 10
288.5637151955458
 20
30.41132473663078
 30
0.0
 10
288.5957899044109
 20
30.55021984580065
 30
0.0
 10
288.6614871095646
 20
30.83471254440552
 30
0.0
 10
288.7402277058739
 20
31.2795961861085
 30
0.0
 10
288.8204723939631
 20
31.78419926349474
 30
0.0
 10
288.9051509835185
 20
32.3453705802379
 30
0.0
 10
288.9905525594136
 20
32.95833642505782
 30
0.0
 10
289.0709484730577
 20
33.57934625684229
 30
0.0
 10
289.2244051740445
 20
34.85695292725249
 30
0.0
 10
289.4250229750817
 20
36.88990554162803
 30
0.0
 10
289.6219245772414
 20
39.79756846632859
 30
0.0
 10
289.7459491404475
 20
42.8402300259166
 30
0.0
 10
289.7931352136782
 20
45.93915230900594
 30
0.0
 10
289.7642002671959
 20
49.04283431556401
 30
0.0
 10
289.6597360707165
 20
52.09542327310081
 30
0.0
 10
289.4801157917453
 20
55.07664015815827
 30
0.0
 10
289.2170307567591
 20
57.86591855707644
 30
0.0
 10
288.958426226096
 20
60.14922408383659
 30
0.0
 10
288.7083349529714
 20
61.35748649873116
 30
0.0
 10
288.6090643894914
 20
61.83709096177309
 30
0.0
  0
LINE
  5
291
330
1F
100
AcDbEntity
  8
0
  6
SLD-Сплошная
 62
     7
370
    25
100
AcDbLine
 10
249.4905685447
 20
43.3163146062
 30
0.0
 11
248.960017388
 21
43.3163146062
 31
0.0
  0
LINE
  5
292
330
1F
100
AcDbEntity
  8
0
  6
SLD-Сплошная
 62
     7
370
    25
100
AcDbLine
 10
248.960017388
 20
45.3163146062
 30
0.0
 11
248.960017388
 21
47.3163146062
 31
0.0
  0
LINE
  5
293
330
1F
100
AcDbEntity
  8
0
  6
SLD-Сплошная
 62
     7
370
    25
100
AcDbLine
 10
248.960017388
 20
49.3163146062
 30
0.0
 11
249.4905685447
 21
49.3163146062
 31
0.0
  0
LWPOLYLINE
  5
294
330
1F
100
AcDbEntity
  8
0
  6
SLD-Сплошная
 62
     7
370
    25
100
AcDbPolyline
 90
        8
 70
   128
 43
0.0
 10
180.5664276218
 20
77.9663146062
 10
181.0277628123
 20
77.9160824557
 10
181.7644444027
 20
77.6260077185
 10
182.4913362789
 20
77.0800826879
 10
183.2024985712
 20
76.2827684449
 10
183.8921199457
 20
75.2405803228
 10
184.5545650923
 20
73.9620346662
 10
184.9957644117
 20
72.9404712427
  0
LWPOLYLINE
  5
295
330
1F
100
AcDbEntity
  8
0
  6
SLD-Сплошная
 62
     7
370
    25
100
AcDbPolyline
 90
        8
 70
   128
 43
0.0
 10
185.0907798499
 20
19.6921579696
 10
184.5535535246
 20
18.4396887128
 10
183.8905664335
 20
17.1706911876
 10
183.2008004507
 20
16.1364875551
 10
182.4898122541
 20
15.3454092445
 10
181.7633294853
 20
14.8038290944
 10
181.0272046086
 20
14.5161100142
 10
180.5664276218
 20
14.4663146062
  0
LWPOLYLINE
  5
296
330
1F
100
AcDbEntity
  8
0
  6
SLD-Сплошная
 62
     7
370
    25
100
AcDbPolyline
 90
        3
 70
   128
 43
0.0
 10
164.6901177801
 20
14.4984495477
 10
164.3327521317
 20
14.4663532534
 10
164.3199103497
 20
14.4663146062
  0
LINE
  5
297
330
1F
100
AcDbEntity
  8
0
  6
SLD-Сплошная
 62
     7
370
    25
100
AcDbLine
 10
164.959774819
 20
14.4984495477
 30
0.0
 11
164.6901177801
 21
14.4984495477
 31
0.0
  0
SPLINE
  5
298
330
1F
100
AcDbEntity
  8
0
  6
SLD-Сплошная
 62
     7
370
    25
100
AcDbSpline
210
0.0
220
0.0
230
1.0
 70
     8
 71
     3
 72
     8
 73
     4
 74
     0
 42
0.00000001
 43
0.00000001
 40
0.0
 40
0.0
 40
0.0
 40
0.0
 40
1.0
 40
1.0
 40
1.0
 40
1.0
 10
179.1555730779809
 20
17.94150937667083
 30
0.0
 10
176.9376802789683
 20
17.21394680558951
 30
0.0
 10
174.7055584647151
 20
16.5942433196768
 30
0.0
 10
172.4635583223668
 20
16.08942806026126
 30
0.0
  0
SPLINE
  5
299
330
1F
100
AcDbEntity
  8
0
  6
SLD-Сплошная
 62
     7
370
    25
100
AcDbSpline
210
0.0
220
0.0
230
1.0
 70
     8
 71
     3
 72
     8
 73
     4
 74
     0
 42
0.00000001
 43
0.00000001
 40
0.0
 40
0.0
 40
0.0
 40
0.0
 40
1.0
 40
1.0
 40
1.0
 40
1.0
 10
172.4635583223668
 20
16.08942806026126
 30
0.0
 10
171.0084458025808
 20
16.59424331967662
 30
0.0
 10
169.5434549546996
 20
17.21394680558904
 30
0.0
 10
168.0642350915779
 20
17.94150937667002
 30
0.0
  0
ARC
  5
29A
330
1F
100
AcDbEntity
  8
0
  6
SLD-Сплошная
 62
     7
370
    25
100
AcDbCircle
 10
157.2198082441
 20
23.3463788332
 30
0.0
 40
12.11669127656533
100
AcDbArc
 50
324.5835797335
 51
333.5083042325
  0
LINE
  5
29B
330
1F
100
AcDbEntity
  8
0
  6
SLD-Сплошная
 62
     7
370
    25
100
AcDbLine
 10
170.6223247334
 20
15.0540421634
 30
0.0
 11
165.8962186654
 21
15.0540421634
 31
0.0
  0
ARC
  5
29C
330
1F
100
AcDbEntity
  8
0
  6
SLD-Сплошная
 62
     7
370
    25
100
AcDbCircle
 10
164.0503257808
 20
17.4323621674
 30
0.0
 40
3.0106023620649
100
AcDbArc
 50
287.5827009693
 51
307.8162224766
  0
LINE
  5
29D
330
1F
100
AcDbEntity
  8
0
  6
SLD-Сплошная
 62
     7
370
    25
100
AcDbLine
 10
176.9875566518
 20
15.0540421634
 30
0.0
 11
172.8127063847
 21
15.0540421634
 31
0.0
  0
LINE
  5
29E
330
1F
100
AcDbEntity
  8
0
  6
SLD-Сплошная
 62
     7
370
    25
100
AcDbLine
 10
250.8581066999
 20
43.3163146062
 30
0.0
 11
249.4905685447
 21
43.3163146062
 31
0.0
  0
LINE
  5
29F
330
1F
100
AcDbEntity
  8
0
  6
SLD-Сплошная
 62
     7
370
    25
100
AcDbLine
 10
250.8581066999
 20
49.3163146062
 30
0.0
 11
249.4905685447
 21
49.3163146062
 31
0.0
  0
LINE
  5
2A0
330
1F
100
AcDbEntity
  8
0
  6
SLD-Сплошная
 62
     7
370
    25
100
AcDbLine
 10
248.960017388
 20
47.3163146062
 30
0.0
 11
236.2453921085
 21
47.3163146062
 31
0.0
  0
LINE
  5
2A1
330
1F
100
AcDbEntity
  8
0
  6
SLD-Сплошная
 62
     7
370
    25
100
AcDbLine
 10
248.960017388
 20
49.3163146062
 30
0.0
 11
235.899516356
 21
49.3163146062
 31
0.0
  0
LINE
  5
2A2
330
1F
100
AcDbEntity
  8
0
  6
SLD-Сплошная
 62
     7
370
    25
100
AcDbLine
 10
236.2453921085
 20
45.3163146062
 30
0.0
 11
248.960017388
 21
45.3163146062
 31
0.0
  0
LINE
  5
2A3
330
1F
100
AcDbEntity
  8
0
  6
SLD-Сплошная
 62
     7
370
    25
100
AcDbLine
 10
248.960017388
 20
43.3163146062
 30
0.0
 11
235.899516356
 21
43.3163146062
 31
0.0
  0
LINE
  5
2A4
330
1F
100
AcDbEntity
  8
0
  6
SLD-Сплошная
 62
     7
370
    25
100
AcDbLine
 10
251.4510514638
 20
43.3163146062
 30
0.0
 11
250.8581066999
 21
43.3163146062
 31
0.0
  0
LINE
  5
2A5
330
1F
100
AcDbEntity
  8
0
  6
SLD-Сплошная
 62
     7
370
    25
100
AcDbLine
 10
250.8581066999
 20
49.3163146062
 30
0.0
 11
251.4510514638
 21
49.3163146062
 31
0.0
  0
ARC
  5
2A6
330
1F
100
AcDbEntity
  8
0
  6
SLD-Сплошная
 62
     7
370
    25
100
AcDbCircle
 10
157.3086600924
 20
23.1208591992
 30
0.0
 40
12.03669252874595
100
AcDbArc
 50
324.389732379
 51
333.3247824773
  0
LINE
  5
2A7
330
1F
100
AcDbEntity
  8
0
  6
SLD-Сплошная
 62
     7
370
    25
100
AcDbLine
 10
167.0944481395
 20
16.3245774668
 30
0.0
 11
167.0944481395
 21
16.1122702306
 31
0.0
  0
LINE
  5
2A8
330
1F
100
AcDbEntity
  8
0
  6
SLD-Сплошная
 62
     7
370
    25
100
AcDbLine
 10
168.0642350916
 20
17.9415093767
 30
0.0
 11
168.0642350916
 21
17.7171962314
 31
0.0
  0
ARC
  5
2A9
330
1F
100
AcDbEntity
  8
0
  6
SLD-Сплошная
 62
     7
370
    25
100
AcDbCircle
 10
164.0536934721
 20
17.2405752221
 30
0.0
 40
3.017993468251935
100
AcDbArc
 50
287.4712023854
 51
307.6266281538
  0
LINE
  5
2AA
330
1F
100
AcDbEntity
  8
0
  6
SLD-Сплошная
 62
     7
370
    25
100
AcDbLine
 10
171.3002839122
 20
14.850306307
 30
0.0
 11
165.8962186654
 21
14.850306307
 31
0.0
  0
ARC
  5
2AB
330
1F
100
AcDbEntity
  8
0
  6
SLD-Сплошная
 62
     7
370
    25
100
AcDbCircle
 10
168.9074358603
 20
18.0498891903
 30
0.0
 40
3.995378884012445
100
AcDbArc
 50
306.791436542
 51
307.3514703666
  0
SPLINE
  5
2AC
330
1F
100
AcDbEntity
  8
0
  6
SLD-Сплошная
 62
     7
370
    25
100
AcDbSpline
210
0.0
220
0.0
230
1.0
 70
     8
 71
     3
 72
     8
 73
     4
 74
     0
 42
0.00000001
 43
0.00000001
 40
0.0
 40
0.0
 40
0.0
 40
0.0
 40
1.0
 40
1.0
 40
1.0
 40
1.0
 10
167.094448139453
 20
16.11227023064093
 30
0.0
 10
168.5157281037148
 20
15.59048173809161
 30
0.0
 10
169.9262990744651
 20
15.17625058572008
 30
0.0
 10
171.3314432215651
 20
14.87384751247774
 30
0.0
  0
SPLINE
  5
2AD
330
1F
100
AcDbEntity
  8
0
  6
SLD-Сплошная
 62
     7
370
    25
100
AcDbSpline
210
0.0
220
0.0
230
1.0
 70
     8
 71
     3
 72
     8
 73
     4
 74
     0
 42
0.00000001
 43
0.00000001
 40
0.0
 40
0.0
 40
0.0
 40
0.0
 40
1.0
 40
1.0
 40
1.0
 40
1.0
 10
172.4635583223668
 20
15.87876098799557
 30
0.0
 10
171.008524222343
 20
16.38005525815691
 30
0.0
 10
169.543940395907
 20
16.99510330036939
 30
0.0
 10
168.0642350915779
 20
17.7171962314357
 30
0.0
  0
SPLINE
  5
2AE
330
1F
100
AcDbEntity
  8
0
  6
SLD-Сплошная
 62
     7
370
    25
100
AcDbSpline
210
0.0
220
0.0
230
1.0
 70
     8
 71
     3
 72
     8
 73
     4
 74
     0
 42
0.00000001
 43
0.00000001
 40
0.0
 40
0.0
 40
0.0
 40
0.0
 40
1.0
 40
1.0
 40
1.0
 40
1.0
 10
179.1555730779809
 20
17.71719623143652
 30
0.0
 10
176.9369521483262
 20
16.99510321043344
 30
0.0
 10
174.7054378729688
 20
16.38005531079737
 30
0.0
 10
172.4635583223668
 20
15.87876098799557
 30
0.0
  0
ARC
  5
2AF
330
1F
100
AcDbEntity
  8
0
  6
SLD-Сплошная
 62
     7
370
    25
100
AcDbCircle
 10
168.3999980788
 20
23.1208591992
 30
0.0
 40
12.03669252874343
100
AcDbArc
 50
324.389732379
 51
333.3247824773
  0
SPLINE
  5
2B0
330
1F
100
AcDbEntity
  8
0
  6
SLD-Сплошная
 62
     7
370
    25
100
AcDbSpline
210
0.0
220
0.0
230
1.0
 70
     8
 71
     3
 72
     8
 73
     4
 74
     0
 42
0.00000001
 43
0.00000001
 40
0.0
 40
0.0
 40
0.0
 40
0.0
 40
1.0
 40
1.0
 40
1.0
 40
1.0
 10
171.6146507142992
 20
14.87384751247808
 30
0.0
 10
173.8122651120866
 20
15.17625056821289
 30
0.0
 10
176.0034944856019
 20
15.59048177538757
 30
0.0
 10
178.185786125856
 20
16.11227023064153
 30
0.0
  0
ARC
  5
2B1
330
1F
100
AcDbEntity
  8
0
  6
SLD-Сплошная
 62
     7
370
    25
100
AcDbCircle
 10
169.1906433532
 20
18.0498891898
 30
0.0
 40
3.995378883491051
100
AcDbArc
 50
306.791436545
 51
307.3514703697
  0
LINE
  5
2B2
330
1F
100
AcDbEntity
  8
0
  6
SLD-Сплошная
 62
     7
370
    25
100
AcDbLine
 10
176.9875566518
 20
14.850306307
 30
0.0
 11
171.583491405
 21
14.850306307
 31
0.0
  0
ARC
  5
2B3
330
1F
100
AcDbEntity
  8
0
  6
SLD-Сплошная
 62
     7
370
    25
100
AcDbCircle
 10
175.1450314585
 20
17.2405752221
 30
0.0
 40
3.017993468253179
100
AcDbArc
 50
287.4712023854
 51
307.6266281538
  0
LINE
  5
2B4
330
1F
100
AcDbEntity
  8
0
  6
SLD-Сплошная
 62
     7
370
    25
100
AcDbLine
 10
164.959774819
 20
14.3618079222
 30
0.0
 11
176.0511128054
 21
14.3618079222
 31
0.0
  0
LINE
  5
2B5
330
1F
100
AcDbEntity
  8
0
  6
SLD-Сплошная
 62
     7
370
    25
100
AcDbLine
 10
172.4635583224
 20
16.0894280603
 30
0.0
 11
172.4635583224
 21
15.878760988
 31
0.0
  0
LINE
  5
2B6
330
1F
100
AcDbEntity
  8
0
  6
SLD-Сплошная
 62
     7
370
    25
100
AcDbLine
 10
179.155573078
 20
17.9415093767
 30
0.0
 11
179.155573078
 21
17.7171962314
 31
0.0
  0
ARC
  5
2B7
330
1F
100
AcDbEntity
  8
0
  6
SLD-Сплошная
 62
     7
370
    25
100
AcDbCircle
 10
228.7305366255
 20
18.3679441472
 30
0.0
 40
4.988708579484681
100
AcDbArc
 50
359.4070193593
 51
66.963268142
  0
ARC
  5
2B8
330
1F
100
AcDbEntity
  8
0
  6
SLD-Сплошная
 62
     7
370
    25
100
AcDbCircle
 10
228.7294843826
 20
74.2650425543
 30
0.0
 40
4.989757079901487
100
AcDbArc
 50
293.4174739204
 51
0.588750881
  0
LINE
  5
2B9
330
1F
100
AcDbEntity
  8
0
  6
SLD-Сплошная
 62
     7
370
    25
100
AcDbLine
 10
164.959774819
 20
14.5624093752
 30
0.0
 11
164.959774819
 21
14.3618079222
 31
0.0
  0
LINE
  5
2BA
330
1F
100
AcDbEntity
  8
0
  6
SLD-Сплошная
 62
     7
370
    25
100
AcDbLine
 10
165.8962186654
 20
15.0540421634
 30
0.0
 11
165.8962186654
 21
14.850306307
 31
0.0
  0
LINE
  5
2BB
330
1F
100
AcDbEntity
  8
0
  6
SLD-Сплошная
 62
     7
370
    25
100
AcDbLine
 10
176.9875566518
 20
15.0540421634
 30
0.0
 11
176.9875566518
 21
14.850306307
 31
0.0
  0
ARC
  5
2BC
330
1F
100
AcDbEntity
  8
0
  6
SLD-Сплошная
 62
     7
370
    25
100
AcDbCircle
 10
164.3206447765
 20
16.5271173059
 30
0.0
 40
2.259284187834818
100
AcDbArc
 50
245.8039686093
 51
279.4121649887
  0
LINE
  5
2BD
330
1F
100
AcDbEntity
  8
0
  6
SLD-Сплошная
 62
     7
370
    25
100
AcDbLine
 10
164.6901177801
 20
14.4984495477
 30
0.0
 11
164.6901177801
 21
14.298248817
 31
0.0
  0
LINE
  5
2BE
330
1F
100
AcDbEntity
  8
0
  6
SLD-Сплошная
 62
     7
370
    25
100
AcDbLine
 10
167.7150214815
 20
14.298248817
 30
0.0
 11
164.6901177801
 21
14.298248817
 31
0.0
  0
LWPOLYLINE
  5
2BF
330
1F
100
AcDbEntity
  8
0
  6
SLD-Сплошная
 62
     7
370
    25
100
AcDbPolyline
 90
        3
 70
   128
 43
0.0
 10
167.7150214815
 20
14.298248817
 10
167.3577155307
 20
14.2663533702
 10
167.344814051
 20
14.2663146062
  0
LINE
  5
2C0
330
1F
100
AcDbEntity
  8
0
  6
SLD-Сплошная
 62
     7
370
    25
100
AcDbLine
 10
167.7150214815
 20
14.3618079222
 30
0.0
 11
167.7150214815
 21
14.298248817
 31
0.0
  0
ARC
  5
2C1
330
1F
100
AcDbEntity
  8
0
  6
SLD-Сплошная
 62
     7
370
    25
100
AcDbCircle
 10
168.3522272894
 20
16.4580584697
 30
0.0
 40
2.191460383268662
100
AcDbArc
 50
253.0960797011
 51
279.7495995494
  0
LINE
  5
2C2
330
1F
100
AcDbEntity
  8
0
  6
SLD-Сплошная
 62
     7
370
    25
100
AcDbLine
 10
168.7233349227
 20
14.3618079222
 30
0.0
 11
168.7233349227
 21
14.298248817
 31
0.0
  0
LINE
  5
2C3
330
1F
100
AcDbEntity
  8
0
  6
SLD-Сплошная
 62
     7
370
    25
100
AcDbLine
 10
171.748238624
 20
14.298248817
 30
0.0
 11
168.7233349227
 21
14.298248817
 31
0.0
  0
LWPOLYLINE
  5
2C4
330
1F
100
AcDbEntity
  8
0
  6
SLD-Сплошная
 62
     7
370
    25
100
AcDbPolyline
 90
        3
 70
   128
 43
0.0
 10
171.748238624
 20
14.298248817
 10
171.5090763544
 20
14.2703142248
 10
171.3780311936
 20
14.2663146062
  0
ARC
  5
2C5
330
1F
100
AcDbEntity
  8
0
  6
SLD-Сплошная
 62
     7
370
    25
100
AcDbCircle
 10
172.3863176217
 20
16.4720262711
 30
0.0
 40
2.205080942498927
100
AcDbArc
 50
253.1799005739
 51
279.6657786765
  0
LINE
  5
2C6
330
1F
100
AcDbEntity
  8
0
  6
SLD-Сплошная
 62
     7
370
    25
100
AcDbLine
 10
175.7814557666
 20
14.298248817
 30
0.0
 11
172.7565520652
 21
14.298248817
 31
0.0
  0
LWPOLYLINE
  5
2C7
330
1F
100
AcDbEntity
  8
0
  6
SLD-Сплошная
 62
     7
370
    25
100
AcDbPolyline
 90
        3
 70
   128
 43
0.0
 10
175.7814557666
 20
14.298248817
 10
175.4241498158
 20
14.2663533702
 10
175.4112483361
 20
14.2663146062
  0
LINE
  5
2C8
330
1F
100
AcDbEntity
  8
0
  6
SLD-Сплошная
 62
     7
370
    25
100
AcDbLine
 10
171.748238624
 20
14.3618079222
 30
0.0
 11
171.748238624
 21
14.298248817
 31
0.0
  0
LINE
  5
2C9
330
1F
100
AcDbEntity
  8
0
  6
SLD-Сплошная
 62
     7
370
    25
100
AcDbLine
 10
233.7189780336
 20
78.1077067671
 30
0.0
 11
233.7189780336
 21
74.3163146062
 31
0.0
  0
LINE
  5
2CA
330
1F
100
AcDbEntity
  8
0
  6
SLD-Сплошная
 62
     7
370
    25
100
AcDbLine
 10
233.7189780336
 20
18.3163146062
 30
0.0
 11
233.7189780336
 21
14.5249224452
 31
0.0
  0
LINE
  5
2CB
330
1F
100
AcDbEntity
  8
0
  6
SLD-Сплошная
 62
     7
370
    25
100
AcDbLine
 10
172.7565520652
 20
14.3618079222
 30
0.0
 11
172.7565520652
 21
14.298248817
 31
0.0
  0
LINE
  5
2CC
330
1F
100
AcDbEntity
  8
0
  6
SLD-Сплошная
 62
     7
370
    25
100
AcDbLine
 10
175.7814557666
 20
14.3618079222
 30
0.0
 11
175.7814557666
 21
14.298248817
 31
0.0
  0
SPLINE
  5
2CD
330
1F
100
AcDbEntity
  8
0
  6
SLD-Сплошная
 62
     7
370
    25
100
AcDbSpline
210
0.0
220
0.0
230
1.0
 70
     8
 71
     3
 72
    12
 73
     8
 74
     0
 42
0.00000001
 43
0.00000001
 40
0.0
 40
0.0
 40
0.0
 40
0.0
 40
0.0879918922842174
 40
0.3920267957024948
 40
0.5485126206536859
 40
0.6965209892411244
 40
1.0
 40
1.0
 40
1.0
 40
1.0
 10
210.5544838891394
 20
9.379988516640598
 30
0.0
 10
210.4033168297793
 20
9.365699978586036
 30
0.0
 10
209.7298282121542
 20
9.30204082041372
 30
0.0
 10
208.7787152212064
 20
9.387305866980375
 30
0.0
 10
207.7477015270289
 20
9.582892122275005
 30
0.0
 10
206.7320822409505
 20
9.874611180010609
 30
0.0
 10
206.0589448720454
 20
10.28979630928223
 30
0.0
 10
205.6064780431478
 20
10.56887381637796
 30
0.0
  0
SPLINE
  5
2CE
330
1F
100
AcDbEntity
  8
0
  6
SLD-Сплошная
 62
     7
370
    25
100
AcDbSpline
210
0.0
220
0.0
230
1.0
 70
     8
 71
     3
 72
    13
 73
     9
 74
     0
 42
0.00000001
 43
0.00000001
 40
0.0
 40
0.0
 40
0.0
 40
0.0
 40
0.1460304519012708
 40
0.3030749744014704
 40
0.4502240977937257
 40
0.6059862001180616
 40
0.9065158820362434
 40
1.0
 40
1.0
 40
1.0
 40
1.0
 10
205.6074393270335
 20
82.06371632035595
 30
0.0
 10
205.8170661719838
 20
82.20829832116026
 30
0.0
 10
206.2521305701283
 20
82.50836714668372
 30
0.0
 10
206.9725570290802
 20
82.81563582824833
 30
0.0
 10
207.7327347817933
 20
83.04845459069696
 30
0.0
 10
208.755107308792
 20
83.24061946542096
 30
0.0
 10
209.7054430411964
 20
83.32928108324948
 30
0.0
 10
210.3813877527788
 20
83.26731217905393
 30
0.0
 10
210.5417630877886
 20
83.25260937333587
 30
0.0
  0
LINE
  5
2CF
330
1F
100
AcDbEntity
  8
0
  6
SLD-Сплошная
 62
     7
370
    25
100
AcDbLine
 10
181.3985332469
 20
82.3163146062
 30
0.0
 11
184.5992074372
 21
82.3163146062
 31
0.0
  0
LINE
  5
2D0
330
1F
100
AcDbEntity
  8
0
  6
SLD-Сплошная
 62
     7
370
    25
100
AcDbLine
 10
181.3985332469
 20
10.3163146062
 30
0.0
 11
184.5992074372
 21
10.3163146062
 31
0.0
  0
SPLINE
  5
2D1
330
1F
100
AcDbEntity
  8
0
  6
SLD-Сплошная
 62
     7
370
    25
100
AcDbSpline
210
0.0
220
0.0
230
1.0
 70
     8
 71
     3
 72
    12
 73
     8
 74
     0
 42
0.00000001
 43
0.00000001
 40
0.0
 40
0.0
 40
0.0
 40
0.0
 40
0.2215853485962091
 40
0.4437858806997362
 40
0.6680521841653349
 40
0.8428204142958673
 40
1.0
 40
1.0
 40
1.0
 40
1.0
 10
184.5992074372487
 20
82.31631460615885
 30
0.0
 10
184.8297511396427
 20
82.60039164965588
 30
0.0
 10
185.2914785988583
 20
83.16933441475102
 30
0.0
 10
186.0152827944402
 20
83.55859742027111
 30
0.0
 10
186.6901368579267
 20
83.76853468304958
 30
0.0
 10
187.2977702195983
 20
83.78643388677435
 30
0.0
 10
187.6577811026111
 20
83.63582106654657
 30
0.0
 10
187.8282487446369
 20
83.56450485491371
 30
0.0
  0
SPLINE
  5
2D2
330
1F
100
AcDbEntity
  8
0
  6
SLD-Сплошная
 62
     7
370
    25
100
AcDbSpline
210
0.0
220
0.0
230
1.0
 70
     8
 71
     3
 72
    12
 73
     8
 74
     0
 42
0.00000001
 43
0.00000001
 40
0.0
 40
0.0
 40
0.0
 40
0.0
 40
0.3053545054596208
 40
0.4539833890096948
 40
0.6107930819537276
 40
0.9058038489052574
 40
0.9999999999999999
 40
0.9999999999999999
 40
0.9999999999999999
 40
0.9999999999999999
 10
205.5918819369482
 20
82.06434834663919
 30
0.0
 10
206.0422585096726
 20
82.34422413870406
 30
0.0
 10
206.7118523069158
 20
82.76032725266383
 30
0.0
 10
207.7224346652402
 20
83.05375435177731
 30
0.0
 10
208.7303025719584
 20
83.24763096057222
 30
0.0
 10
209.6682487962623
 20
83.33632943352976
 30
0.0
 10
210.3310870350211
 20
83.27383296821833
 30
0.0
 10
210.4915076441997
 20
83.25870752666937
 30
0.0
  0
SPLINE
  5
2D3
330
1F
100
AcDbEntity
  8
0
  6
SLD-Сплошная
 62
     7
370
    25
100
AcDbSpline
210
0.0
220
0.0
230
1.0
 70
     8
 71
     3
 72
    13
 73
     9
 74
     0
 42
0.00000001
 43
0.00000001
 40
0.0
 40
0.0
 40
0.0
 40
0.0
 40
0.0870440022699476
 40
0.2002203438954911
 40
0.3200153930462379
 40
0.548845497809832
 40
0.7755675509282008
 40
1.0
 40
1.0
 40
1.0
 40
1.0
 10
187.777262596153
 20
9.046738340599546
 30
0.0
 10
187.6844733535762
 20
9.004246126050663
 30
0.0
 10
187.4710376937486
 20
8.906504689673717
 30
0.0
 10
187.1275079501357
 20
8.857560580233557
 30
0.0
 10
186.6317599561232
 20
8.877776458145956
 30
0.0
 10
186.0162774982773
 20
9.074909432393488
 30
0.0
 10
185.2911059693943
 20
9.46296961336894
 30
0.0
 10
184.8290586529791
 20
10.03283028740865
 30
0.0
 10
184.5992074372499
 20
10.31631460615877
 30
0.0
  0
SPLINE
  5
2D4
330
1F
100
AcDbEntity
  8
0
  6
SLD-Сплошная
 62
     7
370
    25
100
AcDbSpline
210
0.0
220
0.0
230
1.0
 70
     8
 71
     3
 72
    13
 73
     9
 74
     0
 42
0.00000001
 43
0.00000001
 40
0.0
 40
0.0
 40
0.0
 40
0.0
 40
0.0924798535184952
 40
0.387954166510626
 40
0.5455817815165106
 40
0.694731447858317
 40
0.8536072652940548
 40
1.0
 40
1.0
 40
1.0
 40
1.0
 10
210.515855486219
 20
9.375185145689663
 30
0.0
 10
210.3575004764635
 20
9.359754984856222
 30
0.0
 10
209.6931991882894
 20
9.295025263111295
 30
0.0
 10
208.7513028876772
 20
9.383719557866224
 30
0.0
 10
207.7321406733249
 20
9.573383471810832
 30
0.0
 10
206.9637622235455
 20
9.80915237132704
 30
0.0
 10
206.237538972187
 20
10.1188778563856
 30
0.0
 10
205.8011526932055
 20
10.4226200852856
 30
0.0
 10
205.5918819369483
 20
10.56828086567846
 30
0.0
  0
LINE
  5
2D5
330
1F
100
AcDbEntity
  8
0
  6
SLD-Сплошная
 62
     7
370
    25
100
AcDbLine
 10
181.3985332469
 20
10.3163146062
 30
0.0
 11
181.3985332469
 21
14.2663146062
 31
0.0
  0
LINE
  5
2D6
330
1F
100
AcDbEntity
  8
0
  6
SLD-Сплошная
 62
     7
370
    25
100
AcDbLine
 10
181.3985332469
 20
78.3663146062
 30
0.0
 11
181.3985332469
 21
82.3163146062
 31
0.0
  0
ARC
  5
2D7
330
1F
100
AcDbEntity
  8
0
  6
SLD-Сплошная
 62
     7
370
    25
100
AcDbCircle
 10
284.9266730281
 20
84.3163146062
 30
0.0
 40
6.000000000000057
100
AcDbArc
 50
0.0
 51
90.0
  0
ARC
  5
2D8
330
1F
100
AcDbEntity
  8
0
  6
SLD-Сплошная
 62
     7
370
    25
100
AcDbCircle
 10
284.9266730281
 20
8.3163146062
 30
0.0
 40
6.000000000000057
100
AcDbArc
 50
270.0
 51
0.0
  0
LINE
  5
2D9
330
1F
100
AcDbEntity
  8
0
  6
SLD-Сплошная
 62
     7
370
    25
100
AcDbLine
 10
173.1383301106
 20
2.3163146062
 30
0.0
 11
284.9266730281
 21
2.3163146062
 31
0.0
  0
SPLINE
  5
2DA
330
1F
100
AcDbEntity
  8
0
  6
SLD-Сплошная
 62
     7
370
    25
100
AcDbSpline
210
0.0
220
0.0
230
1.0
 70
     8
 71
     3
 72
    22
 73
    18
 74
     0
 42
0.00000001
 43
0.00000001
 40
0.0
 40
0.0
 40
0.0
 40
0.0
 40
0.125
 40
0.125
 40
0.25
 40
0.25
 40
0.375
 40
0.375
 40
0.5
 40
0.5
 40
0.625
 40
0.625
 40
0.75
 40
0.75
 40
0.875
 40
0.875
 40
1.0
 40
1.0
 40
1.0
 40
1.0
 10
166.9266730281184
 20
8.316314606158878
 30
0.0
 10
166.9266730281184
 20
7.96276121556562
 30
0.0
 10
166.9592118450418
 20
7.595986178384528
 30
0.0
 10
167.1015368642235
 20
6.853086404987469
 30
0.0
 10
167.2114478066436
 20
6.477037199939306
 30
0.0
 10
167.5141602435476
 20
5.738455497635991
 30
0.0
 10
167.7070331615854
 20
5.376072706498633
 30
0.0
 10
168.1713688690745
 20
4.690039465197401
 30
0.0
 10
168.4427998923245
 20
4.36656713785305
 30
0.0
 10
169.0492506380069
 20
3.780780700226138
 30
0.0
 10
169.3841338335283
 20
3.518598464812977
 30
0.0
 10
170.094367707217
 20
3.070084612880997
 30
0.0
 10
170.4695339790721
 20
2.883783680156515
 30
0.0
 10
171.2341700227533
 20
2.591385919412076
 30
0.0
 10
171.6234848074019
 20
2.485220101536775
 30
0.0
 10
172.3925912472319
 20
2.347744689782105
 30
0.0
 10
172.7723047067945
 20
2.316314606158873
 30
0.0
 10
173.1383301105789
 20
2.316314606158873
 30
0.0
  0
LINE
  5
2DB
330
1F
100
AcDbEntity
  8
0
  6
SLD-Сплошная
 62
     7
370
    25
100
AcDbLine
 10
166.9266730281
 20
84.3163146062
 30
0.0
 11
166.9266730281
 21
77.9663146062
 31
0.0
  0
LINE
  5
2DC
330
1F
100
AcDbEntity
  8
0
  6
SLD-Сплошная
 62
     7
370
    25
100
AcDbLine
 10
166.9266730281
 20
14.2663146062
 30
0.0
 11
166.9266730281
 21
8.3163146062
 31
0.0
  0
SPLINE
  5
2DD
330
1F
100
AcDbEntity
  8
0
  6
SLD-Сплошная
 62
     7
370
    25
100
AcDbSpline
210
0.0
220
0.0
230
1.0
 70
     8
 71
     3
 72
    22
 73
    18
 74
     0
 42
0.00000001
 43
0.00000001
 40
0.0
 40
0.0
 40
0.0
 40
0.0
 40
0.125
 40
0.125
 40
0.25
 40
0.25
 40
0.375
 40
0.375
 40
0.5
 40
0.5
 40
0.625
 40
0.625
 40
0.75
 40
0.75
 40
0.875
 40
0.875
 40
1.0
 40
1.0
 40
1.0
 40
1.0
 10
173.1383301105789
 20
90.31631460615887
 30
0.0
 10
172.7723047067945
 20
90.31631460615888
 30
0.0
 10
172.3925912472319
 20
90.28488452253565
 30
0.0
 10
171.6234848074019
 20
90.14740911078098
 30
0.0
 10
171.2341700227533
 20
90.04124329290568
 30
0.0
 10
170.469533979072
 20
89.74884553216123
 30
0.0
 10
170.094367707217
 20
89.56254459943678
 30
0.0
 10
169.3841338335283
 20
89.11403074750478
 30
0.0
 10
169.0492506380069
 20
88.8518485120916
 30
0.0
 10
168.4427998923245
 20
88.26606207446468
 30
0.0
 10
168.1713688690745
 20
87.94258974712032
 30
0.0
 10
167.7070331615854
 20
87.2565565058191
 30
0.0
 10
167.5141602435476
 20
86.89417371468174
 30
0.0
 10
167.2114478066436
 20
86.15559201237845
 30
0.0
 10
167.1015368642235
 20
85.77954280733027
 30
0.0
 10
166.9592118450418
 20
85.0366430339332
 30
0.0
 10
166.9266730281184
 20
84.66986799675213
 30
0.0
 10
166.9266730281184
 20
84.31631460615885
 30
0.0
  0
LINE
  5
2DE
330
1F
100
AcDbEntity
  8
0
  6
SLD-Сплошная
 62
     7
370
    25
100
AcDbLine
 10
284.9266730281
 20
90.3163146062
 30
0.0
 11
173.1383301106
 21
90.3163146062
 31
0.0
  0
SPLINE
  5
2DF
330
1F
100
AcDbEntity
  8
0
  6
SLD-Сплошная
 62
     7
370
    25
100
AcDbSpline
210
0.0
220
0.0
230
1.0
 70
    11
 71
     3
 72
    46
 73
    42
 74
     0
 42
0.00000001
 43
0.00000001
 40
0.0
 40
0.0
 40
0.0
 40
0.0
 40
0.0624999999999994
 40
0.0624999999999994
 40
0.1249999999999988
 40
0.1249999999999988
 40
0.1874999999999982
 40
0.1874999999999982
 40
0.2499999999999976
 40
0.2499999999999976
 40
0.3124999999999969
 40
0.3124999999999969
 40
0.3749999999999963
 40
0.3749999999999963
 40
0.4062499999999966
 40
0.4062499999999966
 40
0.4374999999999969
 40
0.4374999999999969
 40
0.4687499999999972
 40
0.4687499999999972
 40
0.4999999999999976
 40
0.4999999999999976
 40
0.5624999999999981
 40
0.5624999999999981
 40
0.6249999999999988
 40
0.6249999999999988
 40
0.6874999999999993
 40
0.6874999999999993
 40
0.75
 40
0.75
 40
0.8125000000000006
 40
0.8125000000000006
 40
0.8750000000000012
 40
0.8750000000000012
 40
0.9062500000000009
 40
0.9062500000000009
 40
0.9375000000000006
 40
0.9375000000000006
 40
0.9687500000000003
 40
0.9687500000000003
 40
1.0
 40
1.0
 40
1.0
 40
1.0
 10
285.8107652537249
 20
5.81813908457865
 30
0.0
 10
286.137775662278
 20
5.933866485374667
 30
0.0
 10
286.4376244754909
 20
6.11386115397905
 30
0.0
 10
286.947189508873
 20
6.568068393150467
 30
0.0
 10
287.1557775186257
 20
6.842844366016676
 30
0.0
 10
287.4530312459382
 20
7.449291479520753
 30
0.0
 10
287.5433863813352
 20
7.780118963841301
 30
0.0
 10
287.5952159991998
 20
8.450943675881756
 30
0.0
 10
287.5551145804571
 20
8.79094090360176
 30
0.0
 10
287.3526698064689
 20
9.434066990703469
 30
0.0
 10
287.1903387846525
 20
9.737006277607318
 30
0.0
 10
286.7582656511517
 20
10.26083217975263
 30
0.0
 10
286.490030370544
 20
10.48247127171444
 30
0.0
 10
286.0362364304049
 20
10.72878164582619
 30
0.0
 10
285.8790939581739
 20
10.79564710993736
 30
0.0
 10
285.5389377927107
 20
10.90073853195858
 30
0.0
 10
285.3525974115709
 20
10.93897041068083
 30
0.0
 10
284.9661526168418
 20
10.97310649215699
 30
0.0
 10
284.7671899802534
 20
10.96836661641921
 30
0.0
 10
284.3866570507049
 20
10.91784025858447
 30
0.0
 10
284.2060860067887
 20
10.87235382813705
 30
0.0
 10
283.7155703939591
 20
10.69876272694306
 30
0.0
 10
283.4157215807462
 20
10.51876805833871
 30
0.0
 10
282.906156547364
 20
10.06456081916728
 30
0.0
 10
282.6975685376113
 20
9.78978484630108
 30
0.0
 10
282.4003148102987
 20
9.183337732797032
 30
0.0
 10
282.3099596749018
 20
8.852510248476413
 30
0.0
 10
282.2581300570371
 20
8.181685536435973
 30
0.0
 10
282.2982314757799
 20
7.841688308715941
 30
0.0
 10
282.500676249768
 20
7.198562221614316
 30
0.0
 10
282.6630072715845
 20
6.895622934710424
 30
0.0
 10
283.0950804050853
 20
6.371797032565102
 30
0.0
 10
283.3633156856931
 20
6.150157940603266
 30
0.0
 10
283.8171096258321
 20
5.903847566491594
 30
0.0
 10
283.9742520980632
 20
5.836982102380358
 30
0.0
 10
284.3144082635264
 20
5.73189068035912
 30
0.0
 10
284.5007486446661
 20
5.693658801636914
 30
0.0
 10
284.8871934393951
 20
5.659522720160751
 30
0.0
 10
285.0861560759836
 20
5.664262595898556
 30
0.0
 10
285.4666890055321
 20
5.714788953733285
 30
0.0
 10
285.6472600494483
 20
5.760275384180641
 30
0.0
 10
285.8107652537249
 20
5.81813908457865
 30
0.0
  0
SPLINE
  5
2E0
330
1F
100
AcDbEntity
  8
0
  6
SLD-Сплошная
 62
     7
370
    25
100
AcDbSpline
210
0.0
220
0.0
230
1.0
 70
    11
 71
     3
 72
    46
 73
    42
 74
     0
 42
0.00000001
 43
0.00000001
 40
0.0
 40
0.0
 40
0.0
 40
0.0
 40
0.0624999999999988
 40
0.0624999999999988
 40
0.1249999999999975
 40
0.1249999999999975
 40
0.1874999999999963
 40
0.1874999999999963
 40
0.249999999999995
 40
0.249999999999995
 40
0.3124999999999938
 40
0.3124999999999938
 40
0.3749999999999925
 40
0.3749999999999925
 40
0.4062499999999925
 40
0.4062499999999925
 40
0.4374999999999923
 40
0.4374999999999923
 40
0.4687499999999923
 40
0.4687499999999923
 40
0.4999999999999922
 40
0.4999999999999922
 40
0.5624999999999932
 40
0.5624999999999932
 40
0.6249999999999941
 40
0.6249999999999941
 40
0.6874999999999951
 40
0.6874999999999951
 40
0.7499999999999961
 40
0.7499999999999961
 40
0.8124999999999971
 40
0.8124999999999971
 40
0.874999999999998
 40
0.874999999999998
 40
0.9062499999999986
 40
0.9062499999999986
 40
0.937499999999999
 40
0.937499999999999
 40
0.9687499999999996
 40
0.9687499999999996
 40
1.0
 40
1.0
 40
1.0
 40
1.0
 10
172.0425808025121
 20
10.81449012773898
 30
0.0
 10
171.715570393959
 20
10.69876272694309
 30
0.0
 10
171.4157215807462
 20
10.51876805833871
 30
0.0
 10
170.9061565473641
 20
10.06456081916729
 30
0.0
 10
170.6975685376113
 20
9.789784846301039
 30
0.0
 10
170.4003148102988
 20
9.183337732796948
 30
0.0
 10
170.3099596749018
 20
8.852510248476387
 30
0.0
 10
170.2581300570371
 20
8.181685536435849
 30
0.0
 10
170.2982314757798
 20
7.841688308715885
 30
0.0
 10
170.5006762497681
 20
7.198562221614329
 30
0.0
 10
170.6630072715846
 20
6.895622934710466
 30
0.0
 10
171.0950804050854
 20
6.371797032565158
 30
0.0
 10
171.3633156856931
 20
6.150157940603195
 30
0.0
 10
171.817109625832
 20
5.90384756649151
 30
0.0
 10
171.974252098063
 20
5.836982102380358
 30
0.0
 10
172.3144082635263
 20
5.731890680359133
 30
0.0
 10
172.500748644666
 20
5.693658801636844
 30
0.0
 10
172.8871934393952
 20
5.659522720160625
 30
0.0
 10
173.0861560759836
 20
5.664262595898473
 30
0.0
 10
173.4666890055321
 20
5.714788953733285
 30
0.0
 10
173.6472600494483
 20
5.76027538418071
 30
0.0
 10
174.1377756622779
 20
5.933866485374556
 30
0.0
 10
174.4376244754908
 20
6.113861153978925
 30
0.0
 10
174.947189508873
 20
6.568068393150467
 30
0.0
 10
175.1557775186257
 20
6.84284436601669
 30
0.0
 10
175.4530312459382
 20
7.449291479520642
 30
0.0
 10
175.5433863813351
 20
7.780118963841246
 30
0.0
 10
175.5952159991998
 20
8.450943675881783
 30
0.0
 10
175.5551145804571
 20
8.79094090360176
 30
0.0
 10
175.3526698064689
 20
9.434066990703357
 30
0.0
 10
175.1903387846525
 20
9.737006277607248
 30
0.0
 10
174.7582656511517
 20
10.26083217975267
 30
0.0
 10
174.4900303705439
 20
10.48247127171444
 30
0.0
 10
174.0362364304048
 20
10.72878164582615
 30
0.0
 10
173.8790939581738
 20
10.79564710993734
 30
0.0
 10
173.5389377927106
 20
10.90073853195859
 30
0.0
 10
173.3525974115709
 20
10.93897041068081
 30
0.0
 10
172.9661526168418
 20
10.97310649215695
 30
0.0
 10
172.7671899802533
 20
10.96836661641919
 30
0.0
 10
172.3866570507049
 20
10.91784025858446
 30
0.0
 10
172.2060860067888
 20
10.87235382813694
 30
0.0
 10
172.0425808025121
 20
10.81449012773898
 30
0.0
  0
SPLINE
  5
2E1
330
1F
100
AcDbEntity
  8
0
  6
SLD-Сплошная
 62
     7
370
    25
100
AcDbSpline
210
0.0
220
0.0
230
1.0
 70
    11
 71
     3
 72
    37
 73
    33
 74
     0
 42
0.00000001
 43
0.00000001
 40
0.0
 40
0.0
 40
0.0
 40
0.0
 40
0.0298622295626959
 40
0.0595695560835435
 40
0.0883456283495673
 40
0.1168390417217153
 40
0.1638872636085605
 40
0.1946791536119773
 40
0.2174645934307822
 40
0.2402713179167791
 40
0.278417988781274
 40
0.3162703765888223
 40
0.3616522051979947
 40
0.3922462750002076
 40
0.4226752745578128
 40
0.4614311790004777
 40
0.5000148402605855
 40
0.5296934059298759
 40
0.5594051399970875
 40
0.5942627156567348
 40
0.6290244706315747
 40
0.6542580340414211
 40
0.6793096264609613
 40
0.7174337268716088
 40
0.7556476613545878
 40
0.8010304298071907
 40
0.8464933602590351
 40
0.887810506247788
 40
0.9073808150303662
 40
0.9302745606628561
 40
0.9652678352569025
 40
1.0
 40
1.0
 40
1.0
 40
1.0
 10
172.0425808025121
 20
86.81449012773902
 30
0.0
 10
172.198798423585
 20
86.86984778271511
 30
0.0
 10
172.5203947916135
 20
86.95171958080202
 30
0.0
 10
173.01184388242
 20
86.9795546375213
 30
0.0
 10
173.4926893980478
 20
86.92068528685479
 30
0.0
 10
174.0463760253127
 20
86.74608688402589
 30
0.0
 10
174.5595142946069
 20
86.43764159475754
 30
0.0
 10
174.9553194954535
 20
86.04082269853822
 30
0.0
 10
175.2017742775304
 20
85.69501386733184
 30
0.0
 10
175.4122593600596
 20
85.2801462808126
 30
0.0
 10
175.5683950572667
 20
84.74973134372529
 30
0.0
 10
175.5959204494555
 20
84.07172934076189
 30
0.0
 10
175.4570038143338
 20
83.44744960231823
 30
0.0
 10
175.19614503901
 20
82.91507317182487
 30
0.0
 10
174.8591219050959
 20
82.4729554683159
 30
0.0
 10
174.4008071836356
 20
82.08097490235747
 30
0.0
 10
173.8637189556284
 20
81.81620933157113
 30
0.0
 10
173.3349036712277
 20
81.68146394106569
 30
0.0
 10
172.8107796596634
 20
81.65121945749193
 30
0.0
 10
172.2613190197704
 20
81.72748649516143
 30
0.0
 10
171.7665144980659
 20
81.91700602903309
 30
0.0
 10
171.3628360318117
 20
82.16332688348906
 30
0.0
 10
170.9892451180151
 20
82.48274381942473
 30
0.0
 10
170.6372798921612
 20
82.92796473847241
 30
0.0
 10
170.3594470162597
 20
83.54910972021753
 30
0.0
 10
170.2395461518999
 20
84.26384257983433
 30
0.0
 10
170.3321555604595
 20
85.00037459645608
 30
0.0
 10
170.562167797876
 20
85.55020010106226
 30
0.0
 10
170.8194317325926
 20
85.93770677636896
 30
0.0
 10
171.1048586979013
 20
86.25988808760451
 30
0.0
 10
171.5097089148649
 20
86.58197413197284
 30
0.0
 10
171.8608871972343
 20
86.7501047412298
 30
0.0
 10
172.0425808025121
 20
86.81449012773902
 30
0.0
  0
SPLINE
  5
2E2
330
1F
100
AcDbEntity
  8
0
  6
SLD-Сплошная
 62
     7
370
    25
100
AcDbSpline
210
0.0
220
0.0
230
1.0
 70
    11
 71
     3
 72
    40
 73
    36
 74
     0
 42
0.00000001
 43
0.00000001
 40
0.0
 40
0.0
 40
0.0
 40
0.0
 40
0.0366420325259248
 40
0.0734897040384288
 40
0.0977644403914443
 40
0.1221207316691016
 40
0.1468667134776714
 40
0.1710039979085836
 40
0.2064886215464514
 40
0.2497350928519777
 40
0.2740436235973357
 40
0.2986522138443031
 40
0.3279675687042863
 40
0.3572566513272328
 40
0.3956789005811722
 40
0.4340519507073165
 40
0.4638991408804231
 40
0.4937843693298478
 40
0.5176936834784839
 40
0.5415168728219261
 40
0.5792880169402403
 40
0.6023241129287747
 40
0.6255409271647938
 40
0.6497592663522593
 40
0.6739158772847083
 40
0.7121766389760038
 40
0.7526862415873015
 40
0.7760032281164361
 40
0.8001476278802966
 40
0.83997072710268
 40
0.8812071176747495
 40
0.9036537599968658
 40
0.9262685458475537
 40
0.9565402260664978
 40
1.0
 40
1.0
 40
1.0
 40
1.0
 10
284.042580802512
 20
81.81813908457869
 30
0.0
 10
283.8505600139325
 20
81.88589633836597
 30
0.0
 10
283.4814445356624
 20
82.06586832920844
 30
0.0
 10
283.0594355516135
 20
82.4135960047784
 30
0.0
 10
282.7546726669187
 20
82.77831026577302
 30
0.0
 10
282.5459061046852
 20
83.1291146072832
 30
0.0
 10
282.3921538214378
 20
83.50641791344418
 30
0.0
 10
282.2846481679728
 20
83.96304207102965
 30
0.0
 10
282.2569824172392
 20
84.53717971264471
 30
0.0
 10
282.3759774944436
 20
85.10345246266992
 30
0.0
 10
282.5806163801993
 20
85.57311170109442
 30
0.0
 10
282.8155263302349
 20
85.93953670812193
 30
0.0
 10
283.1273132382802
 20
86.28290483224245
 30
0.0
 10
283.5588151210978
 20
86.60815231278464
 30
0.0
 10
284.0957485592545
 20
86.86165407725271
 30
0.0
 10
284.6817956528363
 20
86.9748674562777
 30
0.0
 10
285.2282675999599
 20
86.96574934392181
 30
0.0
 10
285.6843590368884
 20
86.86858889014273
 30
0.0
 10
286.0861007004766
 20
86.71077043893547
 30
0.0
 10
286.4967293503578
 20
86.47131104404927
 30
0.0
 10
286.8534733748502
 20
86.15953613123861
 30
0.0
 10
287.1405978562104
 20
85.79117517567221
 30
0.0
 10
287.3327097023865
 20
85.4496267841391
 30
0.0
 10
287.4759061205372
 20
85.07804220177489
 30
0.0
 10
287.5778804724054
 20
84.60728877397432
 30
0.0
 10
287.5901300968717
 20
84.03128457431663
 30
0.0
 10
287.4577306035062
 20
83.47467000295094
 30
0.0
 10
287.2556882798498
 20
83.02943727694928
 30
0.0
 10
286.9894641689124
 20
82.62348850202933
 30
0.0
 10
286.5750082875302
 20
82.20473167206012
 30
0.0
 10
286.0759870216348
 20
81.90852045132542
 30
0.0
 10
285.6235082315854
 20
81.7496108555634
 30
0.0
 10
285.2123656950131
 20
81.66971766454394
 30
0.0
 10
284.6757596225231
 20
81.65388323468855
 30
0.0
 10
284.2703296332106
 20
81.73777468530943
 30
0.0
 10
284.042580802512
 20
81.81813908457869
 30
0.0
  0
LINE
  5
2E3
330
1F
100
AcDbEntity
  8
0
  6
SLD-Сплошная
 62
     7
370
    25
100
AcDbLine
 10
290.9266730281
 20
84.3163146062
 30
0.0
 11
290.9266730281
 21
66.4095642221
 31
0.0
  0
LINE
  5
2E4
330
1F
100
AcDbEntity
  8
0
  6
SLD-Сплошная
 62
     7
370
    25
100
AcDbLine
 10
290.9266730281
 20
26.2241710312
 30
0.0
 11
290.9266730281
 21
8.3163146062
 31
0.0
  0
SPLINE
  5
2E5
330
1F
100
AcDbEntity
  8
0
  6
SLD-Сплошная
 62
     7
370
    25
100
AcDbSpline
210
0.0
220
0.0
230
1.0
 70
     8
 71
     3
 72
    22
 73
    18
 74
     0
 42
0.00000001
 43
0.00000001
 40
0.0
 40
0.0
 40
0.0
 40
0.0
 40
0.1250000000000006
 40
0.1250000000000006
 40
0.2500000000000012
 40
0.2500000000000012
 40
0.375000000000001
 40
0.375000000000001
 40
0.5000000000000008
 40
0.5000000000000008
 40
0.6250000000000006
 40
0.6250000000000006
 40
0.7500000000000004
 40
0.7500000000000004
 40
0.8750000000000002
 40
0.8750000000000002
 40
1.0
 40
1.0
 40
1.0
 40
1.0
 10
165.0510286811006
 20
84.31631460615888
 30
0.0
 10
165.0510286811006
 20
84.66986799675215
 30
0.0
 10
165.0835674980241
 20
85.03664303393322
 30
0.0
 10
165.2258925172057
 20
85.77954280733027
 30
0.0
 10
165.3358034596258
 20
86.15559201237846
 30
0.0
 10
165.6385158965297
 20
86.89417371468176
 30
0.0
 10
165.8313888145676
 20
87.25655650581912
 30
0.0
 10
166.2957245220568
 20
87.94258974712035
 30
0.0
 10
166.5671555453067
 20
88.26606207446471
 30
0.0
 10
167.1736062909891
 20
88.85184851209162
 30
0.0
 10
167.5084894865105
 20
89.11403074750478
 30
0.0
 10
168.2187233601992
 20
89.56254459943678
 30
0.0
 10
168.5938896320542
 20
89.74884553216124
 30
0.0
 10
169.3585256757356
 20
90.04124329290568
 30
0.0
 10
169.7478404603841
 20
90.14740911078101
 30
0.0
 10
170.5169469002141
 20
90.28488452253563
 30
0.0
 10
170.8966603597767
 20
90.31631460615887
 30
0.0
 10
171.2626857635611
 20
90.31631460615887
 30
0.0
  0
LINE
  5
2E6
330
1F
100
AcDbEntity
  8
0
  6
SLD-Сплошная
 62
     7
370
    25
100
AcDbLine
 10
171.2626857636
 20
90.3163146062
 30
0.0
 11
173.1383301106
 21
90.3163146062
 31
0.0
  0
LINE
  5
2E7
330
1F
100
AcDbEntity
  8
0
  6
SLD-Сплошная
 62
     7
370
    25
100
AcDbLine
 10
165.0510286811
 20
84.3163146062
 30
0.0
 11
165.0510286811
 21
77.9663146062
 31
0.0
  0
LINE
  5
2E8
330
1F
100
AcDbEntity
  8
0
  6
SLD-Сплошная
 62
     7
370
    25
100
AcDbLine
 10
165.0510286811
 20
14.2663146062
 30
0.0
 11
165.0510286811
 21
8.3163146062
 31
0.0
  0
SPLINE
  5
2E9
330
1F
100
AcDbEntity
  8
0
  6
SLD-Сплошная
 62
     7
370
    25
100
AcDbSpline
210
0.0
220
0.0
230
1.0
 70
     8
 71
     3
 72
    22
 73
    18
 74
     0
 42
0.00000001
 43
0.00000001
 40
0.0
 40
0.0
 40
0.0
 40
0.0
 40
0.1250000000000002
 40
0.1250000000000002
 40
0.2500000000000004
 40
0.2500000000000004
 40
0.3750000000000006
 40
0.3750000000000006
 40
0.5000000000000008
 40
0.5000000000000008
 40
0.625000000000001
 40
0.625000000000001
 40
0.7500000000000011
 40
0.7500000000000011
 40
0.8750000000000006
 40
0.8750000000000006
 40
1.0
 40
1.0
 40
1.0
 40
1.0
 10
171.2626857635611
 20
2.316314606158873
 30
0.0
 10
170.8966603597767
 20
2.316314606158873
 30
0.0
 10
170.5169469002141
 20
2.347744689782119
 30
0.0
 10
169.7478404603841
 20
2.485220101536789
 30
0.0
 10
169.3585256757356
 20
2.591385919412104
 30
0.0
 10
168.5938896320543
 20
2.883783680156557
 30
0.0
 10
168.2187233601992
 20
3.07008461288101
 30
0.0
 10
167.5084894865106
 20
3.518598464813005
 30
0.0
 10
167.1736062909891
 20
3.78078070022618
 30
0.0
 10
166.5671555453067
 20
4.366567137853078
 30
0.0
 10
166.2957245220567
 20
4.690039465197443
 30
0.0
 10
165.8313888145676
 20
5.376072706498674
 30
0.0
 10
165.6385158965298
 20
5.738455497636047
 30
0.0
 10
165.3358034596259
 20
6.477037199939334
 30
0.0
 10
165.2258925172057
 20
6.85308640498751
 30
0.0
 10
165.0835674980241
 20
7.595986178384583
 30
0.0
 10
165.0510286811007
 20
7.96276121556562
 30
0.0
 10
165.0510286811006
 20
8.316314606158878
 30
0.0
  0
LINE
  5
2EA
330
1F
100
AcDbEntity
  8
0
  6
SLD-Сплошная
 62
     7
370
    25
100
AcDbLine
 10
173.1383301106
 20
2.3163146062
 30
0.0
 11
171.2626857636
 21
2.3163146062
 31
0.0
  0
SPLINE
  5
2EB
330
1F
100
AcDbEntity
  8
0
  6
SLD-Сплошная
 62
     7
370
    25
100
AcDbSpline
210
0.0
220
0.0
230
1.0
 70
     8
 71
     3
 72
    10
 73
     6
 74
     0
 42
0.00000001
 43
0.00000001
 40
0.0
 40
0.0
 40
0.0
 40
0.0
 40
0.5
 40
0.5
 40
1.0
 40
1.0
 40
1.0
 40
1.0
 10
180.9426263243725
 20
52.81631460615887
 30
0.0
 10
180.9964355259497
 20
52.90662275659162
 30
0.0
 10
181.0335562802547
 20
53.00475840684103
 30
0.0
 10
181.0464372729004
 20
53.16971970807327
 30
0.0
 10
181.0220336139213
 20
53.234446396976
 30
0.0
 10
180.9781870594962
 20
53.27172555934677
 30
0.0
  0
LINE
  5
2EC
330
1F
100
AcDbEntity
  8
0
  6
SLD-Сплошная
 62
     7
370
    25
100
AcDbLine
 10
180.192109811
 20
53.3163146062
 30
0.0
 11
180.8681638631
 21
53.3163146062
 31
0.0
  0
SPLINE
  5
2ED
330
1F
100
AcDbEntity
  8
0
  6
SLD-Сплошная
 62
     7
370
    25
100
AcDbSpline
210
0.0
220
0.0
230
1.0
 70
     8
 71
     3
 72
     8
 73
     4
 74
     0
 42
0.00000001
 43
0.00000001
 40
0.0
 40
0.0
 40
0.0
 40
0.0
 40
1.0
 40
1.0
 40
1.0
 40
1.0
 10
180.8681638630527
 20
53.31631460615887
 30
0.0
 10
180.9056843007
 20
53.31631460615885
 30
0.0
 10
180.9440126229501
 20
53.30078130581602
 30
0.0
 10
180.9781870594962
 20
53.27172555934677
 30
0.0
  0
SPLINE
  5
2EE
330
1F
100
AcDbEntity
  8
0
  6
SLD-Сплошная
 62
     7
370
    25
100
AcDbSpline
210
0.0
220
0.0
230
1.0
 70
     8
 71
     3
 72
    10
 73
     6
 74
     0
 42
0.00000001
 43
0.00000001
 40
0.0
 40
0.0
 40
0.0
 40
0.0
 40
0.5
 40
0.5
 40
1.0
 40
1.0
 40
1.0
 40
1.0
 10
180.9426263243725
 20
39.81631460615883
 30
0.0
 10
180.9964355259497
 20
39.72600645572608
 30
0.0
 10
181.0335562802547
 20
39.62787080547665
 30
0.0
 10
181.0464372729003
 20
39.46290950424443
 30
0.0
 10
181.0220336139213
 20
39.39818281534168
 30
0.0
 10
180.9781870594962
 20
39.36090365297092
 30
0.0
  0
SPLINE
  5
2EF
330
1F
100
AcDbEntity
  8
0
  6
SLD-Сплошная
 62
     7
370
    25
100
AcDbSpline
210
0.0
220
0.0
230
1.0
 70
     8
 71
     3
 72
     8
 73
     4
 74
     0
 42
0.00000001
 43
0.00000001
 40
0.0
 40
0.0
 40
0.0
 40
0.0
 40
1.0
 40
1.0
 40
1.0
 40
1.0
 10
180.9781870594962
 20
39.36090365297092
 30
0.0
 10
180.9440126229501
 20
39.33184790650166
 30
0.0
 10
180.9056843007
 20
39.31631460615883
 30
0.0
 10
180.8681638630527
 20
39.31631460615882
 30
0.0
  0
LINE
  5
2F0
330
1F
100
AcDbEntity
  8
0
  6
SLD-Сплошная
 62
     7
370
    25
100
AcDbLine
 10
180.8681638631
 20
39.3163146062
 30
0.0
 11
180.192109811
 21
39.3163146062
 31
0.0
  0
SPLINE
  5
2F1
330
1F
100
AcDbEntity
  8
0
  6
SLD-Сплошная
 62
     7
370
    25
100
AcDbSpline
210
0.0
220
0.0
230
1.0
 70
     8
 71
     3
 72
    17
 73
    13
 74
     0
 42
0.00000001
 43
0.00000001
 40
0.0
 40
0.0
 40
0.0
 40
0.0
 40
0.0477534722789732
 40
0.0956426731315786
 40
0.1447900000766005
 40
0.1962355670805346
 40
0.2508884256479284
 40
0.3698539033954122
 40
0.5009347211060284
 40
0.6655557747096339
 40
0.8304186627027315
 40
1.0
 40
1.0
 40
1.0
 40
1.0
 10
174.2934425277913
 20
52.81631460615888
 30
0.0
 10
174.2943175876283
 20
52.83239920597216
 30
0.0
 10
174.2960701944644
 20
52.86461412247932
 30
0.0
 10
174.3082562169216
 20
52.91211294999989
 30
0.0
 10
174.3274211770708
 20
52.95842321181409
 30
0.0
 10
174.3541838699078
 20
53.00351462189186
 30
0.0
 10
174.4007798706718
 20
53.06343775880869
 30
0.0
 10
174.47690229554
 20
53.13335004484917
 30
0.0
 10
174.5958778772175
 20
53.20728643115918
 30
0.0
 10
174.7387612081647
 20
53.26815491285334
 30
0.0
 10
174.9021672527829
 20
53.30914407562722
 30
0.0
 10
175.0139889458991
 20
53.31390205360807
 30
0.0
 10
175.0706886010988
 20
53.31631460615887
 30
0.0
  0
LINE
  5
2F2
330
1F
100
AcDbEntity
  8
0
  6
SLD-Сплошная
 62
     7
370
    25
100
AcDbLine
 10
175.0706886011
 20
53.3163146062
 30
0.0
 11
180.192109811
 21
53.3163146062
 31
0.0
  0
LINE
  5
2F3
330
1F
100
AcDbEntity
  8
0
  6
SLD-Сплошная
 62
     7
370
    25
100
AcDbLine
 10
174.2934425278
 20
39.8163146062
 30
0.0
 11
174.2934425278
 21
52.8163146062
 31
0.0
  0
SPLINE
  5
2F4
330
1F
100
AcDbEntity
  8
0
  6
SLD-Сплошная
 62
     7
370
    25
100
AcDbSpline
210
0.0
220
0.0
230
1.0
 70
     8
 71
     3
 72
    16
 73
    12
 74
     0
 42
0.00000001
 43
0.00000001
 40
0.0
 40
0.0
 40
0.0
 40
0.0
 40
0.0826057614838077
 40
0.1651284793140401
 40
0.2489988489106001
 40
0.3748844872493892
 40
0.4995993753322419
 40
0.6243067119426716
 40
0.7497516304804289
 40
0.8749854414078349
 40
1.0
 40
1.0
 40
1.0
 40
1.0
 10
177.541670027533
 20
50.81631466327334
 30
0.0
 10
177.5563149145628
 20
50.81550914981901
 30
0.0
 10
177.5855899661033
 20
50.81389893269385
 30
0.0
 10
177.6287771562133
 20
50.80057751996868
 30
0.0
 10
177.6775157639426
 20
50.77598123680558
 30
0.0
 10
177.7296959667642
 20
50.73498862520407
 30
0.0
 10
177.7805732582215
 20
50.67238959894426
 30
0.0
 10
177.8222657518031
 20
50.5962652419875
 30
0.0
 10
177.8526950652852
 20
50.50903165799188
 30
0.0
 10
177.8726062202021
 20
50.41458082828369
 30
0.0
 10
177.8750494186546
 20
50.34905087575325
 30
0.0
 10
177.8762699475903
 20
50.31631460615882
 30
0.0
  0
SPLINE
  5
2F5
330
1F
100
AcDbEntity
  8
0
  6
SLD-Сплошная
 62
     7
370
    25
100
AcDbSpline
210
0.0
220
0.0
230
1.0
 70
     8
 71
     3
 72
    15
 73
    11
 74
     0
 42
0.00000001
 43
0.00000001
 40
0.0
 40
0.0
 40
0.0
 40
0.0
 40
0.0836897243194295
 40
0.1670480346055985
 40
0.251533733408668
 40
0.3770447412138473
 40
0.5013934448415827
 40
0.7504955524192596
 40
0.999563511773133
 40
1.0
 40
1.0
 40
1.0
 40
1.0
 10
177.8762709518147
 20
42.31631460615883
 30
0.0
 10
177.8757179578471
 20
42.29448127894053
 30
0.0
 10
177.874614159786
 20
42.25090108519061
 30
0.0
 10
177.8657061599803
 20
42.18642635500383
 30
0.0
 10
177.8493263761554
 20
42.11393258311804
 30
0.0
 10
177.8221102637163
 20
42.03638645336004
 30
0.0
 10
177.767067322636
 20
41.93514813869893
 30
0.0
 10
177.6742776949095
 20
41.8433714162125
 30
0.0
 10
177.5858758318581
 20
41.81633980936447
 30
0.0
 10
177.5417472490375
 20
41.81631459315808
 30
0.0
 10
177.5416700495845
 20
41.81631454904433
 30
0.0
  0
LINE
  5
2F6
330
1F
100
AcDbEntity
  8
0
  6
SLD-Сплошная
 62
     7
370
    25
100
AcDbLine
 10
177.8762709518
 20
42.3163146062
 30
0.0
 11
177.8762709518
 21
50.3163146062
 31
0.0
  0
LINE
  5
2F7
330
1F
100
AcDbEntity
  8
0
  6
SLD-Сплошная
 62
     7
370
    25
100
AcDbLine
 10
179.119206164
 20
42.3163146062
 30
0.0
 11
179.119206164
 21
50.3163146062
 31
0.0
  0
SPLINE
  5
2F8
330
1F
100
AcDbEntity
  8
0
  6
SLD-Сплошная
 62
     7
370
    25
100
AcDbSpline
210
0.0
220
0.0
230
1.0
 70
     8
 71
     3
 72
    16
 73
    12
 74
     0
 42
0.00000001
 43
0.00000001
 40
0.0
 40
0.0
 40
0.0
 40
0.0
 40
0.0826057614683089
 40
0.1651284792984764
 40
0.2489988489112387
 40
0.3748844872418726
 40
0.4995993753323824
 40
0.6243067119263925
 40
0.7497516304803465
 40
0.8749854413992382
 40
1.0
 40
1.0
 40
1.0
 40
1.0
 10
176.1130197165459
 20
50.81631466327337
 30
0.0
 10
176.129178251243
 20
50.81550914982083
 30
0.0
 10
176.1614790764493
 20
50.81389893269908
 30
0.0
 10
176.2091687022493
 20
50.80057751997229
 30
0.0
 10
176.2630198799348
 20
50.77598123680801
 30
0.0
 10
176.3207195823231
 20
50.73498862520368
 30
0.0
 10
176.377025620049
 20
50.67238959894894
 30
0.0
 10
176.4232000053423
 20
50.59626524199097
 30
0.0
 10
176.4569193470379
 20
50.5090316579978
 30
0.0
 10
176.4789921966224
 20
50.41458082828636
 30
0.0
 10
176.4817011915974
 20
50.34905087575564
 30
0.0
 10
176.483054502357
 20
50.31631460615882
 30
0.0
  0
SPLINE
  5
2F9
330
1F
100
AcDbEntity
  8
0
  6
SLD-Сплошная
 62
     7
370
    25
100
AcDbSpline
210
0.0
220
0.0
230
1.0
 70
     8
 71
     3
 72
    15
 73
    11
 74
     0
 42
0.00000001
 43
0.00000001
 40
0.0
 40
0.0
 40
0.0
 40
0.0
 40
0.0836897301044049
 40
0.1670480433187593
 40
0.2515337397899159
 40
0.3770447544510865
 40
0.5013934519904804
 40
0.7504955559966026
 40
0.9995635117794047
 40
0.9999999999999999
 40
0.9999999999999999
 40
0.9999999999999999
 40
0.9999999999999999
 10
176.4830556567177
 20
42.31631460615883
 30
0.0
 10
176.4824425162592
 20
42.29448127750164
 30
0.0
 10
176.4812186634191
 20
42.25090108161896
 30
0.0
 10
176.4713427214391
 20
42.18642635255303
 30
0.0
 10
176.4531864893317
 20
42.1139325814032
 30
0.0
 10
176.4230278098031
 20
42.03638645341529
 30
0.0
 10
176.3620676040019
 20
41.93514813799123
 30
0.0
 10
176.2594053108254
 20
41.84337141623856
 30
0.0
 10
176.1617855074446
 20
41.81633980936558
 30
0.0
 10
176.1131049037244
 20
41.81631459315808
 30
0.0
 10
176.1130197408722
 20
41.81631454904433
 30
0.0
  0
LINE
  5
2FA
330
1F
100
AcDbEntity
  8
0
  6
SLD-Сплошная
 62
     7
370
    25
100
AcDbLine
 10
176.4830556567
 20
42.3163146062
 30
0.0
 11
176.4830556567
 21
50.3163146062
 31
0.0
  0
LINE
  5
2FB
330
1F
100
AcDbEntity
  8
0
  6
SLD-Сплошная
 62
     7
370
    25
100
AcDbLine
 10
180.192109811
 20
39.3163146062
 30
0.0
 11
175.0706886011
 21
39.3163146062
 31
0.0
  0
SPLINE
  5
2FC
330
1F
100
AcDbEntity
  8
0
  6
SLD-Сплошная
 62
     7
370
    25
100
AcDbSpline
210
0.0
220
0.0
230
1.0
 70
     8
 71
     3
 72
    17
 73
    13
 74
     0
 42
0.00000001
 43
0.00000001
 40
0.0
 40
0.0
 40
0.0
 40
0.0
 40
0.0825929892546072
 40
0.1654898969898483
 40
0.2492025200093463
 40
0.3762640152340996
 40
0.499227486011023
 40
0.7486052628857919
 40
0.8130341034661838
 40
0.8745703974434675
 40
0.9385561250902117
 40
1.0
 40
1.0
 40
1.0
 40
1.0
 10
175.0706886010988
 20
39.31631460615886
 30
0.0
 10
175.0431508143489
 20
39.31695051390452
 30
0.0
 10
174.9879739097024
 20
39.3182246693537
 30
0.0
 10
174.9052231463795
 20
39.32854816646529
 30
0.0
 10
174.8088291085734
 20
39.34777760273443
 30
0.0
 10
174.7013784926674
 20
39.38024216138302
 30
0.0
 10
174.5483100191866
 20
39.44841684849487
 30
0.0
 10
174.4252367683394
 20
39.53607034606806
 30
0.0
 10
174.3485368750138
 20
39.63687747094684
 30
0.0
 10
174.3183433553072
 20
39.69334764988781
 30
0.0
 10
174.29755593659
 20
39.75337404498648
 30
0.0
 10
174.2947950138642
 20
39.79561979157167
 30
0.0
 10
174.2934425277913
 20
39.81631460615886
 30
0.0
  0
LWPOLYLINE
  5
2FD
330
1F
100
AcDbEntity
  8
0
  6
SLD-Сплошная
 62
     7
370
    25
100
AcDbPolyline
 90
        9
 70
   128
 43
0.0
 10
178.8177460888
 20
50.8162267627
 10
178.8762546903
 20
50.8082411554
 10
178.9326792877
 20
50.7808986924
 10
178.9847996251
 20
50.7352752745
 10
179.0305648153
 20
50.6731661409
 10
179.0681740403
 20
50.5970152289
 10
179.096147412
 20
50.5098190064
 10
179.1133842038
 20
50.4150085643
 10
179.119206164
 20
50.3163146062
  0
LWPOLYLINE
  5
2FE
330
1F
100
AcDbEntity
  8
0
  6
SLD-Сплошная
 62
     7
370
    25
100
AcDbPolyline
 90
        9
 70
   128
 43
0.0
 10
178.8177460888
 20
41.8164024496
 10
178.8762546903
 20
41.8243880569
 10
178.9326792877
 20
41.8517305199
 10
178.9847996251
 20
41.8973539378
 10
179.0305648153
 20
41.9594630714
 10
179.0681740403
 20
42.0356139835
 10
179.096147412
 20
42.1228102059
 10
179.1133842038
 20
42.217620648
 10
179.119206164
 20
42.3163146062
  0
LINE
  5
2FF
330
1F
100
AcDbEntity
  8
0
  6
SLD-Сплошная
 62
     7
370
    25
100
AcDbLine
 10
173.7614358115
 20
39.3163146062
 30
0.0
 11
173.7614358115
 21
36.3163146062
 31
0.0
  0
LINE
  5
300
330
1F
100
AcDbEntity
  8
0
  6
SLD-Сплошная
 62
     7
370
    25
100
AcDbLine
 10
172.2356606278
 20
36.3163146062
 30
0.0
 11
173.7614358115
 21
36.3163146062
 31
0.0
  0
LINE
  5
301
330
1F
100
AcDbEntity
  8
0
  6
SLD-Сплошная
 62
     7
370
    25
100
AcDbLine
 10
173.7614358115
 20
56.3163146062
 30
0.0
 11
172.2356606278
 21
56.3163146062
 31
0.0
  0
LINE
  5
302
330
1F
100
AcDbEntity
  8
0
  6
SLD-Сплошная
 62
     7
370
    25
100
AcDbLine
 10
173.7614358115
 20
56.3163146062
 30
0.0
 11
173.7614358115
 21
53.3163146062
 31
0.0
  0
LINE
  5
303
330
1F
100
AcDbEntity
  8
0
  6
SLD-Сплошная
 62
     7
370
    25
100
AcDbLine
 10
175.0706886011
 20
39.3163146062
 30
0.0
 11
173.7614358115
 21
39.3163146062
 31
0.0
  0
LINE
  5
304
330
1F
100
AcDbEntity
  8
0
  6
SLD-Сплошная
 62
     7
370
    25
100
AcDbLine
 10
173.7614358115
 20
53.3163146062
 30
0.0
 11
175.0706886011
 21
53.3163146062
 31
0.0
  0
LINE
  5
305
330
1F
100
AcDbEntity
  8
0
  6
SLD-Сплошная
 62
     7
370
    25
100
AcDbLine
 10
177.7340073187
 20
53.3163146062
 30
0.0
 11
177.7340073187
 21
56.3163146062
 31
0.0
  0
LINE
  5
306
330
1F
100
AcDbEntity
  8
0
  6
SLD-Сплошная
 62
     7
370
    25
100
AcDbLine
 10
173.7614358115
 20
56.3163146062
 30
0.0
 11
177.7340073187
 21
56.3163146062
 31
0.0
  0
LINE
  5
307
330
1F
100
AcDbEntity
  8
0
  6
SLD-Сплошная
 62
     7
370
    25
100
AcDbLine
 10
177.7340073187
 20
36.3163146062
 30
0.0
 11
177.7340073187
 21
39.3163146062
 31
0.0
  0
LINE
  5
308
330
1F
100
AcDbEntity
  8
0
  6
SLD-Сплошная
 62
     7
370
    25
100
AcDbLine
 10
177.7340073187
 20
36.3163146062
 30
0.0
 11
173.7614358115
 21
36.3163146062
 31
0.0
  0
LINE
  5
309
330
1F
100
AcDbEntity
  8
0
  6
SLD-Сплошная
 62
     7
370
    25
100
AcDbLine
 10
147.6439453782
 20
56.3163146062
 30
0.0
 11
147.6439453782
 21
36.3163146062
 31
0.0
  0
LINE
  5
30A
330
1F
100
AcDbEntity
  8
0
  6
SLD-Сплошная
 62
     7
370
    25
100
AcDbLine
 10
147.6439453782
 20
36.3163146062
 30
0.0
 11
172.2356606278
 21
36.3163146062
 31
0.0
  0
LINE
  5
30B
330
1F
100
AcDbEntity
  8
0
  6
SLD-Сплошная
 62
     7
370
    25
100
AcDbLine
 10
147.6439453782
 20
56.3163146062
 30
0.0
 11
172.2356606278
 21
56.3163146062
 31
0.0
  0
LINE
  5
30C
330
1F
100
AcDbEntity
  8
0
  6
SLD-Сплошная
 62
     7
370
    25
100
AcDbLine
 10
177.7340073187
 20
36.3163146062
 30
0.0
 11
180.4338755653
 21
36.3163146062
 31
0.0
  0
LINE
  5
30D
330
1F
100
AcDbEntity
  8
0
  6
SLD-Сплошная
 62
     7
370
    25
100
AcDbLine
 10
180.4338755653
 20
56.3163146062
 30
0.0
 11
177.7340073187
 21
56.3163146062
 31
0.0
  0
ARC
  5
30E
330
1F
100
AcDbEntity
  8
0
  6
SLD-Сплошная
 62
     7
370
    25
100
AcDbCircle
 10
26.2998657492
 20
46.3163146062
 30
0.0
 40
120.4657576047348
100
AcDbArc
 50
355.2383325928
 51
4.7616674072
  0
LINE
  5
30F
330
1F
100
AcDbEntity
  8
0
  6
SLD-Сплошная
 62
     7
370
    25
100
AcDbLine
 10
146.3498501527
 20
36.3163146062
 30
0.0
 11
147.6439453782
 21
36.3163146062
 31
0.0
  0
LINE
  5
310
330
1F
100
AcDbEntity
  8
0
  6
SLD-Сплошная
 62
     7
370
    25
100
AcDbLine
 10
146.3498501527
 20
56.3163146062
 30
0.0
 11
147.6439453782
 21
56.3163146062
 31
0.0
  0
LINE
  5
311
330
1F
100
AcDbEntity
  8
0
  6
SLD-Сплошная
 62
     7
370
    25
100
AcDbLine
 10
130.587770306
 20
36.3163146062
 30
0.0
 11
130.3454157201
 21
36.3163146062
 31
0.0
  0
LINE
  5
312
330
1F
100
AcDbEntity
  8
0
  6
SLD-Сплошная
 62
     7
370
    25
100
AcDbLine
 10
130.3454157201
 20
56.3163146062
 30
0.0
 11
130.587770306
 21
56.3163146062
 31
0.0
  0
LWPOLYLINE
  5
313
330
1F
100
AcDbEntity
  8
0
  6
SLD-Сплошная
 62
     7
370
    25
100
AcDbPolyline
 90
       30
 70
   128
 43
0.0
 10
146.3498501527
 20
56.3163146062
 10
146.0969569529
 20
58.9080149906
 10
145.7870930745
 20
61.4056744837
 10
145.4225727302
 20
63.7906393598
 10
145.0061183338
 20
66.0450975509
 10
144.5408401676
 20
68.152211676
 10
144.0302131534
 20
70.0962447906
 10
143.4780508999
 20
71.8626779177
 10
142.8884772212
 20
73.4383184828
 10
142.2658953378
 20
74.8113988423
 10
141.6149549915
 20
75.9716641699
 10
140.9405177188
 20
76.9104490444
 10
140.2476205425
 20
77.6207421677
 10
139.5414383528
 20
78.0972387281
 10
138.8272452591
 20
78.3363800196
 10
138.1103751996
 20
78.3363800196
 10
137.3961821058
 20
78.0972387281
 10
136.6899999162
 20
77.6207421677
 10
135.9971027399
 20
76.9104490444
 10
135.3226654672
 20
75.9716641699
 10
134.6717251209
 20
74.8113988423
 10
134.0491432375
 20
73.4383184828
 10
133.4595695588
 20
71.8626779177
 10
132.9074073053
 20
70.0962447906
 10
132.396780291
 20
68.152211676
 10
131.9315021249
 20
66.0450975509
 10
131.5150477285
 20
63.7906393598
 10
131.1505273842
 20
61.4056744837
 10
130.8406635057
 20
58.9080149906
 10
130.587770306
 20
56.3163146062
  0
LWPOLYLINE
  5
314
330
1F
100
AcDbEntity
  8
0
  6
SLD-Сплошная
 62
     7
370
    25
100
AcDbPolyline
 90
       30
 70
   128
 43
0.0
 10
130.587770306
 20
36.3163146062
 10
130.8406635057
 20
33.7246142217
 10
131.1505273842
 20
31.2269547286
 10
131.5150477285
 20
28.8419898525
 10
131.9315021249
 20
26.5875316614
 10
132.396780291
 20
24.4804175363
 10
132.9074073053
 20
22.5363844217
 10
133.4595695588
 20
20.7699512946
 10
134.0491432375
 20
19.1943107295
 10
134.6717251209
 20
17.82123037
 10
135.3226654672
 20
16.6609650424
 10
135.9971027399
 20
15.7221801679
 10
136.6899999162
 20
15.0118870446
 10
137.3961821058
 20
14.5353904842
 10
138.1103751996
 20
14.2962491927
 10
138.8272452591
 20
14.2962491927
 10
139.5414383528
 20
14.5353904842
 10
140.2476205425
 20
15.0118870446
 10
140.9405177188
 20
15.7221801679
 10
141.6149549915
 20
16.6609650424
 10
142.2658953378
 20
17.82123037
 10
142.8884772212
 20
19.1943107295
 10
143.4780508999
 20
20.7699512946
 10
144.0302131534
 20
22.5363844217
 10
144.5408401676
 20
24.4804175363
 10
145.0061183338
 20
26.5875316614
 10
145.4225727302
 20
28.8419898525
 10
145.7870930745
 20
31.2269547286
 10
146.0969569529
 20
33.7246142217
 10
146.3498501527
 20
36.3163146062
  0
LWPOLYLINE
  5
315
330
1F
100
AcDbEntity
  8
0
  6
SLD-Сплошная
 62
     7
370
    25
100
AcDbPolyline
 90
       16
 70
   128
 43
0.0
 10
152.663135434
 20
56.3163146062
 10
152.4102422342
 20
58.9080149906
 10
152.1003783557
 20
61.4056744837
 10
151.7358580114
 20
63.7906393598
 10
151.319403615
 20
66.0450975509
 10
150.8541254489
 20
68.152211676
 10
150.3434984346
 20
70.0962447906
 10
149.7913361811
 20
71.8626779177
 10
149.2017625024
 20
73.4383184828
 10
148.579180619
 20
74.8113988423
 10
147.9282402728
 20
75.9716641699
 10
147.2538030001
 20
76.9104490444
 10
146.5609058237
 20
77.6207421677
 10
145.8547236341
 20
78.0972387281
 10
145.1405305403
 20
78.3363800196
 10
144.7820955106
 20
78.3663146062
  0
LWPOLYLINE
  5
316
330
1F
100
AcDbEntity
  8
0
  6
SLD-Сплошная
 62
     7
370
    25
100
AcDbPolyline
 90
       16
 70
   128
 43
0.0
 10
144.7820955106
 20
14.2663146062
 10
145.1405305403
 20
14.2962491927
 10
145.8547236341
 20
14.5353904842
 10
146.5609058237
 20
15.0118870446
 10
147.2538030001
 20
15.7221801679
 10
147.9282402728
 20
16.6609650424
 10
148.579180619
 20
17.82123037
 10
149.2017625024
 20
19.1943107295
 10
149.7913361811
 20
20.7699512946
 10
150.3434984346
 20
22.5363844217
 10
150.8541254489
 20
24.4804175363
 10
151.319403615
 20
26.5875316614
 10
151.7358580114
 20
28.8419898525
 10
152.1003783557
 20
31.2269547286
 10
152.4102422342
 20
33.7246142217
 10
152.663135434
 20
36.3163146062
  0
ENDSEC
  0
SECTION
  2
OBJECTS
  0
DICTIONARY
  5
C
330
0
100
AcDbDictionary
281
     1
  3
ACAD_GROUP
350
D
  3
ACAD_LAYOUT
350
1A
  3
ACAD_MLINESTYLE
350
17
  3
ACAD_PLOTSETTINGS
350
19
  3
ACAD_PLOTSTYLENAME
350
E
  3
ACAD_SCALELIST
350
47
  3
DWGPROPS
350
317
  0
DICTIONARY
  5
D
102
{ACAD_REACTORS
330
C
102
}
330
C
100
AcDbDictionary
281
     1
  0
DICTIONARY
  5
1A
102
{ACAD_REACTORS
330
C
102
}
330
C
100
AcDbDictionary
281
     1
  3
Layout1
350
1E
  3
Layout2
350
26
  3
Model
350
22
  0
DICTIONARY
  5
17
102
{ACAD_REACTORS
330
C
102
}
330
C
100
AcDbDictionary
281
     1
  3
Standard
350
18
  0
DICTIONARY
  5
19
102
{ACAD_REACTORS
330
C
102
}
330
C
100
AcDbDictionary
281
     1
  0
ACDBDICTIONARYWDFLT
  5
E
102
{ACAD_REACTORS
330
C
102
}
330
C
100
AcDbDictionary
281
     1
  3
Normal
350
F
100
AcDbDictionaryWithDefault
340
F
  0
DICTIONARY
  5
47
102
{ACAD_REACTORS
330
C
102
}
330
C
100
AcDbDictionary
281
     1
  3
A0
350
48
  3
A1
350
49
  3
A2
350
4A
  3
A3
350
4B
  3
A4
350
4C
  3
A5
350
4D
  3
A6
350
4E
  3
A7
350
4F
  3
A8
350
50
  3
A9
350
51
  3
B0
350
52
  3
B1
350
53
  3
B2
350
54
  3
B3
350
55
  3
B4
350
56
  3
B5
350
57
  3
B6
350
58
  0
XRECORD
  5
317
102
{ACAD_REACTORS
330
C
102
}
330
C
100
AcDbXrecord
280
     1
  1
DWGPROPS COOKIE
  2

  3

  4

  6

  7

  8
inyankin
  9

300
=
301
=
302
=
303
=
304
=
305
=
306
=
307
=
308
=
309
=
 40
0.0
 41
2460934.564078877
 42
2460934.564079595
  1

 90
        0
  0
LAYOUT
  5
1E
102
{ACAD_REACTORS
330
1A
102
}
330
1A
100
AcDbPlotSettings
  1

  2
none_device
  4

  6

 40
0.0
 41
0.0
 42
0.0
 43
0.0
 44
0.0
 45
0.0
 46
0.0
 47
0.0
 48
0.0
 49
0.0
140
0.0
141
0.0
142
1.0
143
1.0
 70
   688
 72
     1
 73
     0
 74
     5
  7

 75
    16
147
1.0
148
0.0
149
0.0
100
AcDbLayout
  1
Layout1
 70
     1
 71
     1
 10
0.0
 20
0.0
 11
420.0
 21
297.0
 12
0.0
 22
0.0
 32
0.0
 14
1.0000000000E+20
 24
1.0000000000E+20
 34
1.0000000000E+20
 15
-1.0000000000E+20
 25
-1.0000000000E+20
 35
-1.0000000000E+20
146
0.0
 13
0.0
 23
0.0
 33
0.0
 16
1.0
 26
0.0
 36
0.0
 17
0.0
 27
1.0
 37
0.0
 76
     0
330
1B
  0
LAYOUT
  5
26
102
{ACAD_REACTORS
330
1A
102
}
330
1A
100
AcDbPlotSettings
  1

  2
none_device
  4

  6

 40
0.0
 41
0.0
 42
0.0
 43
0.0
 44
0.0
 45
0.0
 46
0.0
 47
0.0
 48
0.0
 49
0.0
140
0.0
141
0.0
142
1.0
143
1.0
 70
   688
 72
     1
 73
     0
 74
     5
  7

 75
    16
147
1.0
148
0.0
149
0.0
100
AcDbLayout
  1
Layout2
 70
     1
 71
     2
 10
0.0
 20
0.0
 11
0.0
 21
0.0
 12
0.0
 22
0.0
 32
0.0
 14
0.0
 24
0.0
 34
0.0
 15
0.0
 25
0.0
 35
0.0
146
0.0
 13
0.0
 23
0.0
 33
0.0
 16
1.0
 26
0.0
 36
0.0
 17
0.0
 27
1.0
 37
0.0
 76
     0
330
23
  0
LAYOUT
  5
22
102
{ACAD_REACTORS
330
1A
102
}
330
1A
100
AcDbPlotSettings
  1

  2
none_device
  4
Letter_(8.50_x_11.00_Inches)
  6

 40
6.35
 41
6.35
 42
6.35000508
 43
6.35000508
 44
215.9
 45
279.4
 46
0.0
 47
0.0
 48
0.0
 49
0.0
140
0.0
141
0.0
142
1.0
143
1.0
 70
  1712
 72
     1
 73
     0
 74
     0
  7

 75
     0
147
1.0
148
0.0
149
0.0
100
AcDbLayout
  1
Model
 70
     1
 71
     0
 10
0.0
 20
0.0
 11
431.8
 21
279.4
 12
0.0
 22
0.0
 32
0.0
 14
0.0
 24
0.0
 34
0.0
 15
431.8
 25
279.4
 35
0.0
146
0.0
 13
0.0
 23
0.0
 33
0.0
 16
1.0
 26
0.0
 36
0.0
 17
0.0
 27
1.0
 37
0.0
 76
     0
330
1F
331
29
  0
MLINESTYLE
  5
18
102
{ACAD_REACTORS
330
17
102
}
330
17
100
AcDbMlineStyle
  2
Standard
 70
     0
  3

 62
   256
 51
90.0
 52
90.0
 71
     2
 49
0.5
 62
   256
  6
BYLAYER
 49
-0.5
 62
   256
  6
BYLAYER
  0
ACDBPLACEHOLDER
  5
F
102
{ACAD_REACTORS
330
E
102
}
330
E
  0
SCALE
  5
48
102
{ACAD_REACTORS
330
47
102
}
330
47
100
AcDbScale
 70
     0
300
1:1
140
1.0
141
1.0
290
     1
  0
SCALE
  5
49
102
{ACAD_REACTORS
330
47
102
}
330
47
100
AcDbScale
 70
     0
300
1:2
140
1.0
141
2.0
290
     0
  0
SCALE
  5
4A
102
{ACAD_REACTORS
330
47
102
}
330
47
100
AcDbScale
 70
     0
300
1:4
140
1.0
141
4.0
290
     0
  0
SCALE
  5
4B
102
{ACAD_REACTORS
330
47
102
}
330
47
100
AcDbScale
 70
     0
300
1:5
140
1.0
141
5.0
290
     0
  0
SCALE
  5
4C
102
{ACAD_REACTORS
330
47
102
}
330
47
100
AcDbScale
 70
     0
300
1:8
140
1.0
141
8.0
290
     0
  0
SCALE
  5
4D
102
{ACAD_REACTORS
330
47
102
}
330
47
100
AcDbScale
 70
     0
300
1:10
140
1.0
141
10.0
290
     0
  0
SCALE
  5
4E
102
{ACAD_REACTORS
330
47
102
}
330
47
100
AcDbScale
 70
     0
300
1:16
140
1.0
141
16.0
290
     0
  0
SCALE
  5
4F
102
{ACAD_REACTORS
330
47
102
}
330
47
100
AcDbScale
 70
     0
300
1:20
140
1.0
141
20.0
290
     0
  0
SCALE
  5
50
102
{ACAD_REACTORS
330
47
102
}
330
47
100
AcDbScale
 70
     0
300
1:30
140
1.0
141
30.0
290
     0
  0
SCALE
  5
51
102
{ACAD_REACTORS
330
47
102
}
330
47
100
AcDbScale
 70
     0
300
1:40
140
1.0
141
40.0
290
     0
  0
SCALE
  5
52
102
{ACAD_REACTORS
330
47
102
}
330
47
100
AcDbScale
 70
     0
300
1:50
140
1.0
141
50.0
290
     0
  0
SCALE
  5
53
102
{ACAD_REACTORS
330
47
102
}
330
47
100
AcDbScale
 70
     0
300
1:100
140
1.0
141
100.0
290
     0
  0
SCALE
  5
54
102
{ACAD_REACTORS
330
47
102
}
330
47
100
AcDbScale
 70
     0
300
2:1
140
2.0
141
1.0
290
     0
  0
SCALE
  5
55
102
{ACAD_REACTORS
330
47
102
}
330
47
100
AcDbScale
 70
     0
300
4:1
140
4.0
141
1.0
290
     0
  0
SCALE
  5
56
102
{ACAD_REACTORS
330
47
102
}
330
47
100
AcDbScale
 70
     0
300
8:1
140
8.0
141
1.0
290
     0
  0
SCALE
  5
57
102
{ACAD_REACTORS
330
47
102
}
330
47
100
AcDbScale
 70
     0
300
10:1
140
10.0
141
1.0
290
     0
  0
SCALE
  5
58
102
{ACAD_REACTORS
330
47
102
}
330
47
100
AcDbScale
 70
     0
300
100:1
140
100.0
141
1.0
290
     0
  0
ENDSEC
  0
EOF
