  0
SECTION
  2
HEADER
  9
$ACADVER
  1
AC1015
  9
$ACADMAINTVER
 70
     6
  9
$DWGCODEPAGE
  3
ANSI_1251
  9
$INSBASE
 10
0.0
 20
0.0
 30
0.0
  9
$EXTMIN
 10
0.0
 20
0.0
 30
0.0
  9
$EXTMAX
 10
841.0
 20
594.0
 30
0.0
  9
$LIMMIN
 10
0.0
 20
0.0
  9
$LIMMAX
 10
841.0
 20
594.0
  9
$ORTHOMODE
 70
     0
  9
$REGENMODE
 70
     1
  9
$FILLMODE
 70
     1
  9
$QTEXTMODE
 70
     0
  9
$MIRRTEXT
 70
     1
  9
$LTSCALE
 40
1.0
  9
$ATTMODE
 70
     1
  9
$TEXTSIZE
 40
3.5
  9
$TRACEWID
 40
1.0
  9
$TEXTSTYLE
  7
Standard
  9
$CLAYER
  8
0
  9
$CELTYPE
  6
ByLayer
  9
$CECOLOR
 62
   256
  9
$CELTSCALE
 40
1.0
  9
$DISPSILH
 70
     0
  9
$DIMSCALE
 40
1.0
  9
$DIMASZ
 40
3.5
  9
$DIMEXO
 40
0.01
  9
$DIMDLI
 40
3.75
  9
$DIMRND
 40
0.0
  9
$DIMDLE
 40
0.0
  9
$DIMEXE
 40
1.0
  9
$DIMTP
 40
0.0
  9
$DIMTM
 40
0.0
  9
$DIMTXT
 40
3.5
  9
$DIMCEN
 40
2.5
  9
$DIMTSZ
 40
0.0
  9
$DIMTOL
 70
     0
  9
$DIMLIM
 70
     0
  9
$DIMTIH
 70
     1
  9
$DIMTOH
 70
     1
  9
$DIMSE1
 70
     0
  9
$DIMSE2
 70
     0
  9
$DIMTAD
 70
     1
  9
$DIMZIN
 70
     0
  9
$DIMBLK
  1

  9
$DIMASO
 70
     1
  9
$DIMSHO
 70
     1
  9
$DIMPOST
  1

  9
$DIMAPOST
  1

  9
$DIMALT
 70
     0
  9
$DIMALTD
 70
     3
  9
$DIMALTF
 40
0.0393700787
  9
$DIMLFAC
 40
1.0
  9
$DIMTOFL
 70
     1
  9
$DIMTVP
 40
0.0
  9
$DIMTIX
 70
     0
  9
$DIMSOXD
 70
     0
  9
$DIMSAH
 70
     0
  9
$DIMBLK1
  1

  9
$DIMBLK2
  1

  9
$DIMSTYLE
  2
ISO-25
  9
$DIMCLRD
 70
     0
  9
$DIMCLRE
 70
     0
  9
$DIMCLRT
 70
     0
  9
$DIMTFAC
 40
1.0
  9
$DIMGAP
 40
3.0
  9
$DIMJUST
 70
     0
  9
$DIMSD1
 70
     0
  9
$DIMSD2
 70
     0
  9
$DIMTOLJ
 70
     0
  9
$DIMTZIN
 70
     0
  9
$DIMALTZ
 70
     0
  9
$DIMALTTZ
 70
     0
  9
$DIMUPT
 70
     0
  9
$DIMDEC
 70
     2
  9
$DIMTDEC
 70
     3
  9
$DIMALTU
 70
     2
  9
$DIMALTTD
 70
     3
  9
$DIMTXSTY
  7
Standard
  9
$DIMAUNIT
 70
     0
  9
$DIMADEC
 70
     2
  9
$DIMALTRND
 40
0.0
  9
$DIMAZIN
 70
     0
  9
$DIMDSEP
 70
    44
  9
$DIMATFIT
 70
     3
  9
$DIMFRAC
 70
     0
  9
$DIMLDRBLK
  1

  9
$DIMLUNIT
 70
     2
  9
$DIMLWD
 70
    -2
  9
$DIMLWE
 70
    -2
  9
$DIMTMOVE
 70
     0
  9
$LUNITS
 70
     2
  9
$LUPREC
 70
     2
  9
$SKETCHINC
 40
1.0
  9
$FILLETRAD
 40
10.0
  9
$AUNITS
 70
     0
  9
$AUPREC
 70
     2
  9
$MENU
  1
.
  9
$ELEVATION
 40
0.0
  9
$PELEVATION
 40
0.0
  9
$THICKNESS
 40
0.0
  9
$LIMCHECK
 70
     0
  9
$CHAMFERA
 40
0.0
  9
$CHAMFERB
 40
0.0
  9
$CHAMFERC
 40
0.0
  9
$CHAMFERD
 40
0.0
  9
$SKPOLY
 70
     0
  9
$TDCREATE
 40
2459732.600562778
  9
$TDUCREATE
 40
2459732.475562778
  9
$TDUPDATE
 40
2459732.600564387
  9
$TDUUPDATE
 40
2459732.475564387
  9
$TDINDWG
 40
0.0000000116
  9
$TDUSRTIMER
 40
0.0000000116
  9
$USRTIMER
 70
     1
  9
$ANGBASE
 50
0.0
  9
$ANGDIR
 70
     0
  9
$PDMODE
 70
     0
  9
$PDSIZE
 40
-1.0
  9
$PLINEWID
 40
0.0
  9
$SPLFRAME
 70
     0
  9
$SPLINETYPE
 70
     6
  9
$SPLINESEGS
 70
     8
  9
$HANDSEED
  5
4CD
  9
$SURFTAB1
 70
     6
  9
$SURFTAB2
 70
     6
  9
$SURFTYPE
 70
     6
  9
$SURFU
 70
     6
  9
$SURFV
 70
     6
  9
$UCSBASE
  2

  9
$UCSNAME
  2

  9
$UCSORG
 10
0.0
 20
0.0
 30
0.0
  9
$UCSXDIR
 10
1.0
 20
0.0
 30
0.0
  9
$UCSYDIR
 10
0.0
 20
1.0
 30
0.0
  9
$UCSORTHOREF
  2

  9
$UCSORTHOVIEW
 70
     0
  9
$UCSORGTOP
 10
0.0
 20
0.0
 30
0.0
  9
$UCSORGBOTTOM
 10
0.0
 20
0.0
 30
0.0
  9
$UCSORGLEFT
 10
0.0
 20
0.0
 30
0.0
  9
$UCSORGRIGHT
 10
0.0
 20
0.0
 30
0.0
  9
$UCSORGFRONT
 10
0.0
 20
0.0
 30
0.0
  9
$UCSORGBACK
 10
0.0
 20
0.0
 30
0.0
  9
$PUCSBASE
  2

  9
$PUCSNAME
  2

  9
$PUCSORG
 10
0.0
 20
0.0
 30
0.0
  9
$PUCSXDIR
 10
1.0
 20
0.0
 30
0.0
  9
$PUCSYDIR
 10
0.0
 20
1.0
 30
0.0
  9
$PUCSORTHOREF
  2

  9
$PUCSORTHOVIEW
 70
     0
  9
$PUCSORGTOP
 10
0.0
 20
0.0
 30
0.0
  9
$PUCSORGBOTTOM
 10
0.0
 20
0.0
 30
0.0
  9
$PUCSORGLEFT
 10
0.0
 20
0.0
 30
0.0
  9
$PUCSORGRIGHT
 10
0.0
 20
0.0
 30
0.0
  9
$PUCSORGFRONT
 10
0.0
 20
0.0
 30
0.0
  9
$PUCSORGBACK
 10
0.0
 20
0.0
 30
0.0
  9
$USERI1
 70
     0
  9
$USERI2
 70
     0
  9
$USERI3
 70
     0
  9
$USERI4
 70
     0
  9
$USERI5
 70
     0
  9
$USERR1
 40
0.0
  9
$USERR2
 40
0.0
  9
$USERR3
 40
0.0
  9
$USERR4
 40
0.0
  9
$USERR5
 40
0.0
  9
$WORLDVIEW
 70
     1
  9
$SHADEDGE
 70
     3
  9
$SHADEDIF
 70
    70
  9
$TILEMODE
 70
     1
  9
$MAXACTVP
 70
    64
  9
$PINSBASE
 10
0.0
 20
0.0
 30
0.0
  9
$PLIMCHECK
 70
     0
  9
$PEXTMIN
 10
1.0000000000E+20
 20
1.0000000000E+20
 30
1.0000000000E+20
  9
$PEXTMAX
 10
-1.0000000000E+20
 20
-1.0000000000E+20
 30
-1.0000000000E+20
  9
$PLIMMIN
 10
0.0
 20
0.0
  9
$PLIMMAX
 10
420.0
 20
297.0
  9
$UNITMODE
 70
     0
  9
$VISRETAIN
 70
     1
  9
$PLINEGEN
 70
     0
  9
$PSLTSCALE
 70
     1
  9
$TREEDEPTH
 70
  3020
  9
$CMLSTYLE
  2
Standard
  9
$CMLJUST
 70
     0
  9
$CMLSCALE
 40
20.0
  9
$PROXYGRAPHICS
 70
     1
  9
$MEASUREMENT
 70
     1
  9
$CELWEIGHT
370
    -1
  9
$ENDCAPS
280
     0
  9
$JOINSTYLE
280
     0
  9
$LWDISPLAY
290
     1
  9
$INSUNITS
 70
     4
  9
$HYPERLINKBASE
  1

  9
$STYLESHEET
  1

  9
$XEDIT
290
     1
  9
$CEPSNTYPE
380
     0
  9
$PSTYLEMODE
290
     1
  9
$FINGERPRINTGUID
  2
{EBE45D08-AEA4-4FCF-983C-1738E258E1CC}
  9
$VERSIONGUID
  2
{FAEB1C32-E019-11D5-929B-00C0DF256EC4}
  9
$EXTNAMES
290
     1
  9
$PSVPSCALE
 40
0.0
  9
$OLESTARTUP
290
     0
  0
ENDSEC
  0
SECTION
  2
CLASSES
  0
CLASS
  1
ACDBDICTIONARYWDFLT
  2
AcDbDictionaryWithDefault
  3
ObjectDBX Classes
 90
        0
280
     0
281
     0
  0
CLASS
  1
VISUALSTYLE
  2
AcDbVisualStyle
  3
ObjectDBX Classes
 90
     4095
280
     0
281
     0
  0
CLASS
  1
MATERIAL
  2
AcDbMaterial
  3
ObjectDBX Classes
 90
     1153
280
     0
281
     0
  0
CLASS
  1
SCALE
  2
AcDbScale
  3
ObjectDBX Classes
 90
     1153
280
     0
281
     0
  0
CLASS
  1
TABLESTYLE
  2
AcDbTableStyle
  3
ObjectDBX Classes
 90
     4095
280
     0
281
     0
  0
CLASS
  1
MLEADERSTYLE
  2
AcDbMLeaderStyle
  3
ACDB_MLEADERSTYLE_CLASS
 90
     4095
280
     0
281
     0
  0
CLASS
  1
SUN
  2
AcDbSun
  3
SCENEOE
 90
     1153
280
     0
281
     0
  0
CLASS
  1
ACDBPLACEHOLDER
  2
AcDbPlaceHolder
  3
ObjectDBX Classes
 90
        0
280
     0
281
     0
  0
CLASS
  1
LAYOUT
  2
AcDbLayout
  3
ObjectDBX Classes
 90
        0
280
     0
281
     0
  0
ENDSEC
  0
SECTION
  2
TABLES
  0
TABLE
  2
VPORT
  5
8
330
0
100
AcDbSymbolTable
 70
     1
  0
VPORT
  5
29
330
8
100
AcDbSymbolTableRecord
100
AcDbViewportTableRecord
  2
*Active
 70
     0
 10
0.0
 20
0.0
 11
1.0
 21
1.0
 12
420.5
 22
297.0
 13
0.0
 23
0.0
 14
10.0
 24
10.0
 15
10.0
 25
10.0
 16
0.0
 26
0.0
 36
1.0
 17
0.0
 27
0.0
 37
0.0
 40
594.0
 41
1.4158249158
 42
50.0
 43
0.0
 44
0.0
 50
0.0
 51
0.0
 71
     0
 72
  2000
 73
     1
 74
     3
 75
     0
 76
     0
 77
     0
 78
     0
281
     0
 65
     1
110
0.0
120
0.0
130
0.0
111
1.0
121
0.0
131
0.0
112
0.0
122
1.0
132
0.0
 79
     0
146
0.0
  0
ENDTAB
  0
TABLE
  2
LTYPE
  5
5
330
0
100
AcDbSymbolTable
 70
     6
  0
LTYPE
  5
14
330
5
100
AcDbSymbolTableRecord
100
AcDbLinetypeTableRecord
  2
ByBlock
 70
     0
  3

 72
    65
 73
     0
 40
0.0
  0
LTYPE
  5
15
330
5
100
AcDbSymbolTableRecord
100
AcDbLinetypeTableRecord
  2
ByLayer
 70
     0
  3

 72
    65
 73
     0
 40
0.0
  0
LTYPE
  5
16
330
5
100
AcDbSymbolTableRecord
100
AcDbLinetypeTableRecord
  2
Continuous
 70
     0
  3
Solid line
 72
    65
 73
     0
 40
0.0
  0
LTYPE
  5
6E
330
5
100
AcDbSymbolTableRecord
100
AcDbLinetypeTableRecord
  2
HIDDEN
 70
     0
  3
Hidden __ __ __ __ __ __ __ __ __ __ __ __ __ __
 72
    65
 73
     2
 40
1.905
 49
1.27
 74
     0
 49
-0.635
 74
     0
  0
LTYPE
  5
6F
330
5
100
AcDbSymbolTableRecord
100
AcDbLinetypeTableRecord
  2
PHANTOM
 70
     0
  3
Phantom ______  __  __  ______  __  __  ______
 72
    65
 73
     6
 40
12.7
 49
6.35
 74
     0
 49
-1.27
 74
     0
 49
1.27
 74
     0
 49
-1.27
 74
     0
 49
1.27
 74
     0
 49
-1.27
 74
     0
  0
LTYPE
  5
70
330
5
100
AcDbSymbolTableRecord
100
AcDbLinetypeTableRecord
  2
CENTER
 70
     0
  3
Center ____ _ ____ _ ____ _ ____ _ ____ _ ____
 72
    65
 73
     4
 40
10.16
 49
6.35
 74
     0
 49
-1.27
 74
     0
 49
1.27
 74
     0
 49
-1.27
 74
     0
  0
LTYPE
  5
71
330
5
100
AcDbSymbolTableRecord
100
AcDbLinetypeTableRecord
  2
CENTERX2
 70
     0
  3
Center (2x) ________  __  ________  __  _____
 72
    65
 73
     4
 40
20.32
 49
12.7
 74
     0
 49
-2.54
 74
     0
 49
2.54
 74
     0
 49
-2.54
 74
     0
  0
LTYPE
  5
72
330
5
100
AcDbSymbolTableRecord
100
AcDbLinetypeTableRecord
  2
DOT2
 70
     0
  3
Dot (.5x) ........................................
 72
    65
 73
     2
 40
0.635
 49
0.0
 74
     0
 49
-0.635
 74
     0
  0
ENDTAB
  0
TABLE
  2
LAYER
  5
2
330
0
100
AcDbSymbolTable
 70
     1
  0
LAYER
  5
10
330
2
100
AcDbSymbolTableRecord
100
AcDbLayerTableRecord
  2
0
 70
     0
 62
     7
  6
Continuous
370
    -3
390
F
  0
ENDTAB
  0
TABLE
  2
STYLE
  5
3
330
0
100
AcDbSymbolTable
 70
     1
  0
STYLE
  5
11
330
3
100
AcDbSymbolTableRecord
100
AcDbTextStyleTableRecord
  2
Standard
 70
     0
 40
0.0
 41
1.0
 50
0.0
 71
     0
 42
3.5
  3
txt
  4

  0
ENDTAB
  0
TABLE
  2
VIEW
  5
6
330
0
100
AcDbSymbolTable
 70
     0
  0
ENDTAB
  0
TABLE
  2
UCS
  5
7
330
0
100
AcDbSymbolTable
 70
     0
  0
ENDTAB
  0
TABLE
  2
APPID
  5
9
330
0
100
AcDbSymbolTable
 70
     1
  0
APPID
  5
12
330
9
100
AcDbSymbolTableRecord
100
AcDbRegAppTableRecord
  2
ACAD
 70
     0
  0
ENDTAB
  0
TABLE
  2
DIMSTYLE
  5
A
330
0
100
AcDbSymbolTable
 70
     1
100
AcDbDimStyleTable
  0
DIMSTYLE
105
27
330
A
100
AcDbSymbolTableRecord
100
AcDbDimStyleTableRecord
  2
ISO-25
 70
     0
 41
2.5
 42
0.625
 43
3.75
 44
1.25
 73
     0
 74
     0
 77
     1
 78
     8
140
2.5
141
2.5
143
0.0393700787
147
0.625
171
     3
172
     1
178
     0
271
     2
272
     2
274
     3
278
    44
283
     0
284
     8
340
11
  0
ENDTAB
  0
TABLE
  2
BLOCK_RECORD
  5
1
330
0
100
AcDbSymbolTable
 70
     1
  0
BLOCK_RECORD
  5
1F
330
1
100
AcDbSymbolTableRecord
100
AcDbBlockTableRecord
  2
*Model_Space
340
22
  0
BLOCK_RECORD
  5
1B
330
1
100
AcDbSymbolTableRecord
100
AcDbBlockTableRecord
  2
*Paper_Space
340
1E
  0
BLOCK_RECORD
  5
23
330
1
100
AcDbSymbolTableRecord
100
AcDbBlockTableRecord
  2
*Paper_Space0
340
26
  0
ENDTAB
  0
ENDSEC
  0
SECTION
  2
BLOCKS
  0
BLOCK
  5
20
330
1F
100
AcDbEntity
  8
0
100
AcDbBlockBegin
  2
*Model_Space
 70
     0
 10
0.0
 20
0.0
 30
0.0
  3
*Model_Space
  1

  0
ENDBLK
  5
21
330
1F
100
AcDbEntity
  8
0
100
AcDbBlockEnd
  0
BLOCK
  5
1C
330
1B
100
AcDbEntity
 67
     1
  8
0
100
AcDbBlockBegin
  2
*Paper_Space
 70
     0
 10
0.0
 20
0.0
 30
0.0
  3
*Paper_Space
  1

  0
ENDBLK
  5
1D
330
1B
100
AcDbEntity
 67
     1
  8
0
100
AcDbBlockEnd
  0
BLOCK
  5
24
330
23
100
AcDbEntity
  8
0
100
AcDbBlockBegin
  2
*Paper_Space0
 70
     0
 10
0.0
 20
0.0
 30
0.0
  3
*Paper_Space0
  1

  0
ENDBLK
  5
25
330
23
100
AcDbEntity
  8
0
100
AcDbBlockEnd
  0
ENDSEC
  0
SECTION
  2
ENTITIES
  0
ARC
  5
73
330
1F
100
AcDbEntity
  8
0
  6
Continuous
 62
     7
370
    25
100
AcDbCircle
 10
764.4433501725
 20
488.028893827
 30
0.0
 40
0.5000000000001137
100
AcDbArc
 50
180.0
 51
360.0
  0
ARC
  5
74
330
1F
100
AcDbEntity
  8
0
  6
Continuous
 62
     7
370
    25
100
AcDbCircle
 10
764.4433501725
 20
499.6288938272
 30
0.0
 40
0.5
100
AcDbArc
 50
0.0
 51
180.0
  0
LINE
  5
75
330
1F
100
AcDbEntity
  8
0
  6
Continuous
 62
     7
370
    25
100
AcDbLine
 10
759.9433501725
 20
488.8288938271
 30
0.0
 11
760.1539292275
 21
488.4641602049
 31
0.0
  0
LINE
  5
76
330
1F
100
AcDbEntity
  8
0
  6
Continuous
 62
     7
370
    25
100
AcDbLine
 10
774.4021001725
 20
496.8288938271
 30
0.0
 11
765.7433501725
 21
496.8288938271
 31
0.0
  0
LINE
  5
77
330
1F
100
AcDbEntity
  8
0
  6
Continuous
 62
     7
370
    25
100
AcDbLine
 10
765.7433501725
 20
490.8288938271
 30
0.0
 11
774.4021001725
 21
490.8288938271
 31
0.0
  0
LINE
  5
78
330
1F
100
AcDbEntity
  8
0
  6
Continuous
 62
     7
370
    25
100
AcDbLine
 10
774.4021001725
 20
490.8288938271
 30
0.0
 11
774.9433501725
 21
491.3701438271
 31
0.0
  0
LINE
  5
79
330
1F
100
AcDbEntity
  8
0
  6
Continuous
 62
     7
370
    25
100
AcDbLine
 10
774.9433501725
 20
496.2876438271
 30
0.0
 11
774.4021001725
 21
496.8288938271
 31
0.0
  0
LINE
  5
7A
330
1F
100
AcDbEntity
  8
0
  6
Continuous
 62
     7
370
    25
100
AcDbLine
 10
760.1539292275
 20
499.1936274493
 30
0.0
 11
759.9433501725
 21
498.8288938271
 31
0.0
  0
ARC
  5
7B
330
1F
100
AcDbEntity
  8
0
  6
Continuous
 62
     7
370
    25
100
AcDbCircle
 10
764.4433501725
 20
474.6288938272
 30
0.0
 40
0.5
100
AcDbArc
 50
0.0
 51
113.5781784781
  0
LINE
  5
7C
330
1F
100
AcDbEntity
  8
0
  6
Continuous
 62
     7
370
    25
100
AcDbLine
 10
774.4021001725
 20
471.8288938271
 30
0.0
 11
765.7433501725
 21
471.8288938271
 31
0.0
  0
LINE
  5
7D
330
1F
100
AcDbEntity
  8
0
  6
Continuous
 62
     7
370
    25
100
AcDbLine
 10
774.4021001725
 20
465.8288938271
 30
0.0
 11
774.9433501725
 21
466.3701438271
 31
0.0
  0
LINE
  5
7E
330
1F
100
AcDbEntity
  8
0
  6
Continuous
 62
     7
370
    25
100
AcDbLine
 10
774.9433501725
 20
471.2876438271
 30
0.0
 11
774.4021001725
 21
471.8288938271
 31
0.0
  0
ARC
  5
7F
330
1F
100
AcDbEntity
  8
0
  6
Continuous
 62
     7
370
    25
100
AcDbCircle
 10
61.0433501725
 20
474.6288938272
 30
0.0
 40
0.5
100
AcDbArc
 50
66.4218215218
 51
180.0
  0
LINE
  5
80
330
1F
100
AcDbEntity
  8
0
  6
Continuous
 62
     7
370
    25
100
AcDbLine
 10
59.7433501725
 20
471.8288938271
 30
0.0
 11
51.0846001725
 21
471.8288938271
 31
0.0
  0
LINE
  5
81
330
1F
100
AcDbEntity
  8
0
  6
Continuous
 62
     7
370
    25
100
AcDbLine
 10
51.0846001725
 20
471.8288938271
 30
0.0
 11
50.5433501725
 21
471.2876438271
 31
0.0
  0
LINE
  5
82
330
1F
100
AcDbEntity
  8
0
  6
Continuous
 62
     7
370
    25
100
AcDbLine
 10
50.5433501725
 20
466.3701438271
 30
0.0
 11
51.0846001725
 21
465.8288938271
 31
0.0
  0
ARC
  5
83
330
1F
100
AcDbEntity
  8
0
  6
Continuous
 62
     7
370
    25
100
AcDbCircle
 10
61.0433501725
 20
499.6288938272
 30
0.0
 40
0.5
100
AcDbArc
 50
0.0
 51
180.0
  0
ARC
  5
84
330
1F
100
AcDbEntity
  8
0
  6
Continuous
 62
     7
370
    25
100
AcDbCircle
 10
61.0433501725
 20
488.028893827
 30
0.0
 40
0.5
100
AcDbArc
 50
180.0
 51
360.0
  0
LINE
  5
85
330
1F
100
AcDbEntity
  8
0
  6
Continuous
 62
     7
370
    25
100
AcDbLine
 10
51.0846001725
 20
490.8288938271
 30
0.0
 11
59.7433501725
 21
490.8288938271
 31
0.0
  0
LINE
  5
86
330
1F
100
AcDbEntity
  8
0
  6
Continuous
 62
     7
370
    25
100
AcDbLine
 10
59.7433501725
 20
496.8288938271
 30
0.0
 11
51.0846001725
 21
496.8288938271
 31
0.0
  0
LINE
  5
87
330
1F
100
AcDbEntity
  8
0
  6
Continuous
 62
     7
370
    25
100
AcDbLine
 10
51.0846001725
 20
496.8288938271
 30
0.0
 11
50.5433501725
 21
496.2876438271
 31
0.0
  0
LINE
  5
88
330
1F
100
AcDbEntity
  8
0
  6
Continuous
 62
     7
370
    25
100
AcDbLine
 10
50.5433501725
 20
491.3701438271
 30
0.0
 11
51.0846001725
 21
490.8288938271
 31
0.0
  0
SPLINE
  5
89
330
1F
100
AcDbEntity
  8
0
  6
Continuous
 62
     7
370
    25
100
AcDbSpline
210
0.0
220
0.0
230
1.0
 70
    24
 71
     3
 72
    16
 73
    12
 74
     0
 42
0.000000001
 43
0.00000001
 40
0.0
 40
0.0
 40
0.0
 40
0.0
 40
0.165829292897749
 40
0.2550981074401226
 40
0.346261334306417
 40
0.4374245611727098
 40
0.5266933757150839
 40
0.6925226686128332
 40
0.8583519615105838
 40
0.9476207760529564
 40
1.0
 40
1.0
 40
1.0
 40
1.0
 10
763.9433501724768
 20
497.5545834517303
 30
0.0
 10
763.9433501724768
 20
496.9456756540552
 30
0.0
 10
763.9433501724768
 20
496.0089821177197
 30
0.0
 10
763.9433501724768
 20
494.5091834264837
 30
0.0
 10
763.9433501724768
 20
493.3172263466687
 30
0.0
 10
763.9433501724768
 20
492.1427980724624
 30
0.0
 10
763.9433501724766
 20
490.739184779175
 30
0.0
 10
763.9433501724768
 20
489.271841698393
 30
0.0
 10
763.9433501724768
 20
488.3726543475722
 30
0.0
 10
763.9433501724768
 20
488.044823020458
 30
0.0
 10
763.9433501724768
 20
488.0552134358982
 30
0.0
 10
763.9433501724768
 20
488.0590556486324
 30
0.0
  0
SPLINE
  5
8A
330
1F
100
AcDbEntity
  8
0
  6
Continuous
 62
     7
370
    25
100
AcDbSpline
210
0.0
220
0.0
230
1.0
 70
     8
 71
     3
 72
     8
 73
     4
 74
     0
 42
0.000000001
 43
0.00000001
 40
0.0
 40
0.0
 40
0.0
 40
0.0
 40
1.0
 40
1.0
 40
1.0
 40
1.0
 10
759.943350172484
 20
494.6943883977137
 30
0.0
 10
759.943350172484
 20
493.7239824618235
 30
0.0
 10
760.1176654728635
 20
492.7801361198923
 30
0.0
 10
760.3899321598752
 20
491.8512141652657
 30
0.0
  0
SPLINE
  5
8B
330
1F
100
AcDbEntity
  8
0
  6
Continuous
 62
     7
370
    25
100
AcDbSpline
210
0.0
220
0.0
230
1.0
 70
     8
 71
     3
 72
     8
 73
     4
 74
     0
 42
0.000000001
 43
0.00000001
 40
0.0
 40
0.0
 40
0.0
 40
0.0
 40
1.0
 40
1.0
 40
1.0
 40
1.0
 10
760.3899321598752
 20
497.5375626301616
 30
0.0
 10
760.1176654728639
 20
496.6086406755367
 30
0.0
 10
759.943350172484
 20
495.6647943336021
 30
0.0
 10
759.943350172484
 20
494.6943883977137
 30
0.0
  0
LINE
  5
8C
330
1F
100
AcDbEntity
  8
0
  6
Continuous
 62
     7
370
    25
100
AcDbLine
 10
763.9433501725
 20
497.5375626302
 30
0.0
 11
760.3899321599
 21
497.5375626302
 31
0.0
  0
LINE
  5
8D
330
1F
100
AcDbEntity
  8
0
  6
Continuous
 62
     7
370
    25
100
AcDbLine
 10
763.9433501725
 20
491.8512141653
 30
0.0
 11
760.3899321599
 21
491.8512141653
 31
0.0
  0
LINE
  5
8E
330
1F
100
AcDbEntity
  8
0
  6
Continuous
 62
     7
370
    25
100
AcDbLine
 10
759.9433501725
 20
494.6943883977
 30
0.0
 11
759.9433501725
 21
489.9968797637
 31
0.0
  0
SPLINE
  5
8F
330
1F
100
AcDbEntity
  8
0
  6
Continuous
 62
     7
370
    25
100
AcDbSpline
210
0.0
220
0.0
230
1.0
 70
     8
 71
     3
 72
     8
 73
     4
 74
     0
 42
0.000000001
 43
0.00000001
 40
0.0
 40
0.0
 40
0.0
 40
0.0
 40
1.0
 40
1.0
 40
1.0
 40
1.0
 10
760.3899321598752
 20
491.8512141652594
 30
0.0
 10
760.1176654728639
 20
491.2453659843283
 30
0.0
 10
759.943350172484
 20
490.6297840331293
 30
0.0
 10
759.943350172484
 20
489.996879763728
 30
0.0
  0
SPLINE
  5
90
330
1F
100
AcDbEntity
  8
0
  6
Continuous
 62
     7
370
    25
100
AcDbSpline
210
0.0
220
0.0
230
1.0
 70
     8
 71
     3
 72
     8
 73
     4
 74
     0
 42
0.000000001
 43
0.00000001
 40
0.0
 40
0.0
 40
0.0
 40
0.0
 40
1.0
 40
1.0
 40
1.0
 40
1.0
 10
759.943350172484
 20
489.996879763728
 30
0.0
 10
759.943350172484
 20
489.3639754943255
 30
0.0
 10
760.1176654728635
 20
488.7483935431288
 30
0.0
 10
760.3899321598752
 20
488.1425453621966
 30
0.0
  0
LINE
  5
91
330
1F
100
AcDbEntity
  8
0
  6
Continuous
 62
     7
370
    25
100
AcDbLine
 10
763.9433501725
 20
488.1425453622
 30
0.0
 11
760.3899321599
 21
488.1425453622
 31
0.0
  0
LINE
  5
92
330
1F
100
AcDbEntity
  8
0
  6
Continuous
 62
     7
370
    25
100
AcDbLine
 10
759.9433501725
 20
498.5264024611
 30
0.0
 11
759.9433501725
 21
494.6943883977
 31
0.0
  0
SPLINE
  5
93
330
1F
100
AcDbEntity
  8
0
  6
Continuous
 62
     7
370
    25
100
AcDbSpline
210
0.0
220
0.0
230
1.0
 70
     8
 71
     3
 72
     8
 73
     4
 74
     0
 42
0.000000001
 43
0.00000001
 40
0.0
 40
0.0
 40
0.0
 40
0.0
 40
1.0
 40
1.0
 40
1.0
 40
1.0
 10
759.9433501724837
 20
498.5264024610831
 30
0.0
 10
759.9433501724837
 20
498.1889007945955
 30
0.0
 10
760.1176654728632
 20
497.8606364038611
 30
0.0
 10
760.3899321598751
 20
497.5375626301667
 30
0.0
  0
SPLINE
  5
94
330
1F
100
AcDbEntity
  8
0
  6
Continuous
 62
     7
370
    25
100
AcDbSpline
210
0.0
220
0.0
230
1.0
 70
     8
 71
     3
 72
     8
 73
     4
 74
     0
 42
0.000000001
 43
0.00000001
 40
0.0
 40
0.0
 40
0.0
 40
0.0
 40
1.0
 40
1.0
 40
1.0
 40
1.0
 10
760.389932159875
 20
499.5152422919996
 30
0.0
 10
760.1176654728637
 20
499.1921685183058
 30
0.0
 10
759.9433501724837
 20
498.8639041275702
 30
0.0
 10
759.9433501724837
 20
498.5264024610831
 30
0.0
  0
LINE
  5
95
330
1F
100
AcDbEntity
  8
0
  6
Continuous
 62
     7
370
    25
100
AcDbLine
 10
763.9433501725
 20
499.515242292
 30
0.0
 11
760.3899321599
 21
499.515242292
 31
0.0
  0
LINE
  5
96
330
1F
100
AcDbEntity
  8
0
  6
Continuous
 62
     7
370
    25
100
AcDbLine
 10
760.3899321599
 20
488.1425453622
 30
0.0
 11
760.2259141247
 21
488.5057207047
 31
0.0
  0
LINE
  5
97
330
1F
100
AcDbEntity
  8
0
  6
Continuous
 62
     7
370
    25
100
AcDbLine
 10
759.9433501725
 20
489.9968797637
 30
0.0
 11
759.9433501725
 21
488.8288938271
 31
0.0
  0
LINE
  5
98
330
1F
100
AcDbEntity
  8
0
  6
Continuous
 62
     7
370
    25
100
AcDbLine
 10
774.4021001725
 20
490.8288938271
 30
0.0
 11
774.4021001725
 21
496.8288938271
 31
0.0
  0
LINE
  5
99
330
1F
100
AcDbEntity
  8
0
  6
Continuous
 62
     7
370
    25
100
AcDbLine
 10
774.9433501725
 20
491.9445009114
 30
0.0
 11
774.9433501725
 21
496.2876438271
 31
0.0
  0
LINE
  5
9A
330
1F
100
AcDbEntity
  8
0
  6
Continuous
 62
     7
370
    25
100
AcDbLine
 10
774.9433501725
 20
491.3701438271
 30
0.0
 11
774.9433501725
 21
491.9445009114
 31
0.0
  0
LINE
  5
9B
330
1F
100
AcDbEntity
  8
0
  6
Continuous
 62
     7
370
    25
100
AcDbLine
 10
759.9433501725
 20
498.8288938271
 30
0.0
 11
759.9433501725
 21
498.5264024611
 31
0.0
  0
CIRCLE
  5
9C
330
1F
100
AcDbEntity
  8
0
  6
Continuous
 62
     7
370
    25
100
AcDbCircle
 10
115.2433501725
 20
440.8288938271
 30
0.0
 40
0.5
  0
SPLINE
  5
9D
330
1F
100
AcDbEntity
  8
0
  6
Continuous
 62
     7
370
    25
100
AcDbSpline
210
0.0
220
0.0
230
1.0
 70
     8
 71
     3
 72
    20
 73
    16
 74
     0
 42
0.000000001
 43
0.00000001
 40
0.0
 40
0.0
 40
0.0
 40
0.0
 40
0.1249999999999947
 40
0.1249999999999947
 40
0.2499999999999893
 40
0.2499999999999893
 40
0.374999999999984
 40
0.374999999999984
 40
0.4999999999999787
 40
0.4999999999999787
 40
0.7499999999999976
 40
0.7499999999999976
 40
0.8749999999999989
 40
0.8749999999999989
 40
1.0
 40
1.0
 40
1.0
 40
1.0
 10
807.8433501724776
 20
463.4288938270933
 30
0.0
 10
808.001729360128
 20
463.4679345579478
 30
0.0
 10
808.15797508482
 20
463.5064532621477
 30
0.0
 10
808.4659669342366
 20
463.5838600134556
 30
0.0
 10
808.6186110417076
 20
463.6230044314423
 30
0.0
 10
808.9076953308947
 20
463.7001551853575
 30
0.0
 10
809.0454998690789
 20
463.7384827670986
 30
0.0
 10
809.3071185447178
 20
463.8160290875751
 30
0.0
 10
809.4298648514005
 20
463.8550052952437
 30
0.0
 10
809.761189228348
 20
463.9705001516887
 30
0.0
 10
809.9402003523763
 20
464.0484125953588
 30
0.0
 10
810.1198154517571
 20
464.1638925207596
 30
0.0
 10
810.1660598006248
 20
464.2027583166248
 30
0.0
 10
810.2278131066362
 20
464.2805326502933
 30
0.0
 10
810.2433501724773
 20
464.319142417248
 30
0.0
 10
810.2433501724774
 20
464.3581831489747
 30
0.0
  0
LINE
  5
9E
330
1F
100
AcDbEntity
  8
0
  6
Continuous
 62
     7
370
    25
100
AcDbLine
 10
810.2433501725
 20
71.2996045052
 30
0.0
 11
810.2433501725
 21
464.358183149
 31
0.0
  0
SPLINE
  5
9F
330
1F
100
AcDbEntity
  8
0
  6
Continuous
 62
     7
370
    25
100
AcDbSpline
210
0.0
220
0.0
230
1.0
 70
     8
 71
     3
 72
    20
 73
    16
 74
     0
 42
0.000000001
 43
0.00000001
 40
0.0
 40
0.0
 40
0.0
 40
0.0
 40
0.125
 40
0.125
 40
0.25
 40
0.25
 40
0.375
 40
0.375
 40
0.5
 40
0.5
 40
0.75
 40
0.75
 40
0.875
 40
0.875
 40
1.0
 40
1.0
 40
1.0
 40
1.0
 10
810.2433501724774
 20
71.29960450521178
 30
0.0
 10
810.2433501724774
 20
71.33864523606631
 30
0.0
 10
810.2278136120027
 20
71.37716394026612
 30
0.0
 10
810.1664952600419
 20
71.45457069157408
 30
0.0
 10
810.1200715144552
 20
71.49371510956074
 30
0.0
 10
810.0001206443012
 20
71.57086586347592
 30
0.0
 10
809.9265160000177
 20
71.60919344521687
 30
0.0
 10
809.7517856339222
 20
71.68673976569345
 30
0.0
 10
809.6509350050205
 20
71.72571597336214
 30
0.0
 10
809.3196497250367
 20
71.8412108298071
 30
0.0
 10
809.0519695636526
 20
71.9191232734773
 30
0.0
 10
808.6192955375973
 20
72.03460319887812
 30
0.0
 10
808.4677774507461
 20
72.07346899474315
 30
0.0
 10
808.15835169336
 20
72.15124332841172
 30
0.0
 10
808.0017293636663
 20
72.18985309536643
 30
0.0
 10
807.8433501724776
 20
72.22889382709316
 30
0.0
  0
SPLINE
  5
A0
330
1F
100
AcDbEntity
  8
0
  6
Continuous
 62
     7
370
    25
100
AcDbSpline
210
0.0
220
0.0
230
1.0
 70
     8
 71
     3
 72
    20
 73
    16
 74
     0
 42
0.000000001
 43
0.00000001
 40
0.0
 40
0.0
 40
0.0
 40
0.0
 40
0.1249999999999987
 40
0.1249999999999987
 40
0.2499999999999974
 40
0.2499999999999974
 40
0.3749999999999962
 40
0.3749999999999962
 40
0.4999999999999949
 40
0.4999999999999949
 40
0.7500000000000026
 40
0.7500000000000026
 40
0.8750000000000012
 40
0.8750000000000012
 40
1.0
 40
1.0
 40
1.0
 40
1.0
 10
807.8433501724776
 20
72.22889382709322
 30
0.0
 10
807.8823909033321
 20
72.07051463944251
 30
0.0
 10
807.9209096075318
 20
71.91426891475083
 30
0.0
 10
807.9983163588398
 20
71.60627706533421
 30
0.0
 10
808.0374607768265
 20
71.45363295786302
 30
0.0
 10
808.1146115307416
 20
71.16454866867592
 30
0.0
 10
808.1529391124826
 20
71.02674413049185
 30
0.0
 10
808.2304854329592
 20
70.76512545485295
 30
0.0
 10
808.2694616406278
 20
70.64237914817036
 30
0.0
 10
808.3849564970728
 20
70.31105477122269
 30
0.0
 10
808.4628689407432
 20
70.13204364719441
 30
0.0
 10
808.5783488661439
 20
69.95242854781361
 30
0.0
 10
808.617214662009
 20
69.90618419894584
 30
0.0
 10
808.6949889956774
 20
69.84443089293468
 30
0.0
 10
808.733598762632
 20
69.82889382709317
 30
0.0
 10
808.7726394943588
 20
69.82889382709317
 30
0.0
  0
LINE
  5
A1
330
1F
100
AcDbEntity
  8
0
  6
Continuous
 62
     7
370
    25
100
AcDbLine
 10
16.7140608506
 20
69.8288938271
 30
0.0
 11
808.7726394944
 21
69.8288938271
 31
0.0
  0
SPLINE
  5
A2
330
1F
100
AcDbEntity
  8
0
  6
Continuous
 62
     7
370
    25
100
AcDbSpline
210
0.0
220
0.0
230
1.0
 70
     8
 71
     3
 72
    20
 73
    16
 74
     0
 42
0.000000001
 43
0.00000001
 40
0.0
 40
0.0
 40
0.0
 40
0.0
 40
0.1249999999999987
 40
0.1249999999999987
 40
0.2499999999999974
 40
0.2499999999999974
 40
0.3749999999999962
 40
0.3749999999999962
 40
0.4999999999999949
 40
0.4999999999999949
 40
0.7499999999999923
 40
0.7499999999999923
 40
0.8749999999999961
 40
0.8749999999999961
 40
1.0
 40
1.0
 40
1.0
 40
1.0
 10
16.71406085059618
 20
69.82889382709317
 30
0.0
 10
16.75310158145066
 20
69.8288938270931
 30
0.0
 10
16.79162028565051
 20
69.84443038756805
 30
0.0
 10
16.86902703695853
 20
69.90574873952862
 30
0.0
 10
16.908171454945
 20
69.9521724851154
 30
0.0
 10
16.98532220886034
 20
70.07212335526953
 30
0.0
 10
17.02364979060123
 20
70.14572799955296
 30
0.0
 10
17.10119611107791
 20
70.32045836564859
 30
0.0
 10
17.14017231874637
 20
70.4213089945501
 30
0.0
 10
17.25566717519139
 20
70.75259427453412
 30
0.0
 10
17.33357961886167
 20
71.02027443591791
 30
0.0
 10
17.44905954426251
 20
71.45294846197336
 30
0.0
 10
17.48792534012761
 20
71.60446654882446
 30
0.0
 10
17.56569967379601
 20
71.91389230621049
 30
0.0
 10
17.6043094407507
 20
72.07051463590427
 30
0.0
 10
17.64335017247748
 20
72.2288938270931
 30
0.0
  0
SPLINE
  5
A3
330
1F
100
AcDbEntity
  8
0
  6
Continuous
 62
     7
370
    25
100
AcDbSpline
210
0.0
220
0.0
230
1.0
 70
     8
 71
     3
 72
    14
 73
    10
 74
     0
 42
0.000000001
 43
0.00000001
 40
0.0
 40
0.0
 40
0.0
 40
0.0
 40
0.25
 40
0.25
 40
0.5
 40
0.5
 40
0.75
 40
0.75
 40
1.0
 40
1.0
 40
1.0
 40
1.0
 10
807.8433501724776
 20
72.22889382709319
 30
0.0
 10
807.9215515874992
 20
72.09670841123427
 30
0.0
 10
807.9972615347962
 20
71.96872639270066
 30
0.0
 10
808.1525419464431
 20
71.72610236775328
 30
0.0
 10
808.229551796026
 20
71.61566010334342
 30
0.0
 10
808.3849752820536
 20
71.42966320615007
 30
0.0
 10
808.461924998972
 20
71.35586222731172
 30
0.0
 10
808.6173549782214
 20
71.25504364291658
 30
0.0
 10
808.6944380867938
 20
71.22889382709319
 30
0.0
 10
808.7726394943588
 20
71.22889382709319
 30
0.0
  0
LINE
  5
A4
330
1F
100
AcDbEntity
  8
0
  6
Continuous
 62
     7
370
    25
100
AcDbLine
 10
808.7726394944
 20
69.8288938271
 30
0.0
 11
808.7726394944
 21
71.2288938271
 31
0.0
  0
SPLINE
  5
A5
330
1F
100
AcDbEntity
  8
0
  6
Continuous
 62
     7
370
    25
100
AcDbSpline
210
0.0
220
0.0
230
1.0
 70
     8
 71
     3
 72
    14
 73
    10
 74
     0
 42
0.000000001
 43
0.00000001
 40
0.0
 40
0.0
 40
0.0
 40
0.0
 40
0.2499999999999999
 40
0.2499999999999999
 40
0.4999999999999999
 40
0.4999999999999999
 40
0.7499999999999998
 40
0.7499999999999998
 40
1.0
 40
1.0
 40
1.0
 40
1.0
 10
807.8433501724776
 20
463.4288938270933
 30
0.0
 10
807.9755355883365
 20
463.507095242115
 30
0.0
 10
808.10351760687
 20
463.5828051894119
 30
0.0
 10
808.3461416318174
 20
463.7380856010589
 30
0.0
 10
808.4565838962275
 20
463.815095450642
 30
0.0
 10
808.6425807934208
 20
463.9705189366694
 30
0.0
 10
808.716381772259
 20
464.0474686535877
 30
0.0
 10
808.8172003566541
 20
464.202898632837
 30
0.0
 10
808.8433501724774
 20
464.2799817414096
 30
0.0
 10
808.8433501724775
 20
464.3581831489747
 30
0.0
  0
LINE
  5
A6
330
1F
100
AcDbEntity
  8
0
  6
Continuous
 62
     7
370
    25
100
AcDbLine
 10
810.2433501725
 20
464.358183149
 30
0.0
 11
808.8433501725
 21
464.358183149
 31
0.0
  0
LINE
  5
A7
330
1F
100
AcDbEntity
  8
0
  6
Continuous
 62
     7
370
    25
100
AcDbLine
 10
810.2433501725
 20
71.2996045052
 30
0.0
 11
808.8433501725
 21
71.2996045052
 31
0.0
  0
SPLINE
  5
A8
330
1F
100
AcDbEntity
  8
0
  6
Continuous
 62
     7
370
    25
100
AcDbSpline
210
0.0
220
0.0
230
1.0
 70
     8
 71
     3
 72
    14
 73
    10
 74
     0
 42
0.000000001
 43
0.00000001
 40
0.0
 40
0.0
 40
0.0
 40
0.0
 40
0.25
 40
0.25
 40
0.5
 40
0.5
 40
0.75
 40
0.75
 40
1.0
 40
1.0
 40
1.0
 40
1.0
 10
808.8433501724775
 20
71.29960450521178
 30
0.0
 10
808.8433501724775
 20
71.37780592023348
 30
0.0
 10
808.8177915077972
 20
71.45351586753031
 30
0.0
 10
808.7176634792005
 20
71.60879627917738
 30
0.0
 10
808.6440992998962
 20
71.68580612876035
 30
0.0
 10
808.4585616642044
 20
71.84122961478789
 30
0.0
 10
808.3483967432447
 20
71.91817933170627
 30
0.0
 10
808.1057849865554
 20
72.07360931095552
 30
0.0
 10
807.9755355757326
 20
72.15069241952813
 30
0.0
 10
807.8433501724776
 20
72.22889382709316
 30
0.0
  0
SPLINE
  5
A9
330
1F
100
AcDbEntity
  8
0
  6
Continuous
 62
     7
370
    25
100
AcDbSpline
210
0.0
220
0.0
230
1.0
 70
     8
 71
     3
 72
    20
 73
    16
 74
     0
 42
0.000000001
 43
0.00000001
 40
0.0
 40
0.0
 40
0.0
 40
0.0
 40
0.125000000000005
 40
0.125000000000005
 40
0.25000000000001
 40
0.25000000000001
 40
0.375000000000015
 40
0.375000000000015
 40
0.50000000000002
 40
0.50000000000002
 40
0.7500000000000151
 40
0.7500000000000151
 40
0.8750000000000075
 40
0.8750000000000075
 40
1.0
 40
1.0
 40
1.0
 40
1.0
 10
17.64335017247759
 20
463.4288938270931
 30
0.0
 10
17.60430944162311
 20
463.5872730147438
 30
0.0
 10
17.56579073742326
 20
463.7435187394356
 30
0.0
 10
17.48838398611541
 20
464.0515105888522
 30
0.0
 10
17.44923956812866
 20
464.2041546963233
 30
0.0
 10
17.37208881421337
 20
464.4932389855104
 30
0.0
 10
17.33376123247238
 20
464.6310435236944
 30
0.0
 10
17.25621491199592
 20
464.8926621993334
 30
0.0
 10
17.21723870432734
 20
465.0154085060159
 30
0.0
 10
17.10174384788243
 20
465.3467328829636
 30
0.0
 10
17.02383140421199
 20
465.5257440069919
 30
0.0
 10
16.9083514788112
 20
465.7053591063727
 30
0.0
 10
16.86948568294627
 20
465.7516034552404
 30
0.0
 10
16.79171134927754
 20
465.8133567612517
 30
0.0
 10
16.75310158232302
 20
465.8288938270931
 30
0.0
 10
16.71406085059618
 20
465.8288938270931
 30
0.0
  0
SPLINE
  5
AA
330
1F
100
AcDbEntity
  8
0
  6
Continuous
 62
     7
370
    25
100
AcDbSpline
210
0.0
220
0.0
230
1.0
 70
     8
 71
     3
 72
    14
 73
    10
 74
     0
 42
0.000000001
 43
0.00000001
 40
0.0
 40
0.0
 40
0.0
 40
0.0
 40
0.25
 40
0.25
 40
0.5
 40
0.5
 40
0.75
 40
0.75
 40
1.0
 40
1.0
 40
1.0
 40
1.0
 10
17.64335017247759
 20
463.4288938270931
 30
0.0
 10
17.56514875745596
 20
463.561079242952
 30
0.0
 10
17.48943881015897
 20
463.6890612614857
 30
0.0
 10
17.33415839851205
 20
463.931685286433
 30
0.0
 10
17.2571485489289
 20
464.0421275508431
 30
0.0
 10
17.10172506290142
 20
464.2281244480363
 30
0.0
 10
17.02477534598312
 20
464.3019254268747
 30
0.0
 10
16.86934536673368
 20
464.4027440112697
 30
0.0
 10
16.79226225816122
 20
464.4288938270931
 30
0.0
 10
16.71406085059618
 20
464.4288938270931
 30
0.0
  0
LINE
  5
AB
330
1F
100
AcDbEntity
  8
0
  6
Continuous
 62
     7
370
    25
100
AcDbLine
 10
16.7140608506
 20
465.8288938271
 30
0.0
 11
16.7140608506
 21
464.4288938271
 31
0.0
  0
LINE
  5
AC
330
1F
100
AcDbEntity
  8
0
  6
Continuous
 62
     7
370
    25
100
AcDbLine
 10
808.7726394944
 20
465.8288938271
 30
0.0
 11
16.7140608506
 21
465.8288938271
 31
0.0
  0
SPLINE
  5
AD
330
1F
100
AcDbEntity
  8
0
  6
Continuous
 62
     7
370
    25
100
AcDbSpline
210
0.0
220
0.0
230
1.0
 70
     8
 71
     3
 72
    20
 73
    16
 74
     0
 42
0.000000001
 43
0.00000001
 40
0.0
 40
0.0
 40
0.0
 40
0.0
 40
0.125
 40
0.125
 40
0.2499999999999999
 40
0.2499999999999999
 40
0.3749999999999999
 40
0.3749999999999999
 40
0.5
 40
0.5
 40
0.75
 40
0.75
 40
0.875
 40
0.875
 40
1.0
 40
1.0
 40
1.0
 40
1.0
 10
808.7726394943588
 20
465.8288938270931
 30
0.0
 10
808.7335987635045
 20
465.8288938270931
 30
0.0
 10
808.6950800593047
 20
465.8133572666183
 30
0.0
 10
808.6176733079967
 20
465.7520389146576
 30
0.0
 10
808.5785288900098
 20
465.7056151690708
 30
0.0
 10
808.5013781360948
 20
465.5856642989166
 30
0.0
 10
808.4630505543538
 20
465.5120596546333
 30
0.0
 10
808.3855042338772
 20
465.3373292885378
 30
0.0
 10
808.3465280262085
 20
465.2364786596362
 30
0.0
 10
808.2310331697636
 20
464.9051933796523
 30
0.0
 10
808.1531207260932
 20
464.6375132182684
 30
0.0
 10
808.0376408006925
 20
464.2048391922131
 30
0.0
 10
807.9987750048274
 20
464.0533211053619
 30
0.0
 10
807.9210006711589
 20
463.7438953479758
 30
0.0
 10
807.8823909042043
 20
463.5872730182821
 30
0.0
 10
807.8433501724776
 20
463.4288938270933
 30
0.0
  0
SPLINE
  5
AE
330
1F
100
AcDbEntity
  8
0
  6
Continuous
 62
     7
370
    25
100
AcDbSpline
210
0.0
220
0.0
230
1.0
 70
     8
 71
     3
 72
    20
 73
    16
 74
     0
 42
0.000000001
 43
0.00000001
 40
0.0
 40
0.0
 40
0.0
 40
0.0
 40
0.1249999999999946
 40
0.1249999999999946
 40
0.2499999999999892
 40
0.2499999999999892
 40
0.3749999999999838
 40
0.3749999999999838
 40
0.4999999999999785
 40
0.4999999999999785
 40
0.7499999999999974
 40
0.7499999999999974
 40
0.8749999999999987
 40
0.8749999999999987
 40
1.0
 40
1.0
 40
1.0
 40
1.0
 10
17.64335017247753
 20
72.2288938270931
 30
0.0
 10
17.48497098482682
 20
72.18985309623854
 30
0.0
 10
17.32872526013513
 20
72.15133439203875
 30
0.0
 10
17.02073341071852
 20
72.07392764073087
 30
0.0
 10
16.86808930324751
 20
72.03478322274412
 30
0.0
 10
16.57900501406034
 20
71.95763246882902
 30
0.0
 10
16.44120047587627
 20
71.91930488708797
 30
0.0
 10
16.17958180023754
 20
71.84175856661146
 30
0.0
 10
16.0568354935548
 20
71.80278235894275
 30
0.0
 10
15.72551111660714
 20
71.6872875024977
 30
0.0
 10
15.54649999257868
 20
71.60937505882764
 30
0.0
 10
15.36688489319799
 20
71.49389513342675
 30
0.0
 10
15.32064054433002
 20
71.4550293375617
 30
0.0
 10
15.25888723831892
 20
71.37725500389317
 30
0.0
 10
15.24335017247735
 20
71.33864523693833
 30
0.0
 10
15.24335017247752
 20
71.29960450521175
 30
0.0
  0
SPLINE
  5
AF
330
1F
100
AcDbEntity
  8
0
  6
Continuous
 62
     7
370
    25
100
AcDbSpline
210
0.0
220
0.0
230
1.0
 70
     8
 71
     3
 72
    14
 73
    10
 74
     0
 42
0.000000001
 43
0.00000001
 40
0.0
 40
0.0
 40
0.0
 40
0.0
 40
0.25
 40
0.25
 40
0.5
 40
0.5
 40
0.75
 40
0.75
 40
1.0
 40
1.0
 40
1.0
 40
1.0
 10
17.64335017247753
 20
72.2288938270931
 30
0.0
 10
17.51116475661863
 20
72.15069241207145
 30
0.0
 10
17.38318273808503
 20
72.07498246477445
 30
0.0
 10
17.14055871313785
 20
71.91970205312742
 30
0.0
 10
17.03011644872771
 20
71.84269220354453
 30
0.0
 10
16.84411955153431
 20
71.68726871751707
 30
0.0
 10
16.77031857269601
 20
71.61031900059864
 30
0.0
 10
16.66949998830092
 20
71.4548890213495
 30
0.0
 10
16.64335017247753
 20
71.37780591277676
 30
0.0
 10
16.64335017247753
 20
71.29960450521175
 30
0.0
  0
LINE
  5
B0
330
1F
100
AcDbEntity
  8
0
  6
Continuous
 62
     7
370
    25
100
AcDbLine
 10
15.2433501725
 20
71.2996045052
 30
0.0
 11
16.6433501725
 21
71.2996045052
 31
0.0
  0
SPLINE
  5
B1
330
1F
100
AcDbEntity
  8
0
  6
Continuous
 62
     7
370
    25
100
AcDbSpline
210
0.0
220
0.0
230
1.0
 70
     8
 71
     3
 72
    20
 73
    16
 74
     0
 42
0.000000001
 43
0.00000001
 40
0.0
 40
0.0
 40
0.0
 40
0.0
 40
0.1250000000000013
 40
0.1250000000000013
 40
0.2500000000000027
 40
0.2500000000000027
 40
0.375000000000004
 40
0.375000000000004
 40
0.5000000000000052
 40
0.5000000000000052
 40
0.7500000000000027
 40
0.7500000000000027
 40
0.8750000000000013
 40
0.8750000000000013
 40
1.0
 40
1.0
 40
1.0
 40
1.0
 10
15.24335017247752
 20
464.3581831489745
 30
0.0
 10
15.24335017247758
 20
464.3191424181199
 30
0.0
 10
15.25888673295234
 20
464.2806237139202
 30
0.0
 10
15.32020508491294
 20
464.2032169626124
 30
0.0
 10
15.36662883049977
 20
464.1640725446255
 30
0.0
 10
15.48657970065381
 20
464.0869217907104
 30
0.0
 10
15.56018434493744
 20
464.0485942089694
 30
0.0
 10
15.734914711033
 20
463.9710478884929
 30
0.0
 10
15.83576533993447
 20
463.9320716808242
 30
0.0
 10
16.16705061991847
 20
463.8165768243792
 30
0.0
 10
16.43473078130225
 20
463.738664380709
 30
0.0
 10
16.86740480735771
 20
463.6231844553081
 30
0.0
 10
17.01892289420875
 20
463.5843186594431
 30
0.0
 10
17.32834865159505
 20
463.5065443257746
 30
0.0
 10
17.48497098128887
 20
463.4679345588199
 30
0.0
 10
17.64335017247753
 20
463.4288938270932
 30
0.0
  0
LINE
  5
B2
330
1F
100
AcDbEntity
  8
0
  6
Continuous
 62
     7
370
    25
100
AcDbLine
 10
15.2433501725
 20
464.358183149
 30
0.0
 11
16.6433501725
 21
464.358183149
 31
0.0
  0
SPLINE
  5
B3
330
1F
100
AcDbEntity
  8
0
  6
Continuous
 62
     7
370
    25
100
AcDbSpline
210
0.0
220
0.0
230
1.0
 70
     8
 71
     3
 72
    14
 73
    10
 74
     0
 42
0.000000001
 43
0.00000001
 40
0.0
 40
0.0
 40
0.0
 40
0.0
 40
0.2500000000000003
 40
0.2500000000000003
 40
0.5000000000000002
 40
0.5000000000000002
 40
0.7500000000000001
 40
0.7500000000000001
 40
1.0
 40
1.0
 40
1.0
 40
1.0
 10
16.64335017247753
 20
464.3581831489745
 30
0.0
 10
16.64335017247742
 20
464.2799817339529
 30
0.0
 10
16.66890883715777
 20
464.204271786656
 30
0.0
 10
16.76903686575448
 20
464.0489913750091
 30
0.0
 10
16.84260104505853
 20
463.971981525426
 30
0.0
 10
17.02813868075043
 20
463.8165580393984
 30
0.0
 10
17.13830360171026
 20
463.7396083224801
 30
0.0
 10
17.38091535839958
 20
463.5841783432309
 30
0.0
 10
17.51116476922265
 20
463.5070952346582
 30
0.0
 10
17.64335017247753
 20
463.4288938270932
 30
0.0
  0
LINE
  5
B4
330
1F
100
AcDbEntity
  8
0
  6
Continuous
 62
     7
370
    25
100
AcDbLine
 10
15.2433501725
 20
464.358183149
 30
0.0
 11
15.2433501725
 21
71.2996045052
 31
0.0
  0
LINE
  5
B5
330
1F
100
AcDbEntity
  8
0
  6
Continuous
 62
     7
370
    25
100
AcDbLine
 10
16.7140608506
 20
69.8288938271
 30
0.0
 11
16.7140608506
 21
71.2288938271
 31
0.0
  0
SPLINE
  5
B6
330
1F
100
AcDbEntity
  8
0
  6
Continuous
 62
     7
370
    25
100
AcDbSpline
210
0.0
220
0.0
230
1.0
 70
     8
 71
     3
 72
    14
 73
    10
 74
     0
 42
0.000000001
 43
0.00000001
 40
0.0
 40
0.0
 40
0.0
 40
0.0
 40
0.2499999999999998
 40
0.2499999999999998
 40
0.4999999999999999
 40
0.4999999999999999
 40
0.7499999999999999
 40
0.7499999999999999
 40
1.0
 40
1.0
 40
1.0
 40
1.0
 10
16.71406085059618
 20
71.22889382709319
 30
0.0
 10
16.79226226561775
 20
71.22889382709316
 30
0.0
 10
16.86797221291486
 20
71.25445249177339
 30
0.0
 10
17.023252624562
 20
71.35458052037013
 30
0.0
 10
17.10026247414476
 20
71.42814469967449
 30
0.0
 10
17.25568596017213
 20
71.6136823353663
 30
0.0
 10
17.33263567709065
 20
71.7238472563258
 30
0.0
 10
17.48806565633987
 20
71.96645901301518
 30
0.0
 10
17.56514876491233
 20
72.09670842383814
 30
0.0
 10
17.64335017247748
 20
72.22889382709313
 30
0.0
  0
LINE
  5
B7
330
1F
100
AcDbEntity
  8
0
  6
Continuous
 62
     7
370
    25
100
AcDbLine
 10
808.7726394944
 20
465.8288938271
 30
0.0
 11
808.7726394944
 21
464.4288938271
 31
0.0
  0
SPLINE
  5
B8
330
1F
100
AcDbEntity
  8
0
  6
Continuous
 62
     7
370
    25
100
AcDbSpline
210
0.0
220
0.0
230
1.0
 70
     8
 71
     3
 72
    14
 73
    10
 74
     0
 42
0.000000001
 43
0.00000001
 40
0.0
 40
0.0
 40
0.0
 40
0.0
 40
0.2499999999999998
 40
0.2499999999999998
 40
0.4999999999999999
 40
0.4999999999999999
 40
0.7499999999999999
 40
0.7499999999999999
 40
1.0
 40
1.0
 40
1.0
 40
1.0
 10
808.7726394943588
 20
464.4288938270931
 30
0.0
 10
808.6944380793373
 20
464.4288938270932
 30
0.0
 10
808.6187281320404
 20
464.4033351624129
 30
0.0
 10
808.4634477203931
 20
464.303207133816
 30
0.0
 10
808.3864378708104
 20
464.2296429545117
 30
0.0
 10
808.2310143847828
 20
464.04410531882
 30
0.0
 10
808.1540646678644
 20
463.9339403978606
 30
0.0
 10
807.9986346886154
 20
463.6913286411711
 30
0.0
 10
807.9215515800427
 20
463.5610792303482
 30
0.0
 10
807.8433501724776
 20
463.4288938270932
 30
0.0
  0
CIRCLE
  5
B9
330
1F
100
AcDbEntity
  8
0
  6
Continuous
 62
     7
370
    25
100
AcDbCircle
 10
71.2433501725
 20
417.8288938271
 30
0.0
 40
5.500000000000111
  0
ARC
  5
BA
330
1F
100
AcDbEntity
  8
0
  6
Continuous
 62
     7
370
    25
100
AcDbCircle
 10
73.4233600741
 20
418.8858299419
 30
0.0
 40
0.5050994627334905
100
AcDbArc
 50
298.8005827702
 51
112.9304972368
  0
ARC
  5
BB
330
1F
100
AcDbEntity
  8
0
  6
Continuous
 62
     7
370
    25
100
AcDbCircle
 10
71.2433501725
 20
417.8288938271
 30
0.0
 40
2.499999999999951
100
AcDbArc
 50
37.506301084
 51
74.2247789229
  0
ARC
  5
BC
330
1F
100
AcDbEntity
  8
0
  6
Continuous
 62
     7
370
    25
100
AcDbCircle
 10
71.4180215977
 20
420.2453058398
 30
0.0
 40
0.5050994627349636
100
AcDbArc
 50
358.800582771
 51
172.930497236
  0
ARC
  5
BD
330
1F
100
AcDbEntity
  8
0
  6
Continuous
 62
     7
370
    25
100
AcDbCircle
 10
71.2433501725
 20
417.8288938271
 30
0.0
 40
2.499999999999944
100
AcDbArc
 50
97.5063010841
 51
134.2247789229
  0
ARC
  5
BE
330
1F
100
AcDbEntity
  8
0
  6
Continuous
 62
     7
370
    25
100
AcDbCircle
 10
69.2380116961
 20
419.188369725
 30
0.0
 40
0.5050994627351607
100
AcDbArc
 50
58.8005827697
 51
232.9304972372
  0
ARC
  5
BF
330
1F
100
AcDbEntity
  8
0
  6
Continuous
 62
     7
370
    25
100
AcDbCircle
 10
71.2433501725
 20
417.8288938271
 30
0.0
 40
2.499999999999968
100
AcDbArc
 50
157.5063010841
 51
194.2247789229
  0
ARC
  5
C0
330
1F
100
AcDbEntity
  8
0
  6
Continuous
 62
     7
370
    25
100
AcDbCircle
 10
69.0633402709
 20
416.7719577123
 30
0.0
 40
0.5050994627332872
100
AcDbArc
 50
118.8005827707
 51
292.9304972361
  0
ARC
  5
C1
330
1F
100
AcDbEntity
  8
0
  6
Continuous
 62
     7
370
    25
100
AcDbCircle
 10
71.2433501725
 20
417.8288938271
 30
0.0
 40
2.49999999999995
100
AcDbArc
 50
217.506301084
 51
254.2247789229
  0
ARC
  5
C2
330
1F
100
AcDbEntity
  8
0
  6
Continuous
 62
     7
370
    25
100
AcDbCircle
 10
71.0686787473
 20
415.4124818144
 30
0.0
 40
0.5050994627366077
100
AcDbArc
 50
178.8005827716
 51
352.9304972354
  0
ARC
  5
C3
330
1F
100
AcDbEntity
  8
0
  6
Continuous
 62
     7
370
    25
100
AcDbCircle
 10
71.2433501725
 20
417.8288938271
 30
0.0
 40
2.49999999999994
100
AcDbArc
 50
277.5063010841
 51
314.2247789229
  0
ARC
  5
C4
330
1F
100
AcDbEntity
  8
0
  6
Continuous
 62
     7
370
    25
100
AcDbCircle
 10
73.2486886489
 20
416.4694179292
 30
0.0
 40
0.5050994627355243
100
AcDbArc
 50
238.8005827701
 51
52.9304972368
  0
ARC
  5
C5
330
1F
100
AcDbEntity
  8
0
  6
Continuous
 62
     7
370
    25
100
AcDbCircle
 10
71.2433501725
 20
417.8288938271
 30
0.0
 40
2.499999999999984
100
AcDbArc
 50
337.5063010841
 51
14.2247789229
  0
CIRCLE
  5
C6
330
1F
100
AcDbEntity
  8
0
  6
Continuous
 62
     7
370
    25
100
AcDbCircle
 10
754.2433501725
 20
417.8288938271
 30
0.0
 40
5.500000000000131
  0
ARC
  5
C7
330
1F
100
AcDbEntity
  8
0
  6
Continuous
 62
     7
370
    25
100
AcDbCircle
 10
754.2433501725
 20
417.8288938271
 30
0.0
 40
2.499999999999982
100
AcDbArc
 50
100.8681863767
 51
137.5866642156
  0
ARC
  5
C8
330
1F
100
AcDbEntity
  8
0
  6
Continuous
 62
     7
370
    25
100
AcDbCircle
 10
752.1617399655
 20
419.0684324784
 30
0.0
 40
0.5050994627349373
100
AcDbArc
 50
62.1624680637
 51
236.2923825287
  0
ARC
  5
C9
330
1F
100
AcDbEntity
  8
0
  6
Continuous
 62
     7
370
    25
100
AcDbCircle
 10
752.129073108
 20
416.6459358327
 30
0.0
 40
0.5050994627351884
100
AcDbArc
 50
122.1624680624
 51
296.2923825299
  0
ARC
  5
CA
330
1F
100
AcDbEntity
  8
0
  6
Continuous
 62
     7
370
    25
100
AcDbCircle
 10
754.2433501725
 20
417.8288938271
 30
0.0
 40
2.500000000000072
100
AcDbArc
 50
220.8681863768
 51
257.5866642156
  0
ARC
  5
CB
330
1F
100
AcDbEntity
  8
0
  6
Continuous
 62
     7
370
    25
100
AcDbCircle
 10
754.210683315
 20
415.4063971814
 30
0.0
 40
0.5050994627334479
100
AcDbArc
 50
182.1624680634
 51
356.2923825288
  0
ARC
  5
CC
330
1F
100
AcDbEntity
  8
0
  6
Continuous
 62
     7
370
    25
100
AcDbCircle
 10
754.2433501725
 20
417.8288938271
 30
0.0
 40
2.500000000000025
100
AcDbArc
 50
280.8681863767
 51
317.5866642156
  0
ARC
  5
CD
330
1F
100
AcDbEntity
  8
0
  6
Continuous
 62
     7
370
    25
100
AcDbCircle
 10
756.3249603795
 20
416.5893551758
 30
0.0
 40
0.50509946273661
100
AcDbArc
 50
242.1624680643
 51
56.2923825281
  0
ARC
  5
CE
330
1F
100
AcDbEntity
  8
0
  6
Continuous
 62
     7
370
    25
100
AcDbCircle
 10
754.2433501725
 20
417.8288938271
 30
0.0
 40
2.499999999999905
100
AcDbArc
 50
40.8681863768
 51
77.5866642156
  0
ARC
  5
CF
330
1F
100
AcDbEntity
  8
0
  6
Continuous
 62
     7
370
    25
100
AcDbCircle
 10
754.2433501725
 20
417.8288938271
 30
0.0
 40
2.500000000000034
100
AcDbArc
 50
160.8681863768
 51
197.5866642156
  0
ARC
  5
D0
330
1F
100
AcDbEntity
  8
0
  6
Continuous
 62
     7
370
    25
100
AcDbCircle
 10
754.2433501725
 20
417.8288938271
 30
0.0
 40
2.499999999999891
100
AcDbArc
 50
340.8681863768
 51
17.5866642156
  0
ARC
  5
D1
330
1F
100
AcDbEntity
  8
0
  6
Continuous
 62
     7
370
    25
100
AcDbCircle
 10
756.357627237
 20
419.0118518215
 30
0.0
 40
0.5050994627355602
100
AcDbArc
 50
302.1624680628
 51
116.2923825295
  0
ARC
  5
D2
330
1F
100
AcDbEntity
  8
0
  6
Continuous
 62
     7
370
    25
100
AcDbCircle
 10
754.27601703
 20
420.2513904728
 30
0.0
 40
0.5050994627335933
100
AcDbArc
 50
2.1624680629
 51
176.2923825295
  0
CIRCLE
  5
D3
330
1F
100
AcDbEntity
  8
0
  6
Continuous
 62
     7
370
    25
100
AcDbCircle
 10
754.2433501725
 20
117.8288938271
 30
0.0
 40
5.500000000000046
  0
ARC
  5
D4
330
1F
100
AcDbEntity
  8
0
  6
Continuous
 62
     7
370
    25
100
AcDbCircle
 10
752.0173920234
 20
116.872511351
 30
0.0
 40
0.5050994627334959
100
AcDbArc
 50
116.1858115767
 51
290.3157260433
  0
ARC
  5
D5
330
1F
100
AcDbEntity
  8
0
  6
Continuous
 62
     7
370
    25
100
AcDbCircle
 10
756.184580767
 20
116.3793487603
 30
0.0
 40
0.5050994627351528
100
AcDbArc
 50
236.1858115763
 51
50.3157260438
  0
ARC
  5
D6
330
1F
100
AcDbEntity
  8
0
  6
Continuous
 62
     7
370
    25
100
AcDbCircle
 10
754.2433501725
 20
117.8288938271
 30
0.0
 40
2.499999999999939
100
AcDbArc
 50
334.8915298906
 51
11.6100077295
  0
ARC
  5
D7
330
1F
100
AcDbEntity
  8
0
  6
Continuous
 62
     7
370
    25
100
AcDbCircle
 10
756.4693083215
 20
118.7852763032
 30
0.0
 40
0.5050994627332835
100
AcDbArc
 50
296.1858115773
 51
110.3157260427
  0
ARC
  5
D8
330
1F
100
AcDbEntity
  8
0
  6
Continuous
 62
     7
370
    25
100
AcDbCircle
 10
754.2433501725
 20
117.8288938271
 30
0.0
 40
2.499999999999954
100
AcDbArc
 50
34.8915298906
 51
71.6100077295
  0
ARC
  5
D9
330
1F
100
AcDbEntity
  8
0
  6
Continuous
 62
     7
370
    25
100
AcDbCircle
 10
752.3021195779
 20
119.2784388939
 30
0.0
 40
0.5050994627355123
100
AcDbArc
 50
56.1858115767
 51
230.3157260434
  0
ARC
  5
DA
330
1F
100
AcDbEntity
  8
0
  6
Continuous
 62
     7
370
    25
100
AcDbCircle
 10
754.2433501725
 20
117.8288938271
 30
0.0
 40
2.499999999999944
100
AcDbArc
 50
154.8915298906
 51
191.6100077295
  0
ARC
  5
DB
330
1F
100
AcDbEntity
  8
0
  6
Continuous
 62
     7
370
    25
100
AcDbCircle
 10
754.2433501725
 20
117.8288938271
 30
0.0
 40
2.499999999999952
100
AcDbArc
 50
94.8915298907
 51
131.6100077294
  0
ARC
  5
DC
330
1F
100
AcDbEntity
  8
0
  6
Continuous
 62
     7
370
    25
100
AcDbCircle
 10
754.2433501725
 20
117.8288938271
 30
0.0
 40
2.500000000000021
100
AcDbArc
 50
214.8915298906
 51
251.6100077295
  0
ARC
  5
DD
330
1F
100
AcDbEntity
  8
0
  6
Continuous
 62
     7
370
    25
100
AcDbCircle
 10
753.958622618
 20
115.4229662842
 30
0.0
 40
0.5050994627349347
100
AcDbArc
 50
176.1858115776
 51
350.3157260426
  0
ARC
  5
DE
330
1F
100
AcDbEntity
  8
0
  6
Continuous
 62
     7
370
    25
100
AcDbCircle
 10
754.2433501725
 20
117.8288938271
 30
0.0
 40
2.499999999999941
100
AcDbArc
 50
274.8915298907
 51
311.6100077294
  0
ARC
  5
DF
330
1F
100
AcDbEntity
  8
0
  6
Continuous
 62
     7
370
    25
100
AcDbCircle
 10
754.528077727
 20
120.23482137
 30
0.0
 40
0.5050994627367397
100
AcDbArc
 50
356.1858115782
 51
170.315726042
  0
CIRCLE
  5
E0
330
1F
100
AcDbEntity
  8
0
  6
Continuous
 62
     7
370
    25
100
AcDbCircle
 10
71.2433501725
 20
117.8288938271
 30
0.0
 40
5.500000000000111
  0
ARC
  5
E1
330
1F
100
AcDbEntity
  8
0
  6
Continuous
 62
     7
370
    25
100
AcDbCircle
 10
73.4233600741
 20
118.8858299419
 30
0.0
 40
0.5050994627334966
100
AcDbArc
 50
298.8005827702
 51
112.9304972368
  0
ARC
  5
E2
330
1F
100
AcDbEntity
  8
0
  6
Continuous
 62
     7
370
    25
100
AcDbCircle
 10
71.2433501725
 20
117.8288938271
 30
0.0
 40
2.499999999999947
100
AcDbArc
 50
37.506301084
 51
74.2247789229
  0
ARC
  5
E3
330
1F
100
AcDbEntity
  8
0
  6
Continuous
 62
     7
370
    25
100
AcDbCircle
 10
71.4180215977
 20
120.2453058398
 30
0.0
 40
0.5050994627349636
100
AcDbArc
 50
358.800582771
 51
172.930497236
  0
ARC
  5
E4
330
1F
100
AcDbEntity
  8
0
  6
Continuous
 62
     7
370
    25
100
AcDbCircle
 10
71.2433501725
 20
117.8288938271
 30
0.0
 40
2.499999999999958
100
AcDbArc
 50
97.5063010841
 51
134.2247789229
  0
ARC
  5
E5
330
1F
100
AcDbEntity
  8
0
  6
Continuous
 62
     7
370
    25
100
AcDbCircle
 10
69.2380116961
 20
119.188369725
 30
0.0
 40
0.5050994627351555
100
AcDbArc
 50
58.8005827697
 51
232.9304972372
  0
ARC
  5
E6
330
1F
100
AcDbEntity
  8
0
  6
Continuous
 62
     7
370
    25
100
AcDbCircle
 10
71.2433501725
 20
117.8288938271
 30
0.0
 40
2.499999999999951
100
AcDbArc
 50
157.5063010841
 51
194.2247789229
  0
ARC
  5
E7
330
1F
100
AcDbEntity
  8
0
  6
Continuous
 62
     7
370
    25
100
AcDbCircle
 10
69.0633402709
 20
116.7719577123
 30
0.0
 40
0.5050994627332748
100
AcDbArc
 50
118.8005827707
 51
292.9304972361
  0
ARC
  5
E8
330
1F
100
AcDbEntity
  8
0
  6
Continuous
 62
     7
370
    25
100
AcDbCircle
 10
71.2433501725
 20
117.8288938271
 30
0.0
 40
2.499999999999953
100
AcDbArc
 50
217.506301084
 51
254.2247789229
  0
ARC
  5
E9
330
1F
100
AcDbEntity
  8
0
  6
Continuous
 62
     7
370
    25
100
AcDbCircle
 10
71.0686787473
 20
115.4124818144
 30
0.0
 40
0.5050994627366082
100
AcDbArc
 50
178.8005827716
 51
352.9304972354
  0
ARC
  5
EA
330
1F
100
AcDbEntity
  8
0
  6
Continuous
 62
     7
370
    25
100
AcDbCircle
 10
71.2433501725
 20
117.8288938271
 30
0.0
 40
2.499999999999961
100
AcDbArc
 50
277.5063010841
 51
314.2247789229
  0
ARC
  5
EB
330
1F
100
AcDbEntity
  8
0
  6
Continuous
 62
     7
370
    25
100
AcDbCircle
 10
73.2486886489
 20
116.4694179292
 30
0.0
 40
0.5050994627355121
100
AcDbArc
 50
238.8005827701
 51
52.9304972368
  0
ARC
  5
EC
330
1F
100
AcDbEntity
  8
0
  6
Continuous
 62
     7
370
    25
100
AcDbCircle
 10
71.2433501725
 20
117.8288938271
 30
0.0
 40
2.499999999999974
100
AcDbArc
 50
337.5063010841
 51
14.2247789229
  0
LINE
  5
ED
330
1F
100
AcDbEntity
  8
0
  6
Continuous
 62
     7
370
    25
100
AcDbLine
 10
59.7433501725
 20
480.3288938271
 30
0.0
 11
60.5433501725
 21
480.3288938271
 31
0.0
  0
LINE
  5
EE
330
1F
100
AcDbEntity
  8
0
  6
Continuous
 62
     7
370
    25
100
AcDbLine
 10
59.7433501725
 20
480.3288938271
 30
0.0
 11
59.7433501725
 21
497.3288938271
 31
0.0
  0
LINE
  5
EF
330
1F
100
AcDbEntity
  8
0
  6
Continuous
 62
     7
370
    25
100
AcDbLine
 10
60.5433501725
 20
480.3288938271
 30
0.0
 11
60.5433501725
 21
497.3288938271
 31
0.0
  0
LINE
  5
F0
330
1F
100
AcDbEntity
  8
0
  6
Continuous
 62
     7
370
    25
100
AcDbLine
 10
59.7433501725
 20
500.3288938271
 30
0.0
 11
60.5433501725
 21
500.3288938271
 31
0.0
  0
LINE
  5
F1
330
1F
100
AcDbEntity
  8
0
  6
Continuous
 62
     7
370
    25
100
AcDbLine
 10
60.5433501725
 20
500.3288938271
 30
0.0
 11
60.5433501725
 21
497.3288938271
 31
0.0
  0
LINE
  5
F2
330
1F
100
AcDbEntity
  8
0
  6
Continuous
 62
     7
370
    25
100
AcDbLine
 10
59.7433501725
 20
497.3288938271
 30
0.0
 11
59.7433501725
 21
500.3288938271
 31
0.0
  0
LINE
  5
F3
330
1F
100
AcDbEntity
  8
0
  6
Continuous
 62
     7
370
    25
100
AcDbLine
 10
764.9433501725
 20
497.3288938271
 30
0.0
 11
764.9433501725
 21
500.3288938271
 31
0.0
  0
LINE
  5
F4
330
1F
100
AcDbEntity
  8
0
  6
Continuous
 62
     7
370
    25
100
AcDbLine
 10
764.9433501725
 20
500.3288938271
 30
0.0
 11
765.7433501725
 21
500.3288938271
 31
0.0
  0
LINE
  5
F5
330
1F
100
AcDbEntity
  8
0
  6
Continuous
 62
     7
370
    25
100
AcDbLine
 10
765.7433501725
 20
500.3288938271
 30
0.0
 11
765.7433501725
 21
497.3288938271
 31
0.0
  0
LINE
  5
F6
330
1F
100
AcDbEntity
  8
0
  6
Continuous
 62
     7
370
    25
100
AcDbLine
 10
765.7433501725
 20
480.3288938271
 30
0.0
 11
764.9433501725
 21
480.3288938271
 31
0.0
  0
LINE
  5
F7
330
1F
100
AcDbEntity
  8
0
  6
Continuous
 62
     7
370
    25
100
AcDbLine
 10
765.7433501725
 20
497.3288938271
 30
0.0
 11
765.7433501725
 21
480.3288938271
 31
0.0
  0
LINE
  5
F8
330
1F
100
AcDbEntity
  8
0
  6
Continuous
 62
     7
370
    25
100
AcDbLine
 10
764.9433501725
 20
497.3288938271
 30
0.0
 11
764.9433501725
 21
480.3288938271
 31
0.0
  0
LINE
  5
F9
330
1F
100
AcDbEntity
  8
0
  6
Continuous
 62
     7
370
    25
100
AcDbLine
 10
60.5433501725
 20
465.8288938271
 30
0.0
 11
60.5433501725
 21
477.1288938271
 31
0.0
  0
LINE
  5
FA
330
1F
100
AcDbEntity
  8
0
  6
Continuous
 62
     7
370
    25
100
AcDbLine
 10
60.5433501725
 20
478.8288938271
 30
0.0
 11
60.5433501725
 21
480.3288938271
 31
0.0
  0
LINE
  5
FB
330
1F
100
AcDbEntity
  8
0
  6
Continuous
 62
     7
370
    25
100
AcDbLine
 10
59.7433501725
 20
465.8288938271
 30
0.0
 11
59.7433501725
 21
480.3288938271
 31
0.0
  0
LINE
  5
FC
330
1F
100
AcDbEntity
  8
0
  6
Continuous
 62
     7
370
    25
100
AcDbLine
 10
765.7433501725
 20
480.3288938271
 30
0.0
 11
765.7433501725
 21
465.8288938271
 31
0.0
  0
LINE
  5
FD
330
1F
100
AcDbEntity
  8
0
  6
Continuous
 62
     7
370
    25
100
AcDbLine
 10
764.9433501725
 20
480.3288938271
 30
0.0
 11
764.9433501725
 21
478.8288938271
 31
0.0
  0
LINE
  5
FE
330
1F
100
AcDbEntity
  8
0
  6
Continuous
 62
     7
370
    25
100
AcDbLine
 10
764.9433501725
 20
477.1288938271
 30
0.0
 11
764.9433501725
 21
465.8288938271
 31
0.0
  0
LINE
  5
FF
330
1F
100
AcDbEntity
  8
0
  6
Continuous
 62
     7
370
    25
100
AcDbLine
 10
774.4021001725
 20
465.8288938271
 30
0.0
 11
774.4021001725
 21
471.8288938271
 31
0.0
  0
LINE
  5
100
330
1F
100
AcDbEntity
  8
0
  6
Continuous
 62
     7
370
    25
100
AcDbLine
 10
774.9433501725
 20
466.9445009114
 30
0.0
 11
774.9433501725
 21
471.2876438271
 31
0.0
  0
LINE
  5
101
330
1F
100
AcDbEntity
  8
0
  6
Continuous
 62
     7
370
    25
100
AcDbLine
 10
774.9433501725
 20
466.3701438271
 30
0.0
 11
774.9433501725
 21
466.9445009114
 31
0.0
  0
LINE
  5
102
330
1F
100
AcDbEntity
  8
0
  6
Continuous
 62
     7
370
    25
100
AcDbLine
 10
60.3224199399
 20
478.8288938271
 30
0.0
 11
765.164280405
 21
478.8288938271
 31
0.0
  0
LINE
  5
103
330
1F
100
AcDbEntity
  8
0
  6
Continuous
 62
     7
370
    25
100
AcDbLine
 10
60.3224199399
 20
477.1288938271
 30
0.0
 11
765.164280405
 21
477.1288938271
 31
0.0
  0
ELLIPSE
  5
104
330
1F
100
AcDbEntity
  8
0
  6
Continuous
 62
     7
370
    25
100
AcDbEllipse
 10
60.3224199399
 20
477.9788938271
 30
0.0
 11
0.0
 21
0.8499999999999658
 31
0.0
210
0.0
220
0.0
230
1.0
 40
0.0930232558
 41
0.0
 42
3.141592653589792
  0
ELLIPSE
  5
105
330
1F
100
AcDbEntity
  8
0
  6
Continuous
 62
     7
370
    25
100
AcDbEllipse
 10
765.164280405
 20
477.9788938271
 30
0.0
 11
0.0
 21
0.8499999999999658
 31
0.0
210
0.0
220
0.0
230
1.0
 40
0.0930232558
 41
3.141592653586918
 42
6.283185307179586
  0
LINE
  5
106
330
1F
100
AcDbEntity
  8
0
  6
Continuous
 62
     7
370
    25
100
AcDbLine
 10
764.2433501725
 20
477.0288938271
 30
0.0
 11
764.2433501725
 21
477.1288938271
 31
0.0
  0
LINE
  5
107
330
1F
100
AcDbEntity
  8
0
  6
Continuous
 62
     7
370
    25
100
AcDbLine
 10
61.2433501725
 20
477.1288938271
 30
0.0
 11
61.2433501725
 21
477.0288938271
 31
0.0
  0
LINE
  5
108
330
1F
100
AcDbEntity
  8
0
  6
Continuous
 62
     7
370
    25
100
AcDbLine
 10
764.2433501725
 20
465.8288938271
 30
0.0
 11
764.2433501725
 21
477.0288938271
 31
0.0
  0
LINE
  5
109
330
1F
100
AcDbEntity
  8
0
  6
Continuous
 62
     7
370
    25
100
AcDbLine
 10
61.2433501725
 20
477.0288938271
 30
0.0
 11
61.2433501725
 21
465.8288938271
 31
0.0
  0
LINE
  5
10A
330
1F
100
AcDbEntity
  8
0
  6
Continuous
 62
     7
370
    25
100
AcDbLine
 10
51.0846001725
 20
470.1252596734
 30
0.0
 11
51.0846001725
 21
465.8288938271
 31
0.0
  0
LINE
  5
10B
330
1F
100
AcDbEntity
  8
0
  6
Continuous
 62
     7
370
    25
100
AcDbLine
 10
51.0846001725
 20
471.8288938271
 30
0.0
 11
51.0846001725
 21
470.1252596734
 31
0.0
  0
LINE
  5
10C
330
1F
100
AcDbEntity
  8
0
  6
Continuous
 62
     7
370
    25
100
AcDbLine
 10
50.5433501725
 20
471.2876438271
 30
0.0
 11
50.5433501725
 21
466.3701438271
 31
0.0
  0
LINE
  5
10D
330
1F
100
AcDbEntity
  8
0
  6
Continuous
 62
     7
370
    25
100
AcDbLine
 10
742.1038114087
 20
469.0933377069
 30
0.0
 11
743.5558871326
 21
469.326281572
 31
0.0
  0
ARC
  5
10E
330
1F
100
AcDbEntity
  8
0
  6
Continuous
 62
     7
370
    25
100
AcDbCircle
 10
754.0688164875
 20
470.4051078377
 30
0.0
 40
12.03669752931213
100
AcDbArc
 50
186.2565722693
 51
191.9710500657
  0
LINE
  5
10F
330
1F
100
AcDbEntity
  8
0
  6
Continuous
 62
     7
370
    25
100
AcDbLine
 10
742.2938867036
 20
467.9084869221
 30
0.0
 11
743.7459624275
 21
468.1414307872
 31
0.0
  0
LINE
  5
110
330
1F
100
AcDbEntity
  8
0
  6
Continuous
 62
     7
370
    25
100
AcDbLine
 10
743.7459624275
 20
468.1414307872
 30
0.0
 11
743.9789062927
 21
466.6893550633
 31
0.0
  0
ARC
  5
111
330
1F
100
AcDbEntity
  8
0
  6
Continuous
 62
     7
370
    25
100
AcDbCircle
 10
742.6671361618
 20
478.6543601421
 30
0.0
 40
12.03669752932831
100
AcDbArc
 50
276.2565722693
 51
281.9710500657
  0
LINE
  5
112
330
1F
100
AcDbEntity
  8
0
  6
Continuous
 62
     7
370
    25
100
AcDbLine
 10
744.9308132123
 20
468.3315060821
 30
0.0
 11
745.1637570775
 21
466.8794303582
 31
0.0
  0
ARC
  5
113
330
1F
100
AcDbEntity
  8
0
  6
Continuous
 62
     7
370
    25
100
AcDbCircle
 10
734.4178838575
 20
467.2526798165
 30
0.0
 40
12.03669752931489
100
AcDbArc
 50
6.2565722693
 51
11.9710500657
  0
LINE
  5
114
330
1F
100
AcDbEntity
  8
0
  6
Continuous
 62
     7
370
    25
100
AcDbLine
 10
744.7407379174
 20
469.516356867
 30
0.0
 11
746.1928136414
 21
469.7493007321
 31
0.0
  0
ARC
  5
115
330
1F
100
AcDbEntity
  8
0
  6
Continuous
 62
     7
370
    25
100
AcDbCircle
 10
745.8195641831
 20
459.0034275121
 30
0.0
 40
12.03669752932084
100
AcDbArc
 50
96.2565722693
 51
101.9710500657
  0
ARC
  5
116
330
1F
100
AcDbEntity
  8
0
  6
Continuous
 62
     7
370
    25
100
AcDbCircle
 10
744.2433501725
 20
468.8288938271
 30
0.0
 40
4.000000000000006
100
AcDbArc
 50
311.4096221093
 51
99.1138111675
  0
ARC
  5
117
330
1F
100
AcDbEntity
  8
0
  6
Continuous
 62
     7
370
    25
100
AcDbCircle
 10
744.2433501725
 20
468.8288938271
 30
0.0
 40
4.000000000000006
100
AcDbArc
 50
99.1138111675
 51
228.5903778907
  0
LINE
  5
118
330
1F
100
AcDbEntity
  8
0
  6
Continuous
 62
     7
370
    25
100
AcDbLine
 10
744.9308132123
 20
468.3315060821
 30
0.0
 11
746.3828889363
 21
468.5644499473
 31
0.0
  0
LINE
  5
119
330
1F
100
AcDbEntity
  8
0
  6
Continuous
 62
     7
370
    25
100
AcDbLine
 10
743.3229432674
 20
470.778357296
 30
0.0
 11
743.5558871326
 21
469.326281572
 31
0.0
  0
LINE
  5
11A
330
1F
100
AcDbEntity
  8
0
  6
Continuous
 62
     7
370
    25
100
AcDbLine
 10
744.5077940522
 20
470.9684325909
 30
0.0
 11
744.7407379174
 21
469.516356867
 31
0.0
  0
LINE
  5
11B
330
1F
100
AcDbEntity
  8
0
  6
Continuous
 62
     7
370
    25
100
AcDbLine
 10
744.8888442655
 20
469.5401162788
 30
0.0
 11
745.0789195604
 21
468.355265494
 31
0.0
  0
LINE
  5
11C
330
1F
100
AcDbEntity
  8
0
  6
Continuous
 62
     7
370
    25
100
AcDbLine
 10
744.9545726242
 20
468.183399734
 30
0.0
 11
743.7697218394
 21
467.9933244391
 31
0.0
  0
LINE
  5
11D
330
1F
100
AcDbEntity
  8
0
  6
Continuous
 62
     7
370
    25
100
AcDbLine
 10
744.7169785056
 20
469.6644632151
 30
0.0
 11
743.5321277207
 21
469.4743879201
 31
0.0
  0
LINE
  5
11E
330
1F
100
AcDbEntity
  8
0
  6
Continuous
 62
     7
370
    25
100
AcDbLine
 10
743.4077807845
 20
469.3025221602
 30
0.0
 11
743.5978560794
 21
468.1176713754
 31
0.0
  0
LINE
  5
11F
330
1F
100
AcDbEntity
  8
0
  6
Continuous
 62
     7
370
    25
100
AcDbLine
 10
299.1038114087
 20
469.0933377069
 30
0.0
 11
300.5558871326
 21
469.326281572
 31
0.0
  0
ARC
  5
120
330
1F
100
AcDbEntity
  8
0
  6
Continuous
 62
     7
370
    25
100
AcDbCircle
 10
311.0688164875
 20
470.4051078377
 30
0.0
 40
12.03669752933202
100
AcDbArc
 50
186.2565722693
 51
191.9710500657
  0
LINE
  5
121
330
1F
100
AcDbEntity
  8
0
  6
Continuous
 62
     7
370
    25
100
AcDbLine
 10
299.2938867036
 20
467.9084869221
 30
0.0
 11
300.7459624275
 21
468.1414307872
 31
0.0
  0
LINE
  5
122
330
1F
100
AcDbEntity
  8
0
  6
Continuous
 62
     7
370
    25
100
AcDbLine
 10
300.7459624275
 20
468.1414307872
 30
0.0
 11
300.9789062927
 21
466.6893550633
 31
0.0
  0
ARC
  5
123
330
1F
100
AcDbEntity
  8
0
  6
Continuous
 62
     7
370
    25
100
AcDbCircle
 10
299.6671361618
 20
478.6543601421
 30
0.0
 40
12.03669752932323
100
AcDbArc
 50
276.2565722693
 51
281.9710500657
  0
LINE
  5
124
330
1F
100
AcDbEntity
  8
0
  6
Continuous
 62
     7
370
    25
100
AcDbLine
 10
301.9308132123
 20
468.3315060821
 30
0.0
 11
302.1637570775
 21
466.8794303582
 31
0.0
  0
ARC
  5
125
330
1F
100
AcDbEntity
  8
0
  6
Continuous
 62
     7
370
    25
100
AcDbCircle
 10
291.4178838574
 20
467.2526798165
 30
0.0
 40
12.03669752933708
100
AcDbArc
 50
6.2565722693
 51
11.9710500657
  0
LINE
  5
126
330
1F
100
AcDbEntity
  8
0
  6
Continuous
 62
     7
370
    25
100
AcDbLine
 10
301.7407379174
 20
469.516356867
 30
0.0
 11
303.1928136414
 21
469.7493007321
 31
0.0
  0
ARC
  5
127
330
1F
100
AcDbEntity
  8
0
  6
Continuous
 62
     7
370
    25
100
AcDbCircle
 10
302.8195641831
 20
459.0034275121
 30
0.0
 40
12.03669752931904
100
AcDbArc
 50
96.2565722693
 51
101.9710500657
  0
ARC
  5
128
330
1F
100
AcDbEntity
  8
0
  6
Continuous
 62
     7
370
    25
100
AcDbCircle
 10
301.2433501725
 20
468.8288938271
 30
0.0
 40
4.000000000000012
100
AcDbArc
 50
311.4096221093
 51
99.1138111675
  0
ARC
  5
129
330
1F
100
AcDbEntity
  8
0
  6
Continuous
 62
     7
370
    25
100
AcDbCircle
 10
301.2433501725
 20
468.8288938271
 30
0.0
 40
4.000000000000054
100
AcDbArc
 50
99.1138111675
 51
228.5903778907
  0
LINE
  5
12A
330
1F
100
AcDbEntity
  8
0
  6
Continuous
 62
     7
370
    25
100
AcDbLine
 10
300.3229432674
 20
470.778357296
 30
0.0
 11
300.5558871326
 21
469.326281572
 31
0.0
  0
LINE
  5
12B
330
1F
100
AcDbEntity
  8
0
  6
Continuous
 62
     7
370
    25
100
AcDbLine
 10
301.5077940522
 20
470.9684325909
 30
0.0
 11
301.7407379174
 21
469.516356867
 31
0.0
  0
LINE
  5
12C
330
1F
100
AcDbEntity
  8
0
  6
Continuous
 62
     7
370
    25
100
AcDbLine
 10
301.9308132123
 20
468.3315060821
 30
0.0
 11
303.3828889363
 21
468.5644499473
 31
0.0
  0
LINE
  5
12D
330
1F
100
AcDbEntity
  8
0
  6
Continuous
 62
     7
370
    25
100
AcDbLine
 10
301.8888442655
 20
469.5401162788
 30
0.0
 11
302.0789195604
 21
468.355265494
 31
0.0
  0
LINE
  5
12E
330
1F
100
AcDbEntity
  8
0
  6
Continuous
 62
     7
370
    25
100
AcDbLine
 10
301.9545726242
 20
468.183399734
 30
0.0
 11
300.7697218394
 21
467.9933244391
 31
0.0
  0
LINE
  5
12F
330
1F
100
AcDbEntity
  8
0
  6
Continuous
 62
     7
370
    25
100
AcDbLine
 10
301.7169785056
 20
469.6644632151
 30
0.0
 11
300.5321277207
 21
469.4743879201
 31
0.0
  0
LINE
  5
130
330
1F
100
AcDbEntity
  8
0
  6
Continuous
 62
     7
370
    25
100
AcDbLine
 10
300.4077807845
 20
469.3025221602
 30
0.0
 11
300.5978560794
 21
468.1176713754
 31
0.0
  0
LINE
  5
131
330
1F
100
AcDbEntity
  8
0
  6
Continuous
 62
     7
370
    25
100
AcDbLine
 10
522.1038114087
 20
469.0933377069
 30
0.0
 11
523.5558871326
 21
469.326281572
 31
0.0
  0
ARC
  5
132
330
1F
100
AcDbEntity
  8
0
  6
Continuous
 62
     7
370
    25
100
AcDbCircle
 10
534.0688164875
 20
470.4051078377
 30
0.0
 40
12.03669752934203
100
AcDbArc
 50
186.2565722694
 51
191.9710500657
  0
LINE
  5
133
330
1F
100
AcDbEntity
  8
0
  6
Continuous
 62
     7
370
    25
100
AcDbLine
 10
522.2938867036
 20
467.9084869221
 30
0.0
 11
523.7459624275
 21
468.1414307872
 31
0.0
  0
ARC
  5
134
330
1F
100
AcDbEntity
  8
0
  6
Continuous
 62
     7
370
    25
100
AcDbCircle
 10
522.6671361618
 20
478.6543601421
 30
0.0
 40
12.03669752932019
100
AcDbArc
 50
276.2565722693
 51
281.9710500657
  0
ARC
  5
135
330
1F
100
AcDbEntity
  8
0
  6
Continuous
 62
     7
370
    25
100
AcDbCircle
 10
514.4178838574
 20
467.2526798165
 30
0.0
 40
12.03669752932948
100
AcDbArc
 50
6.2565722693
 51
11.9710500657
  0
ARC
  5
136
330
1F
100
AcDbEntity
  8
0
  6
Continuous
 62
     7
370
    25
100
AcDbCircle
 10
525.8195641831
 20
459.0034275121
 30
0.0
 40
12.03669752932297
100
AcDbArc
 50
96.2565722693
 51
101.9710500657
  0
ARC
  5
137
330
1F
100
AcDbEntity
  8
0
  6
Continuous
 62
     7
370
    25
100
AcDbCircle
 10
524.2433501725
 20
468.8288938271
 30
0.0
 40
4.000000000000006
100
AcDbArc
 50
311.4096221093
 51
99.1138111675
  0
ARC
  5
138
330
1F
100
AcDbEntity
  8
0
  6
Continuous
 62
     7
370
    25
100
AcDbCircle
 10
524.2433501725
 20
468.8288938271
 30
0.0
 40
4.000000000000049
100
AcDbArc
 50
99.1138111675
 51
228.5903778907
  0
LINE
  5
139
330
1F
100
AcDbEntity
  8
0
  6
Continuous
 62
     7
370
    25
100
AcDbLine
 10
524.7407379174
 20
469.516356867
 30
0.0
 11
526.1928136414
 21
469.7493007321
 31
0.0
  0
LINE
  5
13A
330
1F
100
AcDbEntity
  8
0
  6
Continuous
 62
     7
370
    25
100
AcDbLine
 10
524.9308132123
 20
468.3315060821
 30
0.0
 11
525.1637570775
 21
466.8794303582
 31
0.0
  0
LINE
  5
13B
330
1F
100
AcDbEntity
  8
0
  6
Continuous
 62
     7
370
    25
100
AcDbLine
 10
524.5077940522
 20
470.9684325909
 30
0.0
 11
524.7407379174
 21
469.516356867
 31
0.0
  0
LINE
  5
13C
330
1F
100
AcDbEntity
  8
0
  6
Continuous
 62
     7
370
    25
100
AcDbLine
 10
523.3229432674
 20
470.778357296
 30
0.0
 11
523.5558871326
 21
469.326281572
 31
0.0
  0
LINE
  5
13D
330
1F
100
AcDbEntity
  8
0
  6
Continuous
 62
     7
370
    25
100
AcDbLine
 10
523.7459624275
 20
468.1414307872
 30
0.0
 11
523.9789062927
 21
466.6893550633
 31
0.0
  0
LINE
  5
13E
330
1F
100
AcDbEntity
  8
0
  6
Continuous
 62
     7
370
    25
100
AcDbLine
 10
524.9308132123
 20
468.3315060821
 30
0.0
 11
526.3828889363
 21
468.5644499473
 31
0.0
  0
LINE
  5
13F
330
1F
100
AcDbEntity
  8
0
  6
Continuous
 62
     7
370
    25
100
AcDbLine
 10
524.8888442655
 20
469.5401162788
 30
0.0
 11
525.0789195604
 21
468.355265494
 31
0.0
  0
LINE
  5
140
330
1F
100
AcDbEntity
  8
0
  6
Continuous
 62
     7
370
    25
100
AcDbLine
 10
524.7169785056
 20
469.6644632151
 30
0.0
 11
523.5321277207
 21
469.4743879201
 31
0.0
  0
LINE
  5
141
330
1F
100
AcDbEntity
  8
0
  6
Continuous
 62
     7
370
    25
100
AcDbLine
 10
524.9545726242
 20
468.183399734
 30
0.0
 11
523.7697218394
 21
467.9933244391
 31
0.0
  0
LINE
  5
142
330
1F
100
AcDbEntity
  8
0
  6
Continuous
 62
     7
370
    25
100
AcDbLine
 10
523.4077807845
 20
469.3025221602
 30
0.0
 11
523.5978560794
 21
468.1176713754
 31
0.0
  0
LINE
  5
143
330
1F
100
AcDbEntity
  8
0
  6
Continuous
 62
     7
370
    25
100
AcDbLine
 10
80.3229432674
 20
470.778357296
 30
0.0
 11
80.5558871326
 21
469.326281572
 31
0.0
  0
ARC
  5
144
330
1F
100
AcDbEntity
  8
0
  6
Continuous
 62
     7
370
    25
100
AcDbCircle
 10
91.0688164875
 20
470.4051078377
 30
0.0
 40
12.03669752935675
100
AcDbArc
 50
186.2565722694
 51
191.9710500657
  0
LINE
  5
145
330
1F
100
AcDbEntity
  8
0
  6
Continuous
 62
     7
370
    25
100
AcDbLine
 10
80.7459624275
 20
468.1414307872
 30
0.0
 11
80.9789062927
 21
466.6893550633
 31
0.0
  0
ARC
  5
146
330
1F
100
AcDbEntity
  8
0
  6
Continuous
 62
     7
370
    25
100
AcDbCircle
 10
79.6671361618
 20
478.6543601421
 30
0.0
 40
12.03669752932698
100
AcDbArc
 50
276.2565722693
 51
281.9710500657
  0
LINE
  5
147
330
1F
100
AcDbEntity
  8
0
  6
Continuous
 62
     7
370
    25
100
AcDbLine
 10
81.9308132123
 20
468.3315060821
 30
0.0
 11
82.1637570775
 21
466.8794303582
 31
0.0
  0
LINE
  5
148
330
1F
100
AcDbEntity
  8
0
  6
Continuous
 62
     7
370
    25
100
AcDbLine
 10
81.9308132123
 20
468.3315060821
 30
0.0
 11
83.3828889363
 21
468.5644499473
 31
0.0
  0
ARC
  5
149
330
1F
100
AcDbEntity
  8
0
  6
Continuous
 62
     7
370
    25
100
AcDbCircle
 10
71.4178838574
 20
467.2526798165
 30
0.0
 40
12.03669752935778
100
AcDbArc
 50
6.2565722694
 51
11.9710500657
  0
LINE
  5
14A
330
1F
100
AcDbEntity
  8
0
  6
Continuous
 62
     7
370
    25
100
AcDbLine
 10
81.7407379174
 20
469.516356867
 30
0.0
 11
83.1928136414
 21
469.7493007321
 31
0.0
  0
LINE
  5
14B
330
1F
100
AcDbEntity
  8
0
  6
Continuous
 62
     7
370
    25
100
AcDbLine
 10
81.5077940522
 20
470.9684325909
 30
0.0
 11
81.7407379174
 21
469.516356867
 31
0.0
  0
ARC
  5
14C
330
1F
100
AcDbEntity
  8
0
  6
Continuous
 62
     7
370
    25
100
AcDbCircle
 10
82.8195641831
 20
459.0034275121
 30
0.0
 40
12.03669752931961
100
AcDbArc
 50
96.2565722693
 51
101.9710500657
  0
ARC
  5
14D
330
1F
100
AcDbEntity
  8
0
  6
Continuous
 62
     7
370
    25
100
AcDbCircle
 10
81.2433501725
 20
468.8288938271
 30
0.0
 40
4.000000000000054
100
AcDbArc
 50
311.4096221093
 51
99.1138111675
  0
ARC
  5
14E
330
1F
100
AcDbEntity
  8
0
  6
Continuous
 62
     7
370
    25
100
AcDbCircle
 10
81.2433501725
 20
468.8288938271
 30
0.0
 40
4.000000000000044
100
AcDbArc
 50
99.1138111675
 51
228.5903778907
  0
LINE
  5
14F
330
1F
100
AcDbEntity
  8
0
  6
Continuous
 62
     7
370
    25
100
AcDbLine
 10
79.2938867036
 20
467.9084869221
 30
0.0
 11
80.7459624275
 21
468.1414307872
 31
0.0
  0
LINE
  5
150
330
1F
100
AcDbEntity
  8
0
  6
Continuous
 62
     7
370
    25
100
AcDbLine
 10
79.1038114087
 20
469.0933377069
 30
0.0
 11
80.5558871326
 21
469.326281572
 31
0.0
  0
LINE
  5
151
330
1F
100
AcDbEntity
  8
0
  6
Continuous
 62
     7
370
    25
100
AcDbLine
 10
81.8888442655
 20
469.5401162788
 30
0.0
 11
82.0789195604
 21
468.355265494
 31
0.0
  0
LINE
  5
152
330
1F
100
AcDbEntity
  8
0
  6
Continuous
 62
     7
370
    25
100
AcDbLine
 10
81.7169785056
 20
469.6644632151
 30
0.0
 11
80.5321277207
 21
469.4743879201
 31
0.0
  0
LINE
  5
153
330
1F
100
AcDbEntity
  8
0
  6
Continuous
 62
     7
370
    25
100
AcDbLine
 10
81.9545726242
 20
468.183399734
 30
0.0
 11
80.7697218394
 21
467.9933244391
 31
0.0
  0
LINE
  5
154
330
1F
100
AcDbEntity
  8
0
  6
Continuous
 62
     7
370
    25
100
AcDbLine
 10
80.4077807845
 20
469.3025221602
 30
0.0
 11
80.5978560794
 21
468.1176713754
 31
0.0
  0
SPLINE
  5
155
330
1F
100
AcDbEntity
  8
0
  6
Continuous
 62
     7
370
    25
100
AcDbSpline
210
0.0
220
0.0
230
1.0
 70
    24
 71
     3
 72
    18
 73
    14
 74
     0
 42
0.000000001
 43
0.00000001
 40
0.0
 40
0.0
 40
0.0
 40
0.0
 40
0.1395442450004755
 40
0.2146633576115608
 40
0.2913766055701594
 40
0.3680898535287578
 40
0.4432089661398433
 40
0.5827532111403181
 40
0.7222974561407933
 40
0.7974165687518796
 40
0.8741298167104772
 40
0.9508430646690751
 40
1.0
 40
1.0
 40
1.0
 40
1.0
 10
61.54335017247769
 20
488.5983657703269
 30
0.0
 10
61.54335017247769
 20
488.9834966622525
 30
0.0
 10
61.54335017247781
 20
489.5759502627604
 30
0.0
 10
61.54335017247759
 20
490.8118644441456
 30
0.0
 10
61.54335017247775
 20
491.8878940565003
 30
0.0
 10
61.54335017247775
 20
493.0514221770492
 30
0.0
 10
61.54335017247759
 20
494.5718693680675
 30
0.0
 10
61.54335017247769
 20
496.3960593660741
 30
0.0
 10
61.54335017247764
 20
497.9112943206666
 30
0.0
 10
61.54335017247775
 20
498.8290416190965
 30
0.0
 10
61.54335017247775
 20
499.3326584374501
 30
0.0
 10
61.54335017247764
 20
499.6047955621901
 30
0.0
 10
61.54335017247759
 20
499.6028877193042
 30
0.0
 10
61.54335017247764
 20
499.6021426364981
 30
0.0
  0
SPLINE
  5
156
330
1F
100
AcDbEntity
  8
0
  6
Continuous
 62
     7
370
    25
100
AcDbSpline
210
0.0
220
0.0
230
1.0
 70
     8
 71
     3
 72
     8
 73
     4
 74
     0
 42
0.000000001
 43
0.00000001
 40
0.0
 40
0.0
 40
0.0
 40
0.0
 40
1.0
 40
1.0
 40
1.0
 40
1.0
 10
65.5433501724706
 20
491.0042244159609
 30
0.0
 10
65.5433501724706
 20
491.8172139876661
 30
0.0
 10
65.36903487209133
 20
492.6079523837339
 30
0.0
 10
65.09676818507926
 20
493.3861873822107
 30
0.0
  0
SPLINE
  5
157
330
1F
100
AcDbEntity
  8
0
  6
Continuous
 62
     7
370
    25
100
AcDbSpline
210
0.0
220
0.0
230
1.0
 70
     8
 71
     3
 72
     8
 73
     4
 74
     0
 42
0.000000001
 43
0.00000001
 40
0.0
 40
0.0
 40
0.0
 40
0.0
 40
1.0
 40
1.0
 40
1.0
 40
1.0
 10
65.09676818507926
 20
488.6222614497112
 30
0.0
 10
65.36903487209067
 20
489.4004964481861
 30
0.0
 10
65.5433501724706
 20
490.1912348442578
 30
0.0
 10
65.5433501724706
 20
491.0042244159609
 30
0.0
  0
LINE
  5
158
330
1F
100
AcDbEntity
  8
0
  6
Continuous
 62
     7
370
    25
100
AcDbLine
 10
61.5433501725
 20
488.6222614497
 30
0.0
 11
65.0967681851
 21
488.6222614497
 31
0.0
  0
LINE
  5
159
330
1F
100
AcDbEntity
  8
0
  6
Continuous
 62
     7
370
    25
100
AcDbLine
 10
65.0967681851
 20
493.3861873822
 30
0.0
 11
61.5433501725
 21
493.3861873822
 31
0.0
  0
SPLINE
  5
15A
330
1F
100
AcDbEntity
  8
0
  6
Continuous
 62
     7
370
    25
100
AcDbSpline
210
0.0
220
0.0
230
1.0
 70
     8
 71
     3
 72
     8
 73
     4
 74
     0
 42
0.000000001
 43
0.00000001
 40
0.0
 40
0.0
 40
0.0
 40
0.0
 40
1.0
 40
1.0
 40
1.0
 40
1.0
 10
65.54335017247054
 20
495.9895035709075
 30
0.0
 10
65.54335017247054
 20
496.8780433774632
 30
0.0
 10
65.36903487209112
 20
497.7422642308823
 30
0.0
 10
65.09676818507926
 20
498.5928197595974
 30
0.0
  0
SPLINE
  5
15B
330
1F
100
AcDbEntity
  8
0
  6
Continuous
 62
     7
370
    25
100
AcDbSpline
210
0.0
220
0.0
230
1.0
 70
     8
 71
     3
 72
     8
 73
     4
 74
     0
 42
0.000000001
 43
0.00000001
 40
0.0
 40
0.0
 40
0.0
 40
0.0
 40
1.0
 40
1.0
 40
1.0
 40
1.0
 10
65.09676818507926
 20
493.3861873822174
 30
0.0
 10
65.36903487209072
 20
494.2367429109313
 30
0.0
 10
65.54335017247054
 20
495.100963764353
 30
0.0
 10
65.54335017247054
 20
495.9895035709075
 30
0.0
  0
LINE
  5
15C
330
1F
100
AcDbEntity
  8
0
  6
Continuous
 62
     7
370
    25
100
AcDbLine
 10
61.5433501725
 20
498.5928197596
 30
0.0
 11
65.0967681851
 21
498.5928197596
 31
0.0
  0
LINE
  5
15D
330
1F
100
AcDbEntity
  8
0
  6
Continuous
 62
     7
370
    25
100
AcDbLine
 10
65.5433501725
 20
491.004224416
 30
0.0
 11
65.5433501725
 21
495.9895035709
 31
0.0
  0
SPLINE
  5
15E
330
1F
100
AcDbEntity
  8
0
  6
Continuous
 62
     7
370
    25
100
AcDbSpline
210
0.0
220
0.0
230
1.0
 70
     8
 71
     3
 72
     8
 73
     4
 74
     0
 42
0.000000001
 43
0.00000001
 40
0.0
 40
0.0
 40
0.0
 40
0.0
 40
1.0
 40
1.0
 40
1.0
 40
1.0
 10
65.09676818507937
 20
498.5928197596011
 30
0.0
 10
65.36903487209078
 20
498.6651402898399
 30
0.0
 10
65.54335017247071
 20
498.7386227471904
 30
0.0
 10
65.54335017247071
 20
498.8141729820416
 30
0.0
  0
LINE
  5
15F
330
1F
100
AcDbEntity
  8
0
  6
Continuous
 62
     7
370
    25
100
AcDbLine
 10
65.5433501725
 20
495.9895035709
 30
0.0
 11
65.5433501725
 21
498.814172982
 31
0.0
  0
SPLINE
  5
160
330
1F
100
AcDbEntity
  8
0
  6
Continuous
 62
     7
370
    25
100
AcDbSpline
210
0.0
220
0.0
230
1.0
 70
     8
 71
     3
 72
     8
 73
     4
 74
     0
 42
0.000000001
 43
0.00000001
 40
0.0
 40
0.0
 40
0.0
 40
0.0
 40
1.0
 40
1.0
 40
1.0
 40
1.0
 10
65.54335017247071
 20
488.8436146721489
 30
0.0
 10
65.54335017247071
 20
488.7680644372976
 30
0.0
 10
65.36903487209128
 20
488.6945819799473
 30
0.0
 10
65.09676818507931
 20
488.6222614497084
 30
0.0
  0
LINE
  5
161
330
1F
100
AcDbEntity
  8
0
  6
Continuous
 62
     7
370
    25
100
AcDbLine
 10
65.5433501725
 20
491.004224416
 30
0.0
 11
65.5433501725
 21
488.8362213333
 31
0.0
  0
SPLINE
  5
162
330
1F
100
AcDbEntity
  8
0
  6
Continuous
 62
     7
370
    25
100
AcDbSpline
210
0.0
220
0.0
230
1.0
 70
     8
 71
     3
 72
     8
 73
     4
 74
     0
 42
0.000000001
 43
0.00000001
 40
0.0
 40
0.0
 40
0.0
 40
0.0
 40
1.0
 40
1.0
 40
1.0
 40
1.0
 10
65.54335017247071
 20
498.8141729820416
 30
0.0
 10
65.54335017247071
 20
498.8897232168928
 30
0.0
 10
65.36903487209128
 20
498.9632056742431
 30
0.0
 10
65.09676818507931
 20
499.035526204482
 30
0.0
  0
LINE
  5
163
330
1F
100
AcDbEntity
  8
0
  6
Continuous
 62
     7
370
    25
100
AcDbLine
 10
61.5433501725
 20
499.0355262045
 30
0.0
 11
65.0967681851
 21
499.0355262045
 31
0.0
  0
LINE
  5
164
330
1F
100
AcDbEntity
  8
0
  6
Continuous
 62
     7
370
    25
100
AcDbLine
 10
51.0846001725
 20
495.1252596734
 30
0.0
 11
51.0846001725
 21
490.8288938271
 31
0.0
  0
LINE
  5
165
330
1F
100
AcDbEntity
  8
0
  6
Continuous
 62
     7
370
    25
100
AcDbLine
 10
51.0846001725
 20
496.8288938271
 30
0.0
 11
51.0846001725
 21
495.1252596734
 31
0.0
  0
LINE
  5
166
330
1F
100
AcDbEntity
  8
0
  6
Continuous
 62
     7
370
    25
100
AcDbLine
 10
50.5433501725
 20
496.2876438271
 30
0.0
 11
50.5433501725
 21
491.3701438271
 31
0.0
  0
LINE
  5
167
330
1F
100
AcDbEntity
  8
0
  6
Continuous
 62
     7
370
    25
100
AcDbLine
 10
914.1294164712
 20
465.050267155
 30
0.0
 11
914.4923542496
 21
465.6788938271
 31
0.0
  0
LINE
  5
168
330
1F
100
AcDbEntity
  8
0
  6
Continuous
 62
     7
370
    25
100
AcDbLine
 10
914.4923542496
 20
471.9788938271
 30
0.0
 11
914.1294164712
 21
472.6075204992
 31
0.0
  0
ARC
  5
169
330
1F
100
AcDbEntity
  8
0
  6
Continuous
 62
     7
370
    25
100
AcDbCircle
 10
911.2641510193
 20
468.8288938271
 30
0.0
 40
8.000000000000066
100
AcDbArc
 50
330.0
 51
344.7252520003
  0
ARC
  5
16A
330
1F
100
AcDbEntity
  8
0
  6
Continuous
 62
     7
370
    25
100
AcDbCircle
 10
911.2641510193
 20
468.8288938271
 30
0.0
 40
8.000000000000094
100
AcDbArc
 50
15.2747479997
 51
30.0
  0
LINE
  5
16B
330
1F
100
AcDbEntity
  8
0
  6
Continuous
 62
     7
370
    25
100
AcDbLine
 10
916.1923542496
 20
464.8288938271
 30
0.0
 11
918.1923542496
 21
464.8288938271
 31
0.0
  0
LINE
  5
16C
330
1F
100
AcDbEntity
  8
0
  6
Continuous
 62
     7
370
    25
100
AcDbLine
 10
918.1923542496
 20
472.8288938271
 30
0.0
 11
916.1923542496
 21
472.8288938271
 31
0.0
  0
LINE
  5
16D
330
1F
100
AcDbEntity
  8
0
  6
Continuous
 62
     7
370
    25
100
AcDbLine
 10
914.4923542496
 20
466.8288938271
 30
0.0
 11
914.5923542496
 21
466.8288938271
 31
0.0
  0
LINE
  5
16E
330
1F
100
AcDbEntity
  8
0
  6
Continuous
 62
     7
370
    25
100
AcDbLine
 10
914.5923542496
 20
470.8288938271
 30
0.0
 11
914.4923542496
 21
470.8288938271
 31
0.0
  0
LINE
  5
16F
330
1F
100
AcDbEntity
  8
0
  6
Continuous
 62
     7
370
    25
100
AcDbLine
 10
921.4923542496
 20
464.358183149
 30
0.0
 11
921.4923542496
 21
71.2996045052
 31
0.0
  0
LINE
  5
170
330
1F
100
AcDbEntity
  8
0
  6
Continuous
 62
     7
370
    25
100
AcDbLine
 10
931.0923542496
 20
464.358183149
 30
0.0
 11
921.4923542496
 21
464.358183149
 31
0.0
  0
LINE
  5
171
330
1F
100
AcDbEntity
  8
0
  6
Continuous
 62
     7
370
    25
100
AcDbLine
 10
931.0923542496
 20
71.2996045052
 30
0.0
 11
921.4923542496
 21
71.2996045052
 31
0.0
  0
SPLINE
  5
172
330
1F
100
AcDbEntity
  8
0
  6
Continuous
 62
     7
370
    25
100
AcDbSpline
210
0.0
220
0.0
230
1.0
 70
     8
 71
     3
 72
    20
 73
    16
 74
     0
 42
0.000000001
 43
0.00000001
 40
0.0
 40
0.0
 40
0.0
 40
0.0
 40
0.1250000000000013
 40
0.1250000000000013
 40
0.2500000000000027
 40
0.2500000000000027
 40
0.375000000000004
 40
0.375000000000004
 40
0.5000000000000052
 40
0.5000000000000052
 40
0.7500000000000027
 40
0.7500000000000027
 40
0.8750000000000013
 40
0.8750000000000013
 40
1.0
 40
1.0
 40
1.0
 40
1.0
 10
931.0923542495843
 20
464.3581831489745
 30
0.0
 10
931.2507334372351
 20
464.3191424181199
 30
0.0
 10
931.4069791619268
 20
464.2806237139202
 30
0.0
 10
931.7149710113433
 20
464.2032169626124
 30
0.0
 10
931.8676151188146
 20
464.1640725446255
 30
0.0
 10
932.1566994080016
 20
464.0869217907104
 30
0.0
 10
932.2945039461856
 20
464.0485942089694
 30
0.0
 10
932.5561226218246
 20
463.9710478884929
 30
0.0
 10
932.6788689285072
 20
463.9320716808242
 30
0.0
 10
933.0101933054549
 20
463.8165768243792
 30
0.0
 10
933.1892044294832
 20
463.738664380709
 30
0.0
 10
933.3688195288639
 20
463.6231844553081
 30
0.0
 10
933.4150638777317
 20
463.5843186594431
 30
0.0
 10
933.4768171837429
 20
463.5065443257746
 30
0.0
 10
933.4923542495843
 20
463.4679345588199
 30
0.0
 10
933.4923542495843
 20
463.4288938270932
 30
0.0
  0
LINE
  5
173
330
1F
100
AcDbEntity
  8
0
  6
Continuous
 62
     7
370
    25
100
AcDbLine
 10
933.4923542496
 20
463.4288938271
 30
0.0
 11
933.4923542496
 21
72.2288938271
 31
0.0
  0
SPLINE
  5
174
330
1F
100
AcDbEntity
  8
0
  6
Continuous
 62
     7
370
    25
100
AcDbSpline
210
0.0
220
0.0
230
1.0
 70
     8
 71
     3
 72
    20
 73
    16
 74
     0
 42
0.000000001
 43
0.00000001
 40
0.0
 40
0.0
 40
0.0
 40
0.0
 40
0.1249999999999946
 40
0.1249999999999946
 40
0.2499999999999892
 40
0.2499999999999892
 40
0.3749999999999838
 40
0.3749999999999838
 40
0.4999999999999785
 40
0.4999999999999785
 40
0.7499999999999974
 40
0.7499999999999974
 40
0.8749999999999987
 40
0.8749999999999987
 40
1.0
 40
1.0
 40
1.0
 40
1.0
 10
933.4923542495843
 20
72.2288938270931
 30
0.0
 10
933.4923542495843
 20
72.18985309623854
 30
0.0
 10
933.4768176891095
 20
72.15133439203875
 30
0.0
 10
933.4154993371488
 20
72.07392764073087
 30
0.0
 10
933.369075591562
 20
72.03478322274412
 30
0.0
 10
933.249124721408
 20
71.95763246882902
 30
0.0
 10
933.1755200771246
 20
71.91930488708797
 30
0.0
 10
933.0007897110288
 20
71.84175856661146
 30
0.0
 10
932.8999390821273
 20
71.80278235894275
 30
0.0
 10
932.5686538021433
 20
71.6872875024977
 30
0.0
 10
932.3009736407595
 20
71.60937505882764
 30
0.0
 10
931.868299614704
 20
71.49389513342675
 30
0.0
 10
931.716781527853
 20
71.4550293375617
 30
0.0
 10
931.4073557704669
 20
71.37725500389317
 30
0.0
 10
931.2507334407732
 20
71.33864523693833
 30
0.0
 10
931.0923542495843
 20
71.29960450521175
 30
0.0
  0
SPLINE
  5
175
330
1F
100
AcDbEntity
  8
0
  6
Continuous
 62
     7
370
    25
100
AcDbSpline
210
0.0
220
0.0
230
1.0
 70
     8
 71
     3
 72
    20
 73
    16
 74
     0
 42
0.000000001
 43
0.00000001
 40
0.0
 40
0.0
 40
0.0
 40
0.0
 40
0.125000000000005
 40
0.125000000000005
 40
0.25000000000001
 40
0.25000000000001
 40
0.375000000000015
 40
0.375000000000015
 40
0.50000000000002
 40
0.50000000000002
 40
0.7500000000000151
 40
0.7500000000000151
 40
0.8750000000000075
 40
0.8750000000000075
 40
1.0
 40
1.0
 40
1.0
 40
1.0
 10
933.4923542495843
 20
463.4288938270931
 30
0.0
 10
933.4923542495843
 20
463.5872730147438
 30
0.0
 10
933.4768176891095
 20
463.7435187394356
 30
0.0
 10
933.4154993371488
 20
464.0515105888522
 30
0.0
 10
933.369075591562
 20
464.2041546963233
 30
0.0
 10
933.2491247214078
 20
464.4932389855104
 30
0.0
 10
933.1755200771246
 20
464.6310435236944
 30
0.0
 10
933.0007897110288
 20
464.8926621993334
 30
0.0
 10
932.8999390821273
 20
465.0154085060159
 30
0.0
 10
932.5686538021433
 20
465.3467328829636
 30
0.0
 10
932.3009736407595
 20
465.5257440069919
 30
0.0
 10
931.868299614704
 20
465.7053591063727
 30
0.0
 10
931.716781527853
 20
465.7516034552404
 30
0.0
 10
931.4073557704669
 20
465.8133567612517
 30
0.0
 10
931.2507334407732
 20
465.8288938270931
 30
0.0
 10
931.0923542495843
 20
465.8288938270931
 30
0.0
  0
SPLINE
  5
176
330
1F
100
AcDbEntity
  8
0
  6
Continuous
 62
     7
370
    25
100
AcDbSpline
210
0.0
220
0.0
230
1.0
 70
     8
 71
     3
 72
     9
 73
     5
 74
     0
 42
0.000000001
 43
0.00000001
 40
0.0
 40
0.0
 40
0.0
 40
0.0
 40
0.4825784287288793
 40
1.0
 40
1.0
 40
1.0
 40
1.0
 10
931.7048939887623
 20
464.2050640590396
 30
0.0
 10
931.616759647446
 20
464.268872252101
 30
0.0
 10
931.434127486393
 20
464.4010957193402
 30
0.0
 10
931.2088946023486
 20
464.4194150237967
 30
0.0
 10
931.0923542495843
 20
464.4288938270931
 30
0.0
  0
LINE
  5
177
330
1F
100
AcDbEntity
  8
0
  6
Continuous
 62
     7
370
    25
100
AcDbLine
 10
931.0923542496
 20
465.8288938271
 30
0.0
 11
931.0923542496
 21
464.4288938271
 31
0.0
  0
LINE
  5
178
330
1F
100
AcDbEntity
  8
0
  6
Continuous
 62
     7
370
    25
100
AcDbLine
 10
931.0923542496
 20
69.8288938271
 30
0.0
 11
931.0923542496
 21
71.2288938271
 31
0.0
  0
SPLINE
  5
179
330
1F
100
AcDbEntity
  8
0
  6
Continuous
 62
     7
370
    25
100
AcDbSpline
210
0.0
220
0.0
230
1.0
 70
     8
 71
     3
 72
     9
 73
     5
 74
     0
 42
0.000000001
 43
0.00000001
 40
0.0
 40
0.0
 40
0.0
 40
0.0
 40
0.7329379507274864
 40
1.0
 40
1.0
 40
1.0
 40
1.0
 10
931.0923542495843
 20
71.22889382709319
 30
0.0
 10
931.2437428912401
 20
71.24064847661089
 30
0.0
 10
931.4502933113754
 20
71.25668619099865
 30
0.0
 10
931.605653653494
 20
71.3850234974924
 30
0.0
 10
931.6471445048358
 20
71.41929752156275
 30
0.0
  0
SPLINE
  5
17A
330
1F
100
AcDbEntity
  8
0
  6
Continuous
 62
     7
370
    25
100
AcDbSpline
210
0.0
220
0.0
230
1.0
 70
     8
 71
     3
 72
    20
 73
    16
 74
     0
 42
0.000000001
 43
0.00000001
 40
0.0
 40
0.0
 40
0.0
 40
0.0
 40
0.1249999999999987
 40
0.1249999999999987
 40
0.2499999999999974
 40
0.2499999999999974
 40
0.3749999999999962
 40
0.3749999999999962
 40
0.4999999999999949
 40
0.4999999999999949
 40
0.7499999999999923
 40
0.7499999999999923
 40
0.8749999999999961
 40
0.8749999999999961
 40
1.0
 40
1.0
 40
1.0
 40
1.0
 10
931.0923542495843
 20
69.82889382709317
 30
0.0
 10
931.250733437235
 20
69.8288938270931
 30
0.0
 10
931.4069791619268
 20
69.84443038756805
 30
0.0
 10
931.7149710113432
 20
69.90574873952862
 30
0.0
 10
931.8676151188145
 20
69.9521724851154
 30
0.0
 10
932.1566994080015
 20
70.07212335526953
 30
0.0
 10
932.2945039461855
 20
70.14572799955296
 30
0.0
 10
932.5561226218244
 20
70.32045836564859
 30
0.0
 10
932.6788689285072
 20
70.4213089945501
 30
0.0
 10
933.0101933054549
 20
70.75259427453412
 30
0.0
 10
933.1892044294831
 20
71.02027443591791
 30
0.0
 10
933.3688195288639
 20
71.45294846197336
 30
0.0
 10
933.4150638777317
 20
71.60446654882446
 30
0.0
 10
933.4768171837429
 20
71.91389230621049
 30
0.0
 10
933.4923542495843
 20
72.07051463590427
 30
0.0
 10
933.4923542495843
 20
72.2288938270931
 30
0.0
  0
LINE
  5
17B
330
1F
100
AcDbEntity
  8
0
  6
Continuous
 62
     7
370
    25
100
AcDbLine
 10
931.0923542496
 20
71.2288938271
 30
0.0
 11
921.4923542496
 21
71.2288938271
 31
0.0
  0
LINE
  5
17C
330
1F
100
AcDbEntity
  8
0
  6
Continuous
 62
     7
370
    25
100
AcDbLine
 10
931.0923542496
 20
69.8288938271
 30
0.0
 11
921.4923542496
 21
69.8288938271
 31
0.0
  0
LINE
  5
17D
330
1F
100
AcDbEntity
  8
0
  6
Continuous
 62
     7
370
    25
100
AcDbLine
 10
921.4923542496
 20
69.8288938271
 30
0.0
 11
921.4923542496
 21
71.2288938271
 31
0.0
  0
LINE
  5
17E
330
1F
100
AcDbEntity
  8
0
  6
Continuous
 62
     7
370
    25
100
AcDbLine
 10
931.0923542496
 20
465.8288938271
 30
0.0
 11
921.4923542496
 21
465.8288938271
 31
0.0
  0
LINE
  5
17F
330
1F
100
AcDbEntity
  8
0
  6
Continuous
 62
     7
370
    25
100
AcDbLine
 10
931.0923542496
 20
464.4288938271
 30
0.0
 11
921.4923542496
 21
464.4288938271
 31
0.0
  0
LINE
  5
180
330
1F
100
AcDbEntity
  8
0
  6
Continuous
 62
     7
370
    25
100
AcDbLine
 10
921.4923542496
 20
465.8288938271
 30
0.0
 11
921.4923542496
 21
464.4288938271
 31
0.0
  0
LINE
  5
181
330
1F
100
AcDbEntity
  8
0
  6
Continuous
 62
     7
370
    25
100
AcDbLine
 10
913.3923542496
 20
480.3288938271
 30
0.0
 11
917.3923542496
 21
480.3288938271
 31
0.0
  0
LINE
  5
182
330
1F
100
AcDbEntity
  8
0
  6
Continuous
 62
     7
370
    25
100
AcDbLine
 10
913.3923542496
 20
463.1288938271
 30
0.0
 11
913.3923542496
 21
480.3288938271
 31
0.0
  0
LINE
  5
183
330
1F
100
AcDbEntity
  8
0
  6
Continuous
 62
     7
370
    25
100
AcDbLine
 10
894.3923542496
 20
497.3288938271
 30
0.0
 11
894.3923542496
 21
463.1288938271
 31
0.0
  0
ARC
  5
184
330
1F
100
AcDbEntity
  8
0
  6
Continuous
 62
     7
370
    25
100
AcDbCircle
 10
897.3923542496
 20
497.3288938271
 30
0.0
 40
3.0
100
AcDbArc
 50
90.0
 51
180.0
  0
LINE
  5
185
330
1F
100
AcDbEntity
  8
0
  6
Continuous
 62
     7
370
    25
100
AcDbLine
 10
914.3923542496
 20
500.3288938271
 30
0.0
 11
897.3923542496
 21
500.3288938271
 31
0.0
  0
ARC
  5
186
330
1F
100
AcDbEntity
  8
0
  6
Continuous
 62
     7
370
    25
100
AcDbCircle
 10
914.3923542496
 20
497.3288938271
 30
0.0
 40
3.0
100
AcDbArc
 50
0.0
 51
90.0
  0
LINE
  5
187
330
1F
100
AcDbEntity
  8
0
  6
Continuous
 62
     7
370
    25
100
AcDbLine
 10
917.3923542496
 20
480.3288938271
 30
0.0
 11
917.3923542496
 21
497.3288938271
 31
0.0
  0
CIRCLE
  5
188
330
1F
100
AcDbEntity
  8
0
  6
Continuous
 62
     7
370
    25
100
AcDbCircle
 10
902.8923542496
 20
493.8288938271
 30
0.0
 40
3.249999999999943
  0
CIRCLE
  5
189
330
1F
100
AcDbEntity
  8
0
  6
Continuous
 62
     7
370
    25
100
AcDbCircle
 10
902.8923542496
 20
468.8288938271
 30
0.0
 40
3.249999999999886
  0
LINE
  5
18A
330
1F
100
AcDbEntity
  8
0
  6
Continuous
 62
     7
370
    25
100
AcDbLine
 10
894.3923542496
 20
461.3288938271
 30
0.0
 11
894.3923542496
 21
463.1288938271
 31
0.0
  0
LINE
  5
18B
330
1F
100
AcDbEntity
  8
0
  6
Continuous
 62
     7
370
    25
100
AcDbLine
 10
913.3923542496
 20
463.1288938271
 30
0.0
 11
913.3923542496
 21
461.3288938271
 31
0.0
  0
LINE
  5
18C
330
1F
100
AcDbEntity
  8
0
  6
Continuous
 62
     7
370
    25
100
AcDbLine
 10
913.3923542496
 20
461.3288938271
 30
0.0
 11
894.3923542496
 21
461.3288938271
 31
0.0
  0
LINE
  5
18D
330
1F
100
AcDbEntity
  8
0
  6
Continuous
 62
     7
370
    25
100
AcDbLine
 10
914.5923542496
 20
473.3288938271
 30
0.0
 11
914.5923542496
 21
463.1288938271
 31
0.0
  0
LINE
  5
18E
330
1F
100
AcDbEntity
  8
0
  6
Continuous
 62
     7
370
    25
100
AcDbLine
 10
915.3923542496
 20
473.3288938271
 30
0.0
 11
914.5923542496
 21
473.3288938271
 31
0.0
  0
LINE
  5
18F
330
1F
100
AcDbEntity
  8
0
  6
Continuous
 62
     7
370
    25
100
AcDbLine
 10
913.3923542496
 20
461.3288938271
 30
0.0
 11
913.5923542496
 21
461.3288938271
 31
0.0
  0
LINE
  5
190
330
1F
100
AcDbEntity
  8
0
  6
Continuous
 62
     7
370
    25
100
AcDbLine
 10
913.3923542496
 20
462.1288938271
 30
0.0
 11
913.5923542496
 21
462.1288938271
 31
0.0
  0
ARC
  5
191
330
1F
100
AcDbEntity
  8
0
  6
Continuous
 62
     7
370
    25
100
AcDbCircle
 10
913.5923542496
 20
463.1288938271
 30
0.0
 40
1.800000000000011
100
AcDbArc
 50
270.0
 51
0.0
  0
ARC
  5
192
330
1F
100
AcDbEntity
  8
0
  6
Continuous
 62
     7
370
    25
100
AcDbCircle
 10
913.5923542496
 20
463.1288938271
 30
0.0
 40
1.0
100
AcDbArc
 50
270.0
 51
0.0
  0
LINE
  5
193
330
1F
100
AcDbEntity
  8
0
  6
Continuous
 62
     7
370
    25
100
AcDbLine
 10
870.3923542496
 20
461.3288938271
 30
0.0
 11
870.3923542496
 21
462.1288938271
 31
0.0
  0
LINE
  5
194
330
1F
100
AcDbEntity
  8
0
  6
Continuous
 62
     7
370
    25
100
AcDbLine
 10
873.3923542496
 20
461.3288938271
 30
0.0
 11
870.3923542496
 21
461.3288938271
 31
0.0
  0
LINE
  5
195
330
1F
100
AcDbEntity
  8
0
  6
Continuous
 62
     7
370
    25
100
AcDbLine
 10
870.3923542496
 20
462.1288938271
 30
0.0
 11
873.3923542496
 21
462.1288938271
 31
0.0
  0
LINE
  5
196
330
1F
100
AcDbEntity
  8
0
  6
Continuous
 62
     7
370
    25
100
AcDbLine
 10
873.3923542496
 20
461.3288938271
 30
0.0
 11
894.3923542496
 21
461.3288938271
 31
0.0
  0
LINE
  5
197
330
1F
100
AcDbEntity
  8
0
  6
Continuous
 62
     7
370
    25
100
AcDbLine
 10
873.3923542496
 20
462.1288938271
 30
0.0
 11
894.3923542496
 21
462.1288938271
 31
0.0
  0
LINE
  5
198
330
1F
100
AcDbEntity
  8
0
  6
Continuous
 62
     7
370
    25
100
AcDbLine
 10
874.4877408578
 20
465.5288938271
 30
0.0
 11
881.0054323114
 21
465.5288938271
 31
0.0
  0
LINE
  5
199
330
1F
100
AcDbEntity
  8
0
  6
Continuous
 62
     7
370
    25
100
AcDbLine
 10
874.4877408578
 20
466.3288938271
 30
0.0
 11
881.0054323114
 21
466.3288938271
 31
0.0
  0
LINE
  5
19A
330
1F
100
AcDbEntity
  8
0
  6
Continuous
 62
     7
370
    25
100
AcDbLine
 10
871.4877408578
 20
465.5288938271
 30
0.0
 11
871.4877408578
 21
466.3288938271
 31
0.0
  0
LINE
  5
19B
330
1F
100
AcDbEntity
  8
0
  6
Continuous
 62
     7
370
    25
100
AcDbLine
 10
871.4877408578
 20
466.3288938271
 30
0.0
 11
874.4877408578
 21
466.3288938271
 31
0.0
  0
LINE
  5
19C
330
1F
100
AcDbEntity
  8
0
  6
Continuous
 62
     7
370
    25
100
AcDbLine
 10
874.4877408578
 20
465.5288938271
 30
0.0
 11
871.4877408578
 21
465.5288938271
 31
0.0
  0
ARC
  5
19D
330
1F
100
AcDbEntity
  8
0
  6
Continuous
 62
     7
370
    25
100
AcDbCircle
 10
889.030303442
 20
463.1288938271
 30
0.0
 40
0.9999999999999432
100
AcDbArc
 50
240.0
 51
270.0
  0
LINE
  5
19E
330
1F
100
AcDbEntity
  8
0
  6
Continuous
 62
     7
370
    25
100
AcDbLine
 10
887.1623542496
 20
462.1288938271
 30
0.0
 11
881.5054323114
 21
465.3949192309
 31
0.0
  0
LINE
  5
19F
330
1F
100
AcDbEntity
  8
0
  6
Continuous
 62
     7
370
    25
100
AcDbLine
 10
888.530303442
 20
462.2628684233
 30
0.0
 11
881.9054323114
 21
466.0877395539
 31
0.0
  0
ARC
  5
1A0
330
1F
100
AcDbEntity
  8
0
  6
Continuous
 62
     7
370
    25
100
AcDbCircle
 10
881.0054323114
 20
464.5288938271
 30
0.0
 40
1.800000000000075
100
AcDbArc
 50
60.0
 51
90.0
  0
ARC
  5
1A1
330
1F
100
AcDbEntity
  8
0
  6
Continuous
 62
     7
370
    25
100
AcDbCircle
 10
881.0054323114
 20
464.5288938271
 30
0.0
 40
1.000000000000033
100
AcDbArc
 50
60.0
 51
90.0
  0
LINE
  5
1A2
330
1F
100
AcDbEntity
  8
0
  6
Continuous
 62
     7
370
    25
100
AcDbLine
 10
913.3923542496
 20
470.269723149
 30
0.0
 11
913.9776742642
 21
470.269723149
 31
0.0
  0
SPLINE
  5
1A3
330
1F
100
AcDbEntity
  8
0
  6
Continuous
 62
     7
370
    25
100
AcDbSpline
210
0.0
220
0.0
230
1.0
 70
     8
 71
     3
 72
    14
 73
    10
 74
     0
 42
0.000000001
 43
0.00000001
 40
0.0
 40
0.0
 40
0.0
 40
0.0
 40
0.25
 40
0.25
 40
0.5
 40
0.5
 40
0.75
 40
0.75
 40
1.0
 40
1.0
 40
1.0
 40
1.0
 10
913.9776742641983
 20
470.2697231489637
 30
0.0
 10
914.0725488735089
 20
469.945216919675
 30
0.0
 10
914.1521537983847
 20
469.6127576972807
 30
0.0
 10
914.2609904132789
 20
468.9461877823725
 30
0.0
 10
914.2903140189694
 20
468.6111115250973
 30
0.0
 10
914.2902492372237
 20
467.9367680548696
 30
0.0
 10
914.2600930438974
 20
467.5949886341907
 30
0.0
 10
914.1505078425317
 20
466.9285747145859
 30
0.0
 10
914.0719648687295
 20
466.6018006686332
 30
0.0
 10
913.9776742641983
 20
466.2792919515368
 30
0.0
  0
LINE
  5
1A4
330
1F
100
AcDbEntity
  8
0
  6
Continuous
 62
     7
370
    25
100
AcDbLine
 10
913.3923542496
 20
466.2792919515
 30
0.0
 11
913.9776742642
 21
466.2792919515
 31
0.0
  0
SPLINE
  5
1A5
330
1F
100
AcDbEntity
  8
0
  6
Continuous
 62
     7
370
    25
100
AcDbSpline
210
0.0
220
0.0
230
1.0
 70
     8
 71
     3
 72
    12
 73
     8
 74
     0
 42
0.000000001
 43
0.00000001
 40
0.0
 40
0.0
 40
0.0
 40
0.0
 40
0.4999999999999776
 40
0.4999999999999776
 40
0.7499999999999888
 40
0.7499999999999888
 40
1.0
 40
1.0
 40
1.0
 40
1.0
 10
913.9776742641993
 20
464.8384626296663
 30
0.0
 10
914.1681685536228
 20
465.0737224221094
 30
0.0
 10
914.2898429666852
 20
465.31250711496
 30
0.0
 10
914.2904991572163
 20
465.679998647517
 30
0.0
 10
914.2606651554221
 20
465.8023708421662
 30
0.0
 10
914.1517352853144
 20
466.0427545273258
 30
0.0
 10
914.0730400982516
 20
466.1615154743872
 30
0.0
 10
913.9776742641989
 20
466.2792919515369
 30
0.0
  0
SPLINE
  5
1A6
330
1F
100
AcDbEntity
  8
0
  6
Continuous
 62
     7
370
    25
100
AcDbSpline
210
0.0
220
0.0
230
1.0
 70
     8
 71
     3
 72
    12
 73
     8
 74
     0
 42
0.000000001
 43
0.00000001
 40
0.0
 40
0.0
 40
0.0
 40
0.0
 40
0.5000000000000064
 40
0.5000000000000064
 40
0.7500000000000032
 40
0.7500000000000032
 40
1.0
 40
1.0
 40
1.0
 40
1.0
 10
913.9776742641993
 20
470.2697231489636
 30
0.0
 10
914.1681685536228
 20
470.6860242326182
 30
0.0
 10
914.2898429666851
 20
471.1085627606066
 30
0.0
 10
914.2904991572163
 20
471.7588529000674
 30
0.0
 10
914.2606651554221
 20
471.9753951179819
 30
0.0
 10
914.1517352853144
 20
472.4007631232222
 30
0.0
 10
914.0730400982516
 20
472.6109151022075
 30
0.0
 10
913.9776742641989
 20
472.8193250245202
 30
0.0
  0
LINE
  5
1A7
330
1F
100
AcDbEntity
  8
0
  6
Continuous
 62
     7
370
    25
100
AcDbLine
 10
913.9776742642
 20
472.8193250245
 30
0.0
 11
914.0755493014
 21
472.5764202742
 31
0.0
  0
LINE
  5
1A8
330
1F
100
AcDbEntity
  8
0
  6
Continuous
 62
     7
370
    25
100
AcDbLine
 10
914.4923542496
 20
468.3299461779
 30
0.0
 11
914.4923542496
 21
465.6788938271
 31
0.0
  0
LINE
  5
1A9
330
1F
100
AcDbEntity
  8
0
  6
Continuous
 62
     7
370
    25
100
AcDbLine
 10
914.4923542496
 20
471.9788938271
 30
0.0
 11
914.4923542496
 21
468.3299461779
 31
0.0
  0
LINE
  5
1AA
330
1F
100
AcDbEntity
  8
0
  6
Continuous
 62
     7
370
    25
100
AcDbLine
 10
913.3923542496
 20
472.8193250245
 30
0.0
 11
913.9776742642
 21
472.8193250245
 31
0.0
  0
LINE
  5
1AB
330
1F
100
AcDbEntity
  8
0
  6
Continuous
 62
     7
370
    25
100
AcDbLine
 10
913.3923542496
 20
464.8384626297
 30
0.0
 11
913.9776742642
 21
464.8384626297
 31
0.0
  0
LINE
  5
1AC
330
1F
100
AcDbEntity
  8
0
  6
Continuous
 62
     7
370
    25
100
AcDbLine
 10
917.1923542496
 20
458.8288938271
 30
0.0
 11
917.1923542496
 21
459.6288938271
 31
0.0
  0
LINE
  5
1AD
330
1F
100
AcDbEntity
  8
0
  6
Continuous
 62
     7
370
    25
100
AcDbLine
 10
921.4923542496
 20
459.6288938271
 30
0.0
 11
917.1923542496
 21
459.6288938271
 31
0.0
  0
LINE
  5
1AE
330
1F
100
AcDbEntity
  8
0
  6
Continuous
 62
     7
370
    25
100
AcDbLine
 10
921.4923542496
 20
458.8288938271
 30
0.0
 11
917.1923542496
 21
458.8288938271
 31
0.0
  0
LINE
  5
1AF
330
1F
100
AcDbEntity
  8
0
  6
Continuous
 62
     7
370
    25
100
AcDbLine
 10
921.9423542496
 20
477.1288938271
 30
0.0
 11
927.0923542496
 21
477.1288938271
 31
0.0
  0
LINE
  5
1B0
330
1F
100
AcDbEntity
  8
0
  6
Continuous
 62
     7
370
    25
100
AcDbLine
 10
921.9423542496
 20
477.9288938271
 30
0.0
 11
921.9423542496
 21
477.1288938271
 31
0.0
  0
LINE
  5
1B1
330
1F
100
AcDbEntity
  8
0
  6
Continuous
 62
     7
370
    25
100
AcDbLine
 10
921.9423542496
 20
477.9288938271
 30
0.0
 11
927.0923542496
 21
477.9288938271
 31
0.0
  0
LINE
  5
1B2
330
1F
100
AcDbEntity
  8
0
  6
Continuous
 62
     7
370
    25
100
AcDbLine
 10
927.0923542496
 20
477.9288938271
 30
0.0
 11
927.0923542496
 21
478.0288938271
 31
0.0
  0
LINE
  5
1B3
330
1F
100
AcDbEntity
  8
0
  6
Continuous
 62
     7
370
    25
100
AcDbLine
 10
917.1923542496
 20
478.0288938271
 30
0.0
 11
927.0923542496
 21
478.0288938271
 31
0.0
  0
LINE
  5
1B4
330
1F
100
AcDbEntity
  8
0
  6
Continuous
 62
     7
370
    25
100
AcDbLine
 10
917.1923542496
 20
478.0288938271
 30
0.0
 11
917.1923542496
 21
478.8288938271
 31
0.0
  0
LINE
  5
1B5
330
1F
100
AcDbEntity
  8
0
  6
Continuous
 62
     7
370
    25
100
AcDbLine
 10
927.0923542496
 20
478.8288938271
 30
0.0
 11
917.1923542496
 21
478.8288938271
 31
0.0
  0
ARC
  5
1B6
330
1F
100
AcDbEntity
  8
0
  6
Continuous
 62
     7
370
    25
100
AcDbCircle
 10
927.0923542496
 20
477.9788938271
 30
0.0
 40
0.8500000000000227
100
AcDbArc
 50
270.0
 51
90.0
  0
ARC
  5
1B7
330
1F
100
AcDbEntity
  8
0
  6
Continuous
 62
     7
370
    25
100
AcDbCircle
 10
917.1923542496
 20
460.6288938271
 30
0.0
 40
1.800000000000239
100
AcDbArc
 50
180.0
 51
270.0
  0
ARC
  5
1B8
330
1F
100
AcDbEntity
  8
0
  6
Continuous
 62
     7
370
    25
100
AcDbCircle
 10
917.1923542496
 20
477.0288938271
 30
0.0
 40
1.800000000000068
100
AcDbArc
 50
90.0
 51
180.0
  0
LINE
  5
1B9
330
1F
100
AcDbEntity
  8
0
  6
Continuous
 62
     7
370
    25
100
AcDbLine
 10
915.3923542496
 20
460.6288938271
 30
0.0
 11
915.3923542496
 21
477.0288938271
 31
0.0
  0
ARC
  5
1BA
330
1F
100
AcDbEntity
  8
0
  6
Continuous
 62
     7
370
    25
100
AcDbCircle
 10
917.1923542496
 20
460.6288938271
 30
0.0
 40
1.000000000000057
100
AcDbArc
 50
180.0
 51
270.0
  0
ARC
  5
1BB
330
1F
100
AcDbEntity
  8
0
  6
Continuous
 62
     7
370
    25
100
AcDbCircle
 10
917.1923542496
 20
477.0288938271
 30
0.0
 40
1.000000000000114
100
AcDbArc
 50
90.0
 51
180.0
  0
LINE
  5
1BC
330
1F
100
AcDbEntity
  8
0
  6
Continuous
 62
     7
370
    25
100
AcDbLine
 10
916.1923542496
 20
477.0288938271
 30
0.0
 11
916.1923542496
 21
460.6288938271
 31
0.0
  0
CIRCLE
  5
1BD
330
1F
100
AcDbEntity
  8
0
  6
Continuous
 62
     7
370
    25
100
AcDbCircle
 10
902.8923542496
 20
468.8288938271
 30
0.0
 40
2.458750000016497
  0
CIRCLE
  5
1BE
330
1F
100
AcDbEntity
  8
0
  6
Continuous
 62
     7
370
    25
100
AcDbCircle
 10
902.8923542496
 20
468.8288938271
 30
0.0
 40
2.99999999999999
  0
ARC
  5
1BF
330
1F
100
AcDbEntity
  8
0
  6
Continuous
 62
     7
370
    25
100
AcDbCircle
 10
911.4553743519
 20
468.7329558072
 30
0.0
 40
7.786288415086742
100
AcDbArc
 50
4.3702527064
 51
15.2299003794
  0
ARC
  5
1C0
330
1F
100
AcDbEntity
  8
0
  6
Continuous
 62
     7
370
    25
100
AcDbCircle
 10
918.6946308154
 20
469.6394094095
 30
0.0
 40
0.6107675350068429
100
AcDbArc
 50
296.6101963366
 51
329.1575418587
  0
ARC
  5
1C1
330
1F
100
AcDbEntity
  8
0
  6
Continuous
 62
     7
370
    25
100
AcDbCircle
 10
909.8885686739
 20
468.5009123145
 30
0.0
 40
9.098942710248698
100
AcDbArc
 50
356.2668736478
 51
3.7331263522
  0
ARC
  5
1C2
330
1F
100
AcDbEntity
  8
0
  6
Continuous
 62
     7
370
    25
100
AcDbCircle
 10
918.6946308154
 20
468.4545586247
 30
0.0
 40
0.610767535007148
100
AcDbArc
 50
296.6101963366
 51
329.1575418587
  0
ARC
  5
1C3
330
1F
100
AcDbEntity
  8
0
  6
Continuous
 62
     7
370
    25
100
AcDbCircle
 10
911.4553743519
 20
468.734756552
 30
0.0
 40
7.786288415088228
100
AcDbArc
 50
344.7700996206
 51
355.6297472936
  0
ARC
  5
1C4
330
1F
100
AcDbEntity
  8
0
  6
Continuous
 62
     7
370
    25
100
AcDbCircle
 10
918.835120471
 20
466.7632914503
 30
0.0
 40
0.1522432420606366
100
AcDbArc
 50
330.9451665854
 51
359.1449116567
  0
LWPOLYLINE
  5
1C5
330
1F
100
AcDbEntity
  8
0
  6
Continuous
 62
     7
370
    25
100
AcDbPolyline
 90
        3
 70
   128
 43
0.0
 10
919.2190237398
 20
468.3315060821
 10
919.2027988912
 20
468.1478077533
 10
919.2021567481
 20
468.1414307872
  0
ARC
  5
1C6
330
1F
100
AcDbEntity
  8
0
  6
Continuous
 62
     7
370
    25
100
AcDbCircle
 10
918.6946308154
 20
468.0183782446
 30
0.0
 40
0.610767535007555
100
AcDbArc
 50
30.8424581413
 51
63.3898036634
  0
ARC
  5
1C7
330
1F
100
AcDbEntity
  8
0
  6
Continuous
 62
     7
370
    25
100
AcDbCircle
 10
909.8116968932
 20
469.159891196
 30
0.0
 40
9.175815044492156
100
AcDbArc
 50
357.9327321276
 51
359.6562101048
  0
ARC
  5
1C8
330
1F
100
AcDbEntity
  8
0
  6
Continuous
 62
     7
370
    25
100
AcDbCircle
 10
911.4553743519
 20
468.9230311022
 30
0.0
 40
7.786288415087073
100
AcDbArc
 50
4.3702527064
 51
15.2299003794
  0
ARC
  5
1C9
330
1F
100
AcDbEntity
  8
0
  6
Continuous
 62
     7
370
    25
100
AcDbCircle
 10
918.7470826846
 20
470.8733949434
 30
0.0
 40
0.2406805056723057
100
AcDbArc
 50
336.7420981705
 51
23.2579018295
  0
LINE
  5
1CA
330
1F
100
AcDbEntity
  8
0
  6
Continuous
 62
     7
370
    25
100
AcDbLine
 10
918.1923542496
 20
472.7783964431
 30
0.0
 11
918.1923542496
 21
472.8288938271
 31
0.0
  0
LINE
  5
1CB
330
1F
100
AcDbEntity
  8
0
  6
Continuous
 62
     7
370
    25
100
AcDbLine
 10
918.1923542496
 20
464.8288938271
 30
0.0
 11
918.1923542496
 21
472.7783964431
 31
0.0
  0
LINE
  5
1CC
330
1F
100
AcDbEntity
  8
0
  6
Continuous
 62
     7
370
    25
100
AcDbLine
 10
919.2190237398
 20
468.1414307872
 30
0.0
 11
918.980468082
 21
468.1414307872
 31
0.0
  0
LINE
  5
1CD
330
1F
100
AcDbEntity
  8
0
  6
Continuous
 62
     7
370
    25
100
AcDbLine
 10
919.2190237398
 20
469.516356867
 30
0.0
 11
919.2021567481
 21
469.516356867
 31
0.0
  0
LINE
  5
1CE
330
1F
100
AcDbEntity
  8
0
  6
Continuous
 62
     7
370
    25
100
AcDbLine
 10
919.2190237398
 20
468.3315060821
 30
0.0
 11
918.9859734235
 21
468.3315060821
 31
0.0
  0
LINE
  5
1CF
330
1F
100
AcDbEntity
  8
0
  6
Continuous
 62
     7
370
    25
100
AcDbLine
 10
908.9923542496
 20
403.142739186
 30
0.0
 11
896.9923542496
 21
403.142739186
 31
0.0
  0
LINE
  5
1D0
330
1F
100
AcDbEntity
  8
0
  6
Continuous
 62
     7
370
    25
100
AcDbLine
 10
908.9923542496
 20
402.4586988994
 30
0.0
 11
896.9923542496
 21
402.4586988994
 31
0.0
  0
LINE
  5
1D1
330
1F
100
AcDbEntity
  8
0
  6
Continuous
 62
     7
370
    25
100
AcDbLine
 10
894.9923542496
 20
404.338084141
 30
0.0
 11
894.9923542496
 21
405.0221244276
 31
0.0
  0
ARC
  5
1D2
330
1F
100
AcDbEntity
  8
0
  6
Continuous
 62
     7
370
    25
100
AcDbCircle
 10
896.9338653604
 20
405.0843670035
 30
0.0
 40
1.942508566655591
100
AcDbArc
 50
181.8362067977
 51
271.7254354149
  0
ARC
  5
1D3
330
1F
100
AcDbEntity
  8
0
  6
Continuous
 62
     7
370
    25
100
AcDbCircle
 10
896.9338653604
 20
404.4003267168
 30
0.0
 40
1.942508566655589
100
AcDbArc
 50
181.8362067977
 51
271.7254354149
  0
LINE
  5
1D4
330
1F
100
AcDbEntity
  8
0
  6
Continuous
 62
     7
370
    25
100
AcDbLine
 10
894.9923542496
 20
405.0221244276
 30
0.0
 11
894.9923542496
 21
410.1632006645
 31
0.0
  0
LINE
  5
1D5
330
1F
100
AcDbEntity
  8
0
  6
Continuous
 62
     7
370
    25
100
AcDbLine
 10
910.9923542496
 20
410.1632006645
 30
0.0
 11
910.9923542496
 21
405.0221244276
 31
0.0
  0
ARC
  5
1D6
330
1F
100
AcDbEntity
  8
0
  6
Continuous
 62
     7
370
    25
100
AcDbCircle
 10
909.0508431388
 20
405.0843670035
 30
0.0
 40
1.942508566655244
100
AcDbArc
 50
268.2745645851
 51
358.1637932023
  0
LINE
  5
1D7
330
1F
100
AcDbEntity
  8
0
  6
Continuous
 62
     7
370
    25
100
AcDbLine
 10
910.9923542496
 20
405.0221244276
 30
0.0
 11
910.9923542496
 21
404.338084141
 31
0.0
  0
ARC
  5
1D8
330
1F
100
AcDbEntity
  8
0
  6
Continuous
 62
     7
370
    25
100
AcDbCircle
 10
909.0508431388
 20
404.4003267168
 30
0.0
 40
1.942508566655023
100
AcDbArc
 50
268.2745645851
 51
358.1637932024
  0
LINE
  5
1D9
330
1F
100
AcDbEntity
  8
0
  6
Continuous
 62
     7
370
    25
100
AcDbLine
 10
910.9923542496
 20
410.1632006645
 30
0.0
 11
910.9923542496
 21
410.5052208078
 31
0.0
  0
LINE
  5
1DA
330
1F
100
AcDbEntity
  8
0
  6
Continuous
 62
     7
370
    25
100
AcDbLine
 10
894.9923542496
 20
410.5052208078
 30
0.0
 11
894.9923542496
 21
410.1632006645
 31
0.0
  0
LINE
  5
1DB
330
1F
100
AcDbEntity
  8
0
  6
Continuous
 62
     7
370
    25
100
AcDbLine
 10
910.9923542496
 20
410.3288938271
 30
0.0
 11
921.4923542496
 21
410.3288938271
 31
0.0
  0
LINE
  5
1DC
330
1F
100
AcDbEntity
  8
0
  6
Continuous
 62
     7
370
    25
100
AcDbLine
 10
894.9923542496
 20
423.3288938271
 30
0.0
 11
894.9923542496
 21
410.5052208078
 31
0.0
  0
CIRCLE
  5
1DD
330
1F
100
AcDbEntity
  8
0
  6
Continuous
 62
     7
370
    25
100
AcDbCircle
 10
902.8923542496
 20
417.8288938271
 30
0.0
 40
3.5
  0
ARC
  5
1DE
330
1F
100
AcDbEntity
  8
0
  6
Continuous
 62
     7
370
    25
100
AcDbCircle
 10
896.9923542496
 20
423.3288938271
 30
0.0
 40
2.0
100
AcDbArc
 50
90.0
 51
180.0
  0
LINE
  5
1DF
330
1F
100
AcDbEntity
  8
0
  6
Continuous
 62
     7
370
    25
100
AcDbLine
 10
921.4923542496
 20
425.3288938271
 30
0.0
 11
896.9923542496
 21
425.3288938271
 31
0.0
  0
CIRCLE
  5
1E0
330
1F
100
AcDbEntity
  8
0
  6
Continuous
 62
     7
370
    25
100
AcDbCircle
 10
902.8923542496
 20
117.8288938271
 30
0.0
 40
2.458750000016599
  0
CIRCLE
  5
1E1
330
1F
100
AcDbEntity
  8
0
  6
Continuous
 62
     7
370
    25
100
AcDbCircle
 10
902.8923542496
 20
117.8288938271
 30
0.0
 40
2.999999999999906
  0
ARC
  5
1E2
330
1F
100
AcDbEntity
  8
0
  6
Continuous
 62
     7
370
    25
100
AcDbCircle
 10
896.9338653604
 20
130.5734206507
 30
0.0
 40
1.942508566655477
100
AcDbArc
 50
88.2745645851
 51
178.1637932023
  0
LINE
  5
1E3
330
1F
100
AcDbEntity
  8
0
  6
Continuous
 62
     7
370
    25
100
AcDbLine
 10
894.9923542496
 20
130.6356632266
 30
0.0
 11
894.9923542496
 21
131.3197035132
 31
0.0
  0
ARC
  5
1E4
330
1F
100
AcDbEntity
  8
0
  6
Continuous
 62
     7
370
    25
100
AcDbCircle
 10
896.9338653604
 20
131.2574609374
 30
0.0
 40
1.942508566655476
100
AcDbArc
 50
88.2745645851
 51
178.1637932023
  0
LINE
  5
1E5
330
1F
100
AcDbEntity
  8
0
  6
Continuous
 62
     7
370
    25
100
AcDbLine
 10
896.9923542496
 20
133.1990887548
 30
0.0
 11
908.9923542496
 21
133.1990887548
 31
0.0
  0
LINE
  5
1E6
330
1F
100
AcDbEntity
  8
0
  6
Continuous
 62
     7
370
    25
100
AcDbLine
 10
896.9923542496
 20
132.5150484681
 30
0.0
 11
908.9923542496
 21
132.5150484681
 31
0.0
  0
LINE
  5
1E7
330
1F
100
AcDbEntity
  8
0
  6
Continuous
 62
     7
370
    25
100
AcDbLine
 10
894.9923542496
 20
125.4945869897
 30
0.0
 11
894.9923542496
 21
130.6356632266
 31
0.0
  0
ARC
  5
1E8
330
1F
100
AcDbEntity
  8
0
  6
Continuous
 62
     7
370
    25
100
AcDbCircle
 10
909.0508431388
 20
130.5734206507
 30
0.0
 40
1.942508566655161
100
AcDbArc
 50
1.8362067977
 51
91.7254354149
  0
LINE
  5
1E9
330
1F
100
AcDbEntity
  8
0
  6
Continuous
 62
     7
370
    25
100
AcDbLine
 10
910.9923542496
 20
130.6356632266
 30
0.0
 11
910.9923542496
 21
125.4945869897
 31
0.0
  0
LINE
  5
1EA
330
1F
100
AcDbEntity
  8
0
  6
Continuous
 62
     7
370
    25
100
AcDbLine
 10
910.9923542496
 20
131.3197035132
 30
0.0
 11
910.9923542496
 21
130.6356632266
 31
0.0
  0
ARC
  5
1EB
330
1F
100
AcDbEntity
  8
0
  6
Continuous
 62
     7
370
    25
100
AcDbCircle
 10
909.0508431388
 20
131.2574609374
 30
0.0
 40
1.94250856665519
100
AcDbArc
 50
1.8362067977
 51
91.7254354149
  0
LINE
  5
1EC
330
1F
100
AcDbEntity
  8
0
  6
Continuous
 62
     7
370
    25
100
AcDbLine
 10
894.9923542496
 20
125.4945869897
 30
0.0
 11
894.9923542496
 21
125.1525668464
 31
0.0
  0
LINE
  5
1ED
330
1F
100
AcDbEntity
  8
0
  6
Continuous
 62
     7
370
    25
100
AcDbLine
 10
910.9923542496
 20
125.1525668464
 30
0.0
 11
910.9923542496
 21
125.4945869897
 31
0.0
  0
LINE
  5
1EE
330
1F
100
AcDbEntity
  8
0
  6
Continuous
 62
     7
370
    25
100
AcDbLine
 10
921.4923542496
 20
125.3288938271
 30
0.0
 11
910.9923542496
 21
125.3288938271
 31
0.0
  0
CIRCLE
  5
1EF
330
1F
100
AcDbEntity
  8
0
  6
Continuous
 62
     7
370
    25
100
AcDbCircle
 10
902.8923542496
 20
117.8288938271
 30
0.0
 40
3.500000000000114
  0
LINE
  5
1F0
330
1F
100
AcDbEntity
  8
0
  6
Continuous
 62
     7
370
    25
100
AcDbLine
 10
896.9923542496
 20
110.3288938271
 30
0.0
 11
921.4923542496
 21
110.3288938271
 31
0.0
  0
ARC
  5
1F1
330
1F
100
AcDbEntity
  8
0
  6
Continuous
 62
     7
370
    25
100
AcDbCircle
 10
896.9923542496
 20
112.3288938271
 30
0.0
 40
2.0
100
AcDbArc
 50
180.0
 51
270.0
  0
LINE
  5
1F2
330
1F
100
AcDbEntity
  8
0
  6
Continuous
 62
     7
370
    25
100
AcDbLine
 10
894.9923542496
 20
125.1525668464
 30
0.0
 11
894.9923542496
 21
112.3288938271
 31
0.0
  0
CIRCLE
  5
1F3
330
1F
100
AcDbEntity
  8
0
  6
Continuous
 62
     7
370
    25
100
AcDbCircle
 10
902.8923542496
 20
493.8288938271
 30
0.0
 40
2.458750000016599
  0
CIRCLE
  5
1F4
330
1F
100
AcDbEntity
  8
0
  6
Continuous
 62
     7
370
    25
100
AcDbCircle
 10
902.8923542496
 20
493.8288938271
 30
0.0
 40
3.000000000000015
  0
CIRCLE
  5
1F5
330
1F
100
AcDbEntity
  8
0
  6
Continuous
 62
     7
370
    25
100
AcDbCircle
 10
902.8923542496
 20
417.8288938271
 30
0.0
 40
2.458750000016702
  0
CIRCLE
  5
1F6
330
1F
100
AcDbEntity
  8
0
  6
Continuous
 62
     7
370
    25
100
AcDbCircle
 10
902.8923542496
 20
417.8288938271
 30
0.0
 40
2.999999999999888
  0
ARC
  5
1F7
330
1F
100
AcDbEntity
  8
0
  6
Continuous
 62
     7
370
    25
100
AcDbCircle
 10
764.2433501725
 20
587.2523240477
 30
0.0
 40
0.5000000000001137
100
AcDbArc
 50
180.0
 51
0.0
  0
ARC
  5
1F8
330
1F
100
AcDbEntity
  8
0
  6
Continuous
 62
     7
370
    25
100
AcDbCircle
 10
764.2433501725
 20
598.8523240479
 30
0.0
 40
0.5000000000001137
100
AcDbArc
 50
0.0
 51
180.0
  0
LINE
  5
1F9
330
1F
100
AcDbEntity
  8
0
  6
Continuous
 62
     7
370
    25
100
AcDbLine
 10
759.9709316097
 20
598.4465066599
 30
0.0
 11
759.7433501725
 21
598.0523240478
 31
0.0
  0
LINE
  5
1FA
330
1F
100
AcDbEntity
  8
0
  6
Continuous
 62
     7
370
    25
100
AcDbLine
 10
774.2021001725
 20
590.0523240478
 30
0.0
 11
774.7433501725
 21
590.5935740478
 31
0.0
  0
LINE
  5
1FB
330
1F
100
AcDbEntity
  8
0
  6
Continuous
 62
     7
370
    25
100
AcDbLine
 10
774.7433501725
 20
595.5110740478
 30
0.0
 11
774.2021001725
 21
596.0523240478
 31
0.0
  0
LINE
  5
1FC
330
1F
100
AcDbEntity
  8
0
  6
Continuous
 62
     7
370
    25
100
AcDbLine
 10
774.2021001725
 20
596.0523240478
 30
0.0
 11
766.7433501725
 21
596.0523240478
 31
0.0
  0
LINE
  5
1FD
330
1F
100
AcDbEntity
  8
0
  6
Continuous
 62
     7
370
    25
100
AcDbLine
 10
766.7433501725
 20
590.0523240478
 30
0.0
 11
774.2021001725
 21
590.0523240478
 31
0.0
  0
LINE
  5
1FE
330
1F
100
AcDbEntity
  8
0
  6
Continuous
 62
     7
370
    25
100
AcDbLine
 10
759.7433501725
 20
588.0523240478
 30
0.0
 11
759.9709316097
 21
587.6581414357
 31
0.0
  0
LINE
  5
1FF
330
1F
100
AcDbEntity
  8
0
  6
Continuous
 62
     7
370
    25
100
AcDbLine
 10
751.3748974581
 20
611.1523240478
 30
0.0
 11
751.3748974581
 21
607.1523240478
 31
0.0
  0
LINE
  5
200
330
1F
100
AcDbEntity
  8
0
  6
Continuous
 62
     7
370
    25
100
AcDbLine
 10
751.3748974581
 20
607.1523240478
 30
0.0
 11
751.8748974581
 21
606.6523240478
 31
0.0
  0
LINE
  5
201
330
1F
100
AcDbEntity
  8
0
  6
Continuous
 62
     7
370
    25
100
AcDbLine
 10
757.1547342479
 20
607.1523240478
 30
0.0
 11
757.1547342479
 21
611.1523240478
 31
0.0
  0
LINE
  5
202
330
1F
100
AcDbEntity
  8
0
  6
Continuous
 62
     7
370
    25
100
AcDbLine
 10
756.6547342479
 20
606.6523240478
 30
0.0
 11
757.1547342479
 21
607.1523240478
 31
0.0
  0
LINE
  5
203
330
1F
100
AcDbEntity
  8
0
  6
Continuous
 62
     7
370
    25
100
AcDbLine
 10
751.4312394199
 20
611.1523240478
 30
0.0
 11
751.4312394199
 21
607.1523240478
 31
0.0
  0
LINE
  5
204
330
1F
100
AcDbEntity
  8
0
  6
Continuous
 62
     7
370
    25
100
AcDbLine
 10
751.4312394199
 20
607.1523240478
 30
0.0
 11
751.9312394199
 21
606.6523240478
 31
0.0
  0
LINE
  5
205
330
1F
100
AcDbEntity
  8
0
  6
Continuous
 62
     7
370
    25
100
AcDbLine
 10
74.0812351183
 20
607.1523240478
 30
0.0
 11
74.0812351183
 21
611.1523240478
 31
0.0
  0
LINE
  5
206
330
1F
100
AcDbEntity
  8
0
  6
Continuous
 62
     7
370
    25
100
AcDbLine
 10
73.5812351183
 20
606.6523240478
 30
0.0
 11
74.0812351183
 21
607.1523240478
 31
0.0
  0
LINE
  5
207
330
1F
100
AcDbEntity
  8
0
  6
Continuous
 62
     7
370
    25
100
AcDbLine
 10
68.351690434
 20
607.1523240478
 30
0.0
 11
68.851690434
 21
606.6523240478
 31
0.0
  0
LINE
  5
208
330
1F
100
AcDbEntity
  8
0
  6
Continuous
 62
     7
370
    25
100
AcDbLine
 10
68.351690434
 20
611.1523240478
 30
0.0
 11
68.351690434
 21
607.1523240478
 31
0.0
  0
LINE
  5
209
330
1F
100
AcDbEntity
  8
0
  6
Continuous
 62
     7
370
    25
100
AcDbLine
 10
774.4021001725
 20
596.0523240478
 30
0.0
 11
774.2021001725
 21
596.0523240478
 31
0.0
  0
LINE
  5
20A
330
1F
100
AcDbEntity
  8
0
  6
Continuous
 62
     7
370
    25
100
AcDbLine
 10
774.2021001725
 20
590.0523240478
 30
0.0
 11
774.4021001725
 21
590.0523240478
 31
0.0
  0
LINE
  5
20B
330
1F
100
AcDbEntity
  8
0
  6
Continuous
 62
     7
370
    25
100
AcDbLine
 10
774.4021001725
 20
590.0523240478
 30
0.0
 11
774.9433501725
 21
590.5935740478
 31
0.0
  0
LINE
  5
20C
330
1F
100
AcDbEntity
  8
0
  6
Continuous
 62
     7
370
    25
100
AcDbLine
 10
774.9433501725
 20
595.5110740478
 30
0.0
 11
774.4021001725
 21
596.0523240478
 31
0.0
  0
LINE
  5
20D
330
1F
100
AcDbEntity
  8
0
  6
Continuous
 62
     7
370
    25
100
AcDbLine
 10
51.0846001725
 20
596.0523240478
 30
0.0
 11
50.5433501725
 21
595.5110740478
 31
0.0
  0
LINE
  5
20E
330
1F
100
AcDbEntity
  8
0
  6
Continuous
 62
     7
370
    25
100
AcDbLine
 10
50.5433501725
 20
590.5935740478
 30
0.0
 11
51.0846001725
 21
590.0523240478
 31
0.0
  0
LINE
  5
20F
330
1F
100
AcDbEntity
  8
0
  6
Continuous
 62
     7
370
    25
100
AcDbLine
 10
51.0846001725
 20
590.0523240478
 30
0.0
 11
51.2846001725
 21
590.0523240478
 31
0.0
  0
LINE
  5
210
330
1F
100
AcDbEntity
  8
0
  6
Continuous
 62
     7
370
    25
100
AcDbLine
 10
51.2846001725
 20
596.0523240478
 30
0.0
 11
51.0846001725
 21
596.0523240478
 31
0.0
  0
ARC
  5
211
330
1F
100
AcDbEntity
  8
0
  6
Continuous
 62
     7
370
    25
100
AcDbCircle
 10
61.2433501725
 20
598.8523240479
 30
0.0
 40
0.5
100
AcDbArc
 50
0.0
 51
180.0
  0
ARC
  5
212
330
1F
100
AcDbEntity
  8
0
  6
Continuous
 62
     7
370
    25
100
AcDbCircle
 10
61.2433501725
 20
587.2523240477
 30
0.0
 40
0.5000000000000071
100
AcDbArc
 50
180.0
 51
0.0
  0
LINE
  5
213
330
1F
100
AcDbEntity
  8
0
  6
Continuous
 62
     7
370
    25
100
AcDbLine
 10
51.2846001725
 20
590.0523240478
 30
0.0
 11
58.7433501725
 21
590.0523240478
 31
0.0
  0
LINE
  5
214
330
1F
100
AcDbEntity
  8
0
  6
Continuous
 62
     7
370
    25
100
AcDbLine
 10
58.7433501725
 20
596.0523240478
 30
0.0
 11
51.2846001725
 21
596.0523240478
 31
0.0
  0
LINE
  5
215
330
1F
100
AcDbEntity
  8
0
  6
Continuous
 62
     7
370
    25
100
AcDbLine
 10
51.2846001725
 20
596.0523240478
 30
0.0
 11
50.7433501725
 21
595.5110740478
 31
0.0
  0
LINE
  5
216
330
1F
100
AcDbEntity
  8
0
  6
Continuous
 62
     7
370
    25
100
AcDbLine
 10
50.7433501725
 20
590.5935740478
 30
0.0
 11
51.2846001725
 21
590.0523240478
 31
0.0
  0
LINE
  5
217
330
1F
100
AcDbEntity
  8
0
  6
Continuous
 62
     7
370
    25
100
AcDbLine
 10
65.7433501725
 20
598.0523240478
 30
0.0
 11
65.4138670767
 21
598.6230055099
 31
0.0
  0
LINE
  5
218
330
1F
100
AcDbEntity
  8
0
  6
Continuous
 62
     7
370
    25
100
AcDbLine
 10
65.4138670767
 20
587.4816425857
 30
0.0
 11
65.7433501725
 21
588.0523240478
 31
0.0
  0
LINE
  5
219
330
1F
100
AcDbEntity
  8
0
  6
Continuous
 62
     7
370
    25
100
AcDbLine
 10
58.2433501725
 20
616.2523240478
 30
0.0
 11
61.1827378638
 21
616.2523240478
 31
0.0
  0
LINE
  5
21A
330
1F
100
AcDbEntity
  8
0
  6
Continuous
 62
     7
370
    25
100
AcDbLine
 10
764.3039624811
 20
616.2523240478
 30
0.0
 11
767.2433501725
 21
616.2523240478
 31
0.0
  0
LINE
  5
21B
330
1F
100
AcDbEntity
  8
0
  6
Continuous
 62
     7
370
    25
100
AcDbLine
 10
52.2433501725
 20
616.2523240478
 30
0.0
 11
58.2433501725
 21
616.2523240478
 31
0.0
  0
LINE
  5
21C
330
1F
100
AcDbEntity
  8
0
  6
Continuous
 62
     7
370
    25
100
AcDbLine
 10
767.2433501725
 20
616.2523240478
 30
0.0
 11
773.2433501725
 21
616.2523240478
 31
0.0
  0
SPLINE
  5
21D
330
1F
100
AcDbEntity
  8
0
  6
Continuous
 62
     7
370
    25
100
AcDbSpline
210
0.0
220
0.0
230
1.0
 70
    24
 71
     3
 72
    19
 73
    15
 74
     0
 42
0.000000001
 43
0.00000001
 40
0.0
 40
0.0
 40
0.0
 40
0.0
 40
0.1260638187928854
 40
0.1939261817305609
 40
0.2632286813759837
 40
0.3325311810214082
 40
0.4003935439590837
 40
0.5264573627519686
 40
0.6525211815448528
 40
0.7203835444825296
 40
0.7896860441279531
 40
0.8589885437733759
 40
0.9268509067110525
 40
1.0
 40
1.0
 40
1.0
 40
1.0
 10
763.7433501724778
 20
598.7797124031885
 30
0.0
 10
763.7433501724778
 20
598.5881244922522
 30
0.0
 10
763.7433501724779
 20
598.2934014512608
 30
0.0
 10
763.7433501724778
 20
597.3661469284202
 30
0.0
 10
763.7433501724778
 20
596.4805908878877
 30
0.0
 10
763.7433501724778
 20
595.4441896783526
 30
0.0
 10
763.7433501724776
 20
594.0002363057031
 30
0.0
 10
763.7433501724778
 20
592.1154087229945
 30
0.0
 10
763.7433501724778
 20
590.3423985211679
 30
0.0
 10
763.7433501724778
 20
589.1200948994277
 30
0.0
 10
763.7433501724778
 20
588.3194081842096
 30
0.0
 10
763.7433501724777
 20
587.7339176014366
 30
0.0
 10
763.7433501724778
 20
587.3060314628837
 30
0.0
 10
763.7433501724778
 20
587.3365437147863
 30
0.0
 10
763.7433501724778
 20
587.3523718157123
 30
0.0
  0
LINE
  5
21E
330
1F
100
AcDbEntity
  8
0
  6
Continuous
 62
     7
370
    25
100
AcDbLine
 10
759.7433501725
 20
596.9338922282
 30
0.0
 11
759.7433501725
 21
592.2636262558
 31
0.0
  0
SPLINE
  5
21F
330
1F
100
AcDbEntity
  8
0
  6
Continuous
 62
     7
370
    25
100
AcDbSpline
210
0.0
220
0.0
230
1.0
 70
     8
 71
     3
 72
     8
 73
     4
 74
     0
 42
0.000000001
 43
0.00000001
 40
0.0
 40
0.0
 40
0.0
 40
0.0
 40
1.0
 40
1.0
 40
1.0
 40
1.0
 10
759.7433501724848
 20
596.9338922282221
 30
0.0
 10
759.7433501724848
 20
596.3128245520029
 30
0.0
 10
759.9176654728643
 20
595.7087552315144
 30
0.0
 10
760.1899321598762
 20
595.1142376400492
 30
0.0
  0
SPLINE
  5
220
330
1F
100
AcDbEntity
  8
0
  6
Continuous
 62
     7
370
    25
100
AcDbSpline
210
0.0
220
0.0
230
1.0
 70
     8
 71
     3
 72
     8
 73
     4
 74
     0
 42
0.000000001
 43
0.00000001
 40
0.0
 40
0.0
 40
0.0
 40
0.0
 40
1.0
 40
1.0
 40
1.0
 40
1.0
 10
760.1899321598762
 20
595.1142376400428
 30
0.0
 10
759.9176654728648
 20
594.1828858189864
 30
0.0
 10
759.7433501724848
 20
593.2365705715304
 30
0.0
 10
759.7433501724848
 20
592.2636262557525
 30
0.0
  0
SPLINE
  5
221
330
1F
100
AcDbEntity
  8
0
  6
Continuous
 62
     7
370
    25
100
AcDbSpline
210
0.0
220
0.0
230
1.0
 70
     8
 71
     3
 72
     8
 73
     4
 74
     0
 42
0.000000001
 43
0.00000001
 40
0.0
 40
0.0
 40
0.0
 40
0.0
 40
1.0
 40
1.0
 40
1.0
 40
1.0
 10
759.7433501724848
 20
592.2636262557525
 30
0.0
 10
759.7433501724848
 20
591.2906819399728
 30
0.0
 10
759.9176654728643
 20
590.3443666925203
 30
0.0
 10
760.1899321598762
 20
589.4130148714622
 30
0.0
  0
LINE
  5
222
330
1F
100
AcDbEntity
  8
0
  6
Continuous
 62
     7
370
    25
100
AcDbLine
 10
763.7433501725
 20
595.11423764
 30
0.0
 11
760.1899321599
 21
595.11423764
 31
0.0
  0
LINE
  5
223
330
1F
100
AcDbEntity
  8
0
  6
Continuous
 62
     7
370
    25
100
AcDbLine
 10
763.7433501725
 20
589.4130148715
 30
0.0
 11
760.1899321599
 21
589.4130148715
 31
0.0
  0
SPLINE
  5
224
330
1F
100
AcDbEntity
  8
0
  6
Continuous
 62
     7
370
    25
100
AcDbSpline
210
0.0
220
0.0
230
1.0
 70
     8
 71
     3
 72
     8
 73
     4
 74
     0
 42
0.000000001
 43
0.00000001
 40
0.0
 40
0.0
 40
0.0
 40
0.0
 40
1.0
 40
1.0
 40
1.0
 40
1.0
 10
760.1899321598762
 20
598.7535468163952
 30
0.0
 10
759.9176654728648
 20
598.159029224931
 30
0.0
 10
759.7433501724848
 20
597.5549599044404
 30
0.0
 10
759.7433501724848
 20
596.9338922282221
 30
0.0
  0
LINE
  5
225
330
1F
100
AcDbEntity
  8
0
  6
Continuous
 62
     7
370
    25
100
AcDbLine
 10
763.7433501725
 20
598.7535468164
 30
0.0
 11
760.1899321599
 21
598.7535468164
 31
0.0
  0
LINE
  5
226
330
1F
100
AcDbEntity
  8
0
  6
Continuous
 62
     7
370
    25
100
AcDbLine
 10
759.7433501725
 20
592.2636262558
 30
0.0
 11
759.7433501725
 21
588.3820580753
 31
0.0
  0
SPLINE
  5
227
330
1F
100
AcDbEntity
  8
0
  6
Continuous
 62
     7
370
    25
100
AcDbSpline
210
0.0
220
0.0
230
1.0
 70
     8
 71
     3
 72
     8
 73
     4
 74
     0
 42
0.000000001
 43
0.00000001
 40
0.0
 40
0.0
 40
0.0
 40
0.0
 40
1.0
 40
1.0
 40
1.0
 40
1.0
 10
760.1899321598762
 20
589.4130148714571
 30
0.0
 10
759.9176654728648
 20
589.0761806418649
 30
0.0
 10
759.7433501724848
 20
588.7339347148994
 30
0.0
 10
759.7433501724848
 20
588.3820580753396
 30
0.0
  0
SPLINE
  5
228
330
1F
100
AcDbEntity
  8
0
  6
Continuous
 62
     7
370
    25
100
AcDbSpline
210
0.0
220
0.0
230
1.0
 70
     8
 71
     3
 72
     8
 73
     4
 74
     0
 42
0.000000001
 43
0.00000001
 40
0.0
 40
0.0
 40
0.0
 40
0.0
 40
1.0
 40
1.0
 40
1.0
 40
1.0
 10
759.7433501724848
 20
588.3820580753396
 30
0.0
 10
759.7433501724848
 20
588.0301814357791
 30
0.0
 10
759.9176654728642
 20
587.687935508815
 30
0.0
 10
760.1899321598762
 20
587.3511012792221
 30
0.0
  0
LINE
  5
229
330
1F
100
AcDbEntity
  8
0
  6
Continuous
 62
     7
370
    25
100
AcDbLine
 10
763.7433501725
 20
587.3511012792
 30
0.0
 11
760.1899321599
 21
587.3511012792
 31
0.0
  0
LINE
  5
22A
330
1F
100
AcDbEntity
  8
0
  6
Continuous
 62
     7
370
    25
100
AcDbLine
 10
760.0397259296
 20
598.4067882407
 30
0.0
 11
760.1899321599
 21
598.7535468164
 31
0.0
  0
LINE
  5
22B
330
1F
100
AcDbEntity
  8
0
  6
Continuous
 62
     7
370
    25
100
AcDbLine
 10
759.7433501725
 20
598.0523240478
 30
0.0
 11
759.7433501725
 21
596.9338922282
 31
0.0
  0
LINE
  5
22C
330
1F
100
AcDbEntity
  8
0
  6
Continuous
 62
     7
370
    25
100
AcDbLine
 10
774.7433501725
 20
592.6644819086
 30
0.0
 11
774.7433501725
 21
595.5110740478
 31
0.0
  0
LINE
  5
22D
330
1F
100
AcDbEntity
  8
0
  6
Continuous
 62
     7
370
    25
100
AcDbLine
 10
774.7433501725
 20
590.5935740478
 30
0.0
 11
774.7433501725
 21
592.6644819086
 31
0.0
  0
LINE
  5
22E
330
1F
100
AcDbEntity
  8
0
  6
Continuous
 62
     7
370
    25
100
AcDbLine
 10
774.2021001725
 20
590.0523240478
 30
0.0
 11
774.2021001725
 21
596.0523240478
 31
0.0
  0
LINE
  5
22F
330
1F
100
AcDbEntity
  8
0
  6
Continuous
 62
     7
370
    25
100
AcDbLine
 10
759.7433501725
 20
588.3820580753
 30
0.0
 11
759.7433501725
 21
588.0523240478
 31
0.0
  0
LINE
  5
230
330
1F
100
AcDbEntity
  8
0
  6
Continuous
 62
     7
370
    25
100
AcDbLine
 10
66.4933501725
 20
611.1523240478
 30
0.0
 11
66.4933501725
 21
611.6523240478
 31
0.0
  0
LINE
  5
231
330
1F
100
AcDbEntity
  8
0
  6
Continuous
 62
     7
370
    25
100
AcDbLine
 10
75.9933501725
 20
611.6523240478
 30
0.0
 11
75.9933501725
 21
611.1523240478
 31
0.0
  0
LINE
  5
232
330
1F
100
AcDbEntity
  8
0
  6
Continuous
 62
     7
370
    25
100
AcDbLine
 10
75.9933501725
 20
611.1523240478
 30
0.0
 11
66.4933501725
 21
611.1523240478
 31
0.0
  0
LINE
  5
233
330
1F
100
AcDbEntity
  8
0
  6
Continuous
 62
     7
370
    25
100
AcDbLine
 10
76.7567501725
 20
611.1523240478
 30
0.0
 11
75.9933501725
 21
611.1523240478
 31
0.0
  0
LINE
  5
234
330
1F
100
AcDbEntity
  8
0
  6
Continuous
 62
     7
370
    25
100
AcDbLine
 10
66.4933501725
 20
611.1523240478
 30
0.0
 11
65.7299501725
 21
611.1523240478
 31
0.0
  0
ARC
  5
235
330
1F
100
AcDbEntity
  8
0
  6
Continuous
 62
     7
370
    25
100
AcDbCircle
 10
76.7567501725
 20
612.3889240478
 30
0.0
 40
1.236600000000034
100
AcDbArc
 50
270.0
 51
323.4399088995
  0
ARC
  5
236
330
1F
100
AcDbEntity
  8
0
  6
Continuous
 62
     7
370
    25
100
AcDbCircle
 10
65.7299501725
 20
612.3889240478
 30
0.0
 40
1.236600000000067
100
AcDbArc
 50
216.5600911005
 51
270.0
  0
ARC
  5
237
330
1F
100
AcDbEntity
  8
0
  6
Continuous
 62
     7
370
    25
100
AcDbCircle
 10
58.2433501725
 20
615.6523240478
 30
0.0
 40
3.000000000000057
100
AcDbArc
 50
0.0
 51
90.0
  0
LINE
  5
238
330
1F
100
AcDbEntity
  8
0
  6
Continuous
 62
     7
370
    25
100
AcDbLine
 10
46.2433501725
 20
618.6523240478
 30
0.0
 11
58.2433501725
 21
618.6523240478
 31
0.0
  0
ARC
  5
239
330
1F
100
AcDbEntity
  8
0
  6
Continuous
 62
     7
370
    25
100
AcDbCircle
 10
46.2433501725
 20
615.6523240478
 30
0.0
 40
3.000000000000057
100
AcDbArc
 50
90.0
 51
180.0
  0
LINE
  5
23A
330
1F
100
AcDbEntity
  8
0
  6
Continuous
 62
     7
370
    25
100
AcDbLine
 10
43.2433501725
 20
614.6523240478
 30
0.0
 11
43.2433501725
 21
615.6523240478
 31
0.0
  0
ARC
  5
23B
330
1F
100
AcDbEntity
  8
0
  6
Continuous
 62
     7
370
    25
100
AcDbCircle
 10
40.2433501725
 20
614.6523240478
 30
0.0
 40
3.000000000000057
100
AcDbArc
 50
270.0
 51
0.0
  0
LINE
  5
23C
330
1F
100
AcDbEntity
  8
0
  6
Continuous
 62
     7
370
    25
100
AcDbLine
 10
16.7140608506
 20
611.6523240478
 30
0.0
 11
40.2433501725
 21
611.6523240478
 31
0.0
  0
LINE
  5
23D
330
1F
100
AcDbEntity
  8
0
  6
Continuous
 62
     7
370
    25
100
AcDbLine
 10
16.7140608506
 20
621.2523240478
 30
0.0
 11
16.7140608506
 21
611.6523240478
 31
0.0
  0
LINE
  5
23E
330
1F
100
AcDbEntity
  8
0
  6
Continuous
 62
     7
370
    25
100
AcDbLine
 10
808.7726394944
 20
621.2523240478
 30
0.0
 11
808.7726394944
 21
611.6523240478
 31
0.0
  0
LINE
  5
23F
330
1F
100
AcDbEntity
  8
0
  6
Continuous
 62
     7
370
    25
100
AcDbLine
 10
785.2433501725
 20
611.6523240478
 30
0.0
 11
808.7726394944
 21
611.6523240478
 31
0.0
  0
ARC
  5
240
330
1F
100
AcDbEntity
  8
0
  6
Continuous
 62
     7
370
    25
100
AcDbCircle
 10
785.2433501725
 20
614.6523240478
 30
0.0
 40
3.0
100
AcDbArc
 50
180.0
 51
270.0
  0
LINE
  5
241
330
1F
100
AcDbEntity
  8
0
  6
Continuous
 62
     7
370
    25
100
AcDbLine
 10
782.2433501725
 20
614.6523240478
 30
0.0
 11
782.2433501725
 21
615.6523240478
 31
0.0
  0
ARC
  5
242
330
1F
100
AcDbEntity
  8
0
  6
Continuous
 62
     7
370
    25
100
AcDbCircle
 10
779.2433501725
 20
615.6523240478
 30
0.0
 40
3.0
100
AcDbArc
 50
0.0
 51
90.0
  0
LINE
  5
243
330
1F
100
AcDbEntity
  8
0
  6
Continuous
 62
     7
370
    25
100
AcDbLine
 10
779.2433501725
 20
618.6523240478
 30
0.0
 11
767.2433501725
 21
618.6523240478
 31
0.0
  0
ARC
  5
244
330
1F
100
AcDbEntity
  8
0
  6
Continuous
 62
     7
370
    25
100
AcDbCircle
 10
767.2433501725
 20
615.6523240478
 30
0.0
 40
3.0
100
AcDbArc
 50
90.0
 51
180.0
  0
LINE
  5
245
330
1F
100
AcDbEntity
  8
0
  6
Continuous
 62
     7
370
    25
100
AcDbLine
 10
764.2433501725
 20
614.6523240478
 30
0.0
 11
764.2433501725
 21
615.6523240478
 31
0.0
  0
ARC
  5
246
330
1F
100
AcDbEntity
  8
0
  6
Continuous
 62
     7
370
    25
100
AcDbCircle
 10
761.2433501725
 20
614.6523240478
 30
0.0
 40
3.0
100
AcDbArc
 50
270.0
 51
0.0
  0
LINE
  5
247
330
1F
100
AcDbEntity
  8
0
  6
Continuous
 62
     7
370
    25
100
AcDbLine
 10
61.2433501725
 20
614.6523240478
 30
0.0
 11
61.2433501725
 21
615.6523240478
 31
0.0
  0
ARC
  5
248
330
1F
100
AcDbEntity
  8
0
  6
Continuous
 62
     7
370
    25
100
AcDbCircle
 10
64.2433501725
 20
614.6523240478
 30
0.0
 40
3.000000000000057
100
AcDbArc
 50
180.0
 51
270.0
  0
LINE
  5
249
330
1F
100
AcDbEntity
  8
0
  6
Continuous
 62
     7
370
    25
100
AcDbLine
 10
64.2433501725
 20
611.6523240478
 30
0.0
 11
761.2433501725
 21
611.6523240478
 31
0.0
  0
SPLINE
  5
24A
330
1F
100
AcDbEntity
  8
0
  6
Continuous
 62
     7
370
    25
100
AcDbSpline
210
0.0
220
0.0
230
1.0
 70
     8
 71
     3
 72
    20
 73
    16
 74
     0
 42
0.000000001
 43
0.00000001
 40
0.0
 40
0.0
 40
0.0
 40
0.0
 40
0.1249999999999987
 40
0.1249999999999987
 40
0.2499999999999974
 40
0.2499999999999974
 40
0.3749999999999962
 40
0.3749999999999962
 40
0.4999999999999949
 40
0.4999999999999949
 40
0.7500000000000026
 40
0.7500000000000026
 40
0.8750000000000012
 40
0.8750000000000012
 40
1.0
 40
1.0
 40
1.0
 40
1.0
 10
807.8433501724776
 20
623.6523240478091
 30
0.0
 10
807.8823909033321
 20
623.6523240478091
 30
0.0
 10
807.9209096075318
 20
623.6367874873342
 30
0.0
 10
807.9983163588398
 20
623.5754691353736
 30
0.0
 10
808.0374607768265
 20
623.5290453897868
 30
0.0
 10
808.1146115307416
 20
623.4090945196326
 30
0.0
 10
808.1529391124826
 20
623.3354898753493
 30
0.0
 10
808.2304854329592
 20
623.1607595092537
 30
0.0
 10
808.2694616406278
 20
623.0599088803522
 30
0.0
 10
808.3849564970728
 20
622.7286236003682
 30
0.0
 10
808.4628689407432
 20
622.4609434389843
 30
0.0
 10
808.5783488661439
 20
622.0282694129289
 30
0.0
 10
808.617214662009
 20
621.8767513260777
 30
0.0
 10
808.6949889956774
 20
621.5673255686917
 30
0.0
 10
808.733598762632
 20
621.4107032389978
 30
0.0
 10
808.7726394943588
 20
621.2523240478092
 30
0.0
  0
SPLINE
  5
24B
330
1F
100
AcDbEntity
  8
0
  6
Continuous
 62
     7
370
    25
100
AcDbSpline
210
0.0
220
0.0
230
1.0
 70
     8
 71
     3
 72
    20
 73
    16
 74
     0
 42
0.000000001
 43
0.00000001
 40
0.0
 40
0.0
 40
0.0
 40
0.0
 40
0.1249999999999987
 40
0.1249999999999987
 40
0.2499999999999974
 40
0.2499999999999974
 40
0.3749999999999962
 40
0.3749999999999962
 40
0.4999999999999949
 40
0.4999999999999949
 40
0.7499999999999923
 40
0.7499999999999923
 40
0.8749999999999961
 40
0.8749999999999961
 40
1.0
 40
1.0
 40
1.0
 40
1.0
 10
16.71406085059618
 20
621.2523240478091
 30
0.0
 10
16.75310158145066
 20
621.4107032354598
 30
0.0
 10
16.79162028565051
 20
621.5669489601514
 30
0.0
 10
16.86902703695853
 20
621.8749408095681
 30
0.0
 10
16.908171454945
 20
622.0275849170392
 30
0.0
 10
16.98532220886034
 20
622.3166692062263
 30
0.0
 10
17.02364979060123
 20
622.4544737444103
 30
0.0
 10
17.10119611107791
 20
622.7160924200492
 30
0.0
 10
17.14017231874637
 20
622.8388387267319
 30
0.0
 10
17.25566717519139
 20
623.1701631036796
 30
0.0
 10
17.33357961886167
 20
623.3491742277077
 30
0.0
 10
17.44905954426251
 20
623.5287893270887
 30
0.0
 10
17.48792534012761
 20
623.5750336759563
 30
0.0
 10
17.56569967379601
 20
623.6367869819677
 30
0.0
 10
17.6043094407507
 20
623.6523240478091
 30
0.0
 10
17.64335017247748
 20
623.6523240478091
 30
0.0
  0
LINE
  5
24C
330
1F
100
AcDbEntity
  8
0
  6
Continuous
 62
     7
370
    25
100
AcDbLine
 10
17.6433501725
 20
623.6523240478
 30
0.0
 11
807.8433501725
 21
623.6523240478
 31
0.0
  0
LINE
  5
24D
330
1F
100
AcDbEntity
  8
0
  6
Continuous
 62
     7
370
    25
100
AcDbLine
 10
810.2433501725
 20
621.2523240478
 30
0.0
 11
808.8433501725
 21
621.2523240478
 31
0.0
  0
SPLINE
  5
24E
330
1F
100
AcDbEntity
  8
0
  6
Continuous
 62
     7
370
    25
100
AcDbSpline
210
0.0
220
0.0
230
1.0
 70
     8
 71
     3
 72
     9
 73
     5
 74
     0
 42
0.000000001
 43
0.00000001
 40
0.0
 40
0.0
 40
0.0
 40
0.0
 40
0.6784508005724729
 40
0.9999999999999999
 40
0.9999999999999999
 40
0.9999999999999999
 40
0.9999999999999999
 10
808.8433501724775
 20
621.2523240478092
 30
0.0
 10
808.8301006020131
 20
621.4030312522624
 30
0.0
 10
808.8105714475729
 20
621.625165568157
 30
0.0
 10
808.6697237939337
 20
621.7919986730462
 30
0.0
 10
808.624434343665
 20
621.8456437243615
 30
0.0
  0
SPLINE
  5
24F
330
1F
100
AcDbEntity
  8
0
  6
Continuous
 62
     7
370
    25
100
AcDbSpline
210
0.0
220
0.0
230
1.0
 70
     8
 71
     3
 72
    20
 73
    16
 74
     0
 42
0.000000001
 43
0.00000001
 40
0.0
 40
0.0
 40
0.0
 40
0.0
 40
0.125
 40
0.125
 40
0.25
 40
0.25
 40
0.375
 40
0.375
 40
0.5
 40
0.5
 40
0.75
 40
0.75
 40
0.875
 40
0.875
 40
1.0
 40
1.0
 40
1.0
 40
1.0
 10
810.2433501724774
 20
621.2523240478092
 30
0.0
 10
810.2433501724774
 20
621.4107032354598
 30
0.0
 10
810.2278136120027
 20
621.5669489601515
 30
0.0
 10
810.1664952600419
 20
621.8749408095681
 30
0.0
 10
810.1200715144552
 20
622.0275849170392
 30
0.0
 10
810.0001206443012
 20
622.3166692062263
 30
0.0
 10
809.9265160000177
 20
622.4544737444104
 30
0.0
 10
809.7517856339222
 20
622.7160924200493
 30
0.0
 10
809.6509350050205
 20
622.838838726732
 30
0.0
 10
809.3196497250367
 20
623.1701631036797
 30
0.0
 10
809.0519695636526
 20
623.3491742277079
 30
0.0
 10
808.6192955375973
 20
623.5287893270888
 30
0.0
 10
808.4677774507461
 20
623.5750336759564
 30
0.0
 10
808.15835169336
 20
623.6367869819677
 30
0.0
 10
808.0017293636663
 20
623.6523240478091
 30
0.0
 10
807.8433501724776
 20
623.6523240478091
 30
0.0
  0
SPLINE
  5
250
330
1F
100
AcDbEntity
  8
0
  6
Continuous
 62
     7
370
    25
100
AcDbSpline
210
0.0
220
0.0
230
1.0
 70
     8
 71
     3
 72
     9
 73
     5
 74
     0
 42
0.000000001
 43
0.00000001
 40
0.0
 40
0.0
 40
0.0
 40
0.0
 40
0.4825784287292668
 40
1.0
 40
1.0
 40
1.0
 40
1.0
 10
16.86717994053116
 20
621.8648637869871
 30
0.0
 10
16.80337174746965
 20
621.7767294456708
 30
0.0
 10
16.67114828023048
 20
621.5940972846178
 30
0.0
 10
16.65282897577402
 20
621.3688644005732
 30
0.0
 10
16.64335017247753
 20
621.2523240478092
 30
0.0
  0
LINE
  5
251
330
1F
100
AcDbEntity
  8
0
  6
Continuous
 62
     7
370
    25
100
AcDbLine
 10
15.2433501725
 20
621.2523240478
 30
0.0
 11
16.6433501725
 21
621.2523240478
 31
0.0
  0
SPLINE
  5
252
330
1F
100
AcDbEntity
  8
0
  6
Continuous
 62
     7
370
    25
100
AcDbSpline
210
0.0
220
0.0
230
1.0
 70
     8
 71
     3
 72
    20
 73
    16
 74
     0
 42
0.000000001
 43
0.00000001
 40
0.0
 40
0.0
 40
0.0
 40
0.0
 40
0.1249999999999946
 40
0.1249999999999946
 40
0.2499999999999892
 40
0.2499999999999892
 40
0.3749999999999838
 40
0.3749999999999838
 40
0.4999999999999785
 40
0.4999999999999785
 40
0.7499999999999974
 40
0.7499999999999974
 40
0.8749999999999987
 40
0.8749999999999987
 40
1.0
 40
1.0
 40
1.0
 40
1.0
 10
17.64335017247753
 20
623.6523240478091
 30
0.0
 10
17.48497098482682
 20
623.6523240478091
 30
0.0
 10
17.32872526013513
 20
623.6367874873343
 30
0.0
 10
17.02073341071852
 20
623.5754691353736
 30
0.0
 10
16.86808930324751
 20
623.5290453897868
 30
0.0
 10
16.57900501406034
 20
623.4090945196326
 30
0.0
 10
16.44120047587627
 20
623.3354898753493
 30
0.0
 10
16.17958180023754
 20
623.1607595092537
 30
0.0
 10
16.0568354935548
 20
623.059908880352
 30
0.0
 10
15.72551111660714
 20
622.7286236003681
 30
0.0
 10
15.54649999257868
 20
622.4609434389843
 30
0.0
 10
15.36688489319799
 20
622.0282694129289
 30
0.0
 10
15.32064054433002
 20
621.8767513260777
 30
0.0
 10
15.25888723831892
 20
621.5673255686917
 30
0.0
 10
15.24335017247735
 20
621.4107032389978
 30
0.0
 10
15.24335017247752
 20
621.2523240478092
 30
0.0
  0
LINE
  5
253
330
1F
100
AcDbEntity
  8
0
  6
Continuous
 62
     7
370
    25
100
AcDbLine
 10
15.2433501725
 20
611.6523240478
 30
0.0
 11
16.6433501725
 21
611.6523240478
 31
0.0
  0
LINE
  5
254
330
1F
100
AcDbEntity
  8
0
  6
Continuous
 62
     7
370
    25
100
AcDbLine
 10
15.2433501725
 20
621.2523240478
 30
0.0
 11
15.2433501725
 21
611.6523240478
 31
0.0
  0
LINE
  5
255
330
1F
100
AcDbEntity
  8
0
  6
Continuous
 62
     7
370
    25
100
AcDbLine
 10
16.6433501725
 20
621.2523240478
 30
0.0
 11
16.6433501725
 21
611.6523240478
 31
0.0
  0
LINE
  5
256
330
1F
100
AcDbEntity
  8
0
  6
Continuous
 62
     7
370
    25
100
AcDbLine
 10
810.2433501725
 20
621.2523240478
 30
0.0
 11
810.2433501725
 21
611.6523240478
 31
0.0
  0
LINE
  5
257
330
1F
100
AcDbEntity
  8
0
  6
Continuous
 62
     7
370
    25
100
AcDbLine
 10
810.2433501725
 20
611.6523240478
 30
0.0
 11
808.8433501725
 21
611.6523240478
 31
0.0
  0
LINE
  5
258
330
1F
100
AcDbEntity
  8
0
  6
Continuous
 62
     7
370
    25
100
AcDbLine
 10
808.8433501725
 20
621.2523240478
 30
0.0
 11
808.8433501725
 21
611.6523240478
 31
0.0
  0
LINE
  5
259
330
1F
100
AcDbEntity
  8
0
  6
Continuous
 62
     7
370
    25
100
AcDbLine
 10
751.3748974581
 20
607.1523240478
 30
0.0
 11
751.4312394199
 21
607.1523240478
 31
0.0
  0
LINE
  5
25A
330
1F
100
AcDbEntity
  8
0
  6
Continuous
 62
     7
370
    25
100
AcDbLine
 10
751.9312394199
 20
606.6523240478
 30
0.0
 11
751.8748974581
 21
606.6523240478
 31
0.0
  0
LINE
  5
25B
330
1F
100
AcDbEntity
  8
0
  6
Continuous
 62
     7
370
    25
100
AcDbLine
 10
752.3213086987
 20
607.1523240478
 30
0.0
 11
755.7682983547
 21
607.1523240478
 31
0.0
  0
LINE
  5
25C
330
1F
100
AcDbEntity
  8
0
  6
Continuous
 62
     7
370
    25
100
AcDbLine
 10
755.3622429784
 20
606.6523240478
 30
0.0
 11
752.7770007364
 21
606.6523240478
 31
0.0
  0
LINE
  5
25D
330
1F
100
AcDbEntity
  8
0
  6
Continuous
 62
     7
370
    25
100
AcDbLine
 10
755.7682983547
 20
607.1523240478
 30
0.0
 11
756.778955753
 21
607.1523240478
 31
0.0
  0
LINE
  5
25E
330
1F
100
AcDbEntity
  8
0
  6
Continuous
 62
     7
370
    25
100
AcDbLine
 10
756.3729003767
 20
606.6523240478
 30
0.0
 11
755.3622429784
 21
606.6523240478
 31
0.0
  0
LINE
  5
25F
330
1F
100
AcDbEntity
  8
0
  6
Continuous
 62
     7
370
    25
100
AcDbLine
 10
751.6084712691
 20
607.1523240478
 30
0.0
 11
752.3213086987
 21
607.1523240478
 31
0.0
  0
LINE
  5
260
330
1F
100
AcDbEntity
  8
0
  6
Continuous
 62
     7
370
    25
100
AcDbLine
 10
752.7770007364
 20
606.6523240478
 30
0.0
 11
752.0641633068
 21
606.6523240478
 31
0.0
  0
LINE
  5
261
330
1F
100
AcDbEntity
  8
0
  6
Continuous
 62
     7
370
    25
100
AcDbLine
 10
756.778955753
 20
607.1523240478
 30
0.0
 11
757.1547342479
 21
607.1523240478
 31
0.0
  0
LINE
  5
262
330
1F
100
AcDbEntity
  8
0
  6
Continuous
 62
     7
370
    25
100
AcDbLine
 10
756.6547342479
 20
606.6523240478
 30
0.0
 11
756.3729003767
 21
606.6523240478
 31
0.0
  0
LINE
  5
263
330
1F
100
AcDbEntity
  8
0
  6
Continuous
 62
     7
370
    25
100
AcDbLine
 10
751.4312394199
 20
607.1523240478
 30
0.0
 11
751.6084712691
 21
607.1523240478
 31
0.0
  0
LINE
  5
264
330
1F
100
AcDbEntity
  8
0
  6
Continuous
 62
     7
370
    25
100
AcDbLine
 10
752.0641633068
 20
606.6523240478
 30
0.0
 11
751.9312394199
 21
606.6523240478
 31
0.0
  0
LINE
  5
265
330
1F
100
AcDbEntity
  8
0
  6
Continuous
 62
     7
370
    25
100
AcDbLine
 10
71.9736855331
 20
607.1523240478
 30
0.0
 11
74.0812351183
 21
607.1523240478
 31
0.0
  0
LINE
  5
266
330
1F
100
AcDbEntity
  8
0
  6
Continuous
 62
     7
370
    25
100
AcDbLine
 10
73.5812351183
 20
606.6523240478
 30
0.0
 11
72.0005729294
 21
606.6523240478
 31
0.0
  0
LINE
  5
267
330
1F
100
AcDbEntity
  8
0
  6
Continuous
 62
     7
370
    25
100
AcDbLine
 10
72.0005729294
 20
606.6523240478
 30
0.0
 11
70.2710282451
 21
606.6523240478
 31
0.0
  0
LINE
  5
268
330
1F
100
AcDbEntity
  8
0
  6
Continuous
 62
     7
370
    25
100
AcDbLine
 10
70.2441408488
 20
607.1523240478
 30
0.0
 11
71.9736855331
 21
607.1523240478
 31
0.0
  0
LINE
  5
269
330
1F
100
AcDbEntity
  8
0
  6
Continuous
 62
     7
370
    25
100
AcDbLine
 10
70.2710282451
 20
606.6523240478
 30
0.0
 11
68.851690434
 21
606.6523240478
 31
0.0
  0
LINE
  5
26A
330
1F
100
AcDbEntity
  8
0
  6
Continuous
 62
     7
370
    25
100
AcDbLine
 10
68.351690434
 20
607.1523240478
 30
0.0
 11
70.2441408488
 21
607.1523240478
 31
0.0
  0
LINE
  5
26B
330
1F
100
AcDbEntity
  8
0
  6
Continuous
 62
     7
370
    25
100
AcDbLine
 10
762.7433501725
 20
603.5523240478
 30
0.0
 11
763.9433501725
 21
603.5523240478
 31
0.0
  0
LINE
  5
26C
330
1F
100
AcDbEntity
  8
0
  6
Continuous
 62
     7
370
    25
100
AcDbLine
 10
763.9433501725
 20
584.5523240478
 30
0.0
 11
760.7433501725
 21
584.5523240478
 31
0.0
  0
LINE
  5
26D
330
1F
100
AcDbEntity
  8
0
  6
Continuous
 62
     7
370
    25
100
AcDbLine
 10
760.7433501725
 20
584.5523240478
 30
0.0
 11
760.7433501725
 21
563.5523240478
 31
0.0
  0
ARC
  5
26E
330
1F
100
AcDbEntity
  8
0
  6
Continuous
 62
     7
370
    25
100
AcDbCircle
 10
757.7433501725
 20
563.5523240478
 30
0.0
 40
3.0
100
AcDbArc
 50
270.0
 51
0.0
  0
ARC
  5
26F
330
1F
100
AcDbEntity
  8
0
  6
Continuous
 62
     7
370
    25
100
AcDbCircle
 10
713.7433501725
 20
563.5523240478
 30
0.0
 40
3.000000000000114
100
AcDbArc
 50
180.0
 51
270.0
  0
LINE
  5
270
330
1F
100
AcDbEntity
  8
0
  6
Continuous
 62
     7
370
    25
100
AcDbLine
 10
710.7433501725
 20
563.5523240478
 30
0.0
 11
710.7433501725
 21
579.6823240478
 31
0.0
  0
LINE
  5
271
330
1F
100
AcDbEntity
  8
0
  6
Continuous
 62
     7
370
    25
100
AcDbLine
 10
710.7433501725
 20
579.6823240478
 30
0.0
 11
708.2433501725
 21
579.6823240478
 31
0.0
  0
LINE
  5
272
330
1F
100
AcDbEntity
  8
0
  6
Continuous
 62
     7
370
    25
100
AcDbLine
 10
708.2433501725
 20
579.1902732402
 30
0.0
 11
708.2433501725
 21
579.6823240478
 31
0.0
  0
LINE
  5
273
330
1F
100
AcDbEntity
  8
0
  6
Continuous
 62
     7
370
    25
100
AcDbLine
 10
558.2433501725
 20
579.1902732402
 30
0.0
 11
558.2433501725
 21
579.6823240478
 31
0.0
  0
LINE
  5
274
330
1F
100
AcDbEntity
  8
0
  6
Continuous
 62
     7
370
    25
100
AcDbLine
 10
558.2433501725
 20
579.6823240478
 30
0.0
 11
555.7433501725
 21
579.6823240478
 31
0.0
  0
LINE
  5
275
330
1F
100
AcDbEntity
  8
0
  6
Continuous
 62
     7
370
    25
100
AcDbLine
 10
555.7433501725
 20
579.6823240478
 30
0.0
 11
555.7433501725
 21
563.5523240478
 31
0.0
  0
ARC
  5
276
330
1F
100
AcDbEntity
  8
0
  6
Continuous
 62
     7
370
    25
100
AcDbCircle
 10
552.7433501725
 20
563.5523240478
 30
0.0
 40
3.0
100
AcDbArc
 50
270.0
 51
0.0
  0
ARC
  5
277
330
1F
100
AcDbEntity
  8
0
  6
Continuous
 62
     7
370
    25
100
AcDbCircle
 10
493.2433501725
 20
563.5523240478
 30
0.0
 40
3.000000000000057
100
AcDbArc
 50
180.0
 51
270.0
  0
LINE
  5
278
330
1F
100
AcDbEntity
  8
0
  6
Continuous
 62
     7
370
    25
100
AcDbLine
 10
490.2433501725
 20
563.5523240478
 30
0.0
 11
490.2433501725
 21
579.6823240478
 31
0.0
  0
LINE
  5
279
330
1F
100
AcDbEntity
  8
0
  6
Continuous
 62
     7
370
    25
100
AcDbLine
 10
490.2433501725
 20
579.6823240478
 30
0.0
 11
487.7433501725
 21
579.6823240478
 31
0.0
  0
LINE
  5
27A
330
1F
100
AcDbEntity
  8
0
  6
Continuous
 62
     7
370
    25
100
AcDbLine
 10
487.7433501725
 20
579.1902732402
 30
0.0
 11
487.7433501725
 21
579.6823240478
 31
0.0
  0
LINE
  5
27B
330
1F
100
AcDbEntity
  8
0
  6
Continuous
 62
     7
370
    25
100
AcDbLine
 10
337.7433501725
 20
579.1902732402
 30
0.0
 11
337.7433501725
 21
579.6823240478
 31
0.0
  0
LINE
  5
27C
330
1F
100
AcDbEntity
  8
0
  6
Continuous
 62
     7
370
    25
100
AcDbLine
 10
337.7433501725
 20
579.6823240478
 30
0.0
 11
335.2433501725
 21
579.6823240478
 31
0.0
  0
LINE
  5
27D
330
1F
100
AcDbEntity
  8
0
  6
Continuous
 62
     7
370
    25
100
AcDbLine
 10
335.2433501725
 20
579.6823240478
 30
0.0
 11
335.2433501725
 21
563.5523240478
 31
0.0
  0
ARC
  5
27E
330
1F
100
AcDbEntity
  8
0
  6
Continuous
 62
     7
370
    25
100
AcDbCircle
 10
332.2433501725
 20
563.5523240478
 30
0.0
 40
3.0
100
AcDbArc
 50
270.0
 51
360.0
  0
LINE
  5
27F
330
1F
100
AcDbEntity
  8
0
  6
Continuous
 62
     7
370
    25
100
AcDbLine
 10
332.2433501725
 20
560.5523240478
 30
0.0
 11
272.7433501725
 21
560.5523240478
 31
0.0
  0
ARC
  5
280
330
1F
100
AcDbEntity
  8
0
  6
Continuous
 62
     7
370
    25
100
AcDbCircle
 10
272.7433501725
 20
563.5523240478
 30
0.0
 40
3.0
100
AcDbArc
 50
180.0
 51
270.0
  0
LINE
  5
281
330
1F
100
AcDbEntity
  8
0
  6
Continuous
 62
     7
370
    25
100
AcDbLine
 10
269.7433501725
 20
563.5523240478
 30
0.0
 11
269.7433501725
 21
579.6823240478
 31
0.0
  0
LINE
  5
282
330
1F
100
AcDbEntity
  8
0
  6
Continuous
 62
     7
370
    25
100
AcDbLine
 10
269.7433501725
 20
579.6823240478
 30
0.0
 11
267.2433501725
 21
579.6823240478
 31
0.0
  0
LINE
  5
283
330
1F
100
AcDbEntity
  8
0
  6
Continuous
 62
     7
370
    25
100
AcDbLine
 10
267.2433501725
 20
579.1902732402
 30
0.0
 11
267.2433501725
 21
579.6823240478
 31
0.0
  0
LINE
  5
284
330
1F
100
AcDbEntity
  8
0
  6
Continuous
 62
     7
370
    25
100
AcDbLine
 10
117.2433501725
 20
579.1902732402
 30
0.0
 11
117.2433501725
 21
579.6823240478
 31
0.0
  0
LINE
  5
285
330
1F
100
AcDbEntity
  8
0
  6
Continuous
 62
     7
370
    25
100
AcDbLine
 10
117.2433501725
 20
579.6823240478
 30
0.0
 11
114.7433501725
 21
579.6823240478
 31
0.0
  0
LINE
  5
286
330
1F
100
AcDbEntity
  8
0
  6
Continuous
 62
     7
370
    25
100
AcDbLine
 10
114.7433501725
 20
579.6823240478
 30
0.0
 11
114.7433501725
 21
563.5523240478
 31
0.0
  0
ARC
  5
287
330
1F
100
AcDbEntity
  8
0
  6
Continuous
 62
     7
370
    25
100
AcDbCircle
 10
111.7433501725
 20
563.5523240478
 30
0.0
 40
3.000000000000014
100
AcDbArc
 50
270.0
 51
0.0
  0
ARC
  5
288
330
1F
100
AcDbEntity
  8
0
  6
Continuous
 62
     7
370
    25
100
AcDbCircle
 10
67.7433501725
 20
563.5523240478
 30
0.0
 40
3.000000000000014
100
AcDbArc
 50
180.0
 51
270.0
  0
LINE
  5
289
330
1F
100
AcDbEntity
  8
0
  6
Continuous
 62
     7
370
    25
100
AcDbLine
 10
64.7433501725
 20
584.5523240478
 30
0.0
 11
61.5433501725
 21
584.5523240478
 31
0.0
  0
LINE
  5
28A
330
1F
100
AcDbEntity
  8
0
  6
Continuous
 62
     7
370
    25
100
AcDbLine
 10
61.5433501725
 20
603.5523240478
 30
0.0
 11
62.7433501725
 21
603.5523240478
 31
0.0
  0
LINE
  5
28B
330
1F
100
AcDbEntity
  8
0
  6
Continuous
 62
     7
370
    25
100
AcDbLine
 10
62.7433501725
 20
603.5523240478
 30
0.0
 11
62.7433501725
 21
603.7523240478
 31
0.0
  0
LINE
  5
28C
330
1F
100
AcDbEntity
  8
0
  6
Continuous
 62
     7
370
    25
100
AcDbLine
 10
762.7433501725
 20
603.7523240478
 30
0.0
 11
762.7433501725
 21
603.5523240478
 31
0.0
  0
LINE
  5
28D
330
1F
100
AcDbEntity
  8
0
  6
Continuous
 62
     7
370
    25
100
AcDbLine
 10
552.7433501725
 20
560.5523240478
 30
0.0
 11
493.2433501725
 21
560.5523240478
 31
0.0
  0
LINE
  5
28E
330
1F
100
AcDbEntity
  8
0
  6
Continuous
 62
     7
370
    25
100
AcDbLine
 10
64.7433501725
 20
563.5523240478
 30
0.0
 11
64.7433501725
 21
584.5523240478
 31
0.0
  0
LINE
  5
28F
330
1F
100
AcDbEntity
  8
0
  6
Continuous
 62
     7
370
    25
100
AcDbLine
 10
111.7433501725
 20
560.5523240478
 30
0.0
 11
67.7433501725
 21
560.5523240478
 31
0.0
  0
LINE
  5
290
330
1F
100
AcDbEntity
  8
0
  6
Continuous
 62
     7
370
    25
100
AcDbLine
 10
757.7433501725
 20
560.5523240478
 30
0.0
 11
713.7433501725
 21
560.5523240478
 31
0.0
  0
LINE
  5
291
330
1F
100
AcDbEntity
  8
0
  6
Continuous
 62
     7
370
    25
100
AcDbLine
 10
337.7433501725
 20
578.2902732402
 30
0.0
 11
337.7433501725
 21
579.1902732402
 31
0.0
  0
LINE
  5
292
330
1F
100
AcDbEntity
  8
0
  6
Continuous
 62
     7
370
    25
100
AcDbLine
 10
487.7433501725
 20
579.1902732402
 30
0.0
 11
487.7433501725
 21
578.2902732402
 31
0.0
  0
LINE
  5
293
330
1F
100
AcDbEntity
  8
0
  6
Continuous
 62
     7
370
    25
100
AcDbLine
 10
708.2433501725
 20
579.1902732402
 30
0.0
 11
708.2433501725
 21
578.2902732402
 31
0.0
  0
LINE
  5
294
330
1F
100
AcDbEntity
  8
0
  6
Continuous
 62
     7
370
    25
100
AcDbLine
 10
558.2433501725
 20
578.2902732402
 30
0.0
 11
558.2433501725
 21
579.1902732402
 31
0.0
  0
LINE
  5
295
330
1F
100
AcDbEntity
  8
0
  6
Continuous
 62
     7
370
    25
100
AcDbLine
 10
117.2433501725
 20
578.2902732402
 30
0.0
 11
117.2433501725
 21
579.1902732402
 31
0.0
  0
LINE
  5
296
330
1F
100
AcDbEntity
  8
0
  6
Continuous
 62
     7
370
    25
100
AcDbLine
 10
267.2433501725
 20
579.1902732402
 30
0.0
 11
267.2433501725
 21
578.2902732402
 31
0.0
  0
LINE
  5
297
330
1F
100
AcDbEntity
  8
0
  6
Continuous
 62
     7
370
    25
100
AcDbLine
 10
763.9433501725
 20
603.5523240478
 30
0.0
 11
764.7433501725
 21
603.5523240478
 31
0.0
  0
LINE
  5
298
330
1F
100
AcDbEntity
  8
0
  6
Continuous
 62
     7
370
    25
100
AcDbLine
 10
765.7433501725
 20
584.5523240478
 30
0.0
 11
765.7433501725
 21
585.1523240478
 31
0.0
  0
LINE
  5
299
330
1F
100
AcDbEntity
  8
0
  6
Continuous
 62
     7
370
    25
100
AcDbLine
 10
765.7433501725
 20
584.5523240478
 30
0.0
 11
763.9433501725
 21
584.5523240478
 31
0.0
  0
LINE
  5
29A
330
1F
100
AcDbEntity
  8
0
  6
Continuous
 62
     7
370
    25
100
AcDbLine
 10
59.7433501725
 20
584.5523240478
 30
0.0
 11
59.7433501725
 21
585.1523240478
 31
0.0
  0
LINE
  5
29B
330
1F
100
AcDbEntity
  8
0
  6
Continuous
 62
     7
370
    25
100
AcDbLine
 10
60.7433501725
 20
603.5523240478
 30
0.0
 11
61.5433501725
 21
603.5523240478
 31
0.0
  0
LINE
  5
29C
330
1F
100
AcDbEntity
  8
0
  6
Continuous
 62
     7
370
    25
100
AcDbLine
 10
61.5433501725
 20
584.5523240478
 30
0.0
 11
59.7433501725
 21
584.5523240478
 31
0.0
  0
LINE
  5
29D
330
1F
100
AcDbEntity
  8
0
  6
Continuous
 62
     7
370
    25
100
AcDbLine
 10
62.7433501725
 20
603.7523240478
 30
0.0
 11
62.7433501725
 21
605.5523240478
 31
0.0
  0
LINE
  5
29E
330
1F
100
AcDbEntity
  8
0
  6
Continuous
 62
     7
370
    25
100
AcDbLine
 10
762.7433501725
 20
605.5523240478
 30
0.0
 11
762.7433501725
 21
603.7523240478
 31
0.0
  0
LINE
  5
29F
330
1F
100
AcDbEntity
  8
0
  6
Continuous
 62
     7
370
    25
100
AcDbLine
 10
117.2433501725
 20
578.2902732402
 30
0.0
 11
117.2433501725
 21
571.6654021096
 31
0.0
  0
LINE
  5
2A0
330
1F
100
AcDbEntity
  8
0
  6
Continuous
 62
     7
370
    25
100
AcDbLine
 10
267.2433501725
 20
571.6654021096
 30
0.0
 11
267.2433501725
 21
578.2902732402
 31
0.0
  0
LINE
  5
2A1
330
1F
100
AcDbEntity
  8
0
  6
Continuous
 62
     7
370
    25
100
AcDbLine
 10
337.7433501725
 20
578.2902732402
 30
0.0
 11
337.7433501725
 21
571.6654021096
 31
0.0
  0
LINE
  5
2A2
330
1F
100
AcDbEntity
  8
0
  6
Continuous
 62
     7
370
    25
100
AcDbLine
 10
487.7433501725
 20
571.6654021096
 30
0.0
 11
487.7433501725
 21
578.2902732402
 31
0.0
  0
LINE
  5
2A3
330
1F
100
AcDbEntity
  8
0
  6
Continuous
 62
     7
370
    25
100
AcDbLine
 10
558.2433501725
 20
578.2902732402
 30
0.0
 11
558.2433501725
 21
571.6654021096
 31
0.0
  0
LINE
  5
2A4
330
1F
100
AcDbEntity
  8
0
  6
Continuous
 62
     7
370
    25
100
AcDbLine
 10
708.2433501725
 20
571.6654021096
 30
0.0
 11
708.2433501725
 21
578.2902732402
 31
0.0
  0
LINE
  5
2A5
330
1F
100
AcDbEntity
  8
0
  6
Continuous
 62
     7
370
    25
100
AcDbLine
 10
117.2433501725
 20
571.6654021096
 30
0.0
 11
117.2433501725
 21
571.1654021096
 31
0.0
  0
LINE
  5
2A6
330
1F
100
AcDbEntity
  8
0
  6
Continuous
 62
     7
370
    25
100
AcDbLine
 10
267.2433501725
 20
571.1654021096
 30
0.0
 11
267.2433501725
 21
571.6654021096
 31
0.0
  0
LINE
  5
2A7
330
1F
100
AcDbEntity
  8
0
  6
Continuous
 62
     7
370
    25
100
AcDbLine
 10
487.7433501725
 20
571.1654021096
 30
0.0
 11
487.7433501725
 21
571.6654021096
 31
0.0
  0
LINE
  5
2A8
330
1F
100
AcDbEntity
  8
0
  6
Continuous
 62
     7
370
    25
100
AcDbLine
 10
337.7433501725
 20
571.6654021096
 30
0.0
 11
337.7433501725
 21
571.1654021096
 31
0.0
  0
LINE
  5
2A9
330
1F
100
AcDbEntity
  8
0
  6
Continuous
 62
     7
370
    25
100
AcDbLine
 10
558.2433501725
 20
571.6654021096
 30
0.0
 11
558.2433501725
 21
571.1654021096
 31
0.0
  0
LINE
  5
2AA
330
1F
100
AcDbEntity
  8
0
  6
Continuous
 62
     7
370
    25
100
AcDbLine
 10
708.2433501725
 20
571.1654021096
 30
0.0
 11
708.2433501725
 21
571.6654021096
 31
0.0
  0
ARC
  5
2AB
330
1F
100
AcDbEntity
  8
0
  6
Continuous
 62
     7
370
    25
100
AcDbCircle
 10
120.2433501725
 20
564.647710656
 30
0.0
 40
3.000000000000014
100
AcDbArc
 50
180.0
 51
270.0
  0
LINE
  5
2AC
330
1F
100
AcDbEntity
  8
0
  6
Continuous
 62
     7
370
    25
100
AcDbLine
 10
117.2433501725
 20
564.647710656
 30
0.0
 11
117.2433501725
 21
571.1654021096
 31
0.0
  0
LINE
  5
2AD
330
1F
100
AcDbEntity
  8
0
  6
Continuous
 62
     7
370
    25
100
AcDbLine
 10
267.2433501725
 20
571.1654021096
 30
0.0
 11
267.2433501725
 21
564.647710656
 31
0.0
  0
ARC
  5
2AE
330
1F
100
AcDbEntity
  8
0
  6
Continuous
 62
     7
370
    25
100
AcDbCircle
 10
264.2433501725
 20
564.647710656
 30
0.0
 40
3.000000000000057
100
AcDbArc
 50
270.0
 51
0.0
  0
LINE
  5
2AF
330
1F
100
AcDbEntity
  8
0
  6
Continuous
 62
     7
370
    25
100
AcDbLine
 10
264.2433501725
 20
561.647710656
 30
0.0
 11
120.2433501725
 21
561.647710656
 31
0.0
  0
ARC
  5
2B0
330
1F
100
AcDbEntity
  8
0
  6
Continuous
 62
     7
370
    25
100
AcDbCircle
 10
561.2433501725
 20
564.647710656
 30
0.0
 40
3.0
100
AcDbArc
 50
180.0
 51
270.0
  0
LINE
  5
2B1
330
1F
100
AcDbEntity
  8
0
  6
Continuous
 62
     7
370
    25
100
AcDbLine
 10
558.2433501725
 20
564.647710656
 30
0.0
 11
558.2433501725
 21
571.1654021096
 31
0.0
  0
LINE
  5
2B2
330
1F
100
AcDbEntity
  8
0
  6
Continuous
 62
     7
370
    25
100
AcDbLine
 10
708.2433501725
 20
571.1654021096
 30
0.0
 11
708.2433501725
 21
564.647710656
 31
0.0
  0
ARC
  5
2B3
330
1F
100
AcDbEntity
  8
0
  6
Continuous
 62
     7
370
    25
100
AcDbCircle
 10
705.2433501725
 20
564.647710656
 30
0.0
 40
3.0
100
AcDbArc
 50
270.0
 51
0.0
  0
LINE
  5
2B4
330
1F
100
AcDbEntity
  8
0
  6
Continuous
 62
     7
370
    25
100
AcDbLine
 10
705.2433501725
 20
561.647710656
 30
0.0
 11
561.2433501725
 21
561.647710656
 31
0.0
  0
ARC
  5
2B5
330
1F
100
AcDbEntity
  8
0
  6
Continuous
 62
     7
370
    25
100
AcDbCircle
 10
340.7433501725
 20
564.647710656
 30
0.0
 40
3.0
100
AcDbArc
 50
180.0
 51
270.0
  0
LINE
  5
2B6
330
1F
100
AcDbEntity
  8
0
  6
Continuous
 62
     7
370
    25
100
AcDbLine
 10
337.7433501725
 20
564.647710656
 30
0.0
 11
337.7433501725
 21
571.1654021096
 31
0.0
  0
LINE
  5
2B7
330
1F
100
AcDbEntity
  8
0
  6
Continuous
 62
     7
370
    25
100
AcDbLine
 10
487.7433501725
 20
571.1654021096
 30
0.0
 11
487.7433501725
 21
564.647710656
 31
0.0
  0
ARC
  5
2B8
330
1F
100
AcDbEntity
  8
0
  6
Continuous
 62
     7
370
    25
100
AcDbCircle
 10
484.7433501725
 20
564.647710656
 30
0.0
 40
3.0
100
AcDbArc
 50
270.0
 51
0.0
  0
LINE
  5
2B9
330
1F
100
AcDbEntity
  8
0
  6
Continuous
 62
     7
370
    25
100
AcDbLine
 10
484.7433501725
 20
561.647710656
 30
0.0
 11
340.7433501725
 21
561.647710656
 31
0.0
  0
LINE
  5
2BA
330
1F
100
AcDbEntity
  8
0
  6
Continuous
 62
     7
370
    25
100
AcDbLine
 10
774.4021001725
 20
590.0523240478
 30
0.0
 11
774.4021001725
 21
590.2523240478
 31
0.0
  0
LINE
  5
2BB
330
1F
100
AcDbEntity
  8
0
  6
Continuous
 62
     7
370
    25
100
AcDbLine
 10
774.4021001725
 20
595.8523240478
 30
0.0
 11
774.4021001725
 21
596.0523240478
 31
0.0
  0
LINE
  5
2BC
330
1F
100
AcDbEntity
  8
0
  6
Continuous
 62
     7
370
    25
100
AcDbLine
 10
774.9433501725
 20
594.6317273851
 30
0.0
 11
774.9433501725
 21
595.5110740478
 31
0.0
  0
LINE
  5
2BD
330
1F
100
AcDbEntity
  8
0
  6
Continuous
 62
     7
370
    25
100
AcDbLine
 10
774.9433501725
 20
590.5935740478
 30
0.0
 11
774.9433501725
 21
594.6317273851
 31
0.0
  0
LINE
  5
2BE
330
1F
100
AcDbEntity
  8
0
  6
Continuous
 62
     7
370
    25
100
AcDbLine
 10
764.2433501725
 20
607.3523240478
 30
0.0
 11
764.2433501725
 21
605.5523240478
 31
0.0
  0
LINE
  5
2BF
330
1F
100
AcDbEntity
  8
0
  6
Continuous
 62
     7
370
    25
100
AcDbLine
 10
764.2433501725
 20
605.5523240478
 30
0.0
 11
61.2433501725
 21
605.5523240478
 31
0.0
  0
LINE
  5
2C0
330
1F
100
AcDbEntity
  8
0
  6
Continuous
 62
     7
370
    25
100
AcDbLine
 10
61.2433501725
 20
605.5523240478
 30
0.0
 11
61.2433501725
 21
607.3523240478
 31
0.0
  0
LINE
  5
2C1
330
1F
100
AcDbEntity
  8
0
  6
Continuous
 62
     7
370
    25
100
AcDbLine
 10
764.2433501725
 20
607.3523240478
 30
0.0
 11
764.7433501725
 21
612.7273240478
 31
0.0
  0
LINE
  5
2C2
330
1F
100
AcDbEntity
  8
0
  6
Continuous
 62
     7
370
    25
100
AcDbLine
 10
60.7433501725
 20
612.7273240478
 30
0.0
 11
61.2433501725
 21
607.3523240478
 31
0.0
  0
LINE
  5
2C3
330
1F
100
AcDbEntity
  8
0
  6
Continuous
 62
     7
370
    25
100
AcDbLine
 10
50.5433501725
 20
590.8349859705
 30
0.0
 11
50.5433501725
 21
590.5935740478
 31
0.0
  0
LINE
  5
2C4
330
1F
100
AcDbEntity
  8
0
  6
Continuous
 62
     7
370
    25
100
AcDbLine
 10
50.5433501725
 20
595.5110740478
 30
0.0
 11
50.5433501725
 21
590.8349859705
 31
0.0
  0
LINE
  5
2C5
330
1F
100
AcDbEntity
  8
0
  6
Continuous
 62
     7
370
    25
100
AcDbLine
 10
51.0846001725
 20
596.0523240478
 30
0.0
 11
51.0846001725
 21
595.8523240478
 31
0.0
  0
LINE
  5
2C6
330
1F
100
AcDbEntity
  8
0
  6
Continuous
 62
     7
370
    25
100
AcDbLine
 10
51.0846001725
 20
590.2523240478
 30
0.0
 11
51.0846001725
 21
590.0523240478
 31
0.0
  0
SPLINE
  5
2C7
330
1F
100
AcDbEntity
  8
0
  6
Continuous
 62
     7
370
    25
100
AcDbSpline
210
0.0
220
0.0
230
1.0
 70
    24
 71
     3
 72
    15
 73
    11
 74
     0
 42
0.000000001
 43
0.00000001
 40
0.0
 40
0.0
 40
0.0
 40
0.0
 40
0.0346967497918696
 40
0.2211884951269678
 40
0.4076802404620666
 40
0.508072015263081
 40
0.6105942475634838
 40
0.7131164798638864
 40
0.8135082546649008
 40
1.0
 40
1.0
 40
1.0
 40
1.0
 10
61.74335017247745
 20
587.2790752384062
 30
0.0
 10
61.74335017247745
 20
587.2723541347749
 30
0.0
 10
61.74335017247756
 20
587.2295077354221
 30
0.0
 10
61.74335017247734
 20
587.7175486981805
 30
0.0
 10
61.74335017247751
 20
588.8134597556491
 30
0.0
 10
61.74335017247729
 20
590.0323568880965
 30
0.0
 10
61.74335017247762
 20
591.1125321159535
 30
0.0
 10
61.74335017247734
 20
592.2730090184192
 30
0.0
 10
61.74335017247756
 20
593.8035839135343
 30
0.0
 10
61.74335017247745
 20
594.8672098021844
 30
0.0
 10
61.74335017247745
 20
595.5586313528676
 30
0.0
  0
SPLINE
  5
2C8
330
1F
100
AcDbEntity
  8
0
  6
Continuous
 62
     7
370
    25
100
AcDbSpline
210
0.0
220
0.0
230
1.0
 70
    24
 71
     3
 72
    12
 73
     8
 74
     0
 42
0.000000001
 43
0.00000001
 40
0.0
 40
0.0
 40
0.0
 40
0.0
 40
0.3344405486782647
 40
0.5144757571369875
 40
0.6983315710265398
 40
0.8821873849160913
 40
1.0
 40
1.0
 40
1.0
 40
1.0
 10
61.74335017247745
 20
595.5586313528676
 30
0.0
 10
61.7433501724774
 20
596.1827768883694
 30
0.0
 10
61.74335017247734
 20
597.142910903847
 30
0.0
 10
61.74335017247756
 20
598.0508218101422
 30
0.0
 10
61.74335017247745
 20
598.5565391480584
 30
0.0
 10
61.74335017247751
 20
598.8281588821966
 30
0.0
 10
61.74335017247745
 20
598.8262991507369
 30
0.0
 10
61.74335017247745
 20
598.8255728572119
 30
0.0
  0
LINE
  5
2C9
330
1F
100
AcDbEntity
  8
0
  6
Continuous
 62
     7
370
    25
100
AcDbLine
 10
65.7433501725
 20
592.6689290201
 30
0.0
 11
65.7433501725
 21
597.1780049271
 31
0.0
  0
SPLINE
  5
2CA
330
1F
100
AcDbEntity
  8
0
  6
Continuous
 62
     7
370
    25
100
AcDbSpline
210
0.0
220
0.0
230
1.0
 70
     8
 71
     3
 72
     8
 73
     4
 74
     0
 42
0.000000001
 43
0.00000001
 40
0.0
 40
0.0
 40
0.0
 40
0.0
 40
1.0
 40
1.0
 40
1.0
 40
1.0
 10
65.74335017247046
 20
592.6689290201226
 30
0.0
 10
65.74335017247046
 20
593.6513074646954
 30
0.0
 10
65.56903487209104
 20
594.6067986328851
 30
0.0
 10
65.29676818507907
 20
595.5471812822127
 30
0.0
  0
SPLINE
  5
2CB
330
1F
100
AcDbEntity
  8
0
  6
Continuous
 62
     7
370
    25
100
AcDbSpline
210
0.0
220
0.0
230
1.0
 70
     8
 71
     3
 72
     8
 73
     4
 74
     0
 42
0.000000001
 43
0.00000001
 40
0.0
 40
0.0
 40
0.0
 40
0.0
 40
1.0
 40
1.0
 40
1.0
 40
1.0
 10
65.29676818507902
 20
595.5471812822188
 30
0.0
 10
65.56903487209043
 20
596.0800040232837
 30
0.0
 10
65.74335017247034
 20
596.6213872821783
 30
0.0
 10
65.74335017247034
 20
597.1780049271067
 30
0.0
  0
SPLINE
  5
2CC
330
1F
100
AcDbEntity
  8
0
  6
Continuous
 62
     7
370
    25
100
AcDbSpline
210
0.0
220
0.0
230
1.0
 70
     8
 71
     3
 72
     8
 73
     4
 74
     0
 42
0.000000001
 43
0.00000001
 40
0.0
 40
0.0
 40
0.0
 40
0.0
 40
1.0
 40
1.0
 40
1.0
 40
1.0
 10
65.29676818507907
 20
589.7906767580326
 30
0.0
 10
65.56903487209048
 20
590.7310594073583
 30
0.0
 10
65.74335017247046
 20
591.6865505755517
 30
0.0
 10
65.74335017247046
 20
592.6689290201226
 30
0.0
  0
LINE
  5
2CD
330
1F
100
AcDbEntity
  8
0
  6
Continuous
 62
     7
370
    25
100
AcDbLine
 10
61.7433501725
 20
589.790676758
 30
0.0
 11
65.2967681851
 21
589.790676758
 31
0.0
  0
LINE
  5
2CE
330
1F
100
AcDbEntity
  8
0
  6
Continuous
 62
     7
370
    25
100
AcDbLine
 10
61.7433501725
 20
595.5471812822
 30
0.0
 11
65.2967681851
 21
595.5471812822
 31
0.0
  0
LINE
  5
2CF
330
1F
100
AcDbEntity
  8
0
  6
Continuous
 62
     7
370
    25
100
AcDbLine
 10
65.7433501725
 20
588.5432481408
 30
0.0
 11
65.7433501725
 21
592.6689290201
 31
0.0
  0
SPLINE
  5
2D0
330
1F
100
AcDbEntity
  8
0
  6
Continuous
 62
     7
370
    25
100
AcDbSpline
210
0.0
220
0.0
230
1.0
 70
     8
 71
     3
 72
     8
 73
     4
 74
     0
 42
0.000000001
 43
0.00000001
 40
0.0
 40
0.0
 40
0.0
 40
0.0
 40
1.0
 40
1.0
 40
1.0
 40
1.0
 10
65.74335017247024
 20
588.5432481408251
 30
0.0
 10
65.74335017247024
 20
588.9690089404684
 30
0.0
 10
65.56903487209087
 20
589.3831168497654
 30
0.0
 10
65.29676818507902
 20
589.790676758027
 30
0.0
  0
SPLINE
  5
2D1
330
1F
100
AcDbEntity
  8
0
  6
Continuous
 62
     7
370
    25
100
AcDbSpline
210
0.0
220
0.0
230
1.0
 70
     8
 71
     3
 72
     8
 73
     4
 74
     0
 42
0.000000001
 43
0.00000001
 40
0.0
 40
0.0
 40
0.0
 40
0.0
 40
1.0
 40
1.0
 40
1.0
 40
1.0
 10
65.74335017247034
 20
597.1780049271067
 30
0.0
 10
65.74335017247034
 20
597.7346225720364
 30
0.0
 10
65.5690348720911
 20
598.2760058309284
 30
0.0
 10
65.29676818507902
 20
598.8088285719946
 30
0.0
  0
LINE
  5
2D2
330
1F
100
AcDbEntity
  8
0
  6
Continuous
 62
     7
370
    25
100
AcDbLine
 10
65.2967681851
 20
598.808828572
 30
0.0
 11
61.7433501725
 21
598.808828572
 31
0.0
  0
SPLINE
  5
2D3
330
1F
100
AcDbEntity
  8
0
  6
Continuous
 62
     7
370
    25
100
AcDbSpline
210
0.0
220
0.0
230
1.0
 70
     8
 71
     3
 72
     8
 73
     4
 74
     0
 42
0.000000001
 43
0.00000001
 40
0.0
 40
0.0
 40
0.0
 40
0.0
 40
1.0
 40
1.0
 40
1.0
 40
1.0
 10
65.29676818507896
 20
587.2958195236231
 30
0.0
 10
65.56903487209037
 20
587.703379431884
 30
0.0
 10
65.74335017247024
 20
588.1174873411826
 30
0.0
 10
65.74335017247024
 20
588.5432481408251
 30
0.0
  0
LINE
  5
2D4
330
1F
100
AcDbEntity
  8
0
  6
Continuous
 62
     7
370
    25
100
AcDbLine
 10
61.7433501725
 20
587.2958195236
 30
0.0
 11
65.2967681851
 21
587.2958195236
 31
0.0
  0
LINE
  5
2D5
330
1F
100
AcDbEntity
  8
0
  6
Continuous
 62
     7
370
    25
100
AcDbLine
 10
51.2846001725
 20
596.0523240478
 30
0.0
 11
51.2846001725
 21
590.0523240478
 31
0.0
  0
LINE
  5
2D6
330
1F
100
AcDbEntity
  8
0
  6
Continuous
 62
     7
370
    25
100
AcDbLine
 10
50.7433501725
 20
590.8349859705
 30
0.0
 11
50.7433501725
 21
590.5935740478
 31
0.0
  0
LINE
  5
2D7
330
1F
100
AcDbEntity
  8
0
  6
Continuous
 62
     7
370
    25
100
AcDbLine
 10
50.7433501725
 20
595.5110740478
 30
0.0
 11
50.7433501725
 21
590.8349859705
 31
0.0
  0
LINE
  5
2D8
330
1F
100
AcDbEntity
  8
0
  6
Continuous
 62
     7
370
    25
100
AcDbLine
 10
65.2967681851
 20
598.808828572
 30
0.0
 11
65.3719559406
 21
598.5988081042
 31
0.0
  0
LINE
  5
2D9
330
1F
100
AcDbEntity
  8
0
  6
Continuous
 62
     7
370
    25
100
AcDbLine
 10
65.7433501725
 20
597.1780049271
 30
0.0
 11
65.7433501725
 21
598.0523240478
 31
0.0
  0
LINE
  5
2DA
330
1F
100
AcDbEntity
  8
0
  6
Continuous
 62
     7
370
    25
100
AcDbLine
 10
65.7433501725
 20
588.0523240478
 30
0.0
 11
65.7433501725
 21
588.5432481408
 31
0.0
  0
LINE
  5
2DB
330
1F
100
AcDbEntity
  8
0
  6
Continuous
 62
     7
370
    25
100
AcDbLine
 10
60.7433501725
 20
587.1523240478
 30
0.0
 11
60.7433501725
 21
585.1523240478
 31
0.0
  0
LINE
  5
2DC
330
1F
100
AcDbEntity
  8
0
  6
Continuous
 62
     7
370
    25
100
AcDbLine
 10
60.7433501725
 20
585.1523240478
 30
0.0
 11
58.7433501725
 21
585.1523240478
 31
0.0
  0
LINE
  5
2DD
330
1F
100
AcDbEntity
  8
0
  6
Continuous
 62
     7
370
    25
100
AcDbLine
 10
58.7433501725
 20
585.1523240478
 30
0.0
 11
58.7433501725
 21
587.1523240478
 31
0.0
  0
LINE
  5
2DE
330
1F
100
AcDbEntity
  8
0
  6
Continuous
 62
     7
370
    25
100
AcDbLine
 10
60.7433501725
 20
587.1523240478
 30
0.0
 11
60.7433501725
 21
616.1523240478
 31
0.0
  0
LINE
  5
2DF
330
1F
100
AcDbEntity
  8
0
  6
Continuous
 62
     7
370
    25
100
AcDbLine
 10
58.7433501725
 20
587.1523240478
 30
0.0
 11
58.7433501725
 21
616.1523240478
 31
0.0
  0
LINE
  5
2E0
330
1F
100
AcDbEntity
  8
0
  6
Continuous
 62
     7
370
    25
100
AcDbLine
 10
58.7450173024
 20
616.2523240478
 30
0.0
 11
58.7433501725
 21
616.1523240478
 31
0.0
  0
LINE
  5
2E1
330
1F
100
AcDbEntity
  8
0
  6
Continuous
 62
     7
370
    25
100
AcDbLine
 10
60.7483627354
 20
616.2523240478
 30
0.0
 11
60.7433501725
 21
616.1523240478
 31
0.0
  0
LINE
  5
2E2
330
1F
100
AcDbEntity
  8
0
  6
Continuous
 62
     7
370
    25
100
AcDbLine
 10
58.7433501725
 20
601.1523240478
 30
0.0
 11
58.6830427933
 21
601.1523240478
 31
0.0
  0
LINE
  5
2E3
330
1F
100
AcDbEntity
  8
0
  6
Continuous
 62
     7
370
    25
100
AcDbLine
 10
58.6830427933
 20
585.1523240478
 30
0.0
 11
58.7433501725
 21
585.1523240478
 31
0.0
  0
LWPOLYLINE
  5
2E4
330
1F
100
AcDbEntity
  8
0
  6
Continuous
 62
     7
370
    25
100
AcDbPolyline
 90
        9
 70
   128
 43
0.0
 10
56.1278037843
 20
587.1523240478
 10
56.1409474266
 20
586.7621434038
 10
56.1798732507
 20
586.3869571831
 10
56.243085359
 20
586.0411835818
 10
56.3281545457
 20
585.7381104854
 10
56.4318116495
 20
585.4893848232
 10
56.5500731862
 20
585.3045649828
 10
56.6783944312
 20
585.190753487
 10
56.811844071
 20
585.1523240478
  0
LINE
  5
2E5
330
1F
100
AcDbEntity
  8
0
  6
Continuous
 62
     7
370
    25
100
AcDbLine
 10
56.1278037843
 20
587.1523240478
 30
0.0
 11
56.1278037843
 21
590.0523240478
 31
0.0
  0
LINE
  5
2E6
330
1F
100
AcDbEntity
  8
0
  6
Continuous
 62
     7
370
    25
100
AcDbLine
 10
56.1278037843
 20
596.0523240478
 30
0.0
 11
56.1278037843
 21
599.1523240478
 31
0.0
  0
LWPOLYLINE
  5
2E7
330
1F
100
AcDbEntity
  8
0
  6
Continuous
 62
     7
370
    25
100
AcDbPolyline
 90
        9
 70
   128
 43
0.0
 10
56.811844071
 20
601.1523240478
 10
56.6783944312
 20
601.1138946086
 10
56.5500731862
 20
601.0000831128
 10
56.4318116495
 20
600.8152632724
 10
56.3281545457
 20
600.5665376102
 10
56.243085359
 20
600.2634645138
 10
56.1798732507
 20
599.9176909125
 10
56.1409474266
 20
599.5425046918
 10
56.1278037843
 20
599.1523240478
  0
LINE
  5
2E8
330
1F
100
AcDbEntity
  8
0
  6
Continuous
 62
     7
370
    25
100
AcDbLine
 10
56.811844071
 20
601.1523240478
 30
0.0
 11
58.6830427933
 21
601.1523240478
 31
0.0
  0
LINE
  5
2E9
330
1F
100
AcDbEntity
  8
0
  6
Continuous
 62
     7
370
    25
100
AcDbLine
 10
58.6830427933
 20
585.1523240478
 30
0.0
 11
56.811844071
 21
585.1523240478
 31
0.0
  0
LINE
  5
2EA
330
1F
100
AcDbEntity
  8
0
  6
Continuous
 62
     7
370
    25
100
AcDbLine
 10
766.7433501725
 20
585.1523240478
 30
0.0
 11
764.7433501725
 21
585.1523240478
 31
0.0
  0
LINE
  5
2EB
330
1F
100
AcDbEntity
  8
0
  6
Continuous
 62
     7
370
    25
100
AcDbLine
 10
764.7433501725
 20
585.1523240478
 30
0.0
 11
764.7433501725
 21
587.1523240478
 31
0.0
  0
LINE
  5
2EC
330
1F
100
AcDbEntity
  8
0
  6
Continuous
 62
     7
370
    25
100
AcDbLine
 10
766.7433501725
 20
587.1523240478
 30
0.0
 11
766.7433501725
 21
585.1523240478
 31
0.0
  0
LINE
  5
2ED
330
1F
100
AcDbEntity
  8
0
  6
Continuous
 62
     7
370
    25
100
AcDbLine
 10
764.7433501725
 20
616.1523240478
 30
0.0
 11
764.7433501725
 21
587.1523240478
 31
0.0
  0
LINE
  5
2EE
330
1F
100
AcDbEntity
  8
0
  6
Continuous
 62
     7
370
    25
100
AcDbLine
 10
766.7433501725
 20
616.1523240478
 30
0.0
 11
766.7433501725
 21
587.1523240478
 31
0.0
  0
LINE
  5
2EF
330
1F
100
AcDbEntity
  8
0
  6
Continuous
 62
     7
370
    25
100
AcDbLine
 10
766.7433501725
 20
616.1523240478
 30
0.0
 11
766.7416830426
 21
616.2523240478
 31
0.0
  0
LINE
  5
2F0
330
1F
100
AcDbEntity
  8
0
  6
Continuous
 62
     7
370
    25
100
AcDbLine
 10
764.7433501725
 20
616.1523240478
 30
0.0
 11
764.7383376096
 21
616.2523240478
 31
0.0
  0
LINE
  5
2F1
330
1F
100
AcDbEntity
  8
0
  6
Continuous
 62
     7
370
    25
100
AcDbLine
 10
766.8036575517
 20
601.1523240478
 30
0.0
 11
766.7433501725
 21
601.1523240478
 31
0.0
  0
LINE
  5
2F2
330
1F
100
AcDbEntity
  8
0
  6
Continuous
 62
     7
370
    25
100
AcDbLine
 10
766.7433501725
 20
585.1523240478
 30
0.0
 11
766.8036575517
 21
585.1523240478
 31
0.0
  0
LWPOLYLINE
  5
2F3
330
1F
100
AcDbEntity
  8
0
  6
Continuous
 62
     7
370
    25
100
AcDbPolyline
 90
        9
 70
   128
 43
0.0
 10
768.674856274
 20
585.1523240478
 10
768.8083059138
 20
585.190753487
 10
768.9366271588
 20
585.3045649828
 10
769.0548886955
 20
585.4893848232
 10
769.1585457993
 20
585.7381104854
 10
769.2436149859
 20
586.0411835818
 10
769.3068270943
 20
586.3869571831
 10
769.3457529184
 20
586.7621434038
 10
769.3588965607
 20
587.1523240478
  0
LINE
  5
2F4
330
1F
100
AcDbEntity
  8
0
  6
Continuous
 62
     7
370
    25
100
AcDbLine
 10
766.8036575517
 20
601.1523240478
 30
0.0
 11
768.674856274
 21
601.1523240478
 31
0.0
  0
LWPOLYLINE
  5
2F5
330
1F
100
AcDbEntity
  8
0
  6
Continuous
 62
     7
370
    25
100
AcDbPolyline
 90
        9
 70
   128
 43
0.0
 10
769.3588965607
 20
599.1523240478
 10
769.3457529184
 20
599.5425046918
 10
769.3068270943
 20
599.9176909125
 10
769.2436149859
 20
600.2634645138
 10
769.1585457993
 20
600.5665376102
 10
769.0548886955
 20
600.8152632724
 10
768.9366271588
 20
601.0000831128
 10
768.8083059138
 20
601.1138946086
 10
768.674856274
 20
601.1523240478
  0
LINE
  5
2F6
330
1F
100
AcDbEntity
  8
0
  6
Continuous
 62
     7
370
    25
100
AcDbLine
 10
769.3588965607
 20
599.1523240478
 30
0.0
 11
769.3588965607
 21
596.0523240478
 31
0.0
  0
LINE
  5
2F7
330
1F
100
AcDbEntity
  8
0
  6
Continuous
 62
     7
370
    25
100
AcDbLine
 10
769.3588965607
 20
590.0523240478
 30
0.0
 11
769.3588965607
 21
587.1523240478
 31
0.0
  0
LINE
  5
2F8
330
1F
100
AcDbEntity
  8
0
  6
Continuous
 62
     7
370
    25
100
AcDbLine
 10
768.674856274
 20
585.1523240478
 30
0.0
 11
766.8036575517
 21
585.1523240478
 31
0.0
  0
LINE
  5
2F9
330
1F
100
AcDbEntity
  8
0
  6
Continuous
 62
     7
370
    25
100
AcDbLine
 10
758.9933501725
 20
611.1523240478
 30
0.0
 11
749.4933501725
 21
611.1523240478
 31
0.0
  0
LINE
  5
2FA
330
1F
100
AcDbEntity
  8
0
  6
Continuous
 62
     7
370
    25
100
AcDbLine
 10
758.9933501725
 20
611.6523240478
 30
0.0
 11
758.9933501725
 21
611.1523240478
 31
0.0
  0
LINE
  5
2FB
330
1F
100
AcDbEntity
  8
0
  6
Continuous
 62
     7
370
    25
100
AcDbLine
 10
749.4933501725
 20
611.1523240478
 30
0.0
 11
749.4933501725
 21
611.6523240478
 31
0.0
  0
ARC
  5
2FC
330
1F
100
AcDbEntity
  8
0
  6
Continuous
 62
     7
370
    25
100
AcDbCircle
 10
748.7299501725
 20
612.3889240478
 30
0.0
 40
1.236600000000067
100
AcDbArc
 50
216.5600911005
 51
270.0
  0
ARC
  5
2FD
330
1F
100
AcDbEntity
  8
0
  6
Continuous
 62
     7
370
    25
100
AcDbCircle
 10
759.7567501725
 20
612.3889240478
 30
0.0
 40
1.236600000000067
100
AcDbArc
 50
270.0
 51
323.4399088995
  0
LINE
  5
2FE
330
1F
100
AcDbEntity
  8
0
  6
Continuous
 62
     7
370
    25
100
AcDbLine
 10
759.7567501725
 20
611.1523240478
 30
0.0
 11
758.9933501725
 21
611.1523240478
 31
0.0
  0
LINE
  5
2FF
330
1F
100
AcDbEntity
  8
0
  6
Continuous
 62
     7
370
    25
100
AcDbLine
 10
749.4933501725
 20
611.1523240478
 30
0.0
 11
748.7299501725
 21
611.1523240478
 31
0.0
  0
ARC
  5
300
330
1F
100
AcDbEntity
  8
0
  6
Continuous
 62
     7
370
    25
100
AcDbCircle
 10
52.2433501725
 20
622.2523240478
 30
0.0
 40
6.000000000000114
100
AcDbArc
 50
216.8698976459
 51
270.0
  0
ARC
  5
301
330
1F
100
AcDbEntity
  8
0
  6
Continuous
 62
     7
370
    25
100
AcDbCircle
 10
773.2433501725
 20
622.2523240478
 30
0.0
 40
6.000000000000136
100
AcDbArc
 50
270.0
 51
323.1301023541
  0
ARC
  5
302
330
1F
100
AcDbEntity
  8
0
  6
Continuous
 62
     7
370
    25
100
AcDbCircle
 10
764.4433501725
 20
-10.7229067997
 30
0.0
 40
0.5
100
AcDbArc
 50
180.0
 51
360.0
  0
ARC
  5
303
330
1F
100
AcDbEntity
  8
0
  6
Continuous
 62
     7
370
    25
100
AcDbCircle
 10
764.4433501725
 20
0.8770932005
 30
0.0
 40
0.5
100
AcDbArc
 50
0.0
 51
180.0
  0
LINE
  5
304
330
1F
100
AcDbEntity
  8
0
  6
Continuous
 62
     7
370
    25
100
AcDbLine
 10
774.4021001725
 20
-7.9229067996
 30
0.0
 11
774.9433501725
 21
-7.3816567996
 31
0.0
  0
LINE
  5
305
330
1F
100
AcDbEntity
  8
0
  6
Continuous
 62
     7
370
    25
100
AcDbLine
 10
774.9433501725
 20
-2.4641567996
 30
0.0
 11
774.4021001725
 21
-1.9229067996
 31
0.0
  0
LINE
  5
306
330
1F
100
AcDbEntity
  8
0
  6
Continuous
 62
     7
370
    25
100
AcDbLine
 10
774.4021001725
 20
-1.9229067996
 30
0.0
 11
765.7433501725
 21
-1.9229067996
 31
0.0
  0
LINE
  5
307
330
1F
100
AcDbEntity
  8
0
  6
Continuous
 62
     7
370
    25
100
AcDbLine
 10
765.7433501725
 20
-7.9229067996
 30
0.0
 11
774.4021001725
 21
-7.9229067996
 31
0.0
  0
LINE
  5
308
330
1F
100
AcDbEntity
  8
0
  6
Continuous
 62
     7
370
    25
100
AcDbLine
 10
740.6628118775
 20
-16.2743353991
 30
0.0
 11
741.0933501725
 21
-16.5229067996
 31
0.0
  0
LINE
  5
309
330
1F
100
AcDbEntity
  8
0
  6
Continuous
 62
     7
370
    25
100
AcDbLine
 10
747.3933501725
 20
-16.5229067996
 30
0.0
 11
747.7885647581
 21
-16.2947295522
 31
0.0
  0
LINE
  5
30A
330
1F
100
AcDbEntity
  8
0
  6
Continuous
 62
     7
370
    25
100
AcDbLine
 10
747.7885647581
 20
-13.551084047
 30
0.0
 11
747.3933501725
 21
-13.3229067996
 31
0.0
  0
LINE
  5
30B
330
1F
100
AcDbEntity
  8
0
  6
Continuous
 62
     7
370
    25
100
AcDbLine
 10
741.0933501725
 20
-13.3229067996
 30
0.0
 11
740.6628118775
 21
-13.5714782001
 31
0.0
  0
LINE
  5
30C
330
1F
100
AcDbEntity
  8
0
  6
Continuous
 62
     7
370
    25
100
AcDbLine
 10
297.6628118775
 20
-16.2743353991
 30
0.0
 11
298.0933501725
 21
-16.5229067996
 31
0.0
  0
LINE
  5
30D
330
1F
100
AcDbEntity
  8
0
  6
Continuous
 62
     7
370
    25
100
AcDbLine
 10
304.3933501725
 20
-16.5229067996
 30
0.0
 11
304.7885647581
 21
-16.2947295522
 31
0.0
  0
LINE
  5
30E
330
1F
100
AcDbEntity
  8
0
  6
Continuous
 62
     7
370
    25
100
AcDbLine
 10
304.7885647581
 20
-13.551084047
 30
0.0
 11
304.3933501725
 21
-13.3229067996
 31
0.0
  0
LINE
  5
30F
330
1F
100
AcDbEntity
  8
0
  6
Continuous
 62
     7
370
    25
100
AcDbLine
 10
298.0933501725
 20
-13.3229067996
 30
0.0
 11
297.6628118775
 21
-13.5714782001
 31
0.0
  0
LINE
  5
310
330
1F
100
AcDbEntity
  8
0
  6
Continuous
 62
     7
370
    25
100
AcDbLine
 10
527.7885647581
 20
-13.551084047
 30
0.0
 11
527.3933501725
 21
-13.3229067996
 31
0.0
  0
LINE
  5
311
330
1F
100
AcDbEntity
  8
0
  6
Continuous
 62
     7
370
    25
100
AcDbLine
 10
521.0933501725
 20
-13.3229067996
 30
0.0
 11
520.6628118775
 21
-13.5714782001
 31
0.0
  0
LINE
  5
312
330
1F
100
AcDbEntity
  8
0
  6
Continuous
 62
     7
370
    25
100
AcDbLine
 10
520.6628118775
 20
-16.2743353991
 30
0.0
 11
521.0933501725
 21
-16.5229067996
 31
0.0
  0
LINE
  5
313
330
1F
100
AcDbEntity
  8
0
  6
Continuous
 62
     7
370
    25
100
AcDbLine
 10
527.3933501725
 20
-16.5229067996
 30
0.0
 11
527.7885647581
 21
-16.2947295522
 31
0.0
  0
LINE
  5
314
330
1F
100
AcDbEntity
  8
0
  6
Continuous
 62
     7
370
    25
100
AcDbLine
 10
77.6628118775
 20
-16.2743353991
 30
0.0
 11
78.0933501725
 21
-16.5229067996
 31
0.0
  0
LINE
  5
315
330
1F
100
AcDbEntity
  8
0
  6
Continuous
 62
     7
370
    25
100
AcDbLine
 10
84.3933501725
 20
-16.5229067996
 30
0.0
 11
84.7885647581
 21
-16.2947295522
 31
0.0
  0
LINE
  5
316
330
1F
100
AcDbEntity
  8
0
  6
Continuous
 62
     7
370
    25
100
AcDbLine
 10
84.7885647581
 20
-13.551084047
 30
0.0
 11
84.3933501725
 21
-13.3229067996
 31
0.0
  0
LINE
  5
317
330
1F
100
AcDbEntity
  8
0
  6
Continuous
 62
     7
370
    25
100
AcDbLine
 10
78.0933501725
 20
-13.3229067996
 30
0.0
 11
77.6628118775
 21
-13.5714782001
 31
0.0
  0
LINE
  5
318
330
1F
100
AcDbEntity
  8
0
  6
Continuous
 62
     7
370
    25
100
AcDbLine
 10
60.2433501725
 20
-29.9729067996
 30
0.0
 11
765.2433501725
 21
-29.9729067996
 31
0.0
  0
LINE
  5
319
330
1F
100
AcDbEntity
  8
0
  6
Continuous
 62
     7
370
    25
100
AcDbLine
 10
742.2433501725
 20
-8.2229067996
 30
0.0
 11
742.2433501725
 21
-13.3229067996
 31
0.0
  0
LINE
  5
31A
330
1F
100
AcDbEntity
  8
0
  6
Continuous
 62
     7
370
    25
100
AcDbLine
 10
742.2433501725
 20
-16.5229067996
 30
0.0
 11
742.2433501725
 21
-16.6229067996
 31
0.0
  0
LINE
  5
31B
330
1F
100
AcDbEntity
  8
0
  6
Continuous
 62
     7
370
    25
100
AcDbLine
 10
746.2433501725
 20
-16.6229067996
 30
0.0
 11
746.2433501725
 21
-16.5229067996
 31
0.0
  0
LINE
  5
31C
330
1F
100
AcDbEntity
  8
0
  6
Continuous
 62
     7
370
    25
100
AcDbLine
 10
746.2433501725
 20
-13.3229067996
 30
0.0
 11
746.2433501725
 21
-8.2229067996
 31
0.0
  0
LINE
  5
31D
330
1F
100
AcDbEntity
  8
0
  6
Continuous
 62
     7
370
    25
100
AcDbLine
 10
299.2433501725
 20
-8.2229067996
 30
0.0
 11
299.2433501725
 21
-13.3229067996
 31
0.0
  0
LINE
  5
31E
330
1F
100
AcDbEntity
  8
0
  6
Continuous
 62
     7
370
    25
100
AcDbLine
 10
299.2433501725
 20
-16.5229067996
 30
0.0
 11
299.2433501725
 21
-16.6229067996
 31
0.0
  0
LINE
  5
31F
330
1F
100
AcDbEntity
  8
0
  6
Continuous
 62
     7
370
    25
100
AcDbLine
 10
303.2433501725
 20
-16.6229067996
 30
0.0
 11
303.2433501725
 21
-16.5229067996
 31
0.0
  0
LINE
  5
320
330
1F
100
AcDbEntity
  8
0
  6
Continuous
 62
     7
370
    25
100
AcDbLine
 10
303.2433501725
 20
-13.3229067996
 30
0.0
 11
303.2433501725
 21
-8.2229067996
 31
0.0
  0
LINE
  5
321
330
1F
100
AcDbEntity
  8
0
  6
Continuous
 62
     7
370
    25
100
AcDbLine
 10
522.2433501725
 20
-8.2229067996
 30
0.0
 11
522.2433501725
 21
-13.3229067996
 31
0.0
  0
LINE
  5
322
330
1F
100
AcDbEntity
  8
0
  6
Continuous
 62
     7
370
    25
100
AcDbLine
 10
522.2433501725
 20
-16.5229067996
 30
0.0
 11
522.2433501725
 21
-16.6229067996
 31
0.0
  0
LINE
  5
323
330
1F
100
AcDbEntity
  8
0
  6
Continuous
 62
     7
370
    25
100
AcDbLine
 10
526.2433501725
 20
-16.6229067996
 30
0.0
 11
526.2433501725
 21
-16.5229067996
 31
0.0
  0
LINE
  5
324
330
1F
100
AcDbEntity
  8
0
  6
Continuous
 62
     7
370
    25
100
AcDbLine
 10
526.2433501725
 20
-13.3229067996
 30
0.0
 11
526.2433501725
 21
-8.2229067996
 31
0.0
  0
LINE
  5
325
330
1F
100
AcDbEntity
  8
0
  6
Continuous
 62
     7
370
    25
100
AcDbLine
 10
79.2433501725
 20
-8.2229067996
 30
0.0
 11
79.2433501725
 21
-13.3229067996
 31
0.0
  0
LINE
  5
326
330
1F
100
AcDbEntity
  8
0
  6
Continuous
 62
     7
370
    25
100
AcDbLine
 10
79.2433501725
 20
-16.5229067996
 30
0.0
 11
79.2433501725
 21
-16.6229067996
 31
0.0
  0
LINE
  5
327
330
1F
100
AcDbEntity
  8
0
  6
Continuous
 62
     7
370
    25
100
AcDbLine
 10
83.2433501725
 20
-16.6229067996
 30
0.0
 11
83.2433501725
 21
-16.5229067996
 31
0.0
  0
LINE
  5
328
330
1F
100
AcDbEntity
  8
0
  6
Continuous
 62
     7
370
    25
100
AcDbLine
 10
83.2433501725
 20
-13.3229067996
 30
0.0
 11
83.2433501725
 21
-8.2229067996
 31
0.0
  0
ARC
  5
329
330
1F
100
AcDbEntity
  8
0
  6
Continuous
 62
     7
370
    25
100
AcDbCircle
 10
61.0433501725
 20
0.8770932005
 30
0.0
 40
0.5
100
AcDbArc
 50
360.0
 51
180.0
  0
ARC
  5
32A
330
1F
100
AcDbEntity
  8
0
  6
Continuous
 62
     7
370
    25
100
AcDbCircle
 10
61.0433501725
 20
-10.7229067997
 30
0.0
 40
0.5
100
AcDbArc
 50
180.0
 51
0.0
  0
LINE
  5
32B
330
1F
100
AcDbEntity
  8
0
  6
Continuous
 62
     7
370
    25
100
AcDbLine
 10
51.0846001725
 20
-7.9229067996
 30
0.0
 11
59.7433501725
 21
-7.9229067996
 31
0.0
  0
LINE
  5
32C
330
1F
100
AcDbEntity
  8
0
  6
Continuous
 62
     7
370
    25
100
AcDbLine
 10
59.7433501725
 20
-1.9229067996
 30
0.0
 11
51.0846001725
 21
-1.9229067996
 31
0.0
  0
LINE
  5
32D
330
1F
100
AcDbEntity
  8
0
  6
Continuous
 62
     7
370
    25
100
AcDbLine
 10
51.0846001725
 20
-1.9229067996
 30
0.0
 11
50.5433501725
 21
-2.4641567996
 31
0.0
  0
LINE
  5
32E
330
1F
100
AcDbEntity
  8
0
  6
Continuous
 62
     7
370
    25
100
AcDbLine
 10
50.5433501725
 20
-7.3816567996
 30
0.0
 11
51.0846001725
 21
-7.9229067996
 31
0.0
  0
LINE
  5
32F
330
1F
100
AcDbEntity
  8
0
  6
Continuous
 62
     7
370
    25
100
AcDbLine
 10
65.5433501725
 20
0.0770932004
 30
0.0
 11
65.2138670767
 21
0.6477746625
 31
0.0
  0
LINE
  5
330
330
1F
100
AcDbEntity
  8
0
  6
Continuous
 62
     7
370
    25
100
AcDbLine
 10
65.2138670767
 20
-10.4935882617
 30
0.0
 11
65.5433501725
 21
-9.9229067996
 31
0.0
  0
LINE
  5
331
330
1F
100
AcDbEntity
  8
0
  6
Continuous
 62
     7
370
    25
100
AcDbLine
 10
767.2433501725
 20
-28.1229067996
 30
0.0
 11
765.0712571492
 21
-28.1229067996
 31
0.0
  0
LINE
  5
332
330
1F
100
AcDbEntity
  8
0
  6
Continuous
 62
     7
370
    25
100
AcDbLine
 10
60.4154431957
 20
-28.1229067996
 30
0.0
 11
58.2433501725
 21
-28.1229067996
 31
0.0
  0
LINE
  5
333
330
1F
100
AcDbEntity
  8
0
  6
Continuous
 62
     7
370
    25
100
AcDbLine
 10
58.2433501725
 20
-28.1229067996
 30
0.0
 11
52.2433501725
 21
-28.1229067996
 31
0.0
  0
LINE
  5
334
330
1F
100
AcDbEntity
  8
0
  6
Continuous
 62
     7
370
    25
100
AcDbLine
 10
773.2433501725
 20
-28.1229067996
 30
0.0
 11
767.2433501725
 21
-28.1229067996
 31
0.0
  0
SPLINE
  5
335
330
1F
100
AcDbEntity
  8
0
  6
Continuous
 62
     7
370
    25
100
AcDbSpline
210
0.0
220
0.0
230
1.0
 70
    24
 71
     3
 72
     9
 73
     5
 74
     0
 42
0.000000001
 43
0.00000001
 40
0.0
 40
0.0
 40
0.0
 40
0.0
 40
0.5153941859615864
 40
1.0
 40
1.0
 40
1.0
 40
1.0
 10
764.9433501724767
 20
0.752103200376236
 30
0.0
 10
764.9433501724768
 20
0.7958450484315217
 30
0.0
 10
764.9433501724768
 20
0.8807157148975784
 30
0.0
 10
764.9433501724767
 20
0.8579592796542036
 30
0.0
 10
764.9433501724768
 20
0.8469313788284734
 30
0.0
  0
SPLINE
  5
336
330
1F
100
AcDbEntity
  8
0
  6
Continuous
 62
     7
370
    25
100
AcDbSpline
210
0.0
220
0.0
230
1.0
 70
    24
 71
     3
 72
    17
 73
    13
 74
     0
 42
0.000000001
 43
0.00000001
 40
0.0
 40
0.0
 40
0.0
 40
0.0
 40
0.0359921626376374
 40
0.1205930661280436
 40
0.2034359252874612
 40
0.3573281084250904
 40
0.5112202915627204
 40
0.5940631507221378
 40
0.6786640542125448
 40
0.7632649577029521
 40
0.8461078168623682
 40
1.0
 40
1.0
 40
1.0
 40
1.0
 10
763.9433501724768
 20
0.846931378839409
 30
0.0
 10
763.9433501724768
 20
0.8540827658806869
 30
0.0
 10
763.9433501724766
 20
0.8780437514723958
 30
0.0
 10
763.9433501724768
 20
0.660038825236772
 30
0.0
 10
763.9433501724768
 20
0.0882517281496865
 30
0.0
 10
763.9433501724768
 20
-1.10876484794063
 30
0.0
 10
763.9433501724766
 20
-2.754821607817743
 30
0.0
 10
763.9433501724768
 20
-4.240011960031519
 30
0.0
 10
763.9433501724766
 20
-5.436040084405757
 30
0.0
 10
763.9433501724768
 20
-6.605805497195157
 30
0.0
 10
763.9433501724768
 20
-8.027752677778974
 30
0.0
 10
763.9433501724768
 20
-8.840019957639143
 30
0.0
 10
763.9433501724768
 20
-9.368043117100665
 30
0.0
  0
SPLINE
  5
337
330
1F
100
AcDbEntity
  8
0
  6
Continuous
 62
     7
370
    25
100
AcDbSpline
210
0.0
220
0.0
230
1.0
 70
     8
 71
     3
 72
     8
 73
     4
 74
     0
 42
0.000000001
 43
0.00000001
 40
0.0
 40
0.0
 40
0.0
 40
0.0
 40
1.0
 40
1.0
 40
1.0
 40
1.0
 10
759.943350172484
 20
-1.711105401946041
 30
0.0
 10
759.943350172484
 20
-2.466226208253976
 30
0.0
 10
760.1176654728633
 20
-3.200679682197419
 30
0.0
 10
760.3899321598751
 20
-3.923519752967755
 30
0.0
  0
SPLINE
  5
338
330
1F
100
AcDbEntity
  8
0
  6
Continuous
 62
     7
370
    25
100
AcDbSpline
210
0.0
220
0.0
230
1.0
 70
     8
 71
     3
 72
     8
 73
     4
 74
     0
 42
0.000000001
 43
0.00000001
 40
0.0
 40
0.0
 40
0.0
 40
0.0
 40
1.0
 40
1.0
 40
1.0
 40
1.0
 10
760.3899321598752
 20
0.5013089490757501
 30
0.0
 10
760.1176654728638
 20
-0.2215311216935247
 30
0.0
 10
759.943350172484
 20
-0.9559845956392159
 30
0.0
 10
759.943350172484
 20
-1.711105401946041
 30
0.0
  0
LINE
  5
339
330
1F
100
AcDbEntity
  8
0
  6
Continuous
 62
     7
370
    25
100
AcDbLine
 10
760.3899321599
 20
0.5013089491
 30
0.0
 11
763.9433501725
 21
0.5013089491
 31
0.0
  0
LINE
  5
33A
330
1F
100
AcDbEntity
  8
0
  6
Continuous
 62
     7
370
    25
100
AcDbLine
 10
763.9433501725
 20
-3.923519753
 30
0.0
 11
760.3899321599
 21
-3.923519753
 31
0.0
  0
SPLINE
  5
33B
330
1F
100
AcDbEntity
  8
0
  6
Continuous
 62
     7
370
    25
100
AcDbSpline
210
0.0
220
0.0
230
1.0
 70
     8
 71
     3
 72
     8
 73
     4
 74
     0
 42
0.000000001
 43
0.00000001
 40
0.0
 40
0.0
 40
0.0
 40
0.0
 40
1.0
 40
1.0
 40
1.0
 40
1.0
 10
759.9433501724837
 20
-6.63562762732304
 30
0.0
 10
759.9433501724837
 20
-7.56129920594333
 30
0.0
 10
760.1176654728632
 20
-8.461635550762626
 30
0.0
 10
760.3899321598751
 20
-9.347735501671815
 30
0.0
  0
SPLINE
  5
33C
330
1F
100
AcDbEntity
  8
0
  6
Continuous
 62
     7
370
    25
100
AcDbSpline
210
0.0
220
0.0
230
1.0
 70
     8
 71
     3
 72
     8
 73
     4
 74
     0
 42
0.000000001
 43
0.00000001
 40
0.0
 40
0.0
 40
0.0
 40
0.0
 40
1.0
 40
1.0
 40
1.0
 40
1.0
 10
760.389932159875
 20
-3.923519752974361
 30
0.0
 10
760.1176654728637
 20
-4.809619703881872
 30
0.0
 10
759.9433501724837
 20
-5.709956048704509
 30
0.0
 10
759.9433501724837
 20
-6.63562762732304
 30
0.0
  0
LINE
  5
33D
330
1F
100
AcDbEntity
  8
0
  6
Continuous
 62
     7
370
    25
100
AcDbLine
 10
763.9433501725
 20
-9.3477355017
 30
0.0
 11
760.3899321599
 21
-9.3477355017
 31
0.0
  0
LINE
  5
33E
330
1F
100
AcDbEntity
  8
0
  6
Continuous
 62
     7
370
    25
100
AcDbLine
 10
759.9433501725
 20
-1.7111054019
 30
0.0
 11
759.9433501725
 21
-6.6356276273
 31
0.0
  0
SPLINE
  5
33F
330
1F
100
AcDbEntity
  8
0
  6
Continuous
 62
     7
370
    25
100
AcDbSpline
210
0.0
220
0.0
230
1.0
 70
     8
 71
     3
 72
     8
 73
     4
 74
     0
 42
0.000000001
 43
0.00000001
 40
0.0
 40
0.0
 40
0.0
 40
0.0
 40
1.0
 40
1.0
 40
1.0
 40
1.0
 10
760.3899321598752
 20
-9.347735501676231
 30
0.0
 10
760.1176654728639
 20
-9.510995381814643
 30
0.0
 10
759.943350172484
 20
-9.67687825269106
 30
0.0
 10
759.943350172484
 20
-9.847429025002938
 30
0.0
  0
LINE
  5
340
330
1F
100
AcDbEntity
  8
0
  6
Continuous
 62
     7
370
    25
100
AcDbLine
 10
759.9433501725
 20
-6.6356276273
 30
0.0
 11
759.9433501725
 21
-9.847429025
 31
0.0
  0
SPLINE
  5
341
330
1F
100
AcDbEntity
  8
0
  6
Continuous
 62
     7
370
    25
100
AcDbSpline
210
0.0
220
0.0
230
1.0
 70
     8
 71
     3
 72
     8
 73
     4
 74
     0
 42
0.000000001
 43
0.00000001
 40
0.0
 40
0.0
 40
0.0
 40
0.0
 40
1.0
 40
1.0
 40
1.0
 40
1.0
 10
759.943350172484
 20
0.001615425751343
 30
0.0
 10
759.943350172484
 20
0.1721661980636459
 30
0.0
 10
760.1176654728632
 20
0.3380490689392319
 30
0.0
 10
760.3899321598752
 20
0.5013089490780538
 30
0.0
  0
LINE
  5
342
330
1F
100
AcDbEntity
  8
0
  6
Continuous
 62
     7
370
    25
100
AcDbLine
 10
759.9433501725
 20
-1.7111054019
 30
0.0
 11
759.9433501725
 21
0.0724551661
 31
0.0
  0
SPLINE
  5
343
330
1F
100
AcDbEntity
  8
0
  6
Continuous
 62
     7
370
    25
100
AcDbSpline
210
0.0
220
0.0
230
1.0
 70
     8
 71
     3
 72
     8
 73
     4
 74
     0
 42
0.000000001
 43
0.00000001
 40
0.0
 40
0.0
 40
0.0
 40
0.0
 40
1.0
 40
1.0
 40
1.0
 40
1.0
 10
759.943350172484
 20
-9.847429025002938
 30
0.0
 10
759.943350172484
 20
-10.01797979731513
 30
0.0
 10
760.1176654728635
 20
-10.18386266819094
 30
0.0
 10
760.3899321598752
 20
-10.34712254832965
 30
0.0
  0
LINE
  5
344
330
1F
100
AcDbEntity
  8
0
  6
Continuous
 62
     7
370
    25
100
AcDbLine
 10
763.9433501725
 20
-10.3471225483
 30
0.0
 11
760.3899321599
 21
-10.3471225483
 31
0.0
  0
LINE
  5
345
330
1F
100
AcDbEntity
  8
0
  6
Continuous
 62
     7
370
    25
100
AcDbLine
 10
774.9433501725
 20
-7.3816567996
 30
0.0
 11
774.9433501725
 21
-2.4641567996
 31
0.0
  0
LINE
  5
346
330
1F
100
AcDbEntity
  8
0
  6
Continuous
 62
     7
370
    25
100
AcDbLine
 10
774.4021001725
 20
-2.995825961
 30
0.0
 11
774.4021001725
 21
-1.9229067996
 31
0.0
  0
LINE
  5
347
330
1F
100
AcDbEntity
  8
0
  6
Continuous
 62
     7
370
    25
100
AcDbLine
 10
774.4021001725
 20
-7.9229067996
 30
0.0
 11
774.4021001725
 21
-2.995825961
 31
0.0
  0
ARC
  5
348
330
1F
100
AcDbEntity
  8
0
  6
Continuous
 62
     7
370
    25
100
AcDbCircle
 10
767.2433501725
 20
-27.5229067996
 30
0.0
 40
2.999999999999996
100
AcDbArc
 50
227.6305369016
 51
270.0
  0
LINE
  5
349
330
1F
100
AcDbEntity
  8
0
  6
Continuous
 62
     7
370
    25
100
AcDbLine
 10
779.2433501725
 20
-30.5229067996
 30
0.0
 11
767.2433501725
 21
-30.5229067996
 31
0.0
  0
ARC
  5
34A
330
1F
100
AcDbEntity
  8
0
  6
Continuous
 62
     7
370
    25
100
AcDbCircle
 10
779.2433501725
 20
-27.5229067996
 30
0.0
 40
3.000000000000114
100
AcDbArc
 50
270.0
 51
0.0
  0
LINE
  5
34B
330
1F
100
AcDbEntity
  8
0
  6
Continuous
 62
     7
370
    25
100
AcDbLine
 10
782.2433501725
 20
-26.5229067996
 30
0.0
 11
782.2433501725
 21
-27.5229067996
 31
0.0
  0
LINE
  5
34C
330
1F
100
AcDbEntity
  8
0
  6
Continuous
 62
     7
370
    25
100
AcDbLine
 10
808.7726394944
 20
-23.5229067996
 30
0.0
 11
785.2433501725
 21
-23.5229067996
 31
0.0
  0
LINE
  5
34D
330
1F
100
AcDbEntity
  8
0
  6
Continuous
 62
     7
370
    25
100
AcDbLine
 10
808.7726394944
 20
-33.1229067996
 30
0.0
 11
808.7726394944
 21
-23.5229067996
 31
0.0
  0
LINE
  5
34E
330
1F
100
AcDbEntity
  8
0
  6
Continuous
 62
     7
370
    25
100
AcDbLine
 10
16.7140608506
 20
-33.1229067996
 30
0.0
 11
16.7140608506
 21
-23.5229067996
 31
0.0
  0
LINE
  5
34F
330
1F
100
AcDbEntity
  8
0
  6
Continuous
 62
     7
370
    25
100
AcDbLine
 10
40.2433501725
 20
-23.5229067996
 30
0.0
 11
16.7140608506
 21
-23.5229067996
 31
0.0
  0
ARC
  5
350
330
1F
100
AcDbEntity
  8
0
  6
Continuous
 62
     7
370
    25
100
AcDbCircle
 10
40.2433501725
 20
-26.5229067996
 30
0.0
 40
3.000000000000057
100
AcDbArc
 50
0.0
 51
90.0
  0
LINE
  5
351
330
1F
100
AcDbEntity
  8
0
  6
Continuous
 62
     7
370
    25
100
AcDbLine
 10
43.2433501725
 20
-26.5229067996
 30
0.0
 11
43.2433501725
 21
-27.5229067996
 31
0.0
  0
ARC
  5
352
330
1F
100
AcDbEntity
  8
0
  6
Continuous
 62
     7
370
    25
100
AcDbCircle
 10
46.2433501725
 20
-27.5229067996
 30
0.0
 40
3.000000000000057
100
AcDbArc
 50
180.0
 51
270.0
  0
LINE
  5
353
330
1F
100
AcDbEntity
  8
0
  6
Continuous
 62
     7
370
    25
100
AcDbLine
 10
46.2433501725
 20
-30.5229067996
 30
0.0
 11
58.2433501725
 21
-30.5229067996
 31
0.0
  0
ARC
  5
354
330
1F
100
AcDbEntity
  8
0
  6
Continuous
 62
     7
370
    25
100
AcDbCircle
 10
58.2433501725
 20
-27.5229067996
 30
0.0
 40
3.000000000000021
100
AcDbArc
 50
270.0
 51
312.3694630984
  0
ARC
  5
355
330
1F
100
AcDbEntity
  8
0
  6
Continuous
 62
     7
370
    25
100
AcDbCircle
 10
785.2433501725
 20
-26.5229067996
 30
0.0
 40
3.0
100
AcDbArc
 50
90.0
 51
180.0
  0
SPLINE
  5
356
330
1F
100
AcDbEntity
  8
0
  6
Continuous
 62
     7
370
    25
100
AcDbSpline
210
0.0
220
0.0
230
1.0
 70
     8
 71
     3
 72
    20
 73
    16
 74
     0
 42
0.000000001
 43
0.00000001
 40
0.0
 40
0.0
 40
0.0
 40
0.0
 40
0.125000000000005
 40
0.125000000000005
 40
0.25000000000001
 40
0.25000000000001
 40
0.375000000000015
 40
0.375000000000015
 40
0.50000000000002
 40
0.50000000000002
 40
0.7500000000000151
 40
0.7500000000000151
 40
0.8750000000000075
 40
0.8750000000000075
 40
1.0
 40
1.0
 40
1.0
 40
1.0
 10
17.64335017247759
 20
-35.52290679962373
 30
0.0
 10
17.60430944162311
 20
-35.52290679962373
 30
0.0
 10
17.56579073742326
 20
-35.50737023914888
 30
0.0
 10
17.48838398611541
 20
-35.44605188718829
 30
0.0
 10
17.44923956812866
 20
-35.39962814160146
 30
0.0
 10
17.37208881421337
 20
-35.27967727144734
 30
0.0
 10
17.33376123247238
 20
-35.20607262716396
 30
0.0
 10
17.25621491199592
 20
-35.0313422610683
 30
0.0
 10
17.21723870432734
 20
-34.93049163216673
 30
0.0
 10
17.10174384788243
 20
-34.59920635218276
 30
0.0
 10
17.02383140421199
 20
-34.33152619079894
 30
0.0
 10
16.9083514788112
 20
-33.89885216474354
 30
0.0
 10
16.86948568294627
 20
-33.7473340778924
 30
0.0
 10
16.79171134927754
 20
-33.4379083205063
 30
0.0
 10
16.75310158232302
 20
-33.28128599081252
 30
0.0
 10
16.71406085059618
 20
-33.12290679962378
 30
0.0
  0
SPLINE
  5
357
330
1F
100
AcDbEntity
  8
0
  6
Continuous
 62
     7
370
    25
100
AcDbSpline
210
0.0
220
0.0
230
1.0
 70
     8
 71
     3
 72
    20
 73
    16
 74
     0
 42
0.000000001
 43
0.00000001
 40
0.0
 40
0.0
 40
0.0
 40
0.0
 40
0.125
 40
0.125
 40
0.2499999999999999
 40
0.2499999999999999
 40
0.3749999999999999
 40
0.3749999999999999
 40
0.5
 40
0.5
 40
0.75
 40
0.75
 40
0.875
 40
0.875
 40
1.0
 40
1.0
 40
1.0
 40
1.0
 10
808.7726394943588
 20
-33.12290679962378
 30
0.0
 10
808.7335987635045
 20
-33.28128598727448
 30
0.0
 10
808.6950800593047
 20
-33.43753171196614
 30
0.0
 10
808.6176733079967
 20
-33.74552356138275
 30
0.0
 10
808.5785288900098
 20
-33.89816766885385
 30
0.0
 10
808.5013781360948
 20
-34.18725195804092
 30
0.0
 10
808.4630505543538
 20
-34.32505649622499
 30
0.0
 10
808.3855042338772
 20
-34.58667517186389
 30
0.0
 10
808.3465280262085
 20
-34.70942147854655
 30
0.0
 10
808.2310331697636
 20
-35.04074585549423
 30
0.0
 10
808.1531207260932
 20
-35.21975697952244
 30
0.0
 10
808.0376408006925
 20
-35.39937207890333
 30
0.0
 10
807.9987750048274
 20
-35.44561642777104
 30
0.0
 10
807.9210006711589
 20
-35.50736973378226
 30
0.0
 10
807.8823909042043
 20
-35.52290679962372
 30
0.0
 10
807.8433501724776
 20
-35.52290679962373
 30
0.0
  0
LINE
  5
358
330
1F
100
AcDbEntity
  8
0
  6
Continuous
 62
     7
370
    25
100
AcDbLine
 10
807.8433501725
 20
-35.5229067996
 30
0.0
 11
17.6433501725
 21
-35.5229067996
 31
0.0
  0
SPLINE
  5
359
330
1F
100
AcDbEntity
  8
0
  6
Continuous
 62
     7
370
    25
100
AcDbSpline
210
0.0
220
0.0
230
1.0
 70
     8
 71
     3
 72
    20
 73
    16
 74
     0
 42
0.000000001
 43
0.00000001
 40
0.0
 40
0.0
 40
0.0
 40
0.0
 40
0.1249999999999947
 40
0.1249999999999947
 40
0.2499999999999893
 40
0.2499999999999893
 40
0.374999999999984
 40
0.374999999999984
 40
0.4999999999999787
 40
0.4999999999999787
 40
0.7499999999999976
 40
0.7499999999999976
 40
0.8749999999999989
 40
0.8749999999999989
 40
1.0
 40
1.0
 40
1.0
 40
1.0
 10
807.8433501724776
 20
-35.52290679962378
 30
0.0
 10
808.001729360128
 20
-35.52290679962378
 30
0.0
 10
808.15797508482
 20
-35.50737023914893
 30
0.0
 10
808.4659669342366
 20
-35.44605188718833
 30
0.0
 10
808.6186110417076
 20
-35.39962814160148
 30
0.0
 10
808.9076953308947
 20
-35.27967727144735
 30
0.0
 10
809.0454998690789
 20
-35.20607262716398
 30
0.0
 10
809.3071185447178
 20
-35.03134226106833
 30
0.0
 10
809.4298648514005
 20
-34.93049163216675
 30
0.0
 10
809.761189228348
 20
-34.59920635218281
 30
0.0
 10
809.9402003523763
 20
-34.33152619079897
 30
0.0
 10
810.1198154517571
 20
-33.89885216474355
 30
0.0
 10
810.1660598006248
 20
-33.74733407789241
 30
0.0
 10
810.2278131066362
 20
-33.4379083205063
 30
0.0
 10
810.2433501724773
 20
-33.28128599081251
 30
0.0
 10
810.2433501724774
 20
-33.12290679962378
 30
0.0
  0
SPLINE
  5
35A
330
1F
100
AcDbEntity
  8
0
  6
Continuous
 62
     7
370
    25
100
AcDbSpline
210
0.0
220
0.0
230
1.0
 70
     8
 71
     3
 72
     9
 73
     5
 74
     0
 42
0.000000001
 43
0.00000001
 40
0.0
 40
0.0
 40
0.0
 40
0.0
 40
0.4825784287292478
 40
1.0
 40
1.0
 40
1.0
 40
1.0
 10
808.619520404424
 20
-33.73544653880181
 30
0.0
 10
808.6833285974855
 20
-33.64731219748541
 30
0.0
 10
808.8155520647246
 20
-33.46468003643241
 30
0.0
 10
808.833871369181
 20
-33.23944715238792
 30
0.0
 10
808.8433501724775
 20
-33.12290679962378
 30
0.0
  0
LINE
  5
35B
330
1F
100
AcDbEntity
  8
0
  6
Continuous
 62
     7
370
    25
100
AcDbLine
 10
810.2433501725
 20
-33.1229067996
 30
0.0
 11
808.8433501725
 21
-33.1229067996
 31
0.0
  0
LINE
  5
35C
330
1F
100
AcDbEntity
  8
0
  6
Continuous
 62
     7
370
    25
100
AcDbLine
 10
15.2433501725
 20
-33.1229067996
 30
0.0
 11
16.6433501725
 21
-33.1229067996
 31
0.0
  0
SPLINE
  5
35D
330
1F
100
AcDbEntity
  8
0
  6
Continuous
 62
     7
370
    25
100
AcDbSpline
210
0.0
220
0.0
230
1.0
 70
     8
 71
     3
 72
     9
 73
     5
 74
     0
 42
0.000000001
 43
0.00000001
 40
0.0
 40
0.0
 40
0.0
 40
0.0
 40
0.6784508005727328
 40
0.9999999999999999
 40
0.9999999999999999
 40
0.9999999999999999
 40
0.9999999999999999
 10
16.64335017247753
 20
-33.12290679962378
 30
0.0
 10
16.65659974294198
 20
-33.27361400407709
 30
0.0
 10
16.67612889738207
 20
-33.49574831997158
 30
0.0
 10
16.81697655102116
 20
-33.66258142486077
 30
0.0
 10
16.86226600128993
 20
-33.71622647617585
 30
0.0
  0
SPLINE
  5
35E
330
1F
100
AcDbEntity
  8
0
  6
Continuous
 62
     7
370
    25
100
AcDbSpline
210
0.0
220
0.0
230
1.0
 70
     8
 71
     3
 72
    20
 73
    16
 74
     0
 42
0.000000001
 43
0.00000001
 40
0.0
 40
0.0
 40
0.0
 40
0.0
 40
0.1250000000000013
 40
0.1250000000000013
 40
0.2500000000000027
 40
0.2500000000000027
 40
0.375000000000004
 40
0.375000000000004
 40
0.5000000000000052
 40
0.5000000000000052
 40
0.7500000000000027
 40
0.7500000000000027
 40
0.8750000000000013
 40
0.8750000000000013
 40
1.0
 40
1.0
 40
1.0
 40
1.0
 10
15.24335017247752
 20
-33.12290679962379
 30
0.0
 10
15.24335017247758
 20
-33.2812859872745
 30
0.0
 10
15.25888673295234
 20
-33.43753171196617
 30
0.0
 10
15.32020508491294
 20
-33.7455235613828
 30
0.0
 10
15.36662883049977
 20
-33.89816766885392
 30
0.0
 10
15.48657970065381
 20
-34.187251958041
 30
0.0
 10
15.56018434493744
 20
-34.32505649622501
 30
0.0
 10
15.734914711033
 20
-34.58667517186393
 30
0.0
 10
15.83576533993447
 20
-34.70942147854659
 30
0.0
 10
16.16705061991847
 20
-35.04074585549429
 30
0.0
 10
16.43473078130225
 20
-35.21975697952253
 30
0.0
 10
16.86740480735771
 20
-35.39937207890341
 30
0.0
 10
17.01892289420875
 20
-35.44561642777111
 30
0.0
 10
17.32834865159505
 20
-35.50736973378233
 30
0.0
 10
17.48497098128887
 20
-35.52290679962378
 30
0.0
 10
17.64335017247753
 20
-35.52290679962378
 30
0.0
  0
LINE
  5
35F
330
1F
100
AcDbEntity
  8
0
  6
Continuous
 62
     7
370
    25
100
AcDbLine
 10
810.2433501725
 20
-23.5229067996
 30
0.0
 11
808.8433501725
 21
-23.5229067996
 31
0.0
  0
LINE
  5
360
330
1F
100
AcDbEntity
  8
0
  6
Continuous
 62
     7
370
    25
100
AcDbLine
 10
810.2433501725
 20
-33.1229067996
 30
0.0
 11
810.2433501725
 21
-23.5229067996
 31
0.0
  0
LINE
  5
361
330
1F
100
AcDbEntity
  8
0
  6
Continuous
 62
     7
370
    25
100
AcDbLine
 10
808.8433501725
 20
-33.1229067996
 30
0.0
 11
808.8433501725
 21
-23.5229067996
 31
0.0
  0
LINE
  5
362
330
1F
100
AcDbEntity
  8
0
  6
Continuous
 62
     7
370
    25
100
AcDbLine
 10
16.6433501725
 20
-33.1229067996
 30
0.0
 11
16.6433501725
 21
-23.5229067996
 31
0.0
  0
LINE
  5
363
330
1F
100
AcDbEntity
  8
0
  6
Continuous
 62
     7
370
    25
100
AcDbLine
 10
15.2433501725
 20
-33.1229067996
 30
0.0
 11
15.2433501725
 21
-23.5229067996
 31
0.0
  0
LINE
  5
364
330
1F
100
AcDbEntity
  8
0
  6
Continuous
 62
     7
370
    25
100
AcDbLine
 10
15.2433501725
 20
-23.5229067996
 30
0.0
 11
16.6433501725
 21
-23.5229067996
 31
0.0
  0
LINE
  5
365
330
1F
100
AcDbEntity
  8
0
  6
Continuous
 62
     7
370
    25
100
AcDbLine
 10
764.9433501725
 20
0.5770932004
 30
0.0
 11
764.9433501725
 21
-16.4229067996
 31
0.0
  0
LINE
  5
366
330
1F
100
AcDbEntity
  8
0
  6
Continuous
 62
     7
370
    25
100
AcDbLine
 10
765.7433501725
 20
0.5770932004
 30
0.0
 11
765.7433501725
 21
-16.4229067996
 31
0.0
  0
LINE
  5
367
330
1F
100
AcDbEntity
  8
0
  6
Continuous
 62
     7
370
    25
100
AcDbLine
 10
59.7433501725
 20
3.5770932004
 30
0.0
 11
60.5433501725
 21
3.5770932004
 31
0.0
  0
LINE
  5
368
330
1F
100
AcDbEntity
  8
0
  6
Continuous
 62
     7
370
    25
100
AcDbLine
 10
60.5433501725
 20
3.5770932004
 30
0.0
 11
60.5433501725
 21
0.5770932004
 31
0.0
  0
LINE
  5
369
330
1F
100
AcDbEntity
  8
0
  6
Continuous
 62
     7
370
    25
100
AcDbLine
 10
59.7433501725
 20
0.5770932004
 30
0.0
 11
59.7433501725
 21
3.5770932004
 31
0.0
  0
LINE
  5
36A
330
1F
100
AcDbEntity
  8
0
  6
Continuous
 62
     7
370
    25
100
AcDbLine
 10
59.7433501725
 20
-16.4229067996
 30
0.0
 11
59.7433501725
 21
0.5770932004
 31
0.0
  0
LINE
  5
36B
330
1F
100
AcDbEntity
  8
0
  6
Continuous
 62
     7
370
    25
100
AcDbLine
 10
60.5433501725
 20
-16.4229067996
 30
0.0
 11
60.5433501725
 21
0.5770932004
 31
0.0
  0
LINE
  5
36C
330
1F
100
AcDbEntity
  8
0
  6
Continuous
 62
     7
370
    25
100
AcDbLine
 10
764.9433501725
 20
3.5770932004
 30
0.0
 11
765.7433501725
 21
3.5770932004
 31
0.0
  0
LINE
  5
36D
330
1F
100
AcDbEntity
  8
0
  6
Continuous
 62
     7
370
    25
100
AcDbLine
 10
764.9433501725
 20
0.5770932004
 30
0.0
 11
764.9433501725
 21
3.5770932004
 31
0.0
  0
LINE
  5
36E
330
1F
100
AcDbEntity
  8
0
  6
Continuous
 62
     7
370
    25
100
AcDbLine
 10
765.7433501725
 20
3.5770932004
 30
0.0
 11
765.7433501725
 21
0.5770932004
 31
0.0
  0
LINE
  5
36F
330
1F
100
AcDbEntity
  8
0
  6
Continuous
 62
     7
370
    25
100
AcDbLine
 10
765.7433501725
 20
-19.4229067996
 30
0.0
 11
764.9433501725
 21
-19.4229067996
 31
0.0
  0
LINE
  5
370
330
1F
100
AcDbEntity
  8
0
  6
Continuous
 62
     7
370
    25
100
AcDbLine
 10
764.9433501725
 20
-19.4229067996
 30
0.0
 11
764.9433501725
 21
-16.4229067996
 31
0.0
  0
LINE
  5
371
330
1F
100
AcDbEntity
  8
0
  6
Continuous
 62
     7
370
    25
100
AcDbLine
 10
765.7433501725
 20
-16.4229067996
 30
0.0
 11
765.7433501725
 21
-19.4229067996
 31
0.0
  0
LINE
  5
372
330
1F
100
AcDbEntity
  8
0
  6
Continuous
 62
     7
370
    25
100
AcDbLine
 10
60.5433501725
 20
-19.4229067996
 30
0.0
 11
59.7433501725
 21
-19.4229067996
 31
0.0
  0
LINE
  5
373
330
1F
100
AcDbEntity
  8
0
  6
Continuous
 62
     7
370
    25
100
AcDbLine
 10
59.7433501725
 20
-19.4229067996
 30
0.0
 11
59.7433501725
 21
-16.4229067996
 31
0.0
  0
LINE
  5
374
330
1F
100
AcDbEntity
  8
0
  6
Continuous
 62
     7
370
    25
100
AcDbLine
 10
60.5433501725
 20
-16.4229067996
 30
0.0
 11
60.5433501725
 21
-19.4229067996
 31
0.0
  0
LINE
  5
375
330
1F
100
AcDbEntity
  8
0
  6
Continuous
 62
     7
370
    25
100
AcDbLine
 10
762.7433501725
 20
-17.4229067996
 30
0.0
 11
762.7433501725
 21
-16.6229067996
 31
0.0
  0
LINE
  5
376
330
1F
100
AcDbEntity
  8
0
  6
Continuous
 62
     7
370
    25
100
AcDbLine
 10
62.7433501725
 20
-17.4229067996
 30
0.0
 11
62.7433501725
 21
-16.6229067996
 31
0.0
  0
LINE
  5
377
330
1F
100
AcDbEntity
  8
0
  6
Continuous
 62
     7
370
    25
100
AcDbLine
 10
762.7433501725
 20
-16.6229067996
 30
0.0
 11
62.7433501725
 21
-16.6229067996
 31
0.0
  0
LINE
  5
378
330
1F
100
AcDbEntity
  8
0
  6
Continuous
 62
     7
370
    25
100
AcDbLine
 10
558.2433501725
 20
23.4817065922
 30
0.0
 11
558.2433501725
 21
16.9640151385
 31
0.0
  0
ARC
  5
379
330
1F
100
AcDbEntity
  8
0
  6
Continuous
 62
     7
370
    25
100
AcDbCircle
 10
561.2433501725
 20
23.4817065922
 30
0.0
 40
3.000000000000004
100
AcDbArc
 50
90.0
 51
180.0
  0
LINE
  5
37A
330
1F
100
AcDbEntity
  8
0
  6
Continuous
 62
     7
370
    25
100
AcDbLine
 10
705.2433501725
 20
26.4817065922
 30
0.0
 11
561.2433501725
 21
26.4817065922
 31
0.0
  0
ARC
  5
37B
330
1F
100
AcDbEntity
  8
0
  6
Continuous
 62
     7
370
    25
100
AcDbCircle
 10
705.2433501725
 20
23.4817065922
 30
0.0
 40
3.0
100
AcDbArc
 50
0.0
 51
90.0
  0
LINE
  5
37C
330
1F
100
AcDbEntity
  8
0
  6
Continuous
 62
     7
370
    25
100
AcDbLine
 10
708.2433501725
 20
16.9640151385
 30
0.0
 11
708.2433501725
 21
23.4817065922
 31
0.0
  0
LINE
  5
37D
330
1F
100
AcDbEntity
  8
0
  6
Continuous
 62
     7
370
    25
100
AcDbLine
 10
117.2433501725
 20
23.4817065922
 30
0.0
 11
117.2433501725
 21
16.9640151385
 31
0.0
  0
ARC
  5
37E
330
1F
100
AcDbEntity
  8
0
  6
Continuous
 62
     7
370
    25
100
AcDbCircle
 10
120.2433501725
 20
23.4817065922
 30
0.0
 40
3.000000000000014
100
AcDbArc
 50
90.0
 51
180.0
  0
LINE
  5
37F
330
1F
100
AcDbEntity
  8
0
  6
Continuous
 62
     7
370
    25
100
AcDbLine
 10
264.2433501725
 20
26.4817065922
 30
0.0
 11
120.2433501725
 21
26.4817065922
 31
0.0
  0
ARC
  5
380
330
1F
100
AcDbEntity
  8
0
  6
Continuous
 62
     7
370
    25
100
AcDbCircle
 10
264.2433501725
 20
23.4817065922
 30
0.0
 40
3.000000000000057
100
AcDbArc
 50
0.0
 51
90.0
  0
LINE
  5
381
330
1F
100
AcDbEntity
  8
0
  6
Continuous
 62
     7
370
    25
100
AcDbLine
 10
267.2433501725
 20
16.9640151385
 30
0.0
 11
267.2433501725
 21
23.4817065922
 31
0.0
  0
LINE
  5
382
330
1F
100
AcDbEntity
  8
0
  6
Continuous
 62
     7
370
    25
100
AcDbLine
 10
487.7433501725
 20
16.9640151385
 30
0.0
 11
487.7433501725
 21
16.0640151385
 31
0.0
  0
LINE
  5
383
330
1F
100
AcDbEntity
  8
0
  6
Continuous
 62
     7
370
    25
100
AcDbLine
 10
337.7433501725
 20
16.0640151385
 30
0.0
 11
337.7433501725
 21
16.9640151385
 31
0.0
  0
LINE
  5
384
330
1F
100
AcDbEntity
  8
0
  6
Continuous
 62
     7
370
    25
100
AcDbLine
 10
337.7433501725
 20
23.4817065922
 30
0.0
 11
337.7433501725
 21
16.9640151385
 31
0.0
  0
LINE
  5
385
330
1F
100
AcDbEntity
  8
0
  6
Continuous
 62
     7
370
    25
100
AcDbLine
 10
487.7433501725
 20
16.9640151385
 30
0.0
 11
487.7433501725
 21
23.4817065922
 31
0.0
  0
ARC
  5
386
330
1F
100
AcDbEntity
  8
0
  6
Continuous
 62
     7
370
    25
100
AcDbCircle
 10
340.7433501725
 20
23.4817065922
 30
0.0
 40
3.000000000000004
100
AcDbArc
 50
90.0
 51
180.0
  0
LINE
  5
387
330
1F
100
AcDbEntity
  8
0
  6
Continuous
 62
     7
370
    25
100
AcDbLine
 10
484.7433501725
 20
26.4817065922
 30
0.0
 11
340.7433501725
 21
26.4817065922
 31
0.0
  0
ARC
  5
388
330
1F
100
AcDbEntity
  8
0
  6
Continuous
 62
     7
370
    25
100
AcDbCircle
 10
484.7433501725
 20
23.4817065922
 30
0.0
 40
3.0
100
AcDbArc
 50
0.0
 51
90.0
  0
LINE
  5
389
330
1F
100
AcDbEntity
  8
0
  6
Continuous
 62
     7
370
    25
100
AcDbLine
 10
558.2433501725
 20
16.0640151385
 30
0.0
 11
558.2433501725
 21
16.9640151385
 31
0.0
  0
LINE
  5
38A
330
1F
100
AcDbEntity
  8
0
  6
Continuous
 62
     7
370
    25
100
AcDbLine
 10
708.2433501725
 20
16.9640151385
 30
0.0
 11
708.2433501725
 21
16.0640151385
 31
0.0
  0
LINE
  5
38B
330
1F
100
AcDbEntity
  8
0
  6
Continuous
 62
     7
370
    25
100
AcDbLine
 10
117.2433501725
 20
16.0640151385
 30
0.0
 11
117.2433501725
 21
16.9640151385
 31
0.0
  0
LINE
  5
38C
330
1F
100
AcDbEntity
  8
0
  6
Continuous
 62
     7
370
    25
100
AcDbLine
 10
267.2433501725
 20
16.9640151385
 30
0.0
 11
267.2433501725
 21
16.0640151385
 31
0.0
  0
LINE
  5
38D
330
1F
100
AcDbEntity
  8
0
  6
Continuous
 62
     7
370
    25
100
AcDbLine
 10
267.2433501725
 20
16.0640151385
 30
0.0
 11
267.2433501725
 21
9.4391440079
 31
0.0
  0
LINE
  5
38E
330
1F
100
AcDbEntity
  8
0
  6
Continuous
 62
     7
370
    25
100
AcDbLine
 10
117.2433501725
 20
9.4391440079
 30
0.0
 11
117.2433501725
 21
16.0640151385
 31
0.0
  0
LINE
  5
38F
330
1F
100
AcDbEntity
  8
0
  6
Continuous
 62
     7
370
    25
100
AcDbLine
 10
487.7433501725
 20
16.0640151385
 30
0.0
 11
487.7433501725
 21
9.4391440079
 31
0.0
  0
LINE
  5
390
330
1F
100
AcDbEntity
  8
0
  6
Continuous
 62
     7
370
    25
100
AcDbLine
 10
337.7433501725
 20
9.4391440079
 30
0.0
 11
337.7433501725
 21
16.0640151385
 31
0.0
  0
LINE
  5
391
330
1F
100
AcDbEntity
  8
0
  6
Continuous
 62
     7
370
    25
100
AcDbLine
 10
708.2433501725
 20
16.0640151385
 30
0.0
 11
708.2433501725
 21
9.4391440079
 31
0.0
  0
LINE
  5
392
330
1F
100
AcDbEntity
  8
0
  6
Continuous
 62
     7
370
    25
100
AcDbLine
 10
558.2433501725
 20
9.4391440079
 30
0.0
 11
558.2433501725
 21
16.0640151385
 31
0.0
  0
LINE
  5
393
330
1F
100
AcDbEntity
  8
0
  6
Continuous
 62
     7
370
    25
100
AcDbLine
 10
764.9433501725
 20
3.5770932004
 30
0.0
 11
763.9433501725
 21
3.5770932004
 31
0.0
  0
LINE
  5
394
330
1F
100
AcDbEntity
  8
0
  6
Continuous
 62
     7
370
    25
100
AcDbLine
 10
763.9433501725
 20
-15.4229067996
 30
0.0
 11
764.9433501725
 21
-15.4229067996
 31
0.0
  0
LINE
  5
395
330
1F
100
AcDbEntity
  8
0
  6
Continuous
 62
     7
370
    25
100
AcDbLine
 10
60.5433501725
 20
-15.4229067996
 30
0.0
 11
61.5433501725
 21
-15.4229067996
 31
0.0
  0
LINE
  5
396
330
1F
100
AcDbEntity
  8
0
  6
Continuous
 62
     7
370
    25
100
AcDbLine
 10
61.5433501725
 20
3.5770932004
 30
0.0
 11
60.5433501725
 21
3.5770932004
 31
0.0
  0
LINE
  5
397
330
1F
100
AcDbEntity
  8
0
  6
Continuous
 62
     7
370
    25
100
AcDbLine
 10
62.7433501725
 20
-15.6229067996
 30
0.0
 11
62.7433501725
 21
-16.6229067996
 31
0.0
  0
LINE
  5
398
330
1F
100
AcDbEntity
  8
0
  6
Continuous
 62
     7
370
    25
100
AcDbLine
 10
762.7433501725
 20
-16.6229067996
 30
0.0
 11
762.7433501725
 21
-15.6229067996
 31
0.0
  0
LINE
  5
399
330
1F
100
AcDbEntity
  8
0
  6
Continuous
 62
     7
370
    25
100
AcDbLine
 10
117.2433501725
 20
9.4391440079
 30
0.0
 11
117.2433501725
 21
8.9391440079
 31
0.0
  0
LINE
  5
39A
330
1F
100
AcDbEntity
  8
0
  6
Continuous
 62
     7
370
    25
100
AcDbLine
 10
267.2433501725
 20
8.9391440079
 30
0.0
 11
267.2433501725
 21
9.4391440079
 31
0.0
  0
LINE
  5
39B
330
1F
100
AcDbEntity
  8
0
  6
Continuous
 62
     7
370
    25
100
AcDbLine
 10
708.2433501725
 20
8.9391440079
 30
0.0
 11
708.2433501725
 21
9.4391440079
 31
0.0
  0
LINE
  5
39C
330
1F
100
AcDbEntity
  8
0
  6
Continuous
 62
     7
370
    25
100
AcDbLine
 10
558.2433501725
 20
9.4391440079
 30
0.0
 11
558.2433501725
 21
8.9391440079
 31
0.0
  0
LINE
  5
39D
330
1F
100
AcDbEntity
  8
0
  6
Continuous
 62
     7
370
    25
100
AcDbLine
 10
487.7433501725
 20
8.9391440079
 30
0.0
 11
487.7433501725
 21
9.4391440079
 31
0.0
  0
LINE
  5
39E
330
1F
100
AcDbEntity
  8
0
  6
Continuous
 62
     7
370
    25
100
AcDbLine
 10
337.7433501725
 20
9.4391440079
 30
0.0
 11
337.7433501725
 21
8.9391440079
 31
0.0
  0
LINE
  5
39F
330
1F
100
AcDbEntity
  8
0
  6
Continuous
 62
     7
370
    25
100
AcDbLine
 10
62.7433501725
 20
-15.4229067996
 30
0.0
 11
62.7433501725
 21
-15.6229067996
 31
0.0
  0
LINE
  5
3A0
330
1F
100
AcDbEntity
  8
0
  6
Continuous
 62
     7
370
    25
100
AcDbLine
 10
61.5433501725
 20
-15.4229067996
 30
0.0
 11
62.7433501725
 21
-15.4229067996
 31
0.0
  0
LINE
  5
3A1
330
1F
100
AcDbEntity
  8
0
  6
Continuous
 62
     7
370
    25
100
AcDbLine
 10
64.7433501725
 20
3.5770932004
 30
0.0
 11
61.5433501725
 21
3.5770932004
 31
0.0
  0
LINE
  5
3A2
330
1F
100
AcDbEntity
  8
0
  6
Continuous
 62
     7
370
    25
100
AcDbLine
 10
64.7433501725
 20
24.5770932004
 30
0.0
 11
64.7433501725
 21
3.5770932004
 31
0.0
  0
ARC
  5
3A3
330
1F
100
AcDbEntity
  8
0
  6
Continuous
 62
     7
370
    25
100
AcDbCircle
 10
67.7433501725
 20
24.5770932004
 30
0.0
 40
3.000000000000014
100
AcDbArc
 50
90.0
 51
180.0
  0
LINE
  5
3A4
330
1F
100
AcDbEntity
  8
0
  6
Continuous
 62
     7
370
    25
100
AcDbLine
 10
111.7433501725
 20
27.5770932004
 30
0.0
 11
67.7433501725
 21
27.5770932004
 31
0.0
  0
ARC
  5
3A5
330
1F
100
AcDbEntity
  8
0
  6
Continuous
 62
     7
370
    25
100
AcDbCircle
 10
111.7433501725
 20
24.5770932004
 30
0.0
 40
3.000000000000014
100
AcDbArc
 50
0.0
 51
90.0
  0
LINE
  5
3A6
330
1F
100
AcDbEntity
  8
0
  6
Continuous
 62
     7
370
    25
100
AcDbLine
 10
114.7433501725
 20
24.5770932004
 30
0.0
 11
114.7433501725
 21
8.4470932004
 31
0.0
  0
LINE
  5
3A7
330
1F
100
AcDbEntity
  8
0
  6
Continuous
 62
     7
370
    25
100
AcDbLine
 10
114.7433501725
 20
8.4470932004
 30
0.0
 11
117.2433501725
 21
8.4470932004
 31
0.0
  0
LINE
  5
3A8
330
1F
100
AcDbEntity
  8
0
  6
Continuous
 62
     7
370
    25
100
AcDbLine
 10
117.2433501725
 20
8.9391440079
 30
0.0
 11
117.2433501725
 21
8.4470932004
 31
0.0
  0
LINE
  5
3A9
330
1F
100
AcDbEntity
  8
0
  6
Continuous
 62
     7
370
    25
100
AcDbLine
 10
267.2433501725
 20
8.9391440079
 30
0.0
 11
267.2433501725
 21
8.4470932004
 31
0.0
  0
LINE
  5
3AA
330
1F
100
AcDbEntity
  8
0
  6
Continuous
 62
     7
370
    25
100
AcDbLine
 10
267.2433501725
 20
8.4470932004
 30
0.0
 11
269.7433501725
 21
8.4470932004
 31
0.0
  0
LINE
  5
3AB
330
1F
100
AcDbEntity
  8
0
  6
Continuous
 62
     7
370
    25
100
AcDbLine
 10
269.7433501725
 20
8.4470932004
 30
0.0
 11
269.7433501725
 21
24.5770932004
 31
0.0
  0
ARC
  5
3AC
330
1F
100
AcDbEntity
  8
0
  6
Continuous
 62
     7
370
    25
100
AcDbCircle
 10
272.7433501725
 20
24.5770932004
 30
0.0
 40
3.0
100
AcDbArc
 50
90.0
 51
180.0
  0
LINE
  5
3AD
330
1F
100
AcDbEntity
  8
0
  6
Continuous
 62
     7
370
    25
100
AcDbLine
 10
332.2433501725
 20
27.5770932004
 30
0.0
 11
272.7433501725
 21
27.5770932004
 31
0.0
  0
ARC
  5
3AE
330
1F
100
AcDbEntity
  8
0
  6
Continuous
 62
     7
370
    25
100
AcDbCircle
 10
332.2433501725
 20
24.5770932004
 30
0.0
 40
3.0
100
AcDbArc
 50
0.0
 51
90.0
  0
LINE
  5
3AF
330
1F
100
AcDbEntity
  8
0
  6
Continuous
 62
     7
370
    25
100
AcDbLine
 10
335.2433501725
 20
24.5770932004
 30
0.0
 11
335.2433501725
 21
8.4470932004
 31
0.0
  0
LINE
  5
3B0
330
1F
100
AcDbEntity
  8
0
  6
Continuous
 62
     7
370
    25
100
AcDbLine
 10
335.2433501725
 20
8.4470932004
 30
0.0
 11
337.7433501725
 21
8.4470932004
 31
0.0
  0
LINE
  5
3B1
330
1F
100
AcDbEntity
  8
0
  6
Continuous
 62
     7
370
    25
100
AcDbLine
 10
337.7433501725
 20
8.9391440079
 30
0.0
 11
337.7433501725
 21
8.4470932004
 31
0.0
  0
LINE
  5
3B2
330
1F
100
AcDbEntity
  8
0
  6
Continuous
 62
     7
370
    25
100
AcDbLine
 10
487.7433501725
 20
8.9391440079
 30
0.0
 11
487.7433501725
 21
8.4470932004
 31
0.0
  0
LINE
  5
3B3
330
1F
100
AcDbEntity
  8
0
  6
Continuous
 62
     7
370
    25
100
AcDbLine
 10
487.7433501725
 20
8.4470932004
 30
0.0
 11
490.2433501725
 21
8.4470932004
 31
0.0
  0
LINE
  5
3B4
330
1F
100
AcDbEntity
  8
0
  6
Continuous
 62
     7
370
    25
100
AcDbLine
 10
490.2433501725
 20
8.4470932004
 30
0.0
 11
490.2433501725
 21
24.5770932004
 31
0.0
  0
ARC
  5
3B5
330
1F
100
AcDbEntity
  8
0
  6
Continuous
 62
     7
370
    25
100
AcDbCircle
 10
493.2433501725
 20
24.5770932004
 30
0.0
 40
3.000000000000057
100
AcDbArc
 50
90.0
 51
180.0
  0
LINE
  5
3B6
330
1F
100
AcDbEntity
  8
0
  6
Continuous
 62
     7
370
    25
100
AcDbLine
 10
552.7433501725
 20
27.5770932004
 30
0.0
 11
493.2433501725
 21
27.5770932004
 31
0.0
  0
ARC
  5
3B7
330
1F
100
AcDbEntity
  8
0
  6
Continuous
 62
     7
370
    25
100
AcDbCircle
 10
552.7433501725
 20
24.5770932004
 30
0.0
 40
3.0
100
AcDbArc
 50
0.0
 51
90.0
  0
LINE
  5
3B8
330
1F
100
AcDbEntity
  8
0
  6
Continuous
 62
     7
370
    25
100
AcDbLine
 10
555.7433501725
 20
24.5770932004
 30
0.0
 11
555.7433501725
 21
8.4470932004
 31
0.0
  0
LINE
  5
3B9
330
1F
100
AcDbEntity
  8
0
  6
Continuous
 62
     7
370
    25
100
AcDbLine
 10
555.7433501725
 20
8.4470932004
 30
0.0
 11
558.2433501725
 21
8.4470932004
 31
0.0
  0
LINE
  5
3BA
330
1F
100
AcDbEntity
  8
0
  6
Continuous
 62
     7
370
    25
100
AcDbLine
 10
558.2433501725
 20
8.9391440079
 30
0.0
 11
558.2433501725
 21
8.4470932004
 31
0.0
  0
LINE
  5
3BB
330
1F
100
AcDbEntity
  8
0
  6
Continuous
 62
     7
370
    25
100
AcDbLine
 10
708.2433501725
 20
8.9391440079
 30
0.0
 11
708.2433501725
 21
8.4470932004
 31
0.0
  0
LINE
  5
3BC
330
1F
100
AcDbEntity
  8
0
  6
Continuous
 62
     7
370
    25
100
AcDbLine
 10
708.2433501725
 20
8.4470932004
 30
0.0
 11
710.7433501725
 21
8.4470932004
 31
0.0
  0
LINE
  5
3BD
330
1F
100
AcDbEntity
  8
0
  6
Continuous
 62
     7
370
    25
100
AcDbLine
 10
710.7433501725
 20
8.4470932004
 30
0.0
 11
710.7433501725
 21
24.5770932004
 31
0.0
  0
ARC
  5
3BE
330
1F
100
AcDbEntity
  8
0
  6
Continuous
 62
     7
370
    25
100
AcDbCircle
 10
713.7433501725
 20
24.5770932004
 30
0.0
 40
3.000000000000114
100
AcDbArc
 50
90.0
 51
180.0
  0
LINE
  5
3BF
330
1F
100
AcDbEntity
  8
0
  6
Continuous
 62
     7
370
    25
100
AcDbLine
 10
757.7433501725
 20
27.5770932004
 30
0.0
 11
713.7433501725
 21
27.5770932004
 31
0.0
  0
ARC
  5
3C0
330
1F
100
AcDbEntity
  8
0
  6
Continuous
 62
     7
370
    25
100
AcDbCircle
 10
757.7433501725
 20
24.5770932004
 30
0.0
 40
3.000000000000004
100
AcDbArc
 50
0.0
 51
90.0
  0
LINE
  5
3C1
330
1F
100
AcDbEntity
  8
0
  6
Continuous
 62
     7
370
    25
100
AcDbLine
 10
760.7433501725
 20
3.5770932004
 30
0.0
 11
760.7433501725
 21
24.5770932004
 31
0.0
  0
LINE
  5
3C2
330
1F
100
AcDbEntity
  8
0
  6
Continuous
 62
     7
370
    25
100
AcDbLine
 10
763.9433501725
 20
3.5770932004
 30
0.0
 11
760.7433501725
 21
3.5770932004
 31
0.0
  0
LINE
  5
3C3
330
1F
100
AcDbEntity
  8
0
  6
Continuous
 62
     7
370
    25
100
AcDbLine
 10
762.7433501725
 20
-15.4229067996
 30
0.0
 11
763.9433501725
 21
-15.4229067996
 31
0.0
  0
LINE
  5
3C4
330
1F
100
AcDbEntity
  8
0
  6
Continuous
 62
     7
370
    25
100
AcDbLine
 10
762.7433501725
 20
-15.6229067996
 30
0.0
 11
762.7433501725
 21
-15.4229067996
 31
0.0
  0
SPLINE
  5
3C5
330
1F
100
AcDbEntity
  8
0
  6
Continuous
 62
     7
370
    25
100
AcDbSpline
210
0.0
220
0.0
230
1.0
 70
     8
 71
     3
 72
     9
 73
     5
 74
     0
 42
0.000000001
 43
0.00000001
 40
0.0
 40
0.0
 40
0.0
 40
0.0
 40
0.6277651913045473
 40
1.0
 40
1.0
 40
1.0
 40
1.0
 10
740.6984081338422
 20
-16.21268087467847
 30
0.0
 10
740.6491010337008
 20
-16.20765327520298
 30
0.0
 10
740.5705571755441
 20
-16.19964454909787
 30
0.0
 10
740.4954265509532
 20
-16.06015112301136
 30
0.0
 10
740.4674603172815
 20
-16.00822681423778
 30
0.0
  0
SPLINE
  5
3C6
330
1F
100
AcDbEntity
  8
0
  6
Continuous
 62
     7
370
    25
100
AcDbSpline
210
0.0
220
0.0
230
1.0
 70
     8
 71
     3
 72
    12
 73
     8
 74
     0
 42
0.000000001
 43
0.00000001
 40
0.0
 40
0.0
 40
0.0
 40
0.0
 40
0.5000000000000064
 40
0.5000000000000064
 40
0.7500000000000032
 40
0.7500000000000032
 40
1.0
 40
1.0
 40
1.0
 40
1.0
 10
740.4674603172814
 20
-16.00822681423876
 30
0.0
 10
740.9794664689863
 20
-16.19872110366229
 30
0.0
 10
741.4991440152546
 20
-16.32039551672466
 30
0.0
 10
742.2989318728171
 20
-16.32105170725589
 30
0.0
 10
742.5652558196651
 20
-16.2912177054615
 30
0.0
 10
743.0884133226666
 20
-16.1822878353539
 30
0.0
 10
743.3468779538148
 20
-16.10359264829103
 30
0.0
 10
743.6032000401369
 20
-16.00822681423828
 30
0.0
  0
SPLINE
  5
3C7
330
1F
100
AcDbEntity
  8
0
  6
Continuous
 62
     7
370
    25
100
AcDbSpline
210
0.0
220
0.0
230
1.0
 70
     8
 71
     3
 72
    12
 73
     8
 74
     0
 42
0.000000001
 43
0.00000001
 40
0.0
 40
0.0
 40
0.0
 40
0.0
 40
0.4999999999999847
 40
0.4999999999999847
 40
0.7499999999999923
 40
0.7499999999999923
 40
1.0
 40
1.0
 40
1.0
 40
1.0
 10
743.6032000401367
 20
-16.00822681423877
 30
0.0
 10
744.219730430057
 20
-16.1987211036623
 30
0.0
 10
744.8454983025068
 20
-16.32039551672467
 30
0.0
 10
745.8085600118918
 20
-16.3210517072559
 30
0.0
 10
746.1292530470215
 20
-16.29121770546151
 30
0.0
 10
746.7592112970174
 20
-16.18228783535391
 30
0.0
 10
747.0704405650483
 20
-16.10359264829103
 30
0.0
 10
747.3790898953329
 20
-16.00822681423828
 30
0.0
  0
SPLINE
  5
3C8
330
1F
100
AcDbEntity
  8
0
  6
Continuous
 62
     7
370
    25
100
AcDbSpline
210
0.0
220
0.0
230
1.0
 70
     8
 71
     3
 72
    14
 73
    10
 74
     0
 42
0.000000001
 43
0.00000001
 40
0.0
 40
0.0
 40
0.0
 40
0.0
 40
0.25
 40
0.25
 40
0.5
 40
0.5
 40
0.75
 40
0.75
 40
1.0
 40
1.0
 40
1.0
 40
1.0
 10
747.3790898953328
 20
-16.00822681423778
 30
0.0
 10
747.4311476042237
 20
-16.10310142354838
 30
0.0
 10
747.4844811425518
 20
-16.18270634842414
 30
0.0
 10
747.5914131501797
 20
-16.29154296331837
 30
0.0
 10
747.6451665166273
 20
-16.32086656900887
 30
0.0
 10
747.753345568051
 20
-16.32080178726328
 30
0.0
 10
747.8081742646392
 20
-16.29064559393692
 30
0.0
 10
747.9150812472989
 20
-16.1810603925712
 30
0.0
 10
747.9675027622714
 20
-16.10251741876903
 30
0.0
 10
748.0192400276734
 20
-16.00822681423778
 30
0.0
  0
LINE
  5
3C9
330
1F
100
AcDbEntity
  8
0
  6
Continuous
 62
     7
370
    25
100
AcDbLine
 10
747.3933501725
 20
-16.5229067996
 30
0.0
 11
741.0933501725
 21
-16.5229067996
 31
0.0
  0
SPLINE
  5
3CA
330
1F
100
AcDbEntity
  8
0
  6
Continuous
 62
     7
370
    25
100
AcDbSpline
210
0.0
220
0.0
230
1.0
 70
     8
 71
     3
 72
    12
 73
     8
 74
     0
 42
0.000000001
 43
0.00000001
 40
0.0
 40
0.0
 40
0.0
 40
0.0
 40
0.4999999999999847
 40
0.4999999999999847
 40
0.7499999999999923
 40
0.7499999999999923
 40
1.0
 40
1.0
 40
1.0
 40
1.0
 10
747.379089895333
 20
-13.83758678500882
 30
0.0
 10
746.7625595054126
 20
-13.64709249558531
 30
0.0
 10
746.1367916329629
 20
-13.52541808252293
 30
0.0
 10
745.1737299235779
 20
-13.52476189199169
 30
0.0
 10
744.8530368884483
 20
-13.55459589378609
 30
0.0
 10
744.2230786384523
 20
-13.66352576389368
 30
0.0
 10
743.9118493704215
 20
-13.74222095095655
 30
0.0
 10
743.6032000401368
 20
-13.8375867850093
 30
0.0
  0
LINE
  5
3CB
330
1F
100
AcDbEntity
  8
0
  6
Continuous
 62
     7
370
    25
100
AcDbLine
 10
747.3790898953
 20
-13.837586785
 30
0.0
 11
747.3790898953
 21
-16.0082268142
 31
0.0
  0
LINE
  5
3CC
330
1F
100
AcDbEntity
  8
0
  6
Continuous
 62
     7
370
    25
100
AcDbLine
 10
743.6032000401
 20
-13.837586785
 30
0.0
 11
743.6032000401
 21
-16.0082268142
 31
0.0
  0
SPLINE
  5
3CD
330
1F
100
AcDbEntity
  8
0
  6
Continuous
 62
     7
370
    25
100
AcDbSpline
210
0.0
220
0.0
230
1.0
 70
     8
 71
     3
 72
    14
 73
    10
 74
     0
 42
0.000000001
 43
0.00000001
 40
0.0
 40
0.0
 40
0.0
 40
0.0
 40
0.25
 40
0.25
 40
0.5
 40
0.5
 40
0.75
 40
0.75
 40
1.0
 40
1.0
 40
1.0
 40
1.0
 10
747.3790898953328
 20
-13.83758678500981
 30
0.0
 10
747.4311476042237
 20
-13.7427121756992
 30
0.0
 10
747.4844811425518
 20
-13.66310725082344
 30
0.0
 10
747.5914131501797
 20
-13.55427063592923
 30
0.0
 10
747.6451665166273
 20
-13.52494703023872
 30
0.0
 10
747.753345568051
 20
-13.52501181198432
 30
0.0
 10
747.8081742646392
 20
-13.55516800531067
 30
0.0
 10
747.9150812472989
 20
-13.66475320667639
 30
0.0
 10
747.9675027622714
 20
-13.74329618047856
 30
0.0
 10
748.0192400276734
 20
-13.83758678500981
 30
0.0
  0
SPLINE
  5
3CE
330
1F
100
AcDbEntity
  8
0
  6
Continuous
 62
     7
370
    25
100
AcDbSpline
210
0.0
220
0.0
230
1.0
 70
     8
 71
     3
 72
    12
 73
     8
 74
     0
 42
0.000000001
 43
0.00000001
 40
0.0
 40
0.0
 40
0.0
 40
0.0
 40
0.499999999999978
 40
0.499999999999978
 40
0.749999999999989
 40
0.749999999999989
 40
1.0
 40
1.0
 40
1.0
 40
1.0
 10
743.6032000401369
 20
-13.83758678500882
 30
0.0
 10
743.091193888432
 20
-13.64709249558531
 30
0.0
 10
742.5715163421638
 20
-13.52541808252293
 30
0.0
 10
741.7717284846011
 20
-13.5247618919917
 30
0.0
 10
741.5054045377532
 20
-13.55459589378609
 30
0.0
 10
740.9822470347518
 20
-13.66352576389369
 30
0.0
 10
740.7237824036035
 20
-13.74222095095655
 30
0.0
 10
740.4674603172814
 20
-13.83758678500931
 30
0.0
  0
SPLINE
  5
3CF
330
1F
100
AcDbEntity
  8
0
  6
Continuous
 62
     7
370
    25
100
AcDbSpline
210
0.0
220
0.0
230
1.0
 70
     8
 71
     3
 72
     9
 73
     5
 74
     0
 42
0.000000001
 43
0.00000001
 40
0.0
 40
0.0
 40
0.0
 40
0.0
 40
0.3722348086954371
 40
1.0
 40
1.0
 40
1.0
 40
1.0
 10
740.4674603172815
 20
-13.83758678500981
 30
0.0
 10
740.4954265509532
 20
-13.78566247623623
 30
0.0
 10
740.5705571755441
 20
-13.64616905014971
 30
0.0
 10
740.6491010337008
 20
-13.63816032404459
 30
0.0
 10
740.6984081338423
 20
-13.63313272456911
 30
0.0
  0
LINE
  5
3D0
330
1F
100
AcDbEntity
  8
0
  6
Continuous
 62
     7
370
    25
100
AcDbLine
 10
747.3933501725
 20
-13.3229067996
 30
0.0
 11
741.0933501725
 21
-13.3229067996
 31
0.0
  0
LINE
  5
3D1
330
1F
100
AcDbEntity
  8
0
  6
Continuous
 62
     7
370
    25
100
AcDbLine
 10
740.4674603173
 20
-13.837586785
 30
0.0
 11
740.4674603173
 21
-16.0082268142
 31
0.0
  0
LINE
  5
3D2
330
1F
100
AcDbEntity
  8
0
  6
Continuous
 62
     7
370
    25
100
AcDbLine
 10
748.0192400277
 20
-13.837586785
 30
0.0
 11
748.0192400277
 21
-16.0082268142
 31
0.0
  0
SPLINE
  5
3D3
330
1F
100
AcDbEntity
  8
0
  6
Continuous
 62
     7
370
    25
100
AcDbSpline
210
0.0
220
0.0
230
1.0
 70
     8
 71
     3
 72
     9
 73
     5
 74
     0
 42
0.000000001
 43
0.00000001
 40
0.0
 40
0.0
 40
0.0
 40
0.0
 40
0.6277651913045501
 40
1.0
 40
1.0
 40
1.0
 40
1.0
 10
297.6984081338423
 20
-16.21268087467844
 30
0.0
 10
297.6491010337008
 20
-16.20765327520295
 30
0.0
 10
297.5705571755441
 20
-16.19964454909783
 30
0.0
 10
297.4954265509534
 20
-16.06015112301133
 30
0.0
 10
297.4674603172816
 20
-16.00822681423776
 30
0.0
  0
SPLINE
  5
3D4
330
1F
100
AcDbEntity
  8
0
  6
Continuous
 62
     7
370
    25
100
AcDbSpline
210
0.0
220
0.0
230
1.0
 70
     8
 71
     3
 72
    12
 73
     8
 74
     0
 42
0.000000001
 43
0.00000001
 40
0.0
 40
0.0
 40
0.0
 40
0.0
 40
0.5000000000000063
 40
0.5000000000000063
 40
0.7500000000000031
 40
0.7500000000000031
 40
1.0
 40
1.0
 40
1.0
 40
1.0
 10
297.4674603172815
 20
-16.00822681423875
 30
0.0
 10
297.9794664689865
 20
-16.19872110366227
 30
0.0
 10
298.4991440152547
 20
-16.32039551672464
 30
0.0
 10
299.2989318728172
 20
-16.32105170725587
 30
0.0
 10
299.5652558196652
 20
-16.29121770546148
 30
0.0
 10
300.0884133226667
 20
-16.18228783535389
 30
0.0
 10
300.346877953815
 20
-16.10359264829102
 30
0.0
 10
300.603200040137
 20
-16.00822681423826
 30
0.0
  0
SPLINE
  5
3D5
330
1F
100
AcDbEntity
  8
0
  6
Continuous
 62
     7
370
    25
100
AcDbSpline
210
0.0
220
0.0
230
1.0
 70
     8
 71
     3
 72
    12
 73
     8
 74
     0
 42
0.000000001
 43
0.00000001
 40
0.0
 40
0.0
 40
0.0
 40
0.0
 40
0.5000000000000083
 40
0.5000000000000083
 40
0.7500000000000041
 40
0.7500000000000041
 40
1.0
 40
1.0
 40
1.0
 40
1.0
 10
300.6032000401368
 20
-16.00822681423875
 30
0.0
 10
301.219730430057
 20
-16.19872110366227
 30
0.0
 10
301.8454983025069
 20
-16.32039551672464
 30
0.0
 10
302.8085600118917
 20
-16.32105170725587
 30
0.0
 10
303.1292530470215
 20
-16.29121770546148
 30
0.0
 10
303.7592112970174
 20
-16.18228783535389
 30
0.0
 10
304.0704405650483
 20
-16.10359264829102
 30
0.0
 10
304.3790898953329
 20
-16.00822681423826
 30
0.0
  0
SPLINE
  5
3D6
330
1F
100
AcDbEntity
  8
0
  6
Continuous
 62
     7
370
    25
100
AcDbSpline
210
0.0
220
0.0
230
1.0
 70
     8
 71
     3
 72
    14
 73
    10
 74
     0
 42
0.000000001
 43
0.00000001
 40
0.0
 40
0.0
 40
0.0
 40
0.0
 40
0.25
 40
0.25
 40
0.5
 40
0.5
 40
0.75
 40
0.75
 40
1.0
 40
1.0
 40
1.0
 40
1.0
 10
304.3790898953329
 20
-16.00822681423777
 30
0.0
 10
304.4311476042237
 20
-16.10310142354837
 30
0.0
 10
304.4844811425518
 20
-16.18270634842413
 30
0.0
 10
304.5914131501799
 20
-16.29154296331836
 30
0.0
 10
304.6451665166275
 20
-16.32086656900886
 30
0.0
 10
304.7533455680511
 20
-16.32080178726326
 30
0.0
 10
304.8081742646391
 20
-16.2906455939369
 30
0.0
 10
304.9150812472989
 20
-16.18106039257119
 30
0.0
 10
304.9675027622713
 20
-16.10251741876902
 30
0.0
 10
305.0192400276734
 20
-16.00822681423777
 30
0.0
  0
LINE
  5
3D7
330
1F
100
AcDbEntity
  8
0
  6
Continuous
 62
     7
370
    25
100
AcDbLine
 10
304.3933501725
 20
-16.5229067996
 30
0.0
 11
298.0933501725
 21
-16.5229067996
 31
0.0
  0
SPLINE
  5
3D8
330
1F
100
AcDbEntity
  8
0
  6
Continuous
 62
     7
370
    25
100
AcDbSpline
210
0.0
220
0.0
230
1.0
 70
     8
 71
     3
 72
    12
 73
     8
 74
     0
 42
0.000000001
 43
0.00000001
 40
0.0
 40
0.0
 40
0.0
 40
0.0
 40
0.5000000000000083
 40
0.5000000000000083
 40
0.7500000000000041
 40
0.7500000000000041
 40
1.0
 40
1.0
 40
1.0
 40
1.0
 10
304.379089895333
 20
-13.83758678500879
 30
0.0
 10
303.7625595054128
 20
-13.64709249558527
 30
0.0
 10
303.136791632963
 20
-13.5254180825229
 30
0.0
 10
302.173729923578
 20
-13.52476189199166
 30
0.0
 10
301.8530368884483
 20
-13.55459589378606
 30
0.0
 10
301.2230786384524
 20
-13.66352576389366
 30
0.0
 10
300.9118493704215
 20
-13.74222095095653
 30
0.0
 10
300.6032000401369
 20
-13.83758678500928
 30
0.0
  0
LINE
  5
3D9
330
1F
100
AcDbEntity
  8
0
  6
Continuous
 62
     7
370
    25
100
AcDbLine
 10
304.3790898953
 20
-13.837586785
 30
0.0
 11
304.3790898953
 21
-16.0082268142
 31
0.0
  0
LINE
  5
3DA
330
1F
100
AcDbEntity
  8
0
  6
Continuous
 62
     7
370
    25
100
AcDbLine
 10
300.6032000401
 20
-13.837586785
 30
0.0
 11
300.6032000401
 21
-16.0082268142
 31
0.0
  0
SPLINE
  5
3DB
330
1F
100
AcDbEntity
  8
0
  6
Continuous
 62
     7
370
    25
100
AcDbSpline
210
0.0
220
0.0
230
1.0
 70
     8
 71
     3
 72
    14
 73
    10
 74
     0
 42
0.000000001
 43
0.00000001
 40
0.0
 40
0.0
 40
0.0
 40
0.0
 40
0.25
 40
0.25
 40
0.5
 40
0.5
 40
0.75
 40
0.75
 40
1.0
 40
1.0
 40
1.0
 40
1.0
 10
304.3790898953329
 20
-13.83758678500977
 30
0.0
 10
304.4311476042237
 20
-13.74271217569916
 30
0.0
 10
304.4844811425518
 20
-13.6631072508234
 30
0.0
 10
304.5914131501799
 20
-13.55427063592918
 30
0.0
 10
304.6451665166275
 20
-13.52494703023868
 30
0.0
 10
304.7533455680511
 20
-13.52501181198428
 30
0.0
 10
304.8081742646391
 20
-13.55516800531063
 30
0.0
 10
304.9150812472989
 20
-13.66475320667635
 30
0.0
 10
304.9675027622713
 20
-13.74329618047852
 30
0.0
 10
305.0192400276734
 20
-13.83758678500977
 30
0.0
  0
SPLINE
  5
3DC
330
1F
100
AcDbEntity
  8
0
  6
Continuous
 62
     7
370
    25
100
AcDbSpline
210
0.0
220
0.0
230
1.0
 70
     8
 71
     3
 72
    12
 73
     8
 74
     0
 42
0.000000001
 43
0.00000001
 40
0.0
 40
0.0
 40
0.0
 40
0.0
 40
0.5000000000000063
 40
0.5000000000000063
 40
0.7500000000000031
 40
0.7500000000000031
 40
1.0
 40
1.0
 40
1.0
 40
1.0
 10
300.6032000401371
 20
-13.83758678500879
 30
0.0
 10
300.0911938884322
 20
-13.64709249558527
 30
0.0
 10
299.5715163421639
 20
-13.5254180825229
 30
0.0
 10
298.7717284846015
 20
-13.52476189199166
 30
0.0
 10
298.5054045377533
 20
-13.55459589378605
 30
0.0
 10
297.9822470347519
 20
-13.66352576389366
 30
0.0
 10
297.7237824036036
 20
-13.74222095095653
 30
0.0
 10
297.4674603172816
 20
-13.83758678500928
 30
0.0
  0
SPLINE
  5
3DD
330
1F
100
AcDbEntity
  8
0
  6
Continuous
 62
     7
370
    25
100
AcDbSpline
210
0.0
220
0.0
230
1.0
 70
     8
 71
     3
 72
     9
 73
     5
 74
     0
 42
0.000000001
 43
0.00000001
 40
0.0
 40
0.0
 40
0.0
 40
0.0
 40
0.3722348086954358
 40
1.0
 40
1.0
 40
1.0
 40
1.0
 10
297.4674603172816
 20
-13.83758678500978
 30
0.0
 10
297.4954265509534
 20
-13.78566247623619
 30
0.0
 10
297.5705571755441
 20
-13.64616905014968
 30
0.0
 10
297.6491010337008
 20
-13.63816032404457
 30
0.0
 10
297.6984081338424
 20
-13.63313272456909
 30
0.0
  0
LINE
  5
3DE
330
1F
100
AcDbEntity
  8
0
  6
Continuous
 62
     7
370
    25
100
AcDbLine
 10
304.3933501725
 20
-13.3229067996
 30
0.0
 11
298.0933501725
 21
-13.3229067996
 31
0.0
  0
LINE
  5
3DF
330
1F
100
AcDbEntity
  8
0
  6
Continuous
 62
     7
370
    25
100
AcDbLine
 10
297.4674603173
 20
-13.837586785
 30
0.0
 11
297.4674603173
 21
-16.0082268142
 31
0.0
  0
LINE
  5
3E0
330
1F
100
AcDbEntity
  8
0
  6
Continuous
 62
     7
370
    25
100
AcDbLine
 10
305.0192400277
 20
-13.837586785
 30
0.0
 11
305.0192400277
 21
-16.0082268142
 31
0.0
  0
SPLINE
  5
3E1
330
1F
100
AcDbEntity
  8
0
  6
Continuous
 62
     7
370
    25
100
AcDbSpline
210
0.0
220
0.0
230
1.0
 70
     8
 71
     3
 72
    12
 73
     8
 74
     0
 42
0.000000001
 43
0.00000001
 40
0.0
 40
0.0
 40
0.0
 40
0.0
 40
0.5000000000000083
 40
0.5000000000000083
 40
0.7500000000000041
 40
0.7500000000000041
 40
1.0
 40
1.0
 40
1.0
 40
1.0
 10
527.3790898953329
 20
-13.83758678500882
 30
0.0
 10
526.7625595054126
 20
-13.6470924955853
 30
0.0
 10
526.1367916329627
 20
-13.52541808252293
 30
0.0
 10
525.173729923578
 20
-13.52476189199169
 30
0.0
 10
524.8530368884483
 20
-13.55459589378609
 30
0.0
 10
524.2230786384523
 20
-13.66352576389368
 30
0.0
 10
523.9118493704214
 20
-13.74222095095656
 30
0.0
 10
523.6032000401368
 20
-13.8375867850093
 30
0.0
  0
LINE
  5
3E2
330
1F
100
AcDbEntity
  8
0
  6
Continuous
 62
     7
370
    25
100
AcDbLine
 10
527.3790898953
 20
-13.837586785
 30
0.0
 11
527.3790898953
 21
-16.0082268142
 31
0.0
  0
SPLINE
  5
3E3
330
1F
100
AcDbEntity
  8
0
  6
Continuous
 62
     7
370
    25
100
AcDbSpline
210
0.0
220
0.0
230
1.0
 70
     8
 71
     3
 72
    12
 73
     8
 74
     0
 42
0.000000001
 43
0.00000001
 40
0.0
 40
0.0
 40
0.0
 40
0.0
 40
0.5000000000000083
 40
0.5000000000000083
 40
0.7500000000000041
 40
0.7500000000000041
 40
1.0
 40
1.0
 40
1.0
 40
1.0
 10
523.6032000401367
 20
-16.00822681423877
 30
0.0
 10
524.219730430057
 20
-16.1987211036623
 30
0.0
 10
524.8454983025068
 20
-16.32039551672467
 30
0.0
 10
525.8085600118917
 20
-16.3210517072559
 30
0.0
 10
526.1292530470214
 20
-16.2912177054615
 30
0.0
 10
526.7592112970173
 20
-16.18228783535392
 30
0.0
 10
527.0704405650482
 20
-16.10359264829105
 30
0.0
 10
527.3790898953329
 20
-16.00822681423829
 30
0.0
  0
LINE
  5
3E4
330
1F
100
AcDbEntity
  8
0
  6
Continuous
 62
     7
370
    25
100
AcDbLine
 10
523.6032000401
 20
-13.837586785
 30
0.0
 11
523.6032000401
 21
-16.0082268142
 31
0.0
  0
SPLINE
  5
3E5
330
1F
100
AcDbEntity
  8
0
  6
Continuous
 62
     7
370
    25
100
AcDbSpline
210
0.0
220
0.0
230
1.0
 70
     8
 71
     3
 72
    14
 73
    10
 74
     0
 42
0.000000001
 43
0.00000001
 40
0.0
 40
0.0
 40
0.0
 40
0.0
 40
0.25
 40
0.25
 40
0.5
 40
0.5
 40
0.75
 40
0.75
 40
1.0
 40
1.0
 40
1.0
 40
1.0
 10
527.3790898953328
 20
-13.8375867850098
 30
0.0
 10
527.4311476042236
 20
-13.74271217569919
 30
0.0
 10
527.4844811425518
 20
-13.66310725082343
 30
0.0
 10
527.5914131501797
 20
-13.55427063592921
 30
0.0
 10
527.6451665166273
 20
-13.52494703023871
 30
0.0
 10
527.7533455680511
 20
-13.52501181198431
 30
0.0
 10
527.808174264639
 20
-13.55516800531066
 30
0.0
 10
527.9150812472988
 20
-13.66475320667636
 30
0.0
 10
527.9675027622712
 20
-13.74329618047855
 30
0.0
 10
528.0192400276734
 20
-13.8375867850098
 30
0.0
  0
SPLINE
  5
3E6
330
1F
100
AcDbEntity
  8
0
  6
Continuous
 62
     7
370
    25
100
AcDbSpline
210
0.0
220
0.0
230
1.0
 70
     8
 71
     3
 72
    12
 73
     8
 74
     0
 42
0.000000001
 43
0.00000001
 40
0.0
 40
0.0
 40
0.0
 40
0.0
 40
0.5000000000000063
 40
0.5000000000000063
 40
0.7500000000000031
 40
0.7500000000000031
 40
1.0
 40
1.0
 40
1.0
 40
1.0
 10
523.6032000401369
 20
-13.83758678500881
 30
0.0
 10
523.091193888432
 20
-13.6470924955853
 30
0.0
 10
522.5715163421638
 20
-13.52541808252292
 30
0.0
 10
521.7717284846013
 20
-13.52476189199169
 30
0.0
 10
521.5054045377533
 20
-13.55459589378608
 30
0.0
 10
520.9822470347518
 20
-13.66352576389368
 30
0.0
 10
520.7237824036035
 20
-13.74222095095656
 30
0.0
 10
520.4674603172814
 20
-13.8375867850093
 30
0.0
  0
SPLINE
  5
3E7
330
1F
100
AcDbEntity
  8
0
  6
Continuous
 62
     7
370
    25
100
AcDbSpline
210
0.0
220
0.0
230
1.0
 70
     8
 71
     3
 72
     9
 73
     5
 74
     0
 42
0.000000001
 43
0.00000001
 40
0.0
 40
0.0
 40
0.0
 40
0.0
 40
0.3722348086954365
 40
1.0
 40
1.0
 40
1.0
 40
1.0
 10
520.4674603172815
 20
-13.83758678500981
 30
0.0
 10
520.4954265509533
 20
-13.78566247623623
 30
0.0
 10
520.5705571755441
 20
-13.64616905014971
 30
0.0
 10
520.6491010337007
 20
-13.6381603240446
 30
0.0
 10
520.6984081338422
 20
-13.63313272456912
 30
0.0
  0
LINE
  5
3E8
330
1F
100
AcDbEntity
  8
0
  6
Continuous
 62
     7
370
    25
100
AcDbLine
 10
527.3933501725
 20
-13.3229067996
 30
0.0
 11
521.0933501725
 21
-13.3229067996
 31
0.0
  0
SPLINE
  5
3E9
330
1F
100
AcDbEntity
  8
0
  6
Continuous
 62
     7
370
    25
100
AcDbSpline
210
0.0
220
0.0
230
1.0
 70
     8
 71
     3
 72
     9
 73
     5
 74
     0
 42
0.000000001
 43
0.00000001
 40
0.0
 40
0.0
 40
0.0
 40
0.0
 40
0.6277651913045496
 40
1.0
 40
1.0
 40
1.0
 40
1.0
 10
520.6984081338422
 20
-16.21268087467847
 30
0.0
 10
520.6491010337007
 20
-16.20765327520298
 30
0.0
 10
520.5705571755441
 20
-16.19964454909787
 30
0.0
 10
520.4954265509533
 20
-16.06015112301137
 30
0.0
 10
520.4674603172815
 20
-16.00822681423778
 30
0.0
  0
SPLINE
  5
3EA
330
1F
100
AcDbEntity
  8
0
  6
Continuous
 62
     7
370
    25
100
AcDbSpline
210
0.0
220
0.0
230
1.0
 70
     8
 71
     3
 72
    12
 73
     8
 74
     0
 42
0.000000001
 43
0.00000001
 40
0.0
 40
0.0
 40
0.0
 40
0.0
 40
0.5000000000000063
 40
0.5000000000000063
 40
0.7500000000000031
 40
0.7500000000000031
 40
1.0
 40
1.0
 40
1.0
 40
1.0
 10
520.4674603172814
 20
-16.00822681423878
 30
0.0
 10
520.9794664689863
 20
-16.1987211036623
 30
0.0
 10
521.4991440152546
 20
-16.32039551672467
 30
0.0
 10
522.2989318728171
 20
-16.3210517072559
 30
0.0
 10
522.5652558196651
 20
-16.29121770546151
 30
0.0
 10
523.0884133226665
 20
-16.18228783535391
 30
0.0
 10
523.3468779538149
 20
-16.10359264829104
 30
0.0
 10
523.6032000401369
 20
-16.00822681423829
 30
0.0
  0
SPLINE
  5
3EB
330
1F
100
AcDbEntity
  8
0
  6
Continuous
 62
     7
370
    25
100
AcDbSpline
210
0.0
220
0.0
230
1.0
 70
     8
 71
     3
 72
    14
 73
    10
 74
     0
 42
0.000000001
 43
0.00000001
 40
0.0
 40
0.0
 40
0.0
 40
0.0
 40
0.25
 40
0.25
 40
0.5
 40
0.5
 40
0.75
 40
0.75
 40
1.0
 40
1.0
 40
1.0
 40
1.0
 10
527.3790898953328
 20
-16.00822681423779
 30
0.0
 10
527.4311476042236
 20
-16.1031014235484
 30
0.0
 10
527.4844811425518
 20
-16.18270634842416
 30
0.0
 10
527.5914131501797
 20
-16.29154296331839
 30
0.0
 10
527.6451665166273
 20
-16.32086656900888
 30
0.0
 10
527.7533455680511
 20
-16.32080178726329
 30
0.0
 10
527.808174264639
 20
-16.29064559393693
 30
0.0
 10
527.9150812472988
 20
-16.18106039257122
 30
0.0
 10
527.9675027622712
 20
-16.10251741876905
 30
0.0
 10
528.0192400276734
 20
-16.00822681423779
 30
0.0
  0
LINE
  5
3EC
330
1F
100
AcDbEntity
  8
0
  6
Continuous
 62
     7
370
    25
100
AcDbLine
 10
527.3933501725
 20
-16.5229067996
 30
0.0
 11
521.0933501725
 21
-16.5229067996
 31
0.0
  0
LINE
  5
3ED
330
1F
100
AcDbEntity
  8
0
  6
Continuous
 62
     7
370
    25
100
AcDbLine
 10
520.4674603173
 20
-13.837586785
 30
0.0
 11
520.4674603173
 21
-16.0082268142
 31
0.0
  0
LINE
  5
3EE
330
1F
100
AcDbEntity
  8
0
  6
Continuous
 62
     7
370
    25
100
AcDbLine
 10
528.0192400277
 20
-13.837586785
 30
0.0
 11
528.0192400277
 21
-16.0082268142
 31
0.0
  0
SPLINE
  5
3EF
330
1F
100
AcDbEntity
  8
0
  6
Continuous
 62
     7
370
    25
100
AcDbSpline
210
0.0
220
0.0
230
1.0
 70
     8
 71
     3
 72
    12
 73
     8
 74
     0
 42
0.000000001
 43
0.00000001
 40
0.0
 40
0.0
 40
0.0
 40
0.0
 40
0.4999999999999847
 40
0.4999999999999847
 40
0.7499999999999923
 40
0.7499999999999923
 40
1.0
 40
1.0
 40
1.0
 40
1.0
 10
84.379089895333
 20
-13.83758678500877
 30
0.0
 10
83.76255950541278
 20
-13.64709249558525
 30
0.0
 10
83.136791632963
 20
-13.52541808252287
 30
0.0
 10
82.17372992357791
 20
-13.52476189199164
 30
0.0
 10
81.85303688844824
 20
-13.55459589378603
 30
0.0
 10
81.22307863845246
 20
-13.66352576389362
 30
0.0
 10
80.9118493704215
 20
-13.74222095095649
 30
0.0
 10
80.60320004013688
 20
-13.83758678500925
 30
0.0
  0
LINE
  5
3F0
330
1F
100
AcDbEntity
  8
0
  6
Continuous
 62
     7
370
    25
100
AcDbLine
 10
84.3790898953
 20
-13.837586785
 30
0.0
 11
84.3790898953
 21
-16.0082268142
 31
0.0
  0
SPLINE
  5
3F1
330
1F
100
AcDbEntity
  8
0
  6
Continuous
 62
     7
370
    25
100
AcDbSpline
210
0.0
220
0.0
230
1.0
 70
     8
 71
     3
 72
    12
 73
     8
 74
     0
 42
0.000000001
 43
0.00000001
 40
0.0
 40
0.0
 40
0.0
 40
0.0
 40
0.4999999999999847
 40
0.4999999999999847
 40
0.7499999999999923
 40
0.7499999999999923
 40
1.0
 40
1.0
 40
1.0
 40
1.0
 10
80.60320004013677
 20
-16.00822681423872
 30
0.0
 10
81.21973043005704
 20
-16.19872110366224
 30
0.0
 10
81.84549830250687
 20
-16.32039551672462
 30
0.0
 10
82.80856001189186
 20
-16.32105170725584
 30
0.0
 10
83.1292530470215
 20
-16.29121770546145
 30
0.0
 10
83.75921129701747
 20
-16.18228783535386
 30
0.0
 10
84.07044056504837
 20
-16.10359264829098
 30
0.0
 10
84.37908989533294
 20
-16.00822681423823
 30
0.0
  0
LINE
  5
3F2
330
1F
100
AcDbEntity
  8
0
  6
Continuous
 62
     7
370
    25
100
AcDbLine
 10
80.6032000401
 20
-13.837586785
 30
0.0
 11
80.6032000401
 21
-16.0082268142
 31
0.0
  0
SPLINE
  5
3F3
330
1F
100
AcDbEntity
  8
0
  6
Continuous
 62
     7
370
    25
100
AcDbSpline
210
0.0
220
0.0
230
1.0
 70
     8
 71
     3
 72
     9
 73
     5
 74
     0
 42
0.000000001
 43
0.00000001
 40
0.0
 40
0.0
 40
0.0
 40
0.0
 40
0.6277651913045494
 40
1.0
 40
1.0
 40
1.0
 40
1.0
 10
77.69840813384238
 20
-16.21268087467842
 30
0.0
 10
77.64910103370087
 20
-16.20765327520293
 30
0.0
 10
77.57055717554428
 20
-16.19964454909781
 30
0.0
 10
77.49542655095331
 20
-16.06015112301131
 30
0.0
 10
77.46746031728158
 20
-16.00822681423773
 30
0.0
  0
SPLINE
  5
3F4
330
1F
100
AcDbEntity
  8
0
  6
Continuous
 62
     7
370
    25
100
AcDbSpline
210
0.0
220
0.0
230
1.0
 70
     8
 71
     3
 72
    12
 73
     8
 74
     0
 42
0.000000001
 43
0.00000001
 40
0.0
 40
0.0
 40
0.0
 40
0.0
 40
0.5000000000000064
 40
0.5000000000000064
 40
0.7500000000000032
 40
0.7500000000000032
 40
1.0
 40
1.0
 40
1.0
 40
1.0
 10
77.46746031728146
 20
-16.00822681423871
 30
0.0
 10
77.9794664689864
 20
-16.19872110366224
 30
0.0
 10
78.4991440152547
 20
-16.3203955167246
 30
0.0
 10
79.2989318728171
 20
-16.32105170725584
 30
0.0
 10
79.56525581966517
 20
-16.29121770546145
 30
0.0
 10
80.08841332266653
 20
-16.18228783535385
 30
0.0
 10
80.34687795381495
 20
-16.10359264829098
 30
0.0
 10
80.603200040137
 20
-16.00822681423823
 30
0.0
  0
SPLINE
  5
3F5
330
1F
100
AcDbEntity
  8
0
  6
Continuous
 62
     7
370
    25
100
AcDbSpline
210
0.0
220
0.0
230
1.0
 70
     8
 71
     3
 72
    14
 73
    10
 74
     0
 42
0.000000001
 43
0.00000001
 40
0.0
 40
0.0
 40
0.0
 40
0.0
 40
0.25
 40
0.25
 40
0.5
 40
0.5
 40
0.75
 40
0.75
 40
1.0
 40
1.0
 40
1.0
 40
1.0
 10
84.37908989533288
 20
-16.00822681423773
 30
0.0
 10
84.43114760422365
 20
-16.10310142354834
 30
0.0
 10
84.48448114255174
 20
-16.18270634842409
 30
0.0
 10
84.59141315017999
 20
-16.29154296331832
 30
0.0
 10
84.64516651662746
 20
-16.32086656900882
 30
0.0
 10
84.75334556805115
 20
-16.32080178726322
 30
0.0
 10
84.80817426463916
 20
-16.29064559393687
 30
0.0
 10
84.91508124729896
 20
-16.18106039257115
 30
0.0
 10
84.96750276227132
 20
-16.10251741876898
 30
0.0
 10
85.01924002767348
 20
-16.00822681423773
 30
0.0
  0
LINE
  5
3F6
330
1F
100
AcDbEntity
  8
0
  6
Continuous
 62
     7
370
    25
100
AcDbLine
 10
84.3933501725
 20
-16.5229067996
 30
0.0
 11
78.0933501725
 21
-16.5229067996
 31
0.0
  0
SPLINE
  5
3F7
330
1F
100
AcDbEntity
  8
0
  6
Continuous
 62
     7
370
    25
100
AcDbSpline
210
0.0
220
0.0
230
1.0
 70
     8
 71
     3
 72
    14
 73
    10
 74
     0
 42
0.000000001
 43
0.00000001
 40
0.0
 40
0.0
 40
0.0
 40
0.0
 40
0.25
 40
0.25
 40
0.5
 40
0.5
 40
0.75
 40
0.75
 40
1.0
 40
1.0
 40
1.0
 40
1.0
 10
84.37908989533288
 20
-13.83758678500975
 30
0.0
 10
84.43114760422365
 20
-13.74271217569914
 30
0.0
 10
84.48448114255174
 20
-13.66310725082339
 30
0.0
 10
84.59141315017999
 20
-13.55427063592917
 30
0.0
 10
84.64516651662746
 20
-13.52494703023866
 30
0.0
 10
84.75334556805115
 20
-13.52501181198427
 30
0.0
 10
84.80817426463916
 20
-13.55516800531062
 30
0.0
 10
84.91508124729896
 20
-13.66475320667633
 30
0.0
 10
84.96750276227132
 20
-13.7432961804785
 30
0.0
 10
85.01924002767348
 20
-13.83758678500976
 30
0.0
  0
SPLINE
  5
3F8
330
1F
100
AcDbEntity
  8
0
  6
Continuous
 62
     7
370
    25
100
AcDbSpline
210
0.0
220
0.0
230
1.0
 70
     8
 71
     3
 72
    12
 73
     8
 74
     0
 42
0.000000001
 43
0.00000001
 40
0.0
 40
0.0
 40
0.0
 40
0.0
 40
0.499999999999978
 40
0.499999999999978
 40
0.749999999999989
 40
0.749999999999989
 40
1.0
 40
1.0
 40
1.0
 40
1.0
 10
80.60320004013704
 20
-13.83758678500877
 30
0.0
 10
80.09119388843217
 20
-13.64709249558525
 30
0.0
 10
79.57151634216392
 20
-13.52541808252287
 30
0.0
 10
78.77172848460128
 20
-13.52476189199165
 30
0.0
 10
78.50540453775335
 20
-13.55459589378604
 30
0.0
 10
77.98224703475182
 20
-13.66352576389363
 30
0.0
 10
77.72378240360361
 20
-13.74222095095649
 30
0.0
 10
77.46746031728152
 20
-13.83758678500926
 30
0.0
  0
SPLINE
  5
3F9
330
1F
100
AcDbEntity
  8
0
  6
Continuous
 62
     7
370
    25
100
AcDbSpline
210
0.0
220
0.0
230
1.0
 70
     8
 71
     3
 72
     9
 73
     5
 74
     0
 42
0.000000001
 43
0.00000001
 40
0.0
 40
0.0
 40
0.0
 40
0.0
 40
0.3722348086954371
 40
1.0
 40
1.0
 40
1.0
 40
1.0
 10
77.46746031728158
 20
-13.83758678500976
 30
0.0
 10
77.49542655095331
 20
-13.78566247623618
 30
0.0
 10
77.57055717554418
 20
-13.64616905014966
 30
0.0
 10
77.64910103370087
 20
-13.63816032404455
 30
0.0
 10
77.69840813384232
 20
-13.63313272456906
 30
0.0
  0
LINE
  5
3FA
330
1F
100
AcDbEntity
  8
0
  6
Continuous
 62
     7
370
    25
100
AcDbLine
 10
84.3933501725
 20
-13.3229067996
 30
0.0
 11
78.0933501725
 21
-13.3229067996
 31
0.0
  0
LINE
  5
3FB
330
1F
100
AcDbEntity
  8
0
  6
Continuous
 62
     7
370
    25
100
AcDbLine
 10
77.4674603173
 20
-13.837586785
 30
0.0
 11
77.4674603173
 21
-16.0082268142
 31
0.0
  0
LINE
  5
3FC
330
1F
100
AcDbEntity
  8
0
  6
Continuous
 62
     7
370
    25
100
AcDbLine
 10
85.0192400277
 20
-13.837586785
 30
0.0
 11
85.0192400277
 21
-16.0082268142
 31
0.0
  0
LINE
  5
3FD
330
1F
100
AcDbEntity
  8
0
  6
Continuous
 62
     7
370
    25
100
AcDbLine
 10
764.2433501725
 20
-19.2229067996
 30
0.0
 11
765.164280405
 21
-29.1229067996
 31
0.0
  0
LINE
  5
3FE
330
1F
100
AcDbEntity
  8
0
  6
Continuous
 62
     7
370
    25
100
AcDbLine
 10
60.3224199399
 20
-29.1229067996
 30
0.0
 11
61.2433501725
 21
-19.2229067996
 31
0.0
  0
LINE
  5
3FF
330
1F
100
AcDbEntity
  8
0
  6
Continuous
 62
     7
370
    25
100
AcDbLine
 10
61.2433501725
 20
-17.4229067996
 30
0.0
 11
764.2433501725
 21
-17.4229067996
 31
0.0
  0
LINE
  5
400
330
1F
100
AcDbEntity
  8
0
  6
Continuous
 62
     7
370
    25
100
AcDbLine
 10
764.2433501725
 20
-17.4229067996
 30
0.0
 11
764.2433501725
 21
-19.2229067996
 31
0.0
  0
LINE
  5
401
330
1F
100
AcDbEntity
  8
0
  6
Continuous
 62
     7
370
    25
100
AcDbLine
 10
61.2433501725
 20
-19.2229067996
 30
0.0
 11
61.2433501725
 21
-17.4229067996
 31
0.0
  0
LINE
  5
402
330
1F
100
AcDbEntity
  8
0
  6
Continuous
 62
     7
370
    25
100
AcDbLine
 10
60.2433501725
 20
-29.9729067996
 30
0.0
 11
60.3224199399
 21
-29.1229067996
 31
0.0
  0
LINE
  5
403
330
1F
100
AcDbEntity
  8
0
  6
Continuous
 62
     7
370
    25
100
AcDbLine
 10
765.164280405
 20
-29.1229067996
 30
0.0
 11
765.2433501725
 21
-29.9729067996
 31
0.0
  0
LINE
  5
404
330
1F
100
AcDbEntity
  8
0
  6
Continuous
 62
     7
370
    25
100
AcDbLine
 10
743.9265580143
 20
-8.2229067996
 30
0.0
 11
746.2433501725
 21
-8.2229067996
 31
0.0
  0
LINE
  5
405
330
1F
100
AcDbEntity
  8
0
  6
Continuous
 62
     7
370
    25
100
AcDbLine
 10
742.2433501725
 20
-8.2229067996
 30
0.0
 11
743.9265580143
 21
-8.2229067996
 31
0.0
  0
LINE
  5
406
330
1F
100
AcDbEntity
  8
0
  6
Continuous
 62
     7
370
    25
100
AcDbLine
 10
300.9265580143
 20
-8.2229067996
 30
0.0
 11
303.2433501725
 21
-8.2229067996
 31
0.0
  0
LINE
  5
407
330
1F
100
AcDbEntity
  8
0
  6
Continuous
 62
     7
370
    25
100
AcDbLine
 10
299.2433501725
 20
-8.2229067996
 30
0.0
 11
300.9265580143
 21
-8.2229067996
 31
0.0
  0
LINE
  5
408
330
1F
100
AcDbEntity
  8
0
  6
Continuous
 62
     7
370
    25
100
AcDbLine
 10
523.9265580143
 20
-8.2229067996
 30
0.0
 11
526.2433501725
 21
-8.2229067996
 31
0.0
  0
LINE
  5
409
330
1F
100
AcDbEntity
  8
0
  6
Continuous
 62
     7
370
    25
100
AcDbLine
 10
522.2433501725
 20
-8.2229067996
 30
0.0
 11
523.9265580143
 21
-8.2229067996
 31
0.0
  0
LINE
  5
40A
330
1F
100
AcDbEntity
  8
0
  6
Continuous
 62
     7
370
    25
100
AcDbLine
 10
80.9265580143
 20
-8.2229067996
 30
0.0
 11
83.2433501725
 21
-8.2229067996
 31
0.0
  0
LINE
  5
40B
330
1F
100
AcDbEntity
  8
0
  6
Continuous
 62
     7
370
    25
100
AcDbLine
 10
79.2433501725
 20
-8.2229067996
 30
0.0
 11
80.9265580143
 21
-8.2229067996
 31
0.0
  0
LINE
  5
40C
330
1F
100
AcDbEntity
  8
0
  6
Continuous
 62
     7
370
    25
100
AcDbLine
 10
765.7433501725
 20
2.9770932004
 30
0.0
 11
766.7433501725
 21
2.9770932004
 31
0.0
  0
LINE
  5
40D
330
1F
100
AcDbEntity
  8
0
  6
Continuous
 62
     7
370
    25
100
AcDbLine
 10
766.7433501725
 20
2.9770932004
 30
0.0
 11
766.7433501725
 21
0.9770932004
 31
0.0
  0
LINE
  5
40E
330
1F
100
AcDbEntity
  8
0
  6
Continuous
 62
     7
370
    25
100
AcDbLine
 10
764.7433501725
 20
-15.4229067996
 30
0.0
 11
764.7433501725
 21
-24.5979067996
 31
0.0
  0
LINE
  5
40F
330
1F
100
AcDbEntity
  8
0
  6
Continuous
 62
     7
370
    25
100
AcDbLine
 10
766.7433501725
 20
0.9770932004
 30
0.0
 11
766.7433501725
 21
-1.9229067996
 31
0.0
  0
LINE
  5
410
330
1F
100
AcDbEntity
  8
0
  6
Continuous
 62
     7
370
    25
100
AcDbLine
 10
766.7433501725
 20
-7.9229067996
 30
0.0
 11
766.7433501725
 21
-28.0229067996
 31
0.0
  0
LINE
  5
411
330
1F
100
AcDbEntity
  8
0
  6
Continuous
 62
     7
370
    25
100
AcDbLine
 10
766.7416830426
 20
-28.1229067996
 30
0.0
 11
766.7433501725
 21
-28.0229067996
 31
0.0
  0
LINE
  5
412
330
1F
100
AcDbEntity
  8
0
  6
Continuous
 62
     7
370
    25
100
AcDbLine
 10
766.8036575517
 20
2.9770932004
 30
0.0
 11
766.7433501725
 21
2.9770932004
 31
0.0
  0
LINE
  5
413
330
1F
100
AcDbEntity
  8
0
  6
Continuous
 62
     7
370
    25
100
AcDbLine
 10
766.7433501725
 20
-13.0229067996
 30
0.0
 11
766.8036575517
 21
-13.0229067996
 31
0.0
  0
LWPOLYLINE
  5
414
330
1F
100
AcDbEntity
  8
0
  6
Continuous
 62
     7
370
    25
100
AcDbPolyline
 90
        9
 70
   128
 43
0.0
 10
769.3588965607
 20
0.9770932004
 10
769.3457529184
 20
1.3672738444
 10
769.3068270943
 20
1.7424600651
 10
769.2436149859
 20
2.0882336664
 10
769.1585457993
 20
2.3913067627
 10
769.0548886955
 20
2.640032425
 10
768.9366271588
 20
2.8248522654
 10
768.8083059138
 20
2.9386637612
 10
768.674856274
 20
2.9770932004
  0
LINE
  5
415
330
1F
100
AcDbEntity
  8
0
  6
Continuous
 62
     7
370
    25
100
AcDbLine
 10
769.3588965607
 20
0.9770932004
 30
0.0
 11
769.3588965607
 21
-1.9229067996
 31
0.0
  0
LINE
  5
416
330
1F
100
AcDbEntity
  8
0
  6
Continuous
 62
     7
370
    25
100
AcDbLine
 10
769.3588965607
 20
-7.9229067996
 30
0.0
 11
769.3588965607
 21
-11.0229067996
 31
0.0
  0
LWPOLYLINE
  5
417
330
1F
100
AcDbEntity
  8
0
  6
Continuous
 62
     7
370
    25
100
AcDbPolyline
 90
        9
 70
   128
 43
0.0
 10
768.674856274
 20
-13.0229067996
 10
768.8083059138
 20
-12.9844773604
 10
768.9366271588
 20
-12.8706658646
 10
769.0548886955
 20
-12.6858460242
 10
769.1585457993
 20
-12.437120362
 10
769.2436149859
 20
-12.1340472657
 10
769.3068270943
 20
-11.7882736644
 10
769.3457529184
 20
-11.4130874437
 10
769.3588965607
 20
-11.0229067996
  0
LINE
  5
418
330
1F
100
AcDbEntity
  8
0
  6
Continuous
 62
     7
370
    25
100
AcDbLine
 10
768.674856274
 20
-13.0229067996
 30
0.0
 11
766.8036575517
 21
-13.0229067996
 31
0.0
  0
LINE
  5
419
330
1F
100
AcDbEntity
  8
0
  6
Continuous
 62
     7
370
    25
100
AcDbLine
 10
766.8036575517
 20
2.9770932004
 30
0.0
 11
768.674856274
 21
2.9770932004
 31
0.0
  0
LINE
  5
41A
330
1F
100
AcDbEntity
  8
0
  6
Continuous
 62
     7
370
    25
100
AcDbLine
 10
58.7433501725
 20
-28.0229067996
 30
0.0
 11
58.7433501725
 21
-7.9229067996
 31
0.0
  0
LINE
  5
41B
330
1F
100
AcDbEntity
  8
0
  6
Continuous
 62
     7
370
    25
100
AcDbLine
 10
58.7433501725
 20
-1.9229067996
 30
0.0
 11
58.7433501725
 21
0.9770932004
 31
0.0
  0
LINE
  5
41C
330
1F
100
AcDbEntity
  8
0
  6
Continuous
 62
     7
370
    25
100
AcDbLine
 10
60.7433501725
 20
-24.5979067996
 30
0.0
 11
60.7433501725
 21
-15.4229067996
 31
0.0
  0
LINE
  5
41D
330
1F
100
AcDbEntity
  8
0
  6
Continuous
 62
     7
370
    25
100
AcDbLine
 10
58.7433501725
 20
2.9770932004
 30
0.0
 11
59.7433501725
 21
2.9770932004
 31
0.0
  0
LINE
  5
41E
330
1F
100
AcDbEntity
  8
0
  6
Continuous
 62
     7
370
    25
100
AcDbLine
 10
58.7433501725
 20
0.9770932004
 30
0.0
 11
58.7433501725
 21
2.9770932004
 31
0.0
  0
LINE
  5
41F
330
1F
100
AcDbEntity
  8
0
  6
Continuous
 62
     7
370
    25
100
AcDbLine
 10
58.7433501725
 20
-28.0229067996
 30
0.0
 11
58.7450173024
 21
-28.1229067996
 31
0.0
  0
LINE
  5
420
330
1F
100
AcDbEntity
  8
0
  6
Continuous
 62
     7
370
    25
100
AcDbLine
 10
58.6830427933
 20
-13.0229067996
 30
0.0
 11
58.7433501725
 21
-13.0229067996
 31
0.0
  0
LINE
  5
421
330
1F
100
AcDbEntity
  8
0
  6
Continuous
 62
     7
370
    25
100
AcDbLine
 10
58.7433501725
 20
2.9770932004
 30
0.0
 11
58.6830427933
 21
2.9770932004
 31
0.0
  0
LWPOLYLINE
  5
422
330
1F
100
AcDbEntity
  8
0
  6
Continuous
 62
     7
370
    25
100
AcDbPolyline
 90
        9
 70
   128
 43
0.0
 10
56.811844071
 20
2.9770932004
 10
56.6783944312
 20
2.9386637612
 10
56.5500731862
 20
2.8248522654
 10
56.4318116495
 20
2.640032425
 10
56.3281545457
 20
2.3913067627
 10
56.243085359
 20
2.0882336664
 10
56.1798732507
 20
1.7424600651
 10
56.1409474266
 20
1.3672738444
 10
56.1278037843
 20
0.9770932004
  0
LINE
  5
423
330
1F
100
AcDbEntity
  8
0
  6
Continuous
 62
     7
370
    25
100
AcDbLine
 10
56.811844071
 20
2.9770932004
 30
0.0
 11
58.6830427933
 21
2.9770932004
 31
0.0
  0
LINE
  5
424
330
1F
100
AcDbEntity
  8
0
  6
Continuous
 62
     7
370
    25
100
AcDbLine
 10
58.6830427933
 20
-13.0229067996
 30
0.0
 11
56.811844071
 21
-13.0229067996
 31
0.0
  0
LWPOLYLINE
  5
425
330
1F
100
AcDbEntity
  8
0
  6
Continuous
 62
     7
370
    25
100
AcDbPolyline
 90
        9
 70
   128
 43
0.0
 10
56.1278037843
 20
-11.0229067996
 10
56.1409474266
 20
-11.4130874437
 10
56.1798732507
 20
-11.7882736644
 10
56.243085359
 20
-12.1340472657
 10
56.3281545457
 20
-12.437120362
 10
56.4318116495
 20
-12.6858460242
 10
56.5500731862
 20
-12.8706658646
 10
56.6783944312
 20
-12.9844773604
 10
56.811844071
 20
-13.0229067996
  0
LINE
  5
426
330
1F
100
AcDbEntity
  8
0
  6
Continuous
 62
     7
370
    25
100
AcDbLine
 10
56.1278037843
 20
-11.0229067996
 30
0.0
 11
56.1278037843
 21
-7.9229067996
 31
0.0
  0
LINE
  5
427
330
1F
100
AcDbEntity
  8
0
  6
Continuous
 62
     7
370
    25
100
AcDbLine
 10
56.1278037843
 20
-1.9229067996
 30
0.0
 11
56.1278037843
 21
0.9770932004
 31
0.0
  0
SPLINE
  5
428
330
1F
100
AcDbEntity
  8
0
  6
Continuous
 62
     7
370
    25
100
AcDbSpline
210
0.0
220
0.0
230
1.0
 70
    24
 71
     3
 72
     9
 73
     5
 74
     0
 42
0.000000001
 43
0.00000001
 40
0.0
 40
0.0
 40
0.0
 40
0.0
 40
0.705910271239709
 40
1.0
 40
1.0
 40
1.0
 40
1.0
 10
60.54335017247769
 20
0.8503420097664303
 30
0.0
 10
60.54335017247764
 20
0.8605947790629895
 30
0.0
 10
60.54335017247764
 20
0.8751189611216373
 30
0.0
 10
60.54335017247769
 20
0.7800670045132558
 30
0.0
 10
60.54335017247769
 20
0.7521132003761614
 30
0.0
  0
SPLINE
  5
429
330
1F
100
AcDbEntity
  8
0
  6
Continuous
 62
     7
370
    25
100
AcDbSpline
210
0.0
220
0.0
230
1.0
 70
    24
 71
     3
 72
    12
 73
     8
 74
     0
 42
0.000000001
 43
0.00000001
 40
0.0
 40
0.0
 40
0.0
 40
0.0
 40
0.3344405486782615
 40
0.5144757571369828
 40
0.6983315710265335
 40
0.8821873849160835
 40
0.9999999999999999
 40
0.9999999999999999
 40
0.9999999999999999
 40
0.9999999999999999
 10
61.54335017247769
 20
-2.41659949456705
 30
0.0
 10
61.54335017247769
 20
-1.792453959065206
 30
0.0
 10
61.54335017247769
 20
-0.8323199435876271
 30
0.0
 10
61.54335017247781
 20
0.0755909627076596
 30
0.0
 10
61.54335017247769
 20
0.5813083006238019
 30
0.0
 10
61.54335017247759
 20
0.8529280347620181
 30
0.0
 10
61.54335017247781
 20
0.8510683033022505
 30
0.0
 10
61.54335017247769
 20
0.850342009777373
 30
0.0
  0
SPLINE
  5
42A
330
1F
100
AcDbEntity
  8
0
  6
Continuous
 62
     7
370
    25
100
AcDbSpline
210
0.0
220
0.0
230
1.0
 70
    24
 71
     3
 72
    15
 73
    11
 74
     0
 42
0.000000001
 43
0.00000001
 40
0.0
 40
0.0
 40
0.0
 40
0.0
 40
0.0346967497918673
 40
0.2211884951269657
 40
0.4076802404620646
 40
0.5080720152630795
 40
0.6105942475634826
 40
0.7131164798638859
 40
0.8135082546649003
 40
0.9999999999999999
 40
0.9999999999999999
 40
0.9999999999999999
 40
0.9999999999999999
 10
61.54335017247769
 20
-10.69615560902835
 30
0.0
 10
61.54335017247769
 20
-10.70287671265976
 30
0.0
 10
61.54335017247769
 20
-10.74572311201255
 30
0.0
 10
61.54335017247759
 20
-10.25768214925407
 30
0.0
 10
61.54335017247769
 20
-9.161771091785498
 30
0.0
 10
61.54335017247759
 20
-7.942873959338015
 30
0.0
 10
61.54335017247764
 20
-6.862698731481054
 30
0.0
 10
61.54335017247769
 20
-5.702221829015375
 30
0.0
 10
61.54335017247764
 20
-4.171646933900247
 30
0.0
 10
61.54335017247775
 20
-3.108021045250185
 30
0.0
 10
61.54335017247769
 20
-2.41659949456705
 30
0.0
  0
SPLINE
  5
42B
330
1F
100
AcDbEntity
  8
0
  6
Continuous
 62
     7
370
    25
100
AcDbSpline
210
0.0
220
0.0
230
1.0
 70
     8
 71
     3
 72
     8
 73
     4
 74
     0
 42
0.000000001
 43
0.00000001
 40
0.0
 40
0.0
 40
0.0
 40
0.0
 40
1.0
 40
1.0
 40
1.0
 40
1.0
 10
65.54335017247071
 20
-5.306301827311955
 30
0.0
 10
65.54335017247071
 20
-4.323923382739175
 30
0.0
 10
65.36903487209128
 20
-3.368432214549443
 30
0.0
 10
65.09676818507931
 20
-2.428049565221868
 30
0.0
  0
SPLINE
  5
42C
330
1F
100
AcDbEntity
  8
0
  6
Continuous
 62
     7
370
    25
100
AcDbSpline
210
0.0
220
0.0
230
1.0
 70
     8
 71
     3
 72
     8
 73
     4
 74
     0
 42
0.000000001
 43
0.00000001
 40
0.0
 40
0.0
 40
0.0
 40
0.0
 40
1.0
 40
1.0
 40
1.0
 40
1.0
 10
65.09676818507937
 20
-8.184554089401937
 30
0.0
 10
65.36903487209078
 20
-7.244171440076144
 30
0.0
 10
65.54335017247071
 20
-6.288680271882873
 30
0.0
 10
65.54335017247071
 20
-5.306301827311955
 30
0.0
  0
LINE
  5
42D
330
1F
100
AcDbEntity
  8
0
  6
Continuous
 62
     7
370
    25
100
AcDbLine
 10
61.5433501725
 20
-8.1845540894
 30
0.0
 11
65.0967681851
 21
-8.1845540894
 31
0.0
  0
LINE
  5
42E
330
1F
100
AcDbEntity
  8
0
  6
Continuous
 62
     7
370
    25
100
AcDbLine
 10
61.5433501725
 20
-2.4280495652
 30
0.0
 11
65.0967681851
 21
-2.4280495652
 31
0.0
  0
LINE
  5
42F
330
1F
100
AcDbEntity
  8
0
  6
Continuous
 62
     7
370
    25
100
AcDbLine
 10
65.5433501725
 20
-5.3063018273
 30
0.0
 11
65.5433501725
 21
-0.7972259203
 31
0.0
  0
SPLINE
  5
430
330
1F
100
AcDbEntity
  8
0
  6
Continuous
 62
     7
370
    25
100
AcDbSpline
210
0.0
220
0.0
230
1.0
 70
     8
 71
     3
 72
     8
 73
     4
 74
     0
 42
0.000000001
 43
0.00000001
 40
0.0
 40
0.0
 40
0.0
 40
0.0
 40
1.0
 40
1.0
 40
1.0
 40
1.0
 10
65.0967681850792
 20
-2.428049565215748
 30
0.0
 10
65.36903487209061
 20
-1.895226824150904
 30
0.0
 10
65.54335017247054
 20
-1.353843565256312
 30
0.0
 10
65.54335017247054
 20
-0.7972259203278724
 30
0.0
  0
LINE
  5
431
330
1F
100
AcDbEntity
  8
0
  6
Continuous
 62
     7
370
    25
100
AcDbLine
 10
65.5433501725
 20
-9.4319827066
 30
0.0
 11
65.5433501725
 21
-5.3063018273
 31
0.0
  0
SPLINE
  5
432
330
1F
100
AcDbEntity
  8
0
  6
Continuous
 62
     7
370
    25
100
AcDbSpline
210
0.0
220
0.0
230
1.0
 70
     8
 71
     3
 72
     8
 73
     4
 74
     0
 42
0.000000001
 43
0.00000001
 40
0.0
 40
0.0
 40
0.0
 40
0.0
 40
1.0
 40
1.0
 40
1.0
 40
1.0
 10
65.54335017247054
 20
-9.431982706609471
 30
0.0
 10
65.54335017247054
 20
-9.00622190696625
 30
0.0
 10
65.36903487209112
 20
-8.592113997669196
 30
0.0
 10
65.09676818507926
 20
-8.184554089407527
 30
0.0
  0
SPLINE
  5
433
330
1F
100
AcDbEntity
  8
0
  6
Continuous
 62
     7
370
    25
100
AcDbSpline
210
0.0
220
0.0
230
1.0
 70
     8
 71
     3
 72
     8
 73
     4
 74
     0
 42
0.000000001
 43
0.00000001
 40
0.0
 40
0.0
 40
0.0
 40
0.0
 40
1.0
 40
1.0
 40
1.0
 40
1.0
 10
65.54335017247054
 20
-0.7972259203278724
 30
0.0
 10
65.54335017247054
 20
-0.2406082753984269
 30
0.0
 10
65.36903487209112
 20
0.3007749834942021
 30
0.0
 10
65.0967681850792
 20
0.8335977245600033
 30
0.0
  0
LINE
  5
434
330
1F
100
AcDbEntity
  8
0
  6
Continuous
 62
     7
370
    25
100
AcDbLine
 10
61.5433501725
 20
0.8335977246
 30
0.0
 11
65.0967681851
 21
0.8335977246
 31
0.0
  0
SPLINE
  5
435
330
1F
100
AcDbEntity
  8
0
  6
Continuous
 62
     7
370
    25
100
AcDbSpline
210
0.0
220
0.0
230
1.0
 70
     8
 71
     3
 72
     8
 73
     4
 74
     0
 42
0.000000001
 43
0.00000001
 40
0.0
 40
0.0
 40
0.0
 40
0.0
 40
1.0
 40
1.0
 40
1.0
 40
1.0
 10
65.09676818507926
 20
-10.67941132381147
 30
0.0
 10
65.36903487209072
 20
-10.2718514155504
 30
0.0
 10
65.54335017247054
 20
-9.857743506252056
 30
0.0
 10
65.54335017247054
 20
-9.431982706609471
 30
0.0
  0
LINE
  5
436
330
1F
100
AcDbEntity
  8
0
  6
Continuous
 62
     7
370
    25
100
AcDbLine
 10
65.0967681851
 20
-10.6794113238
 30
0.0
 11
61.5433501725
 21
-10.6794113238
 31
0.0
  0
LINE
  5
437
330
1F
100
AcDbEntity
  8
0
  6
Continuous
 62
     7
370
    25
100
AcDbLine
 10
51.0846001725
 20
-7.6283523438
 30
0.0
 11
51.0846001725
 21
-7.9229067996
 31
0.0
  0
LINE
  5
438
330
1F
100
AcDbEntity
  8
0
  6
Continuous
 62
     7
370
    25
100
AcDbLine
 10
51.0846001725
 20
-1.9229067996
 30
0.0
 11
51.0846001725
 21
-7.6283523438
 31
0.0
  0
LINE
  5
439
330
1F
100
AcDbEntity
  8
0
  6
Continuous
 62
     7
370
    25
100
AcDbLine
 10
50.5433501725
 20
-2.4641567996
 30
0.0
 11
50.5433501725
 21
-7.3816567996
 31
0.0
  0
LINE
  5
43A
330
1F
100
AcDbEntity
  8
0
  6
Continuous
 62
     7
370
    25
100
AcDbLine
 10
65.0967681851
 20
0.8335977246
 30
0.0
 11
65.1719559406
 21
0.6235772567
 31
0.0
  0
LINE
  5
43B
330
1F
100
AcDbEntity
  8
0
  6
Continuous
 62
     7
370
    25
100
AcDbLine
 10
65.5433501725
 20
-0.7972259203
 30
0.0
 11
65.5433501725
 21
0.0770932004
 31
0.0
  0
LINE
  5
43C
330
1F
100
AcDbEntity
  8
0
  6
Continuous
 62
     7
370
    25
100
AcDbLine
 10
65.5433501725
 20
-9.9229067996
 30
0.0
 11
65.5433501725
 21
-9.4319827066
 31
0.0
  0
ARC
  5
43D
330
1F
100
AcDbEntity
  8
0
  6
Continuous
 62
     7
370
    25
100
AcDbCircle
 10
52.2433501725
 20
-34.1229067996
 30
0.0
 40
6.000000000000015
100
AcDbArc
 50
90.0
 51
143.1301023541
  0
ARC
  5
43E
330
1F
100
AcDbEntity
  8
0
  6
Continuous
 62
     7
370
    25
100
AcDbCircle
 10
773.2433501725
 20
-34.1229067996
 30
0.0
 40
6.000000000000032
100
AcDbArc
 50
36.8698976459
 51
90.0
  0
LINE
  5
43F
330
1F
100
AcDbEntity
  8
0
  6
Continuous
 62
     7
370
    25
100
AcDbLine
 10
-89.7132022383
 20
472.6075204992
 30
0.0
 11
-90.0761400167
 21
471.9788938271
 31
0.0
  0
LINE
  5
440
330
1F
100
AcDbEntity
  8
0
  6
Continuous
 62
     7
370
    25
100
AcDbLine
 10
-90.0761400167
 20
465.6788938271
 30
0.0
 11
-89.7132022383
 21
465.050267155
 31
0.0
  0
LINE
  5
441
330
1F
100
AcDbEntity
  8
0
  6
Continuous
 62
     7
370
    25
100
AcDbLine
 10
-91.7761400167
 20
472.8288938271
 30
0.0
 11
-93.7761400167
 21
472.8288938271
 31
0.0
  0
LINE
  5
442
330
1F
100
AcDbEntity
  8
0
  6
Continuous
 62
     7
370
    25
100
AcDbLine
 10
-93.7761400167
 20
464.8288938271
 30
0.0
 11
-91.7761400167
 21
464.8288938271
 31
0.0
  0
ARC
  5
443
330
1F
100
AcDbEntity
  8
0
  6
Continuous
 62
     7
370
    25
100
AcDbCircle
 10
-86.8479367864
 20
468.8288938271
 30
0.0
 40
8.000000000000004
100
AcDbArc
 50
195.2747479997
 51
210.0
  0
ARC
  5
444
330
1F
100
AcDbEntity
  8
0
  6
Continuous
 62
     7
370
    25
100
AcDbCircle
 10
-86.8479367864
 20
468.8288938271
 30
0.0
 40
8.000000000000032
100
AcDbArc
 50
150.0
 51
164.7252520003
  0
LINE
  5
445
330
1F
100
AcDbEntity
  8
0
  6
Continuous
 62
     7
370
    25
100
AcDbLine
 10
-90.0761400167
 20
470.8288938271
 30
0.0
 11
-90.1761400167
 21
470.8288938271
 31
0.0
  0
LINE
  5
446
330
1F
100
AcDbEntity
  8
0
  6
Continuous
 62
     7
370
    25
100
AcDbLine
 10
-90.1761400167
 20
466.8288938271
 30
0.0
 11
-90.0761400167
 21
466.8288938271
 31
0.0
  0
CIRCLE
  5
447
330
1F
100
AcDbEntity
  8
0
  6
Continuous
 62
     7
370
    25
100
AcDbCircle
 10
-78.4761400167
 20
117.8288938271
 30
0.0
 40
2.458750000016608
  0
CIRCLE
  5
448
330
1F
100
AcDbEntity
  8
0
  6
Continuous
 62
     7
370
    25
100
AcDbCircle
 10
-78.4761400167
 20
117.8288938271
 30
0.0
 40
3.000000000000008
  0
CIRCLE
  5
449
330
1F
100
AcDbEntity
  8
0
  6
Continuous
 62
     7
370
    25
100
AcDbCircle
 10
-78.4761400167
 20
493.8288938271
 30
0.0
 40
2.458750000016561
  0
CIRCLE
  5
44A
330
1F
100
AcDbEntity
  8
0
  6
Continuous
 62
     7
370
    25
100
AcDbCircle
 10
-78.4761400167
 20
493.8288938271
 30
0.0
 40
3.000000000000012
  0
LINE
  5
44B
330
1F
100
AcDbEntity
  8
0
  6
Continuous
 62
     7
370
    25
100
AcDbLine
 10
-106.6761400167
 20
464.358183149
 30
0.0
 11
-97.0761400167
 21
464.358183149
 31
0.0
  0
LINE
  5
44C
330
1F
100
AcDbEntity
  8
0
  6
Continuous
 62
     7
370
    25
100
AcDbLine
 10
-106.6761400167
 20
71.2996045052
 30
0.0
 11
-97.0761400167
 21
71.2996045052
 31
0.0
  0
LINE
  5
44D
330
1F
100
AcDbEntity
  8
0
  6
Continuous
 62
     7
370
    25
100
AcDbLine
 10
-97.0761400167
 20
71.2996045052
 30
0.0
 11
-97.0761400167
 21
464.358183149
 31
0.0
  0
SPLINE
  5
44E
330
1F
100
AcDbEntity
  8
0
  6
Continuous
 62
     7
370
    25
100
AcDbSpline
210
0.0
220
0.0
230
1.0
 70
     8
 71
     3
 72
    20
 73
    16
 74
     0
 42
0.000000001
 43
0.00000001
 40
0.0
 40
0.0
 40
0.0
 40
0.0
 40
0.125
 40
0.125
 40
0.25
 40
0.25
 40
0.375
 40
0.375
 40
0.5
 40
0.5
 40
0.75
 40
0.75
 40
0.875
 40
0.875
 40
1.0
 40
1.0
 40
1.0
 40
1.0
 10
-106.6761400166843
 20
71.29960450521178
 30
0.0
 10
-106.834519204335
 20
71.33864523606631
 30
0.0
 10
-106.9907649290267
 20
71.37716394026612
 30
0.0
 10
-107.2987567784433
 20
71.45457069157408
 30
0.0
 10
-107.4514008859144
 20
71.49371510956074
 30
0.0
 10
-107.7404851751015
 20
71.57086586347592
 30
0.0
 10
-107.8782897132856
 20
71.60919344521687
 30
0.0
 10
-108.1399083889245
 20
71.68673976569345
 30
0.0
 10
-108.2626546956071
 20
71.72571597336214
 30
0.0
 10
-108.5939790725548
 20
71.8412108298071
 30
0.0
 10
-108.772990196583
 20
71.9191232734773
 30
0.0
 10
-108.9526052959639
 20
72.03460319887812
 30
0.0
 10
-108.9988496448316
 20
72.07346899474315
 30
0.0
 10
-109.0606029508428
 20
72.15124332841172
 30
0.0
 10
-109.0761400166843
 20
72.18985309536643
 30
0.0
 10
-109.0761400166843
 20
72.22889382709316
 30
0.0
  0
LINE
  5
44F
330
1F
100
AcDbEntity
  8
0
  6
Continuous
 62
     7
370
    25
100
AcDbLine
 10
-109.0761400167
 20
72.2288938271
 30
0.0
 11
-109.0761400167
 21
463.4288938271
 31
0.0
  0
SPLINE
  5
450
330
1F
100
AcDbEntity
  8
0
  6
Continuous
 62
     7
370
    25
100
AcDbSpline
210
0.0
220
0.0
230
1.0
 70
     8
 71
     3
 72
    20
 73
    16
 74
     0
 42
0.000000001
 43
0.00000001
 40
0.0
 40
0.0
 40
0.0
 40
0.0
 40
0.1249999999999947
 40
0.1249999999999947
 40
0.2499999999999893
 40
0.2499999999999893
 40
0.374999999999984
 40
0.374999999999984
 40
0.4999999999999787
 40
0.4999999999999787
 40
0.7499999999999976
 40
0.7499999999999976
 40
0.8749999999999989
 40
0.8749999999999989
 40
1.0
 40
1.0
 40
1.0
 40
1.0
 10
-109.0761400166843
 20
463.4288938270933
 30
0.0
 10
-109.0761400166843
 20
463.4679345579478
 30
0.0
 10
-109.0606034562094
 20
463.5064532621477
 30
0.0
 10
-108.9992851042488
 20
463.5838600134556
 30
0.0
 10
-108.952861358662
 20
463.6230044314423
 30
0.0
 10
-108.8329104885079
 20
463.7001551853575
 30
0.0
 10
-108.7593058442245
 20
463.7384827670986
 30
0.0
 10
-108.5845754781288
 20
463.8160290875751
 30
0.0
 10
-108.4837248492273
 20
463.8550052952437
 30
0.0
 10
-108.1524395692433
 20
463.9705001516887
 30
0.0
 10
-107.8847594078595
 20
464.0484125953588
 30
0.0
 10
-107.4520853818041
 20
464.1638925207596
 30
0.0
 10
-107.3005672949529
 20
464.2027583166248
 30
0.0
 10
-106.9911415375668
 20
464.2805326502933
 30
0.0
 10
-106.834519207873
 20
464.319142417248
 30
0.0
 10
-106.6761400166843
 20
464.3581831489747
 30
0.0
  0
LINE
  5
451
330
1F
100
AcDbEntity
  8
0
  6
Continuous
 62
     7
370
    25
100
AcDbLine
 10
-106.6761400167
 20
465.8288938271
 30
0.0
 11
-106.6761400167
 21
464.4288938271
 31
0.0
  0
SPLINE
  5
452
330
1F
100
AcDbEntity
  8
0
  6
Continuous
 62
     7
370
    25
100
AcDbSpline
210
0.0
220
0.0
230
1.0
 70
     8
 71
     3
 72
     9
 73
     5
 74
     0
 42
0.000000001
 43
0.00000001
 40
0.0
 40
0.0
 40
0.0
 40
0.0
 40
0.7584558214376705
 40
1.0
 40
1.0
 40
1.0
 40
1.0
 10
-106.6761400166843
 20
464.4288938270931
 30
0.0
 10
-106.8278477946205
 20
464.4178392912597
 30
0.0
 10
-107.0278696991906
 20
464.4032642355729
 30
0.0
 10
-107.1784237905821
 20
464.2801678519731
 30
0.0
 10
-107.2147892549165
 20
464.2504346371124
 30
0.0
  0
SPLINE
  5
453
330
1F
100
AcDbEntity
  8
0
  6
Continuous
 62
     7
370
    25
100
AcDbSpline
210
0.0
220
0.0
230
1.0
 70
     8
 71
     3
 72
    20
 73
    16
 74
     0
 42
0.000000001
 43
0.00000001
 40
0.0
 40
0.0
 40
0.0
 40
0.0
 40
0.125
 40
0.125
 40
0.2499999999999999
 40
0.2499999999999999
 40
0.3749999999999999
 40
0.3749999999999999
 40
0.5
 40
0.5
 40
0.75
 40
0.75
 40
0.875
 40
0.875
 40
1.0
 40
1.0
 40
1.0
 40
1.0
 10
-106.6761400166843
 20
465.8288938270931
 30
0.0
 10
-106.834519204335
 20
465.8288938270931
 30
0.0
 10
-106.9907649290267
 20
465.8133572666183
 30
0.0
 10
-107.2987567784433
 20
465.7520389146576
 30
0.0
 10
-107.4514008859144
 20
465.7056151690708
 30
0.0
 10
-107.7404851751014
 20
465.5856642989166
 30
0.0
 10
-107.8782897132855
 20
465.5120596546333
 30
0.0
 10
-108.1399083889244
 20
465.3373292885378
 30
0.0
 10
-108.2626546956071
 20
465.2364786596362
 30
0.0
 10
-108.5939790725547
 20
464.9051933796523
 30
0.0
 10
-108.7729901965829
 20
464.6375132182684
 30
0.0
 10
-108.9526052959638
 20
464.2048391922131
 30
0.0
 10
-108.9988496448315
 20
464.0533211053619
 30
0.0
 10
-109.0606029508428
 20
463.7438953479758
 30
0.0
 10
-109.0761400166842
 20
463.5872730182821
 30
0.0
 10
-109.0761400166842
 20
463.4288938270933
 30
0.0
  0
SPLINE
  5
454
330
1F
100
AcDbEntity
  8
0
  6
Continuous
 62
     7
370
    25
100
AcDbSpline
210
0.0
220
0.0
230
1.0
 70
     8
 71
     3
 72
    20
 73
    16
 74
     0
 42
0.000000001
 43
0.00000001
 40
0.0
 40
0.0
 40
0.0
 40
0.0
 40
0.1249999999999987
 40
0.1249999999999987
 40
0.2499999999999974
 40
0.2499999999999974
 40
0.3749999999999962
 40
0.3749999999999962
 40
0.4999999999999949
 40
0.4999999999999949
 40
0.7500000000000026
 40
0.7500000000000026
 40
0.8750000000000012
 40
0.8750000000000012
 40
1.0
 40
1.0
 40
1.0
 40
1.0
 10
-109.0761400166842
 20
72.22889382709322
 30
0.0
 10
-109.0761400166842
 20
72.07051463944251
 30
0.0
 10
-109.0606034562094
 20
71.91426891475083
 30
0.0
 10
-108.9992851042488
 20
71.60627706533421
 30
0.0
 10
-108.952861358662
 20
71.45363295786302
 30
0.0
 10
-108.8329104885079
 20
71.16454866867592
 30
0.0
 10
-108.7593058442245
 20
71.02674413049185
 30
0.0
 10
-108.5845754781288
 20
70.76512545485295
 30
0.0
 10
-108.4837248492273
 20
70.64237914817036
 30
0.0
 10
-108.1524395692433
 20
70.31105477122269
 30
0.0
 10
-107.8847594078594
 20
70.13204364719441
 30
0.0
 10
-107.4520853818041
 20
69.95242854781361
 30
0.0
 10
-107.3005672949529
 20
69.90618419894584
 30
0.0
 10
-106.9911415375668
 20
69.84443089293468
 30
0.0
 10
-106.8345192078731
 20
69.82889382709317
 30
0.0
 10
-106.6761400166843
 20
69.82889382709317
 30
0.0
  0
SPLINE
  5
455
330
1F
100
AcDbEntity
  8
0
  6
Continuous
 62
     7
370
    25
100
AcDbSpline
210
0.0
220
0.0
230
1.0
 70
     8
 71
     3
 72
     9
 73
     5
 74
     0
 42
0.000000001
 43
0.00000001
 40
0.0
 40
0.0
 40
0.0
 40
0.0
 40
0.4258694941527536
 40
1.0
 40
1.0
 40
1.0
 40
1.0
 10
-107.2325314436937
 20
71.4189723897706
 30
0.0
 10
-107.1621272670888
 20
71.36905076492597
 30
0.0
 10
-106.9968086012261
 20
71.25182794072738
 30
0.0
 10
-106.7930970389696
 20
71.2372585555659
 30
0.0
 10
-106.6761400166843
 20
71.22889382709319
 30
0.0
  0
LINE
  5
456
330
1F
100
AcDbEntity
  8
0
  6
Continuous
 62
     7
370
    25
100
AcDbLine
 10
-106.6761400167
 20
69.8288938271
 30
0.0
 11
-106.6761400167
 21
71.2288938271
 31
0.0
  0
LINE
  5
457
330
1F
100
AcDbEntity
  8
0
  6
Continuous
 62
     7
370
    25
100
AcDbLine
 10
-106.6761400167
 20
465.8288938271
 30
0.0
 11
-97.0761400167
 21
465.8288938271
 31
0.0
  0
LINE
  5
458
330
1F
100
AcDbEntity
  8
0
  6
Continuous
 62
     7
370
    25
100
AcDbLine
 10
-106.6761400167
 20
464.4288938271
 30
0.0
 11
-97.0761400167
 21
464.4288938271
 31
0.0
  0
LINE
  5
459
330
1F
100
AcDbEntity
  8
0
  6
Continuous
 62
     7
370
    25
100
AcDbLine
 10
-97.0761400167
 20
465.8288938271
 30
0.0
 11
-97.0761400167
 21
464.4288938271
 31
0.0
  0
LINE
  5
45A
330
1F
100
AcDbEntity
  8
0
  6
Continuous
 62
     7
370
    25
100
AcDbLine
 10
-97.0761400167
 20
69.8288938271
 30
0.0
 11
-97.0761400167
 21
71.2288938271
 31
0.0
  0
LINE
  5
45B
330
1F
100
AcDbEntity
  8
0
  6
Continuous
 62
     7
370
    25
100
AcDbLine
 10
-106.6761400167
 20
71.2288938271
 30
0.0
 11
-97.0761400167
 21
71.2288938271
 31
0.0
  0
LINE
  5
45C
330
1F
100
AcDbEntity
  8
0
  6
Continuous
 62
     7
370
    25
100
AcDbLine
 10
-106.6761400167
 20
69.8288938271
 30
0.0
 11
-97.0761400167
 21
69.8288938271
 31
0.0
  0
ARC
  5
45D
330
1F
100
AcDbEntity
  8
0
  6
Continuous
 62
     7
370
    25
100
AcDbCircle
 10
-72.9761400167
 20
497.3288938271
 30
0.0
 40
3.0
100
AcDbArc
 50
0.0
 51
90.0
  0
LINE
  5
45E
330
1F
100
AcDbEntity
  8
0
  6
Continuous
 62
     7
370
    25
100
AcDbLine
 10
-69.9761400167
 20
463.1288938271
 30
0.0
 11
-69.9761400167
 21
497.3288938271
 31
0.0
  0
LINE
  5
45F
330
1F
100
AcDbEntity
  8
0
  6
Continuous
 62
     7
370
    25
100
AcDbLine
 10
-88.9761400167
 20
480.3288938271
 30
0.0
 11
-88.9761400167
 21
463.1288938271
 31
0.0
  0
LINE
  5
460
330
1F
100
AcDbEntity
  8
0
  6
Continuous
 62
     7
370
    25
100
AcDbLine
 10
-92.9761400167
 20
480.3288938271
 30
0.0
 11
-88.9761400167
 21
480.3288938271
 31
0.0
  0
LINE
  5
461
330
1F
100
AcDbEntity
  8
0
  6
Continuous
 62
     7
370
    25
100
AcDbLine
 10
-92.9761400167
 20
497.3288938271
 30
0.0
 11
-92.9761400167
 21
480.3288938271
 31
0.0
  0
ARC
  5
462
330
1F
100
AcDbEntity
  8
0
  6
Continuous
 62
     7
370
    25
100
AcDbCircle
 10
-89.9761400167
 20
497.3288938271
 30
0.0
 40
3.0
100
AcDbArc
 50
90.0
 51
180.0
  0
LINE
  5
463
330
1F
100
AcDbEntity
  8
0
  6
Continuous
 62
     7
370
    25
100
AcDbLine
 10
-72.9761400167
 20
500.3288938271
 30
0.0
 11
-89.9761400167
 21
500.3288938271
 31
0.0
  0
CIRCLE
  5
464
330
1F
100
AcDbEntity
  8
0
  6
Continuous
 62
     7
370
    25
100
AcDbCircle
 10
-78.4761400167
 20
493.8288938271
 30
0.0
 40
3.249999999999886
  0
CIRCLE
  5
465
330
1F
100
AcDbEntity
  8
0
  6
Continuous
 62
     7
370
    25
100
AcDbCircle
 10
-78.4761400167
 20
468.8288938271
 30
0.0
 40
3.249999999999886
  0
LINE
  5
466
330
1F
100
AcDbEntity
  8
0
  6
Continuous
 62
     7
370
    25
100
AcDbLine
 10
-88.9761400167
 20
461.3288938271
 30
0.0
 11
-88.9761400167
 21
463.1288938271
 31
0.0
  0
LINE
  5
467
330
1F
100
AcDbEntity
  8
0
  6
Continuous
 62
     7
370
    25
100
AcDbLine
 10
-69.9761400167
 20
461.3288938271
 30
0.0
 11
-88.9761400167
 21
461.3288938271
 31
0.0
  0
LINE
  5
468
330
1F
100
AcDbEntity
  8
0
  6
Continuous
 62
     7
370
    25
100
AcDbLine
 10
-69.9761400167
 20
463.1288938271
 30
0.0
 11
-69.9761400167
 21
461.3288938271
 31
0.0
  0
ARC
  5
469
330
1F
100
AcDbEntity
  8
0
  6
Continuous
 62
     7
370
    25
100
AcDbCircle
 10
-89.1761400167
 20
463.1288938271
 30
0.0
 40
1.800000000000011
100
AcDbArc
 50
180.0
 51
270.0
  0
ARC
  5
46A
330
1F
100
AcDbEntity
  8
0
  6
Continuous
 62
     7
370
    25
100
AcDbCircle
 10
-89.1761400167
 20
463.1288938271
 30
0.0
 40
1.0
100
AcDbArc
 50
180.0
 51
270.0
  0
LINE
  5
46B
330
1F
100
AcDbEntity
  8
0
  6
Continuous
 62
     7
370
    25
100
AcDbLine
 10
-89.1761400167
 20
461.3288938271
 30
0.0
 11
-88.9761400167
 21
461.3288938271
 31
0.0
  0
LINE
  5
46C
330
1F
100
AcDbEntity
  8
0
  6
Continuous
 62
     7
370
    25
100
AcDbLine
 10
-89.1761400167
 20
462.1288938271
 30
0.0
 11
-88.9761400167
 21
462.1288938271
 31
0.0
  0
LINE
  5
46D
330
1F
100
AcDbEntity
  8
0
  6
Continuous
 62
     7
370
    25
100
AcDbLine
 10
-90.9761400167
 20
473.3288938271
 30
0.0
 11
-90.1761400167
 21
473.3288938271
 31
0.0
  0
LINE
  5
46E
330
1F
100
AcDbEntity
  8
0
  6
Continuous
 62
     7
370
    25
100
AcDbLine
 10
-90.1761400167
 20
463.1288938271
 30
0.0
 11
-90.1761400167
 21
473.3288938271
 31
0.0
  0
LINE
  5
46F
330
1F
100
AcDbEntity
  8
0
  6
Continuous
 62
     7
370
    25
100
AcDbLine
 10
-45.9761400167
 20
462.1288938271
 30
0.0
 11
-45.9761400167
 21
461.3288938271
 31
0.0
  0
LINE
  5
470
330
1F
100
AcDbEntity
  8
0
  6
Continuous
 62
     7
370
    25
100
AcDbLine
 10
-45.9761400167
 20
461.3288938271
 30
0.0
 11
-48.9761400167
 21
461.3288938271
 31
0.0
  0
LINE
  5
471
330
1F
100
AcDbEntity
  8
0
  6
Continuous
 62
     7
370
    25
100
AcDbLine
 10
-48.9761400167
 20
462.1288938271
 30
0.0
 11
-45.9761400167
 21
462.1288938271
 31
0.0
  0
LINE
  5
472
330
1F
100
AcDbEntity
  8
0
  6
Continuous
 62
     7
370
    25
100
AcDbLine
 10
-69.9761400167
 20
461.3288938271
 30
0.0
 11
-48.9761400167
 21
461.3288938271
 31
0.0
  0
LINE
  5
473
330
1F
100
AcDbEntity
  8
0
  6
Continuous
 62
     7
370
    25
100
AcDbLine
 10
-69.9761400167
 20
462.1288938271
 30
0.0
 11
-48.9761400167
 21
462.1288938271
 31
0.0
  0
LINE
  5
474
330
1F
100
AcDbEntity
  8
0
  6
Continuous
 62
     7
370
    25
100
AcDbLine
 10
-56.5892180785
 20
466.3288938271
 30
0.0
 11
-50.0715266249
 21
466.3288938271
 31
0.0
  0
LINE
  5
475
330
1F
100
AcDbEntity
  8
0
  6
Continuous
 62
     7
370
    25
100
AcDbLine
 10
-56.5892180785
 20
465.5288938271
 30
0.0
 11
-50.0715266249
 21
465.5288938271
 31
0.0
  0
LINE
  5
476
330
1F
100
AcDbEntity
  8
0
  6
Continuous
 62
     7
370
    25
100
AcDbLine
 10
-47.0715266249
 20
466.3288938271
 30
0.0
 11
-47.0715266249
 21
465.5288938271
 31
0.0
  0
LINE
  5
477
330
1F
100
AcDbEntity
  8
0
  6
Continuous
 62
     7
370
    25
100
AcDbLine
 10
-50.0715266249
 20
466.3288938271
 30
0.0
 11
-47.0715266249
 21
466.3288938271
 31
0.0
  0
LINE
  5
478
330
1F
100
AcDbEntity
  8
0
  6
Continuous
 62
     7
370
    25
100
AcDbLine
 10
-47.0715266249
 20
465.5288938271
 30
0.0
 11
-50.0715266249
 21
465.5288938271
 31
0.0
  0
ARC
  5
479
330
1F
100
AcDbEntity
  8
0
  6
Continuous
 62
     7
370
    25
100
AcDbCircle
 10
-64.6140892091
 20
463.1288938271
 30
0.0
 40
1.0
100
AcDbArc
 50
270.0
 51
300.0
  0
ARC
  5
47A
330
1F
100
AcDbEntity
  8
0
  6
Continuous
 62
     7
370
    25
100
AcDbCircle
 10
-56.5892180785
 20
464.5288938271
 30
0.0
 40
1.800000000000011
100
AcDbArc
 50
90.0
 51
120.0
  0
ARC
  5
47B
330
1F
100
AcDbEntity
  8
0
  6
Continuous
 62
     7
370
    25
100
AcDbCircle
 10
-56.5892180785
 20
464.5288938271
 30
0.0
 40
1.000000000000019
100
AcDbArc
 50
90.0
 51
120.0
  0
LINE
  5
47C
330
1F
100
AcDbEntity
  8
0
  6
Continuous
 62
     7
370
    25
100
AcDbLine
 10
-57.4892180785
 20
466.0877395539
 30
0.0
 11
-64.1140892091
 21
462.2628684233
 31
0.0
  0
LINE
  5
47D
330
1F
100
AcDbEntity
  8
0
  6
Continuous
 62
     7
370
    25
100
AcDbLine
 10
-57.0892180785
 20
465.3949192309
 30
0.0
 11
-62.7461400167
 21
462.1288938271
 31
0.0
  0
CIRCLE
  5
47E
330
1F
100
AcDbEntity
  8
0
  6
Continuous
 62
     7
370
    25
100
AcDbCircle
 10
-78.4761400167
 20
468.8288938271
 30
0.0
 40
2.458750000016638
  0
CIRCLE
  5
47F
330
1F
100
AcDbEntity
  8
0
  6
Continuous
 62
     7
370
    25
100
AcDbCircle
 10
-78.4761400167
 20
468.8288938271
 30
0.0
 40
3.000000000000003
  0
SPLINE
  5
480
330
1F
100
AcDbEntity
  8
0
  6
Continuous
 62
     7
370
    25
100
AcDbSpline
210
0.0
220
0.0
230
1.0
 70
     8
 71
     3
 72
    12
 73
     8
 74
     0
 42
0.000000001
 43
0.00000001
 40
0.0
 40
0.0
 40
0.0
 40
0.0
 40
0.4999999999999937
 40
0.4999999999999937
 40
0.7499999999999968
 40
0.7499999999999968
 40
1.0
 40
1.0
 40
1.0
 40
1.0
 10
-89.56146003129928
 20
467.3880645052228
 30
0.0
 10
-89.75195432072279
 20
466.9717634215683
 30
0.0
 10
-89.87362873378515
 20
466.5492248935799
 30
0.0
 10
-89.87428492431641
 20
465.898934754119
 30
0.0
 10
-89.84445092252201
 20
465.6823925362047
 30
0.0
 10
-89.73552105241443
 20
465.2570245309642
 30
0.0
 10
-89.65682586535155
 20
465.0468725519789
 30
0.0
 10
-89.5614600312988
 20
464.8384626296663
 30
0.0
  0
LINE
  5
481
330
1F
100
AcDbEntity
  8
0
  6
Continuous
 62
     7
370
    25
100
AcDbLine
 10
-89.5614600313
 20
464.8384626297
 30
0.0
 11
-89.6593350685
 21
465.08136738
 31
0.0
  0
SPLINE
  5
482
330
1F
100
AcDbEntity
  8
0
  6
Continuous
 62
     7
370
    25
100
AcDbSpline
210
0.0
220
0.0
230
1.0
 70
     8
 71
     3
 72
    12
 73
     8
 74
     0
 42
0.000000001
 43
0.00000001
 40
0.0
 40
0.0
 40
0.0
 40
0.0
 40
0.4999999999999847
 40
0.4999999999999847
 40
0.7499999999999923
 40
0.7499999999999923
 40
1.0
 40
1.0
 40
1.0
 40
1.0
 10
-89.56146003129929
 20
472.8193250245202
 30
0.0
 10
-89.75195432072282
 20
472.584065232077
 30
0.0
 10
-89.87362873378518
 20
472.3452805392265
 30
0.0
 10
-89.87428492431641
 20
471.9777890066695
 30
0.0
 10
-89.84445092252203
 20
471.8554168120202
 30
0.0
 10
-89.73552105241441
 20
471.6150331268606
 30
0.0
 10
-89.65682586535154
 20
471.4962721797991
 30
0.0
 10
-89.5614600312988
 20
471.3784957026496
 30
0.0
  0
SPLINE
  5
483
330
1F
100
AcDbEntity
  8
0
  6
Continuous
 62
     7
370
    25
100
AcDbSpline
210
0.0
220
0.0
230
1.0
 70
     8
 71
     3
 72
    14
 73
    10
 74
     0
 42
0.000000001
 43
0.00000001
 40
0.0
 40
0.0
 40
0.0
 40
0.0
 40
0.25
 40
0.25
 40
0.5
 40
0.5
 40
0.75
 40
0.75
 40
1.0
 40
1.0
 40
1.0
 40
1.0
 10
-89.5614600312983
 20
471.3784957026496
 30
0.0
 10
-89.6563346406089
 20
471.0539894733609
 30
0.0
 10
-89.73593956548466
 20
470.7215302509666
 30
0.0
 10
-89.84477618037889
 20
470.0549603360584
 30
0.0
 10
-89.8740997860694
 20
469.7198840787832
 30
0.0
 10
-89.8740350043238
 20
469.0455406085555
 30
0.0
 10
-89.84387881099742
 20
468.7037611878766
 30
0.0
 10
-89.73429360963172
 20
468.0373472682718
 30
0.0
 10
-89.65575063582955
 20
467.7105732223191
 30
0.0
 10
-89.5614600312983
 20
467.3880645052228
 30
0.0
  0
LINE
  5
484
330
1F
100
AcDbEntity
  8
0
  6
Continuous
 62
     7
370
    25
100
AcDbLine
 10
-90.0761400167
 20
465.6788938271
 30
0.0
 11
-90.0761400167
 21
471.9788938271
 31
0.0
  0
LINE
  5
485
330
1F
100
AcDbEntity
  8
0
  6
Continuous
 62
     7
370
    25
100
AcDbLine
 10
-88.9761400167
 20
467.3880645052
 30
0.0
 11
-89.5614600313
 21
467.3880645052
 31
0.0
  0
LINE
  5
486
330
1F
100
AcDbEntity
  8
0
  6
Continuous
 62
     7
370
    25
100
AcDbLine
 10
-88.9761400167
 20
471.3784957026
 30
0.0
 11
-89.5614600313
 21
471.3784957026
 31
0.0
  0
LINE
  5
487
330
1F
100
AcDbEntity
  8
0
  6
Continuous
 62
     7
370
    25
100
AcDbLine
 10
-88.9761400167
 20
464.8384626297
 30
0.0
 11
-89.5614600313
 21
464.8384626297
 31
0.0
  0
LINE
  5
488
330
1F
100
AcDbEntity
  8
0
  6
Continuous
 62
     7
370
    25
100
AcDbLine
 10
-88.9761400167
 20
472.8193250245
 30
0.0
 11
-89.5614600313
 21
472.8193250245
 31
0.0
  0
LINE
  5
489
330
1F
100
AcDbEntity
  8
0
  6
Continuous
 62
     7
370
    25
100
AcDbLine
 10
-92.7761400167
 20
478.8288938271
 30
0.0
 11
-102.6761400167
 21
478.8288938271
 31
0.0
  0
LINE
  5
48A
330
1F
100
AcDbEntity
  8
0
  6
Continuous
 62
     7
370
    25
100
AcDbLine
 10
-92.7761400167
 20
478.0288938271
 30
0.0
 11
-92.7761400167
 21
478.8288938271
 31
0.0
  0
LINE
  5
48B
330
1F
100
AcDbEntity
  8
0
  6
Continuous
 62
     7
370
    25
100
AcDbLine
 10
-102.6761400167
 20
478.0288938271
 30
0.0
 11
-92.7761400167
 21
478.0288938271
 31
0.0
  0
LINE
  5
48C
330
1F
100
AcDbEntity
  8
0
  6
Continuous
 62
     7
370
    25
100
AcDbLine
 10
-102.6761400167
 20
478.0288938271
 30
0.0
 11
-102.6761400167
 21
477.9288938271
 31
0.0
  0
LINE
  5
48D
330
1F
100
AcDbEntity
  8
0
  6
Continuous
 62
     7
370
    25
100
AcDbLine
 10
-102.6761400167
 20
477.9288938271
 30
0.0
 11
-97.5261400167
 21
477.9288938271
 31
0.0
  0
LINE
  5
48E
330
1F
100
AcDbEntity
  8
0
  6
Continuous
 62
     7
370
    25
100
AcDbLine
 10
-97.5261400167
 20
477.1288938271
 30
0.0
 11
-97.5261400167
 21
477.9288938271
 31
0.0
  0
LINE
  5
48F
330
1F
100
AcDbEntity
  8
0
  6
Continuous
 62
     7
370
    25
100
AcDbLine
 10
-102.6761400167
 20
477.1288938271
 30
0.0
 11
-97.5261400167
 21
477.1288938271
 31
0.0
  0
ARC
  5
490
330
1F
100
AcDbEntity
  8
0
  6
Continuous
 62
     7
370
    25
100
AcDbCircle
 10
-102.6761400167
 20
477.9788938271
 30
0.0
 40
0.8500000000000227
100
AcDbArc
 50
90.0
 51
270.0
  0
LINE
  5
491
330
1F
100
AcDbEntity
  8
0
  6
Continuous
 62
     7
370
    25
100
AcDbLine
 10
-92.7761400167
 20
459.6288938271
 30
0.0
 11
-97.0761400167
 21
459.6288938271
 31
0.0
  0
LINE
  5
492
330
1F
100
AcDbEntity
  8
0
  6
Continuous
 62
     7
370
    25
100
AcDbLine
 10
-92.7761400167
 20
458.8288938271
 30
0.0
 11
-92.7761400167
 21
459.6288938271
 31
0.0
  0
LINE
  5
493
330
1F
100
AcDbEntity
  8
0
  6
Continuous
 62
     7
370
    25
100
AcDbLine
 10
-92.7761400167
 20
458.8288938271
 30
0.0
 11
-97.0761400167
 21
458.8288938271
 31
0.0
  0
LINE
  5
494
330
1F
100
AcDbEntity
  8
0
  6
Continuous
 62
     7
370
    25
100
AcDbLine
 10
-90.9761400167
 20
460.6288938271
 30
0.0
 11
-90.9761400167
 21
477.0288938271
 31
0.0
  0
ARC
  5
495
330
1F
100
AcDbEntity
  8
0
  6
Continuous
 62
     7
370
    25
100
AcDbCircle
 10
-92.7761400167
 20
460.6288938271
 30
0.0
 40
1.800000000000125
100
AcDbArc
 50
270.0
 51
0.0
  0
LINE
  5
496
330
1F
100
AcDbEntity
  8
0
  6
Continuous
 62
     7
370
    25
100
AcDbLine
 10
-91.7761400167
 20
460.6288938271
 30
0.0
 11
-91.7761400167
 21
477.0288938271
 31
0.0
  0
ARC
  5
497
330
1F
100
AcDbEntity
  8
0
  6
Continuous
 62
     7
370
    25
100
AcDbCircle
 10
-92.7761400167
 20
477.0288938271
 30
0.0
 40
1.000000000000057
100
AcDbArc
 50
360.0
 51
90.0
  0
ARC
  5
498
330
1F
100
AcDbEntity
  8
0
  6
Continuous
 62
     7
370
    25
100
AcDbCircle
 10
-92.7761400167
 20
477.0288938271
 30
0.0
 40
1.800000000000068
100
AcDbArc
 50
0.0
 51
90.0
  0
ARC
  5
499
330
1F
100
AcDbEntity
  8
0
  6
Continuous
 62
     7
370
    25
100
AcDbCircle
 10
-92.7761400167
 20
460.6288938271
 30
0.0
 40
1.000000000000043
100
AcDbArc
 50
270.0
 51
0.0
  0
LINE
  5
49A
330
1F
100
AcDbEntity
  8
0
  6
Continuous
 62
     7
370
    25
100
AcDbLine
 10
-93.7761400167
 20
472.8288938271
 30
0.0
 11
-93.7761400167
 21
464.8288938271
 31
0.0
  0
LWPOLYLINE
  5
49B
330
1F
100
AcDbEntity
  8
0
  6
Continuous
 62
     7
370
    25
100
AcDbPolyline
 90
        3
 70
   128
 43
0.0
 10
-94.7821841331
 20
469.5526752316
 10
-94.7865846583
 20
469.5099799009
 10
-94.8028095069
 20
469.326281572
  0
ARC
  5
49C
330
1F
100
AcDbEntity
  8
0
  6
Continuous
 62
     7
370
    25
100
AcDbCircle
 10
-94.2784165825
 20
469.6394094095
 30
0.0
 40
0.6107675350076313
100
AcDbArc
 50
210.8424581413
 51
243.3898036634
  0
ARC
  5
49D
330
1F
100
AcDbEntity
  8
0
  6
Continuous
 62
     7
370
    25
100
AcDbCircle
 10
-85.3954826612
 20
468.4978964582
 30
0.0
 40
9.175815043572145
100
AcDbArc
 50
177.9327321275
 51
179.6562101057
  0
ARC
  5
49E
330
1F
100
AcDbEntity
  8
0
  6
Continuous
 62
     7
370
    25
100
AcDbCircle
 10
-87.0391601189
 20
468.734756552
 30
0.0
 40
7.786288415099811
100
AcDbArc
 50
184.3702527064
 51
195.2299003794
  0
ARC
  5
49F
330
1F
100
AcDbEntity
  8
0
  6
Continuous
 62
     7
370
    25
100
AcDbCircle
 10
-94.3308684517
 20
466.7843927108
 30
0.0
 40
0.2406805056722796
100
AcDbArc
 50
156.7420981705
 51
203.2579018295
  0
ARC
  5
4A0
330
1F
100
AcDbEntity
  8
0
  6
Continuous
 62
     7
370
    25
100
AcDbCircle
 10
-87.0391601189
 20
468.9248318469
 30
0.0
 40
7.786288415096096
100
AcDbArc
 50
184.3702527064
 51
195.2299003794
  0
ARC
  5
4A1
330
1F
100
AcDbEntity
  8
0
  6
Continuous
 62
     7
370
    25
100
AcDbCircle
 10
-94.2784165825
 20
468.0183782446
 30
0.0
 40
0.6107675350084701
100
AcDbArc
 50
116.6101963367
 51
149.1575418587
  0
ARC
  5
4A2
330
1F
100
AcDbEntity
  8
0
  6
Continuous
 62
     7
370
    25
100
AcDbCircle
 10
-85.472354441
 20
469.1568753397
 30
0.0
 40
9.098942710253448
100
AcDbArc
 50
176.2668736478
 51
183.7331263522
  0
ARC
  5
4A3
330
1F
100
AcDbEntity
  8
0
  6
Continuous
 62
     7
370
    25
100
AcDbCircle
 10
-94.2784165825
 20
469.2032290294
 30
0.0
 40
0.6107675350088264
100
AcDbArc
 50
116.6101963367
 51
149.1575418587
  0
ARC
  5
4A4
330
1F
100
AcDbEntity
  8
0
  6
Continuous
 62
     7
370
    25
100
AcDbCircle
 10
-87.0391601189
 20
468.9230311022
 30
0.0
 40
7.786288415098545
100
AcDbArc
 50
164.7700996206
 51
175.6297472936
  0
ARC
  5
4A5
330
1F
100
AcDbEntity
  8
0
  6
Continuous
 62
     7
370
    25
100
AcDbCircle
 10
-94.4189062381
 20
470.8944962039
 30
0.0
 40
0.1522432420620239
100
AcDbArc
 50
150.9451665856
 51
179.1449116572
  0
LINE
  5
4A6
330
1F
100
AcDbEntity
  8
0
  6
Continuous
 62
     7
370
    25
100
AcDbLine
 10
-94.8028095069
 20
469.516356867
 30
0.0
 11
-94.5642538491
 21
469.516356867
 31
0.0
  0
LINE
  5
4A7
330
1F
100
AcDbEntity
  8
0
  6
Continuous
 62
     7
370
    25
100
AcDbLine
 10
-94.8028095069
 20
468.1414307872
 30
0.0
 11
-94.7859425152
 21
468.1414307872
 31
0.0
  0
LINE
  5
4A8
330
1F
100
AcDbEntity
  8
0
  6
Continuous
 62
     7
370
    25
100
AcDbLine
 10
-94.8028095069
 20
469.326281572
 30
0.0
 11
-94.5697591906
 21
469.326281572
 31
0.0
  0
LINE
  5
4A9
330
1F
100
AcDbEntity
  8
0
  6
Continuous
 62
     7
370
    25
100
AcDbLine
 10
-70.5761400167
 20
410.1632006645
 30
0.0
 11
-70.5761400167
 21
405.0221244276
 31
0.0
  0
ARC
  5
4AA
330
1F
100
AcDbEntity
  8
0
  6
Continuous
 62
     7
370
    25
100
AcDbCircle
 10
-72.5176511275
 20
405.0843670035
 30
0.0
 40
1.9425085666553
100
AcDbArc
 50
268.2745645851
 51
358.1637932023
  0
LINE
  5
4AB
330
1F
100
AcDbEntity
  8
0
  6
Continuous
 62
     7
370
    25
100
AcDbLine
 10
-72.5761400167
 20
403.142739186
 30
0.0
 11
-84.5761400167
 21
403.142739186
 31
0.0
  0
ARC
  5
4AC
330
1F
100
AcDbEntity
  8
0
  6
Continuous
 62
     7
370
    25
100
AcDbCircle
 10
-84.6346289059
 20
405.0843670035
 30
0.0
 40
1.942508566655317
100
AcDbArc
 50
181.8362067977
 51
271.7254354149
  0
LINE
  5
4AD
330
1F
100
AcDbEntity
  8
0
  6
Continuous
 62
     7
370
    25
100
AcDbLine
 10
-86.5761400167
 20
405.0221244276
 30
0.0
 11
-86.5761400167
 21
410.1632006645
 31
0.0
  0
LINE
  5
4AE
330
1F
100
AcDbEntity
  8
0
  6
Continuous
 62
     7
370
    25
100
AcDbLine
 10
-70.5761400167
 20
405.0221244276
 30
0.0
 11
-70.5761400167
 21
404.338084141
 31
0.0
  0
ARC
  5
4AF
330
1F
100
AcDbEntity
  8
0
  6
Continuous
 62
     7
370
    25
100
AcDbCircle
 10
-72.5176511275
 20
404.4003267168
 30
0.0
 40
1.942508566655189
100
AcDbArc
 50
268.2745645851
 51
358.1637932023
  0
LINE
  5
4B0
330
1F
100
AcDbEntity
  8
0
  6
Continuous
 62
     7
370
    25
100
AcDbLine
 10
-72.5761400167
 20
402.4586988994
 30
0.0
 11
-84.5761400167
 21
402.4586988994
 31
0.0
  0
LINE
  5
4B1
330
1F
100
AcDbEntity
  8
0
  6
Continuous
 62
     7
370
    25
100
AcDbLine
 10
-86.5761400167
 20
404.338084141
 30
0.0
 11
-86.5761400167
 21
405.0221244276
 31
0.0
  0
ARC
  5
4B2
330
1F
100
AcDbEntity
  8
0
  6
Continuous
 62
     7
370
    25
100
AcDbCircle
 10
-84.6346289059
 20
404.4003267168
 30
0.0
 40
1.942508566655257
100
AcDbArc
 50
181.8362067977
 51
271.7254354149
  0
LINE
  5
4B3
330
1F
100
AcDbEntity
  8
0
  6
Continuous
 62
     7
370
    25
100
AcDbLine
 10
-86.5761400167
 20
410.5052208078
 30
0.0
 11
-86.5761400167
 21
410.1632006645
 31
0.0
  0
LINE
  5
4B4
330
1F
100
AcDbEntity
  8
0
  6
Continuous
 62
     7
370
    25
100
AcDbLine
 10
-70.5761400167
 20
410.1632006645
 30
0.0
 11
-70.5761400167
 21
410.5052208078
 31
0.0
  0
LINE
  5
4B5
330
1F
100
AcDbEntity
  8
0
  6
Continuous
 62
     7
370
    25
100
AcDbLine
 10
-97.0761400167
 20
410.3288938271
 30
0.0
 11
-86.5761400167
 21
410.3288938271
 31
0.0
  0
LINE
  5
4B6
330
1F
100
AcDbEntity
  8
0
  6
Continuous
 62
     7
370
    25
100
AcDbLine
 10
-72.5761400167
 20
425.3288938271
 30
0.0
 11
-97.0761400167
 21
425.3288938271
 31
0.0
  0
CIRCLE
  5
4B7
330
1F
100
AcDbEntity
  8
0
  6
Continuous
 62
     7
370
    25
100
AcDbCircle
 10
-78.4761400167
 20
417.8288938271
 30
0.0
 40
3.5
  0
LINE
  5
4B8
330
1F
100
AcDbEntity
  8
0
  6
Continuous
 62
     7
370
    25
100
AcDbLine
 10
-70.5761400167
 20
410.5052208078
 30
0.0
 11
-70.5761400167
 21
423.3288938271
 31
0.0
  0
ARC
  5
4B9
330
1F
100
AcDbEntity
  8
0
  6
Continuous
 62
     7
370
    25
100
AcDbCircle
 10
-72.5761400167
 20
423.3288938271
 30
0.0
 40
2.0
100
AcDbArc
 50
0.0
 51
90.0
  0
LINE
  5
4BA
330
1F
100
AcDbEntity
  8
0
  6
Continuous
 62
     7
370
    25
100
AcDbLine
 10
-84.5761400167
 20
132.5150484681
 30
0.0
 11
-72.5761400167
 21
132.5150484681
 31
0.0
  0
LINE
  5
4BB
330
1F
100
AcDbEntity
  8
0
  6
Continuous
 62
     7
370
    25
100
AcDbLine
 10
-84.5761400167
 20
133.1990887548
 30
0.0
 11
-72.5761400167
 21
133.1990887548
 31
0.0
  0
LINE
  5
4BC
330
1F
100
AcDbEntity
  8
0
  6
Continuous
 62
     7
370
    25
100
AcDbLine
 10
-70.5761400167
 20
131.3197035132
 30
0.0
 11
-70.5761400167
 21
130.6356632266
 31
0.0
  0
ARC
  5
4BD
330
1F
100
AcDbEntity
  8
0
  6
Continuous
 62
     7
370
    25
100
AcDbCircle
 10
-72.5176511275
 20
130.5734206507
 30
0.0
 40
1.942508566655271
100
AcDbArc
 50
1.8362067977
 51
91.7254354149
  0
ARC
  5
4BE
330
1F
100
AcDbEntity
  8
0
  6
Continuous
 62
     7
370
    25
100
AcDbCircle
 10
-72.5176511275
 20
131.2574609374
 30
0.0
 40
1.942508566655245
100
AcDbArc
 50
1.8362067977
 51
91.7254354149
  0
LINE
  5
4BF
330
1F
100
AcDbEntity
  8
0
  6
Continuous
 62
     7
370
    25
100
AcDbLine
 10
-70.5761400167
 20
130.6356632266
 30
0.0
 11
-70.5761400167
 21
125.4945869897
 31
0.0
  0
LINE
  5
4C0
330
1F
100
AcDbEntity
  8
0
  6
Continuous
 62
     7
370
    25
100
AcDbLine
 10
-86.5761400167
 20
125.4945869897
 30
0.0
 11
-86.5761400167
 21
130.6356632266
 31
0.0
  0
ARC
  5
4C1
330
1F
100
AcDbEntity
  8
0
  6
Continuous
 62
     7
370
    25
100
AcDbCircle
 10
-84.6346289059
 20
130.5734206507
 30
0.0
 40
1.942508566655244
100
AcDbArc
 50
88.2745645851
 51
178.1637932023
  0
LINE
  5
4C2
330
1F
100
AcDbEntity
  8
0
  6
Continuous
 62
     7
370
    25
100
AcDbLine
 10
-86.5761400167
 20
130.6356632266
 30
0.0
 11
-86.5761400167
 21
131.3197035132
 31
0.0
  0
ARC
  5
4C3
330
1F
100
AcDbEntity
  8
0
  6
Continuous
 62
     7
370
    25
100
AcDbCircle
 10
-84.6346289059
 20
131.2574609374
 30
0.0
 40
1.942508566655201
100
AcDbArc
 50
88.2745645851
 51
178.1637932023
  0
LINE
  5
4C4
330
1F
100
AcDbEntity
  8
0
  6
Continuous
 62
     7
370
    25
100
AcDbLine
 10
-86.5761400167
 20
125.4945869897
 30
0.0
 11
-86.5761400167
 21
125.1525668464
 31
0.0
  0
LINE
  5
4C5
330
1F
100
AcDbEntity
  8
0
  6
Continuous
 62
     7
370
    25
100
AcDbLine
 10
-70.5761400167
 20
125.1525668464
 30
0.0
 11
-70.5761400167
 21
125.4945869897
 31
0.0
  0
LINE
  5
4C6
330
1F
100
AcDbEntity
  8
0
  6
Continuous
 62
     7
370
    25
100
AcDbLine
 10
-86.5761400167
 20
125.3288938271
 30
0.0
 11
-97.0761400167
 21
125.3288938271
 31
0.0
  0
ARC
  5
4C7
330
1F
100
AcDbEntity
  8
0
  6
Continuous
 62
     7
370
    25
100
AcDbCircle
 10
-72.5761400167
 20
112.3288938271
 30
0.0
 40
2.0
100
AcDbArc
 50
270.0
 51
0.0
  0
CIRCLE
  5
4C8
330
1F
100
AcDbEntity
  8
0
  6
Continuous
 62
     7
370
    25
100
AcDbCircle
 10
-78.4761400167
 20
117.8288938271
 30
0.0
 40
3.5
  0
LINE
  5
4C9
330
1F
100
AcDbEntity
  8
0
  6
Continuous
 62
     7
370
    25
100
AcDbLine
 10
-97.0761400167
 20
110.3288938271
 30
0.0
 11
-72.5761400167
 21
110.3288938271
 31
0.0
  0
LINE
  5
4CA
330
1F
100
AcDbEntity
  8
0
  6
Continuous
 62
     7
370
    25
100
AcDbLine
 10
-70.5761400167
 20
112.3288938271
 30
0.0
 11
-70.5761400167
 21
125.1525668464
 31
0.0
  0
CIRCLE
  5
4CB
330
1F
100
AcDbEntity
  8
0
  6
Continuous
 62
     7
370
    25
100
AcDbCircle
 10
-78.4761400167
 20
417.8288938271
 30
0.0
 40
2.458750000016647
  0
CIRCLE
  5
4CC
330
1F
100
AcDbEntity
  8
0
  6
Continuous
 62
     7
370
    25
100
AcDbCircle
 10
-78.4761400167
 20
417.8288938271
 30
0.0
 40
2.999999999999994
  0
ENDSEC
  0
SECTION
  2
OBJECTS
  0
DICTIONARY
  5
C
330
0
100
AcDbDictionary
281
     1
  3
ACAD_GROUP
350
D
  3
ACAD_LAYOUT
350
1A
  3
ACAD_MLINESTYLE
350
17
  3
ACAD_PLOTSETTINGS
350
19
  3
ACAD_PLOTSTYLENAME
350
E
  3
ACAD_SCALELIST
350
47
  0
DICTIONARY
  5
D
102
{ACAD_REACTORS
330
C
102
}
330
C
100
AcDbDictionary
281
     1
  0
DICTIONARY
  5
1A
102
{ACAD_REACTORS
330
C
102
}
330
C
100
AcDbDictionary
281
     1
  3
Layout1
350
1E
  3
Layout2
350
26
  3
Model
350
22
  0
DICTIONARY
  5
17
102
{ACAD_REACTORS
330
C
102
}
330
C
100
AcDbDictionary
281
     1
  3
Standard
350
18
  0
DICTIONARY
  5
19
102
{ACAD_REACTORS
330
C
102
}
330
C
100
AcDbDictionary
281
     1
  0
ACDBDICTIONARYWDFLT
  5
E
102
{ACAD_REACTORS
330
C
102
}
330
C
100
AcDbDictionary
281
     1
  3
Normal
350
F
100
AcDbDictionaryWithDefault
340
F
  0
DICTIONARY
  5
47
102
{ACAD_REACTORS
330
C
102
}
330
C
100
AcDbDictionary
281
     1
  3
A0
350
48
  3
A1
350
49
  3
A2
350
4A
  3
A3
350
4B
  3
A4
350
4C
  3
A5
350
4D
  3
A6
350
4E
  3
A7
350
4F
  3
A8
350
50
  3
A9
350
51
  3
B0
350
52
  3
B1
350
53
  3
B2
350
54
  3
B3
350
55
  3
B4
350
56
  3
B5
350
57
  3
B6
350
58
  3
B7
350
59
  3
B8
350
5A
  3
B9
350
5B
  3
C0
350
5C
  3
C1
350
5D
  3
C2
350
5E
  3
C3
350
5F
  3
C4
350
60
  3
C5
350
61
  3
C6
350
62
  3
C7
350
63
  3
C8
350
64
  3
C9
350
65
  3
D0
350
66
  3
D1
350
67
  3
D2
350
68
  0
LAYOUT
  5
1E
102
{ACAD_REACTORS
330
1A
102
}
330
1A
100
AcDbPlotSettings
  1

  2
none_device
  4

  6

 40
0.0
 41
0.0
 42
0.0
 43
0.0
 44
0.0
 45
0.0
 46
0.0
 47
0.0
 48
0.0
 49
0.0
140
0.0
141
0.0
142
1.0
143
1.0
 70
   688
 72
     1
 73
     0
 74
     5
  7

 75
    16
147
1.0
148
0.0
149
0.0
100
AcDbLayout
  1
Layout1
 70
     1
 71
     1
 10
0.0
 20
0.0
 11
420.0
 21
297.0
 12
0.0
 22
0.0
 32
0.0
 14
1.0000000000E+20
 24
1.0000000000E+20
 34
1.0000000000E+20
 15
-1.0000000000E+20
 25
-1.0000000000E+20
 35
-1.0000000000E+20
146
0.0
 13
0.0
 23
0.0
 33
0.0
 16
1.0
 26
0.0
 36
0.0
 17
0.0
 27
1.0
 37
0.0
 76
     0
330
1B
  0
LAYOUT
  5
26
102
{ACAD_REACTORS
330
1A
102
}
330
1A
100
AcDbPlotSettings
  1

  2
none_device
  4

  6

 40
0.0
 41
0.0
 42
0.0
 43
0.0
 44
0.0
 45
0.0
 46
0.0
 47
0.0
 48
0.0
 49
0.0
140
0.0
141
0.0
142
1.0
143
1.0
 70
   688
 72
     1
 73
     0
 74
     5
  7

 75
    16
147
1.0
148
0.0
149
0.0
100
AcDbLayout
  1
Layout2
 70
     1
 71
     2
 10
0.0
 20
0.0
 11
0.0
 21
0.0
 12
0.0
 22
0.0
 32
0.0
 14
0.0
 24
0.0
 34
0.0
 15
0.0
 25
0.0
 35
0.0
146
0.0
 13
0.0
 23
0.0
 33
0.0
 16
1.0
 26
0.0
 36
0.0
 17
0.0
 27
1.0
 37
0.0
 76
     0
330
23
  0
LAYOUT
  5
22
102
{ACAD_REACTORS
330
1A
102
}
330
1A
100
AcDbPlotSettings
  1

  2
none_device
  4
Letter_(8.50_x_11.00_Inches)
  6

 40
6.35
 41
6.35
 42
6.35000508
 43
6.35000508
 44
215.9
 45
279.4
 46
0.0
 47
0.0
 48
0.0
 49
0.0
140
0.0
141
0.0
142
1.0
143
1.0
 70
  1712
 72
     1
 73
     0
 74
     0
  7

 75
     0
147
1.0
148
0.0
149
0.0
100
AcDbLayout
  1
Model
 70
     1
 71
     0
 10
0.0
 20
0.0
 11
841.0
 21
594.0
 12
0.0
 22
0.0
 32
0.0
 14
0.0
 24
0.0
 34
0.0
 15
841.0
 25
594.0
 35
0.0
146
0.0
 13
0.0
 23
0.0
 33
0.0
 16
1.0
 26
0.0
 36
0.0
 17
0.0
 27
1.0
 37
0.0
 76
     0
330
1F
331
29
  0
MLINESTYLE
  5
18
102
{ACAD_REACTORS
330
17
102
}
330
17
100
AcDbMlineStyle
  2
Standard
 70
     0
  3

 62
   256
 51
90.0
 52
90.0
 71
     2
 49
0.5
 62
   256
  6
BYLAYER
 49
-0.5
 62
   256
  6
BYLAYER
  0
ACDBPLACEHOLDER
  5
F
102
{ACAD_REACTORS
330
E
102
}
330
E
  0
SCALE
  5
48
102
{ACAD_REACTORS
330
47
102
}
330
47
100
AcDbScale
 70
     0
300
1:1
140
1.0
141
1.0
290
     1
  0
SCALE
  5
49
102
{ACAD_REACTORS
330
47
102
}
330
47
100
AcDbScale
 70
     0
300
1:2
140
1.0
141
2.0
290
     0
  0
SCALE
  5
4A
102
{ACAD_REACTORS
330
47
102
}
330
47
100
AcDbScale
 70
     0
300
1:4
140
1.0
141
4.0
290
     0
  0
SCALE
  5
4B
102
{ACAD_REACTORS
330
47
102
}
330
47
100
AcDbScale
 70
     0
300
1:5
140
1.0
141
5.0
290
     0
  0
SCALE
  5
4C
102
{ACAD_REACTORS
330
47
102
}
330
47
100
AcDbScale
 70
     0
300
1:8
140
1.0
141
8.0
290
     0
  0
SCALE
  5
4D
102
{ACAD_REACTORS
330
47
102
}
330
47
100
AcDbScale
 70
     0
300
1:10
140
1.0
141
10.0
290
     0
  0
SCALE
  5
4E
102
{ACAD_REACTORS
330
47
102
}
330
47
100
AcDbScale
 70
     0
300
1:16
140
1.0
141
16.0
290
     0
  0
SCALE
  5
4F
102
{ACAD_REACTORS
330
47
102
}
330
47
100
AcDbScale
 70
     0
300
1:20
140
1.0
141
20.0
290
     0
  0
SCALE
  5
50
102
{ACAD_REACTORS
330
47
102
}
330
47
100
AcDbScale
 70
     0
300
1:30
140
1.0
141
30.0
290
     0
  0
SCALE
  5
51
102
{ACAD_REACTORS
330
47
102
}
330
47
100
AcDbScale
 70
     0
300
1:40
140
1.0
141
40.0
290
     0
  0
SCALE
  5
52
102
{ACAD_REACTORS
330
47
102
}
330
47
100
AcDbScale
 70
     0
300
1:50
140
1.0
141
50.0
290
     0
  0
SCALE
  5
53
102
{ACAD_REACTORS
330
47
102
}
330
47
100
AcDbScale
 70
     0
300
1:100
140
1.0
141
100.0
290
     0
  0
SCALE
  5
54
102
{ACAD_REACTORS
330
47
102
}
330
47
100
AcDbScale
 70
     0
300
2:1
140
2.0
141
1.0
290
     0
  0
SCALE
  5
55
102
{ACAD_REACTORS
330
47
102
}
330
47
100
AcDbScale
 70
     0
300
4:1
140
4.0
141
1.0
290
     0
  0
SCALE
  5
56
102
{ACAD_REACTORS
330
47
102
}
330
47
100
AcDbScale
 70
     0
300
8:1
140
8.0
141
1.0
290
     0
  0
SCALE
  5
57
102
{ACAD_REACTORS
330
47
102
}
330
47
100
AcDbScale
 70
     0
300
10:1
140
10.0
141
1.0
290
     0
  0
SCALE
  5
58
102
{ACAD_REACTORS
330
47
102
}
330
47
100
AcDbScale
 70
     0
300
100:1
140
100.0
141
1.0
290
     0
  0
SCALE
  5
59
102
{ACAD_REACTORS
330
47
102
}
330
47
100
AcDbScale
 70
     0
300
1/128" = 1'-0"
140
0.0078125
141
12.0
290
     0
  0
SCALE
  5
5A
102
{ACAD_REACTORS
330
47
102
}
330
47
100
AcDbScale
 70
     0
300
1/64" = 1'-0"
140
0.015625
141
12.0
290
     0
  0
SCALE
  5
5B
102
{ACAD_REACTORS
330
47
102
}
330
47
100
AcDbScale
 70
     0
300
1/32" = 1'-0"
140
0.03125
141
12.0
290
     0
  0
SCALE
  5
5C
102
{ACAD_REACTORS
330
47
102
}
330
47
100
AcDbScale
 70
     0
300
1/16" = 1'-0"
140
0.0625
141
12.0
290
     0
  0
SCALE
  5
5D
102
{ACAD_REACTORS
330
47
102
}
330
47
100
AcDbScale
 70
     0
300
3/32" = 1'-0"
140
0.09375
141
12.0
290
     0
  0
SCALE
  5
5E
102
{ACAD_REACTORS
330
47
102
}
330
47
100
AcDbScale
 70
     0
300
1/8" = 1'-0"
140
0.125
141
12.0
290
     0
  0
SCALE
  5
5F
102
{ACAD_REACTORS
330
47
102
}
330
47
100
AcDbScale
 70
     0
300
3/16" = 1'-0"
140
0.1875
141
12.0
290
     0
  0
SCALE
  5
60
102
{ACAD_REACTORS
330
47
102
}
330
47
100
AcDbScale
 70
     0
300
1/4" = 1'-0"
140
0.25
141
12.0
290
     0
  0
SCALE
  5
61
102
{ACAD_REACTORS
330
47
102
}
330
47
100
AcDbScale
 70
     0
300
3/8" = 1'-0"
140
0.375
141
12.0
290
     0
  0
SCALE
  5
62
102
{ACAD_REACTORS
330
47
102
}
330
47
100
AcDbScale
 70
     0
300
1/2" = 1'-0"
140
0.5
141
12.0
290
     0
  0
SCALE
  5
63
102
{ACAD_REACTORS
330
47
102
}
330
47
100
AcDbScale
 70
     0
300
3/4" = 1'-0"
140
0.75
141
12.0
290
     0
  0
SCALE
  5
64
102
{ACAD_REACTORS
330
47
102
}
330
47
100
AcDbScale
 70
     0
300
1" = 1'-0"
140
1.0
141
12.0
290
     0
  0
SCALE
  5
65
102
{ACAD_REACTORS
330
47
102
}
330
47
100
AcDbScale
 70
     0
300
1-1/2" = 1'-0"
140
1.5
141
12.0
290
     0
  0
SCALE
  5
66
102
{ACAD_REACTORS
330
47
102
}
330
47
100
AcDbScale
 70
     0
300
3" = 1'-0"
140
3.0
141
12.0
290
     0
  0
SCALE
  5
67
102
{ACAD_REACTORS
330
47
102
}
330
47
100
AcDbScale
 70
     0
300
6" = 1'-0"
140
6.0
141
12.0
290
     0
  0
SCALE
  5
68
102
{ACAD_REACTORS
330
47
102
}
330
47
100
AcDbScale
 70
     0
300
1'-0" = 1'-0"
140
12.0
141
12.0
290
     0
  0
ENDSEC
  0
EOF
