  0
SECTION
  2
HEADER
  9
$ACADVER
  1
AC1015
  9
$ACADMAINTVER
 70
     6
  9
$DWGCODEPAGE
  3
ANSI_1251
  9
$INSBASE
 10
0.0
 20
0.0
 30
0.0
  9
$EXTMIN
 10
0.0
 20
0.0
 30
0.0
  9
$EXTMAX
 10
841.0
 20
594.0
 30
0.0
  9
$LIMMIN
 10
0.0
 20
0.0
  9
$LIMMAX
 10
841.0
 20
594.0
  9
$ORTHOMODE
 70
     0
  9
$REGENMODE
 70
     1
  9
$FILLMODE
 70
     1
  9
$QTEXTMODE
 70
     0
  9
$MIRRTEXT
 70
     1
  9
$LTSCALE
 40
1.0
  9
$ATTMODE
 70
     1
  9
$TEXTSIZE
 40
3.5
  9
$TRACEWID
 40
1.0
  9
$TEXTSTYLE
  7
Standard
  9
$CLAYER
  8
0
  9
$CELTYPE
  6
ByLayer
  9
$CECOLOR
 62
   256
  9
$CELTSCALE
 40
1.0
  9
$DISPSILH
 70
     0
  9
$DIMSCALE
 40
1.0
  9
$DIMASZ
 40
3.5
  9
$DIMEXO
 40
0.01
  9
$DIMDLI
 40
3.75
  9
$DIMRND
 40
0.0
  9
$DIMDLE
 40
0.0
  9
$DIMEXE
 40
1.0
  9
$DIMTP
 40
0.0
  9
$DIMTM
 40
0.0
  9
$DIMTXT
 40
3.5
  9
$DIMCEN
 40
2.5
  9
$DIMTSZ
 40
0.0
  9
$DIMTOL
 70
     0
  9
$DIMLIM
 70
     0
  9
$DIMTIH
 70
     1
  9
$DIMTOH
 70
     1
  9
$DIMSE1
 70
     0
  9
$DIMSE2
 70
     0
  9
$DIMTAD
 70
     1
  9
$DIMZIN
 70
     0
  9
$DIMBLK
  1

  9
$DIMASO
 70
     1
  9
$DIMSHO
 70
     1
  9
$DIMPOST
  1

  9
$DIMAPOST
  1

  9
$DIMALT
 70
     0
  9
$DIMALTD
 70
     3
  9
$DIMALTF
 40
0.0393700787
  9
$DIMLFAC
 40
1.0
  9
$DIMTOFL
 70
     1
  9
$DIMTVP
 40
0.0
  9
$DIMTIX
 70
     0
  9
$DIMSOXD
 70
     0
  9
$DIMSAH
 70
     0
  9
$DIMBLK1
  1

  9
$DIMBLK2
  1

  9
$DIMSTYLE
  2
ISO-25
  9
$DIMCLRD
 70
     0
  9
$DIMCLRE
 70
     0
  9
$DIMCLRT
 70
     0
  9
$DIMTFAC
 40
1.0
  9
$DIMGAP
 40
3.0
  9
$DIMJUST
 70
     0
  9
$DIMSD1
 70
     0
  9
$DIMSD2
 70
     0
  9
$DIMTOLJ
 70
     0
  9
$DIMTZIN
 70
     0
  9
$DIMALTZ
 70
     0
  9
$DIMALTTZ
 70
     0
  9
$DIMUPT
 70
     0
  9
$DIMDEC
 70
     2
  9
$DIMTDEC
 70
     3
  9
$DIMALTU
 70
     2
  9
$DIMALTTD
 70
     3
  9
$DIMTXSTY
  7
Standard
  9
$DIMAUNIT
 70
     0
  9
$DIMADEC
 70
     2
  9
$DIMALTRND
 40
0.0
  9
$DIMAZIN
 70
     0
  9
$DIMDSEP
 70
    44
  9
$DIMATFIT
 70
     3
  9
$DIMFRAC
 70
     0
  9
$DIMLDRBLK
  1

  9
$DIMLUNIT
 70
     2
  9
$DIMLWD
 70
    -2
  9
$DIMLWE
 70
    -2
  9
$DIMTMOVE
 70
     0
  9
$LUNITS
 70
     2
  9
$LUPREC
 70
     2
  9
$SKETCHINC
 40
1.0
  9
$FILLETRAD
 40
10.0
  9
$AUNITS
 70
     0
  9
$AUPREC
 70
     2
  9
$MENU
  1
.
  9
$ELEVATION
 40
0.0
  9
$PELEVATION
 40
0.0
  9
$THICKNESS
 40
0.0
  9
$LIMCHECK
 70
     0
  9
$CHAMFERA
 40
0.0
  9
$CHAMFERB
 40
0.0
  9
$CHAMFERC
 40
0.0
  9
$CHAMFERD
 40
0.0
  9
$SKPOLY
 70
     0
  9
$TDCREATE
 40
2459732.612456516
  9
$TDUCREATE
 40
2459732.487456516
  9
$TDUPDATE
 40
2459732.612458125
  9
$TDUUPDATE
 40
2459732.487458125
  9
$TDINDWG
 40
0.0000000116
  9
$TDUSRTIMER
 40
0.0000000116
  9
$USRTIMER
 70
     1
  9
$ANGBASE
 50
0.0
  9
$ANGDIR
 70
     0
  9
$PDMODE
 70
     0
  9
$PDSIZE
 40
-1.0
  9
$PLINEWID
 40
0.0
  9
$SPLFRAME
 70
     0
  9
$SPLINETYPE
 70
     6
  9
$SPLINESEGS
 70
     8
  9
$HANDSEED
  5
4EF
  9
$SURFTAB1
 70
     6
  9
$SURFTAB2
 70
     6
  9
$SURFTYPE
 70
     6
  9
$SURFU
 70
     6
  9
$SURFV
 70
     6
  9
$UCSBASE
  2

  9
$UCSNAME
  2

  9
$UCSORG
 10
0.0
 20
0.0
 30
0.0
  9
$UCSXDIR
 10
1.0
 20
0.0
 30
0.0
  9
$UCSYDIR
 10
0.0
 20
1.0
 30
0.0
  9
$UCSORTHOREF
  2

  9
$UCSORTHOVIEW
 70
     0
  9
$UCSORGTOP
 10
0.0
 20
0.0
 30
0.0
  9
$UCSORGBOTTOM
 10
0.0
 20
0.0
 30
0.0
  9
$UCSORGLEFT
 10
0.0
 20
0.0
 30
0.0
  9
$UCSORGRIGHT
 10
0.0
 20
0.0
 30
0.0
  9
$UCSORGFRONT
 10
0.0
 20
0.0
 30
0.0
  9
$UCSORGBACK
 10
0.0
 20
0.0
 30
0.0
  9
$PUCSBASE
  2

  9
$PUCSNAME
  2

  9
$PUCSORG
 10
0.0
 20
0.0
 30
0.0
  9
$PUCSXDIR
 10
1.0
 20
0.0
 30
0.0
  9
$PUCSYDIR
 10
0.0
 20
1.0
 30
0.0
  9
$PUCSORTHOREF
  2

  9
$PUCSORTHOVIEW
 70
     0
  9
$PUCSORGTOP
 10
0.0
 20
0.0
 30
0.0
  9
$PUCSORGBOTTOM
 10
0.0
 20
0.0
 30
0.0
  9
$PUCSORGLEFT
 10
0.0
 20
0.0
 30
0.0
  9
$PUCSORGRIGHT
 10
0.0
 20
0.0
 30
0.0
  9
$PUCSORGFRONT
 10
0.0
 20
0.0
 30
0.0
  9
$PUCSORGBACK
 10
0.0
 20
0.0
 30
0.0
  9
$USERI1
 70
     0
  9
$USERI2
 70
     0
  9
$USERI3
 70
     0
  9
$USERI4
 70
     0
  9
$USERI5
 70
     0
  9
$USERR1
 40
0.0
  9
$USERR2
 40
0.0
  9
$USERR3
 40
0.0
  9
$USERR4
 40
0.0
  9
$USERR5
 40
0.0
  9
$WORLDVIEW
 70
     1
  9
$SHADEDGE
 70
     3
  9
$SHADEDIF
 70
    70
  9
$TILEMODE
 70
     1
  9
$MAXACTVP
 70
    64
  9
$PINSBASE
 10
0.0
 20
0.0
 30
0.0
  9
$PLIMCHECK
 70
     0
  9
$PEXTMIN
 10
1.0000000000E+20
 20
1.0000000000E+20
 30
1.0000000000E+20
  9
$PEXTMAX
 10
-1.0000000000E+20
 20
-1.0000000000E+20
 30
-1.0000000000E+20
  9
$PLIMMIN
 10
0.0
 20
0.0
  9
$PLIMMAX
 10
420.0
 20
297.0
  9
$UNITMODE
 70
     0
  9
$VISRETAIN
 70
     1
  9
$PLINEGEN
 70
     0
  9
$PSLTSCALE
 70
     1
  9
$TREEDEPTH
 70
  3020
  9
$CMLSTYLE
  2
Standard
  9
$CMLJUST
 70
     0
  9
$CMLSCALE
 40
20.0
  9
$PROXYGRAPHICS
 70
     1
  9
$MEASUREMENT
 70
     1
  9
$CELWEIGHT
370
    -1
  9
$ENDCAPS
280
     0
  9
$JOINSTYLE
280
     0
  9
$LWDISPLAY
290
     1
  9
$INSUNITS
 70
     4
  9
$HYPERLINKBASE
  1

  9
$STYLESHEET
  1

  9
$XEDIT
290
     1
  9
$CEPSNTYPE
380
     0
  9
$PSTYLEMODE
290
     1
  9
$FINGERPRINTGUID
  2
{B48EF791-E9CA-47EC-A705-29326E137963}
  9
$VERSIONGUID
  2
{FAEB1C32-E019-11D5-929B-00C0DF256EC4}
  9
$EXTNAMES
290
     1
  9
$PSVPSCALE
 40
0.0
  9
$OLESTARTUP
290
     0
  0
ENDSEC
  0
SECTION
  2
CLASSES
  0
CLASS
  1
ACDBDICTIONARYWDFLT
  2
AcDbDictionaryWithDefault
  3
ObjectDBX Classes
 90
        0
280
     0
281
     0
  0
CLASS
  1
VISUALSTYLE
  2
AcDbVisualStyle
  3
ObjectDBX Classes
 90
     4095
280
     0
281
     0
  0
CLASS
  1
MATERIAL
  2
AcDbMaterial
  3
ObjectDBX Classes
 90
     1153
280
     0
281
     0
  0
CLASS
  1
SCALE
  2
AcDbScale
  3
ObjectDBX Classes
 90
     1153
280
     0
281
     0
  0
CLASS
  1
TABLESTYLE
  2
AcDbTableStyle
  3
ObjectDBX Classes
 90
     4095
280
     0
281
     0
  0
CLASS
  1
MLEADERSTYLE
  2
AcDbMLeaderStyle
  3
ACDB_MLEADERSTYLE_CLASS
 90
     4095
280
     0
281
     0
  0
CLASS
  1
SUN
  2
AcDbSun
  3
SCENEOE
 90
     1153
280
     0
281
     0
  0
CLASS
  1
ACDBPLACEHOLDER
  2
AcDbPlaceHolder
  3
ObjectDBX Classes
 90
        0
280
     0
281
     0
  0
CLASS
  1
LAYOUT
  2
AcDbLayout
  3
ObjectDBX Classes
 90
        0
280
     0
281
     0
  0
ENDSEC
  0
SECTION
  2
TABLES
  0
TABLE
  2
VPORT
  5
8
330
0
100
AcDbSymbolTable
 70
     1
  0
VPORT
  5
29
330
8
100
AcDbSymbolTableRecord
100
AcDbViewportTableRecord
  2
*Active
 70
     0
 10
0.0
 20
0.0
 11
1.0
 21
1.0
 12
420.5
 22
297.0
 13
0.0
 23
0.0
 14
10.0
 24
10.0
 15
10.0
 25
10.0
 16
0.0
 26
0.0
 36
1.0
 17
0.0
 27
0.0
 37
0.0
 40
594.0
 41
1.4158249158
 42
50.0
 43
0.0
 44
0.0
 50
0.0
 51
0.0
 71
     0
 72
  2000
 73
     1
 74
     3
 75
     0
 76
     0
 77
     0
 78
     0
281
     0
 65
     1
110
0.0
120
0.0
130
0.0
111
1.0
121
0.0
131
0.0
112
0.0
122
1.0
132
0.0
 79
     0
146
0.0
  0
ENDTAB
  0
TABLE
  2
LTYPE
  5
5
330
0
100
AcDbSymbolTable
 70
     6
  0
LTYPE
  5
14
330
5
100
AcDbSymbolTableRecord
100
AcDbLinetypeTableRecord
  2
ByBlock
 70
     0
  3

 72
    65
 73
     0
 40
0.0
  0
LTYPE
  5
15
330
5
100
AcDbSymbolTableRecord
100
AcDbLinetypeTableRecord
  2
ByLayer
 70
     0
  3

 72
    65
 73
     0
 40
0.0
  0
LTYPE
  5
16
330
5
100
AcDbSymbolTableRecord
100
AcDbLinetypeTableRecord
  2
Continuous
 70
     0
  3
Solid line
 72
    65
 73
     0
 40
0.0
  0
LTYPE
  5
6E
330
5
100
AcDbSymbolTableRecord
100
AcDbLinetypeTableRecord
  2
HIDDEN
 70
     0
  3
Hidden __ __ __ __ __ __ __ __ __ __ __ __ __ __
 72
    65
 73
     2
 40
1.905
 49
1.27
 74
     0
 49
-0.635
 74
     0
  0
LTYPE
  5
6F
330
5
100
AcDbSymbolTableRecord
100
AcDbLinetypeTableRecord
  2
PHANTOM
 70
     0
  3
Phantom ______  __  __  ______  __  __  ______
 72
    65
 73
     6
 40
12.7
 49
6.35
 74
     0
 49
-1.27
 74
     0
 49
1.27
 74
     0
 49
-1.27
 74
     0
 49
1.27
 74
     0
 49
-1.27
 74
     0
  0
LTYPE
  5
70
330
5
100
AcDbSymbolTableRecord
100
AcDbLinetypeTableRecord
  2
CENTER
 70
     0
  3
Center ____ _ ____ _ ____ _ ____ _ ____ _ ____
 72
    65
 73
     4
 40
10.16
 49
6.35
 74
     0
 49
-1.27
 74
     0
 49
1.27
 74
     0
 49
-1.27
 74
     0
  0
LTYPE
  5
71
330
5
100
AcDbSymbolTableRecord
100
AcDbLinetypeTableRecord
  2
CENTERX2
 70
     0
  3
Center (2x) ________  __  ________  __  _____
 72
    65
 73
     4
 40
20.32
 49
12.7
 74
     0
 49
-2.54
 74
     0
 49
2.54
 74
     0
 49
-2.54
 74
     0
  0
LTYPE
  5
72
330
5
100
AcDbSymbolTableRecord
100
AcDbLinetypeTableRecord
  2
DOT2
 70
     0
  3
Dot (.5x) ........................................
 72
    65
 73
     2
 40
0.635
 49
0.0
 74
     0
 49
-0.635
 74
     0
  0
ENDTAB
  0
TABLE
  2
LAYER
  5
2
330
0
100
AcDbSymbolTable
 70
     1
  0
LAYER
  5
10
330
2
100
AcDbSymbolTableRecord
100
AcDbLayerTableRecord
  2
0
 70
     0
 62
     7
  6
Continuous
370
    -3
390
F
  0
ENDTAB
  0
TABLE
  2
STYLE
  5
3
330
0
100
AcDbSymbolTable
 70
     1
  0
STYLE
  5
11
330
3
100
AcDbSymbolTableRecord
100
AcDbTextStyleTableRecord
  2
Standard
 70
     0
 40
0.0
 41
1.0
 50
0.0
 71
     0
 42
3.5
  3
txt
  4

  0
ENDTAB
  0
TABLE
  2
VIEW
  5
6
330
0
100
AcDbSymbolTable
 70
     0
  0
ENDTAB
  0
TABLE
  2
UCS
  5
7
330
0
100
AcDbSymbolTable
 70
     0
  0
ENDTAB
  0
TABLE
  2
APPID
  5
9
330
0
100
AcDbSymbolTable
 70
     1
  0
APPID
  5
12
330
9
100
AcDbSymbolTableRecord
100
AcDbRegAppTableRecord
  2
ACAD
 70
     0
  0
ENDTAB
  0
TABLE
  2
DIMSTYLE
  5
A
330
0
100
AcDbSymbolTable
 70
     1
100
AcDbDimStyleTable
  0
DIMSTYLE
105
27
330
A
100
AcDbSymbolTableRecord
100
AcDbDimStyleTableRecord
  2
ISO-25
 70
     0
 41
2.5
 42
0.625
 43
3.75
 44
1.25
 73
     0
 74
     0
 77
     1
 78
     8
140
2.5
141
2.5
143
0.0393700787
147
0.625
171
     3
172
     1
178
     0
271
     2
272
     2
274
     3
278
    44
283
     0
284
     8
340
11
  0
ENDTAB
  0
TABLE
  2
BLOCK_RECORD
  5
1
330
0
100
AcDbSymbolTable
 70
     1
  0
BLOCK_RECORD
  5
1F
330
1
100
AcDbSymbolTableRecord
100
AcDbBlockTableRecord
  2
*Model_Space
340
22
  0
BLOCK_RECORD
  5
1B
330
1
100
AcDbSymbolTableRecord
100
AcDbBlockTableRecord
  2
*Paper_Space
340
1E
  0
BLOCK_RECORD
  5
23
330
1
100
AcDbSymbolTableRecord
100
AcDbBlockTableRecord
  2
*Paper_Space0
340
26
  0
ENDTAB
  0
ENDSEC
  0
SECTION
  2
BLOCKS
  0
BLOCK
  5
20
330
1F
100
AcDbEntity
  8
0
100
AcDbBlockBegin
  2
*Model_Space
 70
     0
 10
0.0
 20
0.0
 30
0.0
  3
*Model_Space
  1

  0
ENDBLK
  5
21
330
1F
100
AcDbEntity
  8
0
100
AcDbBlockEnd
  0
BLOCK
  5
1C
330
1B
100
AcDbEntity
 67
     1
  8
0
100
AcDbBlockBegin
  2
*Paper_Space
 70
     0
 10
0.0
 20
0.0
 30
0.0
  3
*Paper_Space
  1

  0
ENDBLK
  5
1D
330
1B
100
AcDbEntity
 67
     1
  8
0
100
AcDbBlockEnd
  0
BLOCK
  5
24
330
23
100
AcDbEntity
  8
0
100
AcDbBlockBegin
  2
*Paper_Space0
 70
     0
 10
0.0
 20
0.0
 30
0.0
  3
*Paper_Space0
  1

  0
ENDBLK
  5
25
330
23
100
AcDbEntity
  8
0
100
AcDbBlockEnd
  0
ENDSEC
  0
SECTION
  2
ENTITIES
  0
ARC
  5
73
330
1F
100
AcDbEntity
  8
0
  6
Continuous
 62
     7
370
    25
100
AcDbCircle
 10
663.2128208011
 20
611.9578644957
 30
0.0
 40
0.5000000000001137
100
AcDbArc
 50
180.0
 51
360.0
  0
ARC
  5
74
330
1F
100
AcDbEntity
  8
0
  6
Continuous
 62
     7
370
    25
100
AcDbCircle
 10
663.2128208011
 20
623.5578644959
 30
0.0
 40
0.5
100
AcDbArc
 50
0.0
 51
180.0
  0
LINE
  5
75
330
1F
100
AcDbEntity
  8
0
  6
Continuous
 62
     7
370
    25
100
AcDbLine
 10
658.7128208011
 20
612.7578644958
 30
0.0
 11
658.923399856
 21
612.3931308735
 31
0.0
  0
LINE
  5
76
330
1F
100
AcDbEntity
  8
0
  6
Continuous
 62
     7
370
    25
100
AcDbLine
 10
673.1715708011
 20
620.7578644958
 30
0.0
 11
664.5128208011
 21
620.7578644958
 31
0.0
  0
LINE
  5
77
330
1F
100
AcDbEntity
  8
0
  6
Continuous
 62
     7
370
    25
100
AcDbLine
 10
664.5128208011
 20
614.7578644958
 30
0.0
 11
673.1715708011
 21
614.7578644958
 31
0.0
  0
LINE
  5
78
330
1F
100
AcDbEntity
  8
0
  6
Continuous
 62
     7
370
    25
100
AcDbLine
 10
673.1715708011
 20
614.7578644958
 30
0.0
 11
673.7128208011
 21
615.2991144957
 31
0.0
  0
LINE
  5
79
330
1F
100
AcDbEntity
  8
0
  6
Continuous
 62
     7
370
    25
100
AcDbLine
 10
673.7128208011
 20
620.2166144958
 30
0.0
 11
673.1715708011
 21
620.7578644958
 31
0.0
  0
LINE
  5
7A
330
1F
100
AcDbEntity
  8
0
  6
Continuous
 62
     7
370
    25
100
AcDbLine
 10
658.923399856
 20
623.122598118
 30
0.0
 11
658.7128208011
 21
622.7578644958
 31
0.0
  0
ARC
  5
7B
330
1F
100
AcDbEntity
  8
0
  6
Continuous
 62
     7
370
    25
100
AcDbCircle
 10
663.2128208011
 20
598.5578644959
 30
0.0
 40
0.5000000000000603
100
AcDbArc
 50
0.0
 51
113.5781784781
  0
LINE
  5
7C
330
1F
100
AcDbEntity
  8
0
  6
Continuous
 62
     7
370
    25
100
AcDbLine
 10
673.1715708011
 20
595.7578644958
 30
0.0
 11
664.5128208011
 21
595.7578644958
 31
0.0
  0
LINE
  5
7D
330
1F
100
AcDbEntity
  8
0
  6
Continuous
 62
     7
370
    25
100
AcDbLine
 10
673.1715708011
 20
589.7578644958
 30
0.0
 11
673.7128208011
 21
590.2991144957
 31
0.0
  0
LINE
  5
7E
330
1F
100
AcDbEntity
  8
0
  6
Continuous
 62
     7
370
    25
100
AcDbLine
 10
673.7128208011
 20
595.2166144958
 30
0.0
 11
673.1715708011
 21
595.7578644958
 31
0.0
  0
ARC
  5
7F
330
1F
100
AcDbEntity
  8
0
  6
Continuous
 62
     7
370
    25
100
AcDbCircle
 10
159.8128208011
 20
598.5578644959
 30
0.0
 40
0.5000000000000793
100
AcDbArc
 50
66.4218215218
 51
180.0
  0
LINE
  5
80
330
1F
100
AcDbEntity
  8
0
  6
Continuous
 62
     7
370
    25
100
AcDbLine
 10
149.8540708011
 20
595.7578644958
 30
0.0
 11
149.3128208011
 21
595.2166144958
 31
0.0
  0
LINE
  5
81
330
1F
100
AcDbEntity
  8
0
  6
Continuous
 62
     7
370
    25
100
AcDbLine
 10
149.3128208011
 20
590.2991144957
 30
0.0
 11
149.8540708011
 21
589.7578644958
 31
0.0
  0
LINE
  5
82
330
1F
100
AcDbEntity
  8
0
  6
Continuous
 62
     7
370
    25
100
AcDbLine
 10
158.5128208011
 20
595.7578644958
 30
0.0
 11
149.8540708011
 21
595.7578644958
 31
0.0
  0
ARC
  5
83
330
1F
100
AcDbEntity
  8
0
  6
Continuous
 62
     7
370
    25
100
AcDbCircle
 10
159.8128208011
 20
623.5578644959
 30
0.0
 40
0.5
100
AcDbArc
 50
0.0
 51
180.0
  0
ARC
  5
84
330
1F
100
AcDbEntity
  8
0
  6
Continuous
 62
     7
370
    25
100
AcDbCircle
 10
159.8128208011
 20
611.9578644957
 30
0.0
 40
0.5
100
AcDbArc
 50
180.0
 51
360.0
  0
LINE
  5
85
330
1F
100
AcDbEntity
  8
0
  6
Continuous
 62
     7
370
    25
100
AcDbLine
 10
149.8540708011
 20
614.7578644958
 30
0.0
 11
158.5128208011
 21
614.7578644958
 31
0.0
  0
LINE
  5
86
330
1F
100
AcDbEntity
  8
0
  6
Continuous
 62
     7
370
    25
100
AcDbLine
 10
158.5128208011
 20
620.7578644958
 30
0.0
 11
149.8540708011
 21
620.7578644958
 31
0.0
  0
LINE
  5
87
330
1F
100
AcDbEntity
  8
0
  6
Continuous
 62
     7
370
    25
100
AcDbLine
 10
149.8540708011
 20
620.7578644958
 30
0.0
 11
149.3128208011
 21
620.2166144958
 31
0.0
  0
LINE
  5
88
330
1F
100
AcDbEntity
  8
0
  6
Continuous
 62
     7
370
    25
100
AcDbLine
 10
149.3128208011
 20
615.2991144957
 30
0.0
 11
149.8540708011
 21
614.7578644958
 31
0.0
  0
SPLINE
  5
89
330
1F
100
AcDbEntity
  8
0
  6
Continuous
 62
     7
370
    25
100
AcDbSpline
210
0.0
220
0.0
230
1.0
 70
    24
 71
     3
 72
    16
 73
    12
 74
     0
 42
0.000000001
 43
0.00000001
 40
0.0
 40
0.0
 40
0.0
 40
0.0
 40
0.1658292928977469
 40
0.2550981074401225
 40
0.3462613343064166
 40
0.4374245611727114
 40
0.5266933757150813
 40
0.6925226686128336
 40
0.858351961510584
 40
0.9476207760529564
 40
1.0
 40
1.0
 40
1.0
 40
1.0
 10
662.7128208010604
 20
621.4835541203942
 30
0.0
 10
662.7128208010604
 20
620.8746463227191
 30
0.0
 10
662.7128208010604
 20
619.9379527863836
 30
0.0
 10
662.7128208010604
 20
618.4381540951475
 30
0.0
 10
662.7128208010604
 20
617.2461970153324
 30
0.0
 10
662.7128208010604
 20
616.0717687411261
 30
0.0
 10
662.7128208010605
 20
614.668155447839
 30
0.0
 10
662.7128208010604
 20
613.2008123670568
 30
0.0
 10
662.7128208010604
 20
612.301625016236
 30
0.0
 10
662.7128208010604
 20
611.9737936891216
 30
0.0
 10
662.7128208010604
 20
611.984184104562
 30
0.0
 10
662.7128208010604
 20
611.9880263172961
 30
0.0
  0
LINE
  5
8A
330
1F
100
AcDbEntity
  8
0
  6
Continuous
 62
     7
370
    25
100
AcDbLine
 10
658.7128208011
 20
618.6233590664
 30
0.0
 11
658.7128208011
 21
613.9258504324
 31
0.0
  0
SPLINE
  5
8B
330
1F
100
AcDbEntity
  8
0
  6
Continuous
 62
     7
370
    25
100
AcDbSpline
210
0.0
220
0.0
230
1.0
 70
     8
 71
     3
 72
     8
 73
     4
 74
     0
 42
0.000000001
 43
0.00000001
 40
0.0
 40
0.0
 40
0.0
 40
0.0
 40
1.0
 40
1.0
 40
1.0
 40
1.0
 10
658.7128208010676
 20
618.6233590663775
 30
0.0
 10
658.7128208010676
 20
617.6529531304873
 30
0.0
 10
658.887136101447
 20
616.7091067885561
 30
0.0
 10
659.1594027884588
 20
615.7801848339295
 30
0.0
  0
SPLINE
  5
8C
330
1F
100
AcDbEntity
  8
0
  6
Continuous
 62
     7
370
    25
100
AcDbSpline
210
0.0
220
0.0
230
1.0
 70
     8
 71
     3
 72
     8
 73
     4
 74
     0
 42
0.000000001
 43
0.00000001
 40
0.0
 40
0.0
 40
0.0
 40
0.0
 40
1.0
 40
1.0
 40
1.0
 40
1.0
 10
659.1594027884588
 20
615.7801848339232
 30
0.0
 10
658.8871361014475
 20
615.174336652992
 30
0.0
 10
658.7128208010677
 20
614.558754701793
 30
0.0
 10
658.7128208010677
 20
613.9258504323917
 30
0.0
  0
SPLINE
  5
8D
330
1F
100
AcDbEntity
  8
0
  6
Continuous
 62
     7
370
    25
100
AcDbSpline
210
0.0
220
0.0
230
1.0
 70
     8
 71
     3
 72
     8
 73
     4
 74
     0
 42
0.000000001
 43
0.00000001
 40
0.0
 40
0.0
 40
0.0
 40
0.0
 40
1.0
 40
1.0
 40
1.0
 40
1.0
 10
659.1594027884588
 20
621.4665332988254
 30
0.0
 10
658.8871361014475
 20
620.5376113442005
 30
0.0
 10
658.7128208010676
 20
619.5937650022659
 30
0.0
 10
658.7128208010676
 20
618.6233590663775
 30
0.0
  0
LINE
  5
8E
330
1F
100
AcDbEntity
  8
0
  6
Continuous
 62
     7
370
    25
100
AcDbLine
 10
662.7128208011
 20
621.4665332988
 30
0.0
 11
659.1594027885
 21
621.4665332988
 31
0.0
  0
LINE
  5
8F
330
1F
100
AcDbEntity
  8
0
  6
Continuous
 62
     7
370
    25
100
AcDbLine
 10
662.7128208011
 20
615.7801848339
 30
0.0
 11
659.1594027885
 21
615.7801848339
 31
0.0
  0
SPLINE
  5
90
330
1F
100
AcDbEntity
  8
0
  6
Continuous
 62
     7
370
    25
100
AcDbSpline
210
0.0
220
0.0
230
1.0
 70
     8
 71
     3
 72
     8
 73
     4
 74
     0
 42
0.000000001
 43
0.00000001
 40
0.0
 40
0.0
 40
0.0
 40
0.0
 40
1.0
 40
1.0
 40
1.0
 40
1.0
 10
658.7128208010677
 20
613.9258504323917
 30
0.0
 10
658.7128208010677
 20
613.2929461629892
 30
0.0
 10
658.887136101447
 20
612.6773642117926
 30
0.0
 10
659.1594027884588
 20
612.0715160308603
 30
0.0
  0
LINE
  5
91
330
1F
100
AcDbEntity
  8
0
  6
Continuous
 62
     7
370
    25
100
AcDbLine
 10
662.7128208011
 20
612.0715160309
 30
0.0
 11
659.1594027885
 21
612.0715160309
 31
0.0
  0
LINE
  5
92
330
1F
100
AcDbEntity
  8
0
  6
Continuous
 62
     7
370
    25
100
AcDbLine
 10
658.7128208011
 20
622.4553731297
 30
0.0
 11
658.7128208011
 21
618.6233590664
 31
0.0
  0
SPLINE
  5
93
330
1F
100
AcDbEntity
  8
0
  6
Continuous
 62
     7
370
    25
100
AcDbSpline
210
0.0
220
0.0
230
1.0
 70
     8
 71
     3
 72
     8
 73
     4
 74
     0
 42
0.000000001
 43
0.00000001
 40
0.0
 40
0.0
 40
0.0
 40
0.0
 40
1.0
 40
1.0
 40
1.0
 40
1.0
 10
658.7128208010674
 20
622.4553731297468
 30
0.0
 10
658.7128208010674
 20
622.1178714632592
 30
0.0
 10
658.8871361014468
 20
621.7896070725249
 30
0.0
 10
659.1594027884588
 20
621.4665332988305
 30
0.0
  0
SPLINE
  5
94
330
1F
100
AcDbEntity
  8
0
  6
Continuous
 62
     7
370
    25
100
AcDbSpline
210
0.0
220
0.0
230
1.0
 70
     8
 71
     3
 72
     8
 73
     4
 74
     0
 42
0.000000001
 43
0.00000001
 40
0.0
 40
0.0
 40
0.0
 40
0.0
 40
1.0
 40
1.0
 40
1.0
 40
1.0
 10
659.1594027884587
 20
623.4442129606633
 30
0.0
 10
658.8871361014474
 20
623.1211391869696
 30
0.0
 10
658.7128208010674
 20
622.792874796234
 30
0.0
 10
658.7128208010674
 20
622.4553731297468
 30
0.0
  0
LINE
  5
95
330
1F
100
AcDbEntity
  8
0
  6
Continuous
 62
     7
370
    25
100
AcDbLine
 10
662.7128208011
 20
623.4442129607
 30
0.0
 11
659.1594027885
 21
623.4442129607
 31
0.0
  0
LINE
  5
96
330
1F
100
AcDbEntity
  8
0
  6
Continuous
 62
     7
370
    25
100
AcDbLine
 10
659.1594027885
 20
612.0715160309
 30
0.0
 11
658.9953847532
 21
612.4346913733
 31
0.0
  0
LINE
  5
97
330
1F
100
AcDbEntity
  8
0
  6
Continuous
 62
     7
370
    25
100
AcDbLine
 10
658.7128208011
 20
613.9258504324
 30
0.0
 11
658.7128208011
 21
612.7578644958
 31
0.0
  0
LINE
  5
98
330
1F
100
AcDbEntity
  8
0
  6
Continuous
 62
     7
370
    25
100
AcDbLine
 10
673.1715708011
 20
614.7578644958
 30
0.0
 11
673.1715708011
 21
620.7578644958
 31
0.0
  0
LINE
  5
99
330
1F
100
AcDbEntity
  8
0
  6
Continuous
 62
     7
370
    25
100
AcDbLine
 10
673.7128208011
 20
615.8734715801
 30
0.0
 11
673.7128208011
 21
620.2166144958
 31
0.0
  0
LINE
  5
9A
330
1F
100
AcDbEntity
  8
0
  6
Continuous
 62
     7
370
    25
100
AcDbLine
 10
673.7128208011
 20
615.2991144957
 30
0.0
 11
673.7128208011
 21
615.8734715801
 31
0.0
  0
LINE
  5
9B
330
1F
100
AcDbEntity
  8
0
  6
Continuous
 62
     7
370
    25
100
AcDbLine
 10
658.7128208011
 20
622.7578644958
 30
0.0
 11
658.7128208011
 21
622.4553731297
 31
0.0
  0
CIRCLE
  5
9C
330
1F
100
AcDbEntity
  8
0
  6
Continuous
 62
     7
370
    25
100
AcDbCircle
 10
214.0128208011
 20
564.7578644958
 30
0.0
 40
0.5000000000000284
  0
SPLINE
  5
9D
330
1F
100
AcDbEntity
  8
0
  6
Continuous
 62
     7
370
    25
100
AcDbSpline
210
0.0
220
0.0
230
1.0
 70
     8
 71
     3
 72
    20
 73
    16
 74
     0
 42
0.000000001
 43
0.00000001
 40
0.0
 40
0.0
 40
0.0
 40
0.0
 40
0.1249999999999972
 40
0.1249999999999972
 40
0.2499999999999944
 40
0.2499999999999944
 40
0.3749999999999916
 40
0.3749999999999916
 40
0.4999999999999888
 40
0.4999999999999888
 40
0.7500000000000024
 40
0.7500000000000024
 40
0.8750000000000012
 40
0.8750000000000012
 40
1.0
 40
1.0
 40
1.0
 40
1.0
 10
116.4128208010615
 20
-3.842135504242117
 30
0.0
 10
116.2544416134107
 20
-3.881176235096651
 30
0.0
 10
116.098195888719
 20
-3.919694939296503
 30
0.0
 10
115.7902040393026
 20
-3.997101690604521
 30
0.0
 10
115.6375599318314
 20
-4.036246108591046
 30
0.0
 10
115.3484756426442
 20
-4.113396862506169
 30
0.0
 10
115.2106711044602
 20
-4.151724444247106
 30
0.0
 10
114.9490524288213
 20
-4.229270764723791
 30
0.0
 10
114.8263061221387
 20
-4.26824697239253
 30
0.0
 10
114.4949817451911
 20
-4.383741828837717
 30
0.0
 10
114.3159706211627
 20
-4.461654272507609
 30
0.0
 10
114.1363555217819
 20
-4.577134197908562
 30
0.0
 10
114.0901111729142
 20
-4.615999993773546
 30
0.0
 10
114.028357866903
 20
-4.693774327441947
 30
0.0
 10
114.0128208010614
 20
-4.732384094396913
 30
0.0
 10
114.0128208010615
 20
-4.771424826123416
 30
0.0
  0
LINE
  5
9E
330
1F
100
AcDbEntity
  8
0
  6
Continuous
 62
     7
370
    25
100
AcDbLine
 10
114.0128208011
 20
588.2871538176
 30
0.0
 11
114.0128208011
 21
-4.7714248261
 31
0.0
  0
SPLINE
  5
9F
330
1F
100
AcDbEntity
  8
0
  6
Continuous
 62
     7
370
    25
100
AcDbSpline
210
0.0
220
0.0
230
1.0
 70
     8
 71
     3
 72
    20
 73
    16
 74
     0
 42
0.000000001
 43
0.00000001
 40
0.0
 40
0.0
 40
0.0
 40
0.0
 40
0.1249999999999973
 40
0.1249999999999973
 40
0.2499999999999947
 40
0.2499999999999947
 40
0.374999999999992
 40
0.374999999999992
 40
0.4999999999999895
 40
0.4999999999999895
 40
0.7499999999999947
 40
0.7499999999999947
 40
0.8749999999999973
 40
0.8749999999999973
 40
1.0
 40
1.0
 40
1.0
 40
1.0
 10
114.0128208010615
 20
588.287153817639
 30
0.0
 10
114.0128208010614
 20
588.2481130867845
 30
0.0
 10
114.0283573615364
 20
588.2095943825849
 30
0.0
 10
114.0896757134969
 20
588.132187631277
 30
0.0
 10
114.1360994590836
 20
588.0930432132902
 30
0.0
 10
114.2560503292377
 20
588.015892459375
 30
0.0
 10
114.3296549735213
 20
587.977564877634
 30
0.0
 10
114.504385339617
 20
587.9000185571574
 30
0.0
 10
114.6052359685184
 20
587.8610423494887
 30
0.0
 10
114.9365212485023
 20
587.7455474930435
 30
0.0
 10
115.2042014098865
 20
587.6676350493734
 30
0.0
 10
115.6368754359417
 20
587.5521551239729
 30
0.0
 10
115.7883935227928
 20
587.5132893281078
 30
0.0
 10
116.097819280179
 20
587.4355149944392
 30
0.0
 10
116.2544416098727
 20
587.3969052274846
 30
0.0
 10
116.4128208010615
 20
587.3578644957578
 30
0.0
  0
LINE
  5
A0
330
1F
100
AcDbEntity
  8
0
  6
Continuous
 62
     7
370
    25
100
AcDbLine
 10
114.0128208011
 20
588.2871538176
 30
0.0
 11
115.4128208011
 21
588.2871538176
 31
0.0
  0
SPLINE
  5
A1
330
1F
100
AcDbEntity
  8
0
  6
Continuous
 62
     7
370
    25
100
AcDbSpline
210
0.0
220
0.0
230
1.0
 70
     8
 71
     3
 72
    14
 73
    10
 74
     0
 42
0.000000001
 43
0.00000001
 40
0.0
 40
0.0
 40
0.0
 40
0.0
 40
0.25
 40
0.25
 40
0.5
 40
0.5
 40
0.75
 40
0.75
 40
1.0
 40
1.0
 40
1.0
 40
1.0
 10
115.4128208010615
 20
588.287153817639
 30
0.0
 10
115.4128208010615
 20
588.2089524026175
 30
0.0
 10
115.4383794657416
 20
588.1332424553207
 30
0.0
 10
115.5385074943385
 20
587.9779620436736
 30
0.0
 10
115.6120716736426
 20
587.9009521940906
 30
0.0
 10
115.7976093093345
 20
587.745528708063
 30
0.0
 10
115.9077742302941
 20
587.6685789911446
 30
0.0
 10
116.1503859869835
 20
587.5131490118954
 30
0.0
 10
116.2806353978066
 20
587.4360659033229
 30
0.0
 10
116.4128208010615
 20
587.3578644957578
 30
0.0
  0
SPLINE
  5
A2
330
1F
100
AcDbEntity
  8
0
  6
Continuous
 62
     7
370
    25
100
AcDbSpline
210
0.0
220
0.0
230
1.0
 70
     8
 71
     3
 72
    20
 73
    16
 74
     0
 42
0.000000001
 43
0.00000001
 40
0.0
 40
0.0
 40
0.0
 40
0.0
 40
0.125000000000002
 40
0.125000000000002
 40
0.2500000000000039
 40
0.2500000000000039
 40
0.3750000000000059
 40
0.3750000000000059
 40
0.5000000000000079
 40
0.5000000000000079
 40
0.7500000000000118
 40
0.7500000000000118
 40
0.8750000000000059
 40
0.8750000000000059
 40
1.0
 40
1.0
 40
1.0
 40
1.0
 10
706.6128208010614
 20
587.3578644957578
 30
0.0
 10
706.7711999887122
 20
587.3969052266124
 30
0.0
 10
706.9274457134038
 20
587.4354239308121
 30
0.0
 10
707.2354375628205
 20
587.51283068212
 30
0.0
 10
707.3880816702915
 20
587.5519751001066
 30
0.0
 10
707.6771659594787
 20
587.6291258540218
 30
0.0
 10
707.8149704976627
 20
587.6674534357629
 30
0.0
 10
708.0765891733016
 20
587.7449997562394
 30
0.0
 10
708.199335479984
 20
587.7839759639081
 30
0.0
 10
708.5306598569318
 20
587.899470820353
 30
0.0
 10
708.7096709809601
 20
587.9773832640232
 30
0.0
 10
708.8892860803411
 20
588.092863189424
 30
0.0
 10
708.9355304292088
 20
588.1317289852892
 30
0.0
 10
708.9972837352201
 20
588.2095033189578
 30
0.0
 10
709.0128208010614
 20
588.2481130859125
 30
0.0
 10
709.0128208010615
 20
588.2871538176391
 30
0.0
  0
SPLINE
  5
A3
330
1F
100
AcDbEntity
  8
0
  6
Continuous
 62
     7
370
    25
100
AcDbSpline
210
0.0
220
0.0
230
1.0
 70
     8
 71
     3
 72
    14
 73
    10
 74
     0
 42
0.000000001
 43
0.00000001
 40
0.0
 40
0.0
 40
0.0
 40
0.0
 40
0.2500000000000001
 40
0.2500000000000001
 40
0.5000000000000002
 40
0.5000000000000002
 40
0.7500000000000003
 40
0.7500000000000003
 40
1.0
 40
1.0
 40
1.0
 40
1.0
 10
706.6128208010614
 20
587.3578644957578
 30
0.0
 10
706.7450062169204
 20
587.4360659107796
 30
0.0
 10
706.8729882354538
 20
587.5117758580764
 30
0.0
 10
707.1156122604012
 20
587.6670562697235
 30
0.0
 10
707.2260545248113
 20
587.7440661193065
 30
0.0
 10
707.4120514220045
 20
587.8994896053338
 30
0.0
 10
707.4858524008429
 20
587.9764393222522
 30
0.0
 10
707.5866709852379
 20
588.1318693015014
 30
0.0
 10
707.6128208010615
 20
588.2089524100742
 30
0.0
 10
707.6128208010615
 20
588.2871538176391
 30
0.0
  0
LINE
  5
A4
330
1F
100
AcDbEntity
  8
0
  6
Continuous
 62
     7
370
    25
100
AcDbLine
 10
709.0128208011
 20
588.2871538176
 30
0.0
 11
707.6128208011
 21
588.2871538176
 31
0.0
  0
SPLINE
  5
A5
330
1F
100
AcDbEntity
  8
0
  6
Continuous
 62
     7
370
    25
100
AcDbSpline
210
0.0
220
0.0
230
1.0
 70
     8
 71
     3
 72
    20
 73
    16
 74
     0
 42
0.000000001
 43
0.00000001
 40
0.0
 40
0.0
 40
0.0
 40
0.0
 40
0.1250000000000011
 40
0.1250000000000011
 40
0.2500000000000024
 40
0.2500000000000024
 40
0.3750000000000038
 40
0.3750000000000038
 40
0.500000000000005
 40
0.500000000000005
 40
0.7499999999999972
 40
0.7499999999999972
 40
0.8749999999999987
 40
0.8749999999999987
 40
1.0
 40
1.0
 40
1.0
 40
1.0
 10
707.5421101229427
 20
589.7578644957579
 30
0.0
 10
707.5030693920883
 20
589.7578644957579
 30
0.0
 10
707.4645506878885
 20
589.7423279352828
 30
0.0
 10
707.3871439365805
 20
589.6810095833223
 30
0.0
 10
707.3479995185938
 20
589.6345858377357
 30
0.0
 10
707.2708487646786
 20
589.5146349675814
 30
0.0
 10
707.2325211829377
 20
589.4410303232979
 30
0.0
 10
707.154974862461
 20
589.2662999572022
 30
0.0
 10
707.1159986547925
 20
589.1654493283012
 30
0.0
 10
707.0005037983476
 20
588.834164048317
 30
0.0
 10
706.9225913546773
 20
588.566483886933
 30
0.0
 10
706.8071114292765
 20
588.1338098608777
 30
0.0
 10
706.7682456334114
 20
587.9822917740266
 30
0.0
 10
706.6904712997429
 20
587.6728660166405
 30
0.0
 10
706.6518615327882
 20
587.5162436869466
 30
0.0
 10
706.6128208010614
 20
587.3578644957578
 30
0.0
  0
LINE
  5
A6
330
1F
100
AcDbEntity
  8
0
  6
Continuous
 62
     7
370
    25
100
AcDbLine
 10
707.5421101229
 20
589.7578644958
 30
0.0
 11
707.5421101229
 21
588.3578644958
 31
0.0
  0
SPLINE
  5
A7
330
1F
100
AcDbEntity
  8
0
  6
Continuous
 62
     7
370
    25
100
AcDbSpline
210
0.0
220
0.0
230
1.0
 70
     8
 71
     3
 72
    14
 73
    10
 74
     0
 42
0.000000001
 43
0.00000001
 40
0.0
 40
0.0
 40
0.0
 40
0.0
 40
0.25
 40
0.25
 40
0.5
 40
0.5
 40
0.75
 40
0.75
 40
1.0
 40
1.0
 40
1.0
 40
1.0
 10
707.5421101229427
 20
588.3578644957579
 30
0.0
 10
707.4639087079211
 20
588.357864495758
 30
0.0
 10
707.3881987606242
 20
588.3323058310774
 30
0.0
 10
707.232918348977
 20
588.2321778024807
 30
0.0
 10
707.1559084993943
 20
588.1586136231765
 30
0.0
 10
707.0004850133668
 20
587.9730759874847
 30
0.0
 10
706.9235352964483
 20
587.8629110665253
 30
0.0
 10
706.7681053171992
 20
587.6202993098357
 30
0.0
 10
706.6910222086265
 20
587.4900498990128
 30
0.0
 10
706.6128208010614
 20
587.3578644957578
 30
0.0
  0
LINE
  5
A8
330
1F
100
AcDbEntity
  8
0
  6
Continuous
 62
     7
370
    25
100
AcDbLine
 10
709.0128208011
 20
-4.7714248261
 30
0.0
 11
709.0128208011
 21
588.2871538176
 31
0.0
  0
SPLINE
  5
A9
330
1F
100
AcDbEntity
  8
0
  6
Continuous
 62
     7
370
    25
100
AcDbSpline
210
0.0
220
0.0
230
1.0
 70
     8
 71
     3
 72
    20
 73
    16
 74
     0
 42
0.000000001
 43
0.00000001
 40
0.0
 40
0.0
 40
0.0
 40
0.0
 40
0.1249999999999974
 40
0.1249999999999974
 40
0.2499999999999948
 40
0.2499999999999948
 40
0.3749999999999922
 40
0.3749999999999922
 40
0.4999999999999897
 40
0.4999999999999897
 40
0.7499999999999948
 40
0.7499999999999948
 40
0.8749999999999974
 40
0.8749999999999974
 40
1.0
 40
1.0
 40
1.0
 40
1.0
 10
709.0128208010615
 20
-4.771424826123472
 30
0.0
 10
709.0128208010616
 20
-4.732384095269104
 30
0.0
 10
708.9972842405866
 20
-4.69386539106914
 30
0.0
 10
708.935965888626
 20
-4.616458639761234
 30
0.0
 10
708.8895421430392
 20
-4.577314221774598
 30
0.0
 10
708.7695912728851
 20
-4.500163467859308
 30
0.0
 10
708.6959866286016
 20
-4.46183588611837
 30
0.0
 10
708.5212562625059
 20
-4.384289565641741
 30
0.0
 10
708.4204056336043
 20
-4.345313357973057
 30
0.0
 10
708.0891203536205
 20
-4.229818501527927
 30
0.0
 10
707.8214401922365
 20
-4.151906057857979
 30
0.0
 10
707.3887661661811
 20
-4.036426132456972
 30
0.0
 10
707.2372480793301
 20
-3.997560336591988
 30
0.0
 10
706.9278223219441
 20
-3.919786002923586
 30
0.0
 10
706.7711999922502
 20
-3.881176235968842
 30
0.0
 10
706.6128208010614
 20
-3.842135504242117
 30
0.0
  0
SPLINE
  5
AA
330
1F
100
AcDbEntity
  8
0
  6
Continuous
 62
     7
370
    25
100
AcDbSpline
210
0.0
220
0.0
230
1.0
 70
     8
 71
     3
 72
    20
 73
    16
 74
     0
 42
0.000000001
 43
0.00000001
 40
0.0
 40
0.0
 40
0.0
 40
0.0
 40
0.1250000000000054
 40
0.1250000000000054
 40
0.2500000000000108
 40
0.2500000000000108
 40
0.3750000000000162
 40
0.3750000000000162
 40
0.5000000000000215
 40
0.5000000000000215
 40
0.7500000000000027
 40
0.7500000000000027
 40
0.8750000000000012
 40
0.8750000000000012
 40
1.0
 40
1.0
 40
1.0
 40
1.0
 10
116.4128208010614
 20
587.3578644957578
 30
0.0
 10
116.3737800702068
 20
587.5162436834084
 30
0.0
 10
116.3352613660071
 20
587.6724894081001
 30
0.0
 10
116.2578546146991
 20
587.9804812575168
 30
0.0
 10
116.2187101967125
 20
588.133125364988
 30
0.0
 10
116.1415594427973
 20
588.4222096541752
 30
0.0
 10
116.1032318610562
 20
588.5600141923591
 30
0.0
 10
116.0256855405797
 20
588.8216328679979
 30
0.0
 10
115.986709332911
 20
588.9443791746806
 30
0.0
 10
115.8712144764662
 20
589.2757035516285
 30
0.0
 10
115.7933020327959
 20
589.4547146756566
 30
0.0
 10
115.677822107395
 20
589.6343297750376
 30
0.0
 10
115.6389563115299
 20
589.6805741239053
 30
0.0
 10
115.5611819778615
 20
589.7423274299164
 30
0.0
 10
115.5225722109067
 20
589.7578644957579
 30
0.0
 10
115.4835314791801
 20
589.7578644957579
 30
0.0
  0
LINE
  5
AB
330
1F
100
AcDbEntity
  8
0
  6
Continuous
 62
     7
370
    25
100
AcDbLine
 10
707.5421101229
 20
589.7578644958
 30
0.0
 11
115.4835314792
 21
589.7578644958
 31
0.0
  0
SPLINE
  5
AC
330
1F
100
AcDbEntity
  8
0
  6
Continuous
 62
     7
370
    25
100
AcDbSpline
210
0.0
220
0.0
230
1.0
 70
     8
 71
     3
 72
    14
 73
    10
 74
     0
 42
0.000000001
 43
0.00000001
 40
0.0
 40
0.0
 40
0.0
 40
0.0
 40
0.2500000000000001
 40
0.2500000000000001
 40
0.5000000000000002
 40
0.5000000000000002
 40
0.7500000000000003
 40
0.7500000000000003
 40
1.0
 40
1.0
 40
1.0
 40
1.0
 10
116.4128208010614
 20
587.3578644957578
 30
0.0
 10
116.3346193860398
 20
587.4900499116169
 30
0.0
 10
116.2589094387428
 20
587.6180319301501
 30
0.0
 10
116.103629027096
 20
587.8606559550976
 30
0.0
 10
116.0266191775128
 20
587.9710982195077
 30
0.0
 10
115.8711956914852
 20
588.1570951167012
 30
0.0
 10
115.7942459745669
 20
588.2308960955395
 30
0.0
 10
115.6388159953177
 20
588.3317146799345
 30
0.0
 10
115.561732886745
 20
588.3578644957579
 30
0.0
 10
115.4835314791801
 20
588.3578644957579
 30
0.0
  0
LINE
  5
AD
330
1F
100
AcDbEntity
  8
0
  6
Continuous
 62
     7
370
    25
100
AcDbLine
 10
115.4835314792
 20
589.7578644958
 30
0.0
 11
115.4835314792
 21
588.3578644958
 31
0.0
  0
LINE
  5
AE
330
1F
100
AcDbEntity
  8
0
  6
Continuous
 62
     7
370
    25
100
AcDbLine
 10
709.0128208011
 20
-4.7714248261
 30
0.0
 11
707.6128208011
 21
-4.7714248261
 31
0.0
  0
SPLINE
  5
AF
330
1F
100
AcDbEntity
  8
0
  6
Continuous
 62
     7
370
    25
100
AcDbSpline
210
0.0
220
0.0
230
1.0
 70
     8
 71
     3
 72
    14
 73
    10
 74
     0
 42
0.000000001
 43
0.00000001
 40
0.0
 40
0.0
 40
0.0
 40
0.0
 40
0.2499999999999998
 40
0.2499999999999998
 40
0.4999999999999999
 40
0.4999999999999999
 40
0.7499999999999999
 40
0.7499999999999999
 40
1.0
 40
1.0
 40
1.0
 40
1.0
 10
707.6128208010615
 20
-4.771424826123472
 30
0.0
 10
707.6128208010615
 20
-4.693223411101788
 30
0.0
 10
707.5872621363812
 20
-4.617513463804846
 30
0.0
 10
707.4871341077843
 20
-4.462233052157871
 30
0.0
 10
707.41356992848
 20
-4.385223202574783
 30
0.0
 10
707.2280322927882
 20
-4.229799716547411
 30
0.0
 10
707.1178673718288
 20
-4.15284999962906
 30
0.0
 10
706.8752556151394
 20
-3.997420020379894
 30
0.0
 10
706.7450062043164
 20
-3.92033691180721
 30
0.0
 10
706.6128208010614
 20
-3.842135504242117
 30
0.0
  0
SPLINE
  5
B0
330
1F
100
AcDbEntity
  8
0
  6
Continuous
 62
     7
370
    25
100
AcDbSpline
210
0.0
220
0.0
230
1.0
 70
     8
 71
     3
 72
    14
 73
    10
 74
     0
 42
0.000000001
 43
0.00000001
 40
0.0
 40
0.0
 40
0.0
 40
0.0
 40
0.25
 40
0.25
 40
0.5
 40
0.5
 40
0.75
 40
0.75
 40
1.0
 40
1.0
 40
1.0
 40
1.0
 10
116.4128208010615
 20
-3.842135504242117
 30
0.0
 10
116.2806353852025
 20
-3.920336919263745
 30
0.0
 10
116.152653366669
 20
-3.996046866560743
 30
0.0
 10
115.9100293417218
 20
-4.151327278207717
 30
0.0
 10
115.7995870773117
 20
-4.228337127790693
 30
0.0
 10
115.6135901801184
 20
-4.383760613818066
 30
0.0
 10
115.5397892012801
 20
-4.460710330736529
 30
0.0
 10
115.4389706168849
 20
-4.616140309985639
 30
0.0
 10
115.4128208010615
 20
-4.693223418558379
 30
0.0
 10
115.4128208010615
 20
-4.771424826123416
 30
0.0
  0
LINE
  5
B1
330
1F
100
AcDbEntity
  8
0
  6
Continuous
 62
     7
370
    25
100
AcDbLine
 10
114.0128208011
 20
-4.7714248261
 30
0.0
 11
115.4128208011
 21
-4.7714248261
 31
0.0
  0
SPLINE
  5
B2
330
1F
100
AcDbEntity
  8
0
  6
Continuous
 62
     7
370
    25
100
AcDbSpline
210
0.0
220
0.0
230
1.0
 70
     8
 71
     3
 72
    20
 73
    16
 74
     0
 42
0.000000001
 43
0.00000001
 40
0.0
 40
0.0
 40
0.0
 40
0.0
 40
0.1250000000000107
 40
0.1250000000000107
 40
0.2500000000000215
 40
0.2500000000000215
 40
0.3750000000000322
 40
0.3750000000000322
 40
0.500000000000043
 40
0.500000000000043
 40
0.7500000000000347
 40
0.7500000000000347
 40
0.8750000000000174
 40
0.8750000000000174
 40
1.0
 40
1.0
 40
1.0
 40
1.0
 10
706.6128208010614
 20
-3.842135504242172
 30
0.0
 10
706.651861531916
 20
-4.000514691892832
 30
0.0
 10
706.6903802361157
 20
-4.156760416584748
 30
0.0
 10
706.7677869874237
 20
-4.464752266001238
 30
0.0
 10
706.8069314054104
 20
-4.617396373472305
 30
0.0
 10
706.8840821593257
 20
-4.906480662659418
 30
0.0
 10
706.9224097410665
 20
-5.04428520084349
 30
0.0
 10
706.999956061543
 20
-5.305903876482276
 30
0.0
 10
707.0389322692117
 20
-5.428650183164963
 30
0.0
 10
707.154427125657
 20
-5.759974560112735
 30
0.0
 10
707.232339569327
 20
-5.938985684140974
 30
0.0
 10
707.3478194947278
 20
-6.118600783521777
 30
0.0
 10
707.3866852905929
 20
-6.164845132389463
 30
0.0
 10
707.4644596242615
 20
-6.226598438400732
 30
0.0
 10
707.5030693912162
 20
-6.242135504242241
 30
0.0
 10
707.5421101229429
 20
-6.24213550424213
 30
0.0
  0
SPLINE
  5
B3
330
1F
100
AcDbEntity
  8
0
  6
Continuous
 62
     7
370
    25
100
AcDbSpline
210
0.0
220
0.0
230
1.0
 70
     8
 71
     3
 72
    14
 73
    10
 74
     0
 42
0.000000001
 43
0.00000001
 40
0.0
 40
0.0
 40
0.0
 40
0.0
 40
0.2500000000000001
 40
0.2500000000000001
 40
0.5000000000000001
 40
0.5000000000000001
 40
0.7500000000000002
 40
0.7500000000000002
 40
1.0
 40
1.0
 40
1.0
 40
1.0
 10
706.6128208010614
 20
-3.842135504242172
 30
0.0
 10
706.6910222160832
 20
-3.974320920101193
 30
0.0
 10
706.7667321633802
 20
-4.10230293863445
 30
0.0
 10
706.9220125750269
 20
-4.344926963581908
 30
0.0
 10
706.9990224246101
 20
-4.455369227991945
 30
0.0
 10
707.1544459106376
 20
-4.641366125185343
 30
0.0
 10
707.231395627556
 20
-4.715167104023754
 30
0.0
 10
707.3868256068055
 20
-4.815985688418733
 30
0.0
 10
707.4639087153778
 20
-4.842135504242117
 30
0.0
 10
707.5421101229429
 20
-4.842135504242117
 30
0.0
  0
LINE
  5
B4
330
1F
100
AcDbEntity
  8
0
  6
Continuous
 62
     7
370
    25
100
AcDbLine
 10
707.5421101229
 20
-6.2421355042
 30
0.0
 11
707.5421101229
 21
-4.8421355042
 31
0.0
  0
LINE
  5
B5
330
1F
100
AcDbEntity
  8
0
  6
Continuous
 62
     7
370
    25
100
AcDbLine
 10
115.4835314792
 20
-6.2421355042
 30
0.0
 11
707.5421101229
 21
-6.2421355042
 31
0.0
  0
SPLINE
  5
B6
330
1F
100
AcDbEntity
  8
0
  6
Continuous
 62
     7
370
    25
100
AcDbSpline
210
0.0
220
0.0
230
1.0
 70
     8
 71
     3
 72
    20
 73
    16
 74
     0
 42
0.000000001
 43
0.00000001
 40
0.0
 40
0.0
 40
0.0
 40
0.0
 40
0.1249999999999974
 40
0.1249999999999974
 40
0.2499999999999948
 40
0.2499999999999948
 40
0.3749999999999922
 40
0.3749999999999922
 40
0.4999999999999897
 40
0.4999999999999897
 40
0.7499999999999948
 40
0.7499999999999948
 40
0.8749999999999974
 40
0.8749999999999974
 40
1.0
 40
1.0
 40
1.0
 40
1.0
 10
115.4835314791802
 20
-6.24213550424213
 30
0.0
 10
115.5225722100347
 20
-6.242135504242185
 30
0.0
 10
115.5610909142344
 20
-6.226598943767314
 30
0.0
 10
115.6384976655425
 20
-6.165280591806765
 30
0.0
 10
115.677642083529
 20
-6.118856846220044
 30
0.0
 10
115.7547928374442
 20
-5.998905976065839
 30
0.0
 10
115.7931204191852
 20
-5.925301331782428
 30
0.0
 10
115.870666739662
 20
-5.750570965686541
 30
0.0
 10
115.9096429473306
 20
-5.649720336785014
 30
0.0
 10
116.0251378037754
 20
-5.318435056801185
 30
0.0
 10
116.1030502474456
 20
-5.050754895417231
 30
0.0
 10
116.2185301728466
 20
-4.618080869361774
 30
0.0
 10
116.2573959687115
 20
-4.466562782510786
 30
0.0
 10
116.33517030238
 20
-4.157137025124714
 30
0.0
 10
116.3737800693347
 20
-4.000514695430946
 30
0.0
 10
116.4128208010615
 20
-3.842135504242172
 30
0.0
  0
LINE
  5
B7
330
1F
100
AcDbEntity
  8
0
  6
Continuous
 62
     7
370
    25
100
AcDbLine
 10
115.4835314792
 20
-6.2421355042
 30
0.0
 11
115.4835314792
 21
-4.8421355042
 31
0.0
  0
SPLINE
  5
B8
330
1F
100
AcDbEntity
  8
0
  6
Continuous
 62
     7
370
    25
100
AcDbSpline
210
0.0
220
0.0
230
1.0
 70
     8
 71
     3
 72
    14
 73
    10
 74
     0
 42
0.000000001
 43
0.00000001
 40
0.0
 40
0.0
 40
0.0
 40
0.0
 40
0.25
 40
0.25
 40
0.5
 40
0.5
 40
0.75
 40
0.75
 40
1.0
 40
1.0
 40
1.0
 40
1.0
 10
115.4835314791802
 20
-4.842135504242117
 30
0.0
 10
115.5617328942017
 20
-4.842135504242117
 30
0.0
 10
115.6374428414987
 20
-4.816576839561881
 30
0.0
 10
115.7927232531458
 20
-4.716448810965057
 30
0.0
 10
115.8697331027287
 20
-4.64288463166096
 30
0.0
 10
116.0251565887561
 20
-4.45734699596917
 30
0.0
 10
116.1021063056746
 20
-4.347182075009393
 30
0.0
 10
116.2575362849239
 20
-4.104570318320178
 30
0.0
 10
116.3346193934964
 20
-3.974320907497109
 30
0.0
 10
116.4128208010615
 20
-3.842135504242172
 30
0.0
  0
CIRCLE
  5
B9
330
1F
100
AcDbEntity
  8
0
  6
Continuous
 62
     7
370
    25
100
AcDbCircle
 10
170.0128208011
 20
541.7578644958
 30
0.0
 40
5.500000000000071
  0
ARC
  5
BA
330
1F
100
AcDbEntity
  8
0
  6
Continuous
 62
     7
370
    25
100
AcDbCircle
 10
172.1928307027
 20
542.8148006106
 30
0.0
 40
0.5050994627335197
100
AcDbArc
 50
298.8005827702
 51
112.9304972368
  0
ARC
  5
BB
330
1F
100
AcDbEntity
  8
0
  6
Continuous
 62
     7
370
    25
100
AcDbCircle
 10
170.0128208011
 20
541.7578644958
 30
0.0
 40
2.499999999999939
100
AcDbArc
 50
37.506301084
 51
74.2247789229
  0
ARC
  5
BC
330
1F
100
AcDbEntity
  8
0
  6
Continuous
 62
     7
370
    25
100
AcDbCircle
 10
170.1874922262
 20
544.1742765084
 30
0.0
 40
0.5050994627349341
100
AcDbArc
 50
358.800582771
 51
172.930497236
  0
ARC
  5
BD
330
1F
100
AcDbEntity
  8
0
  6
Continuous
 62
     7
370
    25
100
AcDbCircle
 10
170.0128208011
 20
541.7578644958
 30
0.0
 40
2.499999999999837
100
AcDbArc
 50
97.5063010841
 51
134.2247789229
  0
ARC
  5
BE
330
1F
100
AcDbEntity
  8
0
  6
Continuous
 62
     7
370
    25
100
AcDbCircle
 10
168.0074823247
 20
543.1173403936
 30
0.0
 40
0.5050994627352092
100
AcDbArc
 50
58.8005827697
 51
232.9304972372
  0
ARC
  5
BF
330
1F
100
AcDbEntity
  8
0
  6
Continuous
 62
     7
370
    25
100
AcDbCircle
 10
170.0128208011
 20
541.7578644958
 30
0.0
 40
2.499999999999941
100
AcDbArc
 50
157.5063010841
 51
194.2247789229
  0
ARC
  5
C0
330
1F
100
AcDbEntity
  8
0
  6
Continuous
 62
     7
370
    25
100
AcDbCircle
 10
167.8328108995
 20
540.7009283809
 30
0.0
 40
0.5050994627333371
100
AcDbArc
 50
118.8005827707
 51
292.9304972361
  0
ARC
  5
C1
330
1F
100
AcDbEntity
  8
0
  6
Continuous
 62
     7
370
    25
100
AcDbCircle
 10
170.0128208011
 20
541.7578644958
 30
0.0
 40
2.500000000000118
100
AcDbArc
 50
217.506301084
 51
254.2247789229
  0
ARC
  5
C2
330
1F
100
AcDbEntity
  8
0
  6
Continuous
 62
     7
370
    25
100
AcDbCircle
 10
169.8381493759
 20
539.3414524831
 30
0.0
 40
0.5050994627366052
100
AcDbArc
 50
178.8005827716
 51
352.9304972354
  0
ARC
  5
C3
330
1F
100
AcDbEntity
  8
0
  6
Continuous
 62
     7
370
    25
100
AcDbCircle
 10
170.0128208011
 20
541.7578644958
 30
0.0
 40
2.500000000000052
100
AcDbArc
 50
277.5063010841
 51
314.2247789229
  0
ARC
  5
C4
330
1F
100
AcDbEntity
  8
0
  6
Continuous
 62
     7
370
    25
100
AcDbCircle
 10
172.0181592775
 20
540.3983885979
 30
0.0
 40
0.5050994627355567
100
AcDbArc
 50
238.8005827701
 51
52.9304972368
  0
ARC
  5
C5
330
1F
100
AcDbEntity
  8
0
  6
Continuous
 62
     7
370
    25
100
AcDbCircle
 10
170.0128208011
 20
541.7578644958
 30
0.0
 40
2.499999999999968
100
AcDbArc
 50
337.5063010841
 51
14.2247789229
  0
CIRCLE
  5
C6
330
1F
100
AcDbEntity
  8
0
  6
Continuous
 62
     7
370
    25
100
AcDbCircle
 10
653.0128208011
 20
541.7578644958
 30
0.0
 40
5.500000000000139
  0
ARC
  5
C7
330
1F
100
AcDbEntity
  8
0
  6
Continuous
 62
     7
370
    25
100
AcDbCircle
 10
653.0128208011
 20
541.7578644958
 30
0.0
 40
2.499999999999944
100
AcDbArc
 50
100.8681863767
 51
137.5866642156
  0
ARC
  5
C8
330
1F
100
AcDbEntity
  8
0
  6
Continuous
 62
     7
370
    25
100
AcDbCircle
 10
650.9312105941
 20
542.997403147
 30
0.0
 40
0.5050994627349373
100
AcDbArc
 50
62.1624680637
 51
236.2923825287
  0
ARC
  5
C9
330
1F
100
AcDbEntity
  8
0
  6
Continuous
 62
     7
370
    25
100
AcDbCircle
 10
653.0128208011
 20
541.7578644958
 30
0.0
 40
2.500000000000051
100
AcDbArc
 50
160.8681863768
 51
197.5866642156
  0
ARC
  5
CA
330
1F
100
AcDbEntity
  8
0
  6
Continuous
 62
     7
370
    25
100
AcDbCircle
 10
650.8985437366
 20
540.5749065014
 30
0.0
 40
0.5050994627352393
100
AcDbArc
 50
122.1624680624
 51
296.2923825299
  0
ARC
  5
CB
330
1F
100
AcDbEntity
  8
0
  6
Continuous
 62
     7
370
    25
100
AcDbCircle
 10
653.0128208011
 20
541.7578644958
 30
0.0
 40
2.500000000000023
100
AcDbArc
 50
220.8681863768
 51
257.5866642156
  0
ARC
  5
CC
330
1F
100
AcDbEntity
  8
0
  6
Continuous
 62
     7
370
    25
100
AcDbCircle
 10
652.9801539436
 20
539.3353678501
 30
0.0
 40
0.5050994627333343
100
AcDbArc
 50
182.1624680634
 51
356.2923825288
  0
ARC
  5
CD
330
1F
100
AcDbEntity
  8
0
  6
Continuous
 62
     7
370
    25
100
AcDbCircle
 10
653.0128208011
 20
541.7578644958
 30
0.0
 40
2.500000000000046
100
AcDbArc
 50
280.8681863767
 51
317.5866642156
  0
ARC
  5
CE
330
1F
100
AcDbEntity
  8
0
  6
Continuous
 62
     7
370
    25
100
AcDbCircle
 10
655.094431008
 20
540.5183258445
 30
0.0
 40
0.5050994627367396
100
AcDbArc
 50
242.1624680643
 51
56.2923825281
  0
ARC
  5
CF
330
1F
100
AcDbEntity
  8
0
  6
Continuous
 62
     7
370
    25
100
AcDbCircle
 10
653.0128208011
 20
541.7578644958
 30
0.0
 40
2.499999999999998
100
AcDbArc
 50
340.8681863768
 51
17.5866642156
  0
ARC
  5
D0
330
1F
100
AcDbEntity
  8
0
  6
Continuous
 62
     7
370
    25
100
AcDbCircle
 10
655.1270978655
 20
542.9408224901
 30
0.0
 40
0.5050994627356233
100
AcDbArc
 50
302.1624680628
 51
116.2923825295
  0
ARC
  5
D1
330
1F
100
AcDbEntity
  8
0
  6
Continuous
 62
     7
370
    25
100
AcDbCircle
 10
653.0128208011
 20
541.7578644958
 30
0.0
 40
2.499999999999937
100
AcDbArc
 50
40.8681863768
 51
77.5866642156
  0
ARC
  5
D2
330
1F
100
AcDbEntity
  8
0
  6
Continuous
 62
     7
370
    25
100
AcDbCircle
 10
653.0454876586
 20
544.1803611414
 30
0.0
 40
0.505099462733586
100
AcDbArc
 50
2.1624680629
 51
176.2923825295
  0
CIRCLE
  5
D3
330
1F
100
AcDbEntity
  8
0
  6
Continuous
 62
     7
370
    25
100
AcDbCircle
 10
653.0128208011
 20
291.7578644958
 30
0.0
 40
5.500000000000135
  0
ARC
  5
D4
330
1F
100
AcDbEntity
  8
0
  6
Continuous
 62
     7
370
    25
100
AcDbCircle
 10
650.786862652
 20
290.8014820197
 30
0.0
 40
0.5050994627334576
100
AcDbArc
 50
116.1858115767
 51
290.3157260433
  0
ARC
  5
D5
330
1F
100
AcDbEntity
  8
0
  6
Continuous
 62
     7
370
    25
100
AcDbCircle
 10
653.0128208011
 20
291.7578644958
 30
0.0
 40
2.500000000000004
100
AcDbArc
 50
214.8915298906
 51
251.6100077295
  0
ARC
  5
D6
330
1F
100
AcDbEntity
  8
0
  6
Continuous
 62
     7
370
    25
100
AcDbCircle
 10
654.9540513956
 20
290.308319429
 30
0.0
 40
0.5050994627351528
100
AcDbArc
 50
236.1858115763
 51
50.3157260438
  0
ARC
  5
D7
330
1F
100
AcDbEntity
  8
0
  6
Continuous
 62
     7
370
    25
100
AcDbCircle
 10
653.0128208011
 20
291.7578644958
 30
0.0
 40
2.499999999999947
100
AcDbArc
 50
334.8915298906
 51
11.6100077295
  0
ARC
  5
D8
330
1F
100
AcDbEntity
  8
0
  6
Continuous
 62
     7
370
    25
100
AcDbCircle
 10
655.2387789501
 20
292.7142469718
 30
0.0
 40
0.505099462733322
100
AcDbArc
 50
296.1858115773
 51
110.3157260427
  0
ARC
  5
D9
330
1F
100
AcDbEntity
  8
0
  6
Continuous
 62
     7
370
    25
100
AcDbCircle
 10
653.0128208011
 20
291.7578644958
 30
0.0
 40
2.499999999999891
100
AcDbArc
 50
34.8915298906
 51
71.6100077295
  0
ARC
  5
DA
330
1F
100
AcDbEntity
  8
0
  6
Continuous
 62
     7
370
    25
100
AcDbCircle
 10
653.2975483556
 20
294.1637920386
 30
0.0
 40
0.5050994627366275
100
AcDbArc
 50
356.1858115782
 51
170.315726042
  0
ARC
  5
DB
330
1F
100
AcDbEntity
  8
0
  6
Continuous
 62
     7
370
    25
100
AcDbCircle
 10
651.0715902065
 20
293.2074095626
 30
0.0
 40
0.505099462735536
100
AcDbArc
 50
56.1858115767
 51
230.3157260434
  0
ARC
  5
DC
330
1F
100
AcDbEntity
  8
0
  6
Continuous
 62
     7
370
    25
100
AcDbCircle
 10
653.0128208011
 20
291.7578644958
 30
0.0
 40
2.500000000000004
100
AcDbArc
 50
94.8915298907
 51
131.6100077294
  0
ARC
  5
DD
330
1F
100
AcDbEntity
  8
0
  6
Continuous
 62
     7
370
    25
100
AcDbCircle
 10
652.7280932466
 20
289.3519369529
 30
0.0
 40
0.5050994627349271
100
AcDbArc
 50
176.1858115776
 51
350.3157260426
  0
ARC
  5
DE
330
1F
100
AcDbEntity
  8
0
  6
Continuous
 62
     7
370
    25
100
AcDbCircle
 10
653.0128208011
 20
291.7578644958
 30
0.0
 40
2.49999999999995
100
AcDbArc
 50
154.8915298906
 51
191.6100077295
  0
ARC
  5
DF
330
1F
100
AcDbEntity
  8
0
  6
Continuous
 62
     7
370
    25
100
AcDbCircle
 10
653.0128208011
 20
291.7578644958
 30
0.0
 40
2.499999999999952
100
AcDbArc
 50
274.8915298907
 51
311.6100077294
  0
ARC
  5
E0
330
1F
100
AcDbEntity
  8
0
  6
Continuous
 62
     7
370
    25
100
AcDbCircle
 10
172.1928307027
 20
292.8148006106
 30
0.0
 40
0.505099462733478
100
AcDbArc
 50
298.8005827702
 51
112.9304972368
  0
ARC
  5
E1
330
1F
100
AcDbEntity
  8
0
  6
Continuous
 62
     7
370
    25
100
AcDbCircle
 10
170.0128208011
 20
291.7578644958
 30
0.0
 40
2.499999999999928
100
AcDbArc
 50
37.506301084
 51
74.2247789229
  0
ARC
  5
E2
330
1F
100
AcDbEntity
  8
0
  6
Continuous
 62
     7
370
    25
100
AcDbCircle
 10
170.1874922262
 20
294.1742765084
 30
0.0
 40
0.5050994627349352
100
AcDbArc
 50
358.800582771
 51
172.930497236
  0
ARC
  5
E3
330
1F
100
AcDbEntity
  8
0
  6
Continuous
 62
     7
370
    25
100
AcDbCircle
 10
170.0128208011
 20
291.7578644958
 30
0.0
 40
2.499999999999943
100
AcDbArc
 50
97.5063010841
 51
134.2247789229
  0
ARC
  5
E4
330
1F
100
AcDbEntity
  8
0
  6
Continuous
 62
     7
370
    25
100
AcDbCircle
 10
168.0074823247
 20
293.1173403936
 30
0.0
 40
0.5050994627351638
100
AcDbArc
 50
58.8005827697
 51
232.9304972372
  0
ARC
  5
E5
330
1F
100
AcDbEntity
  8
0
  6
Continuous
 62
     7
370
    25
100
AcDbCircle
 10
170.0128208011
 20
291.7578644958
 30
0.0
 40
2.499999999999932
100
AcDbArc
 50
157.5063010841
 51
194.2247789229
  0
ARC
  5
E6
330
1F
100
AcDbEntity
  8
0
  6
Continuous
 62
     7
370
    25
100
AcDbCircle
 10
167.8328108995
 20
290.7009283809
 30
0.0
 40
0.5050994627332872
100
AcDbArc
 50
118.8005827707
 51
292.9304972361
  0
ARC
  5
E7
330
1F
100
AcDbEntity
  8
0
  6
Continuous
 62
     7
370
    25
100
AcDbCircle
 10
170.0128208011
 20
291.7578644958
 30
0.0
 40
2.499999999999968
100
AcDbArc
 50
217.506301084
 51
254.2247789229
  0
ARC
  5
E8
330
1F
100
AcDbEntity
  8
0
  6
Continuous
 62
     7
370
    25
100
AcDbCircle
 10
169.8381493759
 20
289.3414524831
 30
0.0
 40
0.5050994627366089
100
AcDbArc
 50
178.8005827716
 51
352.9304972354
  0
ARC
  5
E9
330
1F
100
AcDbEntity
  8
0
  6
Continuous
 62
     7
370
    25
100
AcDbCircle
 10
170.0128208011
 20
291.7578644958
 30
0.0
 40
2.499999999999995
100
AcDbArc
 50
277.5063010841
 51
314.2247789229
  0
ARC
  5
EA
330
1F
100
AcDbEntity
  8
0
  6
Continuous
 62
     7
370
    25
100
AcDbCircle
 10
172.0181592775
 20
290.3983885979
 30
0.0
 40
0.5050994627355316
100
AcDbArc
 50
238.8005827701
 51
52.9304972368
  0
ARC
  5
EB
330
1F
100
AcDbEntity
  8
0
  6
Continuous
 62
     7
370
    25
100
AcDbCircle
 10
170.0128208011
 20
291.7578644958
 30
0.0
 40
2.499999999999968
100
AcDbArc
 50
337.5063010841
 51
14.2247789229
  0
CIRCLE
  5
EC
330
1F
100
AcDbEntity
  8
0
  6
Continuous
 62
     7
370
    25
100
AcDbCircle
 10
170.0128208011
 20
291.7578644958
 30
0.0
 40
5.500000000000119
  0
CIRCLE
  5
ED
330
1F
100
AcDbEntity
  8
0
  6
Continuous
 62
     7
370
    25
100
AcDbCircle
 10
170.0128208011
 20
41.7578644958
 30
0.0
 40
5.50000000000012
  0
ARC
  5
EE
330
1F
100
AcDbEntity
  8
0
  6
Continuous
 62
     7
370
    25
100
AcDbCircle
 10
167.677507306
 20
41.1129862114
 30
0.0
 40
0.5050994627335099
100
AcDbArc
 50
108.3721109518
 51
282.5020254184
  0
ARC
  5
EF
330
1F
100
AcDbEntity
  8
0
  6
Continuous
 62
     7
370
    25
100
AcDbCircle
 10
170.0128208011
 20
41.7578644958
 30
0.0
 40
2.499999999999942
100
AcDbArc
 50
207.0778292656
 51
243.7963071045
  0
ARC
  5
F0
330
1F
100
AcDbEntity
  8
0
  6
Continuous
 62
     7
370
    25
100
AcDbCircle
 10
169.4036450301
 20
39.4129845411
 30
0.0
 40
0.5050994627349438
100
AcDbArc
 50
168.3721109526
 51
342.5020254176
  0
ARC
  5
F1
330
1F
100
AcDbEntity
  8
0
  6
Continuous
 62
     7
370
    25
100
AcDbCircle
 10
170.0128208011
 20
41.7578644958
 30
0.0
 40
2.499999999999945
100
AcDbArc
 50
267.0778292657
 51
303.7963071045
  0
ARC
  5
F2
330
1F
100
AcDbEntity
  8
0
  6
Continuous
 62
     7
370
    25
100
AcDbCircle
 10
171.7389585252
 20
40.0578628254
 30
0.0
 40
0.5050994627351675
100
AcDbArc
 50
228.3721109513
 51
42.5020254188
  0
ARC
  5
F3
330
1F
100
AcDbEntity
  8
0
  6
Continuous
 62
     7
370
    25
100
AcDbCircle
 10
170.0128208011
 20
41.7578644958
 30
0.0
 40
2.499999999999961
100
AcDbArc
 50
327.0778292657
 51
3.7963071045
  0
ARC
  5
F4
330
1F
100
AcDbEntity
  8
0
  6
Continuous
 62
     7
370
    25
100
AcDbCircle
 10
172.3481342961
 20
42.4027427801
 30
0.0
 40
0.5050994627332751
100
AcDbArc
 50
288.3721109524
 51
102.5020254178
  0
ARC
  5
F5
330
1F
100
AcDbEntity
  8
0
  6
Continuous
 62
     7
370
    25
100
AcDbCircle
 10
170.0128208011
 20
41.7578644958
 30
0.0
 40
2.499999999999969
100
AcDbArc
 50
27.0778292656
 51
63.7963071045
  0
ARC
  5
F6
330
1F
100
AcDbEntity
  8
0
  6
Continuous
 62
     7
370
    25
100
AcDbCircle
 10
170.621996572
 20
44.1027444504
 30
0.0
 40
0.5050994627365746
100
AcDbArc
 50
348.3721109532
 51
162.5020254171
  0
ARC
  5
F7
330
1F
100
AcDbEntity
  8
0
  6
Continuous
 62
     7
370
    25
100
AcDbCircle
 10
170.0128208011
 20
41.7578644958
 30
0.0
 40
2.499999999999952
100
AcDbArc
 50
87.0778292658
 51
123.7963071045
  0
ARC
  5
F8
330
1F
100
AcDbEntity
  8
0
  6
Continuous
 62
     7
370
    25
100
AcDbCircle
 10
168.2866830769
 20
43.4578661661
 30
0.0
 40
0.5050994627354998
100
AcDbArc
 50
48.3721109517
 51
222.5020254184
  0
ARC
  5
F9
330
1F
100
AcDbEntity
  8
0
  6
Continuous
 62
     7
370
    25
100
AcDbCircle
 10
170.0128208011
 20
41.7578644958
 30
0.0
 40
2.499999999999955
100
AcDbArc
 50
147.0778292657
 51
183.7963071045
  0
CIRCLE
  5
FA
330
1F
100
AcDbEntity
  8
0
  6
Continuous
 62
     7
370
    25
100
AcDbCircle
 10
653.0128208011
 20
41.7578644958
 30
0.0
 40
5.500000000000116
  0
ARC
  5
FB
330
1F
100
AcDbEntity
  8
0
  6
Continuous
 62
     7
370
    25
100
AcDbCircle
 10
653.576478183
 20
39.4016286252
 30
0.0
 40
0.5050994627335629
100
AcDbArc
 50
196.3884805024
 51
10.518394969
  0
ARC
  5
FC
330
1F
100
AcDbEntity
  8
0
  6
Continuous
 62
     7
370
    25
100
AcDbCircle
 10
653.0128208011
 20
41.7578644958
 30
0.0
 40
2.499999999999992
100
AcDbArc
 50
295.0941988163
 51
331.8126766552
  0
ARC
  5
FD
330
1F
100
AcDbEntity
  8
0
  6
Continuous
 62
     7
370
    25
100
AcDbCircle
 10
654.7715522313
 20
43.4241240428
 30
0.0
 40
0.5050994627351777
100
AcDbArc
 50
316.388480502
 51
130.5183949694
  0
ARC
  5
FE
330
1F
100
AcDbEntity
  8
0
  6
Continuous
 62
     7
370
    25
100
AcDbCircle
 10
653.0128208011
 20
41.7578644958
 30
0.0
 40
2.49999999999998
100
AcDbArc
 50
55.0941988163
 51
91.8126766551
  0
ARC
  5
FF
330
1F
100
AcDbEntity
  8
0
  6
Continuous
 62
     7
370
    25
100
AcDbCircle
 10
652.4491634192
 20
44.1141003663
 30
0.0
 40
0.5050994627332721
100
AcDbArc
 50
16.388480503
 51
190.5183949684
  0
ARC
  5
100
330
1F
100
AcDbEntity
  8
0
  6
Continuous
 62
     7
370
    25
100
AcDbCircle
 10
653.0128208011
 20
41.7578644958
 30
0.0
 40
2.499999999999944
100
AcDbArc
 50
115.0941988162
 51
151.8126766551
  0
ARC
  5
101
330
1F
100
AcDbEntity
  8
0
  6
Continuous
 62
     7
370
    25
100
AcDbCircle
 10
651.2540893708
 20
40.0916049487
 30
0.0
 40
0.5050994627355493
100
AcDbArc
 50
136.3884805023
 51
310.5183949691
  0
ARC
  5
102
330
1F
100
AcDbEntity
  8
0
  6
Continuous
 62
     7
370
    25
100
AcDbCircle
 10
653.0128208011
 20
41.7578644958
 30
0.0
 40
2.499999999999944
100
AcDbArc
 50
235.0941988163
 51
271.8126766551
  0
ARC
  5
103
330
1F
100
AcDbEntity
  8
0
  6
Continuous
 62
     7
370
    25
100
AcDbCircle
 10
655.3352096132
 20
41.0678881722
 30
0.0
 40
0.5050994627349902
100
AcDbArc
 50
256.3884805032
 51
70.5183949683
  0
ARC
  5
104
330
1F
100
AcDbEntity
  8
0
  6
Continuous
 62
     7
370
    25
100
AcDbCircle
 10
653.0128208011
 20
41.7578644958
 30
0.0
 40
2.499999999999908
100
AcDbArc
 50
175.0941988164
 51
211.8126766551
  0
ARC
  5
105
330
1F
100
AcDbEntity
  8
0
  6
Continuous
 62
     7
370
    25
100
AcDbCircle
 10
650.6904319889
 20
42.4478408193
 30
0.0
 40
0.5050994627366453
100
AcDbArc
 50
76.3884805038
 51
250.5183949677
  0
ARC
  5
106
330
1F
100
AcDbEntity
  8
0
  6
Continuous
 62
     7
370
    25
100
AcDbCircle
 10
653.0128208011
 20
41.7578644958
 30
0.0
 40
2.499999999999994
100
AcDbArc
 50
355.0941988163
 51
31.8126766551
  0
LINE
  5
107
330
1F
100
AcDbEntity
  8
0
  6
Continuous
 62
     7
370
    25
100
AcDbLine
 10
158.5128208011
 20
624.2578644958
 30
0.0
 11
159.3128208011
 21
624.2578644958
 31
0.0
  0
LINE
  5
108
330
1F
100
AcDbEntity
  8
0
  6
Continuous
 62
     7
370
    25
100
AcDbLine
 10
159.3128208011
 20
624.2578644958
 30
0.0
 11
159.3128208011
 21
621.2578644958
 31
0.0
  0
LINE
  5
109
330
1F
100
AcDbEntity
  8
0
  6
Continuous
 62
     7
370
    25
100
AcDbLine
 10
158.5128208011
 20
621.2578644958
 30
0.0
 11
158.5128208011
 21
624.2578644958
 31
0.0
  0
LINE
  5
10A
330
1F
100
AcDbEntity
  8
0
  6
Continuous
 62
     7
370
    25
100
AcDbLine
 10
159.3128208011
 20
604.2578644958
 30
0.0
 11
159.3128208011
 21
621.2578644958
 31
0.0
  0
LINE
  5
10B
330
1F
100
AcDbEntity
  8
0
  6
Continuous
 62
     7
370
    25
100
AcDbLine
 10
158.5128208011
 20
604.2578644958
 30
0.0
 11
159.3128208011
 21
604.2578644958
 31
0.0
  0
LINE
  5
10C
330
1F
100
AcDbEntity
  8
0
  6
Continuous
 62
     7
370
    25
100
AcDbLine
 10
158.5128208011
 20
604.2578644958
 30
0.0
 11
158.5128208011
 21
621.2578644958
 31
0.0
  0
LINE
  5
10D
330
1F
100
AcDbEntity
  8
0
  6
Continuous
 62
     7
370
    25
100
AcDbLine
 10
664.5128208011
 20
621.2578644958
 30
0.0
 11
664.5128208011
 21
604.2578644958
 31
0.0
  0
LINE
  5
10E
330
1F
100
AcDbEntity
  8
0
  6
Continuous
 62
     7
370
    25
100
AcDbLine
 10
663.7128208011
 20
621.2578644958
 30
0.0
 11
663.7128208011
 21
604.2578644958
 31
0.0
  0
LINE
  5
10F
330
1F
100
AcDbEntity
  8
0
  6
Continuous
 62
     7
370
    25
100
AcDbLine
 10
664.5128208011
 20
604.2578644958
 30
0.0
 11
663.7128208011
 21
604.2578644958
 31
0.0
  0
LINE
  5
110
330
1F
100
AcDbEntity
  8
0
  6
Continuous
 62
     7
370
    25
100
AcDbLine
 10
663.7128208011
 20
624.2578644958
 30
0.0
 11
664.5128208011
 21
624.2578644958
 31
0.0
  0
LINE
  5
111
330
1F
100
AcDbEntity
  8
0
  6
Continuous
 62
     7
370
    25
100
AcDbLine
 10
664.5128208011
 20
624.2578644958
 30
0.0
 11
664.5128208011
 21
621.2578644958
 31
0.0
  0
LINE
  5
112
330
1F
100
AcDbEntity
  8
0
  6
Continuous
 62
     7
370
    25
100
AcDbLine
 10
663.7128208011
 20
621.2578644958
 30
0.0
 11
663.7128208011
 21
624.2578644958
 31
0.0
  0
LINE
  5
113
330
1F
100
AcDbEntity
  8
0
  6
Continuous
 62
     7
370
    25
100
AcDbLine
 10
159.3128208011
 20
589.7578644958
 30
0.0
 11
159.3128208011
 21
601.0578644958
 31
0.0
  0
LINE
  5
114
330
1F
100
AcDbEntity
  8
0
  6
Continuous
 62
     7
370
    25
100
AcDbLine
 10
159.3128208011
 20
602.7578644958
 30
0.0
 11
159.3128208011
 21
604.2578644958
 31
0.0
  0
LINE
  5
115
330
1F
100
AcDbEntity
  8
0
  6
Continuous
 62
     7
370
    25
100
AcDbLine
 10
158.5128208011
 20
589.7578644958
 30
0.0
 11
158.5128208011
 21
604.2578644958
 31
0.0
  0
LINE
  5
116
330
1F
100
AcDbEntity
  8
0
  6
Continuous
 62
     7
370
    25
100
AcDbLine
 10
664.5128208011
 20
604.2578644958
 30
0.0
 11
664.5128208011
 21
589.7578644958
 31
0.0
  0
LINE
  5
117
330
1F
100
AcDbEntity
  8
0
  6
Continuous
 62
     7
370
    25
100
AcDbLine
 10
663.7128208011
 20
604.2578644958
 30
0.0
 11
663.7128208011
 21
602.7578644958
 31
0.0
  0
LINE
  5
118
330
1F
100
AcDbEntity
  8
0
  6
Continuous
 62
     7
370
    25
100
AcDbLine
 10
663.7128208011
 20
601.0578644958
 30
0.0
 11
663.7128208011
 21
589.7578644958
 31
0.0
  0
LINE
  5
119
330
1F
100
AcDbEntity
  8
0
  6
Continuous
 62
     7
370
    25
100
AcDbLine
 10
673.1715708011
 20
589.7578644958
 30
0.0
 11
673.1715708011
 21
595.7578644958
 31
0.0
  0
LINE
  5
11A
330
1F
100
AcDbEntity
  8
0
  6
Continuous
 62
     7
370
    25
100
AcDbLine
 10
673.7128208011
 20
590.8734715801
 30
0.0
 11
673.7128208011
 21
595.2166144958
 31
0.0
  0
LINE
  5
11B
330
1F
100
AcDbEntity
  8
0
  6
Continuous
 62
     7
370
    25
100
AcDbLine
 10
673.7128208011
 20
590.2991144957
 30
0.0
 11
673.7128208011
 21
590.8734715801
 31
0.0
  0
LINE
  5
11C
330
1F
100
AcDbEntity
  8
0
  6
Continuous
 62
     7
370
    25
100
AcDbLine
 10
159.0918905685
 20
602.7578644958
 30
0.0
 11
663.9337510336
 21
602.7578644958
 31
0.0
  0
LINE
  5
11D
330
1F
100
AcDbEntity
  8
0
  6
Continuous
 62
     7
370
    25
100
AcDbLine
 10
159.0918905685
 20
601.0578644958
 30
0.0
 11
663.9337510336
 21
601.0578644958
 31
0.0
  0
ELLIPSE
  5
11E
330
1F
100
AcDbEntity
  8
0
  6
Continuous
 62
     7
370
    25
100
AcDbEllipse
 10
663.9337510336
 20
601.9078644958
 30
0.0
 11
0.0
 21
0.8500000000000227
 31
0.0
210
0.0
220
0.0
230
1.0
 40
0.0930232558
 41
3.141592653588355
 42
6.283185307179586
  0
ELLIPSE
  5
11F
330
1F
100
AcDbEntity
  8
0
  6
Continuous
 62
     7
370
    25
100
AcDbEllipse
 10
159.0918905685
 20
601.9078644958
 30
0.0
 11
0.0
 21
0.8500000000000227
 31
0.0
210
0.0
220
0.0
230
1.0
 40
0.0930232558
 41
0.0
 42
3.141592653589076
  0
LINE
  5
120
330
1F
100
AcDbEntity
  8
0
  6
Continuous
 62
     7
370
    25
100
AcDbLine
 10
160.0128208011
 20
601.0578644958
 30
0.0
 11
160.0128208011
 21
600.9578644958
 31
0.0
  0
LINE
  5
121
330
1F
100
AcDbEntity
  8
0
  6
Continuous
 62
     7
370
    25
100
AcDbLine
 10
663.0128208011
 20
600.9578644958
 30
0.0
 11
663.0128208011
 21
601.0578644958
 31
0.0
  0
LINE
  5
122
330
1F
100
AcDbEntity
  8
0
  6
Continuous
 62
     7
370
    25
100
AcDbLine
 10
160.0128208011
 20
600.9578644958
 30
0.0
 11
160.0128208011
 21
589.7578644958
 31
0.0
  0
LINE
  5
123
330
1F
100
AcDbEntity
  8
0
  6
Continuous
 62
     7
370
    25
100
AcDbLine
 10
663.0128208011
 20
589.7578644958
 30
0.0
 11
663.0128208011
 21
600.9578644958
 31
0.0
  0
LINE
  5
124
330
1F
100
AcDbEntity
  8
0
  6
Continuous
 62
     7
370
    25
100
AcDbLine
 10
149.3128208011
 20
595.2166144958
 30
0.0
 11
149.3128208011
 21
590.2991144957
 31
0.0
  0
LINE
  5
125
330
1F
100
AcDbEntity
  8
0
  6
Continuous
 62
     7
370
    25
100
AcDbLine
 10
149.8540708011
 20
594.054230342
 30
0.0
 11
149.8540708011
 21
589.7578644958
 31
0.0
  0
LINE
  5
126
330
1F
100
AcDbEntity
  8
0
  6
Continuous
 62
     7
370
    25
100
AcDbLine
 10
149.8540708011
 20
595.7578644958
 30
0.0
 11
149.8540708011
 21
594.054230342
 31
0.0
  0
ARC
  5
127
330
1F
100
AcDbEntity
  8
0
  6
Continuous
 62
     7
370
    25
100
AcDbCircle
 10
652.8382871161
 20
594.3340785064
 30
0.0
 40
12.03669752930524
100
AcDbArc
 50
186.2565722693
 51
191.9710500657
  0
ARC
  5
128
330
1F
100
AcDbEntity
  8
0
  6
Continuous
 62
     7
370
    25
100
AcDbCircle
 10
641.4366067904
 20
602.5833308108
 30
0.0
 40
12.03669752932363
100
AcDbArc
 50
276.2565722693
 51
281.9710500657
  0
ARC
  5
129
330
1F
100
AcDbEntity
  8
0
  6
Continuous
 62
     7
370
    25
100
AcDbCircle
 10
633.1873544859
 20
591.1816504851
 30
0.0
 40
12.03669752941967
100
AcDbArc
 50
6.2565722694
 51
11.9710500657
  0
ARC
  5
12A
330
1F
100
AcDbEntity
  8
0
  6
Continuous
 62
     7
370
    25
100
AcDbCircle
 10
644.5890348117
 20
582.9323981807
 30
0.0
 40
12.03669752937951
100
AcDbArc
 50
96.2565722694
 51
101.9710500657
  0
ARC
  5
12B
330
1F
100
AcDbEntity
  8
0
  6
Continuous
 62
     7
370
    25
100
AcDbCircle
 10
643.0128208011
 20
592.7578644958
 30
0.0
 40
4.000000000000072
100
AcDbArc
 50
311.4096221093
 51
99.1138111675
  0
ARC
  5
12C
330
1F
100
AcDbEntity
  8
0
  6
Continuous
 62
     7
370
    25
100
AcDbCircle
 10
643.0128208011
 20
592.7578644958
 30
0.0
 40
4.000000000000072
100
AcDbArc
 50
99.1138111675
 51
228.5903778907
  0
LINE
  5
12D
330
1F
100
AcDbEntity
  8
0
  6
Continuous
 62
     7
370
    25
100
AcDbLine
 10
643.510208546
 20
593.4453275356
 30
0.0
 11
644.9622842699
 21
593.6782714008
 31
0.0
  0
LINE
  5
12E
330
1F
100
AcDbEntity
  8
0
  6
Continuous
 62
     7
370
    25
100
AcDbLine
 10
641.0633573322
 20
591.8374575907
 30
0.0
 11
642.5154330561
 21
592.0704014559
 31
0.0
  0
LINE
  5
12F
330
1F
100
AcDbEntity
  8
0
  6
Continuous
 62
     7
370
    25
100
AcDbLine
 10
643.7002838409
 20
592.2604767508
 30
0.0
 11
645.1523595649
 21
592.493420616
 31
0.0
  0
LINE
  5
130
330
1F
100
AcDbEntity
  8
0
  6
Continuous
 62
     7
370
    25
100
AcDbLine
 10
642.092413896
 20
594.7073279646
 30
0.0
 11
642.3253577612
 21
593.2552522407
 31
0.0
  0
LINE
  5
131
330
1F
100
AcDbEntity
  8
0
  6
Continuous
 62
     7
370
    25
100
AcDbLine
 10
643.7002838409
 20
592.2604767508
 30
0.0
 11
643.9332277061
 21
590.8084010269
 31
0.0
  0
LINE
  5
132
330
1F
100
AcDbEntity
  8
0
  6
Continuous
 62
     7
370
    25
100
AcDbLine
 10
642.5154330561
 20
592.0704014559
 30
0.0
 11
642.7483769213
 21
590.618325732
 31
0.0
  0
LINE
  5
133
330
1F
100
AcDbEntity
  8
0
  6
Continuous
 62
     7
370
    25
100
AcDbLine
 10
640.8732820373
 20
593.0223083755
 30
0.0
 11
642.3253577612
 21
593.2552522407
 31
0.0
  0
LINE
  5
134
330
1F
100
AcDbEntity
  8
0
  6
Continuous
 62
     7
370
    25
100
AcDbLine
 10
643.2772646808
 20
594.8974032596
 30
0.0
 11
643.510208546
 21
593.4453275356
 31
0.0
  0
LINE
  5
135
330
1F
100
AcDbEntity
  8
0
  6
Continuous
 62
     7
370
    25
100
AcDbLine
 10
643.6583148941
 20
593.4690869475
 30
0.0
 11
643.848390189
 21
592.2842361627
 31
0.0
  0
LINE
  5
136
330
1F
100
AcDbEntity
  8
0
  6
Continuous
 62
     7
370
    25
100
AcDbLine
 10
643.7240432528
 20
592.1123704027
 30
0.0
 11
642.539192468
 21
591.9222951078
 31
0.0
  0
LINE
  5
137
330
1F
100
AcDbEntity
  8
0
  6
Continuous
 62
     7
370
    25
100
AcDbLine
 10
643.4864491341
 20
593.5934338837
 30
0.0
 11
642.3015983493
 21
593.4033585888
 31
0.0
  0
LINE
  5
138
330
1F
100
AcDbEntity
  8
0
  6
Continuous
 62
     7
370
    25
100
AcDbLine
 10
642.1772514131
 20
593.2314928288
 30
0.0
 11
642.367326708
 21
592.046642044
 31
0.0
  0
ARC
  5
139
330
1F
100
AcDbEntity
  8
0
  6
Continuous
 62
     7
370
    25
100
AcDbCircle
 10
339.8382871161
 20
594.3340785064
 30
0.0
 40
12.03669752933316
100
AcDbArc
 50
186.2565722693
 51
191.9710500657
  0
ARC
  5
13A
330
1F
100
AcDbEntity
  8
0
  6
Continuous
 62
     7
370
    25
100
AcDbCircle
 10
328.4366067904
 20
602.5833308109
 30
0.0
 40
12.03669752939367
100
AcDbArc
 50
276.2565722694
 51
281.9710500657
  0
LINE
  5
13B
330
1F
100
AcDbEntity
  8
0
  6
Continuous
 62
     7
370
    25
100
AcDbLine
 10
330.7002838409
 20
592.2604767508
 30
0.0
 11
330.9332277061
 21
590.8084010269
 31
0.0
  0
ARC
  5
13C
330
1F
100
AcDbEntity
  8
0
  6
Continuous
 62
     7
370
    25
100
AcDbCircle
 10
320.187354486
 20
591.1816504851
 30
0.0
 40
12.03669752932954
100
AcDbArc
 50
6.2565722693
 51
11.9710500657
  0
ARC
  5
13D
330
1F
100
AcDbEntity
  8
0
  6
Continuous
 62
     7
370
    25
100
AcDbCircle
 10
331.5890348117
 20
582.9323981807
 30
0.0
 40
12.03669752931202
100
AcDbArc
 50
96.2565722693
 51
101.9710500657
  0
ARC
  5
13E
330
1F
100
AcDbEntity
  8
0
  6
Continuous
 62
     7
370
    25
100
AcDbCircle
 10
330.0128208011
 20
592.7578644958
 30
0.0
 40
4.000000000000063
100
AcDbArc
 50
311.4096221093
 51
99.1138111675
  0
ARC
  5
13F
330
1F
100
AcDbEntity
  8
0
  6
Continuous
 62
     7
370
    25
100
AcDbCircle
 10
330.0128208011
 20
592.7578644958
 30
0.0
 40
4.000000000000063
100
AcDbArc
 50
99.1138111675
 51
228.5903778907
  0
LINE
  5
140
330
1F
100
AcDbEntity
  8
0
  6
Continuous
 62
     7
370
    25
100
AcDbLine
 10
330.7002838409
 20
592.2604767508
 30
0.0
 11
332.1523595649
 21
592.493420616
 31
0.0
  0
LINE
  5
141
330
1F
100
AcDbEntity
  8
0
  6
Continuous
 62
     7
370
    25
100
AcDbLine
 10
327.8732820373
 20
593.0223083755
 30
0.0
 11
329.3253577612
 21
593.2552522407
 31
0.0
  0
LINE
  5
142
330
1F
100
AcDbEntity
  8
0
  6
Continuous
 62
     7
370
    25
100
AcDbLine
 10
330.510208546
 20
593.4453275356
 30
0.0
 11
331.9622842699
 21
593.6782714008
 31
0.0
  0
LINE
  5
143
330
1F
100
AcDbEntity
  8
0
  6
Continuous
 62
     7
370
    25
100
AcDbLine
 10
330.2772646808
 20
594.8974032596
 30
0.0
 11
330.510208546
 21
593.4453275356
 31
0.0
  0
LINE
  5
144
330
1F
100
AcDbEntity
  8
0
  6
Continuous
 62
     7
370
    25
100
AcDbLine
 10
328.0633573322
 20
591.8374575907
 30
0.0
 11
329.5154330561
 21
592.0704014559
 31
0.0
  0
LINE
  5
145
330
1F
100
AcDbEntity
  8
0
  6
Continuous
 62
     7
370
    25
100
AcDbLine
 10
329.092413896
 20
594.7073279646
 30
0.0
 11
329.3253577612
 21
593.2552522407
 31
0.0
  0
LINE
  5
146
330
1F
100
AcDbEntity
  8
0
  6
Continuous
 62
     7
370
    25
100
AcDbLine
 10
329.5154330561
 20
592.0704014559
 30
0.0
 11
329.7483769213
 21
590.618325732
 31
0.0
  0
LINE
  5
147
330
1F
100
AcDbEntity
  8
0
  6
Continuous
 62
     7
370
    25
100
AcDbLine
 10
330.6583148941
 20
593.4690869475
 30
0.0
 11
330.848390189
 21
592.2842361627
 31
0.0
  0
LINE
  5
148
330
1F
100
AcDbEntity
  8
0
  6
Continuous
 62
     7
370
    25
100
AcDbLine
 10
330.7240432528
 20
592.1123704027
 30
0.0
 11
329.539192468
 21
591.9222951078
 31
0.0
  0
LINE
  5
149
330
1F
100
AcDbEntity
  8
0
  6
Continuous
 62
     7
370
    25
100
AcDbLine
 10
330.4864491341
 20
593.5934338837
 30
0.0
 11
329.3015983493
 21
593.4033585888
 31
0.0
  0
LINE
  5
14A
330
1F
100
AcDbEntity
  8
0
  6
Continuous
 62
     7
370
    25
100
AcDbLine
 10
329.1772514131
 20
593.2314928288
 30
0.0
 11
329.367326708
 21
592.046642044
 31
0.0
  0
ARC
  5
14B
330
1F
100
AcDbEntity
  8
0
  6
Continuous
 62
     7
370
    25
100
AcDbCircle
 10
502.8382871161
 20
594.3340785064
 30
0.0
 40
12.03669752934079
100
AcDbArc
 50
186.2565722694
 51
191.9710500657
  0
LINE
  5
14C
330
1F
100
AcDbEntity
  8
0
  6
Continuous
 62
     7
370
    25
100
AcDbLine
 10
491.0633573322
 20
591.8374575907
 30
0.0
 11
492.5154330561
 21
592.0704014559
 31
0.0
  0
LINE
  5
14D
330
1F
100
AcDbEntity
  8
0
  6
Continuous
 62
     7
370
    25
100
AcDbLine
 10
492.5154330561
 20
592.0704014559
 30
0.0
 11
492.7483769213
 21
590.618325732
 31
0.0
  0
ARC
  5
14E
330
1F
100
AcDbEntity
  8
0
  6
Continuous
 62
     7
370
    25
100
AcDbCircle
 10
491.4366067904
 20
602.5833308109
 30
0.0
 40
12.03669752939595
100
AcDbArc
 50
276.2565722694
 51
281.9710500657
  0
ARC
  5
14F
330
1F
100
AcDbEntity
  8
0
  6
Continuous
 62
     7
370
    25
100
AcDbCircle
 10
483.187354486
 20
591.1816504851
 30
0.0
 40
12.03669752936462
100
AcDbArc
 50
6.2565722694
 51
11.9710500657
  0
LINE
  5
150
330
1F
100
AcDbEntity
  8
0
  6
Continuous
 62
     7
370
    25
100
AcDbLine
 10
493.2772646808
 20
594.8974032596
 30
0.0
 11
493.510208546
 21
593.4453275356
 31
0.0
  0
ARC
  5
151
330
1F
100
AcDbEntity
  8
0
  6
Continuous
 62
     7
370
    25
100
AcDbCircle
 10
494.5890348117
 20
582.9323981807
 30
0.0
 40
12.03669752931157
100
AcDbArc
 50
96.2565722693
 51
101.9710500657
  0
ARC
  5
152
330
1F
100
AcDbEntity
  8
0
  6
Continuous
 62
     7
370
    25
100
AcDbCircle
 10
493.0128208011
 20
592.7578644958
 30
0.0
 40
4.000000000000063
100
AcDbArc
 50
311.4096221093
 51
99.1138111675
  0
ARC
  5
153
330
1F
100
AcDbEntity
  8
0
  6
Continuous
 62
     7
370
    25
100
AcDbCircle
 10
493.0128208011
 20
592.7578644958
 30
0.0
 40
4.000000000000063
100
AcDbArc
 50
99.1138111675
 51
228.5903778907
  0
LINE
  5
154
330
1F
100
AcDbEntity
  8
0
  6
Continuous
 62
     7
370
    25
100
AcDbLine
 10
493.7002838409
 20
592.2604767508
 30
0.0
 11
493.9332277061
 21
590.8084010269
 31
0.0
  0
LINE
  5
155
330
1F
100
AcDbEntity
  8
0
  6
Continuous
 62
     7
370
    25
100
AcDbLine
 10
490.8732820373
 20
593.0223083755
 30
0.0
 11
492.3253577612
 21
593.2552522407
 31
0.0
  0
LINE
  5
156
330
1F
100
AcDbEntity
  8
0
  6
Continuous
 62
     7
370
    25
100
AcDbLine
 10
493.510208546
 20
593.4453275356
 30
0.0
 11
494.9622842699
 21
593.6782714008
 31
0.0
  0
LINE
  5
157
330
1F
100
AcDbEntity
  8
0
  6
Continuous
 62
     7
370
    25
100
AcDbLine
 10
492.092413896
 20
594.7073279646
 30
0.0
 11
492.3253577612
 21
593.2552522407
 31
0.0
  0
LINE
  5
158
330
1F
100
AcDbEntity
  8
0
  6
Continuous
 62
     7
370
    25
100
AcDbLine
 10
493.7002838409
 20
592.2604767508
 30
0.0
 11
495.1523595649
 21
592.493420616
 31
0.0
  0
LINE
  5
159
330
1F
100
AcDbEntity
  8
0
  6
Continuous
 62
     7
370
    25
100
AcDbLine
 10
493.6583148941
 20
593.4690869475
 30
0.0
 11
493.848390189
 21
592.2842361627
 31
0.0
  0
LINE
  5
15A
330
1F
100
AcDbEntity
  8
0
  6
Continuous
 62
     7
370
    25
100
AcDbLine
 10
493.4864491341
 20
593.5934338837
 30
0.0
 11
492.3015983493
 21
593.4033585888
 31
0.0
  0
LINE
  5
15B
330
1F
100
AcDbEntity
  8
0
  6
Continuous
 62
     7
370
    25
100
AcDbLine
 10
493.7240432528
 20
592.1123704027
 30
0.0
 11
492.539192468
 21
591.9222951078
 31
0.0
  0
LINE
  5
15C
330
1F
100
AcDbEntity
  8
0
  6
Continuous
 62
     7
370
    25
100
AcDbLine
 10
492.1772514131
 20
593.2314928288
 30
0.0
 11
492.367326708
 21
592.046642044
 31
0.0
  0
LINE
  5
15D
330
1F
100
AcDbEntity
  8
0
  6
Continuous
 62
     7
370
    25
100
AcDbLine
 10
177.8732820373
 20
593.0223083755
 30
0.0
 11
179.3253577612
 21
593.2552522407
 31
0.0
  0
ARC
  5
15E
330
1F
100
AcDbEntity
  8
0
  6
Continuous
 62
     7
370
    25
100
AcDbCircle
 10
189.8382871161
 20
594.3340785064
 30
0.0
 40
12.03669752932471
100
AcDbArc
 50
186.2565722693
 51
191.9710500657
  0
LINE
  5
15F
330
1F
100
AcDbEntity
  8
0
  6
Continuous
 62
     7
370
    25
100
AcDbLine
 10
178.0633573322
 20
591.8374575907
 30
0.0
 11
179.5154330561
 21
592.0704014559
 31
0.0
  0
ARC
  5
160
330
1F
100
AcDbEntity
  8
0
  6
Continuous
 62
     7
370
    25
100
AcDbCircle
 10
178.4366067904
 20
602.5833308108
 30
0.0
 40
12.0366975293234
100
AcDbArc
 50
276.2565722693
 51
281.9710500657
  0
LINE
  5
161
330
1F
100
AcDbEntity
  8
0
  6
Continuous
 62
     7
370
    25
100
AcDbLine
 10
180.7002838409
 20
592.2604767508
 30
0.0
 11
182.1523595649
 21
592.493420616
 31
0.0
  0
ARC
  5
162
330
1F
100
AcDbEntity
  8
0
  6
Continuous
 62
     7
370
    25
100
AcDbCircle
 10
170.187354486
 20
591.1816504851
 30
0.0
 40
12.03669752935603
100
AcDbArc
 50
6.2565722694
 51
11.9710500657
  0
ARC
  5
163
330
1F
100
AcDbEntity
  8
0
  6
Continuous
 62
     7
370
    25
100
AcDbCircle
 10
181.5890348117
 20
582.9323981807
 30
0.0
 40
12.03669752937929
100
AcDbArc
 50
96.2565722694
 51
101.9710500657
  0
ARC
  5
164
330
1F
100
AcDbEntity
  8
0
  6
Continuous
 62
     7
370
    25
100
AcDbCircle
 10
180.0128208011
 20
592.7578644958
 30
0.0
 40
4.000000000000006
100
AcDbArc
 50
311.4096221093
 51
99.1138111675
  0
ARC
  5
165
330
1F
100
AcDbEntity
  8
0
  6
Continuous
 62
     7
370
    25
100
AcDbCircle
 10
180.0128208011
 20
592.7578644958
 30
0.0
 40
4.000000000000006
100
AcDbArc
 50
99.1138111675
 51
228.5903778907
  0
LINE
  5
166
330
1F
100
AcDbEntity
  8
0
  6
Continuous
 62
     7
370
    25
100
AcDbLine
 10
180.7002838409
 20
592.2604767508
 30
0.0
 11
180.9332277061
 21
590.8084010269
 31
0.0
  0
LINE
  5
167
330
1F
100
AcDbEntity
  8
0
  6
Continuous
 62
     7
370
    25
100
AcDbLine
 10
180.510208546
 20
593.4453275356
 30
0.0
 11
181.9622842699
 21
593.6782714008
 31
0.0
  0
LINE
  5
168
330
1F
100
AcDbEntity
  8
0
  6
Continuous
 62
     7
370
    25
100
AcDbLine
 10
180.2772646808
 20
594.8974032596
 30
0.0
 11
180.510208546
 21
593.4453275356
 31
0.0
  0
LINE
  5
169
330
1F
100
AcDbEntity
  8
0
  6
Continuous
 62
     7
370
    25
100
AcDbLine
 10
179.092413896
 20
594.7073279646
 30
0.0
 11
179.3253577612
 21
593.2552522407
 31
0.0
  0
LINE
  5
16A
330
1F
100
AcDbEntity
  8
0
  6
Continuous
 62
     7
370
    25
100
AcDbLine
 10
179.5154330561
 20
592.0704014559
 30
0.0
 11
179.7483769213
 21
590.618325732
 31
0.0
  0
LINE
  5
16B
330
1F
100
AcDbEntity
  8
0
  6
Continuous
 62
     7
370
    25
100
AcDbLine
 10
180.6583148941
 20
593.4690869475
 30
0.0
 11
180.848390189
 21
592.2842361627
 31
0.0
  0
LINE
  5
16C
330
1F
100
AcDbEntity
  8
0
  6
Continuous
 62
     7
370
    25
100
AcDbLine
 10
180.4864491341
 20
593.5934338837
 30
0.0
 11
179.3015983493
 21
593.4033585888
 31
0.0
  0
LINE
  5
16D
330
1F
100
AcDbEntity
  8
0
  6
Continuous
 62
     7
370
    25
100
AcDbLine
 10
180.7240432528
 20
592.1123704027
 30
0.0
 11
179.539192468
 21
591.9222951078
 31
0.0
  0
LINE
  5
16E
330
1F
100
AcDbEntity
  8
0
  6
Continuous
 62
     7
370
    25
100
AcDbLine
 10
179.1772514131
 20
593.2314928288
 30
0.0
 11
179.367326708
 21
592.046642044
 31
0.0
  0
SPLINE
  5
16F
330
1F
100
AcDbEntity
  8
0
  6
Continuous
 62
     7
370
    25
100
AcDbSpline
210
0.0
220
0.0
230
1.0
 70
    24
 71
     3
 72
    18
 73
    14
 74
     0
 42
0.000000001
 43
0.00000001
 40
0.0
 40
0.0
 40
0.0
 40
0.0
 40
0.1395442450004743
 40
0.2146633576115594
 40
0.291376605570158
 40
0.3680898535287546
 40
0.4432089661398436
 40
0.5827532111403163
 40
0.7222974561407928
 40
0.7974165687518789
 40
0.8741298167104773
 40
0.950843064669075
 40
1.0
 40
1.0
 40
1.0
 40
1.0
 10
160.3128208010617
 20
612.5273364389913
 30
0.0
 10
160.3128208010617
 20
612.9124673309169
 30
0.0
 10
160.3128208010618
 20
613.5049209314247
 30
0.0
 10
160.3128208010617
 20
614.7408351128099
 30
0.0
 10
160.3128208010618
 20
615.8168647251647
 30
0.0
 10
160.3128208010617
 20
616.9803928457136
 30
0.0
 10
160.3128208010618
 20
618.5008400367317
 30
0.0
 10
160.3128208010617
 20
620.3250300347385
 30
0.0
 10
160.3128208010617
 20
621.8402649893311
 30
0.0
 10
160.3128208010618
 20
622.7580122877607
 30
0.0
 10
160.3128208010617
 20
623.2616291061146
 30
0.0
 10
160.3128208010618
 20
623.5337662308544
 30
0.0
 10
160.3128208010617
 20
623.5318583879686
 30
0.0
 10
160.3128208010617
 20
623.5311133051624
 30
0.0
  0
SPLINE
  5
170
330
1F
100
AcDbEntity
  8
0
  6
Continuous
 62
     7
370
    25
100
AcDbSpline
210
0.0
220
0.0
230
1.0
 70
     8
 71
     3
 72
     8
 73
     4
 74
     0
 42
0.000000001
 43
0.00000001
 40
0.0
 40
0.0
 40
0.0
 40
0.0
 40
1.0
 40
1.0
 40
1.0
 40
1.0
 10
164.3128208010546
 20
614.9331950846253
 30
0.0
 10
164.3128208010546
 20
615.7461846563305
 30
0.0
 10
164.1385055006754
 20
616.5369230523983
 30
0.0
 10
163.8662388136633
 20
617.3151580508751
 30
0.0
  0
SPLINE
  5
171
330
1F
100
AcDbEntity
  8
0
  6
Continuous
 62
     7
370
    25
100
AcDbSpline
210
0.0
220
0.0
230
1.0
 70
     8
 71
     3
 72
     8
 73
     4
 74
     0
 42
0.000000001
 43
0.00000001
 40
0.0
 40
0.0
 40
0.0
 40
0.0
 40
1.0
 40
1.0
 40
1.0
 40
1.0
 10
163.8662388136633
 20
612.5512321183755
 30
0.0
 10
164.1385055006747
 20
613.3294671168504
 30
0.0
 10
164.3128208010546
 20
614.1202055129222
 30
0.0
 10
164.3128208010546
 20
614.9331950846253
 30
0.0
  0
LINE
  5
172
330
1F
100
AcDbEntity
  8
0
  6
Continuous
 62
     7
370
    25
100
AcDbLine
 10
160.3128208011
 20
612.5512321184
 30
0.0
 11
163.8662388137
 21
612.5512321184
 31
0.0
  0
LINE
  5
173
330
1F
100
AcDbEntity
  8
0
  6
Continuous
 62
     7
370
    25
100
AcDbLine
 10
163.8662388137
 20
617.3151580509
 30
0.0
 11
160.3128208011
 21
617.3151580509
 31
0.0
  0
SPLINE
  5
174
330
1F
100
AcDbEntity
  8
0
  6
Continuous
 62
     7
370
    25
100
AcDbSpline
210
0.0
220
0.0
230
1.0
 70
     8
 71
     3
 72
     8
 73
     4
 74
     0
 42
0.000000001
 43
0.00000001
 40
0.0
 40
0.0
 40
0.0
 40
0.0
 40
1.0
 40
1.0
 40
1.0
 40
1.0
 10
164.3128208010546
 20
619.9184742395718
 30
0.0
 10
164.3128208010546
 20
620.8070140461277
 30
0.0
 10
164.1385055006752
 20
621.6712348995467
 30
0.0
 10
163.8662388136633
 20
622.5217904282619
 30
0.0
  0
SPLINE
  5
175
330
1F
100
AcDbEntity
  8
0
  6
Continuous
 62
     7
370
    25
100
AcDbSpline
210
0.0
220
0.0
230
1.0
 70
     8
 71
     3
 72
     8
 73
     4
 74
     0
 42
0.000000001
 43
0.00000001
 40
0.0
 40
0.0
 40
0.0
 40
0.0
 40
1.0
 40
1.0
 40
1.0
 40
1.0
 10
163.8662388136633
 20
617.3151580508818
 30
0.0
 10
164.1385055006748
 20
618.1657135795957
 30
0.0
 10
164.3128208010546
 20
619.0299344330175
 30
0.0
 10
164.3128208010546
 20
619.9184742395718
 30
0.0
  0
LINE
  5
176
330
1F
100
AcDbEntity
  8
0
  6
Continuous
 62
     7
370
    25
100
AcDbLine
 10
160.3128208011
 20
622.5217904283
 30
0.0
 11
163.8662388137
 21
622.5217904283
 31
0.0
  0
LINE
  5
177
330
1F
100
AcDbEntity
  8
0
  6
Continuous
 62
     7
370
    25
100
AcDbLine
 10
164.3128208011
 20
614.9331950846
 30
0.0
 11
164.3128208011
 21
619.9184742396
 31
0.0
  0
SPLINE
  5
178
330
1F
100
AcDbEntity
  8
0
  6
Continuous
 62
     7
370
    25
100
AcDbSpline
210
0.0
220
0.0
230
1.0
 70
     8
 71
     3
 72
     8
 73
     4
 74
     0
 42
0.000000001
 43
0.00000001
 40
0.0
 40
0.0
 40
0.0
 40
0.0
 40
1.0
 40
1.0
 40
1.0
 40
1.0
 10
163.8662388136634
 20
622.5217904282654
 30
0.0
 10
164.1385055006748
 20
622.5941109585043
 30
0.0
 10
164.3128208010547
 20
622.6675934158548
 30
0.0
 10
164.3128208010547
 20
622.743143650706
 30
0.0
  0
LINE
  5
179
330
1F
100
AcDbEntity
  8
0
  6
Continuous
 62
     7
370
    25
100
AcDbLine
 10
164.3128208011
 20
619.9184742396
 30
0.0
 11
164.3128208011
 21
622.7431436507
 31
0.0
  0
SPLINE
  5
17A
330
1F
100
AcDbEntity
  8
0
  6
Continuous
 62
     7
370
    25
100
AcDbSpline
210
0.0
220
0.0
230
1.0
 70
     8
 71
     3
 72
     8
 73
     4
 74
     0
 42
0.000000001
 43
0.00000001
 40
0.0
 40
0.0
 40
0.0
 40
0.0
 40
1.0
 40
1.0
 40
1.0
 40
1.0
 10
164.3128208010547
 20
612.7725853408133
 30
0.0
 10
164.3128208010547
 20
612.697035105962
 30
0.0
 10
164.1385055006753
 20
612.6235526486117
 30
0.0
 10
163.8662388136634
 20
612.5512321183728
 30
0.0
  0
LINE
  5
17B
330
1F
100
AcDbEntity
  8
0
  6
Continuous
 62
     7
370
    25
100
AcDbLine
 10
164.3128208011
 20
614.9331950846
 30
0.0
 11
164.3128208011
 21
612.765192002
 31
0.0
  0
SPLINE
  5
17C
330
1F
100
AcDbEntity
  8
0
  6
Continuous
 62
     7
370
    25
100
AcDbSpline
210
0.0
220
0.0
230
1.0
 70
     8
 71
     3
 72
     8
 73
     4
 74
     0
 42
0.000000001
 43
0.00000001
 40
0.0
 40
0.0
 40
0.0
 40
0.0
 40
1.0
 40
1.0
 40
1.0
 40
1.0
 10
164.3128208010547
 20
622.743143650706
 30
0.0
 10
164.3128208010547
 20
622.8186938855573
 30
0.0
 10
164.1385055006753
 20
622.8921763429075
 30
0.0
 10
163.8662388136633
 20
622.9644968731465
 30
0.0
  0
LINE
  5
17D
330
1F
100
AcDbEntity
  8
0
  6
Continuous
 62
     7
370
    25
100
AcDbLine
 10
160.3128208011
 20
622.9644968731
 30
0.0
 11
163.8662388137
 21
622.9644968731
 31
0.0
  0
LINE
  5
17E
330
1F
100
AcDbEntity
  8
0
  6
Continuous
 62
     7
370
    25
100
AcDbLine
 10
149.8540708011
 20
619.054230342
 30
0.0
 11
149.8540708011
 21
614.7578644958
 31
0.0
  0
LINE
  5
17F
330
1F
100
AcDbEntity
  8
0
  6
Continuous
 62
     7
370
    25
100
AcDbLine
 10
149.8540708011
 20
620.7578644958
 30
0.0
 11
149.8540708011
 21
619.054230342
 31
0.0
  0
LINE
  5
180
330
1F
100
AcDbEntity
  8
0
  6
Continuous
 62
     7
370
    25
100
AcDbLine
 10
149.3128208011
 20
620.2166144958
 30
0.0
 11
149.3128208011
 21
615.2991144957
 31
0.0
  0
LINE
  5
181
330
1F
100
AcDbEntity
  8
0
  6
Continuous
 62
     7
370
    25
100
AcDbLine
 10
794.0966618401
 20
588.9792378237
 30
0.0
 11
794.4595996184
 21
589.6078644958
 31
0.0
  0
LINE
  5
182
330
1F
100
AcDbEntity
  8
0
  6
Continuous
 62
     7
370
    25
100
AcDbLine
 10
794.4595996184
 20
595.9078644958
 30
0.0
 11
794.0966618401
 21
596.5364911679
 31
0.0
  0
LINE
  5
183
330
1F
100
AcDbEntity
  8
0
  6
Continuous
 62
     7
370
    25
100
AcDbLine
 10
796.1595996184
 20
588.7578644958
 30
0.0
 11
798.1595996184
 21
588.7578644958
 31
0.0
  0
LINE
  5
184
330
1F
100
AcDbEntity
  8
0
  6
Continuous
 62
     7
370
    25
100
AcDbLine
 10
798.1595996184
 20
596.7578644958
 30
0.0
 11
796.1595996184
 21
596.7578644958
 31
0.0
  0
ARC
  5
185
330
1F
100
AcDbEntity
  8
0
  6
Continuous
 62
     7
370
    25
100
AcDbCircle
 10
791.2313963881
 20
592.7578644958
 30
0.0
 40
8.00000000000006
100
AcDbArc
 50
330.0
 51
344.7252520003
  0
ARC
  5
186
330
1F
100
AcDbEntity
  8
0
  6
Continuous
 62
     7
370
    25
100
AcDbCircle
 10
791.2313963881
 20
592.7578644958
 30
0.0
 40
8.00000000000003
100
AcDbArc
 50
15.2747479997
 51
30.0
  0
LINE
  5
187
330
1F
100
AcDbEntity
  8
0
  6
Continuous
 62
     7
370
    25
100
AcDbLine
 10
794.4595996184
 20
590.7578644958
 30
0.0
 11
794.5595996184
 21
590.7578644958
 31
0.0
  0
LINE
  5
188
330
1F
100
AcDbEntity
  8
0
  6
Continuous
 62
     7
370
    25
100
AcDbLine
 10
794.5595996184
 20
594.7578644958
 30
0.0
 11
794.4595996184
 21
594.7578644958
 31
0.0
  0
LINE
  5
189
330
1F
100
AcDbEntity
  8
0
  6
Continuous
 62
     7
370
    25
100
AcDbLine
 10
801.4595996184
 20
588.2871538176
 30
0.0
 11
801.4595996184
 21
-4.7714248261
 31
0.0
  0
LINE
  5
18A
330
1F
100
AcDbEntity
  8
0
  6
Continuous
 62
     7
370
    25
100
AcDbLine
 10
811.0595996184
 20
-4.7714248261
 30
0.0
 11
801.4595996184
 21
-4.7714248261
 31
0.0
  0
LINE
  5
18B
330
1F
100
AcDbEntity
  8
0
  6
Continuous
 62
     7
370
    25
100
AcDbLine
 10
811.0595996184
 20
588.2871538176
 30
0.0
 11
801.4595996184
 21
588.2871538176
 31
0.0
  0
SPLINE
  5
18C
330
1F
100
AcDbEntity
  8
0
  6
Continuous
 62
     7
370
    25
100
AcDbSpline
210
0.0
220
0.0
230
1.0
 70
     8
 71
     3
 72
    20
 73
    16
 74
     0
 42
0.000000001
 43
0.00000001
 40
0.0
 40
0.0
 40
0.0
 40
0.0
 40
0.1249999999999972
 40
0.1249999999999972
 40
0.2499999999999944
 40
0.2499999999999944
 40
0.3749999999999916
 40
0.3749999999999916
 40
0.4999999999999888
 40
0.4999999999999888
 40
0.7500000000000024
 40
0.7500000000000024
 40
0.8750000000000012
 40
0.8750000000000012
 40
1.0
 40
1.0
 40
1.0
 40
1.0
 10
813.4595996184134
 20
-3.842135504242117
 30
0.0
 10
813.4595996184134
 20
-3.881176235096651
 30
0.0
 10
813.4440630579386
 20
-3.919694939296503
 30
0.0
 10
813.382744705978
 20
-3.997101690604521
 30
0.0
 10
813.3363209603912
 20
-4.036246108591046
 30
0.0
 10
813.2163700902371
 20
-4.113396862506169
 30
0.0
 10
813.1427654459536
 20
-4.151724444247106
 30
0.0
 10
812.968035079858
 20
-4.229270764723791
 30
0.0
 10
812.8671844509564
 20
-4.26824697239253
 30
0.0
 10
812.5358991709725
 20
-4.383741828837717
 30
0.0
 10
812.2682190095886
 20
-4.461654272507609
 30
0.0
 10
811.8355449835332
 20
-4.577134197908562
 30
0.0
 10
811.6840268966821
 20
-4.615999993773546
 30
0.0
 10
811.3746011392959
 20
-4.693774327441947
 30
0.0
 10
811.2179788096022
 20
-4.732384094396913
 30
0.0
 10
811.0595996184135
 20
-4.771424826123416
 30
0.0
  0
SPLINE
  5
18D
330
1F
100
AcDbEntity
  8
0
  6
Continuous
 62
     7
370
    25
100
AcDbSpline
210
0.0
220
0.0
230
1.0
 70
     8
 71
     3
 72
    20
 73
    16
 74
     0
 42
0.000000001
 43
0.00000001
 40
0.0
 40
0.0
 40
0.0
 40
0.0
 40
0.1249999999999973
 40
0.1249999999999973
 40
0.2499999999999947
 40
0.2499999999999947
 40
0.374999999999992
 40
0.374999999999992
 40
0.4999999999999895
 40
0.4999999999999895
 40
0.7499999999999947
 40
0.7499999999999947
 40
0.8749999999999973
 40
0.8749999999999973
 40
1.0
 40
1.0
 40
1.0
 40
1.0
 10
811.0595996184135
 20
588.287153817639
 30
0.0
 10
811.2179788060641
 20
588.2481130867845
 30
0.0
 10
811.3742245307558
 20
588.2095943825849
 30
0.0
 10
811.6822163801725
 20
588.132187631277
 30
0.0
 10
811.8348604876435
 20
588.0930432132902
 30
0.0
 10
812.1239447768306
 20
588.015892459375
 30
0.0
 10
812.2617493150148
 20
587.977564877634
 30
0.0
 10
812.5233679906536
 20
587.9000185571574
 30
0.0
 10
812.6461142973362
 20
587.8610423494887
 30
0.0
 10
812.9774386742839
 20
587.7455474930435
 30
0.0
 10
813.1564497983121
 20
587.6676350493734
 30
0.0
 10
813.3360648976931
 20
587.5521551239729
 30
0.0
 10
813.3823092465608
 20
587.5132893281078
 30
0.0
 10
813.444062552572
 20
587.4355149944392
 30
0.0
 10
813.4595996184134
 20
587.3969052274846
 30
0.0
 10
813.4595996184134
 20
587.3578644957578
 30
0.0
  0
LINE
  5
18E
330
1F
100
AcDbEntity
  8
0
  6
Continuous
 62
     7
370
    25
100
AcDbLine
 10
813.4595996184
 20
587.3578644958
 30
0.0
 11
813.4595996184
 21
-3.8421355042
 31
0.0
  0
SPLINE
  5
18F
330
1F
100
AcDbEntity
  8
0
  6
Continuous
 62
     7
370
    25
100
AcDbSpline
210
0.0
220
0.0
230
1.0
 70
     8
 71
     3
 72
    20
 73
    16
 74
     0
 42
0.000000001
 43
0.00000001
 40
0.0
 40
0.0
 40
0.0
 40
0.0
 40
0.1250000000000054
 40
0.1250000000000054
 40
0.2500000000000108
 40
0.2500000000000108
 40
0.3750000000000162
 40
0.3750000000000162
 40
0.5000000000000215
 40
0.5000000000000215
 40
0.7500000000000027
 40
0.7500000000000027
 40
0.8750000000000012
 40
0.8750000000000012
 40
1.0
 40
1.0
 40
1.0
 40
1.0
 10
813.4595996184134
 20
587.3578644957578
 30
0.0
 10
813.4595996184134
 20
587.5162436834084
 30
0.0
 10
813.4440630579386
 20
587.6724894081001
 30
0.0
 10
813.3827447059781
 20
587.9804812575168
 30
0.0
 10
813.3363209603912
 20
588.133125364988
 30
0.0
 10
813.2163700902371
 20
588.4222096541752
 30
0.0
 10
813.1427654459536
 20
588.5600141923591
 30
0.0
 10
812.9680350798579
 20
588.8216328679979
 30
0.0
 10
812.8671844509565
 20
588.9443791746806
 30
0.0
 10
812.5358991709725
 20
589.2757035516285
 30
0.0
 10
812.2682190095886
 20
589.4547146756566
 30
0.0
 10
811.8355449835332
 20
589.6343297750376
 30
0.0
 10
811.6840268966821
 20
589.6805741239053
 30
0.0
 10
811.3746011392959
 20
589.7423274299164
 30
0.0
 10
811.2179788096022
 20
589.7578644957579
 30
0.0
 10
811.0595996184135
 20
589.7578644957579
 30
0.0
  0
SPLINE
  5
190
330
1F
100
AcDbEntity
  8
0
  6
Continuous
 62
     7
370
    25
100
AcDbSpline
210
0.0
220
0.0
230
1.0
 70
     8
 71
     3
 72
     9
 73
     5
 74
     0
 42
0.000000001
 43
0.00000001
 40
0.0
 40
0.0
 40
0.0
 40
0.0
 40
0.4825784287295416
 40
1.0
 40
1.0
 40
1.0
 40
1.0
 10
811.6721393575918
 20
588.1340347277041
 30
0.0
 10
811.5840050162753
 20
588.1978429207658
 30
0.0
 10
811.4013728552222
 20
588.3300663880049
 30
0.0
 10
811.1761399711776
 20
588.3483856924614
 30
0.0
 10
811.0595996184135
 20
588.3578644957579
 30
0.0
  0
LINE
  5
191
330
1F
100
AcDbEntity
  8
0
  6
Continuous
 62
     7
370
    25
100
AcDbLine
 10
811.0595996184
 20
589.7578644958
 30
0.0
 11
811.0595996184
 21
588.3578644958
 31
0.0
  0
LINE
  5
192
330
1F
100
AcDbEntity
  8
0
  6
Continuous
 62
     7
370
    25
100
AcDbLine
 10
811.0595996184
 20
-6.2421355042
 30
0.0
 11
811.0595996184
 21
-4.8421355042
 31
0.0
  0
SPLINE
  5
193
330
1F
100
AcDbEntity
  8
0
  6
Continuous
 62
     7
370
    25
100
AcDbSpline
210
0.0
220
0.0
230
1.0
 70
     8
 71
     3
 72
     9
 73
     5
 74
     0
 42
0.000000001
 43
0.00000001
 40
0.0
 40
0.0
 40
0.0
 40
0.0
 40
0.7329379507275218
 40
1.0
 40
1.0
 40
1.0
 40
1.0
 10
811.0595996184135
 20
-4.842135504242173
 30
0.0
 10
811.2109882600694
 20
-4.830380854724481
 30
0.0
 10
811.4175386802045
 20
-4.81434314033674
 30
0.0
 10
811.5728990223231
 20
-4.686005833842821
 30
0.0
 10
811.614389873665
 20
-4.651731809772519
 30
0.0
  0
SPLINE
  5
194
330
1F
100
AcDbEntity
  8
0
  6
Continuous
 62
     7
370
    25
100
AcDbSpline
210
0.0
220
0.0
230
1.0
 70
     8
 71
     3
 72
    20
 73
    16
 74
     0
 42
0.000000001
 43
0.00000001
 40
0.0
 40
0.0
 40
0.0
 40
0.0
 40
0.1249999999999974
 40
0.1249999999999974
 40
0.2499999999999948
 40
0.2499999999999948
 40
0.3749999999999922
 40
0.3749999999999922
 40
0.4999999999999897
 40
0.4999999999999897
 40
0.7499999999999948
 40
0.7499999999999948
 40
0.8749999999999974
 40
0.8749999999999974
 40
1.0
 40
1.0
 40
1.0
 40
1.0
 10
811.0595996184136
 20
-6.24213550424213
 30
0.0
 10
811.2179788060643
 20
-6.242135504242185
 30
0.0
 10
811.3742245307559
 20
-6.226598943767314
 30
0.0
 10
811.6822163801726
 20
-6.165280591806765
 30
0.0
 10
811.8348604876436
 20
-6.118856846220044
 30
0.0
 10
812.1239447768307
 20
-5.998905976065839
 30
0.0
 10
812.2617493150148
 20
-5.925301331782428
 30
0.0
 10
812.5233679906536
 20
-5.750570965686541
 30
0.0
 10
812.6461142973362
 20
-5.649720336785014
 30
0.0
 10
812.9774386742839
 20
-5.318435056801185
 30
0.0
 10
813.1564497983121
 20
-5.050754895417231
 30
0.0
 10
813.3360648976931
 20
-4.618080869361774
 30
0.0
 10
813.3823092465608
 20
-4.466562782510786
 30
0.0
 10
813.444062552572
 20
-4.157137025124714
 30
0.0
 10
813.4595996184134
 20
-4.000514695430946
 30
0.0
 10
813.4595996184134
 20
-3.842135504242172
 30
0.0
  0
LINE
  5
195
330
1F
100
AcDbEntity
  8
0
  6
Continuous
 62
     7
370
    25
100
AcDbLine
 10
811.0595996184
 20
588.3578644958
 30
0.0
 11
801.4595996184
 21
588.3578644958
 31
0.0
  0
LINE
  5
196
330
1F
100
AcDbEntity
  8
0
  6
Continuous
 62
     7
370
    25
100
AcDbLine
 10
811.0595996184
 20
589.7578644958
 30
0.0
 11
801.4595996184
 21
589.7578644958
 31
0.0
  0
LINE
  5
197
330
1F
100
AcDbEntity
  8
0
  6
Continuous
 62
     7
370
    25
100
AcDbLine
 10
801.4595996184
 20
589.7578644958
 30
0.0
 11
801.4595996184
 21
588.3578644958
 31
0.0
  0
LINE
  5
198
330
1F
100
AcDbEntity
  8
0
  6
Continuous
 62
     7
370
    25
100
AcDbLine
 10
811.0595996184
 20
-4.8421355042
 30
0.0
 11
801.4595996184
 21
-4.8421355042
 31
0.0
  0
LINE
  5
199
330
1F
100
AcDbEntity
  8
0
  6
Continuous
 62
     7
370
    25
100
AcDbLine
 10
801.4595996184
 20
-6.2421355042
 30
0.0
 11
801.4595996184
 21
-4.8421355042
 31
0.0
  0
LINE
  5
19A
330
1F
100
AcDbEntity
  8
0
  6
Continuous
 62
     7
370
    25
100
AcDbLine
 10
811.0595996184
 20
-6.2421355042
 30
0.0
 11
801.4595996184
 21
-6.2421355042
 31
0.0
  0
LINE
  5
19B
330
1F
100
AcDbEntity
  8
0
  6
Continuous
 62
     7
370
    25
100
AcDbLine
 10
793.3595996184
 20
604.2578644958
 30
0.0
 11
797.3595996184
 21
604.2578644958
 31
0.0
  0
LINE
  5
19C
330
1F
100
AcDbEntity
  8
0
  6
Continuous
 62
     7
370
    25
100
AcDbLine
 10
793.3595996184
 20
587.0578644958
 30
0.0
 11
793.3595996184
 21
604.2578644958
 31
0.0
  0
LINE
  5
19D
330
1F
100
AcDbEntity
  8
0
  6
Continuous
 62
     7
370
    25
100
AcDbLine
 10
774.3595996184
 20
621.2578644958
 30
0.0
 11
774.3595996184
 21
587.0578644958
 31
0.0
  0
ARC
  5
19E
330
1F
100
AcDbEntity
  8
0
  6
Continuous
 62
     7
370
    25
100
AcDbCircle
 10
777.3595996184
 20
621.2578644958
 30
0.0
 40
3.0
100
AcDbArc
 50
90.0
 51
180.0
  0
LINE
  5
19F
330
1F
100
AcDbEntity
  8
0
  6
Continuous
 62
     7
370
    25
100
AcDbLine
 10
794.3595996184
 20
624.2578644958
 30
0.0
 11
777.3595996184
 21
624.2578644958
 31
0.0
  0
ARC
  5
1A0
330
1F
100
AcDbEntity
  8
0
  6
Continuous
 62
     7
370
    25
100
AcDbCircle
 10
794.3595996184
 20
621.2578644958
 30
0.0
 40
3.0
100
AcDbArc
 50
0.0
 51
90.0
  0
LINE
  5
1A1
330
1F
100
AcDbEntity
  8
0
  6
Continuous
 62
     7
370
    25
100
AcDbLine
 10
797.3595996184
 20
604.2578644958
 30
0.0
 11
797.3595996184
 21
621.2578644958
 31
0.0
  0
CIRCLE
  5
1A2
330
1F
100
AcDbEntity
  8
0
  6
Continuous
 62
     7
370
    25
100
AcDbCircle
 10
782.8595996184
 20
617.7578644958
 30
0.0
 40
3.250000000000114
  0
CIRCLE
  5
1A3
330
1F
100
AcDbEntity
  8
0
  6
Continuous
 62
     7
370
    25
100
AcDbCircle
 10
782.8595996184
 20
592.7578644958
 30
0.0
 40
3.25
  0
LINE
  5
1A4
330
1F
100
AcDbEntity
  8
0
  6
Continuous
 62
     7
370
    25
100
AcDbLine
 10
793.3595996184
 20
587.0578644958
 30
0.0
 11
793.3595996184
 21
585.2578644958
 31
0.0
  0
LINE
  5
1A5
330
1F
100
AcDbEntity
  8
0
  6
Continuous
 62
     7
370
    25
100
AcDbLine
 10
793.3595996184
 20
585.2578644958
 30
0.0
 11
774.3595996184
 21
585.2578644958
 31
0.0
  0
LINE
  5
1A6
330
1F
100
AcDbEntity
  8
0
  6
Continuous
 62
     7
370
    25
100
AcDbLine
 10
774.3595996184
 20
585.2578644958
 30
0.0
 11
774.3595996184
 21
587.0578644958
 31
0.0
  0
LINE
  5
1A7
330
1F
100
AcDbEntity
  8
0
  6
Continuous
 62
     7
370
    25
100
AcDbLine
 10
794.5595996184
 20
597.2578644958
 30
0.0
 11
794.5595996184
 21
587.0578644958
 31
0.0
  0
LINE
  5
1A8
330
1F
100
AcDbEntity
  8
0
  6
Continuous
 62
     7
370
    25
100
AcDbLine
 10
795.3595996184
 20
597.2578644958
 30
0.0
 11
794.5595996184
 21
597.2578644958
 31
0.0
  0
ARC
  5
1A9
330
1F
100
AcDbEntity
  8
0
  6
Continuous
 62
     7
370
    25
100
AcDbCircle
 10
793.5595996184
 20
587.0578644958
 30
0.0
 40
1.800000000000068
100
AcDbArc
 50
270.0
 51
0.0
  0
ARC
  5
1AA
330
1F
100
AcDbEntity
  8
0
  6
Continuous
 62
     7
370
    25
100
AcDbCircle
 10
793.5595996184
 20
587.0578644958
 30
0.0
 40
1.0
100
AcDbArc
 50
270.0
 51
0.0
  0
LINE
  5
1AB
330
1F
100
AcDbEntity
  8
0
  6
Continuous
 62
     7
370
    25
100
AcDbLine
 10
793.3595996184
 20
585.2578644958
 30
0.0
 11
793.5595996184
 21
585.2578644958
 31
0.0
  0
LINE
  5
1AC
330
1F
100
AcDbEntity
  8
0
  6
Continuous
 62
     7
370
    25
100
AcDbLine
 10
793.3595996184
 20
586.0578644958
 30
0.0
 11
793.5595996184
 21
586.0578644958
 31
0.0
  0
LINE
  5
1AD
330
1F
100
AcDbEntity
  8
0
  6
Continuous
 62
     7
370
    25
100
AcDbLine
 10
753.3595996184
 20
585.2578644958
 30
0.0
 11
774.3595996184
 21
585.2578644958
 31
0.0
  0
LINE
  5
1AE
330
1F
100
AcDbEntity
  8
0
  6
Continuous
 62
     7
370
    25
100
AcDbLine
 10
753.3595996184
 20
586.0578644958
 30
0.0
 11
774.3595996184
 21
586.0578644958
 31
0.0
  0
LINE
  5
1AF
330
1F
100
AcDbEntity
  8
0
  6
Continuous
 62
     7
370
    25
100
AcDbLine
 10
750.3595996184
 20
585.2578644958
 30
0.0
 11
750.3595996184
 21
586.0578644958
 31
0.0
  0
LINE
  5
1B0
330
1F
100
AcDbEntity
  8
0
  6
Continuous
 62
     7
370
    25
100
AcDbLine
 10
753.3595996184
 20
585.2578644958
 30
0.0
 11
750.3595996184
 21
585.2578644958
 31
0.0
  0
LINE
  5
1B1
330
1F
100
AcDbEntity
  8
0
  6
Continuous
 62
     7
370
    25
100
AcDbLine
 10
750.3595996184
 20
586.0578644958
 30
0.0
 11
753.3595996184
 21
586.0578644958
 31
0.0
  0
LINE
  5
1B2
330
1F
100
AcDbEntity
  8
0
  6
Continuous
 62
     7
370
    25
100
AcDbLine
 10
751.4549862266
 20
589.4578644958
 30
0.0
 11
751.4549862266
 21
590.2578644958
 31
0.0
  0
LINE
  5
1B3
330
1F
100
AcDbEntity
  8
0
  6
Continuous
 62
     7
370
    25
100
AcDbLine
 10
751.4549862266
 20
590.2578644958
 30
0.0
 11
754.4549862266
 21
590.2578644958
 31
0.0
  0
LINE
  5
1B4
330
1F
100
AcDbEntity
  8
0
  6
Continuous
 62
     7
370
    25
100
AcDbLine
 10
754.4549862266
 20
589.4578644958
 30
0.0
 11
751.4549862266
 21
589.4578644958
 31
0.0
  0
LINE
  5
1B5
330
1F
100
AcDbEntity
  8
0
  6
Continuous
 62
     7
370
    25
100
AcDbLine
 10
768.4975488108
 20
586.191839092
 30
0.0
 11
761.8726776802
 21
590.0167102226
 31
0.0
  0
LINE
  5
1B6
330
1F
100
AcDbEntity
  8
0
  6
Continuous
 62
     7
370
    25
100
AcDbLine
 10
767.1295996184
 20
586.0578644958
 30
0.0
 11
761.4726776802
 21
589.3238898995
 31
0.0
  0
LINE
  5
1B7
330
1F
100
AcDbEntity
  8
0
  6
Continuous
 62
     7
370
    25
100
AcDbLine
 10
754.4549862266
 20
590.2578644958
 30
0.0
 11
760.9726776802
 21
590.2578644958
 31
0.0
  0
LINE
  5
1B8
330
1F
100
AcDbEntity
  8
0
  6
Continuous
 62
     7
370
    25
100
AcDbLine
 10
754.4549862266
 20
589.4578644958
 30
0.0
 11
760.9726776802
 21
589.4578644958
 31
0.0
  0
ARC
  5
1B9
330
1F
100
AcDbEntity
  8
0
  6
Continuous
 62
     7
370
    25
100
AcDbCircle
 10
760.9726776802
 20
588.4578644958
 30
0.0
 40
1.0
100
AcDbArc
 50
60.0
 51
90.0
  0
ARC
  5
1BA
330
1F
100
AcDbEntity
  8
0
  6
Continuous
 62
     7
370
    25
100
AcDbCircle
 10
760.9726776802
 20
588.4578644958
 30
0.0
 40
1.799999999999955
100
AcDbArc
 50
60.0
 51
90.0
  0
ARC
  5
1BB
330
1F
100
AcDbEntity
  8
0
  6
Continuous
 62
     7
370
    25
100
AcDbCircle
 10
768.9975488108
 20
587.0578644958
 30
0.0
 40
1.0
100
AcDbArc
 50
240.0
 51
270.0
  0
LINE
  5
1BC
330
1F
100
AcDbEntity
  8
0
  6
Continuous
 62
     7
370
    25
100
AcDbLine
 10
793.3595996184
 20
594.1986938176
 30
0.0
 11
793.944919633
 21
594.1986938176
 31
0.0
  0
SPLINE
  5
1BD
330
1F
100
AcDbEntity
  8
0
  6
Continuous
 62
     7
370
    25
100
AcDbSpline
210
0.0
220
0.0
230
1.0
 70
     8
 71
     3
 72
    14
 73
    10
 74
     0
 42
0.000000001
 43
0.00000001
 40
0.0
 40
0.0
 40
0.0
 40
0.0
 40
0.25
 40
0.25
 40
0.5
 40
0.5
 40
0.75
 40
0.75
 40
1.0
 40
1.0
 40
1.0
 40
1.0
 10
793.9449196330273
 20
594.1986938176284
 30
0.0
 10
794.0397942423381
 20
593.8741875883396
 30
0.0
 10
794.1193991672137
 20
593.5417283659453
 30
0.0
 10
794.228235782108
 20
592.875158451037
 30
0.0
 10
794.2575593877986
 20
592.5400821937619
 30
0.0
 10
794.2574946060529
 20
591.8657387235342
 30
0.0
 10
794.2273384127266
 20
591.5239593028551
 30
0.0
 10
794.1177532113608
 20
590.8575453832507
 30
0.0
 10
794.0392102375587
 20
590.5307713372978
 30
0.0
 10
793.9449196330273
 20
590.2082626202015
 30
0.0
  0
LINE
  5
1BE
330
1F
100
AcDbEntity
  8
0
  6
Continuous
 62
     7
370
    25
100
AcDbLine
 10
793.3595996184
 20
590.2082626202
 30
0.0
 11
793.944919633
 21
590.2082626202
 31
0.0
  0
SPLINE
  5
1BF
330
1F
100
AcDbEntity
  8
0
  6
Continuous
 62
     7
370
    25
100
AcDbSpline
210
0.0
220
0.0
230
1.0
 70
     8
 71
     3
 72
    12
 73
     8
 74
     0
 42
0.000000001
 43
0.00000001
 40
0.0
 40
0.0
 40
0.0
 40
0.0
 40
0.5000000000000094
 40
0.5000000000000094
 40
0.7500000000000047
 40
0.7500000000000047
 40
1.0
 40
1.0
 40
1.0
 40
1.0
 10
793.9449196330283
 20
588.767433298331
 30
0.0
 10
794.1354139224519
 20
589.0026930907741
 30
0.0
 10
794.2570883355144
 20
589.2414777836244
 30
0.0
 10
794.2577445260455
 20
589.6089693161814
 30
0.0
 10
794.2279105242511
 20
589.7313415108309
 30
0.0
 10
794.1189806541436
 20
589.9717251959904
 30
0.0
 10
794.0402854670807
 20
590.0904861430521
 30
0.0
 10
793.9449196330279
 20
590.2082626202016
 30
0.0
  0
SPLINE
  5
1C0
330
1F
100
AcDbEntity
  8
0
  6
Continuous
 62
     7
370
    25
100
AcDbSpline
210
0.0
220
0.0
230
1.0
 70
     8
 71
     3
 72
    12
 73
     8
 74
     0
 42
0.000000001
 43
0.00000001
 40
0.0
 40
0.0
 40
0.0
 40
0.0
 40
0.5000000000000079
 40
0.5000000000000079
 40
0.7500000000000039
 40
0.7500000000000039
 40
1.0
 40
1.0
 40
1.0
 40
1.0
 10
793.9449196330283
 20
594.1986938176283
 30
0.0
 10
794.1354139224519
 20
594.6149949012829
 30
0.0
 10
794.2570883355144
 20
595.0375334292712
 30
0.0
 10
794.2577445260455
 20
595.6878235687321
 30
0.0
 10
794.2279105242511
 20
595.9043657866465
 30
0.0
 10
794.1189806541436
 20
596.3297337918868
 30
0.0
 10
794.0402854670806
 20
596.5398857708722
 30
0.0
 10
793.9449196330279
 20
596.7482956931848
 30
0.0
  0
LINE
  5
1C1
330
1F
100
AcDbEntity
  8
0
  6
Continuous
 62
     7
370
    25
100
AcDbLine
 10
793.944919633
 20
596.7482956932
 30
0.0
 11
794.0427946703
 21
596.5053909429
 31
0.0
  0
LINE
  5
1C2
330
1F
100
AcDbEntity
  8
0
  6
Continuous
 62
     7
370
    25
100
AcDbLine
 10
794.4595996184
 20
592.2589168466
 30
0.0
 11
794.4595996184
 21
589.6078644958
 31
0.0
  0
LINE
  5
1C3
330
1F
100
AcDbEntity
  8
0
  6
Continuous
 62
     7
370
    25
100
AcDbLine
 10
794.4595996184
 20
595.9078644958
 30
0.0
 11
794.4595996184
 21
592.2589168466
 31
0.0
  0
LINE
  5
1C4
330
1F
100
AcDbEntity
  8
0
  6
Continuous
 62
     7
370
    25
100
AcDbLine
 10
793.3595996184
 20
596.7482956932
 30
0.0
 11
793.944919633
 21
596.7482956932
 31
0.0
  0
LINE
  5
1C5
330
1F
100
AcDbEntity
  8
0
  6
Continuous
 62
     7
370
    25
100
AcDbLine
 10
793.3595996184
 20
588.7674332983
 30
0.0
 11
793.944919633
 21
588.7674332983
 31
0.0
  0
LINE
  5
1C6
330
1F
100
AcDbEntity
  8
0
  6
Continuous
 62
     7
370
    25
100
AcDbLine
 10
797.1595996184
 20
582.7578644958
 30
0.0
 11
797.1595996184
 21
583.5578644958
 31
0.0
  0
LINE
  5
1C7
330
1F
100
AcDbEntity
  8
0
  6
Continuous
 62
     7
370
    25
100
AcDbLine
 10
801.4595996184
 20
583.5578644958
 30
0.0
 11
797.1595996184
 21
583.5578644958
 31
0.0
  0
LINE
  5
1C8
330
1F
100
AcDbEntity
  8
0
  6
Continuous
 62
     7
370
    25
100
AcDbLine
 10
801.4595996184
 20
582.7578644958
 30
0.0
 11
797.1595996184
 21
582.7578644958
 31
0.0
  0
LINE
  5
1C9
330
1F
100
AcDbEntity
  8
0
  6
Continuous
 62
     7
370
    25
100
AcDbLine
 10
801.9095996184
 20
601.0578644958
 30
0.0
 11
807.0595996184
 21
601.0578644958
 31
0.0
  0
LINE
  5
1CA
330
1F
100
AcDbEntity
  8
0
  6
Continuous
 62
     7
370
    25
100
AcDbLine
 10
801.9095996184
 20
601.8578644958
 30
0.0
 11
801.9095996184
 21
601.0578644958
 31
0.0
  0
LINE
  5
1CB
330
1F
100
AcDbEntity
  8
0
  6
Continuous
 62
     7
370
    25
100
AcDbLine
 10
801.9095996184
 20
601.8578644958
 30
0.0
 11
807.0595996184
 21
601.8578644958
 31
0.0
  0
LINE
  5
1CC
330
1F
100
AcDbEntity
  8
0
  6
Continuous
 62
     7
370
    25
100
AcDbLine
 10
807.0595996184
 20
601.8578644958
 30
0.0
 11
807.0595996184
 21
601.9578644958
 31
0.0
  0
LINE
  5
1CD
330
1F
100
AcDbEntity
  8
0
  6
Continuous
 62
     7
370
    25
100
AcDbLine
 10
797.1595996184
 20
601.9578644958
 30
0.0
 11
807.0595996184
 21
601.9578644958
 31
0.0
  0
LINE
  5
1CE
330
1F
100
AcDbEntity
  8
0
  6
Continuous
 62
     7
370
    25
100
AcDbLine
 10
797.1595996184
 20
601.9578644958
 30
0.0
 11
797.1595996184
 21
602.7578644958
 31
0.0
  0
LINE
  5
1CF
330
1F
100
AcDbEntity
  8
0
  6
Continuous
 62
     7
370
    25
100
AcDbLine
 10
807.0595996184
 20
602.7578644958
 30
0.0
 11
797.1595996184
 21
602.7578644958
 31
0.0
  0
ARC
  5
1D0
330
1F
100
AcDbEntity
  8
0
  6
Continuous
 62
     7
370
    25
100
AcDbCircle
 10
807.0595996184
 20
601.9078644958
 30
0.0
 40
0.8500000000000227
100
AcDbArc
 50
270.0
 51
90.0
  0
ARC
  5
1D1
330
1F
100
AcDbEntity
  8
0
  6
Continuous
 62
     7
370
    25
100
AcDbCircle
 10
797.1595996184
 20
600.9578644958
 30
0.0
 40
1.000000000000114
100
AcDbArc
 50
90.0
 51
180.0
  0
LINE
  5
1D2
330
1F
100
AcDbEntity
  8
0
  6
Continuous
 62
     7
370
    25
100
AcDbLine
 10
796.1595996184
 20
600.9578644958
 30
0.0
 11
796.1595996184
 21
584.5578644958
 31
0.0
  0
ARC
  5
1D3
330
1F
100
AcDbEntity
  8
0
  6
Continuous
 62
     7
370
    25
100
AcDbCircle
 10
797.1595996184
 20
584.5578644958
 30
0.0
 40
1.0
100
AcDbArc
 50
180.0
 51
270.0
  0
ARC
  5
1D4
330
1F
100
AcDbEntity
  8
0
  6
Continuous
 62
     7
370
    25
100
AcDbCircle
 10
797.1595996184
 20
584.5578644958
 30
0.0
 40
1.800000000000068
100
AcDbArc
 50
180.0
 51
270.0
  0
LINE
  5
1D5
330
1F
100
AcDbEntity
  8
0
  6
Continuous
 62
     7
370
    25
100
AcDbLine
 10
795.3595996184
 20
584.5578644958
 30
0.0
 11
795.3595996184
 21
600.9578644958
 31
0.0
  0
ARC
  5
1D6
330
1F
100
AcDbEntity
  8
0
  6
Continuous
 62
     7
370
    25
100
AcDbCircle
 10
797.1595996184
 20
600.9578644958
 30
0.0
 40
1.800000000000068
100
AcDbArc
 50
90.0
 51
180.0
  0
CIRCLE
  5
1D7
330
1F
100
AcDbEntity
  8
0
  6
Continuous
 62
     7
370
    25
100
AcDbCircle
 10
782.8595996184
 20
592.7578644958
 30
0.0
 40
2.458750000016497
  0
CIRCLE
  5
1D8
330
1F
100
AcDbEntity
  8
0
  6
Continuous
 62
     7
370
    25
100
AcDbCircle
 10
782.8595996184
 20
592.7578644958
 30
0.0
 40
2.999999999999965
  0
LINE
  5
1D9
330
1F
100
AcDbEntity
  8
0
  6
Continuous
 62
     7
370
    25
100
AcDbLine
 10
798.1595996184
 20
596.7073671118
 30
0.0
 11
798.1595996184
 21
596.7578644958
 31
0.0
  0
LINE
  5
1DA
330
1F
100
AcDbEntity
  8
0
  6
Continuous
 62
     7
370
    25
100
AcDbLine
 10
798.1595996184
 20
588.7578644958
 30
0.0
 11
798.1595996184
 21
596.7073671118
 31
0.0
  0
ARC
  5
1DB
330
1F
100
AcDbEntity
  8
0
  6
Continuous
 62
     7
370
    25
100
AcDbCircle
 10
791.4226197207
 20
592.6619264759
 30
0.0
 40
7.786288415109945
100
AcDbArc
 50
4.3702527065
 51
15.2299003794
  0
ARC
  5
1DC
330
1F
100
AcDbEntity
  8
0
  6
Continuous
 62
     7
370
    25
100
AcDbCircle
 10
798.6618761842
 20
593.5683800782
 30
0.0
 40
0.6107675350086738
100
AcDbArc
 50
296.6101963367
 51
329.1575418587
  0
ARC
  5
1DD
330
1F
100
AcDbEntity
  8
0
  6
Continuous
 62
     7
370
    25
100
AcDbCircle
 10
789.8558140428
 20
592.4298829831
 30
0.0
 40
9.098942710249148
100
AcDbArc
 50
356.2668736478
 51
3.7331263522
  0
ARC
  5
1DE
330
1F
100
AcDbEntity
  8
0
  6
Continuous
 62
     7
370
    25
100
AcDbCircle
 10
798.6618761842
 20
592.3835292934
 30
0.0
 40
0.6107675350086228
100
AcDbArc
 50
296.6101963367
 51
329.1575418586
  0
ARC
  5
1DF
330
1F
100
AcDbEntity
  8
0
  6
Continuous
 62
     7
370
    25
100
AcDbCircle
 10
791.4226197207
 20
592.6637272207
 30
0.0
 40
7.78628841511179
100
AcDbArc
 50
344.7700996206
 51
355.6297472935
  0
ARC
  5
1E0
330
1F
100
AcDbEntity
  8
0
  6
Continuous
 62
     7
370
    25
100
AcDbCircle
 10
798.8023658398
 20
590.6922621189
 30
0.0
 40
0.1522432420666303
100
AcDbArc
 50
330.9451665858
 51
359.1449116612
  0
LWPOLYLINE
  5
1E1
330
1F
100
AcDbEntity
  8
0
  6
Continuous
 62
     7
370
    25
100
AcDbPolyline
 90
        3
 70
   128
 43
0.0
 10
799.1862691087
 20
592.2604767508
 10
799.17004426
 20
592.076778422
 10
799.169402117
 20
592.0704014559
  0
ARC
  5
1E2
330
1F
100
AcDbEntity
  8
0
  6
Continuous
 62
     7
370
    25
100
AcDbCircle
 10
798.6618761842
 20
591.9473489133
 30
0.0
 40
0.610767535010301
100
AcDbArc
 50
30.8424581414
 51
63.3898036633
  0
ARC
  5
1E3
330
1F
100
AcDbEntity
  8
0
  6
Continuous
 62
     7
370
    25
100
AcDbCircle
 10
789.7789422637
 20
593.0888618646
 30
0.0
 40
9.175815042813804
100
AcDbArc
 50
357.9327321265
 51
359.6562101037
  0
ARC
  5
1E4
330
1F
100
AcDbEntity
  8
0
  6
Continuous
 62
     7
370
    25
100
AcDbCircle
 10
791.4226197207
 20
592.8520017708
 30
0.0
 40
7.786288415113509
100
AcDbArc
 50
4.3702527065
 51
15.2299003794
  0
ARC
  5
1E5
330
1F
100
AcDbEntity
  8
0
  6
Continuous
 62
     7
370
    25
100
AcDbCircle
 10
798.7143280534
 20
594.8023656121
 30
0.0
 40
0.2406805056724326
100
AcDbArc
 50
336.7420981705
 51
23.2579018295
  0
LINE
  5
1E6
330
1F
100
AcDbEntity
  8
0
  6
Continuous
 62
     7
370
    25
100
AcDbLine
 10
799.1862691087
 20
592.0704014559
 30
0.0
 11
798.9477134508
 21
592.0704014559
 31
0.0
  0
LINE
  5
1E7
330
1F
100
AcDbEntity
  8
0
  6
Continuous
 62
     7
370
    25
100
AcDbLine
 10
799.1862691087
 20
593.4453275356
 30
0.0
 11
799.169402117
 21
593.4453275356
 31
0.0
  0
LINE
  5
1E8
330
1F
100
AcDbEntity
  8
0
  6
Continuous
 62
     7
370
    25
100
AcDbLine
 10
799.1862691087
 20
592.2604767508
 30
0.0
 11
798.9532187923
 21
592.2604767508
 31
0.0
  0
LINE
  5
1E9
330
1F
100
AcDbEntity
  8
0
  6
Continuous
 62
     7
370
    25
100
AcDbLine
 10
788.9595996184
 20
527.0717098547
 30
0.0
 11
776.9595996184
 21
527.0717098547
 31
0.0
  0
LINE
  5
1EA
330
1F
100
AcDbEntity
  8
0
  6
Continuous
 62
     7
370
    25
100
AcDbLine
 10
788.9595996184
 20
526.3876695681
 30
0.0
 11
776.9595996184
 21
526.3876695681
 31
0.0
  0
LINE
  5
1EB
330
1F
100
AcDbEntity
  8
0
  6
Continuous
 62
     7
370
    25
100
AcDbLine
 10
774.9595996184
 20
528.2670548096
 30
0.0
 11
774.9595996184
 21
528.9510950963
 31
0.0
  0
ARC
  5
1EC
330
1F
100
AcDbEntity
  8
0
  6
Continuous
 62
     7
370
    25
100
AcDbCircle
 10
776.9011107292
 20
529.0133376721
 30
0.0
 40
1.942508566655474
100
AcDbArc
 50
181.8362067977
 51
271.7254354149
  0
ARC
  5
1ED
330
1F
100
AcDbEntity
  8
0
  6
Continuous
 62
     7
370
    25
100
AcDbCircle
 10
776.9011107292
 20
528.3292973855
 30
0.0
 40
1.942508566655243
100
AcDbArc
 50
181.8362067977
 51
271.7254354149
  0
LINE
  5
1EE
330
1F
100
AcDbEntity
  8
0
  6
Continuous
 62
     7
370
    25
100
AcDbLine
 10
774.9595996184
 20
528.9510950963
 30
0.0
 11
774.9595996184
 21
534.0921713331
 31
0.0
  0
LINE
  5
1EF
330
1F
100
AcDbEntity
  8
0
  6
Continuous
 62
     7
370
    25
100
AcDbLine
 10
790.9595996184
 20
534.0921713331
 30
0.0
 11
790.9595996184
 21
528.9510950963
 31
0.0
  0
ARC
  5
1F0
330
1F
100
AcDbEntity
  8
0
  6
Continuous
 62
     7
370
    25
100
AcDbCircle
 10
789.0180885076
 20
529.0133376721
 30
0.0
 40
1.942508566655356
100
AcDbArc
 50
268.2745645851
 51
358.1637932023
  0
LINE
  5
1F1
330
1F
100
AcDbEntity
  8
0
  6
Continuous
 62
     7
370
    25
100
AcDbLine
 10
790.9595996184
 20
528.9510950963
 30
0.0
 11
790.9595996184
 21
528.2670548096
 31
0.0
  0
ARC
  5
1F2
330
1F
100
AcDbEntity
  8
0
  6
Continuous
 62
     7
370
    25
100
AcDbCircle
 10
789.0180885076
 20
528.3292973855
 30
0.0
 40
1.942508566655026
100
AcDbArc
 50
268.2745645851
 51
358.1637932023
  0
LINE
  5
1F3
330
1F
100
AcDbEntity
  8
0
  6
Continuous
 62
     7
370
    25
100
AcDbLine
 10
790.9595996184
 20
534.0921713331
 30
0.0
 11
790.9595996184
 21
534.4341914765
 31
0.0
  0
LINE
  5
1F4
330
1F
100
AcDbEntity
  8
0
  6
Continuous
 62
     7
370
    25
100
AcDbLine
 10
774.9595996184
 20
534.4341914765
 30
0.0
 11
774.9595996184
 21
534.0921713331
 31
0.0
  0
LINE
  5
1F5
330
1F
100
AcDbEntity
  8
0
  6
Continuous
 62
     7
370
    25
100
AcDbLine
 10
790.9595996184
 20
534.2578644958
 30
0.0
 11
801.4595996184
 21
534.2578644958
 31
0.0
  0
ARC
  5
1F6
330
1F
100
AcDbEntity
  8
0
  6
Continuous
 62
     7
370
    25
100
AcDbCircle
 10
776.9595996184
 20
547.2578644958
 30
0.0
 40
2.0
100
AcDbArc
 50
90.0
 51
180.0
  0
CIRCLE
  5
1F7
330
1F
100
AcDbEntity
  8
0
  6
Continuous
 62
     7
370
    25
100
AcDbCircle
 10
782.8595996184
 20
541.7578644958
 30
0.0
 40
3.499999999999886
  0
LINE
  5
1F8
330
1F
100
AcDbEntity
  8
0
  6
Continuous
 62
     7
370
    25
100
AcDbLine
 10
801.4595996184
 20
549.2578644958
 30
0.0
 11
776.9595996184
 21
549.2578644958
 31
0.0
  0
LINE
  5
1F9
330
1F
100
AcDbEntity
  8
0
  6
Continuous
 62
     7
370
    25
100
AcDbLine
 10
774.9595996184
 20
547.2578644958
 30
0.0
 11
774.9595996184
 21
534.4341914765
 31
0.0
  0
CIRCLE
  5
1FA
330
1F
100
AcDbEntity
  8
0
  6
Continuous
 62
     7
370
    25
100
AcDbCircle
 10
782.8595996184
 20
291.7578644958
 30
0.0
 40
2.458750000016497
  0
CIRCLE
  5
1FB
330
1F
100
AcDbEntity
  8
0
  6
Continuous
 62
     7
370
    25
100
AcDbCircle
 10
782.8595996184
 20
291.7578644958
 30
0.0
 40
3.000000000000015
  0
LINE
  5
1FC
330
1F
100
AcDbEntity
  8
0
  6
Continuous
 62
     7
370
    25
100
AcDbLine
 10
788.9595996184
 20
277.0717098547
 30
0.0
 11
776.9595996184
 21
277.0717098547
 31
0.0
  0
LINE
  5
1FD
330
1F
100
AcDbEntity
  8
0
  6
Continuous
 62
     7
370
    25
100
AcDbLine
 10
788.9595996184
 20
276.3876695681
 30
0.0
 11
776.9595996184
 21
276.3876695681
 31
0.0
  0
ARC
  5
1FE
330
1F
100
AcDbEntity
  8
0
  6
Continuous
 62
     7
370
    25
100
AcDbCircle
 10
776.9011107292
 20
279.0133376721
 30
0.0
 40
1.942508566655244
100
AcDbArc
 50
181.8362067977
 51
271.7254354149
  0
LINE
  5
1FF
330
1F
100
AcDbEntity
  8
0
  6
Continuous
 62
     7
370
    25
100
AcDbLine
 10
774.9595996184
 20
278.9510950963
 30
0.0
 11
774.9595996184
 21
284.0921713331
 31
0.0
  0
LINE
  5
200
330
1F
100
AcDbEntity
  8
0
  6
Continuous
 62
     7
370
    25
100
AcDbLine
 10
790.9595996184
 20
284.0921713331
 30
0.0
 11
790.9595996184
 21
278.9510950963
 31
0.0
  0
ARC
  5
201
330
1F
100
AcDbEntity
  8
0
  6
Continuous
 62
     7
370
    25
100
AcDbCircle
 10
789.0180885076
 20
279.0133376721
 30
0.0
 40
1.942508566655476
100
AcDbArc
 50
268.2745645851
 51
358.1637932023
  0
LINE
  5
202
330
1F
100
AcDbEntity
  8
0
  6
Continuous
 62
     7
370
    25
100
AcDbLine
 10
774.9595996184
 20
278.2670548096
 30
0.0
 11
774.9595996184
 21
278.9510950963
 31
0.0
  0
ARC
  5
203
330
1F
100
AcDbEntity
  8
0
  6
Continuous
 62
     7
370
    25
100
AcDbCircle
 10
776.9011107292
 20
278.3292973855
 30
0.0
 40
1.9425085666553
100
AcDbArc
 50
181.8362067977
 51
271.7254354149
  0
LINE
  5
204
330
1F
100
AcDbEntity
  8
0
  6
Continuous
 62
     7
370
    25
100
AcDbLine
 10
790.9595996184
 20
278.9510950963
 30
0.0
 11
790.9595996184
 21
278.2670548096
 31
0.0
  0
ARC
  5
205
330
1F
100
AcDbEntity
  8
0
  6
Continuous
 62
     7
370
    25
100
AcDbCircle
 10
789.0180885076
 20
278.3292973855
 30
0.0
 40
1.942508566655593
100
AcDbArc
 50
268.2745645851
 51
358.1637932023
  0
LINE
  5
206
330
1F
100
AcDbEntity
  8
0
  6
Continuous
 62
     7
370
    25
100
AcDbLine
 10
790.9595996184
 20
284.0921713331
 30
0.0
 11
790.9595996184
 21
284.4341914765
 31
0.0
  0
LINE
  5
207
330
1F
100
AcDbEntity
  8
0
  6
Continuous
 62
     7
370
    25
100
AcDbLine
 10
774.9595996184
 20
284.4341914765
 30
0.0
 11
774.9595996184
 21
284.0921713331
 31
0.0
  0
LINE
  5
208
330
1F
100
AcDbEntity
  8
0
  6
Continuous
 62
     7
370
    25
100
AcDbLine
 10
790.9595996184
 20
284.2578644958
 30
0.0
 11
801.4595996184
 21
284.2578644958
 31
0.0
  0
LINE
  5
209
330
1F
100
AcDbEntity
  8
0
  6
Continuous
 62
     7
370
    25
100
AcDbLine
 10
801.4595996184
 20
299.2578644958
 30
0.0
 11
776.9595996184
 21
299.2578644958
 31
0.0
  0
CIRCLE
  5
20A
330
1F
100
AcDbEntity
  8
0
  6
Continuous
 62
     7
370
    25
100
AcDbCircle
 10
782.8595996184
 20
291.7578644958
 30
0.0
 40
3.5
  0
ARC
  5
20B
330
1F
100
AcDbEntity
  8
0
  6
Continuous
 62
     7
370
    25
100
AcDbCircle
 10
776.9595996184
 20
297.2578644958
 30
0.0
 40
2.0
100
AcDbArc
 50
90.0
 51
180.0
  0
LINE
  5
20C
330
1F
100
AcDbEntity
  8
0
  6
Continuous
 62
     7
370
    25
100
AcDbLine
 10
774.9595996184
 20
297.2578644958
 30
0.0
 11
774.9595996184
 21
284.4341914765
 31
0.0
  0
ARC
  5
20D
330
1F
100
AcDbEntity
  8
0
  6
Continuous
 62
     7
370
    25
100
AcDbCircle
 10
776.9011107292
 20
54.5023913194
 30
0.0
 40
1.942508566655168
100
AcDbArc
 50
88.2745645851
 51
178.1637932023
  0
LINE
  5
20E
330
1F
100
AcDbEntity
  8
0
  6
Continuous
 62
     7
370
    25
100
AcDbLine
 10
774.9595996184
 20
54.5646338952
 30
0.0
 11
774.9595996184
 21
55.2486741819
 31
0.0
  0
ARC
  5
20F
330
1F
100
AcDbEntity
  8
0
  6
Continuous
 62
     7
370
    25
100
AcDbCircle
 10
776.9011107292
 20
55.186431606
 30
0.0
 40
1.94250856665526
100
AcDbArc
 50
88.2745645851
 51
178.1637932023
  0
LINE
  5
210
330
1F
100
AcDbEntity
  8
0
  6
Continuous
 62
     7
370
    25
100
AcDbLine
 10
776.9595996184
 20
57.1280594235
 30
0.0
 11
788.9595996184
 21
57.1280594235
 31
0.0
  0
LINE
  5
211
330
1F
100
AcDbEntity
  8
0
  6
Continuous
 62
     7
370
    25
100
AcDbLine
 10
776.9595996184
 20
56.4440191368
 30
0.0
 11
788.9595996184
 21
56.4440191368
 31
0.0
  0
LINE
  5
212
330
1F
100
AcDbEntity
  8
0
  6
Continuous
 62
     7
370
    25
100
AcDbLine
 10
774.9595996184
 20
49.4235576584
 30
0.0
 11
774.9595996184
 21
54.5646338952
 31
0.0
  0
ARC
  5
213
330
1F
100
AcDbEntity
  8
0
  6
Continuous
 62
     7
370
    25
100
AcDbCircle
 10
789.0180885076
 20
54.5023913194
 30
0.0
 40
1.942508566655221
100
AcDbArc
 50
1.8362067977
 51
91.7254354149
  0
LINE
  5
214
330
1F
100
AcDbEntity
  8
0
  6
Continuous
 62
     7
370
    25
100
AcDbLine
 10
790.9595996184
 20
54.5646338952
 30
0.0
 11
790.9595996184
 21
49.4235576584
 31
0.0
  0
LINE
  5
215
330
1F
100
AcDbEntity
  8
0
  6
Continuous
 62
     7
370
    25
100
AcDbLine
 10
790.9595996184
 20
55.2486741819
 30
0.0
 11
790.9595996184
 21
54.5646338952
 31
0.0
  0
ARC
  5
216
330
1F
100
AcDbEntity
  8
0
  6
Continuous
 62
     7
370
    25
100
AcDbCircle
 10
789.0180885076
 20
55.186431606
 30
0.0
 40
1.942508566655374
100
AcDbArc
 50
1.8362067977
 51
91.7254354149
  0
LINE
  5
217
330
1F
100
AcDbEntity
  8
0
  6
Continuous
 62
     7
370
    25
100
AcDbLine
 10
790.9595996184
 20
49.081537515
 30
0.0
 11
790.9595996184
 21
49.4235576584
 31
0.0
  0
LINE
  5
218
330
1F
100
AcDbEntity
  8
0
  6
Continuous
 62
     7
370
    25
100
AcDbLine
 10
774.9595996184
 20
49.4235576584
 30
0.0
 11
774.9595996184
 21
49.081537515
 31
0.0
  0
LINE
  5
219
330
1F
100
AcDbEntity
  8
0
  6
Continuous
 62
     7
370
    25
100
AcDbLine
 10
801.4595996184
 20
49.2578644958
 30
0.0
 11
790.9595996184
 21
49.2578644958
 31
0.0
  0
CIRCLE
  5
21A
330
1F
100
AcDbEntity
  8
0
  6
Continuous
 62
     7
370
    25
100
AcDbCircle
 10
782.8595996184
 20
41.7578644958
 30
0.0
 40
3.499999999999886
  0
ARC
  5
21B
330
1F
100
AcDbEntity
  8
0
  6
Continuous
 62
     7
370
    25
100
AcDbCircle
 10
776.9595996184
 20
36.2578644958
 30
0.0
 40
2.0
100
AcDbArc
 50
180.0
 51
270.0
  0
LINE
  5
21C
330
1F
100
AcDbEntity
  8
0
  6
Continuous
 62
     7
370
    25
100
AcDbLine
 10
774.9595996184
 20
49.081537515
 30
0.0
 11
774.9595996184
 21
36.2578644958
 31
0.0
  0
LINE
  5
21D
330
1F
100
AcDbEntity
  8
0
  6
Continuous
 62
     7
370
    25
100
AcDbLine
 10
776.9595996184
 20
34.2578644958
 30
0.0
 11
801.4595996184
 21
34.2578644958
 31
0.0
  0
CIRCLE
  5
21E
330
1F
100
AcDbEntity
  8
0
  6
Continuous
 62
     7
370
    25
100
AcDbCircle
 10
782.8595996184
 20
617.7578644958
 30
0.0
 40
2.458750000016497
  0
CIRCLE
  5
21F
330
1F
100
AcDbEntity
  8
0
  6
Continuous
 62
     7
370
    25
100
AcDbCircle
 10
782.8595996184
 20
617.7578644958
 30
0.0
 40
3.000000000000015
  0
CIRCLE
  5
220
330
1F
100
AcDbEntity
  8
0
  6
Continuous
 62
     7
370
    25
100
AcDbCircle
 10
782.8595996184
 20
41.7578644958
 30
0.0
 40
2.458750000016594
  0
CIRCLE
  5
221
330
1F
100
AcDbEntity
  8
0
  6
Continuous
 62
     7
370
    25
100
AcDbCircle
 10
782.8595996184
 20
41.7578644958
 30
0.0
 40
2.999999999999971
  0
CIRCLE
  5
222
330
1F
100
AcDbEntity
  8
0
  6
Continuous
 62
     7
370
    25
100
AcDbCircle
 10
782.8595996184
 20
541.7578644958
 30
0.0
 40
2.458750000016497
  0
CIRCLE
  5
223
330
1F
100
AcDbEntity
  8
0
  6
Continuous
 62
     7
370
    25
100
AcDbCircle
 10
782.8595996184
 20
541.7578644958
 30
0.0
 40
3.000000000000064
  0
LINE
  5
224
330
1F
100
AcDbEntity
  8
0
  6
Continuous
 62
     7
370
    25
100
AcDbLine
 10
650.1443680867
 20
725.1998727312
 30
0.0
 11
650.6443680867
 21
724.6998727312
 31
0.0
  0
LINE
  5
225
330
1F
100
AcDbEntity
  8
0
  6
Continuous
 62
     7
370
    25
100
AcDbLine
 10
650.1443680867
 20
729.1998727312
 30
0.0
 11
650.1443680867
 21
725.1998727312
 31
0.0
  0
LINE
  5
226
330
1F
100
AcDbEntity
  8
0
  6
Continuous
 62
     7
370
    25
100
AcDbLine
 10
650.2007100485
 20
725.1998727312
 30
0.0
 11
650.7007100485
 21
724.6998727312
 31
0.0
  0
LINE
  5
227
330
1F
100
AcDbEntity
  8
0
  6
Continuous
 62
     7
370
    25
100
AcDbLine
 10
650.2007100485
 20
729.1998727312
 30
0.0
 11
650.2007100485
 21
725.1998727312
 31
0.0
  0
LINE
  5
228
330
1F
100
AcDbEntity
  8
0
  6
Continuous
 62
     7
370
    25
100
AcDbLine
 10
167.1211610626
 20
725.1998727312
 30
0.0
 11
167.6211610626
 21
724.6998727312
 31
0.0
  0
LINE
  5
229
330
1F
100
AcDbEntity
  8
0
  6
Continuous
 62
     7
370
    25
100
AcDbLine
 10
167.1211610626
 20
729.1998727312
 30
0.0
 11
167.1211610626
 21
725.1998727312
 31
0.0
  0
LINE
  5
22A
330
1F
100
AcDbEntity
  8
0
  6
Continuous
 62
     7
370
    25
100
AcDbLine
 10
172.9716951808
 20
725.1998727312
 30
0.0
 11
172.9716951808
 21
729.1998727312
 31
0.0
  0
LINE
  5
22B
330
1F
100
AcDbEntity
  8
0
  6
Continuous
 62
     7
370
    25
100
AcDbLine
 10
172.4716951808
 20
724.6998727312
 30
0.0
 11
172.9716951808
 21
725.1998727312
 31
0.0
  0
LINE
  5
22C
330
1F
100
AcDbEntity
  8
0
  6
Continuous
 62
     7
370
    25
100
AcDbLine
 10
167.2875789267
 20
725.1998727312
 30
0.0
 11
167.7875789267
 21
724.6998727312
 31
0.0
  0
LINE
  5
22D
330
1F
100
AcDbEntity
  8
0
  6
Continuous
 62
     7
370
    25
100
AcDbLine
 10
167.2875789267
 20
729.1998727312
 30
0.0
 11
167.2875789267
 21
725.1998727312
 31
0.0
  0
LINE
  5
22E
330
1F
100
AcDbEntity
  8
0
  6
Continuous
 62
     7
370
    25
100
AcDbLine
 10
650.2996357071
 20
725.1998727312
 30
0.0
 11
650.7996357071
 21
724.6998727312
 31
0.0
  0
LINE
  5
22F
330
1F
100
AcDbEntity
  8
0
  6
Continuous
 62
     7
370
    25
100
AcDbLine
 10
650.2996357071
 20
729.1998727312
 30
0.0
 11
650.2996357071
 21
725.1998727312
 31
0.0
  0
LINE
  5
230
330
1F
100
AcDbEntity
  8
0
  6
Continuous
 62
     7
370
    25
100
AcDbLine
 10
655.9764761671
 20
725.1998727312
 30
0.0
 11
655.9764761671
 21
729.1998727312
 31
0.0
  0
LINE
  5
231
330
1F
100
AcDbEntity
  8
0
  6
Continuous
 62
     7
370
    25
100
AcDbLine
 10
655.4764761671
 20
724.6998727312
 30
0.0
 11
655.9764761671
 21
725.1998727312
 31
0.0
  0
ARC
  5
232
330
1F
100
AcDbEntity
  8
0
  6
Continuous
 62
     7
370
    25
100
AcDbCircle
 10
663.0128208011
 20
705.2998727311
 30
0.0
 40
0.5
100
AcDbArc
 50
180.0
 51
0.0
  0
ARC
  5
233
330
1F
100
AcDbEntity
  8
0
  6
Continuous
 62
     7
370
    25
100
AcDbCircle
 10
663.0128208011
 20
716.8998727313
 30
0.0
 40
0.5000000000001137
100
AcDbArc
 50
0.0
 51
180.0
  0
LINE
  5
234
330
1F
100
AcDbEntity
  8
0
  6
Continuous
 62
     7
370
    25
100
AcDbLine
 10
658.7404022383
 20
716.4940553432
 30
0.0
 11
658.5128208011
 21
716.0998727312
 31
0.0
  0
LINE
  5
235
330
1F
100
AcDbEntity
  8
0
  6
Continuous
 62
     7
370
    25
100
AcDbLine
 10
672.9715708011
 20
714.0998727312
 30
0.0
 11
665.5128208011
 21
714.0998727312
 31
0.0
  0
LINE
  5
236
330
1F
100
AcDbEntity
  8
0
  6
Continuous
 62
     7
370
    25
100
AcDbLine
 10
665.5128208011
 20
708.0998727312
 30
0.0
 11
672.9715708011
 21
708.0998727312
 31
0.0
  0
LINE
  5
237
330
1F
100
AcDbEntity
  8
0
  6
Continuous
 62
     7
370
    25
100
AcDbLine
 10
672.9715708011
 20
708.0998727312
 30
0.0
 11
673.5128208011
 21
708.6411227312
 31
0.0
  0
LINE
  5
238
330
1F
100
AcDbEntity
  8
0
  6
Continuous
 62
     7
370
    25
100
AcDbLine
 10
673.5128208011
 20
713.5586227312
 30
0.0
 11
672.9715708011
 21
714.0998727312
 31
0.0
  0
LINE
  5
239
330
1F
100
AcDbEntity
  8
0
  6
Continuous
 62
     7
370
    25
100
AcDbLine
 10
658.5128208011
 20
706.0998727312
 30
0.0
 11
658.7404022383
 21
705.7056901191
 31
0.0
  0
LINE
  5
23A
330
1F
100
AcDbEntity
  8
0
  6
Continuous
 62
     7
370
    25
100
AcDbLine
 10
673.1715708011
 20
714.0998727312
 30
0.0
 11
672.9715708011
 21
714.0998727312
 31
0.0
  0
LINE
  5
23B
330
1F
100
AcDbEntity
  8
0
  6
Continuous
 62
     7
370
    25
100
AcDbLine
 10
672.9715708011
 20
708.0998727312
 30
0.0
 11
673.1715708011
 21
708.0998727312
 31
0.0
  0
LINE
  5
23C
330
1F
100
AcDbEntity
  8
0
  6
Continuous
 62
     7
370
    25
100
AcDbLine
 10
673.1715708011
 20
708.0998727312
 30
0.0
 11
673.7128208011
 21
708.6411227312
 31
0.0
  0
LINE
  5
23D
330
1F
100
AcDbEntity
  8
0
  6
Continuous
 62
     7
370
    25
100
AcDbLine
 10
673.7128208011
 20
713.5586227312
 30
0.0
 11
673.1715708011
 21
714.0998727312
 31
0.0
  0
LINE
  5
23E
330
1F
100
AcDbEntity
  8
0
  6
Continuous
 62
     7
370
    25
100
AcDbLine
 10
149.8540708011
 20
714.0998727312
 30
0.0
 11
149.3128208011
 21
713.5586227312
 31
0.0
  0
LINE
  5
23F
330
1F
100
AcDbEntity
  8
0
  6
Continuous
 62
     7
370
    25
100
AcDbLine
 10
149.3128208011
 20
708.6411227312
 30
0.0
 11
149.8540708011
 21
708.0998727312
 31
0.0
  0
LINE
  5
240
330
1F
100
AcDbEntity
  8
0
  6
Continuous
 62
     7
370
    25
100
AcDbLine
 10
149.8540708011
 20
708.0998727312
 30
0.0
 11
150.0540708011
 21
708.0998727312
 31
0.0
  0
LINE
  5
241
330
1F
100
AcDbEntity
  8
0
  6
Continuous
 62
     7
370
    25
100
AcDbLine
 10
150.0540708011
 20
714.0998727312
 30
0.0
 11
149.8540708011
 21
714.0998727312
 31
0.0
  0
LINE
  5
242
330
1F
100
AcDbEntity
  8
0
  6
Continuous
 62
     7
370
    25
100
AcDbLine
 10
164.1833377053
 20
705.5291912691
 30
0.0
 11
164.5128208011
 21
706.0998727312
 31
0.0
  0
LINE
  5
243
330
1F
100
AcDbEntity
  8
0
  6
Continuous
 62
     7
370
    25
100
AcDbLine
 10
151.0128208011
 20
734.2998727312
 30
0.0
 11
157.0128208011
 21
734.2998727312
 31
0.0
  0
LINE
  5
244
330
1F
100
AcDbEntity
  8
0
  6
Continuous
 62
     7
370
    25
100
AcDbLine
 10
157.0128208011
 20
734.2998727312
 30
0.0
 11
159.9522084924
 21
734.2998727312
 31
0.0
  0
LINE
  5
245
330
1F
100
AcDbEntity
  8
0
  6
Continuous
 62
     7
370
    25
100
AcDbLine
 10
663.0734331097
 20
734.2998727312
 30
0.0
 11
666.0128208011
 21
734.2998727312
 31
0.0
  0
LINE
  5
246
330
1F
100
AcDbEntity
  8
0
  6
Continuous
 62
     7
370
    25
100
AcDbLine
 10
666.0128208011
 20
734.2998727312
 30
0.0
 11
672.0128208011
 21
734.2998727312
 31
0.0
  0
ARC
  5
247
330
1F
100
AcDbEntity
  8
0
  6
Continuous
 62
     7
370
    25
100
AcDbCircle
 10
160.0128208011
 20
716.8998727313
 30
0.0
 40
0.5
100
AcDbArc
 50
0.0
 51
180.0
  0
ARC
  5
248
330
1F
100
AcDbEntity
  8
0
  6
Continuous
 62
     7
370
    25
100
AcDbCircle
 10
160.0128208011
 20
705.2998727311
 30
0.0
 40
0.5
100
AcDbArc
 50
180.0
 51
0.0
  0
LINE
  5
249
330
1F
100
AcDbEntity
  8
0
  6
Continuous
 62
     7
370
    25
100
AcDbLine
 10
150.0540708011
 20
708.0998727312
 30
0.0
 11
157.5128208011
 21
708.0998727312
 31
0.0
  0
LINE
  5
24A
330
1F
100
AcDbEntity
  8
0
  6
Continuous
 62
     7
370
    25
100
AcDbLine
 10
157.5128208011
 20
714.0998727312
 30
0.0
 11
150.0540708011
 21
714.0998727312
 31
0.0
  0
LINE
  5
24B
330
1F
100
AcDbEntity
  8
0
  6
Continuous
 62
     7
370
    25
100
AcDbLine
 10
150.0540708011
 20
714.0998727312
 30
0.0
 11
149.5128208011
 21
713.5586227312
 31
0.0
  0
LINE
  5
24C
330
1F
100
AcDbEntity
  8
0
  6
Continuous
 62
     7
370
    25
100
AcDbLine
 10
149.5128208011
 20
708.6411227312
 30
0.0
 11
150.0540708011
 21
708.0998727312
 31
0.0
  0
LINE
  5
24D
330
1F
100
AcDbEntity
  8
0
  6
Continuous
 62
     7
370
    25
100
AcDbLine
 10
145.0128208011
 20
736.6998727312
 30
0.0
 11
157.0128208011
 21
736.6998727312
 31
0.0
  0
LINE
  5
24E
330
1F
100
AcDbEntity
  8
0
  6
Continuous
 62
     7
370
    25
100
AcDbLine
 10
115.4835314792
 20
729.6998727312
 30
0.0
 11
139.0128208011
 21
729.6998727312
 31
0.0
  0
LINE
  5
24F
330
1F
100
AcDbEntity
  8
0
  6
Continuous
 62
     7
370
    25
100
AcDbLine
 10
115.4835314792
 20
739.2998727312
 30
0.0
 11
115.4835314792
 21
729.6998727312
 31
0.0
  0
LINE
  5
250
330
1F
100
AcDbEntity
  8
0
  6
Continuous
 62
     7
370
    25
100
AcDbLine
 10
707.5421101229
 20
739.2998727312
 30
0.0
 11
707.5421101229
 21
729.6998727312
 31
0.0
  0
LINE
  5
251
330
1F
100
AcDbEntity
  8
0
  6
Continuous
 62
     7
370
    25
100
AcDbLine
 10
684.0128208011
 20
729.6998727312
 30
0.0
 11
707.5421101229
 21
729.6998727312
 31
0.0
  0
ARC
  5
252
330
1F
100
AcDbEntity
  8
0
  6
Continuous
 62
     7
370
    25
100
AcDbCircle
 10
684.0128208011
 20
732.6998727312
 30
0.0
 40
3.0
100
AcDbArc
 50
180.0
 51
270.0
  0
LINE
  5
253
330
1F
100
AcDbEntity
  8
0
  6
Continuous
 62
     7
370
    25
100
AcDbLine
 10
681.0128208011
 20
732.6998727312
 30
0.0
 11
681.0128208011
 21
733.6998727312
 31
0.0
  0
ARC
  5
254
330
1F
100
AcDbEntity
  8
0
  6
Continuous
 62
     7
370
    25
100
AcDbCircle
 10
678.0128208011
 20
733.6998727312
 30
0.0
 40
3.000000000000114
100
AcDbArc
 50
0.0
 51
90.0
  0
LINE
  5
255
330
1F
100
AcDbEntity
  8
0
  6
Continuous
 62
     7
370
    25
100
AcDbLine
 10
678.0128208011
 20
736.6998727312
 30
0.0
 11
666.0128208011
 21
736.6998727312
 31
0.0
  0
ARC
  5
256
330
1F
100
AcDbEntity
  8
0
  6
Continuous
 62
     7
370
    25
100
AcDbCircle
 10
666.0128208011
 20
733.6998727312
 30
0.0
 40
3.0
100
AcDbArc
 50
90.0
 51
180.0
  0
LINE
  5
257
330
1F
100
AcDbEntity
  8
0
  6
Continuous
 62
     7
370
    25
100
AcDbLine
 10
663.0128208011
 20
732.6998727312
 30
0.0
 11
663.0128208011
 21
733.6998727312
 31
0.0
  0
ARC
  5
258
330
1F
100
AcDbEntity
  8
0
  6
Continuous
 62
     7
370
    25
100
AcDbCircle
 10
660.0128208011
 20
732.6998727312
 30
0.0
 40
3.000000000000114
100
AcDbArc
 50
270.0
 51
0.0
  0
ARC
  5
259
330
1F
100
AcDbEntity
  8
0
  6
Continuous
 62
     7
370
    25
100
AcDbCircle
 10
145.0128208011
 20
733.6998727312
 30
0.0
 40
3.000000000000057
100
AcDbArc
 50
90.0
 51
180.0
  0
ARC
  5
25A
330
1F
100
AcDbEntity
  8
0
  6
Continuous
 62
     7
370
    25
100
AcDbCircle
 10
157.0128208011
 20
733.6998727312
 30
0.0
 40
3.000000000000085
100
AcDbArc
 50
0.0
 51
90.0
  0
ARC
  5
25B
330
1F
100
AcDbEntity
  8
0
  6
Continuous
 62
     7
370
    25
100
AcDbCircle
 10
139.0128208011
 20
732.6998727312
 30
0.0
 40
3.000000000000057
100
AcDbArc
 50
270.0
 51
0.0
  0
ARC
  5
25C
330
1F
100
AcDbEntity
  8
0
  6
Continuous
 62
     7
370
    25
100
AcDbCircle
 10
163.0128208011
 20
732.6998727312
 30
0.0
 40
3.000000000000028
100
AcDbArc
 50
180.0
 51
270.0
  0
LINE
  5
25D
330
1F
100
AcDbEntity
  8
0
  6
Continuous
 62
     7
370
    25
100
AcDbLine
 10
160.0128208011
 20
732.6998727312
 30
0.0
 11
160.0128208011
 21
733.6998727312
 31
0.0
  0
LINE
  5
25E
330
1F
100
AcDbEntity
  8
0
  6
Continuous
 62
     7
370
    25
100
AcDbLine
 10
142.0128208011
 20
732.6998727312
 30
0.0
 11
142.0128208011
 21
733.6998727312
 31
0.0
  0
LINE
  5
25F
330
1F
100
AcDbEntity
  8
0
  6
Continuous
 62
     7
370
    25
100
AcDbLine
 10
163.0128208011
 20
729.6998727312
 30
0.0
 11
660.0128208011
 21
729.6998727312
 31
0.0
  0
LINE
  5
260
330
1F
100
AcDbEntity
  8
0
  6
Continuous
 62
     7
370
    25
100
AcDbLine
 10
116.4128208011
 20
741.6998727312
 30
0.0
 11
706.6128208011
 21
741.6998727312
 31
0.0
  0
SPLINE
  5
261
330
1F
100
AcDbEntity
  8
0
  6
Continuous
 62
     7
370
    25
100
AcDbSpline
210
0.0
220
0.0
230
1.0
 70
     8
 71
     3
 72
    20
 73
    16
 74
     0
 42
0.000000001
 43
0.00000001
 40
0.0
 40
0.0
 40
0.0
 40
0.0
 40
0.1249999999999974
 40
0.1249999999999974
 40
0.2499999999999948
 40
0.2499999999999948
 40
0.3749999999999922
 40
0.3749999999999922
 40
0.4999999999999897
 40
0.4999999999999897
 40
0.7499999999999948
 40
0.7499999999999948
 40
0.8749999999999974
 40
0.8749999999999974
 40
1.0
 40
1.0
 40
1.0
 40
1.0
 10
115.4835314791802
 20
739.299872731183
 30
0.0
 10
115.5225722100347
 20
739.4582519188336
 30
0.0
 10
115.5610909142344
 20
739.6144976435254
 30
0.0
 10
115.6384976655425
 20
739.922489492942
 30
0.0
 10
115.677642083529
 20
740.0751336004131
 30
0.0
 10
115.7547928374442
 20
740.3642178896001
 30
0.0
 10
115.7931204191852
 20
740.5020224277841
 30
0.0
 10
115.870666739662
 20
740.7636411034231
 30
0.0
 10
115.9096429473306
 20
740.8863874101057
 30
0.0
 10
116.0251378037754
 20
741.2177117870534
 30
0.0
 10
116.1030502474456
 20
741.3967229110816
 30
0.0
 10
116.2185301728466
 20
741.5763380104625
 30
0.0
 10
116.2573959687115
 20
741.6225823593302
 30
0.0
 10
116.33517030238
 20
741.6843356653415
 30
0.0
 10
116.3737800693347
 20
741.6998727311828
 30
0.0
 10
116.4128208010615
 20
741.6998727311828
 30
0.0
  0
SPLINE
  5
262
330
1F
100
AcDbEntity
  8
0
  6
Continuous
 62
     7
370
    25
100
AcDbSpline
210
0.0
220
0.0
230
1.0
 70
     8
 71
     3
 72
    20
 73
    16
 74
     0
 42
0.000000001
 43
0.00000001
 40
0.0
 40
0.0
 40
0.0
 40
0.0
 40
0.1250000000000107
 40
0.1250000000000107
 40
0.2500000000000215
 40
0.2500000000000215
 40
0.3750000000000322
 40
0.3750000000000322
 40
0.500000000000043
 40
0.500000000000043
 40
0.7500000000000347
 40
0.7500000000000347
 40
0.8750000000000174
 40
0.8750000000000174
 40
1.0
 40
1.0
 40
1.0
 40
1.0
 10
706.6128208010614
 20
741.6998727311828
 30
0.0
 10
706.651861531916
 20
741.6998727311828
 30
0.0
 10
706.6903802361157
 20
741.684336170708
 30
0.0
 10
706.7677869874237
 20
741.6230178187474
 30
0.0
 10
706.8069314054104
 20
741.5765940731605
 30
0.0
 10
706.8840821593257
 20
741.4566432030064
 30
0.0
 10
706.9224097410665
 20
741.383038558723
 30
0.0
 10
706.999956061543
 20
741.2083081926274
 30
0.0
 10
707.0389322692117
 20
741.1074575637259
 30
0.0
 10
707.154427125657
 20
740.776172283742
 30
0.0
 10
707.232339569327
 20
740.508492122358
 30
0.0
 10
707.3478194947278
 20
740.0758180963027
 30
0.0
 10
707.3866852905929
 20
739.9243000094515
 30
0.0
 10
707.4644596242615
 20
739.6148742520654
 30
0.0
 10
707.5030693912162
 20
739.4582519223716
 30
0.0
 10
707.5421101229429
 20
739.2998727311829
 30
0.0
  0
LINE
  5
263
330
1F
100
AcDbEntity
  8
0
  6
Continuous
 62
     7
370
    25
100
AcDbLine
 10
709.0128208011
 20
739.2998727312
 30
0.0
 11
707.6128208011
 21
739.2998727312
 31
0.0
  0
SPLINE
  5
264
330
1F
100
AcDbEntity
  8
0
  6
Continuous
 62
     7
370
    25
100
AcDbSpline
210
0.0
220
0.0
230
1.0
 70
     8
 71
     3
 72
     9
 73
     5
 74
     0
 42
0.000000001
 43
0.00000001
 40
0.0
 40
0.0
 40
0.0
 40
0.0
 40
0.6784508005730047
 40
1.0
 40
1.0
 40
1.0
 40
1.0
 10
707.6128208010615
 20
739.2998727311829
 30
0.0
 10
707.5995712305969
 20
739.4505799356361
 30
0.0
 10
707.5800420761568
 20
739.6727142515306
 30
0.0
 10
707.439194422518
 20
739.8395473564196
 30
0.0
 10
707.3939049722491
 20
739.8931924077348
 30
0.0
  0
SPLINE
  5
265
330
1F
100
AcDbEntity
  8
0
  6
Continuous
 62
     7
370
    25
100
AcDbSpline
210
0.0
220
0.0
230
1.0
 70
     8
 71
     3
 72
    20
 73
    16
 74
     0
 42
0.000000001
 43
0.00000001
 40
0.0
 40
0.0
 40
0.0
 40
0.0
 40
0.1249999999999974
 40
0.1249999999999974
 40
0.2499999999999948
 40
0.2499999999999948
 40
0.3749999999999922
 40
0.3749999999999922
 40
0.4999999999999897
 40
0.4999999999999897
 40
0.7499999999999948
 40
0.7499999999999948
 40
0.8749999999999974
 40
0.8749999999999974
 40
1.0
 40
1.0
 40
1.0
 40
1.0
 10
709.0128208010615
 20
739.299872731183
 30
0.0
 10
709.0128208010616
 20
739.4582519188335
 30
0.0
 10
708.9972842405866
 20
739.6144976435253
 30
0.0
 10
708.935965888626
 20
739.922489492942
 30
0.0
 10
708.8895421430392
 20
740.075133600413
 30
0.0
 10
708.7695912728851
 20
740.3642178896
 30
0.0
 10
708.6959866286016
 20
740.502022427784
 30
0.0
 10
708.5212562625059
 20
740.7636411034231
 30
0.0
 10
708.4204056336043
 20
740.8863874101057
 30
0.0
 10
708.0891203536205
 20
741.2177117870533
 30
0.0
 10
707.8214401922365
 20
741.3967229110816
 30
0.0
 10
707.3887661661811
 20
741.5763380104626
 30
0.0
 10
707.2372480793301
 20
741.6225823593302
 30
0.0
 10
706.9278223219441
 20
741.6843356653415
 30
0.0
 10
706.7711999922502
 20
741.6998727311828
 30
0.0
 10
706.6128208010614
 20
741.6998727311828
 30
0.0
  0
SPLINE
  5
266
330
1F
100
AcDbEntity
  8
0
  6
Continuous
 62
     7
370
    25
100
AcDbSpline
210
0.0
220
0.0
230
1.0
 70
     8
 71
     3
 72
    20
 73
    16
 74
     0
 42
0.000000001
 43
0.00000001
 40
0.0
 40
0.0
 40
0.0
 40
0.0
 40
0.1249999999999972
 40
0.1249999999999972
 40
0.2499999999999944
 40
0.2499999999999944
 40
0.3749999999999916
 40
0.3749999999999916
 40
0.4999999999999888
 40
0.4999999999999888
 40
0.7500000000000024
 40
0.7500000000000024
 40
0.8750000000000012
 40
0.8750000000000012
 40
1.0
 40
1.0
 40
1.0
 40
1.0
 10
116.4128208010615
 20
741.6998727311828
 30
0.0
 10
116.2544416134107
 20
741.6998727311828
 30
0.0
 10
116.098195888719
 20
741.684336170708
 30
0.0
 10
115.7902040393026
 20
741.6230178187474
 30
0.0
 10
115.6375599318314
 20
741.5765940731605
 30
0.0
 10
115.3484756426442
 20
741.4566432030065
 30
0.0
 10
115.2106711044602
 20
741.383038558723
 30
0.0
 10
114.9490524288213
 20
741.2083081926274
 30
0.0
 10
114.8263061221387
 20
741.1074575637259
 30
0.0
 10
114.4949817451911
 20
740.776172283742
 30
0.0
 10
114.3159706211627
 20
740.508492122358
 30
0.0
 10
114.1363555217819
 20
740.0758180963027
 30
0.0
 10
114.0901111729142
 20
739.9243000094515
 30
0.0
 10
114.028357866903
 20
739.6148742520654
 30
0.0
 10
114.0128208010614
 20
739.4582519223716
 30
0.0
 10
114.0128208010615
 20
739.299872731183
 30
0.0
  0
SPLINE
  5
267
330
1F
100
AcDbEntity
  8
0
  6
Continuous
 62
     7
370
    25
100
AcDbSpline
210
0.0
220
0.0
230
1.0
 70
     8
 71
     3
 72
     9
 73
     5
 74
     0
 42
0.000000001
 43
0.00000001
 40
0.0
 40
0.0
 40
0.0
 40
0.0
 40
0.4825784287292725
 40
1.0
 40
1.0
 40
1.0
 40
1.0
 10
115.6366505691151
 20
739.9124124703611
 30
0.0
 10
115.5728423760538
 20
739.8242781290447
 30
0.0
 10
115.4406189088145
 20
739.6416459679916
 30
0.0
 10
115.422299604358
 20
739.416413083947
 30
0.0
 10
115.4128208010615
 20
739.2998727311829
 30
0.0
  0
LINE
  5
268
330
1F
100
AcDbEntity
  8
0
  6
Continuous
 62
     7
370
    25
100
AcDbLine
 10
114.0128208011
 20
739.2998727312
 30
0.0
 11
115.4128208011
 21
739.2998727312
 31
0.0
  0
LINE
  5
269
330
1F
100
AcDbEntity
  8
0
  6
Continuous
 62
     7
370
    25
100
AcDbLine
 10
709.0128208011
 20
729.6998727312
 30
0.0
 11
707.6128208011
 21
729.6998727312
 31
0.0
  0
LINE
  5
26A
330
1F
100
AcDbEntity
  8
0
  6
Continuous
 62
     7
370
    25
100
AcDbLine
 10
709.0128208011
 20
739.2998727312
 30
0.0
 11
709.0128208011
 21
729.6998727312
 31
0.0
  0
LINE
  5
26B
330
1F
100
AcDbEntity
  8
0
  6
Continuous
 62
     7
370
    25
100
AcDbLine
 10
707.6128208011
 20
739.2998727312
 30
0.0
 11
707.6128208011
 21
729.6998727312
 31
0.0
  0
LINE
  5
26C
330
1F
100
AcDbEntity
  8
0
  6
Continuous
 62
     7
370
    25
100
AcDbLine
 10
115.4128208011
 20
739.2998727312
 30
0.0
 11
115.4128208011
 21
729.6998727312
 31
0.0
  0
LINE
  5
26D
330
1F
100
AcDbEntity
  8
0
  6
Continuous
 62
     7
370
    25
100
AcDbLine
 10
114.0128208011
 20
729.6998727312
 30
0.0
 11
115.4128208011
 21
729.6998727312
 31
0.0
  0
LINE
  5
26E
330
1F
100
AcDbEntity
  8
0
  6
Continuous
 62
     7
370
    25
100
AcDbLine
 10
114.0128208011
 20
739.2998727312
 30
0.0
 11
114.0128208011
 21
729.6998727312
 31
0.0
  0
LINE
  5
26F
330
1F
100
AcDbEntity
  8
0
  6
Continuous
 62
     7
370
    25
100
AcDbLine
 10
650.1443680867
 20
725.1998727312
 30
0.0
 11
650.2007100485
 21
725.1998727312
 31
0.0
  0
LINE
  5
270
330
1F
100
AcDbEntity
  8
0
  6
Continuous
 62
     7
370
    25
100
AcDbLine
 10
650.7007100485
 20
724.6998727312
 30
0.0
 11
650.6443680867
 21
724.6998727312
 31
0.0
  0
LINE
  5
271
330
1F
100
AcDbEntity
  8
0
  6
Continuous
 62
     7
370
    25
100
AcDbLine
 10
650.2007100485
 20
725.1998727312
 30
0.0
 11
650.2996357071
 21
725.1998727312
 31
0.0
  0
LINE
  5
272
330
1F
100
AcDbEntity
  8
0
  6
Continuous
 62
     7
370
    25
100
AcDbLine
 10
650.7996357071
 20
724.6998727312
 30
0.0
 11
650.7007100485
 21
724.6998727312
 31
0.0
  0
LINE
  5
273
330
1F
100
AcDbEntity
  8
0
  6
Continuous
 62
     7
370
    25
100
AcDbLine
 10
167.7875789267
 20
724.6998727312
 30
0.0
 11
167.6211610626
 21
724.6998727312
 31
0.0
  0
LINE
  5
274
330
1F
100
AcDbEntity
  8
0
  6
Continuous
 62
     7
370
    25
100
AcDbLine
 10
167.1211610626
 20
725.1998727312
 30
0.0
 11
167.2875789267
 21
725.1998727312
 31
0.0
  0
LINE
  5
275
330
1F
100
AcDbEntity
  8
0
  6
Continuous
 62
     7
370
    25
100
AcDbLine
 10
167.8614395363
 20
725.1998727312
 30
0.0
 11
171.2296720445
 21
725.1998727312
 31
0.0
  0
LINE
  5
276
330
1F
100
AcDbEntity
  8
0
  6
Continuous
 62
     7
370
    25
100
AcDbLine
 10
170.8670511073
 20
724.6998727312
 30
0.0
 11
168.3408767262
 21
724.6998727312
 31
0.0
  0
LINE
  5
277
330
1F
100
AcDbEntity
  8
0
  6
Continuous
 62
     7
370
    25
100
AcDbLine
 10
171.2296720445
 20
725.1998727312
 30
0.0
 11
172.4221789296
 21
725.1998727312
 31
0.0
  0
LINE
  5
278
330
1F
100
AcDbEntity
  8
0
  6
Continuous
 62
     7
370
    25
100
AcDbLine
 10
172.0595579924
 20
724.6998727312
 30
0.0
 11
170.8670511073
 21
724.6998727312
 31
0.0
  0
LINE
  5
279
330
1F
100
AcDbEntity
  8
0
  6
Continuous
 62
     7
370
    25
100
AcDbLine
 10
167.3698301672
 20
725.1998727312
 30
0.0
 11
167.8614395363
 21
725.1998727312
 31
0.0
  0
LINE
  5
27A
330
1F
100
AcDbEntity
  8
0
  6
Continuous
 62
     7
370
    25
100
AcDbLine
 10
168.3408767262
 20
724.6998727312
 30
0.0
 11
167.8492673571
 21
724.6998727312
 31
0.0
  0
LINE
  5
27B
330
1F
100
AcDbEntity
  8
0
  6
Continuous
 62
     7
370
    25
100
AcDbLine
 10
172.4221789296
 20
725.1998727312
 30
0.0
 11
172.9716951808
 21
725.1998727312
 31
0.0
  0
LINE
  5
27C
330
1F
100
AcDbEntity
  8
0
  6
Continuous
 62
     7
370
    25
100
AcDbLine
 10
172.4716951808
 20
724.6998727312
 30
0.0
 11
172.0595579924
 21
724.6998727312
 31
0.0
  0
LINE
  5
27D
330
1F
100
AcDbEntity
  8
0
  6
Continuous
 62
     7
370
    25
100
AcDbLine
 10
167.2875789267
 20
725.1998727312
 30
0.0
 11
167.3698301672
 21
725.1998727312
 31
0.0
  0
LINE
  5
27E
330
1F
100
AcDbEntity
  8
0
  6
Continuous
 62
     7
370
    25
100
AcDbLine
 10
167.8492673571
 20
724.6998727312
 30
0.0
 11
167.7875789267
 21
724.6998727312
 31
0.0
  0
LINE
  5
27F
330
1F
100
AcDbEntity
  8
0
  6
Continuous
 62
     7
370
    25
100
AcDbLine
 10
652.6753411152
 20
724.6998727312
 30
0.0
 11
650.7996357071
 21
724.6998727312
 31
0.0
  0
LINE
  5
280
330
1F
100
AcDbEntity
  8
0
  6
Continuous
 62
     7
370
    25
100
AcDbLine
 10
650.2996357071
 20
725.1998727312
 30
0.0
 11
652.8005762512
 21
725.1998727312
 31
0.0
  0
LINE
  5
281
330
1F
100
AcDbEntity
  8
0
  6
Continuous
 62
     7
370
    25
100
AcDbLine
 10
652.8005762512
 20
725.1998727312
 30
0.0
 11
654.4774167112
 21
725.1998727312
 31
0.0
  0
LINE
  5
282
330
1F
100
AcDbEntity
  8
0
  6
Continuous
 62
     7
370
    25
100
AcDbLine
 10
654.3521815752
 20
724.6998727312
 30
0.0
 11
652.6753411152
 21
724.6998727312
 31
0.0
  0
LINE
  5
283
330
1F
100
AcDbEntity
  8
0
  6
Continuous
 62
     7
370
    25
100
AcDbLine
 10
654.4774167112
 20
725.1998727312
 30
0.0
 11
655.9764761671
 21
725.1998727312
 31
0.0
  0
LINE
  5
284
330
1F
100
AcDbEntity
  8
0
  6
Continuous
 62
     7
370
    25
100
AcDbLine
 10
655.4764761671
 20
724.6998727312
 30
0.0
 11
654.3521815752
 21
724.6998727312
 31
0.0
  0
LINE
  5
285
330
1F
100
AcDbEntity
  8
0
  6
Continuous
 62
     7
370
    25
100
AcDbLine
 10
661.5128208011
 20
721.5998727312
 30
0.0
 11
662.7128208011
 21
721.5998727312
 31
0.0
  0
LINE
  5
286
330
1F
100
AcDbEntity
  8
0
  6
Continuous
 62
     7
370
    25
100
AcDbLine
 10
662.7128208011
 20
702.5998727312
 30
0.0
 11
659.5128208011
 21
702.5998727312
 31
0.0
  0
ARC
  5
287
330
1F
100
AcDbEntity
  8
0
  6
Continuous
 62
     7
370
    25
100
AcDbCircle
 10
656.5128208011
 20
681.5998727312
 30
0.0
 40
3.0
100
AcDbArc
 50
270.0
 51
0.0
  0
LINE
  5
288
330
1F
100
AcDbEntity
  8
0
  6
Continuous
 62
     7
370
    25
100
AcDbLine
 10
609.5128208011
 20
697.7298727312
 30
0.0
 11
607.0128208011
 21
697.7298727312
 31
0.0
  0
LINE
  5
289
330
1F
100
AcDbEntity
  8
0
  6
Continuous
 62
     7
370
    25
100
AcDbLine
 10
607.0128208011
 20
697.2378219236
 30
0.0
 11
607.0128208011
 21
697.7298727312
 31
0.0
  0
LINE
  5
28A
330
1F
100
AcDbEntity
  8
0
  6
Continuous
 62
     7
370
    25
100
AcDbLine
 10
457.0128208011
 20
697.2378219236
 30
0.0
 11
457.0128208011
 21
697.7298727312
 31
0.0
  0
LINE
  5
28B
330
1F
100
AcDbEntity
  8
0
  6
Continuous
 62
     7
370
    25
100
AcDbLine
 10
457.0128208011
 20
697.7298727312
 30
0.0
 11
454.5128208011
 21
697.7298727312
 31
0.0
  0
LINE
  5
28C
330
1F
100
AcDbEntity
  8
0
  6
Continuous
 62
     7
370
    25
100
AcDbLine
 10
454.5128208011
 20
697.7298727312
 30
0.0
 11
454.5128208011
 21
681.5998727312
 31
0.0
  0
ARC
  5
28D
330
1F
100
AcDbEntity
  8
0
  6
Continuous
 62
     7
370
    25
100
AcDbCircle
 10
371.5128208011
 20
681.5998727312
 30
0.0
 40
3.0
100
AcDbArc
 50
180.0
 51
270.0
  0
LINE
  5
28E
330
1F
100
AcDbEntity
  8
0
  6
Continuous
 62
     7
370
    25
100
AcDbLine
 10
368.5128208011
 20
681.5998727312
 30
0.0
 11
368.5128208011
 21
697.7298727312
 31
0.0
  0
LINE
  5
28F
330
1F
100
AcDbEntity
  8
0
  6
Continuous
 62
     7
370
    25
100
AcDbLine
 10
368.5128208011
 20
697.7298727312
 30
0.0
 11
366.0128208011
 21
697.7298727312
 31
0.0
  0
LINE
  5
290
330
1F
100
AcDbEntity
  8
0
  6
Continuous
 62
     7
370
    25
100
AcDbLine
 10
366.0128208011
 20
697.2378219236
 30
0.0
 11
366.0128208011
 21
697.7298727312
 31
0.0
  0
LINE
  5
291
330
1F
100
AcDbEntity
  8
0
  6
Continuous
 62
     7
370
    25
100
AcDbLine
 10
216.0128208011
 20
697.2378219236
 30
0.0
 11
216.0128208011
 21
697.7298727312
 31
0.0
  0
LINE
  5
292
330
1F
100
AcDbEntity
  8
0
  6
Continuous
 62
     7
370
    25
100
AcDbLine
 10
216.0128208011
 20
697.7298727312
 30
0.0
 11
213.5128208011
 21
697.7298727312
 31
0.0
  0
LINE
  5
293
330
1F
100
AcDbEntity
  8
0
  6
Continuous
 62
     7
370
    25
100
AcDbLine
 10
163.5128208011
 20
681.5998727312
 30
0.0
 11
163.5128208011
 21
702.5998727312
 31
0.0
  0
LINE
  5
294
330
1F
100
AcDbEntity
  8
0
  6
Continuous
 62
     7
370
    25
100
AcDbLine
 10
163.5128208011
 20
702.5998727312
 30
0.0
 11
160.3128208011
 21
702.5998727312
 31
0.0
  0
LINE
  5
295
330
1F
100
AcDbEntity
  8
0
  6
Continuous
 62
     7
370
    25
100
AcDbLine
 10
160.3128208011
 20
721.5998727312
 30
0.0
 11
161.5128208011
 21
721.5998727312
 31
0.0
  0
LINE
  5
296
330
1F
100
AcDbEntity
  8
0
  6
Continuous
 62
     7
370
    25
100
AcDbLine
 10
161.5128208011
 20
721.5998727312
 30
0.0
 11
161.5128208011
 21
721.7998727312
 31
0.0
  0
LINE
  5
297
330
1F
100
AcDbEntity
  8
0
  6
Continuous
 62
     7
370
    25
100
AcDbLine
 10
661.5128208011
 20
721.7998727312
 30
0.0
 11
661.5128208011
 21
721.5998727312
 31
0.0
  0
ARC
  5
298
330
1F
100
AcDbEntity
  8
0
  6
Continuous
 62
     7
370
    25
100
AcDbCircle
 10
210.5128208011
 20
681.5998727312
 30
0.0
 40
3.0
100
AcDbArc
 50
270.0
 51
0.0
  0
LINE
  5
299
330
1F
100
AcDbEntity
  8
0
  6
Continuous
 62
     7
370
    25
100
AcDbLine
 10
656.5128208011
 20
678.5998727312
 30
0.0
 11
612.5128208011
 21
678.5998727312
 31
0.0
  0
ARC
  5
29A
330
1F
100
AcDbEntity
  8
0
  6
Continuous
 62
     7
370
    25
100
AcDbCircle
 10
612.5128208011
 20
681.5998727312
 30
0.0
 40
3.0
100
AcDbArc
 50
180.0
 51
270.0
  0
ARC
  5
29B
330
1F
100
AcDbEntity
  8
0
  6
Continuous
 62
     7
370
    25
100
AcDbCircle
 10
166.5128208011
 20
681.5998727312
 30
0.0
 40
3.000000000000028
100
AcDbArc
 50
180.0
 51
270.0
  0
LINE
  5
29C
330
1F
100
AcDbEntity
  8
0
  6
Continuous
 62
     7
370
    25
100
AcDbLine
 10
210.5128208011
 20
678.5998727312
 30
0.0
 11
166.5128208011
 21
678.5998727312
 31
0.0
  0
LINE
  5
29D
330
1F
100
AcDbEntity
  8
0
  6
Continuous
 62
     7
370
    25
100
AcDbLine
 10
609.5128208011
 20
681.5998727312
 30
0.0
 11
609.5128208011
 21
697.7298727312
 31
0.0
  0
LINE
  5
29E
330
1F
100
AcDbEntity
  8
0
  6
Continuous
 62
     7
370
    25
100
AcDbLine
 10
451.5128208011
 20
678.5998727312
 30
0.0
 11
371.5128208011
 21
678.5998727312
 31
0.0
  0
LINE
  5
29F
330
1F
100
AcDbEntity
  8
0
  6
Continuous
 62
     7
370
    25
100
AcDbLine
 10
213.5128208011
 20
697.7298727312
 30
0.0
 11
213.5128208011
 21
681.5998727312
 31
0.0
  0
ARC
  5
2A0
330
1F
100
AcDbEntity
  8
0
  6
Continuous
 62
     7
370
    25
100
AcDbCircle
 10
451.5128208011
 20
681.5998727312
 30
0.0
 40
3.0
100
AcDbArc
 50
270.0
 51
0.0
  0
LINE
  5
2A1
330
1F
100
AcDbEntity
  8
0
  6
Continuous
 62
     7
370
    25
100
AcDbLine
 10
659.5128208011
 20
702.5998727312
 30
0.0
 11
659.5128208011
 21
681.5998727312
 31
0.0
  0
LINE
  5
2A2
330
1F
100
AcDbEntity
  8
0
  6
Continuous
 62
     7
370
    25
100
AcDbLine
 10
366.0128208011
 20
697.2378219236
 30
0.0
 11
366.0128208011
 21
696.3378219236
 31
0.0
  0
LINE
  5
2A3
330
1F
100
AcDbEntity
  8
0
  6
Continuous
 62
     7
370
    25
100
AcDbLine
 10
216.0128208011
 20
696.3378219236
 30
0.0
 11
216.0128208011
 21
697.2378219236
 31
0.0
  0
LINE
  5
2A4
330
1F
100
AcDbEntity
  8
0
  6
Continuous
 62
     7
370
    25
100
AcDbLine
 10
457.0128208011
 20
696.3378219236
 30
0.0
 11
457.0128208011
 21
697.2378219236
 31
0.0
  0
LINE
  5
2A5
330
1F
100
AcDbEntity
  8
0
  6
Continuous
 62
     7
370
    25
100
AcDbLine
 10
607.0128208011
 20
697.2378219236
 30
0.0
 11
607.0128208011
 21
696.3378219236
 31
0.0
  0
LINE
  5
2A6
330
1F
100
AcDbEntity
  8
0
  6
Continuous
 62
     7
370
    25
100
AcDbLine
 10
662.7128208011
 20
721.5998727312
 30
0.0
 11
663.5128208011
 21
721.5998727312
 31
0.0
  0
LINE
  5
2A7
330
1F
100
AcDbEntity
  8
0
  6
Continuous
 62
     7
370
    25
100
AcDbLine
 10
664.5128208011
 20
702.5998727312
 30
0.0
 11
664.5128208011
 21
703.1998727312
 31
0.0
  0
LINE
  5
2A8
330
1F
100
AcDbEntity
  8
0
  6
Continuous
 62
     7
370
    25
100
AcDbLine
 10
664.5128208011
 20
702.5998727312
 30
0.0
 11
662.7128208011
 21
702.5998727312
 31
0.0
  0
LINE
  5
2A9
330
1F
100
AcDbEntity
  8
0
  6
Continuous
 62
     7
370
    25
100
AcDbLine
 10
158.5128208011
 20
702.5998727312
 30
0.0
 11
158.5128208011
 21
703.1998727312
 31
0.0
  0
LINE
  5
2AA
330
1F
100
AcDbEntity
  8
0
  6
Continuous
 62
     7
370
    25
100
AcDbLine
 10
159.5128208011
 20
721.5998727312
 30
0.0
 11
160.3128208011
 21
721.5998727312
 31
0.0
  0
LINE
  5
2AB
330
1F
100
AcDbEntity
  8
0
  6
Continuous
 62
     7
370
    25
100
AcDbLine
 10
160.3128208011
 20
702.5998727312
 30
0.0
 11
158.5128208011
 21
702.5998727312
 31
0.0
  0
LINE
  5
2AC
330
1F
100
AcDbEntity
  8
0
  6
Continuous
 62
     7
370
    25
100
AcDbLine
 10
661.5128208011
 20
723.5998727312
 30
0.0
 11
661.5128208011
 21
721.7998727312
 31
0.0
  0
LINE
  5
2AD
330
1F
100
AcDbEntity
  8
0
  6
Continuous
 62
     7
370
    25
100
AcDbLine
 10
161.5128208011
 20
721.7998727312
 30
0.0
 11
161.5128208011
 21
723.5998727312
 31
0.0
  0
LINE
  5
2AE
330
1F
100
AcDbEntity
  8
0
  6
Continuous
 62
     7
370
    25
100
AcDbLine
 10
457.0128208011
 20
696.3378219236
 30
0.0
 11
457.0128208011
 21
689.712950793
 31
0.0
  0
LINE
  5
2AF
330
1F
100
AcDbEntity
  8
0
  6
Continuous
 62
     7
370
    25
100
AcDbLine
 10
607.0128208011
 20
689.712950793
 30
0.0
 11
607.0128208011
 21
696.3378219236
 31
0.0
  0
LINE
  5
2B0
330
1F
100
AcDbEntity
  8
0
  6
Continuous
 62
     7
370
    25
100
AcDbLine
 10
366.0128208011
 20
689.712950793
 30
0.0
 11
366.0128208011
 21
696.3378219236
 31
0.0
  0
LINE
  5
2B1
330
1F
100
AcDbEntity
  8
0
  6
Continuous
 62
     7
370
    25
100
AcDbLine
 10
216.0128208011
 20
696.3378219236
 30
0.0
 11
216.0128208011
 21
689.712950793
 31
0.0
  0
LINE
  5
2B2
330
1F
100
AcDbEntity
  8
0
  6
Continuous
 62
     7
370
    25
100
AcDbLine
 10
607.0128208011
 20
689.212950793
 30
0.0
 11
607.0128208011
 21
689.712950793
 31
0.0
  0
LINE
  5
2B3
330
1F
100
AcDbEntity
  8
0
  6
Continuous
 62
     7
370
    25
100
AcDbLine
 10
457.0128208011
 20
689.712950793
 30
0.0
 11
457.0128208011
 21
689.212950793
 31
0.0
  0
LINE
  5
2B4
330
1F
100
AcDbEntity
  8
0
  6
Continuous
 62
     7
370
    25
100
AcDbLine
 10
366.0128208011
 20
689.212950793
 30
0.0
 11
366.0128208011
 21
689.712950793
 31
0.0
  0
LINE
  5
2B5
330
1F
100
AcDbEntity
  8
0
  6
Continuous
 62
     7
370
    25
100
AcDbLine
 10
216.0128208011
 20
689.712950793
 30
0.0
 11
216.0128208011
 21
689.212950793
 31
0.0
  0
ARC
  5
2B6
330
1F
100
AcDbEntity
  8
0
  6
Continuous
 62
     7
370
    25
100
AcDbCircle
 10
460.0128208011
 20
682.6952593394
 30
0.0
 40
3.000000000000114
100
AcDbArc
 50
180.0
 51
270.0
  0
LINE
  5
2B7
330
1F
100
AcDbEntity
  8
0
  6
Continuous
 62
     7
370
    25
100
AcDbLine
 10
457.0128208011
 20
682.6952593394
 30
0.0
 11
457.0128208011
 21
689.212950793
 31
0.0
  0
ARC
  5
2B8
330
1F
100
AcDbEntity
  8
0
  6
Continuous
 62
     7
370
    25
100
AcDbCircle
 10
604.0128208011
 20
682.6952593394
 30
0.0
 40
3.0
100
AcDbArc
 50
270.0
 51
0.0
  0
LINE
  5
2B9
330
1F
100
AcDbEntity
  8
0
  6
Continuous
 62
     7
370
    25
100
AcDbLine
 10
604.0128208011
 20
679.6952593394
 30
0.0
 11
460.0128208011
 21
679.6952593394
 31
0.0
  0
LINE
  5
2BA
330
1F
100
AcDbEntity
  8
0
  6
Continuous
 62
     7
370
    25
100
AcDbLine
 10
607.0128208011
 20
689.212950793
 30
0.0
 11
607.0128208011
 21
682.6952593394
 31
0.0
  0
ARC
  5
2BB
330
1F
100
AcDbEntity
  8
0
  6
Continuous
 62
     7
370
    25
100
AcDbCircle
 10
219.0128208011
 20
682.6952593394
 30
0.0
 40
3.0
100
AcDbArc
 50
180.0
 51
270.0
  0
LINE
  5
2BC
330
1F
100
AcDbEntity
  8
0
  6
Continuous
 62
     7
370
    25
100
AcDbLine
 10
216.0128208011
 20
682.6952593394
 30
0.0
 11
216.0128208011
 21
689.212950793
 31
0.0
  0
LINE
  5
2BD
330
1F
100
AcDbEntity
  8
0
  6
Continuous
 62
     7
370
    25
100
AcDbLine
 10
366.0128208011
 20
689.212950793
 30
0.0
 11
366.0128208011
 21
682.6952593394
 31
0.0
  0
ARC
  5
2BE
330
1F
100
AcDbEntity
  8
0
  6
Continuous
 62
     7
370
    25
100
AcDbCircle
 10
363.0128208011
 20
682.6952593394
 30
0.0
 40
3.0
100
AcDbArc
 50
270.0
 51
0.0
  0
LINE
  5
2BF
330
1F
100
AcDbEntity
  8
0
  6
Continuous
 62
     7
370
    25
100
AcDbLine
 10
363.0128208011
 20
679.6952593394
 30
0.0
 11
219.0128208011
 21
679.6952593394
 31
0.0
  0
SPLINE
  5
2C0
330
1F
100
AcDbEntity
  8
0
  6
Continuous
 62
     7
370
    25
100
AcDbSpline
210
0.0
220
0.0
230
1.0
 70
    24
 71
     3
 72
    19
 73
    15
 74
     0
 42
0.000000001
 43
0.00000001
 40
0.0
 40
0.0
 40
0.0
 40
0.0
 40
0.1260638187928839
 40
0.1939261817305621
 40
0.2632286813759849
 40
0.3325311810214079
 40
0.4003935439590843
 40
0.5264573627519694
 40
0.6525211815448548
 40
0.7203835444825296
 40
0.7896860441279532
 40
0.8589885437733787
 40
0.9268509067110525
 40
1.0
 40
1.0
 40
1.0
 40
1.0
 10
662.5128208010616
 20
716.8272610865622
 30
0.0
 10
662.5128208010616
 20
716.6356731756259
 30
0.0
 10
662.5128208010616
 20
716.3409501346346
 30
0.0
 10
662.5128208010616
 20
715.4136956117941
 30
0.0
 10
662.5128208010616
 20
714.5281395712616
 30
0.0
 10
662.5128208010616
 20
713.4917383617263
 30
0.0
 10
662.5128208010617
 20
712.047784989077
 30
0.0
 10
662.5128208010616
 20
710.1629574063683
 30
0.0
 10
662.5128208010616
 20
708.3899472045417
 30
0.0
 10
662.5128208010618
 20
707.1676435828015
 30
0.0
 10
662.5128208010616
 20
706.3669568675833
 30
0.0
 10
662.5128208010617
 20
705.7814662848103
 30
0.0
 10
662.5128208010616
 20
705.3535801462574
 30
0.0
 10
662.5128208010616
 20
705.3840923981601
 30
0.0
 10
662.5128208010616
 20
705.3999204990861
 30
0.0
  0
SPLINE
  5
2C1
330
1F
100
AcDbEntity
  8
0
  6
Continuous
 62
     7
370
    25
100
AcDbSpline
210
0.0
220
0.0
230
1.0
 70
     8
 71
     3
 72
     8
 73
     4
 74
     0
 42
0.000000001
 43
0.00000001
 40
0.0
 40
0.0
 40
0.0
 40
0.0
 40
1.0
 40
1.0
 40
1.0
 40
1.0
 10
658.5128208010688
 20
710.3111749391262
 30
0.0
 10
658.5128208010688
 20
709.3382306233467
 30
0.0
 10
658.6871361014481
 20
708.3919153758941
 30
0.0
 10
658.95940278846
 20
707.460563554836
 30
0.0
  0
SPLINE
  5
2C2
330
1F
100
AcDbEntity
  8
0
  6
Continuous
 62
     7
370
    25
100
AcDbSpline
210
0.0
220
0.0
230
1.0
 70
     8
 71
     3
 72
     8
 73
     4
 74
     0
 42
0.000000001
 43
0.00000001
 40
0.0
 40
0.0
 40
0.0
 40
0.0
 40
1.0
 40
1.0
 40
1.0
 40
1.0
 10
658.9594027884601
 20
713.1617863234165
 30
0.0
 10
658.6871361014487
 20
712.2304345023601
 30
0.0
 10
658.5128208010688
 20
711.2841192549041
 30
0.0
 10
658.5128208010688
 20
710.3111749391262
 30
0.0
  0
LINE
  5
2C3
330
1F
100
AcDbEntity
  8
0
  6
Continuous
 62
     7
370
    25
100
AcDbLine
 10
662.5128208011
 20
713.1617863234
 30
0.0
 11
658.9594027885
 21
713.1617863234
 31
0.0
  0
LINE
  5
2C4
330
1F
100
AcDbEntity
  8
0
  6
Continuous
 62
     7
370
    25
100
AcDbLine
 10
662.5128208011
 20
707.4605635548
 30
0.0
 11
658.9594027885
 21
707.4605635548
 31
0.0
  0
LINE
  5
2C5
330
1F
100
AcDbEntity
  8
0
  6
Continuous
 62
     7
370
    25
100
AcDbLine
 10
658.5128208011
 20
714.9814409116
 30
0.0
 11
658.5128208011
 21
710.3111749391
 31
0.0
  0
SPLINE
  5
2C6
330
1F
100
AcDbEntity
  8
0
  6
Continuous
 62
     7
370
    25
100
AcDbSpline
210
0.0
220
0.0
230
1.0
 70
     8
 71
     3
 72
     8
 73
     4
 74
     0
 42
0.000000001
 43
0.00000001
 40
0.0
 40
0.0
 40
0.0
 40
0.0
 40
1.0
 40
1.0
 40
1.0
 40
1.0
 10
658.5128208010688
 20
714.981440911596
 30
0.0
 10
658.5128208010688
 20
714.3603732353768
 30
0.0
 10
658.6871361014481
 20
713.7563039148882
 30
0.0
 10
658.9594027884601
 20
713.1617863234229
 30
0.0
  0
SPLINE
  5
2C7
330
1F
100
AcDbEntity
  8
0
  6
Continuous
 62
     7
370
    25
100
AcDbSpline
210
0.0
220
0.0
230
1.0
 70
     8
 71
     3
 72
     8
 73
     4
 74
     0
 42
0.000000001
 43
0.00000001
 40
0.0
 40
0.0
 40
0.0
 40
0.0
 40
1.0
 40
1.0
 40
1.0
 40
1.0
 10
658.95940278846
 20
716.801095499769
 30
0.0
 10
658.6871361014486
 20
716.2065779083048
 30
0.0
 10
658.5128208010688
 20
715.6025085878141
 30
0.0
 10
658.5128208010688
 20
714.981440911596
 30
0.0
  0
LINE
  5
2C8
330
1F
100
AcDbEntity
  8
0
  6
Continuous
 62
     7
370
    25
100
AcDbLine
 10
662.5128208011
 20
716.8010954998
 30
0.0
 11
658.9594027885
 21
716.8010954998
 31
0.0
  0
LINE
  5
2C9
330
1F
100
AcDbEntity
  8
0
  6
Continuous
 62
     7
370
    25
100
AcDbLine
 10
658.5128208011
 20
710.3111749391
 30
0.0
 11
658.5128208011
 21
706.4296067587
 31
0.0
  0
SPLINE
  5
2CA
330
1F
100
AcDbEntity
  8
0
  6
Continuous
 62
     7
370
    25
100
AcDbSpline
210
0.0
220
0.0
230
1.0
 70
     8
 71
     3
 72
     8
 73
     4
 74
     0
 42
0.000000001
 43
0.00000001
 40
0.0
 40
0.0
 40
0.0
 40
0.0
 40
1.0
 40
1.0
 40
1.0
 40
1.0
 10
658.95940278846
 20
707.4605635548309
 30
0.0
 10
658.6871361014486
 20
707.1237293252386
 30
0.0
 10
658.5128208010686
 20
706.7814833982733
 30
0.0
 10
658.5128208010686
 20
706.4296067587135
 30
0.0
  0
SPLINE
  5
2CB
330
1F
100
AcDbEntity
  8
0
  6
Continuous
 62
     7
370
    25
100
AcDbSpline
210
0.0
220
0.0
230
1.0
 70
     8
 71
     3
 72
     8
 73
     4
 74
     0
 42
0.000000001
 43
0.00000001
 40
0.0
 40
0.0
 40
0.0
 40
0.0
 40
1.0
 40
1.0
 40
1.0
 40
1.0
 10
658.5128208010686
 20
706.4296067587135
 30
0.0
 10
658.5128208010686
 20
706.0777301191529
 30
0.0
 10
658.687136101448
 20
705.7354841921888
 30
0.0
 10
658.95940278846
 20
705.398649962596
 30
0.0
  0
LINE
  5
2CC
330
1F
100
AcDbEntity
  8
0
  6
Continuous
 62
     7
370
    25
100
AcDbLine
 10
662.5128208011
 20
705.3986499626
 30
0.0
 11
658.9594027885
 21
705.3986499626
 31
0.0
  0
LINE
  5
2CD
330
1F
100
AcDbEntity
  8
0
  6
Continuous
 62
     7
370
    25
100
AcDbLine
 10
658.8091965582
 20
716.4543369241
 30
0.0
 11
658.9594027885
 21
716.8010954998
 31
0.0
  0
LINE
  5
2CE
330
1F
100
AcDbEntity
  8
0
  6
Continuous
 62
     7
370
    25
100
AcDbLine
 10
658.5128208011
 20
716.0998727312
 30
0.0
 11
658.5128208011
 21
714.9814409116
 31
0.0
  0
LINE
  5
2CF
330
1F
100
AcDbEntity
  8
0
  6
Continuous
 62
     7
370
    25
100
AcDbLine
 10
672.9715708011
 20
708.0998727312
 30
0.0
 11
672.9715708011
 21
714.0998727312
 31
0.0
  0
LINE
  5
2D0
330
1F
100
AcDbEntity
  8
0
  6
Continuous
 62
     7
370
    25
100
AcDbLine
 10
673.5128208011
 20
710.7120305919
 30
0.0
 11
673.5128208011
 21
713.5586227312
 31
0.0
  0
LINE
  5
2D1
330
1F
100
AcDbEntity
  8
0
  6
Continuous
 62
     7
370
    25
100
AcDbLine
 10
673.5128208011
 20
708.6411227312
 30
0.0
 11
673.5128208011
 21
710.7120305919
 31
0.0
  0
LINE
  5
2D2
330
1F
100
AcDbEntity
  8
0
  6
Continuous
 62
     7
370
    25
100
AcDbLine
 10
658.5128208011
 20
706.4296067587
 30
0.0
 11
658.5128208011
 21
706.0998727312
 31
0.0
  0
LINE
  5
2D3
330
1F
100
AcDbEntity
  8
0
  6
Continuous
 62
     7
370
    25
100
AcDbLine
 10
673.1715708011
 20
708.0998727312
 30
0.0
 11
673.1715708011
 21
708.2998727312
 31
0.0
  0
LINE
  5
2D4
330
1F
100
AcDbEntity
  8
0
  6
Continuous
 62
     7
370
    25
100
AcDbLine
 10
673.1715708011
 20
713.8998727312
 30
0.0
 11
673.1715708011
 21
714.0998727312
 31
0.0
  0
LINE
  5
2D5
330
1F
100
AcDbEntity
  8
0
  6
Continuous
 62
     7
370
    25
100
AcDbLine
 10
673.7128208011
 20
712.6792760685
 30
0.0
 11
673.7128208011
 21
713.5586227312
 31
0.0
  0
LINE
  5
2D6
330
1F
100
AcDbEntity
  8
0
  6
Continuous
 62
     7
370
    25
100
AcDbLine
 10
673.7128208011
 20
708.6411227312
 30
0.0
 11
673.7128208011
 21
712.6792760685
 31
0.0
  0
LINE
  5
2D7
330
1F
100
AcDbEntity
  8
0
  6
Continuous
 62
     7
370
    25
100
AcDbLine
 10
174.7628208011
 20
729.6998727312
 30
0.0
 11
174.7628208011
 21
729.1998727312
 31
0.0
  0
LINE
  5
2D8
330
1F
100
AcDbEntity
  8
0
  6
Continuous
 62
     7
370
    25
100
AcDbLine
 10
174.7628208011
 20
729.1998727312
 30
0.0
 11
165.2628208011
 21
729.1998727312
 31
0.0
  0
LINE
  5
2D9
330
1F
100
AcDbEntity
  8
0
  6
Continuous
 62
     7
370
    25
100
AcDbLine
 10
165.2628208011
 20
729.1998727312
 30
0.0
 11
165.2628208011
 21
729.6998727312
 31
0.0
  0
ARC
  5
2DA
330
1F
100
AcDbEntity
  8
0
  6
Continuous
 62
     7
370
    25
100
AcDbCircle
 10
175.5262208011
 20
730.4364727312
 30
0.0
 40
1.236599999999953
100
AcDbArc
 50
270.0
 51
323.4399088994
  0
LINE
  5
2DB
330
1F
100
AcDbEntity
  8
0
  6
Continuous
 62
     7
370
    25
100
AcDbLine
 10
175.5262208011
 20
729.1998727312
 30
0.0
 11
174.7628208011
 21
729.1998727312
 31
0.0
  0
LINE
  5
2DC
330
1F
100
AcDbEntity
  8
0
  6
Continuous
 62
     7
370
    25
100
AcDbLine
 10
165.2628208011
 20
729.1998727312
 30
0.0
 11
164.4994208011
 21
729.1998727312
 31
0.0
  0
ARC
  5
2DD
330
1F
100
AcDbEntity
  8
0
  6
Continuous
 62
     7
370
    25
100
AcDbCircle
 10
164.4994208011
 20
730.4364727312
 30
0.0
 40
1.236600000000067
100
AcDbArc
 50
216.5600911006
 51
270.0
  0
LINE
  5
2DE
330
1F
100
AcDbEntity
  8
0
  6
Continuous
 62
     7
370
    25
100
AcDbLine
 10
663.0128208011
 20
725.3998727312
 30
0.0
 11
663.5128208011
 21
730.7748727312
 31
0.0
  0
LINE
  5
2DF
330
1F
100
AcDbEntity
  8
0
  6
Continuous
 62
     7
370
    25
100
AcDbLine
 10
159.5128208011
 20
730.7748727312
 30
0.0
 11
160.0128208011
 21
725.3998727312
 31
0.0
  0
LINE
  5
2E0
330
1F
100
AcDbEntity
  8
0
  6
Continuous
 62
     7
370
    25
100
AcDbLine
 10
663.0128208011
 20
725.3998727312
 30
0.0
 11
663.0128208011
 21
723.5998727312
 31
0.0
  0
LINE
  5
2E1
330
1F
100
AcDbEntity
  8
0
  6
Continuous
 62
     7
370
    25
100
AcDbLine
 10
663.0128208011
 20
723.5998727312
 30
0.0
 11
160.0128208011
 21
723.5998727312
 31
0.0
  0
LINE
  5
2E2
330
1F
100
AcDbEntity
  8
0
  6
Continuous
 62
     7
370
    25
100
AcDbLine
 10
160.0128208011
 20
723.5998727312
 30
0.0
 11
160.0128208011
 21
725.3998727312
 31
0.0
  0
LINE
  5
2E3
330
1F
100
AcDbEntity
  8
0
  6
Continuous
 62
     7
370
    25
100
AcDbLine
 10
149.3128208011
 20
708.8825346539
 30
0.0
 11
149.3128208011
 21
708.6411227312
 31
0.0
  0
LINE
  5
2E4
330
1F
100
AcDbEntity
  8
0
  6
Continuous
 62
     7
370
    25
100
AcDbLine
 10
149.3128208011
 20
713.5586227312
 30
0.0
 11
149.3128208011
 21
708.8825346539
 31
0.0
  0
LINE
  5
2E5
330
1F
100
AcDbEntity
  8
0
  6
Continuous
 62
     7
370
    25
100
AcDbLine
 10
149.8540708011
 20
714.0998727312
 30
0.0
 11
149.8540708011
 21
713.8998727312
 31
0.0
  0
LINE
  5
2E6
330
1F
100
AcDbEntity
  8
0
  6
Continuous
 62
     7
370
    25
100
AcDbLine
 10
149.8540708011
 20
708.2998727312
 30
0.0
 11
149.8540708011
 21
708.0998727312
 31
0.0
  0
LINE
  5
2E7
330
1F
100
AcDbEntity
  8
0
  6
Continuous
 62
     7
370
    25
100
AcDbLine
 10
164.1989651992
 20
716.3716883653
 30
0.0
 11
164.0662388137
 21
716.8563772554
 31
0.0
  0
LINE
  5
2E8
330
1F
100
AcDbEntity
  8
0
  6
Continuous
 62
     7
370
    25
100
AcDbLine
 10
164.0662388137
 20
716.8563772554
 30
0.0
 11
160.5128208011
 21
716.8563772554
 31
0.0
  0
LINE
  5
2E9
330
1F
100
AcDbEntity
  8
0
  6
Continuous
 62
     7
370
    25
100
AcDbLine
 10
164.0662388137
 20
705.343368207
 30
0.0
 11
164.2661491587
 21
705.901773813
 31
0.0
  0
LINE
  5
2EA
330
1F
100
AcDbEntity
  8
0
  6
Continuous
 62
     7
370
    25
100
AcDbLine
 10
160.5128208011
 20
705.343368207
 30
0.0
 11
164.0662388137
 21
705.343368207
 31
0.0
  0
LINE
  5
2EB
330
1F
100
AcDbEntity
  8
0
  6
Continuous
 62
     7
370
    25
100
AcDbLine
 10
164.0662388137
 20
716.8563772554
 30
0.0
 11
164.1414265692
 21
716.6463567876
 31
0.0
  0
LINE
  5
2EC
330
1F
100
AcDbEntity
  8
0
  6
Continuous
 62
     7
370
    25
100
AcDbLine
 10
665.5128208011
 20
734.1998727312
 30
0.0
 11
665.5128208011
 21
705.1998727312
 31
0.0
  0
LINE
  5
2ED
330
1F
100
AcDbEntity
  8
0
  6
Continuous
 62
     7
370
    25
100
AcDbLine
 10
663.5128208011
 20
734.1998727312
 30
0.0
 11
663.5128208011
 21
705.1998727312
 31
0.0
  0
LINE
  5
2EE
330
1F
100
AcDbEntity
  8
0
  6
Continuous
 62
     7
370
    25
100
AcDbLine
 10
665.5128208011
 20
703.1998727312
 30
0.0
 11
663.5128208011
 21
703.1998727312
 31
0.0
  0
LINE
  5
2EF
330
1F
100
AcDbEntity
  8
0
  6
Continuous
 62
     7
370
    25
100
AcDbLine
 10
665.5128208011
 20
705.1998727312
 30
0.0
 11
665.5128208011
 21
703.1998727312
 31
0.0
  0
LINE
  5
2F0
330
1F
100
AcDbEntity
  8
0
  6
Continuous
 62
     7
370
    25
100
AcDbLine
 10
663.5128208011
 20
703.1998727312
 30
0.0
 11
663.5128208011
 21
705.1998727312
 31
0.0
  0
LINE
  5
2F1
330
1F
100
AcDbEntity
  8
0
  6
Continuous
 62
     7
370
    25
100
AcDbLine
 10
665.5128208011
 20
734.1998727312
 30
0.0
 11
665.5111536712
 21
734.2998727312
 31
0.0
  0
LINE
  5
2F2
330
1F
100
AcDbEntity
  8
0
  6
Continuous
 62
     7
370
    25
100
AcDbLine
 10
663.5128208011
 20
734.1998727312
 30
0.0
 11
663.5078082382
 21
734.2998727312
 31
0.0
  0
LINE
  5
2F3
330
1F
100
AcDbEntity
  8
0
  6
Continuous
 62
     7
370
    25
100
AcDbLine
 10
665.5731281803
 20
719.1998727312
 30
0.0
 11
665.5128208011
 21
719.1998727312
 31
0.0
  0
LINE
  5
2F4
330
1F
100
AcDbEntity
  8
0
  6
Continuous
 62
     7
370
    25
100
AcDbLine
 10
665.5128208011
 20
703.1998727312
 30
0.0
 11
665.5731281803
 21
703.1998727312
 31
0.0
  0
LWPOLYLINE
  5
2F5
330
1F
100
AcDbEntity
  8
0
  6
Continuous
 62
     7
370
    25
100
AcDbPolyline
 90
        9
 70
   128
 43
0.0
 10
667.4443269026
 20
703.1998727312
 10
667.5777765424
 20
703.2383021704
 10
667.7060977874
 20
703.3521136662
 10
667.824359324
 20
703.5369335066
 10
667.9280164279
 20
703.7856591688
 10
668.0130856145
 20
704.0887322651
 10
668.0762977228
 20
704.4345058665
 10
668.1152235469
 20
704.8096920872
 10
668.1283671892
 20
705.1998727312
  0
LINE
  5
2F6
330
1F
100
AcDbEntity
  8
0
  6
Continuous
 62
     7
370
    25
100
AcDbLine
 10
665.5731281803
 20
719.1998727312
 30
0.0
 11
667.4443269026
 21
719.1998727312
 31
0.0
  0
LWPOLYLINE
  5
2F7
330
1F
100
AcDbEntity
  8
0
  6
Continuous
 62
     7
370
    25
100
AcDbPolyline
 90
        9
 70
   128
 43
0.0
 10
668.1283671892
 20
717.1998727312
 10
668.1152235469
 20
717.5900533752
 10
668.0762977228
 20
717.9652395959
 10
668.0130856145
 20
718.3110131972
 10
667.9280164279
 20
718.6140862936
 10
667.824359324
 20
718.8628119558
 10
667.7060977874
 20
719.0476317962
 10
667.5777765424
 20
719.161443292
 10
667.4443269026
 20
719.1998727312
  0
LINE
  5
2F8
330
1F
100
AcDbEntity
  8
0
  6
Continuous
 62
     7
370
    25
100
AcDbLine
 10
668.1283671892
 20
717.1998727312
 30
0.0
 11
668.1283671892
 21
714.0998727312
 31
0.0
  0
LINE
  5
2F9
330
1F
100
AcDbEntity
  8
0
  6
Continuous
 62
     7
370
    25
100
AcDbLine
 10
668.1283671892
 20
708.0998727312
 30
0.0
 11
668.1283671892
 21
705.1998727312
 31
0.0
  0
LINE
  5
2FA
330
1F
100
AcDbEntity
  8
0
  6
Continuous
 62
     7
370
    25
100
AcDbLine
 10
667.4443269026
 20
703.1998727312
 30
0.0
 11
665.5731281803
 21
703.1998727312
 31
0.0
  0
LINE
  5
2FB
330
1F
100
AcDbEntity
  8
0
  6
Continuous
 62
     7
370
    25
100
AcDbLine
 10
159.5128208011
 20
705.1998727312
 30
0.0
 11
159.5128208011
 21
734.1998727312
 31
0.0
  0
LINE
  5
2FC
330
1F
100
AcDbEntity
  8
0
  6
Continuous
 62
     7
370
    25
100
AcDbLine
 10
157.5128208011
 20
705.1998727312
 30
0.0
 11
157.5128208011
 21
734.1998727312
 31
0.0
  0
LINE
  5
2FD
330
1F
100
AcDbEntity
  8
0
  6
Continuous
 62
     7
370
    25
100
AcDbLine
 10
159.5128208011
 20
705.1998727312
 30
0.0
 11
159.5128208011
 21
703.1998727312
 31
0.0
  0
LINE
  5
2FE
330
1F
100
AcDbEntity
  8
0
  6
Continuous
 62
     7
370
    25
100
AcDbLine
 10
159.5128208011
 20
703.1998727312
 30
0.0
 11
157.5128208011
 21
703.1998727312
 31
0.0
  0
LINE
  5
2FF
330
1F
100
AcDbEntity
  8
0
  6
Continuous
 62
     7
370
    25
100
AcDbLine
 10
157.5128208011
 20
703.1998727312
 30
0.0
 11
157.5128208011
 21
705.1998727312
 31
0.0
  0
LINE
  5
300
330
1F
100
AcDbEntity
  8
0
  6
Continuous
 62
     7
370
    25
100
AcDbLine
 10
159.517833364
 20
734.2998727312
 30
0.0
 11
159.5128208011
 21
734.1998727312
 31
0.0
  0
LINE
  5
301
330
1F
100
AcDbEntity
  8
0
  6
Continuous
 62
     7
370
    25
100
AcDbLine
 10
157.5144879309
 20
734.2998727312
 30
0.0
 11
157.5128208011
 21
734.1998727312
 31
0.0
  0
LINE
  5
302
330
1F
100
AcDbEntity
  8
0
  6
Continuous
 62
     7
370
    25
100
AcDbLine
 10
157.4525134218
 20
703.1998727312
 30
0.0
 11
157.5128208011
 21
703.1998727312
 31
0.0
  0
LINE
  5
303
330
1F
100
AcDbEntity
  8
0
  6
Continuous
 62
     7
370
    25
100
AcDbLine
 10
157.5128208011
 20
719.1998727312
 30
0.0
 11
157.4525134218
 21
719.1998727312
 31
0.0
  0
LINE
  5
304
330
1F
100
AcDbEntity
  8
0
  6
Continuous
 62
     7
370
    25
100
AcDbLine
 10
157.4525134218
 20
703.1998727312
 30
0.0
 11
155.5813146995
 21
703.1998727312
 31
0.0
  0
LWPOLYLINE
  5
305
330
1F
100
AcDbEntity
  8
0
  6
Continuous
 62
     7
370
    25
100
AcDbPolyline
 90
        9
 70
   128
 43
0.0
 10
154.8972744129
 20
705.1998727312
 10
154.9104180552
 20
704.8096920872
 10
154.9493438793
 20
704.4345058665
 10
155.0125559876
 20
704.0887322651
 10
155.0976251742
 20
703.7856591688
 10
155.2012822781
 20
703.5369335066
 10
155.3195438148
 20
703.3521136662
 10
155.4478650597
 20
703.2383021704
 10
155.5813146995
 20
703.1998727312
  0
LINE
  5
306
330
1F
100
AcDbEntity
  8
0
  6
Continuous
 62
     7
370
    25
100
AcDbLine
 10
154.8972744129
 20
705.1998727312
 30
0.0
 11
154.8972744129
 21
708.0998727312
 31
0.0
  0
LINE
  5
307
330
1F
100
AcDbEntity
  8
0
  6
Continuous
 62
     7
370
    25
100
AcDbLine
 10
154.8972744129
 20
714.0998727312
 30
0.0
 11
154.8972744129
 21
717.1998727312
 31
0.0
  0
LWPOLYLINE
  5
308
330
1F
100
AcDbEntity
  8
0
  6
Continuous
 62
     7
370
    25
100
AcDbPolyline
 90
        9
 70
   128
 43
0.0
 10
155.5813146995
 20
719.1998727312
 10
155.4478650597
 20
719.161443292
 10
155.3195438148
 20
719.0476317962
 10
155.2012822781
 20
718.8628119558
 10
155.0976251742
 20
718.6140862936
 10
155.0125559876
 20
718.3110131972
 10
154.9493438793
 20
717.9652395959
 10
154.9104180552
 20
717.5900533752
 10
154.8972744129
 20
717.1998727312
  0
LINE
  5
309
330
1F
100
AcDbEntity
  8
0
  6
Continuous
 62
     7
370
    25
100
AcDbLine
 10
155.5813146995
 20
719.1998727312
 30
0.0
 11
157.4525134218
 21
719.1998727312
 31
0.0
  0
ARC
  5
30A
330
1F
100
AcDbEntity
  8
0
  6
Continuous
 62
     7
370
    25
100
AcDbCircle
 10
151.0128208011
 20
740.2998727312
 30
0.0
 40
6.000000000000114
100
AcDbArc
 50
216.8698976459
 51
270.0
  0
ARC
  5
30B
330
1F
100
AcDbEntity
  8
0
  6
Continuous
 62
     7
370
    25
100
AcDbCircle
 10
672.0128208011
 20
740.2998727312
 30
0.0
 40
6.000000000000114
100
AcDbArc
 50
270.0
 51
323.1301023541
  0
SPLINE
  5
30C
330
1F
100
AcDbEntity
  8
0
  6
Continuous
 62
     7
370
    25
100
AcDbSpline
210
0.0
220
0.0
230
1.0
 70
    24
 71
     3
 72
    19
 73
    15
 74
     0
 42
0.000000001
 43
0.00000001
 40
0.0
 40
0.0
 40
0.0
 40
0.0
 40
0.1348599644641575
 40
0.2074574467700402
 40
0.2815955518104269
 40
0.3557336568508132
 40
0.4283311391566972
 40
0.5631911036208539
 40
0.6980510680850107
 40
0.7706485503908947
 40
0.8447866554312816
 40
0.9189247604716664
 40
0.9915222427775493
 40
1.0
 40
1.0
 40
1.0
 40
1.0
 10
160.5128208010617
 20
705.6575616054498
 30
0.0
 10
160.5128208010617
 20
705.982502045136
 30
0.0
 10
160.5128208010617
 20
706.4823636181202
 30
0.0
 10
160.5128208010617
 20
707.6280094770502
 30
0.0
 10
160.5128208010617
 20
708.6512253280778
 30
0.0
 10
160.5128208010618
 20
709.7835838982595
 30
0.0
 10
160.5128208010616
 20
711.292923017618
 30
0.0
 10
160.5128208010617
 20
713.1532935924353
 30
0.0
 10
160.5128208010617
 20
714.769399433335
 30
0.0
 10
160.5128208010617
 20
715.7915087796395
 30
0.0
 10
160.5128208010617
 20
716.4116425316685
 30
0.0
 10
160.5128208010618
 20
716.7606097160568
 30
0.0
 10
160.5128208010615
 20
716.9616728381358
 30
0.0
 10
160.5128208010617
 20
716.8839575123707
 30
0.0
 10
160.5128208010617
 20
716.8758310897028
 30
0.0
  0
SPLINE
  5
30D
330
1F
100
AcDbEntity
  8
0
  6
Continuous
 62
     7
370
    25
100
AcDbSpline
210
0.0
220
0.0
230
1.0
 70
     8
 71
     3
 72
     8
 73
     4
 74
     0
 42
0.000000001
 43
0.00000001
 40
0.0
 40
0.0
 40
0.0
 40
0.0
 40
1.0
 40
1.0
 40
1.0
 40
1.0
 10
164.5128208010545
 20
712.8285842649158
 30
0.0
 10
164.5128208010545
 20
713.7531008763158
 30
0.0
 10
164.3385055006751
 20
714.6523138648721
 30
0.0
 10
164.0662388136633
 20
715.5373082223713
 30
0.0
  0
SPLINE
  5
30E
330
1F
100
AcDbEntity
  8
0
  6
Continuous
 62
     7
370
    25
100
AcDbSpline
210
0.0
220
0.0
230
1.0
 70
     8
 71
     3
 72
     8
 73
     4
 74
     0
 42
0.000000001
 43
0.00000001
 40
0.0
 40
0.0
 40
0.0
 40
0.0
 40
1.0
 40
1.0
 40
1.0
 40
1.0
 10
164.0662388136633
 20
710.1198603074602
 30
0.0
 10
164.3385055006746
 20
711.0048546649577
 30
0.0
 10
164.5128208010545
 20
711.9040676535174
 30
0.0
 10
164.5128208010545
 20
712.8285842649158
 30
0.0
  0
LINE
  5
30F
330
1F
100
AcDbEntity
  8
0
  6
Continuous
 62
     7
370
    25
100
AcDbLine
 10
160.5128208011
 20
710.1198603075
 30
0.0
 11
164.0662388137
 21
710.1198603075
 31
0.0
  0
LINE
  5
310
330
1F
100
AcDbEntity
  8
0
  6
Continuous
 62
     7
370
    25
100
AcDbLine
 10
160.5128208011
 20
715.5373082224
 30
0.0
 11
164.0662388137
 21
715.5373082224
 31
0.0
  0
SPLINE
  5
311
330
1F
100
AcDbEntity
  8
0
  6
Continuous
 62
     7
370
    25
100
AcDbSpline
210
0.0
220
0.0
230
1.0
 70
     8
 71
     3
 72
     8
 73
     4
 74
     0
 42
0.000000001
 43
0.00000001
 40
0.0
 40
0.0
 40
0.0
 40
0.0
 40
1.0
 40
1.0
 40
1.0
 40
1.0
 10
164.5128208010546
 20
707.901142561861
 30
0.0
 10
164.5128208010546
 20
708.6584147845113
 30
0.0
 10
164.3385055006752
 20
709.3949607914551
 30
0.0
 10
164.0662388136633
 20
710.1198603074535
 30
0.0
  0
SPLINE
  5
312
330
1F
100
AcDbEntity
  8
0
  6
Continuous
 62
     7
370
    25
100
AcDbSpline
210
0.0
220
0.0
230
1.0
 70
     8
 71
     3
 72
     8
 73
     4
 74
     0
 42
0.000000001
 43
0.00000001
 40
0.0
 40
0.0
 40
0.0
 40
0.0
 40
1.0
 40
1.0
 40
1.0
 40
1.0
 10
164.0662388136633
 20
705.6824248162685
 30
0.0
 10
164.3385055006747
 20
706.4073243322655
 30
0.0
 10
164.5128208010546
 20
707.1438703392121
 30
0.0
 10
164.5128208010546
 20
707.901142561861
 30
0.0
  0
LINE
  5
313
330
1F
100
AcDbEntity
  8
0
  6
Continuous
 62
     7
370
    25
100
AcDbLine
 10
160.5128208011
 20
705.6824248163
 30
0.0
 11
164.0662388137
 21
705.6824248163
 31
0.0
  0
LINE
  5
314
330
1F
100
AcDbEntity
  8
0
  6
Continuous
 62
     7
370
    25
100
AcDbLine
 10
164.5128208011
 20
707.9011425619
 30
0.0
 11
164.5128208011
 21
712.8285842649
 31
0.0
  0
SPLINE
  5
315
330
1F
100
AcDbEntity
  8
0
  6
Continuous
 62
     7
370
    25
100
AcDbSpline
210
0.0
220
0.0
230
1.0
 70
     8
 71
     3
 72
     8
 73
     4
 74
     0
 42
0.000000001
 43
0.00000001
 40
0.0
 40
0.0
 40
0.0
 40
0.0
 40
1.0
 40
1.0
 40
1.0
 40
1.0
 10
164.0662388136633
 20
715.5373082223755
 30
0.0
 10
164.3385055006748
 20
715.6974030638761
 30
0.0
 10
164.5128208010547
 20
715.8600700454891
 30
0.0
 10
164.5128208010547
 20
716.0273144342387
 30
0.0
  0
LINE
  5
316
330
1F
100
AcDbEntity
  8
0
  6
Continuous
 62
     7
370
    25
100
AcDbLine
 10
164.5128208011
 20
712.8285842649
 30
0.0
 11
164.5128208011
 21
716.0273144342
 31
0.0
  0
SPLINE
  5
317
330
1F
100
AcDbEntity
  8
0
  6
Continuous
 62
     7
370
    25
100
AcDbSpline
210
0.0
220
0.0
230
1.0
 70
     8
 71
     3
 72
     8
 73
     4
 74
     0
 42
0.000000001
 43
0.00000001
 40
0.0
 40
0.0
 40
0.0
 40
0.0
 40
1.0
 40
1.0
 40
1.0
 40
1.0
 10
164.5128208010547
 20
706.1724310281295
 30
0.0
 10
164.5128208010547
 20
706.0051866393798
 30
0.0
 10
164.3385055006753
 20
705.8425196577672
 30
0.0
 10
164.0662388136634
 20
705.6824248162663
 30
0.0
  0
LINE
  5
318
330
1F
100
AcDbEntity
  8
0
  6
Continuous
 62
     7
370
    25
100
AcDbLine
 10
164.5128208011
 20
707.9011425619
 30
0.0
 11
164.5128208011
 21
706.1038063523
 31
0.0
  0
SPLINE
  5
319
330
1F
100
AcDbEntity
  8
0
  6
Continuous
 62
     7
370
    25
100
AcDbSpline
210
0.0
220
0.0
230
1.0
 70
     8
 71
     3
 72
     8
 73
     4
 74
     0
 42
0.000000001
 43
0.00000001
 40
0.0
 40
0.0
 40
0.0
 40
0.0
 40
1.0
 40
1.0
 40
1.0
 40
1.0
 10
164.5128208010547
 20
716.0273144342387
 30
0.0
 10
164.5128208010547
 20
716.1945588229887
 30
0.0
 10
164.3385055006752
 20
716.3572258046012
 30
0.0
 10
164.0662388136633
 20
716.5173206461021
 30
0.0
  0
LINE
  5
31A
330
1F
100
AcDbEntity
  8
0
  6
Continuous
 62
     7
370
    25
100
AcDbLine
 10
160.5128208011
 20
716.5173206461
 30
0.0
 11
164.0662388137
 21
716.5173206461
 31
0.0
  0
LINE
  5
31B
330
1F
100
AcDbEntity
  8
0
  6
Continuous
 62
     7
370
    25
100
AcDbLine
 10
150.0540708011
 20
714.0998727312
 30
0.0
 11
150.0540708011
 21
708.0998727312
 31
0.0
  0
LINE
  5
31C
330
1F
100
AcDbEntity
  8
0
  6
Continuous
 62
     7
370
    25
100
AcDbLine
 10
149.5128208011
 20
711.9499666279
 30
0.0
 11
149.5128208011
 21
708.6411227312
 31
0.0
  0
LINE
  5
31D
330
1F
100
AcDbEntity
  8
0
  6
Continuous
 62
     7
370
    25
100
AcDbLine
 10
149.5128208011
 20
713.5586227312
 30
0.0
 11
149.5128208011
 21
711.9499666279
 31
0.0
  0
LINE
  5
31E
330
1F
100
AcDbEntity
  8
0
  6
Continuous
 62
     7
370
    25
100
AcDbLine
 10
648.2628208011
 20
729.1998727312
 30
0.0
 11
648.2628208011
 21
729.6998727312
 31
0.0
  0
LINE
  5
31F
330
1F
100
AcDbEntity
  8
0
  6
Continuous
 62
     7
370
    25
100
AcDbLine
 10
657.7628208011
 20
729.1998727312
 30
0.0
 11
648.2628208011
 21
729.1998727312
 31
0.0
  0
LINE
  5
320
330
1F
100
AcDbEntity
  8
0
  6
Continuous
 62
     7
370
    25
100
AcDbLine
 10
657.7628208011
 20
729.6998727312
 30
0.0
 11
657.7628208011
 21
729.1998727312
 31
0.0
  0
LINE
  5
321
330
1F
100
AcDbEntity
  8
0
  6
Continuous
 62
     7
370
    25
100
AcDbLine
 10
648.2628208011
 20
729.1998727312
 30
0.0
 11
647.4994208011
 21
729.1998727312
 31
0.0
  0
LINE
  5
322
330
1F
100
AcDbEntity
  8
0
  6
Continuous
 62
     7
370
    25
100
AcDbLine
 10
658.5262208011
 20
729.1998727312
 30
0.0
 11
657.7628208011
 21
729.1998727312
 31
0.0
  0
ARC
  5
323
330
1F
100
AcDbEntity
  8
0
  6
Continuous
 62
     7
370
    25
100
AcDbCircle
 10
658.5262208011
 20
730.4364727312
 30
0.0
 40
1.236599999999953
100
AcDbArc
 50
270.0
 51
323.4399088991
  0
ARC
  5
324
330
1F
100
AcDbEntity
  8
0
  6
Continuous
 62
     7
370
    25
100
AcDbCircle
 10
647.4994208011
 20
730.4364727312
 30
0.0
 40
1.236600000000067
100
AcDbArc
 50
216.5600911009
 51
270.0
  0
ARC
  5
325
330
1F
100
AcDbEntity
  8
0
  6
Continuous
 62
     7
370
    25
100
AcDbCircle
 10
663.2128208011
 20
-78.9919056406
 30
0.0
 40
0.5
100
AcDbArc
 50
180.0
 51
360.0
  0
ARC
  5
326
330
1F
100
AcDbEntity
  8
0
  6
Continuous
 62
     7
370
    25
100
AcDbCircle
 10
663.2128208011
 20
-67.3919056404
 30
0.0
 40
0.5
100
AcDbArc
 50
0.0
 51
180.0
  0
LINE
  5
327
330
1F
100
AcDbEntity
  8
0
  6
Continuous
 62
     7
370
    25
100
AcDbLine
 10
673.1715708011
 20
-76.1919056405
 30
0.0
 11
673.7128208011
 21
-75.6506556405
 31
0.0
  0
LINE
  5
328
330
1F
100
AcDbEntity
  8
0
  6
Continuous
 62
     7
370
    25
100
AcDbLine
 10
673.7128208011
 20
-70.7331556405
 30
0.0
 11
673.1715708011
 21
-70.1919056405
 31
0.0
  0
LINE
  5
329
330
1F
100
AcDbEntity
  8
0
  6
Continuous
 62
     7
370
    25
100
AcDbLine
 10
673.1715708011
 20
-70.1919056405
 30
0.0
 11
664.5128208011
 21
-70.1919056405
 31
0.0
  0
LINE
  5
32A
330
1F
100
AcDbEntity
  8
0
  6
Continuous
 62
     7
370
    25
100
AcDbLine
 10
664.5128208011
 20
-76.1919056405
 30
0.0
 11
673.1715708011
 21
-76.1919056405
 31
0.0
  0
LINE
  5
32B
330
1F
100
AcDbEntity
  8
0
  6
Continuous
 62
     7
370
    25
100
AcDbLine
 10
646.5580353867
 20
-81.8200828879
 30
0.0
 11
646.1628208011
 21
-81.5919056405
 31
0.0
  0
LINE
  5
32C
330
1F
100
AcDbEntity
  8
0
  6
Continuous
 62
     7
370
    25
100
AcDbLine
 10
639.8628208011
 20
-81.5919056405
 30
0.0
 11
639.4322825061
 21
-81.840477041
 31
0.0
  0
LINE
  5
32D
330
1F
100
AcDbEntity
  8
0
  6
Continuous
 62
     7
370
    25
100
AcDbLine
 10
639.4322825061
 20
-84.54333424
 30
0.0
 11
639.8628208011
 21
-84.7919056405
 31
0.0
  0
LINE
  5
32E
330
1F
100
AcDbEntity
  8
0
  6
Continuous
 62
     7
370
    25
100
AcDbLine
 10
646.1628208011
 20
-84.7919056405
 30
0.0
 11
646.5580353867
 21
-84.5637283931
 31
0.0
  0
LINE
  5
32F
330
1F
100
AcDbEntity
  8
0
  6
Continuous
 62
     7
370
    25
100
AcDbLine
 10
333.5580353867
 20
-81.8200828879
 30
0.0
 11
333.1628208011
 21
-81.5919056405
 31
0.0
  0
LINE
  5
330
330
1F
100
AcDbEntity
  8
0
  6
Continuous
 62
     7
370
    25
100
AcDbLine
 10
326.8628208011
 20
-81.5919056405
 30
0.0
 11
326.4322825061
 21
-81.840477041
 31
0.0
  0
LINE
  5
331
330
1F
100
AcDbEntity
  8
0
  6
Continuous
 62
     7
370
    25
100
AcDbLine
 10
326.4322825061
 20
-84.54333424
 30
0.0
 11
326.8628208011
 21
-84.7919056405
 31
0.0
  0
LINE
  5
332
330
1F
100
AcDbEntity
  8
0
  6
Continuous
 62
     7
370
    25
100
AcDbLine
 10
333.1628208011
 20
-84.7919056405
 30
0.0
 11
333.5580353867
 21
-84.5637283931
 31
0.0
  0
LINE
  5
333
330
1F
100
AcDbEntity
  8
0
  6
Continuous
 62
     7
370
    25
100
AcDbLine
 10
496.5580353867
 20
-81.8200828879
 30
0.0
 11
496.1628208011
 21
-81.5919056405
 31
0.0
  0
LINE
  5
334
330
1F
100
AcDbEntity
  8
0
  6
Continuous
 62
     7
370
    25
100
AcDbLine
 10
489.8628208011
 20
-81.5919056405
 30
0.0
 11
489.4322825061
 21
-81.840477041
 31
0.0
  0
LINE
  5
335
330
1F
100
AcDbEntity
  8
0
  6
Continuous
 62
     7
370
    25
100
AcDbLine
 10
489.4322825061
 20
-84.54333424
 30
0.0
 11
489.8628208011
 21
-84.7919056405
 31
0.0
  0
LINE
  5
336
330
1F
100
AcDbEntity
  8
0
  6
Continuous
 62
     7
370
    25
100
AcDbLine
 10
496.1628208011
 20
-84.7919056405
 30
0.0
 11
496.5580353867
 21
-84.5637283931
 31
0.0
  0
LINE
  5
337
330
1F
100
AcDbEntity
  8
0
  6
Continuous
 62
     7
370
    25
100
AcDbLine
 10
176.4322825061
 20
-84.54333424
 30
0.0
 11
176.8628208011
 21
-84.7919056405
 31
0.0
  0
LINE
  5
338
330
1F
100
AcDbEntity
  8
0
  6
Continuous
 62
     7
370
    25
100
AcDbLine
 10
183.1628208011
 20
-84.7919056405
 30
0.0
 11
183.5580353867
 21
-84.5637283931
 31
0.0
  0
LINE
  5
339
330
1F
100
AcDbEntity
  8
0
  6
Continuous
 62
     7
370
    25
100
AcDbLine
 10
183.5580353867
 20
-81.8200828879
 30
0.0
 11
183.1628208011
 21
-81.5919056405
 31
0.0
  0
LINE
  5
33A
330
1F
100
AcDbEntity
  8
0
  6
Continuous
 62
     7
370
    25
100
AcDbLine
 10
176.8628208011
 20
-81.5919056405
 30
0.0
 11
176.4322825061
 21
-81.840477041
 31
0.0
  0
LINE
  5
33B
330
1F
100
AcDbEntity
  8
0
  6
Continuous
 62
     7
370
    25
100
AcDbLine
 10
159.0128208011
 20
-98.2419056405
 30
0.0
 11
664.0128208011
 21
-98.2419056405
 31
0.0
  0
LINE
  5
33C
330
1F
100
AcDbEntity
  8
0
  6
Continuous
 62
     7
370
    25
100
AcDbLine
 10
641.0128208011
 20
-76.4919056405
 30
0.0
 11
641.0128208011
 21
-81.5919056405
 31
0.0
  0
LINE
  5
33D
330
1F
100
AcDbEntity
  8
0
  6
Continuous
 62
     7
370
    25
100
AcDbLine
 10
641.0128208011
 20
-84.7919056405
 30
0.0
 11
641.0128208011
 21
-84.8919056405
 31
0.0
  0
LINE
  5
33E
330
1F
100
AcDbEntity
  8
0
  6
Continuous
 62
     7
370
    25
100
AcDbLine
 10
645.0128208011
 20
-84.8919056405
 30
0.0
 11
645.0128208011
 21
-84.7919056405
 31
0.0
  0
LINE
  5
33F
330
1F
100
AcDbEntity
  8
0
  6
Continuous
 62
     7
370
    25
100
AcDbLine
 10
645.0128208011
 20
-81.5919056405
 30
0.0
 11
645.0128208011
 21
-76.4919056405
 31
0.0
  0
LINE
  5
340
330
1F
100
AcDbEntity
  8
0
  6
Continuous
 62
     7
370
    25
100
AcDbLine
 10
328.0128208011
 20
-76.4919056405
 30
0.0
 11
328.0128208011
 21
-81.5919056405
 31
0.0
  0
LINE
  5
341
330
1F
100
AcDbEntity
  8
0
  6
Continuous
 62
     7
370
    25
100
AcDbLine
 10
328.0128208011
 20
-84.7919056405
 30
0.0
 11
328.0128208011
 21
-84.8919056405
 31
0.0
  0
LINE
  5
342
330
1F
100
AcDbEntity
  8
0
  6
Continuous
 62
     7
370
    25
100
AcDbLine
 10
332.0128208011
 20
-84.8919056405
 30
0.0
 11
332.0128208011
 21
-84.7919056405
 31
0.0
  0
LINE
  5
343
330
1F
100
AcDbEntity
  8
0
  6
Continuous
 62
     7
370
    25
100
AcDbLine
 10
332.0128208011
 20
-81.5919056405
 30
0.0
 11
332.0128208011
 21
-76.4919056405
 31
0.0
  0
LINE
  5
344
330
1F
100
AcDbEntity
  8
0
  6
Continuous
 62
     7
370
    25
100
AcDbLine
 10
491.0128208011
 20
-76.4919056405
 30
0.0
 11
491.0128208011
 21
-81.5919056405
 31
0.0
  0
LINE
  5
345
330
1F
100
AcDbEntity
  8
0
  6
Continuous
 62
     7
370
    25
100
AcDbLine
 10
491.0128208011
 20
-84.7919056405
 30
0.0
 11
491.0128208011
 21
-84.8919056405
 31
0.0
  0
LINE
  5
346
330
1F
100
AcDbEntity
  8
0
  6
Continuous
 62
     7
370
    25
100
AcDbLine
 10
495.0128208011
 20
-84.8919056405
 30
0.0
 11
495.0128208011
 21
-84.7919056405
 31
0.0
  0
LINE
  5
347
330
1F
100
AcDbEntity
  8
0
  6
Continuous
 62
     7
370
    25
100
AcDbLine
 10
495.0128208011
 20
-81.5919056405
 30
0.0
 11
495.0128208011
 21
-76.4919056405
 31
0.0
  0
LINE
  5
348
330
1F
100
AcDbEntity
  8
0
  6
Continuous
 62
     7
370
    25
100
AcDbLine
 10
178.0128208011
 20
-76.4919056405
 30
0.0
 11
178.0128208011
 21
-81.5919056405
 31
0.0
  0
LINE
  5
349
330
1F
100
AcDbEntity
  8
0
  6
Continuous
 62
     7
370
    25
100
AcDbLine
 10
178.0128208011
 20
-84.7919056405
 30
0.0
 11
178.0128208011
 21
-84.8919056405
 31
0.0
  0
LINE
  5
34A
330
1F
100
AcDbEntity
  8
0
  6
Continuous
 62
     7
370
    25
100
AcDbLine
 10
182.0128208011
 20
-84.8919056405
 30
0.0
 11
182.0128208011
 21
-84.7919056405
 31
0.0
  0
LINE
  5
34B
330
1F
100
AcDbEntity
  8
0
  6
Continuous
 62
     7
370
    25
100
AcDbLine
 10
182.0128208011
 20
-81.5919056405
 30
0.0
 11
182.0128208011
 21
-76.4919056405
 31
0.0
  0
ARC
  5
34C
330
1F
100
AcDbEntity
  8
0
  6
Continuous
 62
     7
370
    25
100
AcDbCircle
 10
159.8128208011
 20
-67.3919056404
 30
0.0
 40
0.5
100
AcDbArc
 50
360.0
 51
180.0
  0
ARC
  5
34D
330
1F
100
AcDbEntity
  8
0
  6
Continuous
 62
     7
370
    25
100
AcDbCircle
 10
159.8128208011
 20
-78.9919056406
 30
0.0
 40
0.5
100
AcDbArc
 50
180.0
 51
0.0
  0
LINE
  5
34E
330
1F
100
AcDbEntity
  8
0
  6
Continuous
 62
     7
370
    25
100
AcDbLine
 10
149.8540708011
 20
-76.1919056405
 30
0.0
 11
158.5128208011
 21
-76.1919056405
 31
0.0
  0
LINE
  5
34F
330
1F
100
AcDbEntity
  8
0
  6
Continuous
 62
     7
370
    25
100
AcDbLine
 10
158.5128208011
 20
-70.1919056405
 30
0.0
 11
149.8540708011
 21
-70.1919056405
 31
0.0
  0
LINE
  5
350
330
1F
100
AcDbEntity
  8
0
  6
Continuous
 62
     7
370
    25
100
AcDbLine
 10
149.8540708011
 20
-70.1919056405
 30
0.0
 11
149.3128208011
 21
-70.7331556405
 31
0.0
  0
LINE
  5
351
330
1F
100
AcDbEntity
  8
0
  6
Continuous
 62
     7
370
    25
100
AcDbLine
 10
149.3128208011
 20
-75.6506556405
 30
0.0
 11
149.8540708011
 21
-76.1919056405
 31
0.0
  0
LINE
  5
352
330
1F
100
AcDbEntity
  8
0
  6
Continuous
 62
     7
370
    25
100
AcDbLine
 10
164.3128208011
 20
-68.1919056405
 30
0.0
 11
163.9833377053
 21
-67.6212241784
 31
0.0
  0
LINE
  5
353
330
1F
100
AcDbEntity
  8
0
  6
Continuous
 62
     7
370
    25
100
AcDbLine
 10
163.9833377053
 20
-78.7625871026
 30
0.0
 11
164.3128208011
 21
-78.1919056405
 31
0.0
  0
LINE
  5
354
330
1F
100
AcDbEntity
  8
0
  6
Continuous
 62
     7
370
    25
100
AcDbLine
 10
157.0128208011
 20
-96.3919056405
 30
0.0
 11
151.0128208011
 21
-96.3919056405
 31
0.0
  0
LINE
  5
355
330
1F
100
AcDbEntity
  8
0
  6
Continuous
 62
     7
370
    25
100
AcDbLine
 10
672.0128208011
 20
-96.3919056405
 30
0.0
 11
666.0128208011
 21
-96.3919056405
 31
0.0
  0
LINE
  5
356
330
1F
100
AcDbEntity
  8
0
  6
Continuous
 62
     7
370
    25
100
AcDbLine
 10
666.0128208011
 20
-96.3919056405
 30
0.0
 11
663.8407277778
 21
-96.3919056405
 31
0.0
  0
LINE
  5
357
330
1F
100
AcDbEntity
  8
0
  6
Continuous
 62
     7
370
    25
100
AcDbLine
 10
159.1849138243
 20
-96.3919056405
 30
0.0
 11
157.0128208011
 21
-96.3919056405
 31
0.0
  0
SPLINE
  5
358
330
1F
100
AcDbEntity
  8
0
  6
Continuous
 62
     7
370
    25
100
AcDbSpline
210
0.0
220
0.0
230
1.0
 70
    24
 71
     3
 72
     9
 73
     5
 74
     0
 42
0.000000001
 43
0.00000001
 40
0.0
 40
0.0
 40
0.0
 40
0.0
 40
0.5153941859533453
 40
1.0
 40
1.0
 40
1.0
 40
1.0
 10
663.7128208010604
 20
-67.51689564051635
 30
0.0
 10
663.7128208010604
 20
-67.47315379246265
 30
0.0
 10
663.7128208010604
 20
-67.38828312599834
 30
0.0
 10
663.7128208010605
 20
-67.41103956124162
 30
0.0
 10
663.7128208010605
 20
-67.4220674620675
 30
0.0
  0
SPLINE
  5
359
330
1F
100
AcDbEntity
  8
0
  6
Continuous
 62
     7
370
    25
100
AcDbSpline
210
0.0
220
0.0
230
1.0
 70
    24
 71
     3
 72
    17
 73
    13
 74
     0
 42
0.000000001
 43
0.00000001
 40
0.0
 40
0.0
 40
0.0
 40
0.0
 40
0.0359921626376355
 40
0.1205930661280437
 40
0.2034359252874578
 40
0.3573281084250902
 40
0.5112202915627204
 40
0.5940631507221373
 40
0.678664054212545
 40
0.7632649577029524
 40
0.8461078168623694
 40
1.0
 40
1.0
 40
1.0
 40
1.0
 10
662.7128208010604
 20
-67.42206746205657
 30
0.0
 10
662.7128208010604
 20
-67.4149160750153
 30
0.0
 10
662.7128208010604
 20
-67.39095508942357
 30
0.0
 10
662.7128208010604
 20
-67.60896001565919
 30
0.0
 10
662.7128208010604
 20
-68.18074711274633
 30
0.0
 10
662.7128208010604
 20
-69.37776368883658
 30
0.0
 10
662.7128208010604
 20
-71.02382044871369
 30
0.0
 10
662.7128208010604
 20
-72.5090108009275
 30
0.0
 10
662.7128208010604
 20
-73.70503892530172
 30
0.0
 10
662.7128208010603
 20
-74.87480433809115
 30
0.0
 10
662.7128208010604
 20
-76.29675151867494
 30
0.0
 10
662.7128208010604
 20
-77.1090187985351
 30
0.0
 10
662.7128208010604
 20
-77.63704195799664
 30
0.0
  0
SPLINE
  5
35A
330
1F
100
AcDbEntity
  8
0
  6
Continuous
 62
     7
370
    25
100
AcDbSpline
210
0.0
220
0.0
230
1.0
 70
     8
 71
     3
 72
     8
 73
     4
 74
     0
 42
0.000000001
 43
0.00000001
 40
0.0
 40
0.0
 40
0.0
 40
0.0
 40
1.0
 40
1.0
 40
1.0
 40
1.0
 10
658.7128208010674
 20
-74.90462646821902
 30
0.0
 10
658.7128208010674
 20
-75.8302980468393
 30
0.0
 10
658.8871361014468
 20
-76.73063439165861
 30
0.0
 10
659.1594027884588
 20
-77.6167343425678
 30
0.0
  0
SPLINE
  5
35B
330
1F
100
AcDbEntity
  8
0
  6
Continuous
 62
     7
370
    25
100
AcDbSpline
210
0.0
220
0.0
230
1.0
 70
     8
 71
     3
 72
     8
 73
     4
 74
     0
 42
0.000000001
 43
0.00000001
 40
0.0
 40
0.0
 40
0.0
 40
0.0
 40
1.0
 40
1.0
 40
1.0
 40
1.0
 10
659.1594027884587
 20
-72.19251859387033
 30
0.0
 10
658.8871361014474
 20
-73.07861854477784
 30
0.0
 10
658.7128208010674
 20
-73.97895488960049
 30
0.0
 10
658.7128208010674
 20
-74.90462646821902
 30
0.0
  0
LINE
  5
35C
330
1F
100
AcDbEntity
  8
0
  6
Continuous
 62
     7
370
    25
100
AcDbLine
 10
662.7128208011
 20
-72.1925185939
 30
0.0
 11
659.1594027885
 21
-72.1925185939
 31
0.0
  0
LINE
  5
35D
330
1F
100
AcDbEntity
  8
0
  6
Continuous
 62
     7
370
    25
100
AcDbLine
 10
662.7128208011
 20
-77.6167343426
 30
0.0
 11
659.1594027885
 21
-77.6167343426
 31
0.0
  0
SPLINE
  5
35E
330
1F
100
AcDbEntity
  8
0
  6
Continuous
 62
     7
370
    25
100
AcDbSpline
210
0.0
220
0.0
230
1.0
 70
     8
 71
     3
 72
     8
 73
     4
 74
     0
 42
0.000000001
 43
0.00000001
 40
0.0
 40
0.0
 40
0.0
 40
0.0
 40
1.0
 40
1.0
 40
1.0
 40
1.0
 10
658.7128208010676
 20
-69.98010424284203
 30
0.0
 10
658.7128208010676
 20
-70.73522504914995
 30
0.0
 10
658.887136101447
 20
-71.4696785230934
 30
0.0
 10
659.1594027884588
 20
-72.19251859386374
 30
0.0
  0
SPLINE
  5
35F
330
1F
100
AcDbEntity
  8
0
  6
Continuous
 62
     7
370
    25
100
AcDbSpline
210
0.0
220
0.0
230
1.0
 70
     8
 71
     3
 72
     8
 73
     4
 74
     0
 42
0.000000001
 43
0.00000001
 40
0.0
 40
0.0
 40
0.0
 40
0.0
 40
1.0
 40
1.0
 40
1.0
 40
1.0
 10
659.1594027884588
 20
-67.76768989182023
 30
0.0
 10
658.8871361014474
 20
-68.49052996258949
 30
0.0
 10
658.7128208010676
 20
-69.22498343653521
 30
0.0
 10
658.7128208010676
 20
-69.98010424284202
 30
0.0
  0
LINE
  5
360
330
1F
100
AcDbEntity
  8
0
  6
Continuous
 62
     7
370
    25
100
AcDbLine
 10
659.1594027885
 20
-67.7676898918
 30
0.0
 11
662.7128208011
 21
-67.7676898918
 31
0.0
  0
LINE
  5
361
330
1F
100
AcDbEntity
  8
0
  6
Continuous
 62
     7
370
    25
100
AcDbLine
 10
658.7128208011
 20
-69.9801042428
 30
0.0
 11
658.7128208011
 21
-74.9046264682
 31
0.0
  0
SPLINE
  5
362
330
1F
100
AcDbEntity
  8
0
  6
Continuous
 62
     7
370
    25
100
AcDbSpline
210
0.0
220
0.0
230
1.0
 70
     8
 71
     3
 72
     8
 73
     4
 74
     0
 42
0.000000001
 43
0.00000001
 40
0.0
 40
0.0
 40
0.0
 40
0.0
 40
1.0
 40
1.0
 40
1.0
 40
1.0
 10
659.1594027884588
 20
-77.61673434257222
 30
0.0
 10
658.8871361014475
 20
-77.77999422271061
 30
0.0
 10
658.7128208010676
 20
-77.94587709358704
 30
0.0
 10
658.7128208010676
 20
-78.11642786589893
 30
0.0
  0
LINE
  5
363
330
1F
100
AcDbEntity
  8
0
  6
Continuous
 62
     7
370
    25
100
AcDbLine
 10
658.7128208011
 20
-74.9046264682
 30
0.0
 11
658.7128208011
 21
-78.1164278659
 31
0.0
  0
SPLINE
  5
364
330
1F
100
AcDbEntity
  8
0
  6
Continuous
 62
     7
370
    25
100
AcDbSpline
210
0.0
220
0.0
230
1.0
 70
     8
 71
     3
 72
     8
 73
     4
 74
     0
 42
0.000000001
 43
0.00000001
 40
0.0
 40
0.0
 40
0.0
 40
0.0
 40
1.0
 40
1.0
 40
1.0
 40
1.0
 10
658.7128208010676
 20
-68.26738341514462
 30
0.0
 10
658.7128208010676
 20
-68.09683264283233
 30
0.0
 10
658.8871361014468
 20
-67.93094977195673
 30
0.0
 10
659.1594027884588
 20
-67.76768989181792
 30
0.0
  0
LINE
  5
365
330
1F
100
AcDbEntity
  8
0
  6
Continuous
 62
     7
370
    25
100
AcDbLine
 10
658.7128208011
 20
-69.9801042428
 30
0.0
 11
658.7128208011
 21
-68.1965436748
 31
0.0
  0
SPLINE
  5
366
330
1F
100
AcDbEntity
  8
0
  6
Continuous
 62
     7
370
    25
100
AcDbSpline
210
0.0
220
0.0
230
1.0
 70
     8
 71
     3
 72
     8
 73
     4
 74
     0
 42
0.000000001
 43
0.00000001
 40
0.0
 40
0.0
 40
0.0
 40
0.0
 40
1.0
 40
1.0
 40
1.0
 40
1.0
 10
658.7128208010676
 20
-78.11642786589893
 30
0.0
 10
658.7128208010676
 20
-78.28697863821111
 30
0.0
 10
658.887136101447
 20
-78.45286150908692
 30
0.0
 10
659.1594027884588
 20
-78.61612138922563
 30
0.0
  0
LINE
  5
367
330
1F
100
AcDbEntity
  8
0
  6
Continuous
 62
     7
370
    25
100
AcDbLine
 10
662.7128208011
 20
-78.6161213892
 30
0.0
 11
659.1594027885
 21
-78.6161213892
 31
0.0
  0
LINE
  5
368
330
1F
100
AcDbEntity
  8
0
  6
Continuous
 62
     7
370
    25
100
AcDbLine
 10
673.7128208011
 20
-75.6506556405
 30
0.0
 11
673.7128208011
 21
-70.7331556405
 31
0.0
  0
LINE
  5
369
330
1F
100
AcDbEntity
  8
0
  6
Continuous
 62
     7
370
    25
100
AcDbLine
 10
673.1715708011
 20
-71.2648248019
 30
0.0
 11
673.1715708011
 21
-70.1919056405
 31
0.0
  0
LINE
  5
36A
330
1F
100
AcDbEntity
  8
0
  6
Continuous
 62
     7
370
    25
100
AcDbLine
 10
673.1715708011
 20
-76.1919056405
 30
0.0
 11
673.1715708011
 21
-71.2648248019
 31
0.0
  0
ARC
  5
36B
330
1F
100
AcDbEntity
  8
0
  6
Continuous
 62
     7
370
    25
100
AcDbCircle
 10
666.0128208011
 20
-95.7919056405
 30
0.0
 40
3.000000000000039
100
AcDbArc
 50
227.6305369016
 51
270.0
  0
LINE
  5
36C
330
1F
100
AcDbEntity
  8
0
  6
Continuous
 62
     7
370
    25
100
AcDbLine
 10
678.0128208011
 20
-98.7919056405
 30
0.0
 11
666.0128208011
 21
-98.7919056405
 31
0.0
  0
ARC
  5
36D
330
1F
100
AcDbEntity
  8
0
  6
Continuous
 62
     7
370
    25
100
AcDbCircle
 10
678.0128208011
 20
-95.7919056405
 30
0.0
 40
3.000000000000114
100
AcDbArc
 50
270.0
 51
0.0
  0
LINE
  5
36E
330
1F
100
AcDbEntity
  8
0
  6
Continuous
 62
     7
370
    25
100
AcDbLine
 10
681.0128208011
 20
-94.7919056405
 30
0.0
 11
681.0128208011
 21
-95.7919056405
 31
0.0
  0
ARC
  5
36F
330
1F
100
AcDbEntity
  8
0
  6
Continuous
 62
     7
370
    25
100
AcDbCircle
 10
684.0128208011
 20
-94.7919056405
 30
0.0
 40
3.000000000000114
100
AcDbArc
 50
90.0
 51
180.0
  0
LINE
  5
370
330
1F
100
AcDbEntity
  8
0
  6
Continuous
 62
     7
370
    25
100
AcDbLine
 10
707.5421101229
 20
-91.7919056405
 30
0.0
 11
684.0128208011
 21
-91.7919056405
 31
0.0
  0
LINE
  5
371
330
1F
100
AcDbEntity
  8
0
  6
Continuous
 62
     7
370
    25
100
AcDbLine
 10
707.5421101229
 20
-101.3919056405
 30
0.0
 11
707.5421101229
 21
-91.7919056405
 31
0.0
  0
LINE
  5
372
330
1F
100
AcDbEntity
  8
0
  6
Continuous
 62
     7
370
    25
100
AcDbLine
 10
115.4835314792
 20
-101.3919056405
 30
0.0
 11
115.4835314792
 21
-91.7919056405
 31
0.0
  0
LINE
  5
373
330
1F
100
AcDbEntity
  8
0
  6
Continuous
 62
     7
370
    25
100
AcDbLine
 10
139.0128208011
 20
-91.7919056405
 30
0.0
 11
115.4835314792
 21
-91.7919056405
 31
0.0
  0
ARC
  5
374
330
1F
100
AcDbEntity
  8
0
  6
Continuous
 62
     7
370
    25
100
AcDbCircle
 10
139.0128208011
 20
-94.7919056405
 30
0.0
 40
3.000000000000057
100
AcDbArc
 50
0.0
 51
90.0
  0
LINE
  5
375
330
1F
100
AcDbEntity
  8
0
  6
Continuous
 62
     7
370
    25
100
AcDbLine
 10
142.0128208011
 20
-94.7919056405
 30
0.0
 11
142.0128208011
 21
-95.7919056405
 31
0.0
  0
ARC
  5
376
330
1F
100
AcDbEntity
  8
0
  6
Continuous
 62
     7
370
    25
100
AcDbCircle
 10
145.0128208011
 20
-95.7919056405
 30
0.0
 40
3.000000000000057
100
AcDbArc
 50
180.0
 51
270.0
  0
LINE
  5
377
330
1F
100
AcDbEntity
  8
0
  6
Continuous
 62
     7
370
    25
100
AcDbLine
 10
145.0128208011
 20
-98.7919056405
 30
0.0
 11
157.0128208011
 21
-98.7919056405
 31
0.0
  0
ARC
  5
378
330
1F
100
AcDbEntity
  8
0
  6
Continuous
 62
     7
370
    25
100
AcDbCircle
 10
157.0128208011
 20
-95.7919056405
 30
0.0
 40
3.000000000000047
100
AcDbArc
 50
270.0
 51
312.3694630984
  0
SPLINE
  5
379
330
1F
100
AcDbEntity
  8
0
  6
Continuous
 62
     7
370
    25
100
AcDbSpline
210
0.0
220
0.0
230
1.0
 70
     8
 71
     3
 72
    20
 73
    16
 74
     0
 42
0.000000001
 43
0.00000001
 40
0.0
 40
0.0
 40
0.0
 40
0.0
 40
0.1250000000000054
 40
0.1250000000000054
 40
0.2500000000000108
 40
0.2500000000000108
 40
0.3750000000000162
 40
0.3750000000000162
 40
0.5000000000000215
 40
0.5000000000000215
 40
0.7500000000000027
 40
0.7500000000000027
 40
0.8750000000000012
 40
0.8750000000000012
 40
1.0
 40
1.0
 40
1.0
 40
1.0
 10
116.4128208010614
 20
-103.7919056405163
 30
0.0
 10
116.3737800702068
 20
-103.7919056405163
 30
0.0
 10
116.3352613660071
 20
-103.7763690800415
 30
0.0
 10
116.2578546146991
 20
-103.7150507280809
 30
0.0
 10
116.2187101967125
 20
-103.6686269824941
 30
0.0
 10
116.1415594427973
 20
-103.5486761123399
 30
0.0
 10
116.1032318610562
 20
-103.4750714680565
 30
0.0
 10
116.0256855405797
 20
-103.3003411019609
 30
0.0
 10
115.986709332911
 20
-103.1994904730594
 30
0.0
 10
115.8712144764662
 20
-102.8682051930754
 30
0.0
 10
115.7933020327959
 20
-102.6005250316915
 30
0.0
 10
115.677822107395
 20
-102.1678510056361
 30
0.0
 10
115.6389563115299
 20
-102.016332918785
 30
0.0
 10
115.5611819778615
 20
-101.7069071613989
 30
0.0
 10
115.5225722109067
 20
-101.5502848317051
 30
0.0
 10
115.4835314791801
 20
-101.3919056405164
 30
0.0
  0
SPLINE
  5
37A
330
1F
100
AcDbEntity
  8
0
  6
Continuous
 62
     7
370
    25
100
AcDbSpline
210
0.0
220
0.0
230
1.0
 70
     8
 71
     3
 72
    20
 73
    16
 74
     0
 42
0.000000001
 43
0.00000001
 40
0.0
 40
0.0
 40
0.0
 40
0.0
 40
0.1250000000000011
 40
0.1250000000000011
 40
0.2500000000000024
 40
0.2500000000000024
 40
0.3750000000000038
 40
0.3750000000000038
 40
0.500000000000005
 40
0.500000000000005
 40
0.7499999999999972
 40
0.7499999999999972
 40
0.8749999999999987
 40
0.8749999999999987
 40
1.0
 40
1.0
 40
1.0
 40
1.0
 10
707.5421101229427
 20
-101.3919056405164
 30
0.0
 10
707.5030693920883
 20
-101.5502848281671
 30
0.0
 10
707.4645506878885
 20
-101.7065305528587
 30
0.0
 10
707.3871439365805
 20
-102.0145224022753
 30
0.0
 10
707.3479995185938
 20
-102.1671665097465
 30
0.0
 10
707.2708487646786
 20
-102.4562507989336
 30
0.0
 10
707.2325211829377
 20
-102.5940553371176
 30
0.0
 10
707.154974862461
 20
-102.8556740127565
 30
0.0
 10
707.1159986547925
 20
-102.9784203194392
 30
0.0
 10
707.0005037983476
 20
-103.3097446963869
 30
0.0
 10
706.9225913546773
 20
-103.4887558204151
 30
0.0
 10
706.8071114292765
 20
-103.668370919796
 30
0.0
 10
706.7682456334114
 20
-103.7146152686637
 30
0.0
 10
706.6904712997429
 20
-103.7763685746749
 30
0.0
 10
706.6518615327882
 20
-103.7919056405163
 30
0.0
 10
706.6128208010614
 20
-103.7919056405163
 30
0.0
  0
LINE
  5
37B
330
1F
100
AcDbEntity
  8
0
  6
Continuous
 62
     7
370
    25
100
AcDbLine
 10
706.6128208011
 20
-103.7919056405
 30
0.0
 11
116.4128208011
 21
-103.7919056405
 31
0.0
  0
SPLINE
  5
37C
330
1F
100
AcDbEntity
  8
0
  6
Continuous
 62
     7
370
    25
100
AcDbSpline
210
0.0
220
0.0
230
1.0
 70
     8
 71
     3
 72
    20
 73
    16
 74
     0
 42
0.000000001
 43
0.00000001
 40
0.0
 40
0.0
 40
0.0
 40
0.0
 40
0.125000000000002
 40
0.125000000000002
 40
0.2500000000000039
 40
0.2500000000000039
 40
0.3750000000000059
 40
0.3750000000000059
 40
0.5000000000000079
 40
0.5000000000000079
 40
0.7500000000000118
 40
0.7500000000000118
 40
0.8750000000000059
 40
0.8750000000000059
 40
1.0
 40
1.0
 40
1.0
 40
1.0
 10
706.6128208010614
 20
-103.7919056405163
 30
0.0
 10
706.7711999887122
 20
-103.7919056405163
 30
0.0
 10
706.9274457134038
 20
-103.7763690800415
 30
0.0
 10
707.2354375628205
 20
-103.7150507280809
 30
0.0
 10
707.3880816702915
 20
-103.6686269824941
 30
0.0
 10
707.6771659594787
 20
-103.54867611234
 30
0.0
 10
707.8149704976627
 20
-103.4750714680566
 30
0.0
 10
708.0765891733016
 20
-103.3003411019609
 30
0.0
 10
708.199335479984
 20
-103.1994904730594
 30
0.0
 10
708.5306598569318
 20
-102.8682051930754
 30
0.0
 10
708.7096709809601
 20
-102.6005250316915
 30
0.0
 10
708.8892860803411
 20
-102.1678510056361
 30
0.0
 10
708.9355304292088
 20
-102.016332918785
 30
0.0
 10
708.9972837352201
 20
-101.7069071613989
 30
0.0
 10
709.0128208010614
 20
-101.5502848317051
 30
0.0
 10
709.0128208010615
 20
-101.3919056405164
 30
0.0
  0
SPLINE
  5
37D
330
1F
100
AcDbEntity
  8
0
  6
Continuous
 62
     7
370
    25
100
AcDbSpline
210
0.0
220
0.0
230
1.0
 70
     8
 71
     3
 72
     9
 73
     5
 74
     0
 42
0.000000001
 43
0.00000001
 40
0.0
 40
0.0
 40
0.0
 40
0.0
 40
0.4825784287291851
 40
1.0
 40
1.0
 40
1.0
 40
1.0
 10
707.3889910330078
 20
-102.0044453796943
 30
0.0
 10
707.4527992260693
 20
-101.916311038378
 30
0.0
 10
707.5850226933085
 20
-101.733678877325
 30
0.0
 10
707.603341997765
 20
-101.5084459932805
 30
0.0
 10
707.6128208010615
 20
-101.3919056405164
 30
0.0
  0
LINE
  5
37E
330
1F
100
AcDbEntity
  8
0
  6
Continuous
 62
     7
370
    25
100
AcDbLine
 10
709.0128208011
 20
-101.3919056405
 30
0.0
 11
707.6128208011
 21
-101.3919056405
 31
0.0
  0
SPLINE
  5
37F
330
1F
100
AcDbEntity
  8
0
  6
Continuous
 62
     7
370
    25
100
AcDbSpline
210
0.0
220
0.0
230
1.0
 70
     8
 71
     3
 72
    20
 73
    16
 74
     0
 42
0.000000001
 43
0.00000001
 40
0.0
 40
0.0
 40
0.0
 40
0.0
 40
0.1249999999999973
 40
0.1249999999999973
 40
0.2499999999999947
 40
0.2499999999999947
 40
0.374999999999992
 40
0.374999999999992
 40
0.4999999999999895
 40
0.4999999999999895
 40
0.7499999999999947
 40
0.7499999999999947
 40
0.8749999999999973
 40
0.8749999999999973
 40
1.0
 40
1.0
 40
1.0
 40
1.0
 10
114.0128208010615
 20
-101.3919056405164
 30
0.0
 10
114.0128208010614
 20
-101.5502848281671
 30
0.0
 10
114.0283573615364
 20
-101.7065305528587
 30
0.0
 10
114.0896757134969
 20
-102.0145224022753
 30
0.0
 10
114.1360994590836
 20
-102.1671665097465
 30
0.0
 10
114.2560503292377
 20
-102.4562507989336
 30
0.0
 10
114.3296549735213
 20
-102.5940553371176
 30
0.0
 10
114.504385339617
 20
-102.8556740127565
 30
0.0
 10
114.6052359685184
 20
-102.9784203194392
 30
0.0
 10
114.9365212485023
 20
-103.3097446963869
 30
0.0
 10
115.2042014098865
 20
-103.4887558204151
 30
0.0
 10
115.6368754359417
 20
-103.668370919796
 30
0.0
 10
115.7883935227928
 20
-103.7146152686637
 30
0.0
 10
116.097819280179
 20
-103.7763685746749
 30
0.0
 10
116.2544416098727
 20
-103.7919056405163
 30
0.0
 10
116.4128208010615
 20
-103.7919056405163
 30
0.0
  0
LINE
  5
380
330
1F
100
AcDbEntity
  8
0
  6
Continuous
 62
     7
370
    25
100
AcDbLine
 10
114.0128208011
 20
-101.3919056405
 30
0.0
 11
115.4128208011
 21
-101.3919056405
 31
0.0
  0
SPLINE
  5
381
330
1F
100
AcDbEntity
  8
0
  6
Continuous
 62
     7
370
    25
100
AcDbSpline
210
0.0
220
0.0
230
1.0
 70
     8
 71
     3
 72
     9
 73
     5
 74
     0
 42
0.000000001
 43
0.00000001
 40
0.0
 40
0.0
 40
0.0
 40
0.0
 40
0.6784508005726477
 40
1.0
 40
1.0
 40
1.0
 40
1.0
 10
115.4128208010615
 20
-101.3919056405164
 30
0.0
 10
115.426070371526
 20
-101.5426128449697
 30
0.0
 10
115.4455995259662
 20
-101.7647471608642
 30
0.0
 10
115.586447179605
 20
-101.9315802657534
 30
0.0
 10
115.6317366298739
 20
-101.9852253170685
 30
0.0
  0
LINE
  5
382
330
1F
100
AcDbEntity
  8
0
  6
Continuous
 62
     7
370
    25
100
AcDbLine
 10
709.0128208011
 20
-101.3919056405
 30
0.0
 11
709.0128208011
 21
-91.7919056405
 31
0.0
  0
LINE
  5
383
330
1F
100
AcDbEntity
  8
0
  6
Continuous
 62
     7
370
    25
100
AcDbLine
 10
707.6128208011
 20
-101.3919056405
 30
0.0
 11
707.6128208011
 21
-91.7919056405
 31
0.0
  0
LINE
  5
384
330
1F
100
AcDbEntity
  8
0
  6
Continuous
 62
     7
370
    25
100
AcDbLine
 10
709.0128208011
 20
-91.7919056405
 30
0.0
 11
707.6128208011
 21
-91.7919056405
 31
0.0
  0
LINE
  5
385
330
1F
100
AcDbEntity
  8
0
  6
Continuous
 62
     7
370
    25
100
AcDbLine
 10
115.4128208011
 20
-101.3919056405
 30
0.0
 11
115.4128208011
 21
-91.7919056405
 31
0.0
  0
LINE
  5
386
330
1F
100
AcDbEntity
  8
0
  6
Continuous
 62
     7
370
    25
100
AcDbLine
 10
114.0128208011
 20
-101.3919056405
 30
0.0
 11
114.0128208011
 21
-91.7919056405
 31
0.0
  0
LINE
  5
387
330
1F
100
AcDbEntity
  8
0
  6
Continuous
 62
     7
370
    25
100
AcDbLine
 10
114.0128208011
 20
-91.7919056405
 30
0.0
 11
115.4128208011
 21
-91.7919056405
 31
0.0
  0
LINE
  5
388
330
1F
100
AcDbEntity
  8
0
  6
Continuous
 62
     7
370
    25
100
AcDbLine
 10
158.5128208011
 20
-64.6919056405
 30
0.0
 11
159.3128208011
 21
-64.6919056405
 31
0.0
  0
LINE
  5
389
330
1F
100
AcDbEntity
  8
0
  6
Continuous
 62
     7
370
    25
100
AcDbLine
 10
159.3128208011
 20
-64.6919056405
 30
0.0
 11
159.3128208011
 21
-67.6919056405
 31
0.0
  0
LINE
  5
38A
330
1F
100
AcDbEntity
  8
0
  6
Continuous
 62
     7
370
    25
100
AcDbLine
 10
158.5128208011
 20
-67.6919056405
 30
0.0
 11
158.5128208011
 21
-64.6919056405
 31
0.0
  0
LINE
  5
38B
330
1F
100
AcDbEntity
  8
0
  6
Continuous
 62
     7
370
    25
100
AcDbLine
 10
159.3128208011
 20
-84.6919056405
 30
0.0
 11
159.3128208011
 21
-67.6919056405
 31
0.0
  0
LINE
  5
38C
330
1F
100
AcDbEntity
  8
0
  6
Continuous
 62
     7
370
    25
100
AcDbLine
 10
158.5128208011
 20
-84.6919056405
 30
0.0
 11
158.5128208011
 21
-67.6919056405
 31
0.0
  0
LINE
  5
38D
330
1F
100
AcDbEntity
  8
0
  6
Continuous
 62
     7
370
    25
100
AcDbLine
 10
663.7128208011
 20
-64.6919056405
 30
0.0
 11
664.5128208011
 21
-64.6919056405
 31
0.0
  0
LINE
  5
38E
330
1F
100
AcDbEntity
  8
0
  6
Continuous
 62
     7
370
    25
100
AcDbLine
 10
664.5128208011
 20
-64.6919056405
 30
0.0
 11
664.5128208011
 21
-67.6919056405
 31
0.0
  0
LINE
  5
38F
330
1F
100
AcDbEntity
  8
0
  6
Continuous
 62
     7
370
    25
100
AcDbLine
 10
663.7128208011
 20
-67.6919056405
 30
0.0
 11
663.7128208011
 21
-64.6919056405
 31
0.0
  0
LINE
  5
390
330
1F
100
AcDbEntity
  8
0
  6
Continuous
 62
     7
370
    25
100
AcDbLine
 10
664.5128208011
 20
-67.6919056405
 30
0.0
 11
664.5128208011
 21
-84.6919056405
 31
0.0
  0
LINE
  5
391
330
1F
100
AcDbEntity
  8
0
  6
Continuous
 62
     7
370
    25
100
AcDbLine
 10
663.7128208011
 20
-67.6919056405
 30
0.0
 11
663.7128208011
 21
-84.6919056405
 31
0.0
  0
LINE
  5
392
330
1F
100
AcDbEntity
  8
0
  6
Continuous
 62
     7
370
    25
100
AcDbLine
 10
664.5128208011
 20
-87.6919056405
 30
0.0
 11
663.7128208011
 21
-87.6919056405
 31
0.0
  0
LINE
  5
393
330
1F
100
AcDbEntity
  8
0
  6
Continuous
 62
     7
370
    25
100
AcDbLine
 10
664.5128208011
 20
-84.6919056405
 30
0.0
 11
664.5128208011
 21
-87.6919056405
 31
0.0
  0
LINE
  5
394
330
1F
100
AcDbEntity
  8
0
  6
Continuous
 62
     7
370
    25
100
AcDbLine
 10
663.7128208011
 20
-87.6919056405
 30
0.0
 11
663.7128208011
 21
-84.6919056405
 31
0.0
  0
LINE
  5
395
330
1F
100
AcDbEntity
  8
0
  6
Continuous
 62
     7
370
    25
100
AcDbLine
 10
159.3128208011
 20
-87.6919056405
 30
0.0
 11
158.5128208011
 21
-87.6919056405
 31
0.0
  0
LINE
  5
396
330
1F
100
AcDbEntity
  8
0
  6
Continuous
 62
     7
370
    25
100
AcDbLine
 10
158.5128208011
 20
-87.6919056405
 30
0.0
 11
158.5128208011
 21
-84.6919056405
 31
0.0
  0
LINE
  5
397
330
1F
100
AcDbEntity
  8
0
  6
Continuous
 62
     7
370
    25
100
AcDbLine
 10
159.3128208011
 20
-84.6919056405
 30
0.0
 11
159.3128208011
 21
-87.6919056405
 31
0.0
  0
LINE
  5
398
330
1F
100
AcDbEntity
  8
0
  6
Continuous
 62
     7
370
    25
100
AcDbLine
 10
661.5128208011
 20
-85.6919056405
 30
0.0
 11
661.5128208011
 21
-84.8919056405
 31
0.0
  0
LINE
  5
399
330
1F
100
AcDbEntity
  8
0
  6
Continuous
 62
     7
370
    25
100
AcDbLine
 10
161.5128208011
 20
-85.6919056405
 30
0.0
 11
161.5128208011
 21
-84.8919056405
 31
0.0
  0
LINE
  5
39A
330
1F
100
AcDbEntity
  8
0
  6
Continuous
 62
     7
370
    25
100
AcDbLine
 10
661.5128208011
 20
-84.8919056405
 30
0.0
 11
161.5128208011
 21
-84.8919056405
 31
0.0
  0
LINE
  5
39B
330
1F
100
AcDbEntity
  8
0
  6
Continuous
 62
     7
370
    25
100
AcDbLine
 10
457.0128208011
 20
-44.7872922487
 30
0.0
 11
457.0128208011
 21
-51.3049837024
 31
0.0
  0
ARC
  5
39C
330
1F
100
AcDbEntity
  8
0
  6
Continuous
 62
     7
370
    25
100
AcDbCircle
 10
460.0128208011
 20
-44.7872922487
 30
0.0
 40
3.0
100
AcDbArc
 50
90.0
 51
180.0
  0
LINE
  5
39D
330
1F
100
AcDbEntity
  8
0
  6
Continuous
 62
     7
370
    25
100
AcDbLine
 10
604.0128208011
 20
-41.7872922487
 30
0.0
 11
460.0128208011
 21
-41.7872922487
 31
0.0
  0
ARC
  5
39E
330
1F
100
AcDbEntity
  8
0
  6
Continuous
 62
     7
370
    25
100
AcDbCircle
 10
604.0128208011
 20
-44.7872922487
 30
0.0
 40
2.999999999999993
100
AcDbArc
 50
0.0
 51
90.0
  0
LINE
  5
39F
330
1F
100
AcDbEntity
  8
0
  6
Continuous
 62
     7
370
    25
100
AcDbLine
 10
607.0128208011
 20
-51.3049837024
 30
0.0
 11
607.0128208011
 21
-44.7872922487
 31
0.0
  0
ARC
  5
3A0
330
1F
100
AcDbEntity
  8
0
  6
Continuous
 62
     7
370
    25
100
AcDbCircle
 10
219.0128208011
 20
-44.7872922487
 30
0.0
 40
3.0
100
AcDbArc
 50
90.0
 51
180.0
  0
LINE
  5
3A1
330
1F
100
AcDbEntity
  8
0
  6
Continuous
 62
     7
370
    25
100
AcDbLine
 10
363.0128208011
 20
-41.7872922487
 30
0.0
 11
219.0128208011
 21
-41.7872922487
 31
0.0
  0
LINE
  5
3A2
330
1F
100
AcDbEntity
  8
0
  6
Continuous
 62
     7
370
    25
100
AcDbLine
 10
366.0128208011
 20
-51.3049837024
 30
0.0
 11
366.0128208011
 21
-44.7872922487
 31
0.0
  0
ARC
  5
3A3
330
1F
100
AcDbEntity
  8
0
  6
Continuous
 62
     7
370
    25
100
AcDbCircle
 10
363.0128208011
 20
-44.7872922487
 30
0.0
 40
3.0
100
AcDbArc
 50
0.0
 51
90.0
  0
LINE
  5
3A4
330
1F
100
AcDbEntity
  8
0
  6
Continuous
 62
     7
370
    25
100
AcDbLine
 10
216.0128208011
 20
-44.7872922487
 30
0.0
 11
216.0128208011
 21
-51.3049837024
 31
0.0
  0
LINE
  5
3A5
330
1F
100
AcDbEntity
  8
0
  6
Continuous
 62
     7
370
    25
100
AcDbLine
 10
216.0128208011
 20
-52.2049837024
 30
0.0
 11
216.0128208011
 21
-51.3049837024
 31
0.0
  0
LINE
  5
3A6
330
1F
100
AcDbEntity
  8
0
  6
Continuous
 62
     7
370
    25
100
AcDbLine
 10
366.0128208011
 20
-51.3049837024
 30
0.0
 11
366.0128208011
 21
-52.2049837024
 31
0.0
  0
LINE
  5
3A7
330
1F
100
AcDbEntity
  8
0
  6
Continuous
 62
     7
370
    25
100
AcDbLine
 10
457.0128208011
 20
-52.2049837024
 30
0.0
 11
457.0128208011
 21
-51.3049837024
 31
0.0
  0
LINE
  5
3A8
330
1F
100
AcDbEntity
  8
0
  6
Continuous
 62
     7
370
    25
100
AcDbLine
 10
607.0128208011
 20
-51.3049837024
 30
0.0
 11
607.0128208011
 21
-52.2049837024
 31
0.0
  0
LINE
  5
3A9
330
1F
100
AcDbEntity
  8
0
  6
Continuous
 62
     7
370
    25
100
AcDbLine
 10
216.0128208011
 20
-58.8298548329
 30
0.0
 11
216.0128208011
 21
-52.2049837024
 31
0.0
  0
LINE
  5
3AA
330
1F
100
AcDbEntity
  8
0
  6
Continuous
 62
     7
370
    25
100
AcDbLine
 10
366.0128208011
 20
-52.2049837024
 30
0.0
 11
366.0128208011
 21
-58.8298548329
 31
0.0
  0
LINE
  5
3AB
330
1F
100
AcDbEntity
  8
0
  6
Continuous
 62
     7
370
    25
100
AcDbLine
 10
457.0128208011
 20
-58.8298548329
 30
0.0
 11
457.0128208011
 21
-52.2049837024
 31
0.0
  0
LINE
  5
3AC
330
1F
100
AcDbEntity
  8
0
  6
Continuous
 62
     7
370
    25
100
AcDbLine
 10
607.0128208011
 20
-52.2049837024
 30
0.0
 11
607.0128208011
 21
-58.8298548329
 31
0.0
  0
LINE
  5
3AD
330
1F
100
AcDbEntity
  8
0
  6
Continuous
 62
     7
370
    25
100
AcDbLine
 10
663.7128208011
 20
-64.6919056405
 30
0.0
 11
662.7128208011
 21
-64.6919056405
 31
0.0
  0
LINE
  5
3AE
330
1F
100
AcDbEntity
  8
0
  6
Continuous
 62
     7
370
    25
100
AcDbLine
 10
662.7128208011
 20
-83.6919056405
 30
0.0
 11
663.7128208011
 21
-83.6919056405
 31
0.0
  0
LINE
  5
3AF
330
1F
100
AcDbEntity
  8
0
  6
Continuous
 62
     7
370
    25
100
AcDbLine
 10
159.3128208011
 20
-83.6919056405
 30
0.0
 11
160.3128208011
 21
-83.6919056405
 31
0.0
  0
LINE
  5
3B0
330
1F
100
AcDbEntity
  8
0
  6
Continuous
 62
     7
370
    25
100
AcDbLine
 10
160.3128208011
 20
-64.6919056405
 30
0.0
 11
159.3128208011
 21
-64.6919056405
 31
0.0
  0
LINE
  5
3B1
330
1F
100
AcDbEntity
  8
0
  6
Continuous
 62
     7
370
    25
100
AcDbLine
 10
661.5128208011
 20
-84.8919056405
 30
0.0
 11
661.5128208011
 21
-83.8919056405
 31
0.0
  0
LINE
  5
3B2
330
1F
100
AcDbEntity
  8
0
  6
Continuous
 62
     7
370
    25
100
AcDbLine
 10
161.5128208011
 20
-83.8919056405
 30
0.0
 11
161.5128208011
 21
-84.8919056405
 31
0.0
  0
LINE
  5
3B3
330
1F
100
AcDbEntity
  8
0
  6
Continuous
 62
     7
370
    25
100
AcDbLine
 10
457.0128208011
 20
-58.8298548329
 30
0.0
 11
457.0128208011
 21
-59.3298548329
 31
0.0
  0
LINE
  5
3B4
330
1F
100
AcDbEntity
  8
0
  6
Continuous
 62
     7
370
    25
100
AcDbLine
 10
607.0128208011
 20
-59.3298548329
 30
0.0
 11
607.0128208011
 21
-58.8298548329
 31
0.0
  0
LINE
  5
3B5
330
1F
100
AcDbEntity
  8
0
  6
Continuous
 62
     7
370
    25
100
AcDbLine
 10
366.0128208011
 20
-59.3298548329
 30
0.0
 11
366.0128208011
 21
-58.8298548329
 31
0.0
  0
LINE
  5
3B6
330
1F
100
AcDbEntity
  8
0
  6
Continuous
 62
     7
370
    25
100
AcDbLine
 10
216.0128208011
 20
-58.8298548329
 30
0.0
 11
216.0128208011
 21
-59.3298548329
 31
0.0
  0
LINE
  5
3B7
330
1F
100
AcDbEntity
  8
0
  6
Continuous
 62
     7
370
    25
100
AcDbLine
 10
161.5128208011
 20
-83.6919056405
 30
0.0
 11
161.5128208011
 21
-83.8919056405
 31
0.0
  0
LINE
  5
3B8
330
1F
100
AcDbEntity
  8
0
  6
Continuous
 62
     7
370
    25
100
AcDbLine
 10
160.3128208011
 20
-83.6919056405
 30
0.0
 11
161.5128208011
 21
-83.6919056405
 31
0.0
  0
LINE
  5
3B9
330
1F
100
AcDbEntity
  8
0
  6
Continuous
 62
     7
370
    25
100
AcDbLine
 10
163.5128208011
 20
-64.6919056405
 30
0.0
 11
160.3128208011
 21
-64.6919056405
 31
0.0
  0
LINE
  5
3BA
330
1F
100
AcDbEntity
  8
0
  6
Continuous
 62
     7
370
    25
100
AcDbLine
 10
163.5128208011
 20
-43.6919056405
 30
0.0
 11
163.5128208011
 21
-64.6919056405
 31
0.0
  0
ARC
  5
3BB
330
1F
100
AcDbEntity
  8
0
  6
Continuous
 62
     7
370
    25
100
AcDbCircle
 10
166.5128208011
 20
-43.6919056405
 30
0.0
 40
3.000000000000028
100
AcDbArc
 50
90.0
 51
180.0
  0
LINE
  5
3BC
330
1F
100
AcDbEntity
  8
0
  6
Continuous
 62
     7
370
    25
100
AcDbLine
 10
210.5128208011
 20
-40.6919056405
 30
0.0
 11
166.5128208011
 21
-40.6919056405
 31
0.0
  0
ARC
  5
3BD
330
1F
100
AcDbEntity
  8
0
  6
Continuous
 62
     7
370
    25
100
AcDbCircle
 10
210.5128208011
 20
-43.6919056405
 30
0.0
 40
3.000000000000007
100
AcDbArc
 50
0.0
 51
90.0
  0
LINE
  5
3BE
330
1F
100
AcDbEntity
  8
0
  6
Continuous
 62
     7
370
    25
100
AcDbLine
 10
213.5128208011
 20
-43.6919056405
 30
0.0
 11
213.5128208011
 21
-59.8219056405
 31
0.0
  0
LINE
  5
3BF
330
1F
100
AcDbEntity
  8
0
  6
Continuous
 62
     7
370
    25
100
AcDbLine
 10
213.5128208011
 20
-59.8219056405
 30
0.0
 11
216.0128208011
 21
-59.8219056405
 31
0.0
  0
LINE
  5
3C0
330
1F
100
AcDbEntity
  8
0
  6
Continuous
 62
     7
370
    25
100
AcDbLine
 10
216.0128208011
 20
-59.3298548329
 30
0.0
 11
216.0128208011
 21
-59.8219056405
 31
0.0
  0
LINE
  5
3C1
330
1F
100
AcDbEntity
  8
0
  6
Continuous
 62
     7
370
    25
100
AcDbLine
 10
366.0128208011
 20
-59.3298548329
 30
0.0
 11
366.0128208011
 21
-59.8219056405
 31
0.0
  0
LINE
  5
3C2
330
1F
100
AcDbEntity
  8
0
  6
Continuous
 62
     7
370
    25
100
AcDbLine
 10
366.0128208011
 20
-59.8219056405
 30
0.0
 11
368.5128208011
 21
-59.8219056405
 31
0.0
  0
LINE
  5
3C3
330
1F
100
AcDbEntity
  8
0
  6
Continuous
 62
     7
370
    25
100
AcDbLine
 10
368.5128208011
 20
-59.8219056405
 30
0.0
 11
368.5128208011
 21
-43.6919056405
 31
0.0
  0
ARC
  5
3C4
330
1F
100
AcDbEntity
  8
0
  6
Continuous
 62
     7
370
    25
100
AcDbCircle
 10
371.5128208011
 20
-43.6919056405
 30
0.0
 40
3.0
100
AcDbArc
 50
90.0
 51
180.0
  0
LINE
  5
3C5
330
1F
100
AcDbEntity
  8
0
  6
Continuous
 62
     7
370
    25
100
AcDbLine
 10
451.5128208011
 20
-40.6919056405
 30
0.0
 11
371.5128208011
 21
-40.6919056405
 31
0.0
  0
ARC
  5
3C6
330
1F
100
AcDbEntity
  8
0
  6
Continuous
 62
     7
370
    25
100
AcDbCircle
 10
451.5128208011
 20
-43.6919056405
 30
0.0
 40
3.000000000000007
100
AcDbArc
 50
0.0
 51
90.0
  0
LINE
  5
3C7
330
1F
100
AcDbEntity
  8
0
  6
Continuous
 62
     7
370
    25
100
AcDbLine
 10
454.5128208011
 20
-43.6919056405
 30
0.0
 11
454.5128208011
 21
-59.8219056405
 31
0.0
  0
LINE
  5
3C8
330
1F
100
AcDbEntity
  8
0
  6
Continuous
 62
     7
370
    25
100
AcDbLine
 10
454.5128208011
 20
-59.8219056405
 30
0.0
 11
457.0128208011
 21
-59.8219056405
 31
0.0
  0
LINE
  5
3C9
330
1F
100
AcDbEntity
  8
0
  6
Continuous
 62
     7
370
    25
100
AcDbLine
 10
457.0128208011
 20
-59.3298548329
 30
0.0
 11
457.0128208011
 21
-59.8219056405
 31
0.0
  0
LINE
  5
3CA
330
1F
100
AcDbEntity
  8
0
  6
Continuous
 62
     7
370
    25
100
AcDbLine
 10
607.0128208011
 20
-59.3298548329
 30
0.0
 11
607.0128208011
 21
-59.8219056405
 31
0.0
  0
LINE
  5
3CB
330
1F
100
AcDbEntity
  8
0
  6
Continuous
 62
     7
370
    25
100
AcDbLine
 10
607.0128208011
 20
-59.8219056405
 30
0.0
 11
609.5128208011
 21
-59.8219056405
 31
0.0
  0
LINE
  5
3CC
330
1F
100
AcDbEntity
  8
0
  6
Continuous
 62
     7
370
    25
100
AcDbLine
 10
609.5128208011
 20
-59.8219056405
 30
0.0
 11
609.5128208011
 21
-43.6919056405
 31
0.0
  0
ARC
  5
3CD
330
1F
100
AcDbEntity
  8
0
  6
Continuous
 62
     7
370
    25
100
AcDbCircle
 10
612.5128208011
 20
-43.6919056405
 30
0.0
 40
3.0
100
AcDbArc
 50
90.0
 51
180.0
  0
LINE
  5
3CE
330
1F
100
AcDbEntity
  8
0
  6
Continuous
 62
     7
370
    25
100
AcDbLine
 10
656.5128208011
 20
-40.6919056405
 30
0.0
 11
612.5128208011
 21
-40.6919056405
 31
0.0
  0
ARC
  5
3CF
330
1F
100
AcDbEntity
  8
0
  6
Continuous
 62
     7
370
    25
100
AcDbCircle
 10
656.5128208011
 20
-43.6919056405
 30
0.0
 40
3.000000000000007
100
AcDbArc
 50
0.0
 51
90.0
  0
LINE
  5
3D0
330
1F
100
AcDbEntity
  8
0
  6
Continuous
 62
     7
370
    25
100
AcDbLine
 10
659.5128208011
 20
-64.6919056405
 30
0.0
 11
659.5128208011
 21
-43.6919056405
 31
0.0
  0
LINE
  5
3D1
330
1F
100
AcDbEntity
  8
0
  6
Continuous
 62
     7
370
    25
100
AcDbLine
 10
662.7128208011
 20
-64.6919056405
 30
0.0
 11
659.5128208011
 21
-64.6919056405
 31
0.0
  0
LINE
  5
3D2
330
1F
100
AcDbEntity
  8
0
  6
Continuous
 62
     7
370
    25
100
AcDbLine
 10
661.5128208011
 20
-83.6919056405
 30
0.0
 11
662.7128208011
 21
-83.6919056405
 31
0.0
  0
LINE
  5
3D3
330
1F
100
AcDbEntity
  8
0
  6
Continuous
 62
     7
370
    25
100
AcDbLine
 10
661.5128208011
 20
-83.8919056405
 30
0.0
 11
661.5128208011
 21
-83.6919056405
 31
0.0
  0
SPLINE
  5
3D4
330
1F
100
AcDbEntity
  8
0
  6
Continuous
 62
     7
370
    25
100
AcDbSpline
210
0.0
220
0.0
230
1.0
 70
     8
 71
     3
 72
    14
 73
    10
 74
     0
 42
0.000000001
 43
0.00000001
 40
0.0
 40
0.0
 40
0.0
 40
0.0
 40
0.25
 40
0.25
 40
0.5
 40
0.5
 40
0.75
 40
0.75
 40
1.0
 40
1.0
 40
1.0
 40
1.0
 10
646.1485605239184
 20
-82.10658562590237
 30
0.0
 10
646.200618232809
 20
-82.01171101659176
 30
0.0
 10
646.2539517711372
 20
-81.932106091716
 30
0.0
 10
646.3608837787654
 20
-81.82326947682179
 30
0.0
 10
646.4146371452129
 20
-81.79394587113129
 30
0.0
 10
646.5228161966365
 20
-81.79401065287689
 30
0.0
 10
646.5776448932246
 20
-81.82416684620325
 30
0.0
 10
646.6845518758844
 20
-81.93375204756896
 30
0.0
 10
646.7369733908567
 20
-82.01229502137113
 30
0.0
 10
646.7887106562589
 20
-82.10658562590238
 30
0.0
  0
SPLINE
  5
3D5
330
1F
100
AcDbEntity
  8
0
  6
Continuous
 62
     7
370
    25
100
AcDbSpline
210
0.0
220
0.0
230
1.0
 70
     8
 71
     3
 72
    12
 73
     8
 74
     0
 42
0.000000001
 43
0.00000001
 40
0.0
 40
0.0
 40
0.0
 40
0.0
 40
0.4999999999999906
 40
0.4999999999999906
 40
0.7499999999999952
 40
0.7499999999999952
 40
1.0
 40
1.0
 40
1.0
 40
1.0
 10
646.1485605239185
 20
-82.1065856259014
 30
0.0
 10
645.5320301339982
 20
-81.91609133647789
 30
0.0
 10
644.9062622615484
 20
-81.79441692341551
 30
0.0
 10
643.9432005521635
 20
-81.79376073288428
 30
0.0
 10
643.6225075170338
 20
-81.82359473467868
 30
0.0
 10
642.9925492670378
 20
-81.93252460478625
 30
0.0
 10
642.6813199990069
 20
-82.01121979184914
 30
0.0
 10
642.3726706687223
 20
-82.1065856259019
 30
0.0
  0
SPLINE
  5
3D6
330
1F
100
AcDbEntity
  8
0
  6
Continuous
 62
     7
370
    25
100
AcDbSpline
210
0.0
220
0.0
230
1.0
 70
     8
 71
     3
 72
    12
 73
     8
 74
     0
 42
0.000000001
 43
0.00000001
 40
0.0
 40
0.0
 40
0.0
 40
0.0
 40
0.5000000000000079
 40
0.5000000000000079
 40
0.7500000000000039
 40
0.7500000000000039
 40
1.0
 40
1.0
 40
1.0
 40
1.0
 10
642.3726706687225
 20
-82.1065856259014
 30
0.0
 10
641.8606645170177
 20
-81.91609133647788
 30
0.0
 10
641.3409869707493
 20
-81.79441692341553
 30
0.0
 10
640.5411991131868
 20
-81.79376073288428
 30
0.0
 10
640.2748751663387
 20
-81.82359473467866
 30
0.0
 10
639.7517176633373
 20
-81.93252460478625
 30
0.0
 10
639.4932530321892
 20
-82.01121979184914
 30
0.0
 10
639.236930945867
 20
-82.10658562590189
 30
0.0
  0
SPLINE
  5
3D7
330
1F
100
AcDbEntity
  8
0
  6
Continuous
 62
     7
370
    25
100
AcDbSpline
210
0.0
220
0.0
230
1.0
 70
     8
 71
     3
 72
     9
 73
     5
 74
     0
 42
0.000000001
 43
0.00000001
 40
0.0
 40
0.0
 40
0.0
 40
0.0
 40
0.3722348086954546
 40
1.0
 40
1.0
 40
1.0
 40
1.0
 10
639.2369309458671
 20
-82.1065856259024
 30
0.0
 10
639.2648971795388
 20
-82.0546613171288
 30
0.0
 10
639.3400278041297
 20
-81.9151678910423
 30
0.0
 10
639.4185716622864
 20
-81.90715916493718
 30
0.0
 10
639.4678787624279
 20
-81.9021315654617
 30
0.0
  0
LINE
  5
3D8
330
1F
100
AcDbEntity
  8
0
  6
Continuous
 62
     7
370
    25
100
AcDbLine
 10
646.1628208011
 20
-81.5919056405
 30
0.0
 11
639.8628208011
 21
-81.5919056405
 31
0.0
  0
LINE
  5
3D9
330
1F
100
AcDbEntity
  8
0
  6
Continuous
 62
     7
370
    25
100
AcDbLine
 10
646.1485605239
 20
-82.1065856259
 30
0.0
 11
646.1485605239
 21
-84.2772256551
 31
0.0
  0
SPLINE
  5
3DA
330
1F
100
AcDbEntity
  8
0
  6
Continuous
 62
     7
370
    25
100
AcDbSpline
210
0.0
220
0.0
230
1.0
 70
     8
 71
     3
 72
    12
 73
     8
 74
     0
 42
0.000000001
 43
0.00000001
 40
0.0
 40
0.0
 40
0.0
 40
0.0
 40
0.5000000000000094
 40
0.5000000000000094
 40
0.7500000000000047
 40
0.7500000000000047
 40
1.0
 40
1.0
 40
1.0
 40
1.0
 10
642.3726706687223
 20
-84.27722565513136
 30
0.0
 10
642.9892010586425
 20
-84.46771994455487
 30
0.0
 10
643.6149689310923
 20
-84.58939435761725
 30
0.0
 10
644.5780306404771
 20
-84.59005054814848
 30
0.0
 10
644.898723675607
 20
-84.5602165463541
 30
0.0
 10
645.5286819256029
 20
-84.4512866762465
 30
0.0
 10
645.8399111936337
 20
-84.37259148918363
 30
0.0
 10
646.1485605239184
 20
-84.27722565513088
 30
0.0
  0
LINE
  5
3DB
330
1F
100
AcDbEntity
  8
0
  6
Continuous
 62
     7
370
    25
100
AcDbLine
 10
642.3726706687
 20
-82.1065856259
 30
0.0
 11
642.3726706687
 21
-84.2772256551
 31
0.0
  0
SPLINE
  5
3DC
330
1F
100
AcDbEntity
  8
0
  6
Continuous
 62
     7
370
    25
100
AcDbSpline
210
0.0
220
0.0
230
1.0
 70
     8
 71
     3
 72
     9
 73
     5
 74
     0
 42
0.000000001
 43
0.00000001
 40
0.0
 40
0.0
 40
0.0
 40
0.0
 40
0.6277651913045446
 40
1.0
 40
1.0
 40
1.0
 40
1.0
 10
639.4678787624277
 20
-84.48167971557105
 30
0.0
 10
639.4185716622864
 20
-84.47665211609558
 30
0.0
 10
639.3400278041297
 20
-84.46864338999045
 30
0.0
 10
639.2648971795388
 20
-84.32914996390394
 30
0.0
 10
639.2369309458671
 20
-84.27722565513037
 30
0.0
  0
SPLINE
  5
3DD
330
1F
100
AcDbEntity
  8
0
  6
Continuous
 62
     7
370
    25
100
AcDbSpline
210
0.0
220
0.0
230
1.0
 70
     8
 71
     3
 72
    12
 73
     8
 74
     0
 42
0.000000001
 43
0.00000001
 40
0.0
 40
0.0
 40
0.0
 40
0.0
 40
0.5000000000000079
 40
0.5000000000000079
 40
0.7500000000000039
 40
0.7500000000000039
 40
1.0
 40
1.0
 40
1.0
 40
1.0
 10
639.236930945867
 20
-84.27722565513136
 30
0.0
 10
639.748937097572
 20
-84.46771994455487
 30
0.0
 10
640.2686146438401
 20
-84.58939435761725
 30
0.0
 10
641.0684025014026
 20
-84.59005054814848
 30
0.0
 10
641.3347264482508
 20
-84.5602165463541
 30
0.0
 10
641.8578839512521
 20
-84.4512866762465
 30
0.0
 10
642.1163485824004
 20
-84.37259148918362
 30
0.0
 10
642.3726706687225
 20
-84.27722565513088
 30
0.0
  0
SPLINE
  5
3DE
330
1F
100
AcDbEntity
  8
0
  6
Continuous
 62
     7
370
    25
100
AcDbSpline
210
0.0
220
0.0
230
1.0
 70
     8
 71
     3
 72
    14
 73
    10
 74
     0
 42
0.000000001
 43
0.00000001
 40
0.0
 40
0.0
 40
0.0
 40
0.0
 40
0.25
 40
0.25
 40
0.5
 40
0.5
 40
0.75
 40
0.75
 40
1.0
 40
1.0
 40
1.0
 40
1.0
 10
646.1485605239184
 20
-84.2772256551304
 30
0.0
 10
646.200618232809
 20
-84.372100264441
 30
0.0
 10
646.2539517711372
 20
-84.45170518931675
 30
0.0
 10
646.3608837787654
 20
-84.56054180421098
 30
0.0
 10
646.4146371452129
 20
-84.58986540990148
 30
0.0
 10
646.5228161966365
 20
-84.58980062815588
 30
0.0
 10
646.5776448932246
 20
-84.55964443482952
 30
0.0
 10
646.6845518758844
 20
-84.4500592334638
 30
0.0
 10
646.7369733908567
 20
-84.37151625966163
 30
0.0
 10
646.7887106562589
 20
-84.27722565513038
 30
0.0
  0
LINE
  5
3DF
330
1F
100
AcDbEntity
  8
0
  6
Continuous
 62
     7
370
    25
100
AcDbLine
 10
646.1628208011
 20
-84.7919056405
 30
0.0
 11
639.8628208011
 21
-84.7919056405
 31
0.0
  0
LINE
  5
3E0
330
1F
100
AcDbEntity
  8
0
  6
Continuous
 62
     7
370
    25
100
AcDbLine
 10
639.2369309459
 20
-82.1065856259
 30
0.0
 11
639.2369309459
 21
-84.2772256551
 31
0.0
  0
LINE
  5
3E1
330
1F
100
AcDbEntity
  8
0
  6
Continuous
 62
     7
370
    25
100
AcDbLine
 10
646.7887106563
 20
-82.1065856259
 30
0.0
 11
646.7887106563
 21
-84.2772256551
 31
0.0
  0
SPLINE
  5
3E2
330
1F
100
AcDbEntity
  8
0
  6
Continuous
 62
     7
370
    25
100
AcDbSpline
210
0.0
220
0.0
230
1.0
 70
     8
 71
     3
 72
    14
 73
    10
 74
     0
 42
0.000000001
 43
0.00000001
 40
0.0
 40
0.0
 40
0.0
 40
0.0
 40
0.25
 40
0.25
 40
0.5
 40
0.5
 40
0.75
 40
0.75
 40
1.0
 40
1.0
 40
1.0
 40
1.0
 10
333.1485605239183
 20
-82.10658562590235
 30
0.0
 10
333.2006182328091
 20
-82.01171101659175
 30
0.0
 10
333.2539517711372
 20
-81.93210609171598
 30
0.0
 10
333.3608837787653
 20
-81.82326947682176
 30
0.0
 10
333.4146371452129
 20
-81.79394587113127
 30
0.0
 10
333.5228161966365
 20
-81.79401065287688
 30
0.0
 10
333.5776448932245
 20
-81.82416684620323
 30
0.0
 10
333.6845518758844
 20
-81.93375204756893
 30
0.0
 10
333.7369733908567
 20
-82.01229502137112
 30
0.0
 10
333.7887106562588
 20
-82.10658562590237
 30
0.0
  0
SPLINE
  5
3E3
330
1F
100
AcDbEntity
  8
0
  6
Continuous
 62
     7
370
    25
100
AcDbSpline
210
0.0
220
0.0
230
1.0
 70
     8
 71
     3
 72
    12
 73
     8
 74
     0
 42
0.000000001
 43
0.00000001
 40
0.0
 40
0.0
 40
0.0
 40
0.0
 40
0.5000000000000048
 40
0.5000000000000048
 40
0.7500000000000023
 40
0.7500000000000023
 40
1.0
 40
1.0
 40
1.0
 40
1.0
 10
333.1485605239184
 20
-82.10658562590139
 30
0.0
 10
332.5320301339981
 20
-81.91609133647788
 30
0.0
 10
331.9062622615484
 20
-81.7944169234155
 30
0.0
 10
330.9432005521635
 20
-81.79376073288428
 30
0.0
 10
330.6225075170337
 20
-81.82359473467865
 30
0.0
 10
329.9925492670378
 20
-81.93252460478625
 30
0.0
 10
329.6813199990069
 20
-82.01121979184911
 30
0.0
 10
329.3726706687223
 20
-82.10658562590187
 30
0.0
  0
SPLINE
  5
3E4
330
1F
100
AcDbEntity
  8
0
  6
Continuous
 62
     7
370
    25
100
AcDbSpline
210
0.0
220
0.0
230
1.0
 70
     8
 71
     3
 72
    12
 73
     8
 74
     0
 42
0.000000001
 43
0.00000001
 40
0.0
 40
0.0
 40
0.0
 40
0.0
 40
0.5
 40
0.5
 40
0.75
 40
0.75
 40
1.0
 40
1.0
 40
1.0
 40
1.0
 10
329.3726706687225
 20
-82.10658562590139
 30
0.0
 10
328.8606645170175
 20
-81.91609133647786
 30
0.0
 10
328.3409869707493
 20
-81.7944169234155
 30
0.0
 10
327.5411991131868
 20
-81.79376073288427
 30
0.0
 10
327.2748751663387
 20
-81.82359473467865
 30
0.0
 10
326.7517176633373
 20
-81.93252460478624
 30
0.0
 10
326.493253032189
 20
-82.01121979184911
 30
0.0
 10
326.236930945867
 20
-82.10658562590187
 30
0.0
  0
SPLINE
  5
3E5
330
1F
100
AcDbEntity
  8
0
  6
Continuous
 62
     7
370
    25
100
AcDbSpline
210
0.0
220
0.0
230
1.0
 70
     8
 71
     3
 72
     9
 73
     5
 74
     0
 42
0.000000001
 43
0.00000001
 40
0.0
 40
0.0
 40
0.0
 40
0.0
 40
0.3722348086954684
 40
1.0
 40
1.0
 40
1.0
 40
1.0
 10
326.236930945867
 20
-82.10658562590237
 30
0.0
 10
326.2648971795388
 20
-82.05466131712879
 30
0.0
 10
326.3400278041296
 20
-81.91516789104229
 30
0.0
 10
326.4185716622863
 20
-81.90715916493717
 30
0.0
 10
326.4678787624278
 20
-81.90213156546169
 30
0.0
  0
LINE
  5
3E6
330
1F
100
AcDbEntity
  8
0
  6
Continuous
 62
     7
370
    25
100
AcDbLine
 10
333.1628208011
 20
-81.5919056405
 30
0.0
 11
326.8628208011
 21
-81.5919056405
 31
0.0
  0
SPLINE
  5
3E7
330
1F
100
AcDbEntity
  8
0
  6
Continuous
 62
     7
370
    25
100
AcDbSpline
210
0.0
220
0.0
230
1.0
 70
     8
 71
     3
 72
     9
 73
     5
 74
     0
 42
0.000000001
 43
0.00000001
 40
0.0
 40
0.0
 40
0.0
 40
0.0
 40
0.6277651913045319
 40
1.0
 40
1.0
 40
1.0
 40
1.0
 10
326.4678787624278
 20
-84.48167971557103
 30
0.0
 10
326.4185716622863
 20
-84.47665211609555
 30
0.0
 10
326.3400278041296
 20
-84.46864338999042
 30
0.0
 10
326.2648971795388
 20
-84.32914996390392
 30
0.0
 10
326.236930945867
 20
-84.27722565513035
 30
0.0
  0
SPLINE
  5
3E8
330
1F
100
AcDbEntity
  8
0
  6
Continuous
 62
     7
370
    25
100
AcDbSpline
210
0.0
220
0.0
230
1.0
 70
     8
 71
     3
 72
    12
 73
     8
 74
     0
 42
0.000000001
 43
0.00000001
 40
0.0
 40
0.0
 40
0.0
 40
0.0
 40
0.5
 40
0.5
 40
0.75
 40
0.75
 40
1.0
 40
1.0
 40
1.0
 40
1.0
 10
326.2369309458669
 20
-84.27722565513135
 30
0.0
 10
326.7489370975719
 20
-84.46771994455486
 30
0.0
 10
327.2686146438401
 20
-84.58939435761724
 30
0.0
 10
328.0684025014025
 20
-84.59005054814847
 30
0.0
 10
328.3347264482507
 20
-84.56021654635407
 30
0.0
 10
328.8578839512521
 20
-84.45128667624648
 30
0.0
 10
329.1163485824003
 20
-84.3725914891836
 30
0.0
 10
329.3726706687224
 20
-84.27722565513085
 30
0.0
  0
SPLINE
  5
3E9
330
1F
100
AcDbEntity
  8
0
  6
Continuous
 62
     7
370
    25
100
AcDbSpline
210
0.0
220
0.0
230
1.0
 70
     8
 71
     3
 72
    12
 73
     8
 74
     0
 42
0.000000001
 43
0.00000001
 40
0.0
 40
0.0
 40
0.0
 40
0.0
 40
0.4999999999999953
 40
0.4999999999999953
 40
0.7499999999999977
 40
0.7499999999999977
 40
1.0
 40
1.0
 40
1.0
 40
1.0
 10
329.3726706687222
 20
-84.27722565513133
 30
0.0
 10
329.9892010586425
 20
-84.46771994455484
 30
0.0
 10
330.6149689310923
 20
-84.58939435761724
 30
0.0
 10
331.5780306404772
 20
-84.59005054814847
 30
0.0
 10
331.8987236756068
 20
-84.56021654635407
 30
0.0
 10
332.5286819256028
 20
-84.45128667624648
 30
0.0
 10
332.8399111936337
 20
-84.37259148918359
 30
0.0
 10
333.1485605239183
 20
-84.27722565513085
 30
0.0
  0
SPLINE
  5
3EA
330
1F
100
AcDbEntity
  8
0
  6
Continuous
 62
     7
370
    25
100
AcDbSpline
210
0.0
220
0.0
230
1.0
 70
     8
 71
     3
 72
    14
 73
    10
 74
     0
 42
0.000000001
 43
0.00000001
 40
0.0
 40
0.0
 40
0.0
 40
0.0
 40
0.25
 40
0.25
 40
0.5
 40
0.5
 40
0.75
 40
0.75
 40
1.0
 40
1.0
 40
1.0
 40
1.0
 10
333.1485605239183
 20
-84.27722565513037
 30
0.0
 10
333.2006182328091
 20
-84.37210026444097
 30
0.0
 10
333.2539517711372
 20
-84.45170518931673
 30
0.0
 10
333.3608837787653
 20
-84.56054180421097
 30
0.0
 10
333.4146371452128
 20
-84.58986540990146
 30
0.0
 10
333.5228161966365
 20
-84.58980062815586
 30
0.0
 10
333.5776448932245
 20
-84.5596444348295
 30
0.0
 10
333.6845518758844
 20
-84.45005923346379
 30
0.0
 10
333.7369733908567
 20
-84.37151625966162
 30
0.0
 10
333.7887106562588
 20
-84.27722565513037
 30
0.0
  0
LINE
  5
3EB
330
1F
100
AcDbEntity
  8
0
  6
Continuous
 62
     7
370
    25
100
AcDbLine
 10
333.1628208011
 20
-84.7919056405
 30
0.0
 11
326.8628208011
 21
-84.7919056405
 31
0.0
  0
LINE
  5
3EC
330
1F
100
AcDbEntity
  8
0
  6
Continuous
 62
     7
370
    25
100
AcDbLine
 10
333.1485605239
 20
-82.1065856259
 30
0.0
 11
333.1485605239
 21
-84.2772256551
 31
0.0
  0
LINE
  5
3ED
330
1F
100
AcDbEntity
  8
0
  6
Continuous
 62
     7
370
    25
100
AcDbLine
 10
329.3726706687
 20
-82.1065856259
 30
0.0
 11
329.3726706687
 21
-84.2772256551
 31
0.0
  0
LINE
  5
3EE
330
1F
100
AcDbEntity
  8
0
  6
Continuous
 62
     7
370
    25
100
AcDbLine
 10
326.2369309459
 20
-82.1065856259
 30
0.0
 11
326.2369309459
 21
-84.2772256551
 31
0.0
  0
LINE
  5
3EF
330
1F
100
AcDbEntity
  8
0
  6
Continuous
 62
     7
370
    25
100
AcDbLine
 10
333.7887106563
 20
-82.1065856259
 30
0.0
 11
333.7887106563
 21
-84.2772256551
 31
0.0
  0
SPLINE
  5
3F0
330
1F
100
AcDbEntity
  8
0
  6
Continuous
 62
     7
370
    25
100
AcDbSpline
210
0.0
220
0.0
230
1.0
 70
     8
 71
     3
 72
    12
 73
     8
 74
     0
 42
0.000000001
 43
0.00000001
 40
0.0
 40
0.0
 40
0.0
 40
0.0
 40
0.5000000000000048
 40
0.5000000000000048
 40
0.7500000000000023
 40
0.7500000000000023
 40
1.0
 40
1.0
 40
1.0
 40
1.0
 10
496.1485605239184
 20
-82.1065856259014
 30
0.0
 10
495.5320301339982
 20
-81.91609133647789
 30
0.0
 10
494.9062622615484
 20
-81.79441692341553
 30
0.0
 10
493.9432005521635
 20
-81.7937607328843
 30
0.0
 10
493.6225075170338
 20
-81.82359473467868
 30
0.0
 10
492.9925492670378
 20
-81.93252460478627
 30
0.0
 10
492.6813199990069
 20
-82.01121979184914
 30
0.0
 10
492.3726706687223
 20
-82.1065856259019
 30
0.0
  0
LINE
  5
3F1
330
1F
100
AcDbEntity
  8
0
  6
Continuous
 62
     7
370
    25
100
AcDbLine
 10
496.1485605239
 20
-82.1065856259
 30
0.0
 11
496.1485605239
 21
-84.2772256551
 31
0.0
  0
SPLINE
  5
3F2
330
1F
100
AcDbEntity
  8
0
  6
Continuous
 62
     7
370
    25
100
AcDbSpline
210
0.0
220
0.0
230
1.0
 70
     8
 71
     3
 72
    12
 73
     8
 74
     0
 42
0.000000001
 43
0.00000001
 40
0.0
 40
0.0
 40
0.0
 40
0.0
 40
0.4999999999999953
 40
0.4999999999999953
 40
0.7499999999999977
 40
0.7499999999999977
 40
1.0
 40
1.0
 40
1.0
 40
1.0
 10
492.3726706687223
 20
-84.27722565513136
 30
0.0
 10
492.9892010586425
 20
-84.46771994455487
 30
0.0
 10
493.6149689310923
 20
-84.58939435761725
 30
0.0
 10
494.5780306404772
 20
-84.59005054814848
 30
0.0
 10
494.8987236756069
 20
-84.5602165463541
 30
0.0
 10
495.5286819256028
 20
-84.4512866762465
 30
0.0
 10
495.8399111936338
 20
-84.37259148918362
 30
0.0
 10
496.1485605239184
 20
-84.27722565513088
 30
0.0
  0
LINE
  5
3F3
330
1F
100
AcDbEntity
  8
0
  6
Continuous
 62
     7
370
    25
100
AcDbLine
 10
492.3726706687
 20
-82.1065856259
 30
0.0
 11
492.3726706687
 21
-84.2772256551
 31
0.0
  0
SPLINE
  5
3F4
330
1F
100
AcDbEntity
  8
0
  6
Continuous
 62
     7
370
    25
100
AcDbSpline
210
0.0
220
0.0
230
1.0
 70
     8
 71
     3
 72
    14
 73
    10
 74
     0
 42
0.000000001
 43
0.00000001
 40
0.0
 40
0.0
 40
0.0
 40
0.0
 40
0.25
 40
0.25
 40
0.5
 40
0.5
 40
0.75
 40
0.75
 40
1.0
 40
1.0
 40
1.0
 40
1.0
 10
496.1485605239183
 20
-82.10658562590237
 30
0.0
 10
496.2006182328091
 20
-82.01171101659176
 30
0.0
 10
496.2539517711372
 20
-81.932106091716
 30
0.0
 10
496.3608837787654
 20
-81.82326947682179
 30
0.0
 10
496.4146371452129
 20
-81.79394587113129
 30
0.0
 10
496.5228161966366
 20
-81.79401065287689
 30
0.0
 10
496.5776448932245
 20
-81.82416684620325
 30
0.0
 10
496.6845518758844
 20
-81.93375204756896
 30
0.0
 10
496.7369733908567
 20
-82.01229502137113
 30
0.0
 10
496.7887106562589
 20
-82.10658562590238
 30
0.0
  0
SPLINE
  5
3F5
330
1F
100
AcDbEntity
  8
0
  6
Continuous
 62
     7
370
    25
100
AcDbSpline
210
0.0
220
0.0
230
1.0
 70
     8
 71
     3
 72
    12
 73
     8
 74
     0
 42
0.000000001
 43
0.00000001
 40
0.0
 40
0.0
 40
0.0
 40
0.0
 40
0.5
 40
0.5
 40
0.75
 40
0.75
 40
1.0
 40
1.0
 40
1.0
 40
1.0
 10
492.3726706687225
 20
-82.1065856259014
 30
0.0
 10
491.8606645170176
 20
-81.91609133647788
 30
0.0
 10
491.3409869707493
 20
-81.79441692341553
 30
0.0
 10
490.5411991131868
 20
-81.79376073288428
 30
0.0
 10
490.2748751663388
 20
-81.82359473467868
 30
0.0
 10
489.7517176633374
 20
-81.93252460478625
 30
0.0
 10
489.4932530321891
 20
-82.01121979184914
 30
0.0
 10
489.236930945867
 20
-82.1065856259019
 30
0.0
  0
SPLINE
  5
3F6
330
1F
100
AcDbEntity
  8
0
  6
Continuous
 62
     7
370
    25
100
AcDbSpline
210
0.0
220
0.0
230
1.0
 70
     8
 71
     3
 72
     9
 73
     5
 74
     0
 42
0.000000001
 43
0.00000001
 40
0.0
 40
0.0
 40
0.0
 40
0.0
 40
0.3722348086954684
 40
1.0
 40
1.0
 40
1.0
 40
1.0
 10
489.2369309458671
 20
-82.1065856259024
 30
0.0
 10
489.2648971795388
 20
-82.0546613171288
 30
0.0
 10
489.3400278041296
 20
-81.9151678910423
 30
0.0
 10
489.4185716622863
 20
-81.90715916493718
 30
0.0
 10
489.4678787624278
 20
-81.9021315654617
 30
0.0
  0
LINE
  5
3F7
330
1F
100
AcDbEntity
  8
0
  6
Continuous
 62
     7
370
    25
100
AcDbLine
 10
496.1628208011
 20
-81.5919056405
 30
0.0
 11
489.8628208011
 21
-81.5919056405
 31
0.0
  0
SPLINE
  5
3F8
330
1F
100
AcDbEntity
  8
0
  6
Continuous
 62
     7
370
    25
100
AcDbSpline
210
0.0
220
0.0
230
1.0
 70
     8
 71
     3
 72
     9
 73
     5
 74
     0
 42
0.000000001
 43
0.00000001
 40
0.0
 40
0.0
 40
0.0
 40
0.0
 40
0.6277651913045319
 40
1.0
 40
1.0
 40
1.0
 40
1.0
 10
489.4678787624278
 20
-84.48167971557105
 30
0.0
 10
489.4185716622863
 20
-84.47665211609556
 30
0.0
 10
489.3400278041296
 20
-84.46864338999043
 30
0.0
 10
489.2648971795388
 20
-84.32914996390394
 30
0.0
 10
489.2369309458671
 20
-84.27722565513037
 30
0.0
  0
SPLINE
  5
3F9
330
1F
100
AcDbEntity
  8
0
  6
Continuous
 62
     7
370
    25
100
AcDbSpline
210
0.0
220
0.0
230
1.0
 70
     8
 71
     3
 72
    12
 73
     8
 74
     0
 42
0.000000001
 43
0.00000001
 40
0.0
 40
0.0
 40
0.0
 40
0.0
 40
0.5
 40
0.5
 40
0.75
 40
0.75
 40
1.0
 40
1.0
 40
1.0
 40
1.0
 10
489.236930945867
 20
-84.27722565513136
 30
0.0
 10
489.7489370975719
 20
-84.46771994455487
 30
0.0
 10
490.2686146438401
 20
-84.58939435761725
 30
0.0
 10
491.0684025014027
 20
-84.59005054814848
 30
0.0
 10
491.3347264482507
 20
-84.5602165463541
 30
0.0
 10
491.8578839512521
 20
-84.4512866762465
 30
0.0
 10
492.1163485824004
 20
-84.37259148918363
 30
0.0
 10
492.3726706687225
 20
-84.27722565513088
 30
0.0
  0
SPLINE
  5
3FA
330
1F
100
AcDbEntity
  8
0
  6
Continuous
 62
     7
370
    25
100
AcDbSpline
210
0.0
220
0.0
230
1.0
 70
     8
 71
     3
 72
    14
 73
    10
 74
     0
 42
0.000000001
 43
0.00000001
 40
0.0
 40
0.0
 40
0.0
 40
0.0
 40
0.25
 40
0.25
 40
0.5
 40
0.5
 40
0.75
 40
0.75
 40
1.0
 40
1.0
 40
1.0
 40
1.0
 10
496.1485605239183
 20
-84.2772256551304
 30
0.0
 10
496.2006182328091
 20
-84.372100264441
 30
0.0
 10
496.2539517711372
 20
-84.45170518931675
 30
0.0
 10
496.3608837787653
 20
-84.56054180421098
 30
0.0
 10
496.4146371452129
 20
-84.58986540990148
 30
0.0
 10
496.5228161966366
 20
-84.58980062815588
 30
0.0
 10
496.5776448932245
 20
-84.55964443482952
 30
0.0
 10
496.6845518758844
 20
-84.4500592334638
 30
0.0
 10
496.7369733908567
 20
-84.37151625966163
 30
0.0
 10
496.7887106562589
 20
-84.27722565513038
 30
0.0
  0
LINE
  5
3FB
330
1F
100
AcDbEntity
  8
0
  6
Continuous
 62
     7
370
    25
100
AcDbLine
 10
496.1628208011
 20
-84.7919056405
 30
0.0
 11
489.8628208011
 21
-84.7919056405
 31
0.0
  0
LINE
  5
3FC
330
1F
100
AcDbEntity
  8
0
  6
Continuous
 62
     7
370
    25
100
AcDbLine
 10
489.2369309459
 20
-82.1065856259
 30
0.0
 11
489.2369309459
 21
-84.2772256551
 31
0.0
  0
LINE
  5
3FD
330
1F
100
AcDbEntity
  8
0
  6
Continuous
 62
     7
370
    25
100
AcDbLine
 10
496.7887106563
 20
-82.1065856259
 30
0.0
 11
496.7887106563
 21
-84.2772256551
 31
0.0
  0
SPLINE
  5
3FE
330
1F
100
AcDbEntity
  8
0
  6
Continuous
 62
     7
370
    25
100
AcDbSpline
210
0.0
220
0.0
230
1.0
 70
     8
 71
     3
 72
     9
 73
     5
 74
     0
 42
0.000000001
 43
0.00000001
 40
0.0
 40
0.0
 40
0.0
 40
0.0
 40
0.6277651913045459
 40
1.0
 40
1.0
 40
1.0
 40
1.0
 10
176.4678787624278
 20
-84.48167971557102
 30
0.0
 10
176.4185716622863
 20
-84.47665211609554
 30
0.0
 10
176.3400278041296
 20
-84.4686433899904
 30
0.0
 10
176.2648971795388
 20
-84.3291499639039
 30
0.0
 10
176.236930945867
 20
-84.27722565513032
 30
0.0
  0
SPLINE
  5
3FF
330
1F
100
AcDbEntity
  8
0
  6
Continuous
 62
     7
370
    25
100
AcDbSpline
210
0.0
220
0.0
230
1.0
 70
     8
 71
     3
 72
    12
 73
     8
 74
     0
 42
0.000000001
 43
0.00000001
 40
0.0
 40
0.0
 40
0.0
 40
0.0
 40
0.5000000000000079
 40
0.5000000000000079
 40
0.7500000000000039
 40
0.7500000000000039
 40
1.0
 40
1.0
 40
1.0
 40
1.0
 10
176.2369309458669
 20
-84.27722565513132
 30
0.0
 10
176.7489370975717
 20
-84.46771994455484
 30
0.0
 10
177.2686146438401
 20
-84.58939435761722
 30
0.0
 10
178.0684025014026
 20
-84.59005054814844
 30
0.0
 10
178.3347264482506
 20
-84.56021654635406
 30
0.0
 10
178.857883951252
 20
-84.45128667624647
 30
0.0
 10
179.1163485824002
 20
-84.37259148918358
 30
0.0
 10
179.3726706687224
 20
-84.27722565513083
 30
0.0
  0
SPLINE
  5
400
330
1F
100
AcDbEntity
  8
0
  6
Continuous
 62
     7
370
    25
100
AcDbSpline
210
0.0
220
0.0
230
1.0
 70
     8
 71
     3
 72
    12
 73
     8
 74
     0
 42
0.000000001
 43
0.00000001
 40
0.0
 40
0.0
 40
0.0
 40
0.0
 40
0.5000000000000094
 40
0.5000000000000094
 40
0.7500000000000047
 40
0.7500000000000047
 40
1.0
 40
1.0
 40
1.0
 40
1.0
 10
179.3726706687222
 20
-84.27722565513132
 30
0.0
 10
179.9892010586424
 20
-84.46771994455484
 30
0.0
 10
180.6149689310924
 20
-84.58939435761722
 30
0.0
 10
181.5780306404772
 20
-84.59005054814844
 30
0.0
 10
181.8987236756069
 20
-84.56021654635406
 30
0.0
 10
182.5286819256029
 20
-84.45128667624647
 30
0.0
 10
182.8399111936338
 20
-84.37259148918359
 30
0.0
 10
183.1485605239184
 20
-84.27722565513083
 30
0.0
  0
SPLINE
  5
401
330
1F
100
AcDbEntity
  8
0
  6
Continuous
 62
     7
370
    25
100
AcDbSpline
210
0.0
220
0.0
230
1.0
 70
     8
 71
     3
 72
    14
 73
    10
 74
     0
 42
0.000000001
 43
0.00000001
 40
0.0
 40
0.0
 40
0.0
 40
0.0
 40
0.25
 40
0.25
 40
0.5
 40
0.5
 40
0.75
 40
0.75
 40
1.0
 40
1.0
 40
1.0
 40
1.0
 10
183.1485605239183
 20
-84.27722565513035
 30
0.0
 10
183.2006182328091
 20
-84.37210026444096
 30
0.0
 10
183.2539517711372
 20
-84.45170518931671
 30
0.0
 10
183.3608837787654
 20
-84.56054180421094
 30
0.0
 10
183.4146371452128
 20
-84.58986540990144
 30
0.0
 10
183.5228161966366
 20
-84.58980062815584
 30
0.0
 10
183.5776448932245
 20
-84.55964443482948
 30
0.0
 10
183.6845518758844
 20
-84.45005923346378
 30
0.0
 10
183.7369733908568
 20
-84.37151625966159
 30
0.0
 10
183.7887106562589
 20
-84.27722565513035
 30
0.0
  0
LINE
  5
402
330
1F
100
AcDbEntity
  8
0
  6
Continuous
 62
     7
370
    25
100
AcDbLine
 10
183.1628208011
 20
-84.7919056405
 30
0.0
 11
176.8628208011
 21
-84.7919056405
 31
0.0
  0
SPLINE
  5
403
330
1F
100
AcDbEntity
  8
0
  6
Continuous
 62
     7
370
    25
100
AcDbSpline
210
0.0
220
0.0
230
1.0
 70
     8
 71
     3
 72
    14
 73
    10
 74
     0
 42
0.000000001
 43
0.00000001
 40
0.0
 40
0.0
 40
0.0
 40
0.0
 40
0.25
 40
0.25
 40
0.5
 40
0.5
 40
0.75
 40
0.75
 40
1.0
 40
1.0
 40
1.0
 40
1.0
 10
183.1485605239183
 20
-82.10658562590234
 30
0.0
 10
183.2006182328091
 20
-82.01171101659173
 30
0.0
 10
183.2539517711372
 20
-81.93210609171598
 30
0.0
 10
183.3608837787654
 20
-81.82326947682175
 30
0.0
 10
183.4146371452128
 20
-81.79394587113126
 30
0.0
 10
183.5228161966366
 20
-81.79401065287685
 30
0.0
 10
183.5776448932245
 20
-81.82416684620321
 30
0.0
 10
183.6845518758844
 20
-81.93375204756893
 30
0.0
 10
183.7369733908568
 20
-82.01229502137109
 30
0.0
 10
183.7887106562589
 20
-82.10658562590234
 30
0.0
  0
SPLINE
  5
404
330
1F
100
AcDbEntity
  8
0
  6
Continuous
 62
     7
370
    25
100
AcDbSpline
210
0.0
220
0.0
230
1.0
 70
     8
 71
     3
 72
    12
 73
     8
 74
     0
 42
0.000000001
 43
0.00000001
 40
0.0
 40
0.0
 40
0.0
 40
0.0
 40
0.4999999999999906
 40
0.4999999999999906
 40
0.7499999999999952
 40
0.7499999999999952
 40
1.0
 40
1.0
 40
1.0
 40
1.0
 10
183.1485605239184
 20
-82.10658562590137
 30
0.0
 10
182.5320301339981
 20
-81.91609133647785
 30
0.0
 10
181.9062622615483
 20
-81.79441692341547
 30
0.0
 10
180.9432005521635
 20
-81.79376073288425
 30
0.0
 10
180.6225075170338
 20
-81.82359473467864
 30
0.0
 10
179.9925492670377
 20
-81.93252460478622
 30
0.0
 10
179.6813199990069
 20
-82.0112197918491
 30
0.0
 10
179.3726706687223
 20
-82.10658562590184
 30
0.0
  0
SPLINE
  5
405
330
1F
100
AcDbEntity
  8
0
  6
Continuous
 62
     7
370
    25
100
AcDbSpline
210
0.0
220
0.0
230
1.0
 70
     8
 71
     3
 72
    12
 73
     8
 74
     0
 42
0.000000001
 43
0.00000001
 40
0.0
 40
0.0
 40
0.0
 40
0.0
 40
0.5000000000000079
 40
0.5000000000000079
 40
0.7500000000000039
 40
0.7500000000000039
 40
1.0
 40
1.0
 40
1.0
 40
1.0
 10
179.3726706687225
 20
-82.10658562590136
 30
0.0
 10
178.8606645170175
 20
-81.91609133647785
 30
0.0
 10
178.3409869707494
 20
-81.79441692341548
 30
0.0
 10
177.5411991131867
 20
-81.79376073288422
 30
0.0
 10
177.2748751663388
 20
-81.82359473467862
 30
0.0
 10
176.7517176633373
 20
-81.93252460478621
 30
0.0
 10
176.493253032189
 20
-82.01121979184909
 30
0.0
 10
176.236930945867
 20
-82.10658562590184
 30
0.0
  0
SPLINE
  5
406
330
1F
100
AcDbEntity
  8
0
  6
Continuous
 62
     7
370
    25
100
AcDbSpline
210
0.0
220
0.0
230
1.0
 70
     8
 71
     3
 72
     9
 73
     5
 74
     0
 42
0.000000001
 43
0.00000001
 40
0.0
 40
0.0
 40
0.0
 40
0.0
 40
0.3722348086954557
 40
1.0
 40
1.0
 40
1.0
 40
1.0
 10
176.236930945867
 20
-82.10658562590235
 30
0.0
 10
176.2648971795387
 20
-82.05466131712876
 30
0.0
 10
176.3400278041296
 20
-81.91516789104226
 30
0.0
 10
176.4185716622862
 20
-81.90715916493716
 30
0.0
 10
176.4678787624277
 20
-81.90213156546167
 30
0.0
  0
LINE
  5
407
330
1F
100
AcDbEntity
  8
0
  6
Continuous
 62
     7
370
    25
100
AcDbLine
 10
183.1628208011
 20
-81.5919056405
 30
0.0
 11
176.8628208011
 21
-81.5919056405
 31
0.0
  0
LINE
  5
408
330
1F
100
AcDbEntity
  8
0
  6
Continuous
 62
     7
370
    25
100
AcDbLine
 10
183.1485605239
 20
-82.1065856259
 30
0.0
 11
183.1485605239
 21
-84.2772256551
 31
0.0
  0
LINE
  5
409
330
1F
100
AcDbEntity
  8
0
  6
Continuous
 62
     7
370
    25
100
AcDbLine
 10
179.3726706687
 20
-82.1065856259
 30
0.0
 11
179.3726706687
 21
-84.2772256551
 31
0.0
  0
LINE
  5
40A
330
1F
100
AcDbEntity
  8
0
  6
Continuous
 62
     7
370
    25
100
AcDbLine
 10
176.2369309459
 20
-82.1065856259
 30
0.0
 11
176.2369309459
 21
-84.2772256551
 31
0.0
  0
LINE
  5
40B
330
1F
100
AcDbEntity
  8
0
  6
Continuous
 62
     7
370
    25
100
AcDbLine
 10
183.7887106563
 20
-82.1065856259
 30
0.0
 11
183.7887106563
 21
-84.2772256551
 31
0.0
  0
LINE
  5
40C
330
1F
100
AcDbEntity
  8
0
  6
Continuous
 62
     7
370
    25
100
AcDbLine
 10
159.0918905685
 20
-97.3919056405
 30
0.0
 11
160.0128208011
 21
-87.4919056405
 31
0.0
  0
LINE
  5
40D
330
1F
100
AcDbEntity
  8
0
  6
Continuous
 62
     7
370
    25
100
AcDbLine
 10
663.0128208011
 20
-87.4919056405
 30
0.0
 11
663.9337510336
 21
-97.3919056405
 31
0.0
  0
LINE
  5
40E
330
1F
100
AcDbEntity
  8
0
  6
Continuous
 62
     7
370
    25
100
AcDbLine
 10
159.0128208011
 20
-98.2419056405
 30
0.0
 11
159.0918905685
 21
-97.3919056405
 31
0.0
  0
LINE
  5
40F
330
1F
100
AcDbEntity
  8
0
  6
Continuous
 62
     7
370
    25
100
AcDbLine
 10
663.9337510336
 20
-97.3919056405
 30
0.0
 11
664.0128208011
 21
-98.2419056405
 31
0.0
  0
LINE
  5
410
330
1F
100
AcDbEntity
  8
0
  6
Continuous
 62
     7
370
    25
100
AcDbLine
 10
160.0128208011
 20
-85.6919056405
 30
0.0
 11
663.0128208011
 21
-85.6919056405
 31
0.0
  0
LINE
  5
411
330
1F
100
AcDbEntity
  8
0
  6
Continuous
 62
     7
370
    25
100
AcDbLine
 10
160.0128208011
 20
-87.4919056405
 30
0.0
 11
160.0128208011
 21
-85.6919056405
 31
0.0
  0
LINE
  5
412
330
1F
100
AcDbEntity
  8
0
  6
Continuous
 62
     7
370
    25
100
AcDbLine
 10
663.0128208011
 20
-85.6919056405
 30
0.0
 11
663.0128208011
 21
-87.4919056405
 31
0.0
  0
LINE
  5
413
330
1F
100
AcDbEntity
  8
0
  6
Continuous
 62
     7
370
    25
100
AcDbLine
 10
642.6960286429
 20
-76.4919056405
 30
0.0
 11
645.0128208011
 21
-76.4919056405
 31
0.0
  0
LINE
  5
414
330
1F
100
AcDbEntity
  8
0
  6
Continuous
 62
     7
370
    25
100
AcDbLine
 10
641.0128208011
 20
-76.4919056405
 30
0.0
 11
642.6960286429
 21
-76.4919056405
 31
0.0
  0
LINE
  5
415
330
1F
100
AcDbEntity
  8
0
  6
Continuous
 62
     7
370
    25
100
AcDbLine
 10
329.6960286429
 20
-76.4919056405
 30
0.0
 11
332.0128208011
 21
-76.4919056405
 31
0.0
  0
LINE
  5
416
330
1F
100
AcDbEntity
  8
0
  6
Continuous
 62
     7
370
    25
100
AcDbLine
 10
328.0128208011
 20
-76.4919056405
 30
0.0
 11
329.6960286429
 21
-76.4919056405
 31
0.0
  0
LINE
  5
417
330
1F
100
AcDbEntity
  8
0
  6
Continuous
 62
     7
370
    25
100
AcDbLine
 10
492.6960286429
 20
-76.4919056405
 30
0.0
 11
495.0128208011
 21
-76.4919056405
 31
0.0
  0
LINE
  5
418
330
1F
100
AcDbEntity
  8
0
  6
Continuous
 62
     7
370
    25
100
AcDbLine
 10
491.0128208011
 20
-76.4919056405
 30
0.0
 11
492.6960286429
 21
-76.4919056405
 31
0.0
  0
LINE
  5
419
330
1F
100
AcDbEntity
  8
0
  6
Continuous
 62
     7
370
    25
100
AcDbLine
 10
179.6960286429
 20
-76.4919056405
 30
0.0
 11
182.0128208011
 21
-76.4919056405
 31
0.0
  0
LINE
  5
41A
330
1F
100
AcDbEntity
  8
0
  6
Continuous
 62
     7
370
    25
100
AcDbLine
 10
178.0128208011
 20
-76.4919056405
 30
0.0
 11
179.6960286429
 21
-76.4919056405
 31
0.0
  0
LINE
  5
41B
330
1F
100
AcDbEntity
  8
0
  6
Continuous
 62
     7
370
    25
100
AcDbLine
 10
664.5128208011
 20
-65.2919056405
 30
0.0
 11
665.5128208011
 21
-65.2919056405
 31
0.0
  0
LINE
  5
41C
330
1F
100
AcDbEntity
  8
0
  6
Continuous
 62
     7
370
    25
100
AcDbLine
 10
665.5128208011
 20
-65.2919056405
 30
0.0
 11
665.5128208011
 21
-67.2919056405
 31
0.0
  0
LINE
  5
41D
330
1F
100
AcDbEntity
  8
0
  6
Continuous
 62
     7
370
    25
100
AcDbLine
 10
665.5128208011
 20
-67.2919056405
 30
0.0
 11
665.5128208011
 21
-70.1919056405
 31
0.0
  0
LINE
  5
41E
330
1F
100
AcDbEntity
  8
0
  6
Continuous
 62
     7
370
    25
100
AcDbLine
 10
665.5128208011
 20
-76.1919056405
 30
0.0
 11
665.5128208011
 21
-96.2919056405
 31
0.0
  0
LINE
  5
41F
330
1F
100
AcDbEntity
  8
0
  6
Continuous
 62
     7
370
    25
100
AcDbLine
 10
663.5128208011
 20
-83.6919056405
 30
0.0
 11
663.5128208011
 21
-92.8669056405
 31
0.0
  0
LINE
  5
420
330
1F
100
AcDbEntity
  8
0
  6
Continuous
 62
     7
370
    25
100
AcDbLine
 10
665.5111536712
 20
-96.3919056405
 30
0.0
 11
665.5128208011
 21
-96.2919056405
 31
0.0
  0
LINE
  5
421
330
1F
100
AcDbEntity
  8
0
  6
Continuous
 62
     7
370
    25
100
AcDbLine
 10
665.5731281803
 20
-65.2919056405
 30
0.0
 11
665.5128208011
 21
-65.2919056405
 31
0.0
  0
LINE
  5
422
330
1F
100
AcDbEntity
  8
0
  6
Continuous
 62
     7
370
    25
100
AcDbLine
 10
665.5128208011
 20
-81.2919056405
 30
0.0
 11
665.5731281803
 21
-81.2919056405
 31
0.0
  0
LINE
  5
423
330
1F
100
AcDbEntity
  8
0
  6
Continuous
 62
     7
370
    25
100
AcDbLine
 10
665.5731281803
 20
-65.2919056405
 30
0.0
 11
667.4443269026
 21
-65.2919056405
 31
0.0
  0
LWPOLYLINE
  5
424
330
1F
100
AcDbEntity
  8
0
  6
Continuous
 62
     7
370
    25
100
AcDbPolyline
 90
        9
 70
   128
 43
0.0
 10
668.1283671892
 20
-67.2919056405
 10
668.1152235469
 20
-66.9017249965
 10
668.0762977228
 20
-66.5265387758
 10
668.0130856145
 20
-66.1807651745
 10
667.9280164279
 20
-65.8776920781
 10
667.824359324
 20
-65.6289664159
 10
667.7060977874
 20
-65.4441465755
 10
667.5777765424
 20
-65.3303350797
 10
667.4443269026
 20
-65.2919056405
  0
LINE
  5
425
330
1F
100
AcDbEntity
  8
0
  6
Continuous
 62
     7
370
    25
100
AcDbLine
 10
668.1283671892
 20
-67.2919056405
 30
0.0
 11
668.1283671892
 21
-70.1919056405
 31
0.0
  0
LINE
  5
426
330
1F
100
AcDbEntity
  8
0
  6
Continuous
 62
     7
370
    25
100
AcDbLine
 10
668.1283671892
 20
-76.1919056405
 30
0.0
 11
668.1283671892
 21
-79.2919056405
 31
0.0
  0
LWPOLYLINE
  5
427
330
1F
100
AcDbEntity
  8
0
  6
Continuous
 62
     7
370
    25
100
AcDbPolyline
 90
        9
 70
   128
 43
0.0
 10
667.4443269026
 20
-81.2919056405
 10
667.5777765424
 20
-81.2534762013
 10
667.7060977874
 20
-81.1396647055
 10
667.824359324
 20
-80.9548448651
 10
667.9280164279
 20
-80.7061192029
 10
668.0130856145
 20
-80.4030461066
 10
668.0762977228
 20
-80.0572725052
 10
668.1152235469
 20
-79.6820862845
 10
668.1283671892
 20
-79.2919056405
  0
LINE
  5
428
330
1F
100
AcDbEntity
  8
0
  6
Continuous
 62
     7
370
    25
100
AcDbLine
 10
667.4443269026
 20
-81.2919056405
 30
0.0
 11
665.5731281803
 21
-81.2919056405
 31
0.0
  0
LINE
  5
429
330
1F
100
AcDbEntity
  8
0
  6
Continuous
 62
     7
370
    25
100
AcDbLine
 10
159.5128208011
 20
-92.8669056405
 30
0.0
 11
159.5128208011
 21
-83.6919056405
 31
0.0
  0
LINE
  5
42A
330
1F
100
AcDbEntity
  8
0
  6
Continuous
 62
     7
370
    25
100
AcDbLine
 10
157.5128208011
 20
-96.2919056405
 30
0.0
 11
157.5128208011
 21
-76.1919056405
 31
0.0
  0
LINE
  5
42B
330
1F
100
AcDbEntity
  8
0
  6
Continuous
 62
     7
370
    25
100
AcDbLine
 10
157.5128208011
 20
-70.1919056405
 30
0.0
 11
157.5128208011
 21
-67.2919056405
 31
0.0
  0
LINE
  5
42C
330
1F
100
AcDbEntity
  8
0
  6
Continuous
 62
     7
370
    25
100
AcDbLine
 10
157.5128208011
 20
-65.2919056405
 30
0.0
 11
158.5128208011
 21
-65.2919056405
 31
0.0
  0
LINE
  5
42D
330
1F
100
AcDbEntity
  8
0
  6
Continuous
 62
     7
370
    25
100
AcDbLine
 10
157.5128208011
 20
-67.2919056405
 30
0.0
 11
157.5128208011
 21
-65.2919056405
 31
0.0
  0
LINE
  5
42E
330
1F
100
AcDbEntity
  8
0
  6
Continuous
 62
     7
370
    25
100
AcDbLine
 10
157.5128208011
 20
-96.2919056405
 30
0.0
 11
157.5144879309
 21
-96.3919056405
 31
0.0
  0
LINE
  5
42F
330
1F
100
AcDbEntity
  8
0
  6
Continuous
 62
     7
370
    25
100
AcDbLine
 10
157.4525134218
 20
-81.2919056405
 30
0.0
 11
157.5128208011
 21
-81.2919056405
 31
0.0
  0
LINE
  5
430
330
1F
100
AcDbEntity
  8
0
  6
Continuous
 62
     7
370
    25
100
AcDbLine
 10
157.5128208011
 20
-65.2919056405
 30
0.0
 11
157.4525134218
 21
-65.2919056405
 31
0.0
  0
LWPOLYLINE
  5
431
330
1F
100
AcDbEntity
  8
0
  6
Continuous
 62
     7
370
    25
100
AcDbPolyline
 90
        9
 70
   128
 43
0.0
 10
155.5813146995
 20
-65.2919056405
 10
155.4478650597
 20
-65.3303350797
 10
155.3195438148
 20
-65.4441465755
 10
155.2012822781
 20
-65.6289664159
 10
155.0976251742
 20
-65.8776920781
 10
155.0125559876
 20
-66.1807651745
 10
154.9493438793
 20
-66.5265387758
 10
154.9104180552
 20
-66.9017249965
 10
154.8972744129
 20
-67.2919056405
  0
LINE
  5
432
330
1F
100
AcDbEntity
  8
0
  6
Continuous
 62
     7
370
    25
100
AcDbLine
 10
155.5813146995
 20
-65.2919056405
 30
0.0
 11
157.4525134218
 21
-65.2919056405
 31
0.0
  0
LINE
  5
433
330
1F
100
AcDbEntity
  8
0
  6
Continuous
 62
     7
370
    25
100
AcDbLine
 10
157.4525134218
 20
-81.2919056405
 30
0.0
 11
155.5813146995
 21
-81.2919056405
 31
0.0
  0
LWPOLYLINE
  5
434
330
1F
100
AcDbEntity
  8
0
  6
Continuous
 62
     7
370
    25
100
AcDbPolyline
 90
        9
 70
   128
 43
0.0
 10
154.8972744129
 20
-79.2919056405
 10
154.9104180552
 20
-79.6820862845
 10
154.9493438793
 20
-80.0572725052
 10
155.0125559876
 20
-80.4030461066
 10
155.0976251742
 20
-80.7061192029
 10
155.2012822781
 20
-80.9548448651
 10
155.3195438148
 20
-81.1396647055
 10
155.4478650597
 20
-81.2534762013
 10
155.5813146995
 20
-81.2919056405
  0
LINE
  5
435
330
1F
100
AcDbEntity
  8
0
  6
Continuous
 62
     7
370
    25
100
AcDbLine
 10
154.8972744129
 20
-79.2919056405
 30
0.0
 11
154.8972744129
 21
-76.1919056405
 31
0.0
  0
LINE
  5
436
330
1F
100
AcDbEntity
  8
0
  6
Continuous
 62
     7
370
    25
100
AcDbLine
 10
154.8972744129
 20
-70.1919056405
 30
0.0
 11
154.8972744129
 21
-67.2919056405
 31
0.0
  0
SPLINE
  5
437
330
1F
100
AcDbEntity
  8
0
  6
Continuous
 62
     7
370
    25
100
AcDbSpline
210
0.0
220
0.0
230
1.0
 70
    24
 71
     3
 72
     9
 73
     5
 74
     0
 42
0.000000001
 43
0.00000001
 40
0.0
 40
0.0
 40
0.0
 40
0.0
 40
0.7059102712460867
 40
1.0
 40
1.0
 40
1.0
 40
1.0
 10
159.3128208010617
 20
-67.41865683112846
 30
0.0
 10
159.3128208010617
 20
-67.40840406183175
 30
0.0
 10
159.3128208010617
 20
-67.393879879773
 30
0.0
 10
159.3128208010617
 20
-67.48893183638027
 30
0.0
 10
159.3128208010617
 20
-67.51688564051643
 30
0.0
  0
SPLINE
  5
438
330
1F
100
AcDbEntity
  8
0
  6
Continuous
 62
     7
370
    25
100
AcDbSpline
210
0.0
220
0.0
230
1.0
 70
    24
 71
     3
 72
    12
 73
     8
 74
     0
 42
0.000000001
 43
0.00000001
 40
0.0
 40
0.0
 40
0.0
 40
0.0
 40
0.3344405486782611
 40
0.5144757571369835
 40
0.6983315710265358
 40
0.8821873849160827
 40
1.0
 40
1.0
 40
1.0
 40
1.0
 10
160.3128208010617
 20
-70.68559833546193
 30
0.0
 10
160.3128208010617
 20
-70.0614527999601
 30
0.0
 10
160.3128208010618
 20
-69.10131878448252
 30
0.0
 10
160.3128208010617
 20
-68.19340787818722
 30
0.0
 10
160.3128208010617
 20
-67.68769054027108
 30
0.0
 10
160.3128208010617
 20
-67.41607080613285
 30
0.0
 10
160.3128208010617
 20
-67.41793053759262
 30
0.0
 10
160.3128208010617
 20
-67.4186568311175
 30
0.0
  0
SPLINE
  5
439
330
1F
100
AcDbEntity
  8
0
  6
Continuous
 62
     7
370
    25
100
AcDbSpline
210
0.0
220
0.0
230
1.0
 70
    24
 71
     3
 72
    15
 73
    11
 74
     0
 42
0.000000001
 43
0.00000001
 40
0.0
 40
0.0
 40
0.0
 40
0.0
 40
0.034696749791865
 40
0.2211884951269616
 40
0.4076802404620631
 40
0.508072015263078
 40
0.6105942475634826
 40
0.7131164798638864
 40
0.8135082546649008
 40
1.0
 40
1.0
 40
1.0
 40
1.0
 10
160.3128208010617
 20
-78.96515444992323
 30
0.0
 10
160.3128208010618
 20
-78.97187555355464
 30
0.0
 10
160.3128208010617
 20
-79.01472195290744
 30
0.0
 10
160.3128208010618
 20
-78.52668099014895
 30
0.0
 10
160.3128208010618
 20
-77.4307699326804
 30
0.0
 10
160.3128208010616
 20
-76.2118728002329
 30
0.0
 10
160.3128208010618
 20
-75.13169757237596
 30
0.0
 10
160.3128208010617
 20
-73.97122066991027
 30
0.0
 10
160.3128208010618
 20
-72.44064577479514
 30
0.0
 10
160.3128208010617
 20
-71.37701988614508
 30
0.0
 10
160.3128208010617
 20
-70.68559833546193
 30
0.0
  0
SPLINE
  5
43A
330
1F
100
AcDbEntity
  8
0
  6
Continuous
 62
     7
370
    25
100
AcDbSpline
210
0.0
220
0.0
230
1.0
 70
     8
 71
     3
 72
     8
 73
     4
 74
     0
 42
0.000000001
 43
0.00000001
 40
0.0
 40
0.0
 40
0.0
 40
0.0
 40
1.0
 40
1.0
 40
1.0
 40
1.0
 10
164.3128208010547
 20
-73.57530066820684
 30
0.0
 10
164.3128208010547
 20
-72.59292222363406
 30
0.0
 10
164.1385055006753
 20
-71.63743105544432
 30
0.0
 10
163.8662388136633
 20
-70.69704840611675
 30
0.0
  0
SPLINE
  5
43B
330
1F
100
AcDbEntity
  8
0
  6
Continuous
 62
     7
370
    25
100
AcDbSpline
210
0.0
220
0.0
230
1.0
 70
     8
 71
     3
 72
     8
 73
     4
 74
     0
 42
0.000000001
 43
0.00000001
 40
0.0
 40
0.0
 40
0.0
 40
0.0
 40
1.0
 40
1.0
 40
1.0
 40
1.0
 10
163.8662388136634
 20
-76.45355293029682
 30
0.0
 10
164.1385055006748
 20
-75.51317028097102
 30
0.0
 10
164.3128208010547
 20
-74.55767911277776
 30
0.0
 10
164.3128208010547
 20
-73.57530066820684
 30
0.0
  0
LINE
  5
43C
330
1F
100
AcDbEntity
  8
0
  6
Continuous
 62
     7
370
    25
100
AcDbLine
 10
160.3128208011
 20
-76.4535529303
 30
0.0
 11
163.8662388137
 21
-76.4535529303
 31
0.0
  0
LINE
  5
43D
330
1F
100
AcDbEntity
  8
0
  6
Continuous
 62
     7
370
    25
100
AcDbLine
 10
160.3128208011
 20
-70.6970484061
 30
0.0
 11
163.8662388137
 21
-70.6970484061
 31
0.0
  0
LINE
  5
43E
330
1F
100
AcDbEntity
  8
0
  6
Continuous
 62
     7
370
    25
100
AcDbLine
 10
164.3128208011
 20
-73.5753006682
 30
0.0
 11
164.3128208011
 21
-69.0662247612
 31
0.0
  0
SPLINE
  5
43F
330
1F
100
AcDbEntity
  8
0
  6
Continuous
 62
     7
370
    25
100
AcDbSpline
210
0.0
220
0.0
230
1.0
 70
     8
 71
     3
 72
     8
 73
     4
 74
     0
 42
0.000000001
 43
0.00000001
 40
0.0
 40
0.0
 40
0.0
 40
0.0
 40
1.0
 40
1.0
 40
1.0
 40
1.0
 10
163.8662388136633
 20
-70.69704840611062
 30
0.0
 10
164.1385055006747
 20
-70.16422566504582
 30
0.0
 10
164.3128208010546
 20
-69.6228424061512
 30
0.0
 10
164.3128208010546
 20
-69.06622476122276
 30
0.0
  0
LINE
  5
440
330
1F
100
AcDbEntity
  8
0
  6
Continuous
 62
     7
370
    25
100
AcDbLine
 10
164.3128208011
 20
-77.7009815475
 30
0.0
 11
164.3128208011
 21
-73.5753006682
 31
0.0
  0
SPLINE
  5
441
330
1F
100
AcDbEntity
  8
0
  6
Continuous
 62
     7
370
    25
100
AcDbSpline
210
0.0
220
0.0
230
1.0
 70
     8
 71
     3
 72
     8
 73
     4
 74
     0
 42
0.000000001
 43
0.00000001
 40
0.0
 40
0.0
 40
0.0
 40
0.0
 40
1.0
 40
1.0
 40
1.0
 40
1.0
 10
164.3128208010546
 20
-77.70098154750436
 30
0.0
 10
164.3128208010546
 20
-77.27522074786114
 30
0.0
 10
164.1385055006752
 20
-76.86111283856407
 30
0.0
 10
163.8662388136633
 20
-76.45355293030241
 30
0.0
  0
SPLINE
  5
442
330
1F
100
AcDbEntity
  8
0
  6
Continuous
 62
     7
370
    25
100
AcDbSpline
210
0.0
220
0.0
230
1.0
 70
     8
 71
     3
 72
     8
 73
     4
 74
     0
 42
0.000000001
 43
0.00000001
 40
0.0
 40
0.0
 40
0.0
 40
0.0
 40
1.0
 40
1.0
 40
1.0
 40
1.0
 10
164.3128208010546
 20
-69.06622476122276
 30
0.0
 10
164.3128208010546
 20
-68.50960711629331
 30
0.0
 10
164.1385055006752
 20
-67.9682238574007
 30
0.0
 10
163.8662388136632
 20
-67.43540111633489
 30
0.0
  0
LINE
  5
443
330
1F
100
AcDbEntity
  8
0
  6
Continuous
 62
     7
370
    25
100
AcDbLine
 10
160.3128208011
 20
-67.4354011163
 30
0.0
 11
163.8662388137
 21
-67.4354011163
 31
0.0
  0
SPLINE
  5
444
330
1F
100
AcDbEntity
  8
0
  6
Continuous
 62
     7
370
    25
100
AcDbSpline
210
0.0
220
0.0
230
1.0
 70
     8
 71
     3
 72
     8
 73
     4
 74
     0
 42
0.000000001
 43
0.00000001
 40
0.0
 40
0.0
 40
0.0
 40
0.0
 40
1.0
 40
1.0
 40
1.0
 40
1.0
 10
163.8662388136633
 20
-78.94841016470636
 30
0.0
 10
164.1385055006748
 20
-78.54085025644528
 30
0.0
 10
164.3128208010546
 20
-78.12674234714694
 30
0.0
 10
164.3128208010546
 20
-77.70098154750436
 30
0.0
  0
LINE
  5
445
330
1F
100
AcDbEntity
  8
0
  6
Continuous
 62
     7
370
    25
100
AcDbLine
 10
163.8662388137
 20
-78.9484101647
 30
0.0
 11
160.3128208011
 21
-78.9484101647
 31
0.0
  0
LINE
  5
446
330
1F
100
AcDbEntity
  8
0
  6
Continuous
 62
     7
370
    25
100
AcDbLine
 10
149.8540708011
 20
-75.8973511847
 30
0.0
 11
149.8540708011
 21
-76.1919056405
 31
0.0
  0
LINE
  5
447
330
1F
100
AcDbEntity
  8
0
  6
Continuous
 62
     7
370
    25
100
AcDbLine
 10
149.8540708011
 20
-70.1919056405
 30
0.0
 11
149.8540708011
 21
-75.8973511847
 31
0.0
  0
LINE
  5
448
330
1F
100
AcDbEntity
  8
0
  6
Continuous
 62
     7
370
    25
100
AcDbLine
 10
149.3128208011
 20
-70.7331556405
 30
0.0
 11
149.3128208011
 21
-75.6506556405
 31
0.0
  0
LINE
  5
449
330
1F
100
AcDbEntity
  8
0
  6
Continuous
 62
     7
370
    25
100
AcDbLine
 10
163.8662388137
 20
-67.4354011163
 30
0.0
 11
163.9414265692
 21
-67.6454215841
 31
0.0
  0
LINE
  5
44A
330
1F
100
AcDbEntity
  8
0
  6
Continuous
 62
     7
370
    25
100
AcDbLine
 10
164.3128208011
 20
-69.0662247612
 30
0.0
 11
164.3128208011
 21
-68.1919056405
 31
0.0
  0
LINE
  5
44B
330
1F
100
AcDbEntity
  8
0
  6
Continuous
 62
     7
370
    25
100
AcDbLine
 10
164.3128208011
 20
-78.1919056405
 30
0.0
 11
164.3128208011
 21
-77.7009815475
 31
0.0
  0
ARC
  5
44C
330
1F
100
AcDbEntity
  8
0
  6
Continuous
 62
     7
370
    25
100
AcDbCircle
 10
151.0128208011
 20
-102.3919056405
 30
0.0
 40
6.000000000000014
100
AcDbArc
 50
90.0
 51
143.1301023541
  0
ARC
  5
44D
330
1F
100
AcDbEntity
  8
0
  6
Continuous
 62
     7
370
    25
100
AcDbCircle
 10
672.0128208011
 20
-102.3919056405
 30
0.0
 40
6.000000000000014
100
AcDbArc
 50
36.8698976459
 51
90.0
  0
LINE
  5
44E
330
1F
100
AcDbEntity
  8
0
  6
Continuous
 62
     7
370
    25
100
AcDbLine
 10
33.8067670858
 20
596.5364911679
 30
0.0
 11
33.4438293075
 21
595.9078644958
 31
0.0
  0
LINE
  5
44F
330
1F
100
AcDbEntity
  8
0
  6
Continuous
 62
     7
370
    25
100
AcDbLine
 10
33.4438293075
 20
589.6078644958
 30
0.0
 11
33.8067670858
 21
588.9792378237
 31
0.0
  0
ARC
  5
450
330
1F
100
AcDbEntity
  8
0
  6
Continuous
 62
     7
370
    25
100
AcDbCircle
 10
36.6720325377
 20
592.7578644958
 30
0.0
 40
8.00000000000001
100
AcDbArc
 50
195.2747479997
 51
210.0
  0
ARC
  5
451
330
1F
100
AcDbEntity
  8
0
  6
Continuous
 62
     7
370
    25
100
AcDbCircle
 10
36.6720325377
 20
592.7578644958
 30
0.0
 40
8.00000000000001
100
AcDbArc
 50
150.0
 51
164.7252520003
  0
LINE
  5
452
330
1F
100
AcDbEntity
  8
0
  6
Continuous
 62
     7
370
    25
100
AcDbLine
 10
31.7438293075
 20
596.7578644958
 30
0.0
 11
29.7438293075
 21
596.7578644958
 31
0.0
  0
LINE
  5
453
330
1F
100
AcDbEntity
  8
0
  6
Continuous
 62
     7
370
    25
100
AcDbLine
 10
29.7438293075
 20
588.7578644958
 30
0.0
 11
31.7438293075
 21
588.7578644958
 31
0.0
  0
LINE
  5
454
330
1F
100
AcDbEntity
  8
0
  6
Continuous
 62
     7
370
    25
100
AcDbLine
 10
33.4438293075
 20
594.7578644958
 30
0.0
 11
33.3438293075
 21
594.7578644958
 31
0.0
  0
LINE
  5
455
330
1F
100
AcDbEntity
  8
0
  6
Continuous
 62
     7
370
    25
100
AcDbLine
 10
33.3438293075
 20
590.7578644958
 30
0.0
 11
33.4438293075
 21
590.7578644958
 31
0.0
  0
CIRCLE
  5
456
330
1F
100
AcDbEntity
  8
0
  6
Continuous
 62
     7
370
    25
100
AcDbCircle
 10
45.0438293075
 20
291.7578644958
 30
0.0
 40
2.458750000016649
  0
CIRCLE
  5
457
330
1F
100
AcDbEntity
  8
0
  6
Continuous
 62
     7
370
    25
100
AcDbCircle
 10
45.0438293075
 20
291.7578644958
 30
0.0
 40
2.999999999999994
  0
CIRCLE
  5
458
330
1F
100
AcDbEntity
  8
0
  6
Continuous
 62
     7
370
    25
100
AcDbCircle
 10
45.0438293074
 20
617.7578644958
 30
0.0
 40
2.458750000016634
  0
CIRCLE
  5
459
330
1F
100
AcDbEntity
  8
0
  6
Continuous
 62
     7
370
    25
100
AcDbCircle
 10
45.0438293074
 20
617.7578644958
 30
0.0
 40
3.000000000000008
  0
LINE
  5
45A
330
1F
100
AcDbEntity
  8
0
  6
Continuous
 62
     7
370
    25
100
AcDbLine
 10
26.4438293075
 20
-4.7714248261
 30
0.0
 11
26.4438293075
 21
588.2871538176
 31
0.0
  0
LINE
  5
45B
330
1F
100
AcDbEntity
  8
0
  6
Continuous
 62
     7
370
    25
100
AcDbLine
 10
16.8438293075
 20
-4.7714248261
 30
0.0
 11
26.4438293075
 21
-4.7714248261
 31
0.0
  0
LINE
  5
45C
330
1F
100
AcDbEntity
  8
0
  6
Continuous
 62
     7
370
    25
100
AcDbLine
 10
16.8438293075
 20
588.2871538176
 30
0.0
 11
26.4438293075
 21
588.2871538176
 31
0.0
  0
SPLINE
  5
45D
330
1F
100
AcDbEntity
  8
0
  6
Continuous
 62
     7
370
    25
100
AcDbSpline
210
0.0
220
0.0
230
1.0
 70
     8
 71
     3
 72
    20
 73
    16
 74
     0
 42
0.000000001
 43
0.00000001
 40
0.0
 40
0.0
 40
0.0
 40
0.0
 40
0.125000000000002
 40
0.125000000000002
 40
0.2500000000000039
 40
0.2500000000000039
 40
0.3750000000000059
 40
0.3750000000000059
 40
0.5000000000000079
 40
0.5000000000000079
 40
0.7500000000000118
 40
0.7500000000000118
 40
0.8750000000000059
 40
0.8750000000000059
 40
1.0
 40
1.0
 40
1.0
 40
1.0
 10
14.44382930745262
 20
587.3578644957578
 30
0.0
 10
14.44382930745262
 20
587.3969052266124
 30
0.0
 10
14.45936586792745
 20
587.4354239308121
 30
0.0
 10
14.52068421988807
 20
587.51283068212
 30
0.0
 10
14.56710796547487
 20
587.5519751001066
 30
0.0
 10
14.68705883562899
 20
587.6291258540218
 30
0.0
 10
14.76066347991238
 20
587.6674534357629
 30
0.0
 10
14.93539384600803
 20
587.7449997562394
 30
0.0
 10
15.0362444749096
 20
587.7839759639081
 30
0.0
 10
15.36752975489356
 20
587.899470820353
 30
0.0
 10
15.63520991627743
 20
587.9773832640232
 30
0.0
 10
16.06788394233286
 20
588.092863189424
 30
0.0
 10
16.21940202918398
 20
588.1317289852892
 30
0.0
 10
16.52882778657011
 20
588.2095033189578
 30
0.0
 10
16.68545011626387
 20
588.2481130859125
 30
0.0
 10
16.8438293074526
 20
588.2871538176391
 30
0.0
  0
SPLINE
  5
45E
330
1F
100
AcDbEntity
  8
0
  6
Continuous
 62
     7
370
    25
100
AcDbSpline
210
0.0
220
0.0
230
1.0
 70
     8
 71
     3
 72
    20
 73
    16
 74
     0
 42
0.000000001
 43
0.00000001
 40
0.0
 40
0.0
 40
0.0
 40
0.0
 40
0.1249999999999974
 40
0.1249999999999974
 40
0.2499999999999948
 40
0.2499999999999948
 40
0.3749999999999922
 40
0.3749999999999922
 40
0.4999999999999897
 40
0.4999999999999897
 40
0.7499999999999948
 40
0.7499999999999948
 40
0.8749999999999974
 40
0.8749999999999974
 40
1.0
 40
1.0
 40
1.0
 40
1.0
 10
16.8438293074526
 20
-4.771424826123472
 30
0.0
 10
16.6854501198019
 20
-4.732384095269104
 30
0.0
 10
16.52920439511022
 20
-4.69386539106914
 30
0.0
 10
16.2212125456936
 20
-4.616458639761234
 30
0.0
 10
16.06856843822247
 20
-4.577314221774598
 30
0.0
 10
15.77948414903539
 20
-4.500163467859308
 30
0.0
 10
15.64167961085135
 20
-4.46183588611837
 30
0.0
 10
15.38006093521244
 20
-4.384289565641741
 30
0.0
 10
15.25731462852979
 20
-4.345313357973057
 30
0.0
 10
14.92599025158213
 20
-4.229818501527927
 30
0.0
 10
14.74697912755387
 20
-4.151906057857979
 30
0.0
 10
14.56736402817299
 20
-4.036426132456972
 30
0.0
 10
14.52111967930528
 20
-3.997560336591988
 30
0.0
 10
14.45936637329405
 20
-3.919786002923586
 30
0.0
 10
14.44382930745262
 20
-3.881176235968842
 30
0.0
 10
14.44382930745262
 20
-3.842135504242117
 30
0.0
  0
LINE
  5
45F
330
1F
100
AcDbEntity
  8
0
  6
Continuous
 62
     7
370
    25
100
AcDbLine
 10
14.4438293075
 20
-3.8421355042
 30
0.0
 11
14.4438293075
 21
587.3578644958
 31
0.0
  0
SPLINE
  5
460
330
1F
100
AcDbEntity
  8
0
  6
Continuous
 62
     7
370
    25
100
AcDbSpline
210
0.0
220
0.0
230
1.0
 70
     8
 71
     3
 72
    20
 73
    16
 74
     0
 42
0.000000001
 43
0.00000001
 40
0.0
 40
0.0
 40
0.0
 40
0.0
 40
0.1250000000000107
 40
0.1250000000000107
 40
0.2500000000000215
 40
0.2500000000000215
 40
0.3750000000000322
 40
0.3750000000000322
 40
0.500000000000043
 40
0.500000000000043
 40
0.7500000000000347
 40
0.7500000000000347
 40
0.8750000000000174
 40
0.8750000000000174
 40
1.0
 40
1.0
 40
1.0
 40
1.0
 10
14.44382930745264
 20
-3.842135504242172
 30
0.0
 10
14.44382930745264
 20
-4.000514691892832
 30
0.0
 10
14.45936586792748
 20
-4.156760416584748
 30
0.0
 10
14.52068421988809
 20
-4.464752266001238
 30
0.0
 10
14.56710796547492
 20
-4.617396373472305
 30
0.0
 10
14.68705883562904
 20
-4.906480662659418
 30
0.0
 10
14.76066347991245
 20
-5.04428520084349
 30
0.0
 10
14.93539384600808
 20
-5.305903876482276
 30
0.0
 10
15.03624447490962
 20
-5.428650183164963
 30
0.0
 10
15.36752975489357
 20
-5.759974560112735
 30
0.0
 10
15.63520991627742
 20
-5.938985684140974
 30
0.0
 10
16.06788394233282
 20
-6.118600783521777
 30
0.0
 10
16.21940202918397
 20
-6.164845132389463
 30
0.0
 10
16.52882778657007
 20
-6.226598438400732
 30
0.0
 10
16.68545011626391
 20
-6.242135504242241
 30
0.0
 10
16.84382930745265
 20
-6.24213550424213
 30
0.0
  0
SPLINE
  5
461
330
1F
100
AcDbEntity
  8
0
  6
Continuous
 62
     7
370
    25
100
AcDbSpline
210
0.0
220
0.0
230
1.0
 70
     8
 71
     3
 72
     9
 73
     5
 74
     0
 42
0.000000001
 43
0.00000001
 40
0.0
 40
0.0
 40
0.0
 40
0.0
 40
0.4258694941524693
 40
1.0
 40
1.0
 40
1.0
 40
1.0
 10
16.2874378804434
 20
-4.652056941564842
 30
0.0
 10
16.35784205704829
 20
-4.701978566409359
 30
0.0
 10
16.52316072291096
 20
-4.819201390607708
 30
0.0
 10
16.72687228516734
 20
-4.833770775769352
 30
0.0
 10
16.84382930745258
 20
-4.842135504242117
 30
0.0
  0
LINE
  5
462
330
1F
100
AcDbEntity
  8
0
  6
Continuous
 62
     7
370
    25
100
AcDbLine
 10
16.8438293075
 20
-6.2421355042
 30
0.0
 11
16.8438293075
 21
-4.8421355042
 31
0.0
  0
SPLINE
  5
463
330
1F
100
AcDbEntity
  8
0
  6
Continuous
 62
     7
370
    25
100
AcDbSpline
210
0.0
220
0.0
230
1.0
 70
     8
 71
     3
 72
    20
 73
    16
 74
     0
 42
0.000000001
 43
0.00000001
 40
0.0
 40
0.0
 40
0.0
 40
0.0
 40
0.1250000000000011
 40
0.1250000000000011
 40
0.2500000000000024
 40
0.2500000000000024
 40
0.3750000000000038
 40
0.3750000000000038
 40
0.500000000000005
 40
0.500000000000005
 40
0.7499999999999972
 40
0.7499999999999972
 40
0.8749999999999987
 40
0.8749999999999987
 40
1.0
 40
1.0
 40
1.0
 40
1.0
 10
16.8438293074526
 20
589.7578644957579
 30
0.0
 10
16.6854501198019
 20
589.7578644957579
 30
0.0
 10
16.52920439511026
 20
589.7423279352828
 30
0.0
 10
16.22121254569364
 20
589.6810095833223
 30
0.0
 10
16.0685684382225
 20
589.6345858377357
 30
0.0
 10
15.77948414903542
 20
589.5146349675814
 30
0.0
 10
15.64167961085135
 20
589.4410303232979
 30
0.0
 10
15.38006093521247
 20
589.2662999572022
 30
0.0
 10
15.25731462852979
 20
589.1654493283012
 30
0.0
 10
14.92599025158205
 20
588.834164048317
 30
0.0
 10
14.74697912755386
 20
588.566483886933
 30
0.0
 10
14.56736402817298
 20
588.1338098608777
 30
0.0
 10
14.52111967930527
 20
587.9822917740266
 30
0.0
 10
14.45936637329403
 20
587.6728660166405
 30
0.0
 10
14.44382930745262
 20
587.5162436869466
 30
0.0
 10
14.44382930745262
 20
587.3578644957578
 30
0.0
  0
LINE
  5
464
330
1F
100
AcDbEntity
  8
0
  6
Continuous
 62
     7
370
    25
100
AcDbLine
 10
16.8438293075
 20
589.7578644958
 30
0.0
 11
16.8438293075
 21
588.3578644958
 31
0.0
  0
SPLINE
  5
465
330
1F
100
AcDbEntity
  8
0
  6
Continuous
 62
     7
370
    25
100
AcDbSpline
210
0.0
220
0.0
230
1.0
 70
     8
 71
     3
 72
     9
 73
     5
 74
     0
 42
0.000000001
 43
0.00000001
 40
0.0
 40
0.0
 40
0.0
 40
0.0
 40
0.7584558214374579
 40
1.0
 40
1.0
 40
1.0
 40
1.0
 10
16.84382930745261
 20
588.3578644957579
 30
0.0
 10
16.69212152951634
 20
588.3468099599245
 30
0.0
 10
16.49209962494614
 20
588.3322349042376
 30
0.0
 10
16.34154553355468
 20
588.2091385206377
 30
0.0
 10
16.3051800692203
 20
588.1794053057772
 30
0.0
  0
LINE
  5
466
330
1F
100
AcDbEntity
  8
0
  6
Continuous
 62
     7
370
    25
100
AcDbLine
 10
16.8438293075
 20
-4.8421355042
 30
0.0
 11
26.4438293075
 21
-4.8421355042
 31
0.0
  0
LINE
  5
467
330
1F
100
AcDbEntity
  8
0
  6
Continuous
 62
     7
370
    25
100
AcDbLine
 10
26.4438293075
 20
-6.2421355042
 30
0.0
 11
26.4438293075
 21
-4.8421355042
 31
0.0
  0
LINE
  5
468
330
1F
100
AcDbEntity
  8
0
  6
Continuous
 62
     7
370
    25
100
AcDbLine
 10
16.8438293075
 20
-6.2421355042
 30
0.0
 11
26.4438293075
 21
-6.2421355042
 31
0.0
  0
LINE
  5
469
330
1F
100
AcDbEntity
  8
0
  6
Continuous
 62
     7
370
    25
100
AcDbLine
 10
16.8438293075
 20
589.7578644958
 30
0.0
 11
26.4438293075
 21
589.7578644958
 31
0.0
  0
LINE
  5
46A
330
1F
100
AcDbEntity
  8
0
  6
Continuous
 62
     7
370
    25
100
AcDbLine
 10
26.4438293075
 20
589.7578644958
 30
0.0
 11
26.4438293075
 21
588.3578644958
 31
0.0
  0
LINE
  5
46B
330
1F
100
AcDbEntity
  8
0
  6
Continuous
 62
     7
370
    25
100
AcDbLine
 10
16.8438293075
 20
588.3578644958
 30
0.0
 11
26.4438293075
 21
588.3578644958
 31
0.0
  0
ARC
  5
46C
330
1F
100
AcDbEntity
  8
0
  6
Continuous
 62
     7
370
    25
100
AcDbCircle
 10
50.5438293075
 20
621.2578644958
 30
0.0
 40
3.0
100
AcDbArc
 50
0.0
 51
90.0
  0
LINE
  5
46D
330
1F
100
AcDbEntity
  8
0
  6
Continuous
 62
     7
370
    25
100
AcDbLine
 10
53.5438293075
 20
587.0578644958
 30
0.0
 11
53.5438293075
 21
621.2578644958
 31
0.0
  0
LINE
  5
46E
330
1F
100
AcDbEntity
  8
0
  6
Continuous
 62
     7
370
    25
100
AcDbLine
 10
34.5438293075
 20
604.2578644958
 30
0.0
 11
34.5438293075
 21
587.0578644958
 31
0.0
  0
LINE
  5
46F
330
1F
100
AcDbEntity
  8
0
  6
Continuous
 62
     7
370
    25
100
AcDbLine
 10
30.5438293075
 20
604.2578644958
 30
0.0
 11
34.5438293075
 21
604.2578644958
 31
0.0
  0
LINE
  5
470
330
1F
100
AcDbEntity
  8
0
  6
Continuous
 62
     7
370
    25
100
AcDbLine
 10
30.5438293075
 20
621.2578644958
 30
0.0
 11
30.5438293075
 21
604.2578644958
 31
0.0
  0
ARC
  5
471
330
1F
100
AcDbEntity
  8
0
  6
Continuous
 62
     7
370
    25
100
AcDbCircle
 10
33.5438293075
 20
621.2578644958
 30
0.0
 40
3.000000000000007
100
AcDbArc
 50
90.0
 51
180.0
  0
LINE
  5
472
330
1F
100
AcDbEntity
  8
0
  6
Continuous
 62
     7
370
    25
100
AcDbLine
 10
50.5438293075
 20
624.2578644958
 30
0.0
 11
33.5438293075
 21
624.2578644958
 31
0.0
  0
CIRCLE
  5
473
330
1F
100
AcDbEntity
  8
0
  6
Continuous
 62
     7
370
    25
100
AcDbCircle
 10
45.0438293075
 20
617.7578644958
 30
0.0
 40
3.249999999999886
  0
CIRCLE
  5
474
330
1F
100
AcDbEntity
  8
0
  6
Continuous
 62
     7
370
    25
100
AcDbCircle
 10
45.0438293075
 20
592.7578644958
 30
0.0
 40
3.250000000000114
  0
LINE
  5
475
330
1F
100
AcDbEntity
  8
0
  6
Continuous
 62
     7
370
    25
100
AcDbLine
 10
34.5438293075
 20
585.2578644958
 30
0.0
 11
34.5438293075
 21
587.0578644958
 31
0.0
  0
LINE
  5
476
330
1F
100
AcDbEntity
  8
0
  6
Continuous
 62
     7
370
    25
100
AcDbLine
 10
53.5438293075
 20
587.0578644958
 30
0.0
 11
53.5438293075
 21
585.2578644958
 31
0.0
  0
LINE
  5
477
330
1F
100
AcDbEntity
  8
0
  6
Continuous
 62
     7
370
    25
100
AcDbLine
 10
53.5438293075
 20
585.2578644958
 30
0.0
 11
34.5438293075
 21
585.2578644958
 31
0.0
  0
ARC
  5
478
330
1F
100
AcDbEntity
  8
0
  6
Continuous
 62
     7
370
    25
100
AcDbCircle
 10
34.3438293075
 20
587.0578644958
 30
0.0
 40
1.800000000000068
100
AcDbArc
 50
180.0
 51
270.0
  0
ARC
  5
479
330
1F
100
AcDbEntity
  8
0
  6
Continuous
 62
     7
370
    25
100
AcDbCircle
 10
34.3438293075
 20
587.0578644958
 30
0.0
 40
1.0
100
AcDbArc
 50
180.0
 51
270.0
  0
LINE
  5
47A
330
1F
100
AcDbEntity
  8
0
  6
Continuous
 62
     7
370
    25
100
AcDbLine
 10
34.3438293075
 20
586.0578644958
 30
0.0
 11
34.5438293075
 21
586.0578644958
 31
0.0
  0
LINE
  5
47B
330
1F
100
AcDbEntity
  8
0
  6
Continuous
 62
     7
370
    25
100
AcDbLine
 10
34.3438293075
 20
585.2578644958
 30
0.0
 11
34.5438293075
 21
585.2578644958
 31
0.0
  0
LINE
  5
47C
330
1F
100
AcDbEntity
  8
0
  6
Continuous
 62
     7
370
    25
100
AcDbLine
 10
32.5438293075
 20
597.2578644958
 30
0.0
 11
33.3438293075
 21
597.2578644958
 31
0.0
  0
LINE
  5
47D
330
1F
100
AcDbEntity
  8
0
  6
Continuous
 62
     7
370
    25
100
AcDbLine
 10
33.3438293075
 20
587.0578644958
 30
0.0
 11
33.3438293075
 21
597.2578644958
 31
0.0
  0
LINE
  5
47E
330
1F
100
AcDbEntity
  8
0
  6
Continuous
 62
     7
370
    25
100
AcDbLine
 10
53.5438293075
 20
586.0578644958
 30
0.0
 11
74.5438293075
 21
586.0578644958
 31
0.0
  0
LINE
  5
47F
330
1F
100
AcDbEntity
  8
0
  6
Continuous
 62
     7
370
    25
100
AcDbLine
 10
53.5438293075
 20
585.2578644958
 30
0.0
 11
74.5438293075
 21
585.2578644958
 31
0.0
  0
LINE
  5
480
330
1F
100
AcDbEntity
  8
0
  6
Continuous
 62
     7
370
    25
100
AcDbLine
 10
77.5438293075
 20
586.0578644958
 30
0.0
 11
77.5438293075
 21
585.2578644958
 31
0.0
  0
LINE
  5
481
330
1F
100
AcDbEntity
  8
0
  6
Continuous
 62
     7
370
    25
100
AcDbLine
 10
74.5438293075
 20
586.0578644958
 30
0.0
 11
77.5438293075
 21
586.0578644958
 31
0.0
  0
LINE
  5
482
330
1F
100
AcDbEntity
  8
0
  6
Continuous
 62
     7
370
    25
100
AcDbLine
 10
77.5438293075
 20
585.2578644958
 30
0.0
 11
74.5438293075
 21
585.2578644958
 31
0.0
  0
LINE
  5
483
330
1F
100
AcDbEntity
  8
0
  6
Continuous
 62
     7
370
    25
100
AcDbLine
 10
76.4484426992
 20
590.2578644958
 30
0.0
 11
76.4484426992
 21
589.4578644958
 31
0.0
  0
LINE
  5
484
330
1F
100
AcDbEntity
  8
0
  6
Continuous
 62
     7
370
    25
100
AcDbLine
 10
76.4484426992
 20
589.4578644958
 30
0.0
 11
73.4484426992
 21
589.4578644958
 31
0.0
  0
LINE
  5
485
330
1F
100
AcDbEntity
  8
0
  6
Continuous
 62
     7
370
    25
100
AcDbLine
 10
73.4484426992
 20
590.2578644958
 30
0.0
 11
76.4484426992
 21
590.2578644958
 31
0.0
  0
LINE
  5
486
330
1F
100
AcDbEntity
  8
0
  6
Continuous
 62
     7
370
    25
100
AcDbLine
 10
66.9307512456
 20
589.4578644958
 30
0.0
 11
73.4484426992
 21
589.4578644958
 31
0.0
  0
LINE
  5
487
330
1F
100
AcDbEntity
  8
0
  6
Continuous
 62
     7
370
    25
100
AcDbLine
 10
66.9307512456
 20
590.2578644958
 30
0.0
 11
73.4484426992
 21
590.2578644958
 31
0.0
  0
ARC
  5
488
330
1F
100
AcDbEntity
  8
0
  6
Continuous
 62
     7
370
    25
100
AcDbCircle
 10
66.9307512456
 20
588.4578644958
 30
0.0
 40
1.800000000000068
100
AcDbArc
 50
90.0
 51
120.0
  0
ARC
  5
489
330
1F
100
AcDbEntity
  8
0
  6
Continuous
 62
     7
370
    25
100
AcDbCircle
 10
66.9307512456
 20
588.4578644958
 30
0.0
 40
1.0
100
AcDbArc
 50
90.0
 51
120.0
  0
LINE
  5
48A
330
1F
100
AcDbEntity
  8
0
  6
Continuous
 62
     7
370
    25
100
AcDbLine
 10
66.0307512456
 20
590.0167102226
 30
0.0
 11
59.405880115
 21
586.191839092
 31
0.0
  0
LINE
  5
48B
330
1F
100
AcDbEntity
  8
0
  6
Continuous
 62
     7
370
    25
100
AcDbLine
 10
66.4307512456
 20
589.3238898995
 30
0.0
 11
60.7738293075
 21
586.0578644958
 31
0.0
  0
ARC
  5
48C
330
1F
100
AcDbEntity
  8
0
  6
Continuous
 62
     7
370
    25
100
AcDbCircle
 10
58.905880115
 20
587.0578644958
 30
0.0
 40
1.0
100
AcDbArc
 50
270.0
 51
300.0
  0
CIRCLE
  5
48D
330
1F
100
AcDbEntity
  8
0
  6
Continuous
 62
     7
370
    25
100
AcDbCircle
 10
45.0438293075
 20
41.7578644958
 30
0.0
 40
2.458750000016577
  0
CIRCLE
  5
48E
330
1F
100
AcDbEntity
  8
0
  6
Continuous
 62
     7
370
    25
100
AcDbCircle
 10
45.0438293075
 20
41.7578644958
 30
0.0
 40
3.000000000000004
  0
CIRCLE
  5
48F
330
1F
100
AcDbEntity
  8
0
  6
Continuous
 62
     7
370
    25
100
AcDbCircle
 10
45.0438293074
 20
592.7578644958
 30
0.0
 40
2.458750000016634
  0
CIRCLE
  5
490
330
1F
100
AcDbEntity
  8
0
  6
Continuous
 62
     7
370
    25
100
AcDbCircle
 10
45.0438293074
 20
592.7578644958
 30
0.0
 40
3.000000000000008
  0
SPLINE
  5
491
330
1F
100
AcDbEntity
  8
0
  6
Continuous
 62
     7
370
    25
100
AcDbSpline
210
0.0
220
0.0
230
1.0
 70
     8
 71
     3
 72
    12
 73
     8
 74
     0
 42
0.000000001
 43
0.00000001
 40
0.0
 40
0.0
 40
0.0
 40
0.0
 40
0.5000000000000079
 40
0.5000000000000079
 40
0.7500000000000039
 40
0.7500000000000039
 40
1.0
 40
1.0
 40
1.0
 40
1.0
 10
33.95850929283761
 20
591.3170351738876
 30
0.0
 10
33.7680150034141
 20
590.9007340902332
 30
0.0
 10
33.64634059035172
 20
590.4781955622447
 30
0.0
 10
33.64568439982049
 20
589.8279054227837
 30
0.0
 10
33.67551840161488
 20
589.6113632048693
 30
0.0
 10
33.78444827172248
 20
589.1859951996291
 30
0.0
 10
33.86314345878535
 20
588.9758432206438
 30
0.0
 10
33.9585092928381
 20
588.7674332983311
 30
0.0
  0
LINE
  5
492
330
1F
100
AcDbEntity
  8
0
  6
Continuous
 62
     7
370
    25
100
AcDbLine
 10
33.9585092928
 20
588.7674332983
 30
0.0
 11
33.8606342556
 21
589.0103380486
 31
0.0
  0
SPLINE
  5
493
330
1F
100
AcDbEntity
  8
0
  6
Continuous
 62
     7
370
    25
100
AcDbSpline
210
0.0
220
0.0
230
1.0
 70
     8
 71
     3
 72
    12
 73
     8
 74
     0
 42
0.000000001
 43
0.00000001
 40
0.0
 40
0.0
 40
0.0
 40
0.0
 40
0.5000000000000094
 40
0.5000000000000094
 40
0.7500000000000047
 40
0.7500000000000047
 40
1.0
 40
1.0
 40
1.0
 40
1.0
 10
33.95850929283761
 20
596.7482956931849
 30
0.0
 10
33.7680150034141
 20
596.5130359007418
 30
0.0
 10
33.64634059035172
 20
596.2742512078913
 30
0.0
 10
33.64568439982049
 20
595.9067596753342
 30
0.0
 10
33.67551840161488
 20
595.7843874806849
 30
0.0
 10
33.78444827172247
 20
595.5440037955254
 30
0.0
 10
33.86314345878534
 20
595.4252428484639
 30
0.0
 10
33.9585092928381
 20
595.3074663713143
 30
0.0
  0
SPLINE
  5
494
330
1F
100
AcDbEntity
  8
0
  6
Continuous
 62
     7
370
    25
100
AcDbSpline
210
0.0
220
0.0
230
1.0
 70
     8
 71
     3
 72
    14
 73
    10
 74
     0
 42
0.000000001
 43
0.00000001
 40
0.0
 40
0.0
 40
0.0
 40
0.0
 40
0.25
 40
0.25
 40
0.5
 40
0.5
 40
0.75
 40
0.75
 40
1.0
 40
1.0
 40
1.0
 40
1.0
 10
33.95850929283858
 20
595.3074663713143
 30
0.0
 10
33.86363468352798
 20
594.9829601420256
 30
0.0
 10
33.78402975865222
 20
594.6505009196312
 30
0.0
 10
33.67519314375799
 20
593.983931004723
 30
0.0
 10
33.6458695380675
 20
593.6488547474479
 30
0.0
 10
33.64593431981309
 20
592.9745112772202
 30
0.0
 10
33.67609051313946
 20
592.6327318565415
 30
0.0
 10
33.78567571450517
 20
591.9663179369367
 30
0.0
 10
33.86421868830735
 20
591.6395438909839
 30
0.0
 10
33.9585092928386
 20
591.3170351738875
 30
0.0
  0
LINE
  5
495
330
1F
100
AcDbEntity
  8
0
  6
Continuous
 62
     7
370
    25
100
AcDbLine
 10
33.4438293075
 20
589.6078644958
 30
0.0
 11
33.4438293075
 21
595.9078644958
 31
0.0
  0
LINE
  5
496
330
1F
100
AcDbEntity
  8
0
  6
Continuous
 62
     7
370
    25
100
AcDbLine
 10
34.5438293075
 20
591.3170351739
 30
0.0
 11
33.9585092928
 21
591.3170351739
 31
0.0
  0
LINE
  5
497
330
1F
100
AcDbEntity
  8
0
  6
Continuous
 62
     7
370
    25
100
AcDbLine
 10
34.5438293075
 20
595.3074663713
 30
0.0
 11
33.9585092928
 21
595.3074663713
 31
0.0
  0
LINE
  5
498
330
1F
100
AcDbEntity
  8
0
  6
Continuous
 62
     7
370
    25
100
AcDbLine
 10
34.5438293075
 20
588.7674332983
 30
0.0
 11
33.9585092928
 21
588.7674332983
 31
0.0
  0
LINE
  5
499
330
1F
100
AcDbEntity
  8
0
  6
Continuous
 62
     7
370
    25
100
AcDbLine
 10
34.5438293075
 20
596.7482956932
 30
0.0
 11
33.9585092928
 21
596.7482956932
 31
0.0
  0
LINE
  5
49A
330
1F
100
AcDbEntity
  8
0
  6
Continuous
 62
     7
370
    25
100
AcDbLine
 10
30.7438293075
 20
602.7578644958
 30
0.0
 11
20.8438293075
 21
602.7578644958
 31
0.0
  0
LINE
  5
49B
330
1F
100
AcDbEntity
  8
0
  6
Continuous
 62
     7
370
    25
100
AcDbLine
 10
30.7438293075
 20
601.9578644958
 30
0.0
 11
30.7438293075
 21
602.7578644958
 31
0.0
  0
LINE
  5
49C
330
1F
100
AcDbEntity
  8
0
  6
Continuous
 62
     7
370
    25
100
AcDbLine
 10
20.8438293075
 20
601.9578644958
 30
0.0
 11
30.7438293075
 21
601.9578644958
 31
0.0
  0
LINE
  5
49D
330
1F
100
AcDbEntity
  8
0
  6
Continuous
 62
     7
370
    25
100
AcDbLine
 10
20.8438293075
 20
601.9578644958
 30
0.0
 11
20.8438293075
 21
601.8578644958
 31
0.0
  0
LINE
  5
49E
330
1F
100
AcDbEntity
  8
0
  6
Continuous
 62
     7
370
    25
100
AcDbLine
 10
20.8438293075
 20
601.8578644958
 30
0.0
 11
25.9938293075
 21
601.8578644958
 31
0.0
  0
LINE
  5
49F
330
1F
100
AcDbEntity
  8
0
  6
Continuous
 62
     7
370
    25
100
AcDbLine
 10
25.9938293075
 20
601.0578644958
 30
0.0
 11
25.9938293075
 21
601.8578644958
 31
0.0
  0
LINE
  5
4A0
330
1F
100
AcDbEntity
  8
0
  6
Continuous
 62
     7
370
    25
100
AcDbLine
 10
20.8438293075
 20
601.0578644958
 30
0.0
 11
25.9938293075
 21
601.0578644958
 31
0.0
  0
ARC
  5
4A1
330
1F
100
AcDbEntity
  8
0
  6
Continuous
 62
     7
370
    25
100
AcDbCircle
 10
20.8438293075
 20
601.9078644958
 30
0.0
 40
0.8500000000000227
100
AcDbArc
 50
90.0
 51
270.0
  0
LINE
  5
4A2
330
1F
100
AcDbEntity
  8
0
  6
Continuous
 62
     7
370
    25
100
AcDbLine
 10
30.7438293075
 20
583.5578644958
 30
0.0
 11
26.4438293075
 21
583.5578644958
 31
0.0
  0
LINE
  5
4A3
330
1F
100
AcDbEntity
  8
0
  6
Continuous
 62
     7
370
    25
100
AcDbLine
 10
30.7438293075
 20
582.7578644958
 30
0.0
 11
30.7438293075
 21
583.5578644958
 31
0.0
  0
LINE
  5
4A4
330
1F
100
AcDbEntity
  8
0
  6
Continuous
 62
     7
370
    25
100
AcDbLine
 10
30.7438293075
 20
582.7578644958
 30
0.0
 11
26.4438293075
 21
582.7578644958
 31
0.0
  0
LINE
  5
4A5
330
1F
100
AcDbEntity
  8
0
  6
Continuous
 62
     7
370
    25
100
AcDbLine
 10
32.5438293075
 20
584.5578644958
 30
0.0
 11
32.5438293075
 21
600.9578644958
 31
0.0
  0
ARC
  5
4A6
330
1F
100
AcDbEntity
  8
0
  6
Continuous
 62
     7
370
    25
100
AcDbCircle
 10
30.7438293075
 20
584.5578644958
 30
0.0
 40
1.000000000000032
100
AcDbArc
 50
270.0
 51
0.0
  0
LINE
  5
4A7
330
1F
100
AcDbEntity
  8
0
  6
Continuous
 62
     7
370
    25
100
AcDbLine
 10
31.7438293075
 20
584.5578644958
 30
0.0
 11
31.7438293075
 21
600.9578644958
 31
0.0
  0
ARC
  5
4A8
330
1F
100
AcDbEntity
  8
0
  6
Continuous
 62
     7
370
    25
100
AcDbCircle
 10
30.7438293075
 20
600.9578644958
 30
0.0
 40
1.800000000000068
100
AcDbArc
 50
0.0
 51
90.0
  0
ARC
  5
4A9
330
1F
100
AcDbEntity
  8
0
  6
Continuous
 62
     7
370
    25
100
AcDbCircle
 10
30.7438293075
 20
600.9578644958
 30
0.0
 40
1.000000000000114
100
AcDbArc
 50
0.0
 51
90.0
  0
ARC
  5
4AA
330
1F
100
AcDbEntity
  8
0
  6
Continuous
 62
     7
370
    25
100
AcDbCircle
 10
30.7438293075
 20
584.5578644958
 30
0.0
 40
1.799999999999955
100
AcDbArc
 50
270.0
 51
0.0
  0
LWPOLYLINE
  5
4AB
330
1F
100
AcDbEntity
  8
0
  6
Continuous
 62
     7
370
    25
100
AcDbPolyline
 90
        3
 70
   128
 43
0.0
 10
28.7377851899
 20
593.4816458892
 10
28.7333846659
 20
593.4389505695
 10
28.7171598172
 20
593.2552522407
  0
ARC
  5
4AC
330
1F
100
AcDbEntity
  8
0
  6
Continuous
 62
     7
370
    25
100
AcDbCircle
 10
29.2415527416
 20
593.5683800782
 30
0.0
 40
0.610767535007466
100
AcDbArc
 50
210.8424581413
 51
243.3898036634
  0
ARC
  5
4AD
330
1F
100
AcDbEntity
  8
0
  6
Continuous
 62
     7
370
    25
100
AcDbCircle
 10
38.1244866631
 20
592.4268671269
 30
0.0
 40
9.175815043697465
100
AcDbArc
 50
177.9327321276
 51
179.6562100985
  0
ARC
  5
4AE
330
1F
100
AcDbEntity
  8
0
  6
Continuous
 62
     7
370
    25
100
AcDbCircle
 10
36.4808092052
 20
592.6637272207
 30
0.0
 40
7.786288415097651
100
AcDbArc
 50
184.3702527064
 51
195.2299003794
  0
ARC
  5
4AF
330
1F
100
AcDbEntity
  8
0
  6
Continuous
 62
     7
370
    25
100
AcDbCircle
 10
29.1891008725
 20
590.7133633794
 30
0.0
 40
0.2406805056720548
100
AcDbArc
 50
156.7420981705
 51
203.2579018295
  0
ARC
  5
4B0
330
1F
100
AcDbEntity
  8
0
  6
Continuous
 62
     7
370
    25
100
AcDbCircle
 10
36.4808092052
 20
592.8538025156
 30
0.0
 40
7.786288415097676
100
AcDbArc
 50
184.3702527064
 51
195.2299003794
  0
ARC
  5
4B1
330
1F
100
AcDbEntity
  8
0
  6
Continuous
 62
     7
370
    25
100
AcDbCircle
 10
29.2415527416
 20
591.9473489133
 30
0.0
 40
0.6107675350095876
100
AcDbArc
 50
116.6101963367
 51
149.1575418586
  0
ARC
  5
4B2
330
1F
100
AcDbEntity
  8
0
  6
Continuous
 62
     7
370
    25
100
AcDbCircle
 10
38.0476148831
 20
593.0858460084
 30
0.0
 40
9.098942710246812
100
AcDbArc
 50
176.2668736478
 51
183.7331263522
  0
ARC
  5
4B3
330
1F
100
AcDbEntity
  8
0
  6
Continuous
 62
     7
370
    25
100
AcDbCircle
 10
29.2415527416
 20
593.1321996981
 30
0.0
 40
0.6107675350083129
100
AcDbArc
 50
116.6101963367
 51
149.1575418587
  0
ARC
  5
4B4
330
1F
100
AcDbEntity
  8
0
  6
Continuous
 62
     7
370
    25
100
AcDbCircle
 10
36.4808092052
 20
592.8520017708
 30
0.0
 40
7.786288415097272
100
AcDbArc
 50
164.7700996206
 51
175.6297472936
  0
ARC
  5
4B5
330
1F
100
AcDbEntity
  8
0
  6
Continuous
 62
     7
370
    25
100
AcDbCircle
 10
29.1010630861
 20
594.8234668726
 30
0.0
 40
0.152243242061909
100
AcDbArc
 50
150.9451665856
 51
179.144911656
  0
LINE
  5
4B6
330
1F
100
AcDbEntity
  8
0
  6
Continuous
 62
     7
370
    25
100
AcDbLine
 10
29.7438293075
 20
596.7578644958
 30
0.0
 11
29.7438293075
 21
588.7578644958
 31
0.0
  0
LINE
  5
4B7
330
1F
100
AcDbEntity
  8
0
  6
Continuous
 62
     7
370
    25
100
AcDbLine
 10
28.7171598172
 20
593.4453275356
 30
0.0
 11
28.9557154751
 21
593.4453275356
 31
0.0
  0
LINE
  5
4B8
330
1F
100
AcDbEntity
  8
0
  6
Continuous
 62
     7
370
    25
100
AcDbLine
 10
28.7171598172
 20
592.0704014559
 30
0.0
 11
28.7340268089
 21
592.0704014559
 31
0.0
  0
LINE
  5
4B9
330
1F
100
AcDbEntity
  8
0
  6
Continuous
 62
     7
370
    25
100
AcDbLine
 10
28.7171598172
 20
593.2552522407
 30
0.0
 11
28.9502101336
 21
593.2552522407
 31
0.0
  0
LINE
  5
4BA
330
1F
100
AcDbEntity
  8
0
  6
Continuous
 62
     7
370
    25
100
AcDbLine
 10
52.9438293075
 20
534.0921713331
 30
0.0
 11
52.9438293075
 21
528.9510950963
 31
0.0
  0
ARC
  5
4BB
330
1F
100
AcDbEntity
  8
0
  6
Continuous
 62
     7
370
    25
100
AcDbCircle
 10
51.0023181967
 20
529.0133376721
 30
0.0
 40
1.942508566655466
100
AcDbArc
 50
268.2745645851
 51
358.1637932023
  0
LINE
  5
4BC
330
1F
100
AcDbEntity
  8
0
  6
Continuous
 62
     7
370
    25
100
AcDbLine
 10
50.9438293075
 20
527.0717098547
 30
0.0
 11
38.9438293075
 21
527.0717098547
 31
0.0
  0
ARC
  5
4BD
330
1F
100
AcDbEntity
  8
0
  6
Continuous
 62
     7
370
    25
100
AcDbCircle
 10
38.8853404182
 20
529.0133376721
 30
0.0
 40
1.942508566655484
100
AcDbArc
 50
181.8362067977
 51
271.7254354149
  0
LINE
  5
4BE
330
1F
100
AcDbEntity
  8
0
  6
Continuous
 62
     7
370
    25
100
AcDbLine
 10
36.9438293075
 20
528.9510950963
 30
0.0
 11
36.9438293075
 21
534.0921713331
 31
0.0
  0
LINE
  5
4BF
330
1F
100
AcDbEntity
  8
0
  6
Continuous
 62
     7
370
    25
100
AcDbLine
 10
52.9438293075
 20
528.9510950963
 30
0.0
 11
52.9438293075
 21
528.2670548096
 31
0.0
  0
ARC
  5
4C0
330
1F
100
AcDbEntity
  8
0
  6
Continuous
 62
     7
370
    25
100
AcDbCircle
 10
51.0023181967
 20
528.3292973855
 30
0.0
 40
1.942508566655164
100
AcDbArc
 50
268.2745645851
 51
358.1637932023
  0
LINE
  5
4C1
330
1F
100
AcDbEntity
  8
0
  6
Continuous
 62
     7
370
    25
100
AcDbLine
 10
50.9438293075
 20
526.3876695681
 30
0.0
 11
38.9438293075
 21
526.3876695681
 31
0.0
  0
LINE
  5
4C2
330
1F
100
AcDbEntity
  8
0
  6
Continuous
 62
     7
370
    25
100
AcDbLine
 10
36.9438293075
 20
528.2670548096
 30
0.0
 11
36.9438293075
 21
528.9510950963
 31
0.0
  0
ARC
  5
4C3
330
1F
100
AcDbEntity
  8
0
  6
Continuous
 62
     7
370
    25
100
AcDbCircle
 10
38.8853404182
 20
528.3292973855
 30
0.0
 40
1.942508566655357
100
AcDbArc
 50
181.8362067977
 51
271.7254354149
  0
LINE
  5
4C4
330
1F
100
AcDbEntity
  8
0
  6
Continuous
 62
     7
370
    25
100
AcDbLine
 10
36.9438293075
 20
534.4341914765
 30
0.0
 11
36.9438293075
 21
534.0921713331
 31
0.0
  0
LINE
  5
4C5
330
1F
100
AcDbEntity
  8
0
  6
Continuous
 62
     7
370
    25
100
AcDbLine
 10
52.9438293075
 20
534.0921713331
 30
0.0
 11
52.9438293075
 21
534.4341914765
 31
0.0
  0
LINE
  5
4C6
330
1F
100
AcDbEntity
  8
0
  6
Continuous
 62
     7
370
    25
100
AcDbLine
 10
26.4438293075
 20
534.2578644958
 30
0.0
 11
36.9438293075
 21
534.2578644958
 31
0.0
  0
CIRCLE
  5
4C7
330
1F
100
AcDbEntity
  8
0
  6
Continuous
 62
     7
370
    25
100
AcDbCircle
 10
45.0438293075
 20
541.7578644958
 30
0.0
 40
3.5
  0
LINE
  5
4C8
330
1F
100
AcDbEntity
  8
0
  6
Continuous
 62
     7
370
    25
100
AcDbLine
 10
52.9438293075
 20
534.4341914765
 30
0.0
 11
52.9438293075
 21
547.2578644958
 31
0.0
  0
ARC
  5
4C9
330
1F
100
AcDbEntity
  8
0
  6
Continuous
 62
     7
370
    25
100
AcDbCircle
 10
50.9438293075
 20
547.2578644958
 30
0.0
 40
2.0
100
AcDbArc
 50
0.0
 51
90.0
  0
LINE
  5
4CA
330
1F
100
AcDbEntity
  8
0
  6
Continuous
 62
     7
370
    25
100
AcDbLine
 10
50.9438293075
 20
549.2578644958
 30
0.0
 11
26.4438293075
 21
549.2578644958
 31
0.0
  0
LINE
  5
4CB
330
1F
100
AcDbEntity
  8
0
  6
Continuous
 62
     7
370
    25
100
AcDbLine
 10
52.9438293075
 20
284.0921713331
 30
0.0
 11
52.9438293075
 21
278.9510950963
 31
0.0
  0
ARC
  5
4CC
330
1F
100
AcDbEntity
  8
0
  6
Continuous
 62
     7
370
    25
100
AcDbCircle
 10
51.0023181967
 20
279.0133376721
 30
0.0
 40
1.942508566655243
100
AcDbArc
 50
268.2745645851
 51
358.1637932023
  0
LINE
  5
4CD
330
1F
100
AcDbEntity
  8
0
  6
Continuous
 62
     7
370
    25
100
AcDbLine
 10
50.9438293075
 20
277.0717098547
 30
0.0
 11
38.9438293075
 21
277.0717098547
 31
0.0
  0
ARC
  5
4CE
330
1F
100
AcDbEntity
  8
0
  6
Continuous
 62
     7
370
    25
100
AcDbCircle
 10
38.8853404182
 20
279.0133376721
 30
0.0
 40
1.942508566655266
100
AcDbArc
 50
181.8362067977
 51
271.7254354149
  0
LINE
  5
4CF
330
1F
100
AcDbEntity
  8
0
  6
Continuous
 62
     7
370
    25
100
AcDbLine
 10
36.9438293075
 20
278.9510950963
 30
0.0
 11
36.9438293075
 21
284.0921713331
 31
0.0
  0
LINE
  5
4D0
330
1F
100
AcDbEntity
  8
0
  6
Continuous
 62
     7
370
    25
100
AcDbLine
 10
50.9438293075
 20
276.3876695681
 30
0.0
 11
38.9438293075
 21
276.3876695681
 31
0.0
  0
LINE
  5
4D1
330
1F
100
AcDbEntity
  8
0
  6
Continuous
 62
     7
370
    25
100
AcDbLine
 10
52.9438293075
 20
278.9510950963
 30
0.0
 11
52.9438293075
 21
278.2670548096
 31
0.0
  0
ARC
  5
4D2
330
1F
100
AcDbEntity
  8
0
  6
Continuous
 62
     7
370
    25
100
AcDbCircle
 10
51.0023181967
 20
278.3292973855
 30
0.0
 40
1.942508566655353
100
AcDbArc
 50
268.2745645851
 51
358.1637932023
  0
LINE
  5
4D3
330
1F
100
AcDbEntity
  8
0
  6
Continuous
 62
     7
370
    25
100
AcDbLine
 10
36.9438293075
 20
278.2670548096
 30
0.0
 11
36.9438293075
 21
278.9510950963
 31
0.0
  0
ARC
  5
4D4
330
1F
100
AcDbEntity
  8
0
  6
Continuous
 62
     7
370
    25
100
AcDbCircle
 10
38.8853404182
 20
278.3292973855
 30
0.0
 40
1.942508566655353
100
AcDbArc
 50
181.8362067977
 51
271.7254354149
  0
LINE
  5
4D5
330
1F
100
AcDbEntity
  8
0
  6
Continuous
 62
     7
370
    25
100
AcDbLine
 10
36.9438293075
 20
284.4341914765
 30
0.0
 11
36.9438293075
 21
284.0921713331
 31
0.0
  0
LINE
  5
4D6
330
1F
100
AcDbEntity
  8
0
  6
Continuous
 62
     7
370
    25
100
AcDbLine
 10
52.9438293075
 20
284.0921713331
 30
0.0
 11
52.9438293075
 21
284.4341914765
 31
0.0
  0
LINE
  5
4D7
330
1F
100
AcDbEntity
  8
0
  6
Continuous
 62
     7
370
    25
100
AcDbLine
 10
26.4438293075
 20
284.2578644958
 30
0.0
 11
36.9438293075
 21
284.2578644958
 31
0.0
  0
LINE
  5
4D8
330
1F
100
AcDbEntity
  8
0
  6
Continuous
 62
     7
370
    25
100
AcDbLine
 10
50.9438293075
 20
299.2578644958
 30
0.0
 11
26.4438293075
 21
299.2578644958
 31
0.0
  0
ARC
  5
4D9
330
1F
100
AcDbEntity
  8
0
  6
Continuous
 62
     7
370
    25
100
AcDbCircle
 10
50.9438293075
 20
297.2578644958
 30
0.0
 40
2.0
100
AcDbArc
 50
0.0
 51
90.0
  0
LINE
  5
4DA
330
1F
100
AcDbEntity
  8
0
  6
Continuous
 62
     7
370
    25
100
AcDbLine
 10
52.9438293075
 20
284.4341914765
 30
0.0
 11
52.9438293075
 21
297.2578644958
 31
0.0
  0
CIRCLE
  5
4DB
330
1F
100
AcDbEntity
  8
0
  6
Continuous
 62
     7
370
    25
100
AcDbCircle
 10
45.0438293075
 20
291.7578644958
 30
0.0
 40
3.5
  0
LINE
  5
4DC
330
1F
100
AcDbEntity
  8
0
  6
Continuous
 62
     7
370
    25
100
AcDbLine
 10
52.9438293075
 20
55.2486741819
 30
0.0
 11
52.9438293075
 21
54.5646338952
 31
0.0
  0
ARC
  5
4DD
330
1F
100
AcDbEntity
  8
0
  6
Continuous
 62
     7
370
    25
100
AcDbCircle
 10
51.0023181967
 20
54.5023913194
 30
0.0
 40
1.942508566655291
100
AcDbArc
 50
1.8362067977
 51
91.7254354149
  0
ARC
  5
4DE
330
1F
100
AcDbEntity
  8
0
  6
Continuous
 62
     7
370
    25
100
AcDbCircle
 10
51.0023181967
 20
55.186431606
 30
0.0
 40
1.942508566655238
100
AcDbArc
 50
1.8362067977
 51
91.7254354149
  0
LINE
  5
4DF
330
1F
100
AcDbEntity
  8
0
  6
Continuous
 62
     7
370
    25
100
AcDbLine
 10
52.9438293075
 20
54.5646338952
 30
0.0
 11
52.9438293075
 21
49.4235576584
 31
0.0
  0
LINE
  5
4E0
330
1F
100
AcDbEntity
  8
0
  6
Continuous
 62
     7
370
    25
100
AcDbLine
 10
36.9438293075
 20
49.4235576584
 30
0.0
 11
36.9438293075
 21
54.5646338952
 31
0.0
  0
ARC
  5
4E1
330
1F
100
AcDbEntity
  8
0
  6
Continuous
 62
     7
370
    25
100
AcDbCircle
 10
38.8853404182
 20
54.5023913194
 30
0.0
 40
1.942508566655303
100
AcDbArc
 50
88.2745645851
 51
178.1637932023
  0
LINE
  5
4E2
330
1F
100
AcDbEntity
  8
0
  6
Continuous
 62
     7
370
    25
100
AcDbLine
 10
38.9438293075
 20
56.4440191368
 30
0.0
 11
50.9438293075
 21
56.4440191368
 31
0.0
  0
LINE
  5
4E3
330
1F
100
AcDbEntity
  8
0
  6
Continuous
 62
     7
370
    25
100
AcDbLine
 10
38.9438293075
 20
57.1280594235
 30
0.0
 11
50.9438293075
 21
57.1280594235
 31
0.0
  0
LINE
  5
4E4
330
1F
100
AcDbEntity
  8
0
  6
Continuous
 62
     7
370
    25
100
AcDbLine
 10
36.9438293075
 20
54.5646338952
 30
0.0
 11
36.9438293075
 21
55.2486741819
 31
0.0
  0
ARC
  5
4E5
330
1F
100
AcDbEntity
  8
0
  6
Continuous
 62
     7
370
    25
100
AcDbCircle
 10
38.8853404182
 20
55.186431606
 30
0.0
 40
1.942508566655153
100
AcDbArc
 50
88.2745645851
 51
178.1637932023
  0
LINE
  5
4E6
330
1F
100
AcDbEntity
  8
0
  6
Continuous
 62
     7
370
    25
100
AcDbLine
 10
36.9438293075
 20
49.4235576584
 30
0.0
 11
36.9438293075
 21
49.081537515
 31
0.0
  0
LINE
  5
4E7
330
1F
100
AcDbEntity
  8
0
  6
Continuous
 62
     7
370
    25
100
AcDbLine
 10
52.9438293075
 20
49.081537515
 30
0.0
 11
52.9438293075
 21
49.4235576584
 31
0.0
  0
LINE
  5
4E8
330
1F
100
AcDbEntity
  8
0
  6
Continuous
 62
     7
370
    25
100
AcDbLine
 10
36.9438293075
 20
49.2578644958
 30
0.0
 11
26.4438293075
 21
49.2578644958
 31
0.0
  0
CIRCLE
  5
4E9
330
1F
100
AcDbEntity
  8
0
  6
Continuous
 62
     7
370
    25
100
AcDbCircle
 10
45.0438293075
 20
41.7578644958
 30
0.0
 40
3.5
  0
LINE
  5
4EA
330
1F
100
AcDbEntity
  8
0
  6
Continuous
 62
     7
370
    25
100
AcDbLine
 10
26.4438293075
 20
34.2578644958
 30
0.0
 11
50.9438293075
 21
34.2578644958
 31
0.0
  0
ARC
  5
4EB
330
1F
100
AcDbEntity
  8
0
  6
Continuous
 62
     7
370
    25
100
AcDbCircle
 10
50.9438293075
 20
36.2578644958
 30
0.0
 40
2.0
100
AcDbArc
 50
270.0
 51
0.0
  0
LINE
  5
4EC
330
1F
100
AcDbEntity
  8
0
  6
Continuous
 62
     7
370
    25
100
AcDbLine
 10
52.9438293075
 20
36.2578644958
 30
0.0
 11
52.9438293075
 21
49.081537515
 31
0.0
  0
CIRCLE
  5
4ED
330
1F
100
AcDbEntity
  8
0
  6
Continuous
 62
     7
370
    25
100
AcDbCircle
 10
45.0438293075
 20
541.7578644958
 30
0.0
 40
2.458750000016591
  0
CIRCLE
  5
4EE
330
1F
100
AcDbEntity
  8
0
  6
Continuous
 62
     7
370
    25
100
AcDbCircle
 10
45.0438293075
 20
541.7578644958
 30
0.0
 40
3.000000000000051
  0
ENDSEC
  0
SECTION
  2
OBJECTS
  0
DICTIONARY
  5
C
330
0
100
AcDbDictionary
281
     1
  3
ACAD_GROUP
350
D
  3
ACAD_LAYOUT
350
1A
  3
ACAD_MLINESTYLE
350
17
  3
ACAD_PLOTSETTINGS
350
19
  3
ACAD_PLOTSTYLENAME
350
E
  3
ACAD_SCALELIST
350
47
  0
DICTIONARY
  5
D
102
{ACAD_REACTORS
330
C
102
}
330
C
100
AcDbDictionary
281
     1
  0
DICTIONARY
  5
1A
102
{ACAD_REACTORS
330
C
102
}
330
C
100
AcDbDictionary
281
     1
  3
Layout1
350
1E
  3
Layout2
350
26
  3
Model
350
22
  0
DICTIONARY
  5
17
102
{ACAD_REACTORS
330
C
102
}
330
C
100
AcDbDictionary
281
     1
  3
Standard
350
18
  0
DICTIONARY
  5
19
102
{ACAD_REACTORS
330
C
102
}
330
C
100
AcDbDictionary
281
     1
  0
ACDBDICTIONARYWDFLT
  5
E
102
{ACAD_REACTORS
330
C
102
}
330
C
100
AcDbDictionary
281
     1
  3
Normal
350
F
100
AcDbDictionaryWithDefault
340
F
  0
DICTIONARY
  5
47
102
{ACAD_REACTORS
330
C
102
}
330
C
100
AcDbDictionary
281
     1
  3
A0
350
48
  3
A1
350
49
  3
A2
350
4A
  3
A3
350
4B
  3
A4
350
4C
  3
A5
350
4D
  3
A6
350
4E
  3
A7
350
4F
  3
A8
350
50
  3
A9
350
51
  3
B0
350
52
  3
B1
350
53
  3
B2
350
54
  3
B3
350
55
  3
B4
350
56
  3
B5
350
57
  3
B6
350
58
  3
B7
350
59
  3
B8
350
5A
  3
B9
350
5B
  3
C0
350
5C
  3
C1
350
5D
  3
C2
350
5E
  3
C3
350
5F
  3
C4
350
60
  3
C5
350
61
  3
C6
350
62
  3
C7
350
63
  3
C8
350
64
  3
C9
350
65
  3
D0
350
66
  3
D1
350
67
  3
D2
350
68
  0
LAYOUT
  5
1E
102
{ACAD_REACTORS
330
1A
102
}
330
1A
100
AcDbPlotSettings
  1

  2
none_device
  4

  6

 40
0.0
 41
0.0
 42
0.0
 43
0.0
 44
0.0
 45
0.0
 46
0.0
 47
0.0
 48
0.0
 49
0.0
140
0.0
141
0.0
142
1.0
143
1.0
 70
   688
 72
     1
 73
     0
 74
     5
  7

 75
    16
147
1.0
148
0.0
149
0.0
100
AcDbLayout
  1
Layout1
 70
     1
 71
     1
 10
0.0
 20
0.0
 11
420.0
 21
297.0
 12
0.0
 22
0.0
 32
0.0
 14
1.0000000000E+20
 24
1.0000000000E+20
 34
1.0000000000E+20
 15
-1.0000000000E+20
 25
-1.0000000000E+20
 35
-1.0000000000E+20
146
0.0
 13
0.0
 23
0.0
 33
0.0
 16
1.0
 26
0.0
 36
0.0
 17
0.0
 27
1.0
 37
0.0
 76
     0
330
1B
  0
LAYOUT
  5
26
102
{ACAD_REACTORS
330
1A
102
}
330
1A
100
AcDbPlotSettings
  1

  2
none_device
  4

  6

 40
0.0
 41
0.0
 42
0.0
 43
0.0
 44
0.0
 45
0.0
 46
0.0
 47
0.0
 48
0.0
 49
0.0
140
0.0
141
0.0
142
1.0
143
1.0
 70
   688
 72
     1
 73
     0
 74
     5
  7

 75
    16
147
1.0
148
0.0
149
0.0
100
AcDbLayout
  1
Layout2
 70
     1
 71
     2
 10
0.0
 20
0.0
 11
0.0
 21
0.0
 12
0.0
 22
0.0
 32
0.0
 14
0.0
 24
0.0
 34
0.0
 15
0.0
 25
0.0
 35
0.0
146
0.0
 13
0.0
 23
0.0
 33
0.0
 16
1.0
 26
0.0
 36
0.0
 17
0.0
 27
1.0
 37
0.0
 76
     0
330
23
  0
LAYOUT
  5
22
102
{ACAD_REACTORS
330
1A
102
}
330
1A
100
AcDbPlotSettings
  1

  2
none_device
  4
Letter_(8.50_x_11.00_Inches)
  6

 40
6.35
 41
6.35
 42
6.35000508
 43
6.35000508
 44
215.9
 45
279.4
 46
0.0
 47
0.0
 48
0.0
 49
0.0
140
0.0
141
0.0
142
1.0
143
1.0
 70
  1712
 72
     1
 73
     0
 74
     0
  7

 75
     0
147
1.0
148
0.0
149
0.0
100
AcDbLayout
  1
Model
 70
     1
 71
     0
 10
0.0
 20
0.0
 11
841.0
 21
594.0
 12
0.0
 22
0.0
 32
0.0
 14
0.0
 24
0.0
 34
0.0
 15
841.0
 25
594.0
 35
0.0
146
0.0
 13
0.0
 23
0.0
 33
0.0
 16
1.0
 26
0.0
 36
0.0
 17
0.0
 27
1.0
 37
0.0
 76
     0
330
1F
331
29
  0
MLINESTYLE
  5
18
102
{ACAD_REACTORS
330
17
102
}
330
17
100
AcDbMlineStyle
  2
Standard
 70
     0
  3

 62
   256
 51
90.0
 52
90.0
 71
     2
 49
0.5
 62
   256
  6
BYLAYER
 49
-0.5
 62
   256
  6
BYLAYER
  0
ACDBPLACEHOLDER
  5
F
102
{ACAD_REACTORS
330
E
102
}
330
E
  0
SCALE
  5
48
102
{ACAD_REACTORS
330
47
102
}
330
47
100
AcDbScale
 70
     0
300
1:1
140
1.0
141
1.0
290
     1
  0
SCALE
  5
49
102
{ACAD_REACTORS
330
47
102
}
330
47
100
AcDbScale
 70
     0
300
1:2
140
1.0
141
2.0
290
     0
  0
SCALE
  5
4A
102
{ACAD_REACTORS
330
47
102
}
330
47
100
AcDbScale
 70
     0
300
1:4
140
1.0
141
4.0
290
     0
  0
SCALE
  5
4B
102
{ACAD_REACTORS
330
47
102
}
330
47
100
AcDbScale
 70
     0
300
1:5
140
1.0
141
5.0
290
     0
  0
SCALE
  5
4C
102
{ACAD_REACTORS
330
47
102
}
330
47
100
AcDbScale
 70
     0
300
1:8
140
1.0
141
8.0
290
     0
  0
SCALE
  5
4D
102
{ACAD_REACTORS
330
47
102
}
330
47
100
AcDbScale
 70
     0
300
1:10
140
1.0
141
10.0
290
     0
  0
SCALE
  5
4E
102
{ACAD_REACTORS
330
47
102
}
330
47
100
AcDbScale
 70
     0
300
1:16
140
1.0
141
16.0
290
     0
  0
SCALE
  5
4F
102
{ACAD_REACTORS
330
47
102
}
330
47
100
AcDbScale
 70
     0
300
1:20
140
1.0
141
20.0
290
     0
  0
SCALE
  5
50
102
{ACAD_REACTORS
330
47
102
}
330
47
100
AcDbScale
 70
     0
300
1:30
140
1.0
141
30.0
290
     0
  0
SCALE
  5
51
102
{ACAD_REACTORS
330
47
102
}
330
47
100
AcDbScale
 70
     0
300
1:40
140
1.0
141
40.0
290
     0
  0
SCALE
  5
52
102
{ACAD_REACTORS
330
47
102
}
330
47
100
AcDbScale
 70
     0
300
1:50
140
1.0
141
50.0
290
     0
  0
SCALE
  5
53
102
{ACAD_REACTORS
330
47
102
}
330
47
100
AcDbScale
 70
     0
300
1:100
140
1.0
141
100.0
290
     0
  0
SCALE
  5
54
102
{ACAD_REACTORS
330
47
102
}
330
47
100
AcDbScale
 70
     0
300
2:1
140
2.0
141
1.0
290
     0
  0
SCALE
  5
55
102
{ACAD_REACTORS
330
47
102
}
330
47
100
AcDbScale
 70
     0
300
4:1
140
4.0
141
1.0
290
     0
  0
SCALE
  5
56
102
{ACAD_REACTORS
330
47
102
}
330
47
100
AcDbScale
 70
     0
300
8:1
140
8.0
141
1.0
290
     0
  0
SCALE
  5
57
102
{ACAD_REACTORS
330
47
102
}
330
47
100
AcDbScale
 70
     0
300
10:1
140
10.0
141
1.0
290
     0
  0
SCALE
  5
58
102
{ACAD_REACTORS
330
47
102
}
330
47
100
AcDbScale
 70
     0
300
100:1
140
100.0
141
1.0
290
     0
  0
SCALE
  5
59
102
{ACAD_REACTORS
330
47
102
}
330
47
100
AcDbScale
 70
     0
300
1/128" = 1'-0"
140
0.0078125
141
12.0
290
     0
  0
SCALE
  5
5A
102
{ACAD_REACTORS
330
47
102
}
330
47
100
AcDbScale
 70
     0
300
1/64" = 1'-0"
140
0.015625
141
12.0
290
     0
  0
SCALE
  5
5B
102
{ACAD_REACTORS
330
47
102
}
330
47
100
AcDbScale
 70
     0
300
1/32" = 1'-0"
140
0.03125
141
12.0
290
     0
  0
SCALE
  5
5C
102
{ACAD_REACTORS
330
47
102
}
330
47
100
AcDbScale
 70
     0
300
1/16" = 1'-0"
140
0.0625
141
12.0
290
     0
  0
SCALE
  5
5D
102
{ACAD_REACTORS
330
47
102
}
330
47
100
AcDbScale
 70
     0
300
3/32" = 1'-0"
140
0.09375
141
12.0
290
     0
  0
SCALE
  5
5E
102
{ACAD_REACTORS
330
47
102
}
330
47
100
AcDbScale
 70
     0
300
1/8" = 1'-0"
140
0.125
141
12.0
290
     0
  0
SCALE
  5
5F
102
{ACAD_REACTORS
330
47
102
}
330
47
100
AcDbScale
 70
     0
300
3/16" = 1'-0"
140
0.1875
141
12.0
290
     0
  0
SCALE
  5
60
102
{ACAD_REACTORS
330
47
102
}
330
47
100
AcDbScale
 70
     0
300
1/4" = 1'-0"
140
0.25
141
12.0
290
     0
  0
SCALE
  5
61
102
{ACAD_REACTORS
330
47
102
}
330
47
100
AcDbScale
 70
     0
300
3/8" = 1'-0"
140
0.375
141
12.0
290
     0
  0
SCALE
  5
62
102
{ACAD_REACTORS
330
47
102
}
330
47
100
AcDbScale
 70
     0
300
1/2" = 1'-0"
140
0.5
141
12.0
290
     0
  0
SCALE
  5
63
102
{ACAD_REACTORS
330
47
102
}
330
47
100
AcDbScale
 70
     0
300
3/4" = 1'-0"
140
0.75
141
12.0
290
     0
  0
SCALE
  5
64
102
{ACAD_REACTORS
330
47
102
}
330
47
100
AcDbScale
 70
     0
300
1" = 1'-0"
140
1.0
141
12.0
290
     0
  0
SCALE
  5
65
102
{ACAD_REACTORS
330
47
102
}
330
47
100
AcDbScale
 70
     0
300
1-1/2" = 1'-0"
140
1.5
141
12.0
290
     0
  0
SCALE
  5
66
102
{ACAD_REACTORS
330
47
102
}
330
47
100
AcDbScale
 70
     0
300
3" = 1'-0"
140
3.0
141
12.0
290
     0
  0
SCALE
  5
67
102
{ACAD_REACTORS
330
47
102
}
330
47
100
AcDbScale
 70
     0
300
6" = 1'-0"
140
6.0
141
12.0
290
     0
  0
SCALE
  5
68
102
{ACAD_REACTORS
330
47
102
}
330
47
100
AcDbScale
 70
     0
300
1'-0" = 1'-0"
140
12.0
141
12.0
290
     0
  0
ENDSEC
  0
EOF
