ISO-10303-21;
HEADER;
FILE_DESCRIPTION (( 'STEP AP203' ),
    '1' );
FILE_NAME ('CTA12D-M110-K02 Ìóôòà ñîåäèíèòåëüíàÿ äëÿ äâóñòåííîé òðóáû d110.STEP',
    '2016-06-21T08:35:49',
    ( '' ),
    ( '' ),
    'SwSTEP 2.0',
    'SolidWorks 2014',
    '' );
FILE_SCHEMA (( 'CONFIG_CONTROL_DESIGN' ));
ENDSEC;

DATA;
#1 = EDGE_LOOP ( 'NONE', ( #35 ) ) ;
#2 = EDGE_LOOP ( 'NONE', ( #167 ) ) ;
#3 = PLANE ( 'NONE',  #240 ) ;
#4 = VERTEX_POINT ( 'NONE', #241 ) ;
#5 = CARTESIAN_POINT ( 'NONE',  ( 90.00000000000008500, 0.0000000000000000000, 54.99999999999999300 ) ) ;
#6 = FACE_BOUND ( 'NONE', #131, .T. ) ;
#7 = AXIS2_PLACEMENT_3D ( 'NONE', #235, #94, #72 ) ;
#8 = COORDINATED_UNIVERSAL_TIME_OFFSET ( 3, 0, .AHEAD. ) ;
#9 = FACE_OUTER_BOUND ( 'NONE', #120, .T. ) ;
#10 = PRODUCT_RELATED_PRODUCT_CATEGORY ( 'detail', '', ( #24 ) ) ;
#11 = AXIS2_PLACEMENT_3D ( 'NONE', #137, #140, #155 ) ;
#12 = AXIS2_PLACEMENT_3D ( 'NONE', #152, #182, #122 ) ;
#13 = DIRECTION ( 'NONE',  ( -1.000000000000000000, -0.0000000000000000000, -0.0000000000000000000 ) ) ;
#14 = DATE_AND_TIME ( #74, #123 ) ;
#15 = DIRECTION ( 'NONE',  ( -1.000000000000000000, 0.0000000000000000000, -0.0000000000000000000 ) ) ;
#16 = AXIS2_PLACEMENT_3D ( 'NONE', #219, #170, #154 ) ;
#17 = CARTESIAN_POINT ( 'NONE',  ( -90.00000000000008500, 0.0000000000000000000, 54.99999999999999300 ) ) ;
#18 = DIRECTION ( 'NONE',  ( 0.0000000000000000000, 0.0000000000000000000, 1.000000000000000000 ) ) ;
#19 = CARTESIAN_POINT ( 'NONE',  ( 0.0000000000000000000, 0.0000000000000000000, 0.0000000000000000000 ) ) ;
#20 = ADVANCED_FACE ( 'NONE', ( #217, #51 ), #86, .F. ) ;
#21 = PERSON_AND_ORGANIZATION_ROLE ( 'classification_officer' ) ;
#22 = PERSON_AND_ORGANIZATION ( #69, #234 ) ;
#23 = AXIS2_PLACEMENT_3D ( 'NONE', #83, #118, #141 ) ;
#24 = PRODUCT ( 'CTA12D-M110-K02 Ìóôòà ñîåäèíèòåëüíàÿ äëÿ äâóñòåííîé òðóáû d110', 'CTA12D-M110-K02 Ìóôòà ñîåäèíèòåëüíàÿ äëÿ äâóñòåííîé òðóáû d110', '', ( #50 ) ) ;
#25 = EDGE_LOOP ( 'NONE', ( #108 ) ) ;
#26 = CARTESIAN_POINT ( 'NONE',  ( 90.00000000000008500, 0.0000000000000000000, 0.0000000000000000000 ) ) ;
#27 = FACE_OUTER_BOUND ( 'NONE', #36, .T. ) ;
#28 = EDGE_LOOP ( 'NONE', ( #237 ) ) ;
#29 = CARTESIAN_POINT ( 'NONE',  ( -1229.991103041891800, 0.0000000000000000000, 0.0000000000000000000 ) ) ;
#30 = DATE_TIME_ROLE ( 'classification_date' ) ;
#31 = CARTESIAN_POINT ( 'NONE',  ( 90.00000000000002800, 54.99999999999999300, 0.0000000000000000000 ) ) ;
#32 = AXIS2_PLACEMENT_3D ( 'NONE', #185, #104, #115 ) ;
#33 = PERSON_AND_ORGANIZATION ( #69, #234 ) ;
#34 = EDGE_LOOP ( 'NONE', ( #133 ) ) ;
#35 = ORIENTED_EDGE ( 'NONE', *, *, #213, .T. ) ;
#36 = EDGE_LOOP ( 'NONE', ( #92 ) ) ;
#37 = ORIENTED_EDGE ( 'NONE', *, *, #213, .F. ) ;
#38 = AXIS2_PLACEMENT_3D ( 'NONE', #45, #62, #204 ) ;
#39 = FACE_OUTER_BOUND ( 'NONE', #34, .T. ) ;
#40 = AXIS2_PLACEMENT_3D ( 'NONE', #64, #117, #220 ) ;
#41 = AXIS2_PLACEMENT_3D ( 'NONE', #202, #149, #18 ) ;
#42 = COORDINATED_UNIVERSAL_TIME_OFFSET ( 3, 0, .AHEAD. ) ;
#43 = AXIS2_PLACEMENT_3D ( 'NONE', #71, #13, #135 ) ;
#44 = FACE_OUTER_BOUND ( 'NONE', #116, .T. ) ;
#45 = CARTESIAN_POINT ( 'NONE',  ( 1.972948183318390400, 0.0000000000000000000, 0.0000000000000000000 ) ) ;
#46 = CC_DESIGN_APPROVAL ( #208, ( #223 ) ) ;
#47 = DESIGN_CONTEXT ( 'detailed design', #55, 'design' ) ;
#48 = EDGE_CURVE ( 'NONE', #221, #221, #125, .T. ) ;
#49 = CARTESIAN_POINT ( 'NONE',  ( 1.500000000000056800, 0.0000000000000000000, 53.50000000000009900 ) ) ;
#50 = MECHANICAL_CONTEXT ( 'NONE', #163, 'mechanical' ) ;
#51 = FACE_OUTER_BOUND ( 'NONE', #212, .T. ) ;
#52 = DATE_AND_TIME ( #106, #150 ) ;
#53 = DIRECTION ( 'NONE',  ( 1.000000000000000000, 0.0000000000000000000, 0.0000000000000000000 ) ) ;
#54 = VERTEX_POINT ( 'NONE', #49 ) ;
#55 = APPLICATION_CONTEXT ( 'configuration controlled 3d designs of mechanical parts and assemblies' ) ;
#56 = ADVANCED_FACE ( 'NONE', ( #9, #187 ), #113, .T. ) ;
#57 = EDGE_CURVE ( 'NONE', #4, #4, #218, .T. ) ;
#58 = AXIS2_PLACEMENT_3D ( 'NONE', #26, #243, #214 ) ;
#59 = PERSON_AND_ORGANIZATION ( #69, #234 ) ;
#60 = ORIENTED_EDGE ( 'NONE', *, *, #183, .T. ) ;
#61 = AXIS2_PLACEMENT_3D ( 'NONE', #29, #80, #148 ) ;
#62 = DIRECTION ( 'NONE',  ( -1.000000000000000000, -0.0000000000000000000, -0.0000000000000000000 ) ) ;
#63 = ADVANCED_FACE ( 'NONE', ( #197, #245 ), #195, .F. ) ;
#64 = CARTESIAN_POINT ( 'NONE',  ( -90.00000000000008500, 0.0000000000000000000, 0.0000000000000000000 ) ) ;
#65 = VERTEX_POINT ( 'NONE', #66 ) ;
#66 = CARTESIAN_POINT ( 'NONE',  ( -90.00000000000008500, 0.0000000000000000000, 57.50000000000000000 ) ) ;
#67 = PERSON_AND_ORGANIZATION ( #69, #234 ) ;
#68 = EDGE_LOOP ( 'NONE', ( #37 ) ) ;
#69 = PERSON ( 'UNSPECIFIED', 'UNSPECIFIED', 'UNSPECIFIED', ('UNSPECIFIED'), ('UNSPECIFIED'), ('UNSPECIFIED') ) ;
#70 = DIRECTION ( 'NONE',  ( 0.0000000000000000000, 0.0000000000000000000, 1.000000000000000000 ) ) ;
#71 = CARTESIAN_POINT ( 'NONE',  ( -1229.991103041891800, 0.0000000000000000000, 0.0000000000000000000 ) ) ;
#72 = DIRECTION ( 'NONE',  ( 0.0000000000000000000, 0.0000000000000000000, 1.000000000000000000 ) ) ;
#73 = FACE_OUTER_BOUND ( 'NONE', #169, .T. ) ;
#74 = CALENDAR_DATE ( 2016, 21, 6 ) ;
#75 = ORIENTED_EDGE ( 'NONE', *, *, #143, .F. ) ;
#76 = CONICAL_SURFACE ( 'NONE', #12, 53.50000000000009900, 1.265363707695953900 ) ;
#77 = EDGE_LOOP ( 'NONE', ( #75 ) ) ;
#78 = CC_DESIGN_PERSON_AND_ORGANIZATION_ASSIGNMENT ( #33, #96, ( #199 ) ) ;
#79 = FACE_OUTER_BOUND ( 'NONE', #68, .T. ) ;
#80 = DIRECTION ( 'NONE',  ( -1.000000000000000000, -0.0000000000000000000, -0.0000000000000000000 ) ) ;
#81 = DATE_AND_TIME ( #129, #176 ) ;
#82 = CIRCLE ( 'NONE', #16, 54.99999999999999300 ) ;
#83 = CARTESIAN_POINT ( 'NONE',  ( -90.00000000000002800, 54.99999999999999300, 0.0000000000000000000 ) ) ;
#84 = EDGE_CURVE ( 'NONE', #65, #65, #175, .T. ) ;
#85 = APPROVAL_DATE_TIME ( #136, #196 ) ;
#86 = CYLINDRICAL_SURFACE ( 'NONE', #61, 54.99999999999999300 ) ;
#87 =( LENGTH_UNIT ( ) NAMED_UNIT ( * ) SI_UNIT ( .MILLI., .METRE. ) );
#88 = MANIFOLD_SOLID_BREP ( 'Ïîâåðíóòü1', #172 ) ;
#89 = ORIENTED_EDGE ( 'NONE', *, *, #124, .F. ) ;
#90 = CARTESIAN_POINT ( 'NONE',  ( 1.972948183318390400, 0.0000000000000000000, 54.99999999999999300 ) ) ;
#91 = APPROVAL_PERSON_ORGANIZATION ( #142, #196, #236 ) ;
#92 = ORIENTED_EDGE ( 'NONE', *, *, #48, .F. ) ;
#93 = APPLICATION_PROTOCOL_DEFINITION ( 'international standard', 'config_control_design', 1994, #163 ) ;
#94 = DIRECTION ( 'NONE',  ( -1.000000000000000000, -0.0000000000000000000, -0.0000000000000000000 ) ) ;
#95 = CARTESIAN_POINT ( 'NONE',  ( -1229.991103041891800, 0.0000000000000000000, 0.0000000000000000000 ) ) ;
#96 = PERSON_AND_ORGANIZATION_ROLE ( 'creator' ) ;
#97 = CARTESIAN_POINT ( 'NONE',  ( 90.00000000000008500, 0.0000000000000000000, 57.50000000000000000 ) ) ;
#98 = CIRCLE ( 'NONE', #32, 53.50000000000009900 ) ;
#99 = APPROVAL_ROLE ( '' ) ;
#100 = DIRECTION ( 'NONE',  ( -1.000000000000000000, -0.0000000000000000000, -0.0000000000000000000 ) ) ;
#101 = PERSON_AND_ORGANIZATION_ROLE ( 'creator' ) ;
#102 = ORIENTED_EDGE ( 'NONE', *, *, #84, .T. ) ;
#103 = PERSON_AND_ORGANIZATION_ROLE ( 'design_supplier' ) ;
#104 = DIRECTION ( 'NONE',  ( -1.000000000000000000, -0.0000000000000000000, -0.0000000000000000000 ) ) ;
#105 = SECURITY_CLASSIFICATION_LEVEL ( 'unclassified' ) ;
#106 = CALENDAR_DATE ( 2016, 21, 6 ) ;
#107 = FACE_OUTER_BOUND ( 'NONE', #25, .T. ) ;
#108 = ORIENTED_EDGE ( 'NONE', *, *, #57, .F. ) ;
#109 = VERTEX_POINT ( 'NONE', #5 ) ;
#110 = APPROVAL_STATUS ( 'not_yet_approved' ) ;
#111 = DATE_AND_TIME ( #158, #201 ) ;
#112 = ORIENTED_EDGE ( 'NONE', *, *, #84, .F. ) ;
#113 = CYLINDRICAL_SURFACE ( 'NONE', #43, 57.50000000000000000 ) ;
#114 = PERSON_AND_ORGANIZATION ( #69, #234 ) ;
#115 = DIRECTION ( 'NONE',  ( 0.0000000000000000000, 0.0000000000000000000, 1.000000000000000000 ) ) ;
#116 = EDGE_LOOP ( 'NONE', ( #102 ) ) ;
#117 = DIRECTION ( 'NONE',  ( -1.000000000000000000, -0.0000000000000000000, -0.0000000000000000000 ) ) ;
#118 = DIRECTION ( 'NONE',  ( 1.000000000000000000, 0.0000000000000000000, 0.0000000000000000000 ) ) ;
#119 = SHAPE_DEFINITION_REPRESENTATION ( #190, #194 ) ;
#120 = EDGE_LOOP ( 'NONE', ( #112 ) ) ;
#121 = APPROVAL_ROLE ( '' ) ;
#122 = DIRECTION ( 'NONE',  ( 0.0000000000000000000, 0.0000000000000000000, -1.000000000000000000 ) ) ;
#123 = LOCAL_TIME ( 11, 35, 49.00000000000000000, #171 ) ;
#124 = EDGE_CURVE ( 'NONE', #173, #173, #162, .T. ) ;
#125 = CIRCLE ( 'NONE', #58, 57.50000000000000000 ) ;
#126 = FACE_BOUND ( 'NONE', #174, .T. ) ;
#127 = CARTESIAN_POINT ( 'NONE',  ( -1.500000000000056800, 0.0000000000000000000, 53.50000000000009900 ) ) ;
#128 = EDGE_LOOP ( 'NONE', ( #147 ) ) ;
#129 = CALENDAR_DATE ( 2016, 21, 6 ) ;
#130 = ADVANCED_FACE ( 'NONE', ( #6, #44 ), #139, .F. ) ;
#131 = EDGE_LOOP ( 'NONE', ( #226 ) ) ;
#132 = FACE_OUTER_BOUND ( 'NONE', #181, .T. ) ;
#133 = ORIENTED_EDGE ( 'NONE', *, *, #143, .T. ) ;
#134 = CC_DESIGN_PERSON_AND_ORGANIZATION_ASSIGNMENT ( #180, #177, ( #24 ) ) ;
#135 = DIRECTION ( 'NONE',  ( 0.0000000000000000000, 0.0000000000000000000, 1.000000000000000000 ) ) ;
#136 = DATE_AND_TIME ( #178, #228 ) ;
#137 = CARTESIAN_POINT ( 'NONE',  ( -1229.991103041891800, 0.0000000000000000000, 0.0000000000000000000 ) ) ;
#138 = DIRECTION ( 'NONE',  ( 0.0000000000000000000, 0.0000000000000000000, 1.000000000000000000 ) ) ;
#139 = PLANE ( 'NONE',  #23 ) ;
#140 = DIRECTION ( 'NONE',  ( -1.000000000000000000, -0.0000000000000000000, -0.0000000000000000000 ) ) ;
#141 = DIRECTION ( 'NONE',  ( 0.0000000000000000000, 0.0000000000000000000, -1.000000000000000000 ) ) ;
#142 = PERSON_AND_ORGANIZATION ( #69, #234 ) ;
#143 = EDGE_CURVE ( 'NONE', #168, #168, #98, .T. ) ;
#144 = ADVANCED_FACE ( 'NONE', ( #107, #132 ), #224, .F. ) ;
#145 = DIRECTION ( 'NONE',  ( 0.0000000000000000000, 0.0000000000000000000, 1.000000000000000000 ) ) ;
#146 = APPLICATION_PROTOCOL_DEFINITION ( 'international standard', 'config_control_design', 1994, #55 ) ;
#147 = ORIENTED_EDGE ( 'NONE', *, *, #200, .F. ) ;
#148 = DIRECTION ( 'NONE',  ( 0.0000000000000000000, 0.0000000000000000000, 1.000000000000000000 ) ) ;
#149 = DIRECTION ( 'NONE',  ( -1.000000000000000000, -0.0000000000000000000, -0.0000000000000000000 ) ) ;
#150 = LOCAL_TIME ( 11, 35, 49.00000000000000000, #192 ) ;
#151 = CIRCLE ( 'NONE', #7, 53.50000000000009900 ) ;
#152 = CARTESIAN_POINT ( 'NONE',  ( 1.500000000000056800, 0.0000000000000000000, 0.0000000000000000000 ) ) ;
#153 = CC_DESIGN_DATE_AND_TIME_ASSIGNMENT ( #111, #30, ( #223 ) ) ;
#154 = DIRECTION ( 'NONE',  ( 0.0000000000000000000, 0.0000000000000000000, 1.000000000000000000 ) ) ;
#155 = DIRECTION ( 'NONE',  ( 0.0000000000000000000, 0.0000000000000000000, 1.000000000000000000 ) ) ;
#156 = VERTEX_POINT ( 'NONE', #17 ) ;
#157 =( NAMED_UNIT ( * ) PLANE_ANGLE_UNIT ( ) SI_UNIT ( $, .RADIAN. ) );
#158 = CALENDAR_DATE ( 2016, 21, 6 ) ;
#159 = ADVANCED_FACE ( 'NONE', ( #73, #225 ), #76, .F. ) ;
#160 = ORIENTED_EDGE ( 'NONE', *, *, #124, .T. ) ;
#161 = CC_DESIGN_APPROVAL ( #196, ( #199 ) ) ;
#162 = CIRCLE ( 'NONE', #38, 54.99999999999999300 ) ;
#163 = APPLICATION_CONTEXT ( 'configuration controlled 3d designs of mechanical parts and assemblies' ) ;
#164 = PERSON_AND_ORGANIZATION ( #69, #234 ) ;
#165 = APPROVAL_STATUS ( 'not_yet_approved' ) ;
#166 = ORIENTED_EDGE ( 'NONE', *, *, #200, .T. ) ;
#167 = ORIENTED_EDGE ( 'NONE', *, *, #48, .T. ) ;
#168 = VERTEX_POINT ( 'NONE', #127 ) ;
#169 = EDGE_LOOP ( 'NONE', ( #89 ) ) ;
#170 = DIRECTION ( 'NONE',  ( -1.000000000000000000, -0.0000000000000000000, -0.0000000000000000000 ) ) ;
#171 = COORDINATED_UNIVERSAL_TIME_OFFSET ( 3, 0, .AHEAD. ) ;
#172 = CLOSED_SHELL ( 'NONE', ( #144, #63, #188, #159, #20, #233, #56, #130 ) ) ;
#173 = VERTEX_POINT ( 'NONE', #90 ) ;
#174 = EDGE_LOOP ( 'NONE', ( #166 ) ) ;
#175 = CIRCLE ( 'NONE', #40, 57.50000000000000000 ) ;
#176 = LOCAL_TIME ( 11, 35, 49.00000000000000000, #222 ) ;
#177 = PERSON_AND_ORGANIZATION_ROLE ( 'design_owner' ) ;
#178 = CALENDAR_DATE ( 2016, 21, 6 ) ;
#179 = CYLINDRICAL_SURFACE ( 'NONE', #205, 53.50000000000009900 ) ;
#180 = PERSON_AND_ORGANIZATION ( #69, #234 ) ;
#181 = EDGE_LOOP ( 'NONE', ( #60 ) ) ;
#182 = DIRECTION ( 'NONE',  ( 1.000000000000000000, 0.0000000000000000000, 0.0000000000000000000 ) ) ;
#183 = EDGE_CURVE ( 'NONE', #156, #156, #82, .T. ) ;
#184 = AXIS2_PLACEMENT_3D ( 'NONE', #193, #231, #138 ) ;
#185 = CARTESIAN_POINT ( 'NONE',  ( -1.500000000000056800, 0.0000000000000000000, 0.0000000000000000000 ) ) ;
#186 =( GEOMETRIC_REPRESENTATION_CONTEXT ( 3 ) GLOBAL_UNCERTAINTY_ASSIGNED_CONTEXT ( ( #239 ) ) GLOBAL_UNIT_ASSIGNED_CONTEXT ( ( #87, #157, #206 ) ) REPRESENTATION_CONTEXT ( 'NONE', 'WORKASPACE' ) );
#187 = FACE_OUTER_BOUND ( 'NONE', #2, .T. ) ;
#188 = ADVANCED_FACE ( 'NONE', ( #79, #39 ), #179, .F. ) ;
#189 = CC_DESIGN_PERSON_AND_ORGANIZATION_ASSIGNMENT ( #164, #101, ( #232 ) ) ;
#190 = PRODUCT_DEFINITION_SHAPE ( 'NONE', 'NONE',  #199 ) ;
#191 = DATE_TIME_ROLE ( 'creation_date' ) ;
#192 = COORDINATED_UNIVERSAL_TIME_OFFSET ( 3, 0, .AHEAD. ) ;
#193 = CARTESIAN_POINT ( 'NONE',  ( -1.972948183318390400, 0.0000000000000000000, 0.0000000000000000000 ) ) ;
#194 = ADVANCED_BREP_SHAPE_REPRESENTATION ( 'CTA12D-M110-K02 ¦º¯ªð ¸þõôøýøªõû¹ýð  ôû  ôòº¸ªõýýþù ª¨ºñv d110', ( #88, #242 ), #186 ) ;
#195 = CONICAL_SURFACE ( 'NONE', #184, 54.99999999999999300, 1.265363707695953900 ) ;
#196 = APPROVAL ( #209, 'UNSPECIFIED' ) ;
#197 = FACE_BOUND ( 'NONE', #77, .T. ) ;
#198 = CC_DESIGN_APPROVAL ( #203, ( #232 ) ) ;
#199 = PRODUCT_DEFINITION ( 'UNKNOWN', '', #232, #47 ) ;
#200 = EDGE_CURVE ( 'NONE', #109, #109, #211, .T. ) ;
#201 = LOCAL_TIME ( 11, 35, 49.00000000000000000, #8 ) ;
#202 = CARTESIAN_POINT ( 'NONE',  ( -1.972948183318390400, 0.0000000000000000000, 0.0000000000000000000 ) ) ;
#203 = APPROVAL ( #165, 'UNSPECIFIED' ) ;
#204 = DIRECTION ( 'NONE',  ( 0.0000000000000000000, 0.0000000000000000000, 1.000000000000000000 ) ) ;
#205 = AXIS2_PLACEMENT_3D ( 'NONE', #95, #100, #246 ) ;
#206 =( NAMED_UNIT ( * ) SI_UNIT ( $, .STERADIAN. ) SOLID_ANGLE_UNIT ( ) );
#207 = APPROVAL_DATE_TIME ( #14, #203 ) ;
#208 = APPROVAL ( #110, 'UNSPECIFIED' ) ;
#209 = APPROVAL_STATUS ( 'not_yet_approved' ) ;
#210 = CC_DESIGN_PERSON_AND_ORGANIZATION_ASSIGNMENT ( #114, #103, ( #232 ) ) ;
#211 = CIRCLE ( 'NONE', #249, 54.99999999999999300 ) ;
#212 = EDGE_LOOP ( 'NONE', ( #160 ) ) ;
#213 = EDGE_CURVE ( 'NONE', #54, #54, #151, .T. ) ;
#214 = DIRECTION ( 'NONE',  ( 0.0000000000000000000, 0.0000000000000000000, 1.000000000000000000 ) ) ;
#215 = DIRECTION ( 'NONE',  ( -1.000000000000000000, -0.0000000000000000000, -0.0000000000000000000 ) ) ;
#216 = APPROVAL_PERSON_ORGANIZATION ( #22, #203, #99 ) ;
#217 = FACE_OUTER_BOUND ( 'NONE', #128, .T. ) ;
#218 = CIRCLE ( 'NONE', #41, 54.99999999999999300 ) ;
#219 = CARTESIAN_POINT ( 'NONE',  ( -90.00000000000008500, 0.0000000000000000000, 0.0000000000000000000 ) ) ;
#220 = DIRECTION ( 'NONE',  ( 0.0000000000000000000, 0.0000000000000000000, 1.000000000000000000 ) ) ;
#221 = VERTEX_POINT ( 'NONE', #97 ) ;
#222 = COORDINATED_UNIVERSAL_TIME_OFFSET ( 3, 0, .AHEAD. ) ;
#223 = SECURITY_CLASSIFICATION ( '', '', #105 ) ;
#224 = CYLINDRICAL_SURFACE ( 'NONE', #11, 54.99999999999999300 ) ;
#225 = FACE_BOUND ( 'NONE', #1, .T. ) ;
#226 = ORIENTED_EDGE ( 'NONE', *, *, #183, .F. ) ;
#227 = CC_DESIGN_DATE_AND_TIME_ASSIGNMENT ( #81, #191, ( #199 ) ) ;
#228 = LOCAL_TIME ( 11, 35, 49.00000000000000000, #42 ) ;
#229 = DIRECTION ( 'NONE',  ( -0.0000000000000000000, 0.0000000000000000000, 1.000000000000000000 ) ) ;
#230 = CC_DESIGN_PERSON_AND_ORGANIZATION_ASSIGNMENT ( #67, #21, ( #223 ) ) ;
#231 = DIRECTION ( 'NONE',  ( -1.000000000000000000, -0.0000000000000000000, -0.0000000000000000000 ) ) ;
#232 = PRODUCT_DEFINITION_FORMATION_WITH_SPECIFIED_SOURCE ( 'ANY', '', #24, .NOT_KNOWN. ) ;
#233 = ADVANCED_FACE ( 'NONE', ( #27, #126 ), #3, .F. ) ;
#234 = ORGANIZATION ( 'UNSPECIFIED', 'UNSPECIFIED', '' ) ;
#235 = CARTESIAN_POINT ( 'NONE',  ( 1.500000000000056800, 0.0000000000000000000, 0.0000000000000000000 ) ) ;
#236 = APPROVAL_ROLE ( '' ) ;
#237 = ORIENTED_EDGE ( 'NONE', *, *, #57, .T. ) ;
#238 = CARTESIAN_POINT ( 'NONE',  ( 90.00000000000008500, 0.0000000000000000000, 0.0000000000000000000 ) ) ;
#239 = UNCERTAINTY_MEASURE_WITH_UNIT (LENGTH_MEASURE( 1.000000000000000100E-005 ), #87, 'distance_accuracy_value', 'NONE');
#240 = AXIS2_PLACEMENT_3D ( 'NONE', #31, #15, #229 ) ;
#241 = CARTESIAN_POINT ( 'NONE',  ( -1.972948183318390400, 0.0000000000000000000, 54.99999999999999300 ) ) ;
#242 = AXIS2_PLACEMENT_3D ( 'NONE', #19, #70, #53 ) ;
#243 = DIRECTION ( 'NONE',  ( -1.000000000000000000, -0.0000000000000000000, -0.0000000000000000000 ) ) ;
#244 = APPROVAL_DATE_TIME ( #52, #208 ) ;
#245 = FACE_OUTER_BOUND ( 'NONE', #28, .T. ) ;
#246 = DIRECTION ( 'NONE',  ( 0.0000000000000000000, 0.0000000000000000000, 1.000000000000000000 ) ) ;
#247 = CC_DESIGN_SECURITY_CLASSIFICATION ( #223, ( #232 ) ) ;
#248 = APPROVAL_PERSON_ORGANIZATION ( #59, #208, #121 ) ;
#249 = AXIS2_PLACEMENT_3D ( 'NONE', #238, #215, #145 ) ;
ENDSEC;
END-ISO-10303-21;
