  0
SECTION
  2
HEADER
  9
$ACADVER
  1
AC1015
  9
$ACADMAINTVER
 70
     6
  9
$DWGCODEPAGE
  3
ANSI_1251
  9
$INSBASE
 10
0.0
 20
0.0
 30
0.0
  9
$EXTMIN
 10
0.0
 20
0.0
 30
0.0
  9
$EXTMAX
 10
431.8
 20
279.4
 30
0.0
  9
$LIMMIN
 10
0.0
 20
0.0
  9
$LIMMAX
 10
431.8
 20
279.4
  9
$ORTHOMODE
 70
     0
  9
$REGENMODE
 70
     1
  9
$FILLMODE
 70
     1
  9
$QTEXTMODE
 70
     0
  9
$MIRRTEXT
 70
     1
  9
$LTSCALE
 40
1.0
  9
$ATTMODE
 70
     1
  9
$TEXTSIZE
 40
3.5
  9
$TRACEWID
 40
1.0
  9
$TEXTSTYLE
  7
STANDARD
  9
$CLAYER
  8
0
  9
$CELTYPE
  6
ByLayer
  9
$CECOLOR
 62
   256
  9
$CELTSCALE
 40
1.0
  9
$DISPSILH
 70
     0
  9
$DIMSCALE
 40
1.0
  9
$DIMASZ
 40
5.0
  9
$DIMEXO
 40
0.0
  9
$DIMDLI
 40
3.75
  9
$DIMRND
 40
0.0
  9
$DIMDLE
 40
0.0
  9
$DIMEXE
 40
1.0
  9
$DIMTP
 40
0.0
  9
$DIMTM
 40
0.0
  9
$DIMTXT
 40
3.5
  9
$DIMCEN
 40
2.5
  9
$DIMTSZ
 40
0.0
  9
$DIMTOL
 70
     0
  9
$DIMLIM
 70
     0
  9
$DIMTIH
 70
     1
  9
$DIMTOH
 70
     1
  9
$DIMSE1
 70
     0
  9
$DIMSE2
 70
     0
  9
$DIMTAD
 70
     1
  9
$DIMZIN
 70
     0
  9
$DIMBLK
  1

  9
$DIMASO
 70
     1
  9
$DIMSHO
 70
     1
  9
$DIMPOST
  1

  9
$DIMAPOST
  1

  9
$DIMALT
 70
     0
  9
$DIMALTD
 70
     3
  9
$DIMALTF
 40
0.0393700787
  9
$DIMLFAC
 40
1.0
  9
$DIMTOFL
 70
     1
  9
$DIMTVP
 40
0.0
  9
$DIMTIX
 70
     0
  9
$DIMSOXD
 70
     0
  9
$DIMSAH
 70
     0
  9
$DIMBLK1
  1

  9
$DIMBLK2
  1

  9
$DIMSTYLE
  2
ISO-25
  9
$DIMCLRD
 70
     0
  9
$DIMCLRE
 70
     0
  9
$DIMCLRT
 70
     0
  9
$DIMTFAC
 40
1.0
  9
$DIMGAP
 40
1.5
  9
$DIMJUST
 70
     0
  9
$DIMSD1
 70
     0
  9
$DIMSD2
 70
     0
  9
$DIMTOLJ
 70
     0
  9
$DIMTZIN
 70
     0
  9
$DIMALTZ
 70
     0
  9
$DIMALTTZ
 70
     0
  9
$DIMUPT
 70
     0
  9
$DIMDEC
 70
     1
  9
$DIMTDEC
 70
     3
  9
$DIMALTU
 70
     2
  9
$DIMALTTD
 70
     3
  9
$DIMTXSTY
  7
STANDARD
  9
$DIMAUNIT
 70
     0
  9
$DIMADEC
 70
     2
  9
$DIMALTRND
 40
0.0
  9
$DIMAZIN
 70
     0
  9
$DIMDSEP
 70
    44
  9
$DIMATFIT
 70
     3
  9
$DIMFRAC
 70
     0
  9
$DIMLDRBLK
  1

  9
$DIMLUNIT
 70
     2
  9
$DIMLWD
 70
    -2
  9
$DIMLWE
 70
    -2
  9
$DIMTMOVE
 70
     0
  9
$LUNITS
 70
     2
  9
$LUPREC
 70
     1
  9
$SKETCHINC
 40
1.0
  9
$FILLETRAD
 40
0.0
  9
$AUNITS
 70
     0
  9
$AUPREC
 70
     2
  9
$MENU
  1
.
  9
$ELEVATION
 40
0.0
  9
$PELEVATION
 40
0.0
  9
$THICKNESS
 40
0.0
  9
$LIMCHECK
 70
     0
  9
$CHAMFERA
 40
0.0
  9
$CHAMFERB
 40
0.0
  9
$CHAMFERC
 40
0.0
  9
$CHAMFERD
 40
0.0
  9
$SKPOLY
 70
     0
  9
$TDCREATE
 40
2460921.497745787
  9
$TDUCREATE
 40
2460921.372745787
  9
$TDUPDATE
 40
2460921.497746632
  9
$TDUUPDATE
 40
2460921.372746632
  9
$TDINDWG
 40
0.0000000116
  9
$TDUSRTIMER
 40
0.0000000116
  9
$USRTIMER
 70
     1
  9
$ANGBASE
 50
0.0
  9
$ANGDIR
 70
     0
  9
$PDMODE
 70
     0
  9
$PDSIZE
 40
-1.0
  9
$PLINEWID
 40
0.0
  9
$SPLFRAME
 70
     0
  9
$SPLINETYPE
 70
     6
  9
$SPLINESEGS
 70
     8
  9
$HANDSEED
  5
335
  9
$SURFTAB1
 70
     6
  9
$SURFTAB2
 70
     6
  9
$SURFTYPE
 70
     6
  9
$SURFU
 70
     6
  9
$SURFV
 70
     6
  9
$UCSBASE
  2

  9
$UCSNAME
  2

  9
$UCSORG
 10
0.0
 20
0.0
 30
0.0
  9
$UCSXDIR
 10
1.0
 20
0.0
 30
0.0
  9
$UCSYDIR
 10
0.0
 20
1.0
 30
0.0
  9
$UCSORTHOREF
  2

  9
$UCSORTHOVIEW
 70
     0
  9
$UCSORGTOP
 10
0.0
 20
0.0
 30
0.0
  9
$UCSORGBOTTOM
 10
0.0
 20
0.0
 30
0.0
  9
$UCSORGLEFT
 10
0.0
 20
0.0
 30
0.0
  9
$UCSORGRIGHT
 10
0.0
 20
0.0
 30
0.0
  9
$UCSORGFRONT
 10
0.0
 20
0.0
 30
0.0
  9
$UCSORGBACK
 10
0.0
 20
0.0
 30
0.0
  9
$PUCSBASE
  2

  9
$PUCSNAME
  2

  9
$PUCSORG
 10
0.0
 20
0.0
 30
0.0
  9
$PUCSXDIR
 10
1.0
 20
0.0
 30
0.0
  9
$PUCSYDIR
 10
0.0
 20
1.0
 30
0.0
  9
$PUCSORTHOREF
  2

  9
$PUCSORTHOVIEW
 70
     0
  9
$PUCSORGTOP
 10
0.0
 20
0.0
 30
0.0
  9
$PUCSORGBOTTOM
 10
0.0
 20
0.0
 30
0.0
  9
$PUCSORGLEFT
 10
0.0
 20
0.0
 30
0.0
  9
$PUCSORGRIGHT
 10
0.0
 20
0.0
 30
0.0
  9
$PUCSORGFRONT
 10
0.0
 20
0.0
 30
0.0
  9
$PUCSORGBACK
 10
0.0
 20
0.0
 30
0.0
  9
$USERI1
 70
     0
  9
$USERI2
 70
     0
  9
$USERI3
 70
     0
  9
$USERI4
 70
     0
  9
$USERI5
 70
     0
  9
$USERR1
 40
0.0
  9
$USERR2
 40
0.0
  9
$USERR3
 40
0.0
  9
$USERR4
 40
0.0
  9
$USERR5
 40
0.0
  9
$WORLDVIEW
 70
     1
  9
$SHADEDGE
 70
     3
  9
$SHADEDIF
 70
    70
  9
$TILEMODE
 70
     1
  9
$MAXACTVP
 70
    64
  9
$PINSBASE
 10
0.0
 20
0.0
 30
0.0
  9
$PLIMCHECK
 70
     0
  9
$PEXTMIN
 10
1.0000000000E+20
 20
1.0000000000E+20
 30
1.0000000000E+20
  9
$PEXTMAX
 10
-1.0000000000E+20
 20
-1.0000000000E+20
 30
-1.0000000000E+20
  9
$PLIMMIN
 10
0.0
 20
0.0
  9
$PLIMMAX
 10
420.0
 20
297.0
  9
$UNITMODE
 70
     0
  9
$VISRETAIN
 70
     1
  9
$PLINEGEN
 70
     0
  9
$PSLTSCALE
 70
     1
  9
$TREEDEPTH
 70
  3020
  9
$CMLSTYLE
  2
Standard
  9
$CMLJUST
 70
     0
  9
$CMLSCALE
 40
20.0
  9
$PROXYGRAPHICS
 70
     1
  9
$MEASUREMENT
 70
     1
  9
$CELWEIGHT
370
    -1
  9
$ENDCAPS
280
     0
  9
$JOINSTYLE
280
     0
  9
$LWDISPLAY
290
     1
  9
$INSUNITS
 70
     4
  9
$HYPERLINKBASE
  1

  9
$STYLESHEET
  1

  9
$XEDIT
290
     1
  9
$CEPSNTYPE
380
     0
  9
$PSTYLEMODE
290
     1
  9
$FINGERPRINTGUID
  2
{51bb85c8-e300-4e75-8231-d39c25520ff2}
  9
$VERSIONGUID
  2
{FAEB1C32-E019-11D5-929B-00C0DF256EC4}
  9
$EXTNAMES
290
     1
  9
$PSVPSCALE
 40
0.0
  9
$OLESTARTUP
290
     0
  0
ENDSEC
  0
SECTION
  2
CLASSES
  0
CLASS
  1
ACDBDICTIONARYWDFLT
  2
AcDbDictionaryWithDefault
  3
ObjectDBX Classes
 90
        0
280
     0
281
     0
  0
CLASS
  1
VISUALSTYLE
  2
AcDbVisualStyle
  3
ObjectDBX Classes
 90
     4095
280
     0
281
     0
  0
CLASS
  1
MATERIAL
  2
AcDbMaterial
  3
ObjectDBX Classes
 90
     1153
280
     0
281
     0
  0
CLASS
  1
SCALE
  2
AcDbScale
  3
ObjectDBX Classes
 90
     1153
280
     0
281
     0
  0
CLASS
  1
TABLESTYLE
  2
AcDbTableStyle
  3
ObjectDBX Classes
 90
     4095
280
     0
281
     0
  0
CLASS
  1
MLEADERSTYLE
  2
AcDbMLeaderStyle
  3
ACDB_MLEADERSTYLE_CLASS
 90
     4095
280
     0
281
     0
  0
CLASS
  1
SUN
  2
AcDbSun
  3
SCENEOE
 90
     1153
280
     0
281
     0
  0
CLASS
  1
ACDBPLACEHOLDER
  2
AcDbPlaceHolder
  3
ObjectDBX Classes
 90
        0
280
     0
281
     0
  0
CLASS
  1
LAYOUT
  2
AcDbLayout
  3
ObjectDBX Classes
 90
        0
280
     0
281
     0
  0
ENDSEC
  0
SECTION
  2
TABLES
  0
TABLE
  2
VPORT
  5
8
330
0
100
AcDbSymbolTable
 70
     1
  0
VPORT
  5
29
330
8
100
AcDbSymbolTableRecord
100
AcDbViewportTableRecord
  2
*Active
 70
     0
 10
0.0
 20
0.0
 11
1.0
 21
1.0
 12
215.9
 22
139.7
 13
0.0
 23
0.0
 14
10.0
 24
10.0
 15
10.0
 25
10.0
 16
0.0
 26
0.0
 36
1.0
 17
0.0
 27
0.0
 37
0.0
 40
279.4
 41
1.5454545455
 42
50.0
 43
0.0
 44
0.0
 50
0.0
 51
0.0
 71
     0
 72
  2000
 73
     1
 74
     3
 75
     0
 76
     0
 77
     0
 78
     0
281
     0
 65
     1
110
0.0
120
0.0
130
0.0
111
1.0
121
0.0
131
0.0
112
0.0
122
1.0
132
0.0
 79
     0
146
0.0
  0
ENDTAB
  0
TABLE
  2
LTYPE
  5
5
330
0
100
AcDbSymbolTable
 70
     8
  0
LTYPE
  5
14
330
5
100
AcDbSymbolTableRecord
100
AcDbLinetypeTableRecord
  2
ByBlock
 70
     0
  3

 72
    65
 73
     0
 40
0.0
  0
LTYPE
  5
15
330
5
100
AcDbSymbolTableRecord
100
AcDbLinetypeTableRecord
  2
ByLayer
 70
     0
  3

 72
    65
 73
     0
 40
0.0
  0
LTYPE
  5
16
330
5
100
AcDbSymbolTableRecord
100
AcDbLinetypeTableRecord
  2
Continuous
 70
     0
  3
Solid line
 72
    65
 73
     0
 40
0.0
  0
LTYPE
  5
5E
330
5
100
AcDbSymbolTableRecord
100
AcDbLinetypeTableRecord
  2
SLD-Сплошная
 70
     0
  3
SolidWorks Line Style
 72
    65
 73
     0
 40
0.0
  0
LTYPE
  5
5F
330
5
100
AcDbSymbolTableRecord
100
AcDbLinetypeTableRecord
  2
SLD-Штриховая
 70
     0
  3
SolidWorks Line Style
 72
    65
 73
     2
 40
1.905
 49
1.27
 74
     0
 49
-0.635
 74
     0
  0
LTYPE
  5
60
330
5
100
AcDbSymbolTableRecord
100
AcDbLinetypeTableRecord
  2
SLD-Штрихпункт.-с-двумя-точками
 70
     0
  3
SolidWorks Line Style
 72
    65
 73
     6
 40
12.7
 49
6.35
 74
     0
 49
-1.27
 74
     0
 49
1.27
 74
     0
 49
-1.27
 74
     0
 49
1.27
 74
     0
 49
-1.27
 74
     0
  0
LTYPE
  5
61
330
5
100
AcDbSymbolTableRecord
100
AcDbLinetypeTableRecord
  2
SLD-Штрихпункт.-утолщ.
 70
     0
  3
SolidWorks Line Style
 72
    65
 73
     4
 40
10.16
 49
6.35
 74
     0
 49
-1.27
 74
     0
 49
1.27
 74
     0
 49
-1.27
 74
     0
  0
LTYPE
  5
62
330
5
100
AcDbSymbolTableRecord
100
AcDbLinetypeTableRecord
  2
SLD-Осевая
 70
     0
  3
SolidWorks Line Style
 72
    65
 73
     4
 40
19.05
 49
15.24
 74
     0
 49
-1.27
 74
     0
 49
1.27
 74
     0
 49
-1.27
 74
     0
  0
LTYPE
  5
63
330
5
100
AcDbSymbolTableRecord
100
AcDbLinetypeTableRecord
  2
SLD-Сшитая
 70
     0
  3
SolidWorks Line Style
 72
    65
 73
     2
 40
0.635
 49
0.0
 74
     0
 49
-0.635
 74
     0
  0
LTYPE
  5
64
330
5
100
AcDbSymbolTableRecord
100
AcDbLinetypeTableRecord
  2
SLD-Тонкая-Толстая
 70
     0
  3
SolidWorks Line Style
 72
    65
 73
     2
 40
5.080508
 49
0.000508
 74
     0
 49
-5.08
 74
     0
  0
ENDTAB
  0
TABLE
  2
LAYER
  5
2
330
0
100
AcDbSymbolTable
 70
     3
  0
LAYER
  5
10
330
2
100
AcDbSymbolTableRecord
100
AcDbLayerTableRecord
  2
0
 70
     0
 62
     7
  6
Continuous
370
    -3
390
F
  0
LAYER
  5
65
330
2
100
AcDbSymbolTableRecord
100
AcDbLayerTableRecord
  2
ВОДЯНОЙ_ЗНАК
 70
     0
 62
    11
  6
SLD-Сплошная
370
    -3
390
F
  0
LAYER
  5
66
330
2
100
AcDbSymbolTableRecord
100
AcDbLayerTableRecord
  2
ОСНОВНОЙ
 70
     0
 62
     7
  6
SLD-Сплошная
370
    -3
390
F
  0
ENDTAB
  0
TABLE
  2
STYLE
  5
3
330
0
100
AcDbSymbolTable
 70
     1
  0
STYLE
  5
11
330
3
100
AcDbSymbolTableRecord
100
AcDbTextStyleTableRecord
  2
STANDARD
 70
     0
 40
0.0
 41
1.0
 50
0.0
 71
     0
 42
3.5
  3
GOST-TYPE-A.TTF
  4

1001
ACAD
1000
GOST TYPE A
1071
 16777250
  0
ENDTAB
  0
TABLE
  2
VIEW
  5
6
330
0
100
AcDbSymbolTable
 70
     0
  0
ENDTAB
  0
TABLE
  2
UCS
  5
7
330
0
100
AcDbSymbolTable
 70
     0
  0
ENDTAB
  0
TABLE
  2
APPID
  5
9
330
0
100
AcDbSymbolTable
 70
     1
  0
APPID
  5
12
330
9
100
AcDbSymbolTableRecord
100
AcDbRegAppTableRecord
  2
ACAD
 70
     0
  0
ENDTAB
  0
TABLE
  2
DIMSTYLE
  5
A
330
0
100
AcDbSymbolTable
 70
     1
100
AcDbDimStyleTable
  0
DIMSTYLE
105
27
330
A
100
AcDbSymbolTableRecord
100
AcDbDimStyleTableRecord
  2
ISO-25
 70
     0
 41
2.5
 42
0.625
 43
3.75
 44
1.25
 73
     0
 74
     0
 77
     1
 78
     8
140
2.5
141
2.5
143
0.0393700787
147
0.625
171
     3
172
     1
178
     0
271
     2
272
     2
274
     3
278
    44
283
     0
284
     8
340
11
  0
ENDTAB
  0
TABLE
  2
BLOCK_RECORD
  5
1
330
0
100
AcDbSymbolTable
 70
     1
  0
BLOCK_RECORD
  5
1F
330
1
100
AcDbSymbolTableRecord
100
AcDbBlockTableRecord
  2
*Model_Space
340
22
  0
BLOCK_RECORD
  5
1B
330
1
100
AcDbSymbolTableRecord
100
AcDbBlockTableRecord
  2
*Paper_Space
340
1E
  0
BLOCK_RECORD
  5
23
330
1
100
AcDbSymbolTableRecord
100
AcDbBlockTableRecord
  2
*Paper_Space0
340
26
  0
ENDTAB
  0
ENDSEC
  0
SECTION
  2
BLOCKS
  0
BLOCK
  5
20
330
1F
100
AcDbEntity
  8
0
100
AcDbBlockBegin
  2
*Model_Space
 70
     0
 10
0.0
 20
0.0
 30
0.0
  3
*Model_Space
  1

  0
ENDBLK
  5
21
330
1F
100
AcDbEntity
  8
0
100
AcDbBlockEnd
  0
BLOCK
  5
1C
330
1B
100
AcDbEntity
 67
     1
  8
0
100
AcDbBlockBegin
  2
*Paper_Space
 70
     0
 10
0.0
 20
0.0
 30
0.0
  3
*Paper_Space
  1

  0
ENDBLK
  5
1D
330
1B
100
AcDbEntity
 67
     1
  8
0
100
AcDbBlockEnd
  0
BLOCK
  5
24
330
23
100
AcDbEntity
  8
0
100
AcDbBlockBegin
  2
*Paper_Space0
 70
     0
 10
0.0
 20
0.0
 30
0.0
  3
*Paper_Space0
  1

  0
ENDBLK
  5
25
330
23
100
AcDbEntity
  8
0
100
AcDbBlockEnd
  0
ENDSEC
  0
SECTION
  2
ENTITIES
  0
ARC
  5
67
330
1F
100
AcDbEntity
  8
0
  6
SLD-Сплошная
 62
     7
370
    25
100
AcDbCircle
 10
262.6860306781
 20
148.5751898955
 30
0.0
 40
150.0
100
AcDbArc
 50
171.364314849
 51
188.635685151
  0
LINE
  5
68
330
1F
100
AcDbEntity
  8
0
  6
SLD-Сплошная
 62
     7
370
    25
100
AcDbLine
 10
130.8686724232
 20
199.1742416885
 30
0.0
 11
113.3316866729
 21
187.4335276429
 31
0.0
  0
ARC
  5
69
330
1F
100
AcDbEntity
  8
0
  6
SLD-Сплошная
 62
     7
370
    25
100
AcDbCircle
 10
114.7224850443
 20
185.3561061908
 30
0.0
 40
2.500000000000012
100
AcDbArc
 50
123.801636395
 51
180.0
  0
ARC
  5
6A
330
1F
100
AcDbEntity
  8
0
  6
SLD-Сплошная
 62
     7
370
    25
100
AcDbCircle
 10
114.7224850443
 20
113.0251898955
 30
0.0
 40
2.5
100
AcDbArc
 50
180.0
 51
270.0
  0
LINE
  5
6B
330
1F
100
AcDbEntity
  8
0
  6
SLD-Сплошная
 62
     7
370
    25
100
AcDbLine
 10
112.2224850443
 20
123.5751898955
 30
0.0
 11
112.2224850443
 21
113.0251898955
 31
0.0
  0
ARC
  5
6C
330
1F
100
AcDbEntity
  8
0
  6
SLD-Сплошная
 62
     7
370
    25
100
AcDbCircle
 10
114.7224850443
 20
173.5751898955
 30
0.0
 40
2.500000000000143
100
AcDbArc
 50
180.0
 51
266.5851575402
  0
LINE
  5
6D
330
1F
100
AcDbEntity
  8
0
  6
SLD-Сплошная
 62
     7
370
    25
100
AcDbLine
 10
114.7224850443
 20
110.5251898955
 30
0.0
 11
116.6860306781
 21
110.5251898955
 31
0.0
  0
LINE
  5
6E
330
1F
100
AcDbEntity
  8
0
  6
SLD-Сплошная
 62
     7
370
    25
100
AcDbLine
 10
112.2224850443
 20
185.3561061908
 30
0.0
 11
112.2224850443
 21
173.5751898955
 31
0.0
  0
ARC
  5
6F
330
1F
100
AcDbEntity
  8
0
  6
SLD-Сплошная
 62
     7
370
    25
100
AcDbCircle
 10
114.7224850443
 20
123.5751898955
 30
0.0
 40
2.500000000000066
100
AcDbArc
 50
93.4148424598
 51
180.0
  0
LINE
  5
70
330
1F
100
AcDbEntity
  8
0
  6
SLD-Сплошная
 62
     7
370
    25
100
AcDbLine
 10
116.6860306781
 20
109.5953140819
 30
0.0
 11
119.6860306781
 21
109.5953140819
 31
0.0
  0
LINE
  5
71
330
1F
100
AcDbEntity
  8
0
  6
SLD-Сплошная
 62
     7
370
    25
100
AcDbLine
 10
119.6860306781
 20
110.0751898955
 30
0.0
 11
122.6860306781
 21
110.0751898955
 31
0.0
  0
LINE
  5
72
330
1F
100
AcDbEntity
  8
0
  6
SLD-Сплошная
 62
     7
370
    25
100
AcDbLine
 10
136.4860306781
 20
180.6251898955
 30
0.0
 11
122.6860306781
 21
180.6251898955
 31
0.0
  0
LINE
  5
73
330
1F
100
AcDbEntity
  8
0
  6
SLD-Сплошная
 62
     7
370
    25
100
AcDbLine
 10
175.2860306781
 20
180.6251898955
 30
0.0
 11
168.4195257331
 21
180.6251898955
 31
0.0
  0
ARC
  5
74
330
1F
100
AcDbEntity
  8
0
  6
SLD-Сплошная
 62
     7
370
    25
100
AcDbCircle
 10
200.2860306781
 20
352.3872539517
 30
0.0
 40
232.5620640561955
100
AcDbArc
 50
277.1254665008
 51
283.4847162271
  0
ARC
  5
75
330
1F
100
AcDbEntity
  8
0
  6
SLD-Сплошная
 62
     7
370
    25
100
AcDbCircle
 10
200.2860306781
 20
352.3872539517
 30
0.0
 40
232.5620640561955
100
AcDbArc
 50
270.2168178752
 51
275.53511955
  0
LINE
  5
76
330
1F
100
AcDbEntity
  8
0
  6
SLD-Сплошная
 62
     7
370
    25
100
AcDbLine
 10
271.7860306781
 20
178.5227337775
 30
0.0
 11
269.7860306781
 21
178.5227337775
 31
0.0
  0
LINE
  5
77
330
1F
100
AcDbEntity
  8
0
  6
SLD-Сплошная
 62
     7
370
    25
100
AcDbLine
 10
269.7860306781
 20
118.6276460136
 30
0.0
 11
271.7860306781
 21
118.6276460136
 31
0.0
  0
ARC
  5
78
330
1F
100
AcDbEntity
  8
0
  6
SLD-Сплошная
 62
     7
370
    25
100
AcDbCircle
 10
200.2860306781
 20
-55.2368741607
 30
0.0
 40
232.5620640561955
100
AcDbArc
 50
75.0488359449
 51
90.0
  0
LINE
  5
79
330
1F
100
AcDbEntity
  8
0
  6
SLD-Сплошная
 62
     7
370
    25
100
AcDbLine
 10
200.2860306781
 20
177.3251898955
 30
0.0
 11
175.2860306781
 21
177.3251898955
 31
0.0
  0
LINE
  5
7A
330
1F
100
AcDbEntity
  8
0
  6
SLD-Сплошная
 62
     7
370
    25
100
AcDbLine
 10
175.2860306781
 20
119.8251898955
 30
0.0
 11
194.7329285206
 21
119.8251898955
 31
0.0
  0
LINE
  5
7B
330
1F
100
AcDbEntity
  8
0
  6
SLD-Сплошная
 62
     7
370
    25
100
AcDbLine
 10
260.2860306781
 20
131.7751898955
 30
0.0
 11
269.7860306781
 21
131.7751898955
 31
0.0
  0
LINE
  5
7C
330
1F
100
AcDbEntity
  8
0
  6
SLD-Сплошная
 62
     7
370
    25
100
AcDbLine
 10
269.7860306781
 20
165.3751898955
 30
0.0
 11
260.2860306781
 21
165.3751898955
 31
0.0
  0
LINE
  5
7D
330
1F
100
AcDbEntity
  8
0
  6
SLD-Сплошная
 62
     7
370
    25
100
AcDbLine
 10
122.6860306781
 20
110.1251898955
 30
0.0
 11
175.2860306781
 21
110.1251898955
 31
0.0
  0
LINE
  5
7E
330
1F
100
AcDbEntity
  8
0
  6
SLD-Сплошная
 62
     7
370
    25
100
AcDbLine
 10
301.565610205
 20
164.8235027366
 30
0.0
 11
301.5291964864
 21
165.9947065575
 31
0.0
  0
LINE
  5
7F
330
1F
100
AcDbEntity
  8
0
  6
SLD-Сплошная
 62
     7
370
    25
100
AcDbLine
 10
301.5291964864
 20
131.1556732335
 30
0.0
 11
301.565610205
 21
132.3268770545
 31
0.0
  0
ARC
  5
80
330
1F
100
AcDbEntity
  8
0
  6
SLD-Сплошная
 62
     7
370
    25
100
AcDbCircle
 10
297.6903435069
 20
131.8435742447
 30
0.0
 40
3.899999999999982
100
AcDbArc
 50
303.1904410878
 51
349.840740668
  0
ARC
  5
81
330
1F
100
AcDbEntity
  8
0
  6
SLD-Сплошная
 62
     7
370
    25
100
AcDbCircle
 10
297.6903435069
 20
165.3068055463
 30
0.0
 40
3.900000000000023
100
AcDbArc
 50
10.159259332
 51
56.7768331922
  0
SPLINE
  5
82
330
1F
100
AcDbEntity
  8
0
  6
SLD-Сплошная
 62
     7
370
    25
100
AcDbSpline
210
0.0
220
0.0
230
1.0
 70
     8
 71
     3
 72
    14
 73
    10
 74
     0
 42
0.00000001
 43
0.00000001
 40
0.0
 40
0.0
 40
0.0
 40
0.0
 40
0.2590389089760564
 40
0.387214495226959
 40
0.5177568502771451
 40
0.6443105763398017
 40
0.7668665689181418
 40
0.8854229200212241
 40
1.0
 40
1.0
 40
1.0
 40
1.0
 10
279.7860306780806
 20
124.6751898955324
 30
0.0
 10
281.5815363621278
 20
124.680776778443
 30
0.0
 10
284.265479982311
 20
124.6891281186129
 30
0.0
 10
287.8570733943521
 20
124.6502179645858
 30
0.0
 10
290.520462402509
 20
124.9269461131447
 30
0.0
 10
293.0974047406107
 20
125.4884076007405
 30
0.0
 10
295.5164545133782
 20
126.3039403757612
 30
0.0
 10
297.7711085848471
 20
127.3184081399596
 30
0.0
 10
299.1495009508099
 20
128.1648916164166
 30
0.0
 10
299.8269334907256
 20
128.5809091928434
 30
0.0
  0
SPLINE
  5
83
330
1F
100
AcDbEntity
  8
0
  6
SLD-Сплошная
 62
     7
370
    25
100
AcDbSpline
210
0.0
220
0.0
230
1.0
 70
     8
 71
     3
 72
    14
 73
    10
 74
     0
 42
0.00000001
 43
0.00000001
 40
0.0
 40
0.0
 40
0.0
 40
0.0
 40
0.1179373309070513
 40
0.2572473724704487
 40
0.4179351563530083
 40
0.5525139979457735
 40
0.6966137432249719
 40
0.8427082361514815
 40
1.0
 40
1.0
 40
1.0
 40
1.0
 10
299.8269334907254
 20
168.5694705982219
 30
0.0
 10
299.129198195216
 20
168.9967991703085
 30
0.0
 10
297.6072833776664
 20
169.9288971880044
 30
0.0
 10
294.9417280224619
 20
171.0899809532229
 30
0.0
 10
292.0448272078798
 20
171.9429500719684
 30
0.0
 10
289.0292289271736
 20
172.4340097779444
 30
0.0
 10
286.0802856958738
 20
172.4866335585941
 30
0.0
 10
282.9796365433721
 20
172.4720541053827
 30
0.0
 10
280.8764406327573
 20
172.4741192259072
 30
0.0
 10
279.7860306780806
 20
172.4751898955324
 30
0.0
  0
LINE
  5
84
330
1F
100
AcDbEntity
  8
0
  6
SLD-Сплошная
 62
     7
370
    25
100
AcDbLine
 10
122.6860306781
 20
117.2525952583
 30
0.0
 11
122.6860306781
 21
179.0251898955
 31
0.0
  0
LINE
  5
85
330
1F
100
AcDbEntity
  8
0
  6
SLD-Сплошная
 62
     7
370
    25
100
AcDbLine
 10
119.6860306781
 20
117.2525952583
 30
0.0
 11
122.6860306781
 21
117.2525952583
 31
0.0
  0
LINE
  5
86
330
1F
100
AcDbEntity
  8
0
  6
SLD-Сплошная
 62
     7
370
    25
100
AcDbLine
 10
119.6860306781
 20
118.1251898955
 30
0.0
 11
116.1500368063
 21
118.1251898955
 31
0.0
  0
LINE
  5
87
330
1F
100
AcDbEntity
  8
0
  6
SLD-Сплошная
 62
     7
370
    25
100
AcDbLine
 10
116.1500368063
 20
118.1251898955
 30
0.0
 11
116.1500368063
 21
179.0251898955
 31
0.0
  0
LINE
  5
88
330
1F
100
AcDbEntity
  8
0
  6
SLD-Сплошная
 62
     7
370
    25
100
AcDbLine
 10
116.1500368063
 20
179.0251898955
 30
0.0
 11
122.6860306781
 21
179.0251898955
 31
0.0
  0
ARC
  5
89
330
1F
100
AcDbEntity
  8
0
  6
SLD-Сплошная
 62
     7
370
    25
100
AcDbCircle
 10
113.6457110796
 20
171.6362840307
 30
0.0
 40
1.08203146184347
100
AcDbArc
 50
329.0390458236
 51
354.3495476922
  0
SPLINE
  5
8A
330
1F
100
AcDbEntity
  8
0
  6
SLD-Сплошная
 62
     7
370
    25
100
AcDbSpline
210
0.0
220
0.0
230
1.0
 70
     8
 71
     3
 72
    14
 73
    10
 74
     0
 42
0.00000001
 43
0.00000001
 40
0.0
 40
0.0
 40
0.0
 40
0.0
 40
0.25
 40
0.25
 40
0.5
 40
0.5
 40
0.75
 40
0.75
 40
1.0
 40
1.0
 40
1.0
 40
1.0
 10
115.1224850443434
 20
173.5751898955314
 30
0.0
 10
115.0883838381828
 20
173.3739060998737
 30
0.0
 10
115.0537928886853
 20
173.1768494726163
 30
0.0
 10
114.9836725678025
 20
172.7908601592638
 30
0.0
 10
114.9479007105123
 20
172.6008569371771
 30
0.0
 10
114.8790321866737
 20
172.2485639886029
 30
0.0
 10
114.8452330232969
 20
172.082528761788
 30
0.0
 10
114.7806897147233
 20
171.7799810149402
 30
0.0
 10
114.7505171858386
 20
171.6460207232346
 30
0.0
 10
114.7224850443427
 20
171.5297480589806
 30
0.0
  0
ARC
  5
8B
330
1F
100
AcDbEntity
  8
0
  6
SLD-Сплошная
 62
     7
370
    25
100
AcDbCircle
 10
262.6860306781
 20
148.5751898955
 30
0.0
 40
149.6662954709574
100
AcDbArc
 50
168.2610681021
 51
170.3843374027
  0
ARC
  5
8C
330
1F
100
AcDbEntity
  8
0
  6
SLD-Сплошная
 62
     7
370
    25
100
AcDbCircle
 10
262.6860306781
 20
148.5751898955
 30
0.0
 40
149.6662954709575
100
AcDbArc
 50
189.6156625973
 51
191.7389318979
  0
SPLINE
  5
8D
330
1F
100
AcDbEntity
  8
0
  6
SLD-Сплошная
 62
     7
370
    25
100
AcDbSpline
210
0.0
220
0.0
230
1.0
 70
     8
 71
     3
 72
    14
 73
    10
 74
     0
 42
0.00000001
 43
0.00000001
 40
0.0
 40
0.0
 40
0.0
 40
0.0
 40
0.25
 40
0.25
 40
0.5
 40
0.5
 40
0.75
 40
0.75
 40
1.0
 40
1.0
 40
1.0
 40
1.0
 10
115.1224850443437
 20
123.5751898955313
 30
0.0
 10
115.0883858251339
 20
123.7764619631294
 30
0.0
 10
115.053795325147
 20
123.9735167425126
 30
0.0
 10
114.9836726896069
 20
124.3595191253169
 30
0.0
 10
114.9479012864212
 20
124.5495198071507
 30
0.0
 10
114.8790331305719
 20
124.9018110747109
 30
0.0
 10
114.8452301375875
 20
125.0678647985421
 30
0.0
 10
114.7806895051551
 20
125.3703995160078
 30
0.0
 10
114.7505173974705
 20
125.5043581900154
 30
0.0
 10
114.7224850443438
 20
125.6206317320788
 30
0.0
  0
ARC
  5
8E
330
1F
100
AcDbEntity
  8
0
  6
SLD-Сплошная
 62
     7
370
    25
100
AcDbCircle
 10
113.6457110796
 20
125.5140957603
 30
0.0
 40
1.082031461855442
100
AcDbArc
 50
5.6504523078
 51
30.9609541763
  0
LINE
  5
8F
330
1F
100
AcDbEntity
  8
0
  6
SLD-Сплошная
 62
     7
370
    25
100
AcDbLine
 10
130.8686724232
 20
199.1742416885
 30
0.0
 11
135.3624941936
 21
199.1742416885
 31
0.0
  0
LINE
  5
90
330
1F
100
AcDbEntity
  8
0
  6
SLD-Сплошная
 62
     7
370
    25
100
AcDbLine
 10
143.2423850062
 20
199.1742416885
 30
0.0
 11
135.3624941936
 21
199.1742416885
 31
0.0
  0
ARC
  5
91
330
1F
100
AcDbEntity
  8
0
  6
SLD-Сплошная
 62
     7
370
    25
100
AcDbCircle
 10
141.1860306781
 20
193.3251898955
 30
0.0
 40
6.199999999999985
100
AcDbArc
 50
15.2938657321
 51
70.6298277121
  0
LINE
  5
92
330
1F
100
AcDbEntity
  8
0
  6
SLD-Сплошная
 62
     7
370
    25
100
AcDbLine
 10
136.4860306781
 20
187.1251898955
 30
0.0
 11
131.5656476823
 21
187.1251898955
 31
0.0
  0
LINE
  5
93
330
1F
100
AcDbEntity
  8
0
  6
SLD-Сплошная
 62
     7
370
    25
100
AcDbLine
 10
122.6860306781
 20
181.180437156
 30
0.0
 11
131.5656476823
 21
187.1251898955
 31
0.0
  0
LINE
  5
94
330
1F
100
AcDbEntity
  8
0
  6
SLD-Сплошная
 62
     7
370
    25
100
AcDbLine
 10
122.6860306781
 20
181.180437156
 30
0.0
 11
122.6860306781
 21
179.0251898955
 31
0.0
  0
LINE
  5
95
330
1F
100
AcDbEntity
  8
0
  6
SLD-Сплошная
 62
     7
370
    25
100
AcDbLine
 10
119.6860306781
 20
118.1251898955
 30
0.0
 11
119.6860306781
 21
113.0251898955
 31
0.0
  0
LINE
  5
96
330
1F
100
AcDbEntity
  8
0
  6
SLD-Сплошная
 62
     7
370
    25
100
AcDbLine
 10
119.6860306781
 20
113.0251898955
 30
0.0
 11
119.6860306781
 21
110.6008857757
 31
0.0
  0
LINE
  5
97
330
1F
100
AcDbEntity
  8
0
  6
SLD-Сплошная
 62
     7
370
    25
100
AcDbLine
 10
116.6860306781
 20
109.5953140819
 30
0.0
 11
116.6860306781
 21
110.6008857757
 31
0.0
  0
LINE
  5
98
330
1F
100
AcDbEntity
  8
0
  6
SLD-Сплошная
 62
     7
370
    25
100
AcDbLine
 10
119.6860306781
 20
110.6008857757
 30
0.0
 11
119.6860306781
 21
109.5953140819
 31
0.0
  0
ARC
  5
99
330
1F
100
AcDbEntity
  8
0
  6
SLD-Сплошная
 62
     7
370
    25
100
AcDbCircle
 10
124.3389306781
 20
212.2096367602
 30
0.0
 40
19.99999999999982
100
AcDbArc
 50
319.3248330178
 51
344.8904042347
  0
LINE
  5
9A
330
1F
100
AcDbEntity
  8
0
  6
SLD-Сплошная
 62
     7
370
    25
100
AcDbLine
 10
143.6475104509
 20
206.9963127577
 30
0.0
 11
144.6898602002
 21
206.1693425792
 31
0.0
  0
ARC
  5
9B
330
1F
100
AcDbEntity
  8
0
  6
SLD-Сплошная
 62
     7
370
    25
100
AcDbCircle
 10
144.3790984892
 20
205.7776447889
 30
0.0
 40
0.5000000000000162
100
AcDbArc
 50
345.9533504974
 51
51.5725316321
  0
LINE
  5
9C
330
1F
100
AcDbEntity
  8
0
  6
SLD-Сплошная
 62
     7
370
    25
100
AcDbLine
 10
143.2423850062
 20
199.1742416885
 30
0.0
 11
144.8641477067
 21
205.6562888799
 31
0.0
  0
LINE
  5
9D
330
1F
100
AcDbEntity
  8
0
  6
SLD-Сплошная
 62
     7
370
    25
100
AcDbLine
 10
122.6860306781
 20
110.0751898955
 30
0.0
 11
122.6860306781
 21
116.9251898955
 31
0.0
  0
ARC
  5
9E
330
1F
100
AcDbEntity
  8
0
  6
SLD-Сплошная
 62
     7
370
    25
100
AcDbCircle
 10
141.1860306781
 20
193.3251898955
 30
0.0
 40
6.20000000000004
100
AcDbArc
 50
104.4495180551
 51
109.3701722879
  0
LINE
  5
9F
330
1F
100
AcDbEntity
  8
0
  6
SLD-Сплошная
 62
     7
370
    25
100
AcDbLine
 10
175.2860306781
 20
180.6251898955
 30
0.0
 11
175.2860306781
 21
117.2531519808
 31
0.0
  0
LINE
  5
A0
330
1F
100
AcDbEntity
  8
0
  6
SLD-Сплошная
 62
     7
370
    25
100
AcDbLine
 10
175.2860306781
 20
117.2531519808
 30
0.0
 11
122.6860306781
 21
117.2531519808
 31
0.0
  0
LINE
  5
A1
330
1F
100
AcDbEntity
  8
0
  6
SLD-Сплошная
 62
     7
370
    25
100
AcDbLine
 10
122.6860306781
 20
179.0251898955
 30
0.0
 11
122.6860306781
 21
117.2531519808
 31
0.0
  0
LINE
  5
A2
330
1F
100
AcDbEntity
  8
0
  6
SLD-Сплошная
 62
     7
370
    25
100
AcDbLine
 10
137.5760306781
 20
166.4177453009
 30
0.0
 11
137.5760306781
 21
131.3191173683
 31
0.0
  0
LINE
  5
A3
330
1F
100
AcDbEntity
  8
0
  6
SLD-Сплошная
 62
     7
370
    25
100
AcDbLine
 10
137.5760306781
 20
131.3191173683
 30
0.0
 11
159.7326973447
 21
131.3191173683
 31
0.0
  0
LINE
  5
A4
330
1F
100
AcDbEntity
  8
0
  6
SLD-Сплошная
 62
     7
370
    25
100
AcDbLine
 10
159.7326973447
 20
166.4177453009
 30
0.0
 11
159.7326973447
 21
131.3191173683
 31
0.0
  0
LINE
  5
A5
330
1F
100
AcDbEntity
  8
0
  6
SLD-Сплошная
 62
     7
370
    25
100
AcDbLine
 10
159.7326973447
 20
166.4177453009
 30
0.0
 11
137.5760306781
 21
166.4177453009
 31
0.0
  0
LINE
  5
A6
330
1F
100
AcDbEntity
  8
0
  6
SLD-Сплошная
 62
     7
370
    25
100
AcDbLine
 10
136.4860306781
 20
177.2581552234
 30
0.0
 11
173.4113599176
 21
177.2581552234
 31
0.0
  0
LINE
  5
A7
330
1F
100
AcDbEntity
  8
0
  6
SLD-Сплошная
 62
     7
370
    25
100
AcDbLine
 10
150.2201693864
 20
150.005561568
 30
0.0
 11
147.0885586364
 21
150.005561568
 31
0.0
  0
LINE
  5
A8
330
1F
100
AcDbEntity
  8
0
  6
SLD-Сплошная
 62
     7
370
    25
100
AcDbLine
 10
150.2201693864
 20
150.005561568
 30
0.0
 11
150.2201693864
 21
142.6443676683
 31
0.0
  0
LINE
  5
A9
330
1F
100
AcDbEntity
  8
0
  6
SLD-Сплошная
 62
     7
370
    25
100
AcDbLine
 10
151.2640522745
 20
142.6443676683
 30
0.0
 11
150.2201693864
 21
142.6443676683
 31
0.0
  0
LINE
  5
AA
330
1F
100
AcDbEntity
  8
0
  6
SLD-Сплошная
 62
     7
370
    25
100
AcDbLine
 10
151.2640522745
 20
150.005561568
 30
0.0
 11
151.2640522745
 21
142.6443676683
 31
0.0
  0
LINE
  5
AB
330
1F
100
AcDbEntity
  8
0
  6
SLD-Сплошная
 62
     7
370
    25
100
AcDbLine
 10
154.3956630245
 20
150.005561568
 30
0.0
 11
151.2640522745
 21
150.005561568
 31
0.0
  0
LINE
  5
AC
330
1F
100
AcDbEntity
  8
0
  6
SLD-Сплошная
 62
     7
370
    25
100
AcDbLine
 10
154.3956630245
 20
150.005561568
 30
0.0
 11
154.3956630245
 21
139.1017148188
 31
0.0
  0
LINE
  5
AD
330
1F
100
AcDbEntity
  8
0
  6
SLD-Сплошная
 62
     7
370
    25
100
AcDbLine
 10
147.0885586364
 20
139.1017148188
 30
0.0
 11
154.3956630245
 21
139.1017148188
 31
0.0
  0
LINE
  5
AE
330
1F
100
AcDbEntity
  8
0
  6
SLD-Сплошная
 62
     7
370
    25
100
AcDbLine
 10
147.0885586364
 20
150.005561568
 30
0.0
 11
147.0885586364
 21
139.1017148188
 31
0.0
  0
LINE
  5
AF
330
1F
100
AcDbEntity
  8
0
  6
SLD-Сплошная
 62
     7
370
    25
100
AcDbLine
 10
146.0446757483
 20
150.005561568
 30
0.0
 11
142.9130649983
 21
150.005561568
 31
0.0
  0
LINE
  5
B0
330
1F
100
AcDbEntity
  8
0
  6
SLD-Сплошная
 62
     7
370
    25
100
AcDbLine
 10
142.9130649983
 20
139.1017148188
 30
0.0
 11
146.0446757483
 21
139.1017148188
 31
0.0
  0
LINE
  5
B1
330
1F
100
AcDbEntity
  8
0
  6
SLD-Сплошная
 62
     7
370
    25
100
AcDbLine
 10
146.0446757483
 20
150.005561568
 30
0.0
 11
146.0446757483
 21
139.1017148188
 31
0.0
  0
LINE
  5
B2
330
1F
100
AcDbEntity
  8
0
  6
SLD-Сплошная
 62
     7
370
    25
100
AcDbLine
 10
142.9130649983
 20
150.005561568
 30
0.0
 11
142.9130649983
 21
139.1017148188
 31
0.0
  0
LINE
  5
B3
330
1F
100
AcDbEntity
  8
0
  6
SLD-Сплошная
 62
     7
370
    25
100
AcDbLine
 10
148.5077650257
 20
154.6655775447
 30
0.0
 11
142.9130649983
 21
154.6655775447
 31
0.0
  0
LINE
  5
B4
330
1F
100
AcDbEntity
  8
0
  6
SLD-Сплошная
 62
     7
370
    25
100
AcDbLine
 10
148.5077650257
 20
154.7859678712
 30
0.0
 11
148.5077650257
 21
154.6655775447
 31
0.0
  0
SPLINE
  5
B5
330
1F
100
AcDbEntity
  8
0
  6
SLD-Сплошная
 62
     7
370
    25
100
AcDbSpline
210
0.0
220
0.0
230
1.0
 70
     8
 71
     3
 72
     8
 73
     4
 74
     0
 42
0.00000001
 43
0.00000001
 40
0.0
 40
0.0
 40
0.0
 40
0.0
 40
1.0
 40
1.0
 40
1.0
 40
1.0
 10
142.9130649983127
 20
159.2951807239688
 30
0.0
 10
144.7784110023335
 20
157.8250187587375
 30
0.0
 10
146.6428399072371
 20
156.3169030803815
 30
0.0
 10
148.507765025742
 20
154.7859678711801
 30
0.0
  0
LINE
  5
B6
330
1F
100
AcDbEntity
  8
0
  6
SLD-Сплошная
 62
     7
370
    25
100
AcDbLine
 10
142.9130649983
 20
163.0421497762
 30
0.0
 11
142.9130649983
 21
159.295180724
 31
0.0
  0
SPLINE
  5
B7
330
1F
100
AcDbEntity
  8
0
  6
SLD-Сплошная
 62
     7
370
    25
100
AcDbSpline
210
0.0
220
0.0
230
1.0
 70
     8
 71
     3
 72
     8
 73
     4
 74
     0
 42
0.00000001
 43
0.00000001
 40
0.0
 40
0.0
 40
0.0
 40
0.0
 40
1.0
 40
1.0
 40
1.0
 40
1.0
 10
148.6543640114154
 20
158.6130098651001
 30
0.0
 10
146.7407008115125
 20
160.1330780943345
 30
0.0
 10
144.8274593839899
 20
161.6146749381138
 30
0.0
 10
142.9130649983127
 20
163.0421497761913
 30
0.0
  0
SPLINE
  5
B8
330
1F
100
AcDbEntity
  8
0
  6
SLD-Сплошная
 62
     7
370
    25
100
AcDbSpline
210
0.0
220
0.0
230
1.0
 70
     8
 71
     3
 72
     8
 73
     4
 74
     0
 42
0.00000001
 43
0.00000001
 40
0.0
 40
0.0
 40
0.0
 40
0.0
 40
1.0
 40
1.0
 40
1.0
 40
1.0
 10
154.3956630245128
 20
163.0421497761914
 30
0.0
 10
152.4812684004002
 20
161.6146747603224
 30
0.0
 10
150.568027412268
 20
160.133078253955
 30
0.0
 10
148.6543640114154
 20
158.6130098651001
 30
0.0
  0
LINE
  5
B9
330
1F
100
AcDbEntity
  8
0
  6
SLD-Сплошная
 62
     7
370
    25
100
AcDbLine
 10
154.3956630245
 20
163.0421497762
 30
0.0
 11
154.3956630245
 21
159.295180724
 31
0.0
  0
SPLINE
  5
BA
330
1F
100
AcDbEntity
  8
0
  6
SLD-Сплошная
 62
     7
370
    25
100
AcDbSpline
210
0.0
220
0.0
230
1.0
 70
     8
 71
     3
 72
     8
 73
     4
 74
     0
 42
0.00000001
 43
0.00000001
 40
0.0
 40
0.0
 40
0.0
 40
0.0
 40
1.0
 40
1.0
 40
1.0
 40
1.0
 10
148.8009629970827
 20
154.7859678711818
 30
0.0
 10
150.665888007618
 20
156.3169029917492
 30
0.0
 10
152.5303171538195
 20
157.8250188638197
 30
0.0
 10
154.3956630245129
 20
159.2951807239689
 30
0.0
  0
LINE
  5
BB
330
1F
100
AcDbEntity
  8
0
  6
SLD-Сплошная
 62
     7
370
    25
100
AcDbLine
 10
148.8009629971
 20
154.7859678712
 30
0.0
 11
148.8009629971
 21
154.6655775447
 31
0.0
  0
LINE
  5
BC
330
1F
100
AcDbEntity
  8
0
  6
SLD-Сплошная
 62
     7
370
    25
100
AcDbLine
 10
154.3956630245
 20
154.6655775447
 30
0.0
 11
148.8009629971
 21
154.6655775447
 31
0.0
  0
LINE
  5
BD
330
1F
100
AcDbEntity
  8
0
  6
SLD-Сплошная
 62
     7
370
    25
100
AcDbLine
 10
154.3956630245
 20
154.6655775447
 30
0.0
 11
154.3956630245
 21
151.0474363602
 31
0.0
  0
LINE
  5
BE
330
1F
100
AcDbEntity
  8
0
  6
SLD-Сплошная
 62
     7
370
    25
100
AcDbLine
 10
142.9130649983
 20
151.0474363602
 30
0.0
 11
154.3956630245
 21
151.0474363602
 31
0.0
  0
LINE
  5
BF
330
1F
100
AcDbEntity
  8
0
  6
SLD-Сплошная
 62
     7
370
    25
100
AcDbLine
 10
142.9130649983
 20
154.6655775447
 30
0.0
 11
142.9130649983
 21
151.0474363602
 31
0.0
  0
SPLINE
  5
C0
330
1F
100
AcDbEntity
  8
0
  6
SLD-Сплошная
 62
     7
370
    25
100
AcDbSpline
210
0.0
220
0.0
230
1.0
 70
     8
 71
     3
 72
    28
 73
    24
 74
     0
 42
0.00000001
 43
0.00000001
 40
0.0
 40
0.0
 40
0.0
 40
0.0
 40
0.1250000000000001
 40
0.1250000000000001
 40
0.1875000000000002
 40
0.1875000000000002
 40
0.2500000000000003
 40
0.2500000000000003
 40
0.3750000000000006
 40
0.3750000000000006
 40
0.4375000000000006
 40
0.4375000000000006
 40
0.5000000000000006
 40
0.5000000000000006
 40
0.6250000000000003
 40
0.6250000000000003
 40
0.6875000000000003
 40
0.6875000000000003
 40
0.7500000000000002
 40
0.7500000000000002
 40
0.8750000000000002
 40
0.8750000000000002
 40
1.0
 40
1.0
 40
1.0
 40
1.0
 10
229.1328955320277
 20
121.6211991989194
 30
0.0
 10
229.1328955320558
 20
121.6211991989229
 30
0.0
 10
229.1864096604938
 20
121.7369574744774
 30
0.0
 10
229.3428303774356
 20
122.0759165065708
 30
0.0
 10
229.4077263539116
 20
122.2166084792869
 30
0.0
 10
229.5630885841304
 20
122.5537607480133
 30
0.0
 10
229.6540811841545
 20
122.7513726965608
 30
0.0
 10
229.9617364162671
 20
123.4203014157631
 30
0.0
 10
230.212025809895
 20
123.9654300185037
 30
0.0
 10
230.6505582383702
 20
124.9238889612023
 30
0.0
 10
230.8072897406185
 20
125.266965470626
 30
0.0
 10
231.1419490457664
 20
126.0004275667574
 30
0.0
 10
231.3200731126582
 20
126.391298345058
 30
0.0
 10
231.8760800185716
 20
127.6137017935574
 30
0.0
 10
232.2784357973348
 20
128.5008443895346
 30
0.0
 10
232.9263122328439
 20
129.9345912320427
 30
0.0
 10
233.1496749631668
 20
130.429771528127
 30
0.0
 10
233.6114568328285
 20
131.4547440686224
 30
0.0
 10
233.8496859015426
 20
131.9841932862108
 30
0.0
 10
234.5741543274349
 20
133.5972648979194
 30
0.0
 10
235.0743392799697
 20
134.7138977758038
 30
0.0
 10
236.1065705999735
 20
137.0258120912824
 30
0.0
 10
236.6385897980253
 20
138.2211233625044
 30
0.0
 10
237.1872313886419
 20
139.4565066381213
 30
0.0
  0
SPLINE
  5
C1
330
1F
100
AcDbEntity
  8
0
  6
SLD-Сплошная
 62
     7
370
    25
100
AcDbSpline
210
0.0
220
0.0
230
1.0
 70
     8
 71
     3
 72
    38
 73
    34
 74
     0
 42
0.00000001
 43
0.00000001
 40
0.0
 40
0.0
 40
0.0
 40
0.0
 40
0.0625
 40
0.0625
 40
0.125
 40
0.125
 40
0.1875
 40
0.1875
 40
0.25
 40
0.25
 40
0.3125
 40
0.3125
 40
0.375
 40
0.375
 40
0.4375
 40
0.4375
 40
0.5
 40
0.5
 40
0.5625
 40
0.5625
 40
0.625
 40
0.625
 40
0.6875
 40
0.6875
 40
0.75
 40
0.75
 40
0.8125
 40
0.8125
 40
0.875
 40
0.875
 40
0.9375
 40
0.9375
 40
1.0
 40
1.0
 40
1.0
 40
1.0
 10
231.4611697975433
 20
141.7262150569721
 30
0.0
 10
231.5421354682299
 20
141.9191574490147
 30
0.0
 10
231.6398663067936
 20
142.1029022404524
 30
0.0
 10
231.8683747528991
 20
142.4520837849461
 30
0.0
 10
232.0008045238067
 20
142.6191579618142
 30
0.0
 10
232.2935854382988
 20
142.9243212706599
 30
0.0
 10
232.4526230662927
 20
143.0617554022666
 30
0.0
 10
232.7963978388935
 20
143.3057868354538
 30
0.0
 10
232.983171426917
 20
143.4129429186171
 30
0.0
 10
233.3675062432951
 20
143.5852702559614
 30
0.0
 10
233.5664104664473
 20
143.6518556055163
 30
0.0
 10
233.9782517337418
 20
143.7444231601845
 30
0.0
 10
234.1890133901427
 20
143.7693951137225
 30
0.0
 10
234.6054079286615
 20
143.7757320716176
 30
0.0
 10
234.8149662073571
 20
143.7572648158364
 30
0.0
 10
235.2250345717998
 20
143.6771609440833
 30
0.0
 10
235.422392814639
 20
143.6165534871883
 30
0.0
 10
235.8021584372828
 20
143.4558032092271
 30
0.0
 10
235.9855444986123
 20
143.3544776018246
 30
0.0
 10
236.3217241108107
 20
143.1209889890089
 30
0.0
 10
236.4765618923636
 20
142.9882525312984
 30
0.0
 10
236.759489758021
 20
142.6910604557857
 30
0.0
 10
236.8844878693217
 20
142.5295363287062
 30
0.0
 10
237.0991054947077
 20
142.1874966559041
 30
0.0
 10
237.1900789352515
 20
142.004444757609
 30
0.0
 10
237.3335130466933
 20
141.6257536707963
 30
0.0
 10
237.3857238030053
 20
141.4319394652541
 30
0.0
 10
237.4521596938577
 20
141.0358188446769
 30
0.0
 10
237.4660869694558
 20
140.8316302387259
 30
0.0
 10
237.4540891882134
 20
140.4295577125527
 30
0.0
 10
237.4287284387853
 20
140.2304180866573
 30
0.0
 10
237.3388944584861
 20
139.8358678854124
 30
0.0
 10
237.2738164752203
 20
139.6403635389532
 30
0.0
 10
237.1914240035698
 20
139.4548818649268
 30
0.0
  0
SPLINE
  5
C2
330
1F
100
AcDbEntity
  8
0
  6
SLD-Сплошная
 62
     7
370
    25
100
AcDbSpline
210
0.0
220
0.0
230
1.0
 70
     8
 71
     3
 72
    30
 73
    26
 74
     0
 42
0.00000001
 43
0.00000001
 40
0.0
 40
0.0
 40
0.0
 40
0.0
 40
0.1250000000000004
 40
0.1250000000000004
 40
0.1875000000000003
 40
0.1875000000000003
 40
0.2500000000000003
 40
0.2500000000000003
 40
0.375
 40
0.375
 40
0.4374999999999999
 40
0.4374999999999999
 40
0.4999999999999998
 40
0.4999999999999998
 40
0.6249999999999999
 40
0.6249999999999999
 40
0.6875
 40
0.6875
 40
0.75
 40
0.75
 40
0.8750000000000001
 40
0.8750000000000001
 40
0.9375
 40
0.9375
 40
1.0
 40
1.0
 40
1.0
 40
1.0
 10
231.461896729395
 20
141.7259206701753
 30
0.0
 10
230.8692254179455
 20
140.3128190148693
 30
0.0
 10
230.2904695743909
 20
138.9347729063722
 30
0.0
 10
229.4449843692856
 20
136.9194117396042
 30
0.0
 10
229.1669157109665
 20
136.2562990255113
 30
0.0
 10
228.6183195236948
 20
134.9479934381688
 30
0.0
 10
228.3481451978031
 20
134.3038510401087
 30
0.0
 10
227.5614058703657
 20
132.4292245171895
 30
0.0
 10
227.0643671299393
 20
131.2457895522358
 30
0.0
 10
226.3611367925672
 20
129.5719657308543
 30
0.0
 10
226.1336604099573
 20
129.0310237959661
 30
0.0
 10
225.6938946852612
 20
127.9844800173688
 30
0.0
 10
225.4811924141856
 20
127.4781209226399
 30
0.0
 10
224.8784506975196
 20
126.0438001835006
 30
0.0
 10
224.5190403997892
 20
125.1893874317903
 30
0.0
 10
224.0449911374032
 20
124.0625395177003
 30
0.0
 10
223.8976770458757
 20
123.7128578046003
 30
0.0
 10
223.6261928924046
 20
123.0675103452865
 30
0.0
 10
223.5015938483884
 20
122.7708646746017
 30
0.0
 10
223.169894058938
 20
121.9825756421169
 30
0.0
 10
223.0028910797425
 20
121.5857763298705
 30
0.0
 10
222.8334691371299
 20
121.1832387420102
 30
0.0
 10
222.7905905555292
 20
121.0813495185035
 30
0.0
 10
222.7329354866579
 20
120.9443740934146
 30
0.0
 10
222.7182891731097
 20
120.909593222036
 30
0.0
 10
222.7182891731636
 20
120.9095932220413
 30
0.0
  0
SPLINE
  5
C3
330
1F
100
AcDbEntity
  8
0
  6
SLD-Сплошная
 62
     7
370
    25
100
AcDbSpline
210
0.0
220
0.0
230
1.0
 70
     8
 71
     3
 72
    30
 73
    26
 74
     0
 42
0.00000001
 43
0.00000001
 40
0.0
 40
0.0
 40
0.0
 40
0.0
 40
0.1249999999999999
 40
0.1249999999999999
 40
0.1874999999999998
 40
0.1874999999999998
 40
0.2499999999999998
 40
0.2499999999999998
 40
0.3749999999999998
 40
0.3749999999999998
 40
0.4374999999999996
 40
0.4374999999999996
 40
0.4687499999999995
 40
0.4687499999999995
 40
0.4999999999999993
 40
0.4999999999999993
 40
0.6249999999999994
 40
0.6249999999999994
 40
0.7499999999999996
 40
0.7499999999999996
 40
0.8124999999999996
 40
0.8124999999999996
 40
0.8749999999999997
 40
0.8749999999999997
 40
1.0
 40
1.0
 40
1.0
 40
1.0
 10
209.8593413559413
 20
139.3597077931053
 30
0.0
 10
209.259249958624
 20
137.9969308461384
 30
0.0
 10
208.6757795119588
 20
136.6748515079805
 30
0.0
 10
207.8264558047923
 20
134.7525602744819
 30
0.0
 10
207.5476565194841
 20
134.1219869359893
 30
0.0
 10
206.9988320190324
 20
132.8818174814278
 30
0.0
 10
206.7290469521844
 20
132.2728161916853
 30
0.0
 10
205.9444117468063
 20
130.5038560616497
 30
0.0
 10
205.4504251383449
 20
129.3925478172389
 30
0.0
 10
204.7538529369097
 20
127.829159800577
 30
0.0
 10
204.5290425071482
 20
127.3253778924705
 30
0.0
 10
204.2036813468946
 20
126.5965854302882
 30
0.0
 10
204.0971959311671
 20
126.3581425419519
 30
0.0
 10
203.8882163277723
 20
125.8904706356675
 30
0.0
 10
203.7855670869623
 20
125.6608995318985
 30
0.0
 10
203.2868317537578
 20
124.5468832204813
 30
0.0
 10
202.9313436016906
 20
123.7556523594111
 30
0.0
 10
202.3107606629448
 20
122.3720485620675
 30
0.0
 10
202.0454647039745
 20
121.7796272602858
 30
0.0
 10
201.7177694694256
 20
121.0516527353928
 30
0.0
 10
201.6211782098124
 20
120.8378966094783
 30
0.0
 10
201.4560256429702
 20
120.4724946395799
 30
0.0
 10
201.3870596817131
 20
120.319962477013
 30
0.0
 10
201.2212140665835
 20
119.95242825402
 30
0.0
 10
201.1653427547948
 20
119.8268522313366
 30
0.0
 10
201.1653427547647
 20
119.8268522313365
 30
0.0
  0
SPLINE
  5
C4
330
1F
100
AcDbEntity
  8
0
  6
SLD-Сплошная
 62
     7
370
    25
100
AcDbSpline
210
0.0
220
0.0
230
1.0
 70
     8
 71
     3
 72
    38
 73
    34
 74
     0
 42
0.00000001
 43
0.00000001
 40
0.0
 40
0.0
 40
0.0
 40
0.0
 40
0.0625000000000001
 40
0.0625000000000001
 40
0.1250000000000001
 40
0.1250000000000001
 40
0.1875000000000002
 40
0.1875000000000002
 40
0.2500000000000002
 40
0.2500000000000002
 40
0.3125000000000003
 40
0.3125000000000003
 40
0.3750000000000003
 40
0.3750000000000003
 40
0.4375000000000004
 40
0.4375000000000004
 40
0.5000000000000004
 40
0.5000000000000004
 40
0.5625000000000004
 40
0.5625000000000004
 40
0.6250000000000006
 40
0.6250000000000006
 40
0.6875000000000007
 40
0.6875000000000007
 40
0.7500000000000007
 40
0.7500000000000007
 40
0.8125000000000007
 40
0.8125000000000007
 40
0.8750000000000008
 40
0.8750000000000008
 40
0.9375000000000003
 40
0.9375000000000003
 40
1.0
 40
1.0
 40
1.0
 40
1.0
 10
204.0577682682228
 20
141.8190568323443
 30
0.0
 10
204.138614812802
 20
142.008029280736
 30
0.0
 10
204.2370043334761
 20
142.1890560120296
 30
0.0
 10
204.4701284282346
 20
142.5344176930602
 30
0.0
 10
204.6045360814597
 20
142.6973727940066
 30
0.0
 10
204.8990457690458
 20
142.9914910032522
 30
0.0
 10
205.060322094525
 20
143.1245558912886
 30
0.0
 10
205.4128385344557
 20
143.3605512770963
 30
0.0
 10
205.5983692215171
 20
143.4595783687231
 30
0.0
 10
205.986047977114
 20
143.6195609660286
 30
0.0
 10
206.1909124591429
 20
143.6810657242642
 30
0.0
 10
206.6062332120523
 20
143.7605276912244
 30
0.0
 10
206.8154275304913
 20
143.7788469406545
 30
0.0
 10
207.2368768580432
 20
143.7728089221955
 30
0.0
 10
207.4499131453662
 20
143.7477180085161
 30
0.0
 10
207.859526697468
 20
143.6564947696511
 30
0.0
 10
208.0586204687961
 20
143.5905410611442
 30
0.0
 10
208.4450889365507
 20
143.4171344076511
 30
0.0
 10
208.6263211467819
 20
143.312390784605
 30
0.0
 10
208.9648261160359
 20
143.0697758226259
 30
0.0
 10
209.1237795893639
 20
142.9300064738215
 30
0.0
 10
209.4075851985902
 20
142.6262111783064
 30
0.0
 10
209.5330143282819
 20
142.4624408838202
 30
0.0
 10
209.7515539636228
 20
142.1118939045643
 30
0.0
 10
209.8441847915037
 20
141.9248447430126
 30
0.0
 10
209.9896121944318
 20
141.5432838705075
 30
0.0
 10
210.0436923387282
 20
141.3469388611586
 30
0.0
 10
210.1137750423272
 20
140.943037927493
 30
0.0
 10
210.1288236416223
 20
140.7400237796947
 30
0.0
 10
210.1200602031052
 20
140.3370409944959
 30
0.0
 10
210.0961264113027
 20
140.1350853059375
 30
0.0
 10
210.0085153287185
 20
139.7377996834261
 30
0.0
 10
209.9456481760668
 20
139.544998786307
 30
0.0
 10
209.8633478847836
 20
139.3580447932173
 30
0.0
  0
SPLINE
  5
C5
330
1F
100
AcDbEntity
  8
0
  6
SLD-Сплошная
 62
     7
370
    25
100
AcDbSpline
210
0.0
220
0.0
230
1.0
 70
     8
 71
     3
 72
    10
 73
     6
 74
     0
 42
0.00000001
 43
0.00000001
 40
0.0
 40
0.0
 40
0.0
 40
0.0
 40
0.5
 40
0.5
 40
1.0
 40
1.0
 40
1.0
 40
1.0
 10
200.2860306780806
 20
132.9878434524059
 30
0.0
 10
200.8706942746495
 20
134.3584583606293
 30
0.0
 10
201.4785668905396
 20
135.7823111681042
 30
0.0
 10
202.7381069869423
 20
138.7315154010012
 30
0.0
 10
203.3916630076593
 20
140.2621871648212
 30
0.0
 10
204.0578331260208
 20
141.8190287685136
 30
0.0
  0
SPLINE
  5
C6
330
1F
100
AcDbEntity
  8
0
  6
SLD-Сплошная
 62
     7
370
    25
100
AcDbSpline
210
0.0
220
0.0
230
1.0
 70
     8
 71
     3
 72
    70
 73
    66
 74
     0
 42
0.00000001
 43
0.00000001
 40
0.0
 40
0.0
 40
0.0
 40
0.0
 40
0.0625000000000008
 40
0.0625000000000008
 40
0.078125000000001
 40
0.078125000000001
 40
0.0937500000000012
 40
0.0937500000000012
 40
0.1250000000000016
 40
0.1250000000000016
 40
0.1562500000000021
 40
0.1562500000000021
 40
0.1718750000000023
 40
0.1718750000000023
 40
0.1875000000000025
 40
0.1875000000000025
 40
0.2500000000000033
 40
0.2500000000000033
 40
0.2656250000000034
 40
0.2656250000000034
 40
0.2812500000000036
 40
0.2812500000000036
 40
0.3125000000000039
 40
0.3125000000000039
 40
0.3281250000000041
 40
0.3281250000000041
 40
0.3437500000000042
 40
0.3437500000000042
 40
0.3750000000000044
 40
0.3750000000000044
 40
0.3906250000000046
 40
0.3906250000000046
 40
0.4062500000000048
 40
0.4062500000000048
 40
0.4375000000000048
 40
0.4375000000000048
 40
0.4531250000000049
 40
0.4531250000000049
 40
0.4687500000000052
 40
0.4687500000000052
 40
0.5000000000000051
 40
0.5000000000000051
 40
0.5156250000000051
 40
0.5156250000000051
 40
0.5312500000000051
 40
0.5312500000000051
 40
0.562500000000005
 40
0.562500000000005
 40
0.578125000000005
 40
0.578125000000005
 40
0.593750000000005
 40
0.593750000000005
 40
0.6250000000000047
 40
0.6250000000000047
 40
0.750000000000003
 40
0.750000000000003
 40
0.8750000000000014
 40
0.8750000000000014
 40
0.9375000000000007
 40
0.9375000000000007
 40
0.9687500000000002
 40
0.9687500000000002
 40
0.9843750000000001
 40
0.9843750000000001
 40
1.0
 40
1.0
 40
1.0
 40
1.0
 10
254.5164471561861
 20
126.2364733501805
 30
0.0
 10
254.5164471562547
 20
126.2364733501969
 30
0.0
 10
254.520058294935
 20
126.4688235682609
 30
0.0
 10
254.5206416874941
 20
127.0382699558443
 30
0.0
 10
254.520613636178
 20
127.1663280771741
 30
0.0
 10
254.5202704067506
 20
127.4513808888443
 30
0.0
 10
254.5199536882374
 20
127.6087339087931
 30
0.0
 10
254.5187393851887
 20
128.1178934805037
 30
0.0
 10
254.5175404794271
 20
128.5083624069849
 30
0.0
 10
254.5162162440265
 20
129.3891187996183
 30
0.0
 10
254.516504400621
 20
129.8794947464703
 30
0.0
 10
254.5166892808348
 20
130.6912458817057
 30
0.0
 10
254.5167314532942
 20
130.9753839800071
 30
0.0
 10
254.5167277113418
 20
131.5660219688112
 30
0.0
 10
254.5166821471162
 20
131.8711936167965
 30
0.0
 10
254.5163694249021
 20
133.4451755721636
 30
0.0
 10
254.5164491988585
 20
134.8562369316078
 30
0.0
 10
254.5164478128835
 20
136.8139842527123
 30
0.0
 10
254.5164472003045
 20
137.2146717853386
 30
0.0
 10
254.5164471160373
 20
138.0254725007115
 30
0.0
 10
254.5208703982838
 20
138.4376293124687
 30
0.0
 10
254.4853627742646
 20
139.6822534673551
 30
0.0
 10
254.4045937108596
 20
140.5243077463127
 30
0.0
 10
254.1841320602356
 20
141.8018801324729
 30
0.0
 10
254.0940254546684
 20
142.2301469717297
 30
0.0
 10
253.8775463850727
 20
143.0907618470601
 30
0.0
 10
253.7503277094287
 20
143.5256118941215
 30
0.0
 10
253.3163841538839
 20
144.8132639307756
 30
0.0
 10
252.9585398585874
 20
145.6481276432246
 30
0.0
 10
252.314693891985
 20
146.8590261395649
 30
0.0
 10
252.0822468786241
 20
147.2557729096009
 30
0.0
 10
251.5805386948168
 20
148.0342978338055
 30
0.0
 10
251.3101028160537
 20
148.4173574591121
 30
0.0
 10
250.4574786537291
 20
149.5208717868935
 30
0.0
 10
249.831062583527
 20
150.2026309635887
 30
0.0
 10
248.8014062595019
 20
151.1379787209583
 30
0.0
 10
248.4430702446197
 20
151.4351013590283
 30
0.0
 10
247.6962137044439
 20
151.9996035174934
 30
0.0
 10
247.3079025296385
 20
152.2664948799876
 30
0.0
 10
246.1215748793742
 20
153.0066327049951
 30
0.0
 10
245.2950490853231
 20
153.4259903495389
 30
0.0
 10
244.0021071326842
 20
153.9408490560118
 30
0.0
 10
243.5621142387453
 20
154.0931153706216
 30
0.0
 10
242.6634082238915
 20
154.3569613010105
 30
0.0
 10
242.2096333500436
 20
154.4675873404729
 30
0.0
 10
240.8467916067113
 20
154.7350049798605
 30
0.0
 10
239.9315664677441
 20
154.8293077554163
 30
0.0
 10
238.5491977314446
 20
154.8463853028804
 30
0.0
 10
238.0854195834412
 20
154.8313325648315
 30
0.0
 10
237.1611087561512
 20
154.7598156482333
 30
0.0
 10
236.7028779642614
 20
154.7025685913067
 30
0.0
 10
235.3378233867692
 20
154.4760832083863
 30
0.0
 10
234.4264842673994
 20
154.3248232951914
 30
0.0
 10
229.8632776057522
 20
153.5679512584882
 30
0.0
 10
226.1901038890869
 20
152.9604934960948
 30
0.0
 10
218.8212957550153
 20
151.749927898258
 30
0.0
 10
215.1214256959285
 20
151.1459529438548
 30
0.0
 10
209.5638382016799
 20
150.2413161309407
 30
0.0
 10
207.7101464691575
 20
149.9399573113136
 30
0.0
 10
204.9280018081045
 20
149.4874491770358
 30
0.0
 10
204.000352631529
 20
149.3365324711003
 30
0.0
 10
202.6084958395167
 20
149.109925689791
 30
0.0
 10
202.1444787077139
 20
149.0343577213601
 30
0.0
 10
201.2163242718283
 20
148.8830980429177
 30
0.0
 10
200.7521786326357
 20
148.8075557662438
 30
0.0
 10
200.2860306780806
 20
148.7454583646942
 30
0.0
  0
SPLINE
  5
C7
330
1F
100
AcDbEntity
  8
0
  6
SLD-Сплошная
 62
     7
370
    25
100
AcDbSpline
210
0.0
220
0.0
230
1.0
 70
     8
 71
     3
 72
    12
 73
     8
 74
     0
 42
0.00000001
 43
0.00000001
 40
0.6435741536213803
 40
0.6435741536213803
 40
0.6435741536213803
 40
0.6435741536213803
 40
0.7041255633417063
 40
0.7041255633417063
 40
0.8291255633417063
 40
0.8291255633417063
 40
0.935551409720326
 40
0.935551409720326
 40
0.935551409720326
 40
0.935551409720326
 10
260.2837789687908
 20
127.7023882741205
 30
0.0
 10
260.0965934206984
 20
127.2653094318994
 30
0.0
 10
259.8283766811754
 20
126.862975294947
 30
0.0
 10
258.7978976906784
 20
125.8324963044499
 30
0.0
 10
257.8221954245628
 20
125.4283471929867
 30
0.0
 10
256.0045810774782
 20
125.4283471929867
 30
0.0
 10
255.1730967333844
 20
125.7213122527762
 30
0.0
 10
254.5160006364361
 20
126.2368236028433
 30
0.0
  0
SPLINE
  5
C8
330
1F
100
AcDbEntity
  8
0
  6
SLD-Сплошная
 62
     7
370
    25
100
AcDbSpline
210
0.0
220
0.0
230
1.0
 70
     8
 71
     3
 72
    22
 73
    18
 74
     0
 42
0.00000001
 43
0.00000001
 40
0.0
 40
0.0
 40
0.0
 40
0.0
 40
0.2500000000000002
 40
0.2500000000000002
 40
0.3125000000000001
 40
0.3125000000000001
 40
0.375
 40
0.375
 40
0.4999999999999999
 40
0.4999999999999999
 40
0.6249999999999998
 40
0.6249999999999998
 40
0.6874999999999998
 40
0.6874999999999998
 40
0.7499999999999998
 40
0.7499999999999998
 40
1.0
 40
1.0
 40
1.0
 40
1.0
 10
200.2860306780806
 20
148.7454583646938
 30
0.0
 10
198.0207660113106
 20
148.4436935532132
 30
0.0
 10
195.753700822141
 20
148.3993335822354
 30
0.0
 10
192.9176380905634
 20
148.6628876073424
 30
0.0
 10
192.3493783573077
 20
148.7319110971267
 30
0.0
 10
191.2247693502716
 20
148.9009469864305
 30
0.0
 10
190.6670193054125
 20
149.0009034922929
 30
0.0
 10
189.0070724762465
 20
149.3457892605265
 30
0.0
 10
187.9180991583319
 20
149.6354718779112
 30
0.0
 10
185.7755550984509
 20
150.3340581953759
 30
0.0
 10
184.721967861597
 20
150.7429073492011
 30
0.0
 10
183.1686536505567
 20
151.4467040644564
 30
0.0
 10
182.6542155308728
 20
151.6972313563404
 30
0.0
 10
181.6467027711074
 20
152.2227599208197
 30
0.0
 10
181.1523779194832
 20
152.4982434454288
 30
0.0
 10
178.7268628990314
 20
153.9366477515194
 30
0.0
 10
176.9316574971505
 20
155.2797968834099
 30
0.0
 10
175.2860306780806
 20
156.8034873759929
 30
0.0
  0
SPLINE
  5
C9
330
1F
100
AcDbEntity
  8
0
  6
SLD-Сплошная
 62
     7
370
    25
100
AcDbSpline
210
0.0
220
0.0
230
1.0
 70
     8
 71
     3
 72
    26
 73
    22
 74
     0
 42
0.00000001
 43
0.00000001
 40
0.0
 40
0.0
 40
0.0
 40
0.0
 40
0.2499999999999999
 40
0.2499999999999999
 40
0.3124999999999999
 40
0.3124999999999999
 40
0.3749999999999999
 40
0.3749999999999999
 40
0.4999999999999996
 40
0.4999999999999996
 40
0.5624999999999994
 40
0.5624999999999994
 40
0.6249999999999993
 40
0.6249999999999993
 40
0.7499999999999997
 40
0.7499999999999997
 40
0.8749999999999998
 40
0.8749999999999998
 40
0.9374999999999999
 40
0.9374999999999999
 40
1.0
 40
1.0
 40
1.0
 40
1.0
 10
178.825732841569
 20
162.2010868746206
 30
0.0
 10
180.13301811278
 20
160.8664227160938
 30
0.0
 10
181.6081740086539
 20
159.6598939474088
 30
0.0
 10
183.6609622281626
 20
158.3521068176075
 30
0.0
 10
184.083453458882
 20
158.0999129255309
 30
0.0
 10
184.9432498332009
 20
157.6208354191477
 30
0.0
 10
185.3793485764649
 20
157.3945010144018
 30
0.0
 10
186.7058778108157
 20
156.7552115512018
 30
0.0
 10
187.6143212081164
 20
156.381494328334
 30
0.0
 10
189.0139392747843
 20
155.9045574263765
 30
0.0
 10
189.4866725999894
 20
155.7595919451556
 30
0.0
 10
190.4443112059676
 20
155.4975776140552
 30
0.0
 10
190.9306436107255
 20
155.3802955264979
 30
0.0
 10
192.3901043247701
 20
155.0751580040277
 30
0.0
 10
193.3677825307296
 20
154.9327505273536
 30
0.0
 10
195.3326018076978
 20
154.7720030496099
 30
0.0
 10
196.3196311901673
 20
154.7521970314539
 30
0.0
 10
197.807349873561
 20
154.816686750726
 30
0.0
 10
198.3054778572798
 20
154.8539727671046
 30
0.0
 10
199.2989206445722
 20
154.9598696226787
 30
0.0
 10
199.7933058334311
 20
155.0298060547698
 30
0.0
 10
200.2860306780806
 20
155.1117370701526
 30
0.0
  0
SPLINE
  5
CA
330
1F
100
AcDbEntity
  8
0
  6
SLD-Сплошная
 62
     7
370
    25
100
AcDbSpline
210
0.0
220
0.0
230
1.0
 70
     8
 71
     3
 72
    76
 73
    72
 74
     0
 42
0.00000001
 43
0.00000001
 40
0.0
 40
0.0
 40
0.0
 40
0.0
 40
0.1250000000000014
 40
0.1250000000000014
 40
0.1875000000000021
 40
0.1875000000000021
 40
0.2500000000000028
 40
0.2500000000000028
 40
0.3125000000000034
 40
0.3125000000000034
 40
0.3437500000000038
 40
0.3437500000000038
 40
0.359375000000004
 40
0.359375000000004
 40
0.3671875000000041
 40
0.3671875000000041
 40
0.3750000000000042
 40
0.3750000000000042
 40
0.4062500000000043
 40
0.4062500000000043
 40
0.4218750000000041
 40
0.4218750000000041
 40
0.4375000000000039
 40
0.4375000000000039
 40
0.4687500000000037
 40
0.4687500000000037
 40
0.5000000000000033
 40
0.5000000000000033
 40
0.5156250000000034
 40
0.5156250000000034
 40
0.5312500000000034
 40
0.5312500000000034
 40
0.5625000000000034
 40
0.5625000000000034
 40
0.5781250000000033
 40
0.5781250000000033
 40
0.5937500000000031
 40
0.5937500000000031
 40
0.6250000000000029
 40
0.6250000000000029
 40
0.6562500000000028
 40
0.6562500000000028
 40
0.6875000000000026
 40
0.6875000000000026
 40
0.7187500000000023
 40
0.7187500000000023
 40
0.7343750000000021
 40
0.7343750000000021
 40
0.750000000000002
 40
0.750000000000002
 40
0.7656250000000019
 40
0.7656250000000019
 40
0.7812500000000017
 40
0.7812500000000017
 40
0.7968750000000016
 40
0.7968750000000016
 40
0.8125000000000013
 40
0.8125000000000013
 40
0.8437500000000011
 40
0.8437500000000011
 40
0.859375000000001
 40
0.859375000000001
 40
0.8750000000000008
 40
0.8750000000000008
 40
0.9062500000000007
 40
0.9062500000000007
 40
0.9375000000000004
 40
0.9375000000000004
 40
0.9687500000000002
 40
0.9687500000000002
 40
1.0
 40
1.0
 40
1.0
 40
1.0
 10
200.2860306780806
 20
155.1117370701526
 30
0.0
 10
204.2899320165731
 20
155.777511702217
 30
0.0
 10
208.2890032722603
 20
156.4425931415291
 30
0.0
 10
214.2629261893084
 20
157.431164532281
 30
0.0
 10
216.2502923823533
 20
157.7592857718671
 30
0.0
 10
220.2168682956144
 20
158.4123711011616
 30
0.0
 10
222.1970831334085
 20
158.7374975177253
 30
0.0
 10
226.1430746903468
 20
159.3833785322482
 30
0.0
 10
228.1087419837255
 20
159.7041387939389
 30
0.0
 10
231.0455396716913
 20
160.1815557025631
 30
0.0
 10
232.0225194010295
 20
160.3400700455589
 30
0.0
 10
233.4849510302193
 20
160.5767854254579
 30
0.0
 10
233.9719217766209
 20
160.6555139586102
 30
0.0
 10
234.7016034596616
 20
160.7733206591726
 30
0.0
 10
234.9445548073334
 20
160.8138513392663
 30
0.0
 10
235.4312790740635
 20
160.8852374580854
 30
0.0
 10
235.674985647745
 20
160.9167124897245
 30
0.0
 10
236.8952827778888
 20
161.0533682384516
 30
0.0
 10
237.8771521894506
 20
161.0969714684753
 30
0.0
 10
239.3592716719761
 20
161.0647011854131
 30
0.0
 10
239.8548796920511
 20
161.037442798594
 30
0.0
 10
240.849265124008
 20
160.949887605461
 30
0.0
 10
241.3492698157668
 20
160.8892908192519
 30
0.0
 10
242.8462863548021
 20
160.6559776463666
 30
0.0
 10
243.825029103288
 20
160.4345375732414
 30
0.0
 10
245.7451164403416
 20
159.8652848244915
 30
0.0
 10
246.686074842476
 20
159.5161166239089
 30
0.0
 10
248.0671151053294
 20
158.8918096274494
 30
0.0
 10
248.524148714775
 20
158.6658760306882
 30
0.0
 10
249.4178896312925
 20
158.1839946765641
 30
0.0
 10
249.8538568842485
 20
157.9286392355509
 30
0.0
 10
251.1294374339156
 20
157.11964682514
 30
0.0
 10
251.9368348185039
 20
156.5232310074248
 30
0.0
 10
253.0823933206079
 20
155.5406902814763
 30
0.0
 10
253.4533272387375
 20
155.1985271506445
 30
0.0
 10
254.1724055605303
 20
154.4834719669742
 30
0.0
 10
254.5207623794923
 20
154.1102356290893
 30
0.0
 10
255.5152074069843
 20
152.9642105537272
 30
0.0
 10
256.1172304916337
 20
152.1594059475552
 30
0.0
 10
257.2076223844584
 20
150.4747443976249
 30
0.0
 10
257.696382755568
 20
149.5951500229183
 30
0.0
 10
258.5565006308432
 20
147.7592851759171
 30
0.0
 10
258.9161519909562
 20
146.8278491287481
 30
0.0
 10
259.5070753743593
 20
144.9517823537645
 30
0.0
 10
259.7411179588252
 20
144.007001802561
 30
0.0
 10
259.9997806375698
 20
142.5823092642075
 30
0.0
 10
260.0711158035259
 20
142.1044233689161
 30
0.0
 10
260.181839007054
 20
141.163114530294
 30
0.0
 10
260.2217177494109
 20
140.6982585182002
 30
0.0
 10
260.2726199563622
 20
139.7803884159418
 30
0.0
 10
260.2814896370811
 20
139.3270423192771
 30
0.0
 10
260.2815791846274
 20
138.4339894315725
 30
0.0
 10
260.2815197015951
 20
137.9956196093515
 30
0.0
 10
260.2815187954226
 20
137.1354393404066
 30
0.0
 10
260.2815218836132
 20
136.712094846945
 30
0.0
 10
260.2815141828971
 20
135.8916323557619
 30
0.0
 10
260.2815084377912
 20
135.4943937173155
 30
0.0
 10
260.2815180980595
 20
134.3407639242947
 30
0.0
 10
260.2814638380254
 20
133.6222471759658
 30
0.0
 10
260.2813860476508
 20
132.6204055481467
 30
0.0
 10
260.2813808819488
 20
132.2991660588495
 30
0.0
 10
260.2814203670361
 20
131.6827249850526
 30
0.0
 10
260.2814650987874
 20
131.3880882340536
 30
0.0
 10
260.2815555550434
 20
130.5574794168803
 30
0.0
 10
260.2812377479913
 20
130.0693652331211
 30
0.0
 10
260.2801913304066
 20
129.2219738828167
 30
0.0
 10
260.2796874810762
 20
128.8623375079188
 30
0.0
 10
260.2795180420781
 20
128.2795834269094
 30
0.0
 10
260.2798550813978
 20
128.0622428278058
 30
0.0
 10
260.2808571834379
 20
127.7710126939829
 30
0.0
 10
260.2815193672129
 20
127.6971229378576
 30
0.0
 10
260.2815193672315
 20
127.6971229378625
 30
0.0
  0
LINE
  5
CB
330
1F
100
AcDbEntity
  8
0
  6
SLD-Сплошная
 62
     7
370
    25
100
AcDbLine
 10
147.0885586364
 20
138.1103557487
 30
0.0
 11
147.0885586364
 21
134.7361281414
 31
0.0
  0
LINE
  5
CC
330
1F
100
AcDbEntity
  8
0
  6
SLD-Сплошная
 62
     7
370
    25
100
AcDbLine
 10
154.3956630245
 20
138.1103557487
 30
0.0
 11
147.0885586364
 21
138.1103557487
 31
0.0
  0
LINE
  5
CD
330
1F
100
AcDbEntity
  8
0
  6
SLD-Сплошная
 62
     7
370
    25
100
AcDbLine
 10
154.3956630245
 20
138.1103557487
 30
0.0
 11
154.3956630245
 21
134.7361281414
 31
0.0
  0
LINE
  5
CE
330
1F
100
AcDbEntity
  8
0
  6
SLD-Сплошная
 62
     7
370
    25
100
AcDbLine
 10
147.0885586364
 20
134.7361281414
 30
0.0
 11
154.3956630245
 21
134.7361281414
 31
0.0
  0
LINE
  5
CF
330
1F
100
AcDbEntity
  8
0
  6
SLD-Сплошная
 62
     7
370
    25
100
AcDbLine
 10
142.9130649983
 20
138.1103557487
 30
0.0
 11
142.9130649983
 21
134.7361281414
 31
0.0
  0
LINE
  5
D0
330
1F
100
AcDbEntity
  8
0
  6
SLD-Сплошная
 62
     7
370
    25
100
AcDbLine
 10
146.0446757483
 20
138.1103557487
 30
0.0
 11
146.0446757483
 21
134.7361281414
 31
0.0
  0
LINE
  5
D1
330
1F
100
AcDbEntity
  8
0
  6
SLD-Сплошная
 62
     7
370
    25
100
AcDbLine
 10
142.9130649983
 20
134.7361281414
 30
0.0
 11
146.0446757483
 21
134.7361281414
 31
0.0
  0
LINE
  5
D2
330
1F
100
AcDbEntity
  8
0
  6
SLD-Сплошная
 62
     7
370
    25
100
AcDbLine
 10
146.0446757483
 20
138.1103557487
 30
0.0
 11
142.9130649983
 21
138.1103557487
 31
0.0
  0
LINE
  5
D3
330
1F
100
AcDbEntity
  8
0
  6
SLD-Сплошная
 62
     7
370
    25
100
AcDbLine
 10
271.7860306781
 20
178.4443694049
 30
0.0
 11
271.7860306781
 21
178.5227337775
 31
0.0
  0
LINE
  5
D4
330
1F
100
AcDbEntity
  8
0
  6
SLD-Сплошная
 62
     7
370
    25
100
AcDbLine
 10
271.7860306781
 20
165.3847796502
 30
0.0
 11
271.7860306781
 21
178.4443694049
 31
0.0
  0
LINE
  5
D5
330
1F
100
AcDbEntity
  8
0
  6
SLD-Сплошная
 62
     7
370
    25
100
AcDbLine
 10
271.7860306781
 20
161.6347796502
 30
0.0
 11
271.7860306781
 21
165.3847796502
 31
0.0
  0
LINE
  5
D6
330
1F
100
AcDbEntity
  8
0
  6
SLD-Сплошная
 62
     7
370
    25
100
AcDbLine
 10
271.7860306781
 20
148.5751898955
 30
0.0
 11
271.7860306781
 21
161.6347796502
 31
0.0
  0
LINE
  5
D7
330
1F
100
AcDbEntity
  8
0
  6
SLD-Сплошная
 62
     7
370
    25
100
AcDbLine
 10
269.7860306781
 20
148.5751898955
 30
0.0
 11
269.7860306781
 21
178.5227337775
 31
0.0
  0
LINE
  5
D8
330
1F
100
AcDbEntity
  8
0
  6
SLD-Сплошная
 62
     7
370
    25
100
AcDbLine
 10
271.7860306781
 20
131.7656001409
 30
0.0
 11
271.7860306781
 21
135.5156001409
 31
0.0
  0
LINE
  5
D9
330
1F
100
AcDbEntity
  8
0
  6
SLD-Сплошная
 62
     7
370
    25
100
AcDbLine
 10
271.7860306781
 20
118.7060103862
 30
0.0
 11
271.7860306781
 21
131.7656001409
 31
0.0
  0
LINE
  5
DA
330
1F
100
AcDbEntity
  8
0
  6
SLD-Сплошная
 62
     7
370
    25
100
AcDbLine
 10
271.7860306781
 20
118.6276460136
 30
0.0
 11
271.7860306781
 21
118.7060103862
 31
0.0
  0
LINE
  5
DB
330
1F
100
AcDbEntity
  8
0
  6
SLD-Сплошная
 62
     7
370
    25
100
AcDbLine
 10
269.7860306781
 20
118.6276460136
 30
0.0
 11
269.7860306781
 21
148.5751898955
 31
0.0
  0
LINE
  5
DC
330
1F
100
AcDbEntity
  8
0
  6
SLD-Сплошная
 62
     7
370
    25
100
AcDbLine
 10
271.7860306781
 20
135.5156001409
 30
0.0
 11
271.7860306781
 21
148.5751898955
 31
0.0
  0
LINE
  5
DD
330
1F
100
AcDbEntity
  8
0
  6
SLD-Сплошная
 62
     7
370
    25
100
AcDbLine
 10
260.2860306781
 20
169.45205222
 30
0.0
 11
260.2860306781
 21
127.6983275711
 31
0.0
  0
SPLINE
  5
DE
330
1F
100
AcDbEntity
  8
0
  6
SLD-Сплошная
 62
     7
370
    25
100
AcDbSpline
210
0.0
220
0.0
230
1.0
 70
     8
 71
     3
 72
    12
 73
     8
 74
     0
 42
0.00000001
 43
0.00000001
 40
0.6650128360480552
 40
0.6650128360480552
 40
0.6650128360480552
 40
0.6650128360480552
 40
0.75
 40
0.75
 40
0.875
 40
0.875
 40
0.974375741870156
 40
0.974375741870156
 40
0.974375741870156
 40
0.974375741870156
 10
194.7322376905265
 20
119.8261916546585
 30
0.0
 10
195.1260524345435
 20
119.2549407231847
 30
0.0
 10
195.6704529757358
 20
118.786701773448
 30
0.0
 10
197.2249563899638
 20
118.0618249267655
 30
0.0
 10
198.3222472408074
 20
118.0139161735728
 30
0.0
 10
200.044452610427
 20
118.6407476654079
 30
0.0
 10
200.7126222659521
 20
119.1666441901139
 30
0.0
 10
201.1713272869196
 20
119.8355538762524
 30
0.0
  0
SPLINE
  5
DF
330
1F
100
AcDbEntity
  8
0
  6
SLD-Сплошная
 62
     7
370
    25
100
AcDbSpline
210
0.0
220
0.0
230
1.0
 70
     8
 71
     3
 72
    26
 73
    22
 74
     0
 42
0.00000001
 43
0.00000001
 40
0.0
 40
0.0
 40
0.0
 40
0.0
 40
0.1250000000000005
 40
0.1250000000000005
 40
0.250000000000001
 40
0.250000000000001
 40
0.3125000000000012
 40
0.3125000000000012
 40
0.3750000000000015
 40
0.3750000000000015
 40
0.5000000000000018
 40
0.5000000000000018
 40
0.5625000000000017
 40
0.5625000000000017
 40
0.6250000000000016
 40
0.6250000000000016
 40
0.7500000000000011
 40
0.7500000000000011
 40
0.8750000000000006
 40
0.8750000000000006
 40
1.0
 40
1.0
 40
1.0
 40
1.0
 10
194.732928520564
 20
119.8251898955319
 30
0.0
 10
194.732928520578
 20
119.8251898955319
 30
0.0
 10
194.7682830779871
 20
119.9041410442154
 30
0.0
 10
194.9002179190859
 20
120.2139940896406
 30
0.0
 10
194.9968809858118
 20
120.4449226573173
 30
0.0
 10
195.1891498038046
 20
120.9065417788083
 30
0.0
 10
195.2613313636994
 20
121.0799913987
 30
0.0
 10
195.4203435039816
 20
121.4605470349221
 30
0.0
 10
195.5074846567884
 20
121.6681090369386
 30
0.0
 10
195.7915321373997
 20
122.3413255349843
 30
0.0
 10
196.0101955693965
 20
122.8573514471834
 30
0.0
 10
196.3782480971862
 20
123.7311080111345
 30
0.0
 10
196.5080965506139
 20
124.0400361630337
 30
0.0
 10
196.7792750674216
 20
124.6864321000802
 30
0.0
 10
196.9202947119001
 20
125.0231548468202
 30
0.0
 10
197.3596843386347
 20
126.072380253784
 30
0.0
 10
197.6749409822978
 20
126.8236987445091
 30
0.0
 10
198.350539199553
 20
128.4257919171752
 30
0.0
 10
198.7103913500398
 20
129.2785407952516
 30
0.0
 10
199.4724162846763
 20
131.0768297900186
 30
0.0
 10
199.8705993354832
 20
132.0139562549672
 30
0.0
 10
200.2860306780806
 20
132.9878434524063
 30
0.0
  0
SPLINE
  5
E0
330
1F
100
AcDbEntity
  8
0
  6
SLD-Сплошная
 62
     7
370
    25
100
AcDbSpline
210
0.0
220
0.0
230
1.0
 70
     8
 71
     3
 72
     8
 73
     4
 74
     0
 42
0.00000001
 43
0.00000001
 40
0.0
 40
0.0
 40
0.0
 40
0.0
 40
1.0
 40
1.0
 40
1.0
 40
1.0
 10
175.2860306780805
 20
165.7723899431983
 30
0.0
 10
176.4638757535057
 20
164.6344283973812
 30
0.0
 10
177.6253975267055
 20
163.4299204037682
 30
0.0
 10
178.8269750395718
 20
162.2021316969676
 30
0.0
  0
LINE
  5
E1
330
1F
100
AcDbEntity
  8
0
  6
SLD-Сплошная
 62
     7
370
    25
100
AcDbLine
 10
279.7860306781
 20
161.6347796502
 30
0.0
 11
271.7860306781
 21
161.6347796502
 31
0.0
  0
LINE
  5
E2
330
1F
100
AcDbEntity
  8
0
  6
SLD-Сплошная
 62
     7
370
    25
100
AcDbLine
 10
279.7860306781
 20
161.6347796502
 30
0.0
 11
279.7860306781
 21
135.5156001409
 31
0.0
  0
LINE
  5
E3
330
1F
100
AcDbEntity
  8
0
  6
SLD-Сплошная
 62
     7
370
    25
100
AcDbLine
 10
271.7860306781
 20
135.5156001409
 30
0.0
 11
279.7860306781
 21
135.5156001409
 31
0.0
  0
LINE
  5
E4
330
1F
100
AcDbEntity
  8
0
  6
SLD-Сплошная
 62
     7
370
    25
100
AcDbLine
 10
279.7860306781
 20
135.5156001409
 30
0.0
 11
279.7860306781
 21
131.7656001409
 31
0.0
  0
LINE
  5
E5
330
1F
100
AcDbEntity
  8
0
  6
SLD-Сплошная
 62
     7
370
    25
100
AcDbLine
 10
279.7860306781
 20
131.7656001409
 30
0.0
 11
271.7860306781
 21
131.7656001409
 31
0.0
  0
LINE
  5
E6
330
1F
100
AcDbEntity
  8
0
  6
SLD-Сплошная
 62
     7
370
    25
100
AcDbLine
 10
271.7860306781
 20
165.3847796502
 30
0.0
 11
279.7860306781
 21
165.3847796502
 31
0.0
  0
LINE
  5
E7
330
1F
100
AcDbEntity
  8
0
  6
SLD-Сплошная
 62
     7
370
    25
100
AcDbLine
 10
279.7860306781
 20
165.3847796502
 30
0.0
 11
279.7860306781
 21
161.6347796502
 31
0.0
  0
SPLINE
  5
E8
330
1F
100
AcDbEntity
  8
0
  6
SLD-Сплошная
 62
     7
370
    25
100
AcDbSpline
210
0.0
220
0.0
230
1.0
 70
     8
 71
     3
 72
    12
 73
     8
 74
     0
 42
0.00000001
 43
0.00000001
 40
0.1818088348193994
 40
0.1818088348193994
 40
0.1818088348193994
 40
0.1818088348193994
 40
0.25
 40
0.25
 40
0.375
 40
0.375
 40
0.4922987703583165
 40
0.4922987703583165
 40
0.4922987703583165
 40
0.4922987703583165
 10
222.7174128403414
 20
120.9106188314609
 30
0.0
 10
223.0790922026823
 20
120.4871855189169
 30
0.0
 10
223.5293414285797
 20
120.1392129448714
 30
0.0
 10
224.959506588297
 20
119.4723159784687
 30
0.0
 10
226.0567974391407
 20
119.4244072252761
 30
0.0
 10
227.9165717618249
 20
120.1013097211857
 30
0.0
 10
228.6851125541304
 20
120.7749085420356
 30
0.0
 10
229.1329537991411
 20
121.6213093168738
 30
0.0
  0
LINE
  5
E9
330
1F
100
AcDbEntity
  8
0
  6
SLD-Сплошная
 62
     7
370
    25
100
AcDbLine
 10
271.7860306781
 20
118.7060103862
 30
0.0
 11
279.7860306781
 21
118.7060103862
 31
0.0
  0
LINE
  5
EA
330
1F
100
AcDbEntity
  8
0
  6
SLD-Сплошная
 62
     7
370
    25
100
AcDbLine
 10
279.7860306781
 20
131.7656001409
 30
0.0
 11
279.7860306781
 21
118.7060103862
 31
0.0
  0
LINE
  5
EB
330
1F
100
AcDbEntity
  8
0
  6
SLD-Сплошная
 62
     7
370
    25
100
AcDbLine
 10
279.7860306781
 20
178.4443694049
 30
0.0
 11
271.7860306781
 21
178.4443694049
 31
0.0
  0
LINE
  5
EC
330
1F
100
AcDbEntity
  8
0
  6
SLD-Сплошная
 62
     7
370
    25
100
AcDbLine
 10
279.7860306781
 20
178.4443694049
 30
0.0
 11
279.7860306781
 21
165.3847796502
 31
0.0
  0
SPLINE
  5
ED
330
1F
100
AcDbEntity
  8
0
  6
SLD-Сплошная
 62
     7
370
    25
100
AcDbSpline
210
0.0
220
0.0
230
1.0
 70
    24
 71
     3
 72
    20
 73
    16
 74
     0
 42
0.00000001
 43
0.00000001
 40
0.0
 40
0.0
 40
0.0
 40
0.0
 40
0.2500000000000025
 40
0.2500000000000025
 40
0.500000000000005
 40
0.500000000000005
 40
0.6250000000000062
 40
0.6250000000000062
 40
0.6562500000000056
 40
0.6562500000000056
 40
0.6875000000000049
 40
0.6875000000000049
 40
0.7500000000000034
 40
0.7500000000000034
 40
1.0
 40
1.0
 40
1.0
 40
1.0
 10
299.1577840485256
 20
145.7405414223441
 30
0.0
 10
297.7408720343711
 20
145.7405414223441
 30
0.0
 10
296.2203388318956
 20
145.7405414223441
 30
0.0
 10
293.0475242105624
 20
145.7405414223441
 30
0.0
 10
291.3947392470936
 20
145.740541422344
 30
0.0
 10
288.8788139414233
 20
145.7405414223442
 30
0.0
 10
288.0364244198068
 20
145.7405414223441
 30
0.0
 10
286.9742974932347
 20
145.7405414223441
 30
0.0
 10
286.7633537128599
 20
145.7405414223441
 30
0.0
 10
286.3508745495859
 20
145.7405414223441
 30
0.0
 10
286.1477692926516
 20
145.7405414223441
 30
0.0
 10
285.5335372093163
 20
145.7405414223441
 30
0.0
 10
285.122178051141
 20
145.7405414223441
 30
0.0
 10
283.0698136768866
 20
145.7405414223441
 30
0.0
 10
281.4279221774846
 20
145.740541422344
 30
0.0
 10
279.7860306780806
 20
145.740541422344
 30
0.0
  0
SPLINE
  5
EE
330
1F
100
AcDbEntity
  8
0
  6
SLD-Сплошная
 62
     7
370
    25
100
AcDbSpline
210
0.0
220
0.0
230
1.0
 70
    24
 71
     3
 72
    20
 73
    16
 74
     0
 42
0.00000001
 43
0.00000001
 40
0.0
 40
0.0
 40
0.0
 40
0.0
 40
0.2499999999999981
 40
0.2499999999999981
 40
0.4999999999999961
 40
0.4999999999999961
 40
0.6249999999999951
 40
0.6249999999999951
 40
0.6562499999999964
 40
0.6562499999999964
 40
0.6874999999999978
 40
0.6874999999999978
 40
0.7499999999999981
 40
0.7499999999999981
 40
1.0
 40
1.0
 40
1.0
 40
1.0
 10
299.1577840485256
 20
151.4098383687216
 30
0.0
 10
297.7408720343711
 20
151.4098383687216
 30
0.0
 10
296.2203388318956
 20
151.4098383687216
 30
0.0
 10
293.0475242105624
 20
151.4098383687216
 30
0.0
 10
291.3947392470948
 20
151.4098383687215
 30
0.0
 10
288.8788139414215
 20
151.4098383687217
 30
0.0
 10
288.0364244198067
 20
151.4098383687216
 30
0.0
 10
286.9742974932347
 20
151.4098383687216
 30
0.0
 10
286.7633537128598
 20
151.4098383687216
 30
0.0
 10
286.3508745495857
 20
151.4098383687216
 30
0.0
 10
286.1477692926516
 20
151.4098383687216
 30
0.0
 10
285.5335372093164
 20
151.4098383687216
 30
0.0
 10
285.1221780511408
 20
151.4098383687216
 30
0.0
 10
283.0698136768863
 20
151.4098383687216
 30
0.0
 10
281.4279221774847
 20
151.4098383687215
 30
0.0
 10
279.7860306780806
 20
151.4098383687215
 30
0.0
  0
SPLINE
  5
EF
330
1F
100
AcDbEntity
  8
0
  6
SLD-Сплошная
 62
     7
370
    25
100
AcDbSpline
210
0.0
220
0.0
230
1.0
 70
    24
 71
     3
 72
    16
 73
    12
 74
     0
 42
0.00000001
 43
0.00000001
 40
0.0
 40
0.0
 40
0.0
 40
0.0
 40
0.0625
 40
0.0625
 40
0.125
 40
0.125
 40
0.25
 40
0.25
 40
0.5
 40
0.5
 40
1.0
 40
1.0
 40
1.0
 40
1.0
 10
286.733471794817
 20
145.0684419043958
 30
0.0
 10
286.9975075072662
 20
145.0684419043959
 30
0.0
 10
287.2581041937119
 20
145.0684419043959
 30
0.0
 10
287.7823093742162
 20
145.0684419043959
 30
0.0
 10
288.0442190635379
 20
145.0684419043958
 30
0.0
 10
288.8288989468052
 20
145.0684419043959
 30
0.0
 10
289.3506234676136
 20
145.0684419043959
 30
0.0
 10
290.9076899409296
 20
145.0684419043959
 30
0.0
 10
291.934923818825
 20
145.0684419043959
 30
0.0
 10
294.951707517536
 20
145.0684419043959
 30
0.0
 10
296.875000844699
 20
145.0684419043959
 30
0.0
 10
298.6319322264558
 20
145.0684419043959
 30
0.0
  0
LINE
  5
F0
330
1F
100
AcDbEntity
  8
0
  6
SLD-Сплошная
 62
     7
370
    25
100
AcDbLine
 10
279.7860306781
 20
145.0684419044
 30
0.0
 11
286.7334717948
 21
145.0684419044
 31
0.0
  0
LWPOLYLINE
  5
F1
330
1F
100
AcDbEntity
  8
0
  6
SLD-Сплошная
 62
     7
370
    25
100
AcDbPolyline
 90
        3
 70
   128
 43
0.0
 10
286.7334717948
 20
152.0819378867
 10
282.8429047695
 20
152.0819387982
 10
279.7860306781
 20
152.0819378867
  0
SPLINE
  5
F2
330
1F
100
AcDbEntity
  8
0
  6
SLD-Сплошная
 62
     7
370
    25
100
AcDbSpline
210
0.0
220
0.0
230
1.0
 70
    24
 71
     3
 72
    16
 73
    12
 74
     0
 42
0.00000001
 43
0.00000001
 40
0.0
 40
0.0
 40
0.0
 40
0.0
 40
0.5
 40
0.5
 40
0.75
 40
0.75
 40
0.875
 40
0.875
 40
0.9375
 40
0.9375
 40
1.0
 40
1.0
 40
1.0
 40
1.0
 10
298.6319322264556
 20
152.0819378866698
 30
0.0
 10
296.8750008446992
 20
152.0819378866698
 30
0.0
 10
294.9517075175341
 20
152.0819378866698
 30
0.0
 10
291.9349238188257
 20
152.0819378866698
 30
0.0
 10
290.9076899409279
 20
152.0819378866698
 30
0.0
 10
289.3506234676144
 20
152.0819378866698
 30
0.0
 10
288.8288989468048
 20
152.0819378866699
 30
0.0
 10
288.0442190635382
 20
152.0819378866698
 30
0.0
 10
287.7823093742156
 20
152.0819378866698
 30
0.0
 10
287.2581041937121
 20
152.0819378866698
 30
0.0
 10
286.997507507266
 20
152.0819378866698
 30
0.0
 10
286.7334717948168
 20
152.0819378866698
 30
0.0
  0
LINE
  5
F3
330
1F
100
AcDbEntity
  8
0
  6
SLD-Сплошная
 62
     7
370
    25
100
AcDbLine
 10
298.6319322265
 20
130.4057276612
 30
0.0
 11
301.565610205
 21
132.3268770545
 31
0.0
  0
SPLINE
  5
F4
330
1F
100
AcDbEntity
  8
0
  6
SLD-Сплошная
 62
     7
370
    25
100
AcDbSpline
210
0.0
220
0.0
230
1.0
 70
     8
 71
     3
 72
    16
 73
    12
 74
     0
 42
0.00000001
 43
0.00000001
 40
0.0
 40
0.0
 40
0.0
 40
0.0
 40
0.5000000000000047
 40
0.5000000000000047
 40
0.7500000000000056
 40
0.7500000000000056
 40
0.8750000000000043
 40
0.8750000000000043
 40
0.9375000000000022
 40
0.9375000000000022
 40
1.0
 40
1.0
 40
1.0
 40
1.0
 10
298.631932226456
 20
130.4057276612362
 30
0.0
 10
296.8750008447001
 20
129.255182958471
 30
0.0
 10
294.9517075175341
 20
128.3621257718414
 30
0.0
 10
291.934923818826
 20
127.4624265602231
 30
0.0
 10
290.9076899409289
 20
127.2355764074945
 30
0.0
 10
289.3506234676142
 20
127.0083552586619
 30
0.0
 10
288.8288989468054
 20
126.951429820467
 30
0.0
 10
288.0442190635381
 20
126.8944741745088
 30
0.0
 10
287.7823093742159
 20
126.8802262798027
 30
0.0
 10
287.2581041937123
 20
126.8612250940108
 30
0.0
 10
286.9975075072662
 20
126.8564747163304
 30
0.0
 10
286.733471794817
 20
126.85647173523
 30
0.0
  0
LWPOLYLINE
  5
F5
330
1F
100
AcDbEntity
  8
0
  6
SLD-Сплошная
 62
     7
370
    25
100
AcDbPolyline
 90
       12
 70
   128
 43
0.0
 10
298.6319322265
 20
152.0819378867
 10
299.4584448243
 20
151.9398899533
 10
300.217998287
 20
151.5252540318
 10
300.8490581101
 20
150.8716214588
 10
301.3004995799
 20
150.0319456579
 10
301.5357495932
 20
149.0742521688
 10
301.5357495932
 20
148.0761276223
 10
301.3004995799
 20
147.1184341332
 10
300.8490581101
 20
146.2787583323
 10
300.217998287
 20
145.6251257592
 10
299.4584448243
 20
145.2104898378
 10
298.6319322265
 20
145.0684419044
  0
SPLINE
  5
F6
330
1F
100
AcDbEntity
  8
0
  6
SLD-Сплошная
 62
     7
370
    25
100
AcDbSpline
210
0.0
220
0.0
230
1.0
 70
     8
 71
     3
 72
    16
 73
    12
 74
     0
 42
0.00000001
 43
0.00000001
 40
0.0
 40
0.0
 40
0.0
 40
0.0
 40
0.0625000000000016
 40
0.0625000000000016
 40
0.1250000000000032
 40
0.1250000000000032
 40
0.2500000000000033
 40
0.2500000000000033
 40
0.5000000000000032
 40
0.5000000000000032
 40
1.0
 40
1.0
 40
1.0
 40
1.0
 10
286.7334717948166
 20
170.2939080558351
 30
0.0
 10
286.9975075072658
 20
170.2939050747345
 30
0.0
 10
287.2581041937115
 20
170.2891546970541
 30
0.0
 10
287.7823093742159
 20
170.2701535112627
 30
0.0
 10
288.0442190635378
 20
170.2559056165561
 30
0.0
 10
288.8288989468045
 20
170.1989499705985
 30
0.0
 10
289.3506234676134
 20
170.1420245324046
 30
0.0
 10
290.9076899409292
 20
169.9148033835679
 30
0.0
 10
291.9349238188256
 20
169.6879532308412
 30
0.0
 10
294.9517075175339
 20
168.7882540192257
 30
0.0
 10
296.8750008447005
 20
167.8951968325938
 30
0.0
 10
298.6319322264557
 20
166.7446521298291
 30
0.0
  0
LINE
  5
F7
330
1F
100
AcDbEntity
  8
0
  6
SLD-Сплошная
 62
     7
370
    25
100
AcDbLine
 10
301.565610205
 20
164.8235027366
 30
0.0
 11
298.6319322265
 21
166.7446521298
 31
0.0
  0
ARC
  5
F8
330
1F
100
AcDbEntity
  8
0
  6
SLD-Сплошная
 62
     7
370
    25
100
AcDbCircle
 10
286.7334717948
 20
148.5751898955
 30
0.0
 40
21.99999999999987
100
AcDbArc
 50
27.9163390054
 51
47.6088660557
  0
LINE
  5
F9
330
1F
100
AcDbEntity
  8
0
  6
SLD-Сплошная
 62
     7
370
    25
100
AcDbLine
 10
306.173379202
 20
148.5751898955
 30
0.0
 11
306.173379202
 21
158.8751898955
 31
0.0
  0
LINE
  5
FA
330
1F
100
AcDbEntity
  8
0
  6
SLD-Сплошная
 62
     7
370
    25
100
AcDbLine
 10
306.173379202
 20
138.2751898955
 30
0.0
 11
306.173379202
 21
148.5751898955
 31
0.0
  0
ARC
  5
FB
330
1F
100
AcDbEntity
  8
0
  6
SLD-Сплошная
 62
     7
370
    25
100
AcDbCircle
 10
286.7334717948
 20
148.5751898955
 30
0.0
 40
21.99999999999991
100
AcDbArc
 50
312.3911339443
 51
332.0836609946
  0
LWPOLYLINE
  5
FC
330
1F
100
AcDbEntity
  8
0
  6
SLD-Сплошная
 62
     7
370
    25
100
AcDbPolyline
 90
        3
 70
   128
 43
0.0
 10
286.7334717948
 20
126.8564717352
 10
282.8429047695
 20
126.8564718824
 10
279.7860306781
 20
126.8564717352
  0
LINE
  5
FD
330
1F
100
AcDbEntity
  8
0
  6
SLD-Сплошная
 62
     7
370
    25
100
AcDbLine
 10
279.7860306781
 20
170.2939080558
 30
0.0
 11
286.7334717948
 21
170.2939080558
 31
0.0
  0
LWPOLYLINE
  5
FE
330
1F
100
AcDbEntity
  8
0
  6
SLD-Сплошная
 62
     7
370
    25
100
AcDbPolyline
 90
       11
 70
   128
 43
0.0
 10
299.1577840485
 20
151.4098383687
 10
299.8905907925
 20
151.2711007974
 10
300.5516653066
 20
150.8684686834
 10
301.0762970115
 20
150.2413544635
 10
301.4131313004
 20
149.4511444468
 10
301.5291964864
 20
148.5751898955
 10
301.4131313004
 20
147.6992353442
 10
301.0762970115
 20
146.9090253276
 10
300.5516653066
 20
146.2819111076
 10
299.8905907925
 20
145.8792789937
 10
299.1577840485
 20
145.7405414223
  0
ARC
  5
FF
330
1F
100
AcDbEntity
  8
0
  6
SLD-Сплошная
 62
     7
370
    25
100
AcDbCircle
 10
141.1860306781
 20
193.3251898955
 30
0.0
 40
4.700000000000017
100
AcDbArc
 50
56.0
 51
180.0
  0
LINE
  5
100
330
1F
100
AcDbEntity
  8
0
  6
SLD-Сплошная
 62
     7
370
    25
100
AcDbLine
 10
173.4113599176
 20
177.2581552234
 30
0.0
 11
143.8142373244
 21
197.2216664865
 31
0.0
  0
CIRCLE
  5
101
330
1F
100
AcDbEntity
  8
0
  6
SLD-Сплошная
 62
     7
370
    25
100
AcDbCircle
 10
141.1860306781
 20
193.3251898955
 30
0.0
 40
2.100000000000023
  0
LINE
  5
102
330
1F
100
AcDbEntity
  8
0
  6
SLD-Сплошная
 62
     7
370
    25
100
AcDbLine
 10
136.4860306781
 20
193.3251898955
 30
0.0
 11
136.4860306781
 21
177.2581552234
 31
0.0
  0
LINE
  5
103
330
1F
100
AcDbEntity
  8
0
  6
SLD-Сплошная
 62
     7
370
    25
100
AcDbLine
 10
175.2860306781
 20
110.1251898955
 30
0.0
 11
175.2860306781
 21
117.2531519808
 31
0.0
  0
LINE
  5
104
330
1F
100
AcDbEntity
  8
0
  6
SLD-Сплошная
 62
     7
370
    25
100
AcDbLine
 10
122.6860306781
 20
116.9251898955
 30
0.0
 11
122.6860306781
 21
117.2531519808
 31
0.0
  0
SPLINE
  5
105
330
1F
100
AcDbEntity
  8
0
  6
SLD-Сплошная
 62
     7
370
    25
100
AcDbSpline
210
0.0
220
0.0
230
1.0
 70
     8
 71
     3
 72
    20
 73
    16
 74
     0
 42
0.00000001
 43
0.00000001
 40
0.0
 40
0.0
 40
0.0
 40
0.0
 40
0.2500000000000026
 40
0.2500000000000026
 40
0.5000000000000051
 40
0.5000000000000051
 40
0.6250000000000064
 40
0.6250000000000064
 40
0.6562500000000057
 40
0.6562500000000057
 40
0.687500000000005
 40
0.687500000000005
 40
0.7500000000000037
 40
0.7500000000000037
 40
1.0
 40
1.0
 40
1.0
 40
1.0
 10
299.1577840485256
 20
129.6027292500694
 30
0.0
 10
297.7408720343711
 20
128.6748497499961
 30
0.0
 10
296.2203388318956
 20
127.9073504518618
 30
0.0
 10
293.0475242105625
 20
126.7275276252924
 30
0.0
 10
291.3947392470946
 20
126.3164075336807
 30
0.0
 10
288.8788139414225
 20
125.9824720321452
 30
0.0
 10
288.0364244198066
 20
125.918130775778
 30
0.0
 10
286.9742974932349
 20
125.8969325175603
 30
0.0
 10
286.7633537128598
 20
125.8966136046114
 30
0.0
 10
286.3508745495856
 20
125.8966120806961
 30
0.0
 10
286.1477692926516
 20
125.8966136994757
 30
0.0
 10
285.5335372093164
 20
125.8966148215336
 30
0.0
 10
285.122178051141
 20
125.8966141483399
 30
0.0
 10
283.0698136768867
 20
125.8966141483398
 30
0.0
 10
281.4279221774847
 20
125.8966141483399
 30
0.0
 10
279.7860306780806
 20
125.8966141483399
 30
0.0
  0
SPLINE
  5
106
330
1F
100
AcDbEntity
  8
0
  6
SLD-Сплошная
 62
     7
370
    25
100
AcDbSpline
210
0.0
220
0.0
230
1.0
 70
     8
 71
     3
 72
    20
 73
    16
 74
     0
 42
0.00000001
 43
0.00000001
 40
0.0
 40
0.0
 40
0.0
 40
0.0
 40
0.2499999999999959
 40
0.2499999999999959
 40
0.4999999999999919
 40
0.4999999999999919
 40
0.6249999999999909
 40
0.6249999999999909
 40
0.6562499999999916
 40
0.6562499999999916
 40
0.6874999999999923
 40
0.6874999999999923
 40
0.7499999999999938
 40
0.7499999999999938
 40
1.0
 40
1.0
 40
1.0
 40
1.0
 10
299.1577840485254
 20
167.5476505409958
 30
0.0
 10
297.740872034371
 20
168.4755300410691
 30
0.0
 10
296.2203388318954
 20
169.2430293392034
 30
0.0
 10
293.0475242105622
 20
170.4228521657728
 30
0.0
 10
291.394739247094
 20
170.8339722573831
 30
0.0
 10
288.8788139414227
 20
171.1679077589208
 30
0.0
 10
288.0364244198066
 20
171.2322490152876
 30
0.0
 10
286.9742974932345
 20
171.253447273505
 30
0.0
 10
286.7633537128597
 20
171.2537661864536
 30
0.0
 10
286.3508745495856
 20
171.253767710369
 30
0.0
 10
286.1477692926514
 20
171.2537660915894
 30
0.0
 10
285.5335372093162
 20
171.2537649695315
 30
0.0
 10
285.1221780511408
 20
171.2537656427252
 30
0.0
 10
283.0698136768863
 20
171.2537656427251
 30
0.0
 10
281.4279221774844
 20
171.2537656427251
 30
0.0
 10
279.7860306780806
 20
171.2537656427251
 30
0.0
  0
LINE
  5
107
330
1F
100
AcDbEntity
  8
0
  6
SLD-Сплошная
 62
     7
370
    25
100
AcDbLine
 10
301.5291964864
 20
165.9947065575
 30
0.0
 11
299.1577840485
 21
167.547650541
 31
0.0
  0
LINE
  5
108
330
1F
100
AcDbEntity
  8
0
  6
SLD-Сплошная
 62
     7
370
    25
100
AcDbLine
 10
299.1577840485
 20
129.6027292501
 30
0.0
 11
301.5291964864
 21
131.1556732335
 31
0.0
  0
SPLINE
  5
109
330
1F
100
AcDbEntity
  8
0
  6
SLD-Сплошная
 62
     7
370
    25
100
AcDbSpline
210
0.0
220
0.0
230
1.0
 70
     8
 71
     3
 72
    15
 73
    11
 74
     0
 42
0.00000001
 43
0.00000001
 40
0.0
 40
0.0
 40
0.0
 40
0.0
 40
0.1251901241009902
 40
0.2501850772128852
 40
0.3750936152090177
 40
0.5000000000000024
 40
0.6249063847909873
 40
0.7498149227871198
 40
0.8748098758990129
 40
1.0
 40
1.0
 40
1.0
 40
1.0
 10
52.8365067164385
 20
125.8966141483399
 30
0.0
 10
53.03014743902235
 20
125.7154195168618
 30
0.0
 10
53.41712699894451
 20
125.3533127357364
 30
0.0
 10
54.1214158198745
 20
124.9740668698752
 30
0.0
 10
54.87851758367344
 20
124.7310353781142
 30
0.0
 10
55.67115518962724
 20
124.6472673949132
 30
0.0
 10
56.46379279558104
 20
124.7310353781142
 30
0.0
 10
57.22089455937996
 20
124.9740668698752
 30
0.0
 10
57.92518338030997
 20
125.3533127357364
 30
0.0
 10
58.31216294023212
 20
125.7154195168617
 30
0.0
 10
58.50580366281599
 20
125.8966141483398
 30
0.0
  0
SPLINE
  5
10A
330
1F
100
AcDbEntity
  8
0
  6
SLD-Сплошная
 62
     7
370
    25
100
AcDbSpline
210
0.0
220
0.0
230
1.0
 70
     8
 71
     3
 72
    15
 73
    11
 74
     0
 42
0.00000001
 43
0.00000001
 40
0.0
 40
0.0
 40
0.0
 40
0.0
 40
0.1251901241009885
 40
0.250185077212882
 40
0.375093615209015
 40
0.5000000000000002
 40
0.6249063847909854
 40
0.7498149227871179
 40
0.8748098758990112
 40
1.0
 40
1.0
 40
1.0
 40
1.0
 10
32.99257944243476
 20
151.4098383687216
 30
0.0
 10
32.8113848109567
 20
151.2161976461377
 30
0.0
 10
32.44927802983132
 20
150.8292180862155
 30
0.0
 10
32.07003216397017
 20
150.1249292652855
 30
0.0
 10
31.82700067220917
 20
149.3678275014866
 30
0.0
 10
31.7432326890082
 20
148.5751898955328
 30
0.0
 10
31.82700067220916
 20
147.782552289579
 30
0.0
 10
32.07003216397015
 20
147.0254505257801
 30
0.0
 10
32.44927802983128
 20
146.3211617048501
 30
0.0
 10
32.81138481095666
 20
145.9341821449279
 30
0.0
 10
32.99257944243472
 20
145.7405414223441
 30
0.0
  0
SPLINE
  5
10B
330
1F
100
AcDbEntity
  8
0
  6
SLD-Сплошная
 62
     7
370
    25
100
AcDbSpline
210
0.0
220
0.0
230
1.0
 70
     8
 71
     3
 72
    15
 73
    11
 74
     0
 42
0.00000001
 43
0.00000001
 40
0.0
 40
0.0
 40
0.0
 40
0.0
 40
0.1251901241009873
 40
0.2501850772128786
 40
0.3750936152090108
 40
0.4999999999999984
 40
0.624906384790986
 40
0.7498149227871185
 40
0.8748098758990097
 40
1.0
 40
1.0
 40
1.0
 40
1.0
 10
58.50580366281621
 20
171.2537656427252
 30
0.0
 10
58.31216294023235
 20
171.4349602742033
 30
0.0
 10
57.9251833803102
 20
171.7970670553287
 30
0.0
 10
57.22089455938019
 20
172.1763129211897
 30
0.0
 10
56.46379279558126
 20
172.4193444129506
 30
0.0
 10
55.67115518962746
 20
172.5031123961516
 30
0.0
 10
54.87851758367368
 20
172.4193444129506
 30
0.0
 10
54.12141581987473
 20
172.1763129211897
 30
0.0
 10
53.41712699894472
 20
171.7970670553287
 30
0.0
 10
53.03014743902258
 20
171.4349602742032
 30
0.0
 10
52.83650671643872
 20
171.2537656427252
 30
0.0
  0
SPLINE
  5
10C
330
1F
100
AcDbEntity
  8
0
  6
SLD-Сплошная
 62
     7
370
    25
100
AcDbSpline
210
0.0
220
0.0
230
1.0
 70
     8
 71
     3
 72
    18
 73
    14
 74
     0
 42
0.00000001
 43
0.00000001
 40
0.0
 40
0.0
 40
0.0
 40
0.0
 40
0.002776215542367
 40
0.0366550985941649
 40
0.113207009926079
 40
0.2179922487804276
 40
0.3082573578388568
 40
0.4141376710977447
 40
0.5354135761279528
 40
0.6372753201713347
 40
0.7489125823593378
 40
0.8694909478371287
 40
1.0
 40
1.0
 40
1.0
 40
1.0
 10
85.55571223935645
 20
150.0013433708361
 30
0.0
 10
85.56338543737385
 20
150.0166893714121
 30
0.0
 10
85.6646966740441
 20
150.2193066234061
 30
0.0
 10
85.77137220288466
 20
150.7320646177735
 30
0.0
 10
85.82765109371388
 20
151.2525488260009
 30
0.0
 10
85.80627654550888
 20
151.6806727398011
 30
0.0
 10
85.76629173113008
 20
152.3739870032041
 30
0.0
 10
85.67964346100977
 20
153.228554562866
 30
0.0
 10
85.53537033662182
 20
154.312039398018
 30
0.0
 10
85.30987101782821
 20
155.592573391277
 30
0.0
 10
84.98791410134825
 20
157.0388049820686
 30
0.0
 10
84.51668170729002
 20
158.7812723619557
 30
0.0
 10
84.01934904830097
 20
160.1254399100023
 30
0.0
 10
83.76084778788659
 20
160.8241050772657
 30
0.0
  0
SPLINE
  5
10D
330
1F
100
AcDbEntity
  8
0
  6
SLD-Сплошная
 62
     7
370
    25
100
AcDbSpline
210
0.0
220
0.0
230
1.0
 70
     8
 71
     3
 72
    15
 73
    11
 74
     0
 42
0.00000001
 43
0.00000001
 40
0.0
 40
0.0
 40
0.0
 40
0.0
 40
0.148902570215476
 40
0.2855193724700356
 40
0.4105522389257973
 40
0.575160950299562
 40
0.7145241662193459
 40
0.8308623189807886
 40
0.9315012732969614
 40
1.0
 40
1.0
 40
1.0
 40
1.0
 10
27.58151845423022
 20
160.8242469512599
 30
0.0
 10
27.29920203479022
 20
160.0554078195371
 30
0.0
 10
26.7578627765098
 20
158.5811655273978
 30
0.0
 10
26.27762576237519
 20
156.7234492819889
 30
0.0
 10
25.9212896710976
 20
155.0338726147143
 30
0.0
 10
25.71339309070946
 20
153.6355723047194
 30
0.0
 10
25.59382032838836
 20
152.6364462737706
 30
0.0
 10
25.5554136823835
 20
152.0001937437349
 30
0.0
 10
25.44519540749369
 20
151.1022761446985
 30
0.0
 10
25.73414429541624
 20
150.3013681420614
 30
0.0
 10
25.85116512002306
 20
149.9770100329971
 30
0.0
  0
SPLINE
  5
10E
330
1F
100
AcDbEntity
  8
0
  6
SLD-Сплошная
 62
     7
370
    25
100
AcDbSpline
210
0.0
220
0.0
230
1.0
 70
     8
 71
     3
 72
    12
 73
     8
 74
     0
 42
0.00000001
 43
0.00000001
 40
0.0
 40
0.0
 40
0.0
 40
0.0
 40
0.2610604373259551
 40
0.5673404231156207
 40
0.8722170392702387
 40
0.9758275130848841
 40
1.0
 40
1.0
 40
1.0
 40
1.0
 10
26.68007411172315
 20
155.6448208202091
 30
0.0
 10
26.55153537254827
 20
155.4029061919164
 30
0.0
 10
26.27219307381777
 20
154.8771737255983
 30
0.0
 10
26.01467741163869
 20
154.170530566079
 30
0.0
 10
25.88708674558974
 20
153.6330137546048
 30
0.0
 10
25.85678613505296
 20
153.3754707328088
 30
0.0
 10
25.89706079614011
 20
153.3890256559764
 30
0.0
 10
25.90467948577275
 20
153.391589817904
 30
0.0
  0
SPLINE
  5
10F
330
1F
100
AcDbEntity
  8
0
  6
SLD-Сплошная
 62
     7
370
    25
100
AcDbSpline
210
0.0
220
0.0
230
1.0
 70
     8
 71
     3
 72
    22
 73
    18
 74
     0
 42
0.00000001
 43
0.00000001
 40
0.0
 40
0.0
 40
0.0
 40
0.0
 40
0.0941419320079255
 40
0.1802681339466154
 40
0.2576848522286674
 40
0.3257420357413558
 40
0.4012716638786232
 40
0.4602033898959711
 40
0.5123162307308374
 40
0.5487693535741767
 40
0.5830921683604988
 40
0.6169309405668663
 40
0.6632087976634854
 40
0.724353420757567
 40
0.8005965160668284
 40
0.8924232734902874
 40
1.0
 40
1.0
 40
1.0
 40
1.0
 10
55.67115518962719
 20
118.1316527811628
 30
0.0
 10
56.9408264137366
 20
118.1789232815316
 30
0.0
 10
59.37206249965686
 20
118.2694394278486
 30
0.0
 10
62.78569021742965
 20
118.9291369891211
 30
0.0
 10
65.75975437157113
 20
119.8179591581644
 30
0.0
 10
68.48325749732473
 20
120.9412229360205
 30
0.0
 10
70.85767044925798
 20
122.1910250134494
 30
0.0
 10
72.92556812322401
 20
123.5197547435901
 30
0.0
 10
74.47253233009441
 20
124.6785547227939
 30
0.0
 10
75.69679623908354
 20
125.7123340508574
 30
0.0
 10
76.69420085770022
 20
126.6358592522163
 30
0.0
 10
77.73686780508748
 20
127.6895438287834
 30
0.0
 10
78.95073833497035
 20
129.0509349558191
 30
0.0
 10
80.39709694348699
 20
130.9166128673737
 30
0.0
 10
81.97444468683088
 20
133.3812394925259
 30
0.0
 10
83.56331446783402
 20
136.5030033030236
 30
0.0
 10
84.3254571033808
 20
138.8907385985735
 30
0.0
 10
84.73662750145209
 20
140.1789043908675
 30
0.0
  0
SPLINE
  5
110
330
1F
100
AcDbEntity
  8
0
  6
SLD-Сплошная
 62
     7
370
    25
100
AcDbSpline
210
0.0
220
0.0
230
1.0
 70
     8
 71
     3
 72
    21
 73
    17
 74
     0
 42
0.00000001
 43
0.00000001
 40
0.0
 40
0.0
 40
0.0
 40
0.0
 40
0.0950758178480237
 40
0.1746840115722305
 40
0.2389561490237993
 40
0.2887484882650745
 40
0.3739334500377301
 40
0.4522163991934777
 40
0.4944980060140736
 40
0.5394244682607259
 40
0.5889546849009876
 40
0.6494441371122229
 40
0.7213363949536742
 40
0.8042940708695987
 40
0.8974711950861234
 40
1.0
 40
1.0
 40
1.0
 40
1.0
 10
26.60569080068342
 20
140.1788763405524
 30
0.0
 10
26.96467024344074
 20
139.0367459853111
 30
0.0
 10
27.62422774767434
 20
136.9382953307938
 30
0.0
 10
28.93495500211386
 20
134.2032509026325
 30
0.0
 10
30.18284585904334
 20
132.0772240038262
 30
0.0
 10
31.62980593413148
 20
129.9859620334224
 30
0.0
 10
33.37935157471031
 20
127.8710268496664
 30
0.0
 10
35.29060449712315
 20
126.0026984353099
 30
0.0
 10
36.94692009052718
 20
124.6184512420616
 30
0.0
 10
38.38559997956411
 20
123.5502351071331
 30
0.0
 10
40.0942988297739
 20
122.4364732046337
 30
0.0
 10
42.1970763620139
 20
121.2693557894698
 30
0.0
 10
44.81163632653762
 20
120.096568300499
 30
0.0
 10
47.96872169517535
 20
119.0678029936777
 30
0.0
 10
51.64861966715876
 20
118.2946899683677
 30
0.0
 10
54.28826542943915
 20
118.18770259414
 30
0.0
 10
55.67115518962754
 20
118.1316527459357
 30
0.0
  0
ARC
  5
111
330
1F
100
AcDbEntity
  8
0
  6
SLD-Сплошная
 62
     7
370
    25
100
AcDbCircle
 10
80.9782699656
 20
141.2170789205
 30
0.0
 40
3.899999999999998
100
AcDbArc
 50
344.5404887475
 51
8.2928311191
  0
ARC
  5
112
330
1F
100
AcDbEntity
  8
0
  6
SLD-Сплошная
 62
     7
370
    25
100
AcDbCircle
 10
30.3640404136
 20
141.2170789205
 30
0.0
 40
3.900000000000008
100
AcDbArc
 50
171.7071688809
 51
195.6125740645
  0
LINE
  5
113
330
1F
100
AcDbEntity
  8
0
  6
SLD-Сплошная
 62
     7
370
    25
100
AcDbLine
 10
28.0066834098
 20
161.9033006216
 30
0.0
 11
27.5774149944
 21
160.8181595765
 31
0.0
  0
LINE
  5
114
330
1F
100
AcDbEntity
  8
0
  6
SLD-Сплошная
 62
     7
370
    25
100
AcDbLine
 10
83.7648953848
 20
160.8181595765
 30
0.0
 11
83.3356269695
 21
161.9033006216
 31
0.0
  0
LINE
  5
115
330
1F
100
AcDbEntity
  8
0
  6
SLD-Сплошная
 62
     7
370
    25
100
AcDbLine
 10
69.9711551896
 20
198.0251898955
 30
0.0
 11
65.9711551896
 21
198.0251898955
 31
0.0
  0
LINE
  5
116
330
1F
100
AcDbEntity
  8
0
  6
SLD-Сплошная
 62
     7
370
    25
100
AcDbLine
 10
45.3711551896
 20
198.0251898955
 30
0.0
 11
41.3711551896
 21
198.0251898955
 31
0.0
  0
LINE
  5
117
330
1F
100
AcDbEntity
  8
0
  6
SLD-Сплошная
 62
     7
370
    25
100
AcDbLine
 10
45.6711551896
 20
199.1742416885
 30
0.0
 11
48.6711551896
 21
199.1742416885
 31
0.0
  0
LINE
  5
118
330
1F
100
AcDbEntity
  8
0
  6
SLD-Сплошная
 62
     7
370
    25
100
AcDbLine
 10
48.6711551896
 20
199.1742416885
 30
0.0
 11
62.6711551896
 21
199.1742416885
 31
0.0
  0
LINE
  5
119
330
1F
100
AcDbEntity
  8
0
  6
SLD-Сплошная
 62
     7
370
    25
100
AcDbLine
 10
62.6711551896
 20
199.1742416885
 30
0.0
 11
65.6711551896
 21
199.1742416885
 31
0.0
  0
LINE
  5
11A
330
1F
100
AcDbEntity
  8
0
  6
SLD-Сплошная
 62
     7
370
    25
100
AcDbLine
 10
65.6711551896
 20
189.2252079669
 30
0.0
 11
65.6711551896
 21
199.1742416885
 31
0.0
  0
LINE
  5
11B
330
1F
100
AcDbEntity
  8
0
  6
SLD-Сплошная
 62
     7
370
    25
100
AcDbLine
 10
45.6711551896
 20
199.1742416885
 30
0.0
 11
45.6711551896
 21
189.2252079669
 31
0.0
  0
LINE
  5
11C
330
1F
100
AcDbEntity
  8
0
  6
SLD-Сплошная
 62
     7
370
    25
100
AcDbLine
 10
62.6711551896
 20
206.1693425792
 30
0.0
 11
62.6711551896
 21
205.6562888799
 31
0.0
  0
LINE
  5
11D
330
1F
100
AcDbEntity
  8
0
  6
SLD-Сплошная
 62
     7
370
    25
100
AcDbLine
 10
48.6711551896
 20
206.1693425792
 30
0.0
 11
48.6711551896
 21
205.6562888799
 31
0.0
  0
LINE
  5
11E
330
1F
100
AcDbEntity
  8
0
  6
SLD-Сплошная
 62
     7
370
    25
100
AcDbLine
 10
48.6711551896
 20
199.1742416885
 30
0.0
 11
48.6711551896
 21
205.6562888799
 31
0.0
  0
LINE
  5
11F
330
1F
100
AcDbEntity
  8
0
  6
SLD-Сплошная
 62
     7
370
    25
100
AcDbLine
 10
62.6711551896
 20
205.6562888799
 30
0.0
 11
62.6711551896
 21
199.1742416885
 31
0.0
  0
LINE
  5
120
330
1F
100
AcDbEntity
  8
0
  6
SLD-Сплошная
 62
     7
370
    25
100
AcDbLine
 10
48.6711551896
 20
206.9963127577
 30
0.0
 11
62.6711551896
 21
206.9963127577
 31
0.0
  0
LINE
  5
121
330
1F
100
AcDbEntity
  8
0
  6
SLD-Сплошная
 62
     7
370
    25
100
AcDbLine
 10
48.6711551896
 20
206.9963127577
 30
0.0
 11
48.6711551896
 21
206.1693425792
 31
0.0
  0
LINE
  5
122
330
1F
100
AcDbEntity
  8
0
  6
SLD-Сплошная
 62
     7
370
    25
100
AcDbLine
 10
62.6711551896
 20
206.1693425792
 30
0.0
 11
62.6711551896
 21
206.9963127577
 31
0.0
  0
LINE
  5
123
330
1F
100
AcDbEntity
  8
0
  6
SLD-Сплошная
 62
     7
370
    25
100
AcDbLine
 10
68.1711551896
 20
199.1742416885
 30
0.0
 11
68.1711551896
 21
198.0251898955
 31
0.0
  0
LINE
  5
124
330
1F
100
AcDbEntity
  8
0
  6
SLD-Сплошная
 62
     7
370
    25
100
AcDbLine
 10
68.1711551896
 20
199.1742416885
 30
0.0
 11
65.6711551896
 21
199.1742416885
 31
0.0
  0
LINE
  5
125
330
1F
100
AcDbEntity
  8
0
  6
SLD-Сплошная
 62
     7
370
    25
100
AcDbLine
 10
65.9711551896
 20
196.8377004244
 30
0.0
 11
65.6711551896
 21
196.8377004244
 31
0.0
  0
ARC
  5
126
330
1F
100
AcDbEntity
  8
0
  6
SLD-Сплошная
 62
     7
370
    25
100
AcDbCircle
 10
55.6711551896
 20
116.8751898955
 30
0.0
 40
6.800000000000002
100
AcDbArc
 50
179.789353272
 51
0.2106467284
  0
ARC
  5
127
330
1F
100
AcDbEntity
  8
0
  6
SLD-Сплошная
 62
     7
370
    25
100
AcDbCircle
 10
55.6711551896
 20
142.8062263288
 30
0.0
 40
33.21091224697687
100
AcDbArc
 50
255.864678464
 51
284.135321536
  0
ARC
  5
128
330
1F
100
AcDbEntity
  8
0
  6
SLD-Сплошная
 62
     7
370
    25
100
AcDbCircle
 10
48.1711551896
 20
113.0251898955
 30
0.0
 40
2.5
100
AcDbArc
 50
180.0
 51
255.864678464
  0
LINE
  5
129
330
1F
100
AcDbEntity
  8
0
  6
SLD-Сплошная
 62
     7
370
    25
100
AcDbLine
 10
45.6711551896
 20
118.1251898955
 30
0.0
 11
45.6711551896
 21
113.0251898955
 31
0.0
  0
LINE
  5
12A
330
1F
100
AcDbEntity
  8
0
  6
SLD-Сплошная
 62
     7
370
    25
100
AcDbLine
 10
65.6711551896
 20
113.0251898955
 30
0.0
 11
65.6711551896
 21
118.1251898955
 31
0.0
  0
ARC
  5
12B
330
1F
100
AcDbEntity
  8
0
  6
SLD-Сплошная
 62
     7
370
    25
100
AcDbCircle
 10
63.1711551896
 20
113.0251898955
 30
0.0
 40
2.500000000000007
100
AcDbArc
 50
284.135321536
 51
0.0
  0
LWPOLYLINE
  5
12C
330
1F
100
AcDbEntity
  8
0
  6
SLD-Сплошная
 62
     7
370
    25
100
AcDbPolyline
 90
        9
 70
   128
 43
0.0
 10
59.1779031808
 20
166.7446521298
 10
59.1105220014
 20
166.3698544761
 10
58.9109678843
 20
166.0094600859
 10
58.5869095823
 20
165.6773187137
 10
58.1508004741
 20
165.3861943662
 10
57.6193999882
 20
165.1472747886
 10
57.0131295473
 20
164.9697415265
 10
56.3552877844
 20
164.8604170835
 10
55.6711551896
 20
164.8235027366
  0
SPLINE
  5
12D
330
1F
100
AcDbEntity
  8
0
  6
SLD-Сплошная
 62
     7
370
    25
100
AcDbSpline
210
0.0
220
0.0
230
1.0
 70
     8
 71
     3
 72
    16
 73
    12
 74
     0
 42
0.00000001
 43
0.00000001
 40
0.0
 40
0.0
 40
0.0
 40
0.0
 40
0.4999999999999984
 40
0.4999999999999984
 40
0.7499999999999977
 40
0.7499999999999977
 40
0.8749999999999972
 40
0.8749999999999972
 40
0.9374999999999987
 40
0.9374999999999987
 40
1.0
 40
1.0
 40
1.0
 40
1.0
 10
59.18001482132215
 20
166.7421292236708
 30
0.0
 10
59.17966288122919
 20
167.8929346528294
 30
0.0
 10
59.17931094113625
 20
168.7863690258683
 30
0.0
 10
59.17878303099683
 20
169.686728262362
 30
0.0
 10
59.17860706095036
 20
169.9138139324315
 30
0.0
 10
59.17834310588066
 20
170.1414002097026
 30
0.0
 10
59.17825512085742
 20
170.1984493259287
 30
0.0
 10
59.17812314332256
 20
170.2555919722132
 30
0.0
 10
59.17807915081094
 20
170.2699024473759
 30
0.0
 10
59.17799116578771
 20
170.2890290414363
 30
0.0
 10
59.17794717327609
 20
170.2938422469169
 30
0.0
 10
59.17790318076447
 20
170.2939080558351
 30
0.0
  0
ARC
  5
12E
330
1F
100
AcDbEntity
  8
0
  6
SLD-Сплошная
 62
     7
370
    25
100
AcDbCircle
 10
55.6711551896
 20
148.5751898955
 30
0.0
 40
22.00000000000002
100
AcDbArc
 50
9.1719345986
 51
80.8280654014
  0
SPLINE
  5
12F
330
1F
100
AcDbEntity
  8
0
  6
SLD-Сплошная
 62
     7
370
    25
100
AcDbSpline
210
0.0
220
0.0
230
1.0
 70
    24
 71
     3
 72
    16
 73
    12
 74
     0
 42
0.00000001
 43
0.00000001
 40
0.0
 40
0.0
 40
0.0
 40
0.0
 40
0.0624999999999977
 40
0.0624999999999977
 40
0.1249999999999953
 40
0.1249999999999953
 40
0.2499999999999942
 40
0.2499999999999942
 40
0.499999999999995
 40
0.499999999999995
 40
1.0
 40
1.0
 40
1.0
 40
1.0
 10
77.38987334993001
 20
152.0819378866694
 30
0.0
 10
77.38987036882962
 20
152.0819378866694
 30
0.0
 10
77.38511999114917
 20
152.0819378866694
 30
0.0
 10
77.36611880535726
 20
152.0819378866694
 30
0.0
 10
77.35187091065094
 20
152.0819378866694
 30
0.0
 10
77.29491526469346
 20
152.0819378866694
 30
0.0
 10
77.237989826499
 20
152.0819378866694
 30
0.0
 10
77.01076867766369
 20
152.0819378866694
 30
0.0
 10
76.7839185249351
 20
152.0819378866694
 30
0.0
 10
75.88421931332232
 20
152.0819378866695
 30
0.0
 10
74.99116212668758
 20
152.0819378866695
 30
0.0
 10
73.84061742392382
 20
152.0819378866695
 30
0.0
  0
LWPOLYLINE
  5
130
330
1F
100
AcDbEntity
  8
0
  6
SLD-Сплошная
 62
     7
370
    25
100
AcDbPolyline
 90
       12
 70
   128
 43
0.0
 10
73.8406174239
 20
145.0684419044
 10
73.2993670933
 20
145.2104898378
 10
72.8019656455
 20
145.6251257592
 10
72.3887095877
 20
146.2787583323
 10
72.093078468
 20
147.1184341332
 10
71.9390225614
 20
148.0761276223
 10
71.9390225614
 20
149.0742521688
 10
72.093078468
 20
150.0319456579
 10
72.3887095877
 20
150.8716214588
 10
72.8019656455
 20
151.5252540318
 10
73.2993670933
 20
151.9398899533
 10
73.8406174239
 20
152.0819378867
  0
SPLINE
  5
131
330
1F
100
AcDbEntity
  8
0
  6
SLD-Сплошная
 62
     7
370
    25
100
AcDbSpline
210
0.0
220
0.0
230
1.0
 70
     8
 71
     3
 72
    16
 73
    12
 74
     0
 42
0.00000001
 43
0.00000001
 40
0.0
 40
0.0
 40
0.0
 40
0.0
 40
0.4999999999999999
 40
0.4999999999999999
 40
0.7499999999999983
 40
0.7499999999999983
 40
0.8749999999999991
 40
0.8749999999999991
 40
0.9374999999999996
 40
0.9374999999999996
 40
1.0
 40
1.0
 40
1.0
 40
1.0
 10
73.83809451776553
 20
145.0663302638379
 30
0.0
 10
74.98889994692546
 20
145.0666822039308
 30
0.0
 10
75.88233431996326
 20
145.0670341440237
 30
0.0
 10
76.78269355645668
 20
145.0675620541631
 30
0.0
 10
77.00977922652628
 20
145.0677380242096
 30
0.0
 10
77.23736550379745
 20
145.0680019792793
 30
0.0
 10
77.29441462002454
 20
145.0680899643025
 30
0.0
 10
77.35155726630761
 20
145.0682219418374
 30
0.0
 10
77.36586774147055
 20
145.068265934349
 30
0.0
 10
77.38499433553136
 20
145.0683539193722
 30
0.0
 10
77.3898075410118
 20
145.0683979118838
 30
0.0
 10
77.38987334992997
 20
145.0684419043954
 30
0.0
  0
ARC
  5
132
330
1F
100
AcDbEntity
  8
0
  6
SLD-Сплошная
 62
     7
370
    25
100
AcDbCircle
 10
55.6711551896
 20
148.5751898955
 30
0.0
 40
21.99999999999997
100
AcDbArc
 50
279.1719345986
 51
350.8280654014
  0
SPLINE
  5
133
330
1F
100
AcDbEntity
  8
0
  6
SLD-Сплошная
 62
     7
370
    25
100
AcDbSpline
210
0.0
220
0.0
230
1.0
 70
    24
 71
     3
 72
    16
 73
    12
 74
     0
 42
0.00000001
 43
0.00000001
 40
0.0
 40
0.0
 40
0.0
 40
0.0
 40
0.0624999999999987
 40
0.0624999999999987
 40
0.1249999999999973
 40
0.1249999999999973
 40
0.2499999999999977
 40
0.2499999999999977
 40
0.4999999999999984
 40
0.4999999999999984
 40
1.0
 40
1.0
 40
1.0
 40
1.0
 10
59.17790318076421
 20
126.85647173523
 30
0.0
 10
59.17790318076421
 20
126.8564747163304
 30
0.0
 10
59.17790318076421
 20
126.8612250940108
 30
0.0
 10
59.17790318076421
 20
126.8802262798027
 30
0.0
 10
59.17790318076421
 20
126.8944741745088
 30
0.0
 10
59.17790318076421
 20
126.951429820467
 30
0.0
 10
59.17790318076422
 20
127.0083552586614
 30
0.0
 10
59.17790318076422
 20
127.2355764074953
 30
0.0
 10
59.17790318076423
 20
127.4624265602239
 30
0.0
 10
59.17790318076423
 20
128.3621257718396
 30
0.0
 10
59.17790318076425
 20
129.2551829584714
 30
0.0
 10
59.17790318076425
 20
130.4057276612362
 30
0.0
  0
LWPOLYLINE
  5
134
330
1F
100
AcDbEntity
  8
0
  6
SLD-Сплошная
 62
     7
370
    25
100
AcDbPolyline
 90
        9
 70
   128
 43
0.0
 10
55.6711551896
 20
132.3268770545
 10
56.3552877844
 20
132.2899627076
 10
57.0131295473
 20
132.1806382646
 10
57.6193999882
 20
132.0031050024
 10
58.1508004741
 20
131.7641854249
 10
58.5869095823
 20
131.4730610773
 10
58.9109678843
 20
131.1409197051
 10
59.1105220014
 20
130.780525315
 10
59.1779031808
 20
130.4057276612
  0
ARC
  5
135
330
1F
100
AcDbEntity
  8
0
  6
SLD-Сплошная
 62
     7
370
    25
100
AcDbCircle
 10
55.6711551896
 20
148.5751898955
 30
0.0
 40
10.30000000000001
100
AcDbArc
 50
270.0
 51
0.0
  0
ARC
  5
136
330
1F
100
AcDbEntity
  8
0
  6
SLD-Сплошная
 62
     7
370
    25
100
AcDbCircle
 10
55.6711551896
 20
148.5751898955
 30
0.0
 40
10.30000000000001
100
AcDbArc
 50
0.0
 51
90.0
  0
LWPOLYLINE
  5
137
330
1F
100
AcDbEntity
  8
0
  6
SLD-Сплошная
 62
     7
370
    25
100
AcDbPolyline
 90
        9
 70
   128
 43
0.0
 10
52.1644071985
 20
130.4057276612
 10
52.2317883778
 20
130.780525315
 10
52.4313424949
 20
131.1409197051
 10
52.755400797
 20
131.4730610773
 10
53.1915099052
 20
131.7641854249
 10
53.7229103911
 20
132.0031050024
 10
54.3291808319
 20
132.1806382646
 10
54.9870225948
 20
132.2899627076
 10
55.6711551896
 20
132.3268770545
  0
SPLINE
  5
138
330
1F
100
AcDbEntity
  8
0
  6
SLD-Сплошная
 62
     7
370
    25
100
AcDbSpline
210
0.0
220
0.0
230
1.0
 70
    24
 71
     3
 72
    16
 73
    12
 74
     0
 42
0.00000001
 43
0.00000001
 40
0.0
 40
0.0
 40
0.0
 40
0.0
 40
0.5000000000000047
 40
0.5000000000000047
 40
0.7500000000000056
 40
0.7500000000000056
 40
0.8750000000000043
 40
0.8750000000000043
 40
0.9375000000000022
 40
0.9375000000000022
 40
1.0
 40
1.0
 40
1.0
 40
1.0
 10
52.16440719849033
 20
130.4057276612362
 30
0.0
 10
52.16440719849032
 20
129.255182958471
 30
0.0
 10
52.1644071984903
 20
128.3621257718414
 30
0.0
 10
52.1644071984903
 20
127.4624265602231
 30
0.0
 10
52.1644071984903
 20
127.2355764074945
 30
0.0
 10
52.1644071984903
 20
127.0083552586619
 30
0.0
 10
52.1644071984903
 20
126.951429820467
 30
0.0
 10
52.1644071984903
 20
126.8944741745088
 30
0.0
 10
52.1644071984903
 20
126.8802262798027
 30
0.0
 10
52.1644071984903
 20
126.8612250940108
 30
0.0
 10
52.1644071984903
 20
126.8564747163304
 30
0.0
 10
52.1644071984903
 20
126.85647173523
 30
0.0
  0
ARC
  5
139
330
1F
100
AcDbEntity
  8
0
  6
SLD-Сплошная
 62
     7
370
    25
100
AcDbCircle
 10
55.6711551896
 20
148.5751898955
 30
0.0
 40
22.00000000000001
100
AcDbArc
 50
189.1719345986
 51
260.8280654014
  0
SPLINE
  5
13A
330
1F
100
AcDbEntity
  8
0
  6
SLD-Сплошная
 62
     7
370
    25
100
AcDbSpline
210
0.0
220
0.0
230
1.0
 70
    24
 71
     3
 72
    16
 73
    12
 74
     0
 42
0.00000001
 43
0.00000001
 40
0.0
 40
0.0
 40
0.0
 40
0.0
 40
0.0625
 40
0.0625
 40
0.125
 40
0.125
 40
0.25
 40
0.25
 40
0.5
 40
0.5
 40
1.0
 40
1.0
 40
1.0
 40
1.0
 10
33.9524370293248
 20
145.0684419043958
 30
0.0
 10
33.95244001042543
 20
145.0684419043959
 30
0.0
 10
33.95719038810543
 20
145.0684419043959
 30
0.0
 10
33.97619157389776
 20
145.0684419043959
 30
0.0
 10
33.99043946860434
 20
145.0684419043958
 30
0.0
 10
34.04739511456045
 20
145.0684419043959
 30
0.0
 10
34.10432055275582
 20
145.0684419043959
 30
0.0
 10
34.33154170159116
 20
145.0684419043959
 30
0.0
 10
34.5583918543178
 20
145.0684419043959
 30
0.0
 10
35.4580910659363
 20
145.0684419043959
 30
0.0
 10
36.35114825256512
 20
145.0684419043959
 30
0.0
 10
37.501692955331
 20
145.0684419043959
 30
0.0
  0
LWPOLYLINE
  5
13B
330
1F
100
AcDbEntity
  8
0
  6
SLD-Сплошная
 62
     7
370
    25
100
AcDbPolyline
 90
       12
 70
   128
 43
0.0
 10
37.5016929553
 20
152.0819378867
 10
38.042943286
 20
151.9398899533
 10
38.5403447338
 20
151.5252540318
 10
38.9536007916
 20
150.8716214588
 10
39.2492319113
 20
150.0319456579
 10
39.4032878178
 20
149.0742521688
 10
39.4032878178
 20
148.0761276223
 10
39.2492319113
 20
147.1184341332
 10
38.9536007916
 20
146.2787583323
 10
38.5403447338
 20
145.6251257592
 10
38.042943286
 20
145.2104898378
 10
37.5016929553
 20
145.0684419044
  0
SPLINE
  5
13C
330
1F
100
AcDbEntity
  8
0
  6
SLD-Сплошная
 62
     7
370
    25
100
AcDbSpline
210
0.0
220
0.0
230
1.0
 70
    24
 71
     3
 72
    16
 73
    12
 74
     0
 42
0.00000001
 43
0.00000001
 40
0.0
 40
0.0
 40
0.0
 40
0.0
 40
0.5
 40
0.5
 40
0.75
 40
0.75
 40
0.875
 40
0.875
 40
0.9375
 40
0.9375
 40
1.0
 40
1.0
 40
1.0
 40
1.0
 10
37.50169295533107
 20
152.0819378866698
 30
0.0
 10
36.35114825256543
 20
152.0819378866698
 30
0.0
 10
35.45809106593816
 20
152.0819378866698
 30
0.0
 10
34.55839185431697
 20
152.0819378866698
 30
0.0
 10
34.33154170159033
 20
152.0819378866698
 30
0.0
 10
34.10432055275633
 20
152.0819378866698
 30
0.0
 10
34.04739511456146
 20
152.0819378866699
 30
0.0
 10
33.99043946860393
 20
152.0819378866698
 30
0.0
 10
33.97619157389739
 20
152.0819378866698
 30
0.0
 10
33.95719038810595
 20
152.0819378866698
 30
0.0
 10
33.95244001042527
 20
152.0819378866698
 30
0.0
 10
33.95243702932487
 20
152.0819378866698
 30
0.0
  0
ARC
  5
13D
330
1F
100
AcDbEntity
  8
0
  6
SLD-Сплошная
 62
     7
370
    25
100
AcDbCircle
 10
55.6711551896
 20
148.5751898955
 30
0.0
 40
22.00000000000006
100
AcDbArc
 50
99.1719345986
 51
170.8280654014
  0
SPLINE
  5
13E
330
1F
100
AcDbEntity
  8
0
  6
SLD-Сплошная
 62
     7
370
    25
100
AcDbSpline
210
0.0
220
0.0
230
1.0
 70
    24
 71
     3
 72
    16
 73
    12
 74
     0
 42
0.00000001
 43
0.00000001
 40
0.0
 40
0.0
 40
0.0
 40
0.0
 40
0.0625000000000016
 40
0.0625000000000016
 40
0.1250000000000032
 40
0.1250000000000032
 40
0.2500000000000033
 40
0.2500000000000033
 40
0.5000000000000032
 40
0.5000000000000032
 40
1.0
 40
1.0
 40
1.0
 40
1.0
 10
52.16440719849051
 20
170.2939080558351
 30
0.0
 10
52.16440719849051
 20
170.2939050747345
 30
0.0
 10
52.16440719849051
 20
170.2891546970541
 30
0.0
 10
52.16440719849051
 20
170.2701535112627
 30
0.0
 10
52.16440719849051
 20
170.2559056165561
 30
0.0
 10
52.16440719849051
 20
170.1989499705985
 30
0.0
 10
52.16440719849051
 20
170.1420245324046
 30
0.0
 10
52.16440719849051
 20
169.9148033835679
 30
0.0
 10
52.16440719849051
 20
169.6879532308412
 30
0.0
 10
52.16440719849051
 20
168.7882540192257
 30
0.0
 10
52.16440719849051
 20
167.8951968325938
 30
0.0
 10
52.16440719849051
 20
166.7446521298291
 30
0.0
  0
LWPOLYLINE
  5
13F
330
1F
100
AcDbEntity
  8
0
  6
SLD-Сплошная
 62
     7
370
    25
100
AcDbPolyline
 90
        9
 70
   128
 43
0.0
 10
55.6711551896
 20
164.8235027366
 10
54.9870225948
 20
164.8604170835
 10
54.3291808319
 20
164.9697415265
 10
53.7229103911
 20
165.1472747886
 10
53.1915099052
 20
165.3861943662
 10
52.755400797
 20
165.6773187137
 10
52.4313424949
 20
166.0094600859
 10
52.2317883778
 20
166.3698544761
 10
52.1644071985
 20
166.7446521298
  0
ARC
  5
140
330
1F
100
AcDbEntity
  8
0
  6
SLD-Сплошная
 62
     7
370
    25
100
AcDbCircle
 10
55.6711551896
 20
148.5751898955
 30
0.0
 40
10.30000000000008
100
AcDbArc
 50
90.0
 51
180.0
  0
ARC
  5
141
330
1F
100
AcDbEntity
  8
0
  6
SLD-Сплошная
 62
     7
370
    25
100
AcDbCircle
 10
55.6711551896
 20
148.5751898955
 30
0.0
 40
10.30000000000008
100
AcDbArc
 50
180.0
 51
270.0
  0
LWPOLYLINE
  5
142
330
1F
100
AcDbEntity
  8
0
  6
SLD-Сплошная
 62
     7
370
    25
100
AcDbPolyline
 90
       11
 70
   128
 43
0.0
 10
52.8365067164
 20
129.6027292501
 10
52.9752442878
 20
130.0826153323
 10
53.3778764017
 20
130.5155268212
 10
54.0049906217
 20
130.859087324
 10
54.7952006383
 20
131.079666745
 10
55.6711551896
 20
131.1556732335
 10
56.5471097409
 20
131.079666745
 10
57.3373197576
 20
130.859087324
 10
57.9644339775
 20
130.5155268212
 10
58.3670660915
 20
130.0826153323
 10
58.5058036628
 20
129.6027292501
  0
LWPOLYLINE
  5
143
330
1F
100
AcDbEntity
  8
0
  6
SLD-Сплошная
 62
     7
370
    25
100
AcDbPolyline
 90
       11
 70
   128
 43
0.0
 10
58.5058036628
 20
167.547650541
 10
58.3670660915
 20
167.0677644588
 10
57.9644339775
 20
166.6348529699
 10
57.3373197576
 20
166.2912924671
 10
56.5471097409
 20
166.0707130461
 10
55.6711551896
 20
165.9947065575
 10
54.7952006383
 20
166.0707130461
 10
54.0049906217
 20
166.2912924671
 10
53.3778764017
 20
166.6348529699
 10
52.9752442878
 20
167.0677644588
 10
52.8365067164
 20
167.547650541
  0
LWPOLYLINE
  5
144
330
1F
100
AcDbEntity
  8
0
  6
SLD-Сплошная
 62
     7
370
    25
100
AcDbPolyline
 90
       11
 70
   128
 43
0.0
 10
74.6436158351
 20
145.7405414223
 10
74.1637297529
 20
145.8792789937
 10
73.730818264
 20
146.2819111076
 10
73.3872577611
 20
146.9090253276
 10
73.1666783402
 20
147.6992353442
 10
73.0906718516
 20
148.5751898955
 10
73.1666783402
 20
149.4511444468
 10
73.3872577611
 20
150.2413544635
 10
73.730818264
 20
150.8684686834
 10
74.1637297529
 20
151.2711007974
 10
74.6436158351
 20
151.4098383687
  0
LWPOLYLINE
  5
145
330
1F
100
AcDbEntity
  8
0
  6
SLD-Сплошная
 62
     7
370
    25
100
AcDbPolyline
 90
       11
 70
   128
 43
0.0
 10
36.6986945442
 20
151.4098383687
 10
37.1785806264
 20
151.2711007974
 10
37.6114921153
 20
150.8684686834
 10
37.9550526181
 20
150.2413544635
 10
38.1756320391
 20
149.4511444468
 10
38.2516385276
 20
148.5751898955
 10
38.1756320391
 20
147.6992353442
 10
37.9550526181
 20
146.9090253276
 10
37.6114921153
 20
146.2819111076
 10
37.1785806264
 20
145.8792789937
 10
36.6986945442
 20
145.7405414223
  0
SPLINE
  5
146
330
1F
100
AcDbEntity
  8
0
  6
SLD-Сплошная
 62
     7
370
    25
100
AcDbSpline
210
0.0
220
0.0
230
1.0
 70
    24
 71
     3
 72
    20
 73
    16
 74
     0
 42
0.00000001
 43
0.00000001
 40
0.0
 40
0.0
 40
0.0
 40
0.0
 40
0.2500000000000016
 40
0.2500000000000016
 40
0.5000000000000031
 40
0.5000000000000031
 40
0.6250000000000039
 40
0.6250000000000039
 40
0.6562500000000036
 40
0.6562500000000036
 40
0.6875000000000031
 40
0.6875000000000031
 40
0.7500000000000026
 40
0.7500000000000026
 40
1.0
 40
1.0
 40
1.0
 40
1.0
 10
74.64361583509061
 20
151.4098383687213
 30
0.0
 10
75.57149533516456
 20
151.4098383687213
 30
0.0
 10
76.33899463329628
 20
151.4098383687213
 30
0.0
 10
77.51881745986672
 20
151.4098383687212
 30
0.0
 10
77.92993755147923
 20
151.4098383687212
 30
0.0
 10
78.26387305301478
 20
151.4098383687212
 30
0.0
 10
78.32821430938226
 20
151.4098383687212
 30
0.0
 10
78.34941256759944
 20
151.4098383687212
 30
0.0
 10
78.34973148054863
 20
151.4098383687212
 30
0.0
 10
78.34973300446423
 20
151.4098383687212
 30
0.0
 10
78.34973138568441
 20
151.4098383687212
 30
0.0
 10
78.3497302636263
 20
151.4098383687212
 30
0.0
 10
78.34973093682012
 20
151.4098383687212
 30
0.0
 10
78.34973093682011
 20
151.4098383687212
 30
0.0
 10
78.34973093682012
 20
151.4098383687211
 30
0.0
 10
78.34973093682011
 20
151.4098383687211
 30
0.0
  0
SPLINE
  5
147
330
1F
100
AcDbEntity
  8
0
  6
SLD-Сплошная
 62
     7
370
    25
100
AcDbSpline
210
0.0
220
0.0
230
1.0
 70
    24
 71
     3
 72
    20
 73
    16
 74
     0
 42
0.00000001
 43
0.00000001
 40
0.0
 40
0.0
 40
0.0
 40
0.0
 40
0.2500000000000025
 40
0.2500000000000025
 40
0.500000000000005
 40
0.500000000000005
 40
0.6250000000000062
 40
0.6250000000000062
 40
0.6562500000000056
 40
0.6562500000000056
 40
0.6875000000000049
 40
0.6875000000000049
 40
0.7500000000000034
 40
0.7500000000000034
 40
1.0
 40
1.0
 40
1.0
 40
1.0
 10
74.64361583509061
 20
145.7405414223438
 30
0.0
 10
75.57149533516488
 20
145.7405414223438
 30
0.0
 10
76.33899463329865
 20
145.7405414223438
 30
0.0
 10
77.51881745986746
 20
145.7405414223437
 30
0.0
 10
77.92993755147923
 20
145.7405414223437
 30
0.0
 10
78.26387305301478
 20
145.7405414223437
 30
0.0
 10
78.32821430938226
 20
145.7405414223437
 30
0.0
 10
78.34941256759946
 20
145.7405414223437
 30
0.0
 10
78.34973148054863
 20
145.7405414223437
 30
0.0
 10
78.34973300446421
 20
145.7405414223437
 30
0.0
 10
78.34973138568441
 20
145.7405414223437
 30
0.0
 10
78.3497302636263
 20
145.7405414223437
 30
0.0
 10
78.34973093682011
 20
145.7405414223437
 30
0.0
 10
78.3497309368201
 20
145.7405414223437
 30
0.0
 10
78.3497309368201
 20
145.7405414223437
 30
0.0
 10
78.34973093682011
 20
145.7405414223436
 30
0.0
  0
SPLINE
  5
148
330
1F
100
AcDbEntity
  8
0
  6
SLD-Сплошная
 62
     7
370
    25
100
AcDbSpline
210
0.0
220
0.0
230
1.0
 70
    24
 71
     3
 72
    20
 73
    16
 74
     0
 42
0.00000001
 43
0.00000001
 40
0.0
 40
0.0
 40
0.0
 40
0.0
 40
0.2500000000000025
 40
0.2500000000000025
 40
0.500000000000005
 40
0.500000000000005
 40
0.6250000000000062
 40
0.6250000000000062
 40
0.6562500000000056
 40
0.6562500000000056
 40
0.6875000000000049
 40
0.6875000000000049
 40
0.7500000000000034
 40
0.7500000000000034
 40
1.0
 40
1.0
 40
1.0
 40
1.0
 10
58.50580366281602
 20
129.6027292500694
 30
0.0
 10
58.50580366281602
 20
128.6748497499951
 30
0.0
 10
58.50580366281601
 20
127.9073504518614
 30
0.0
 10
58.50580366281599
 20
126.7275276252926
 30
0.0
 10
58.50580366281599
 20
126.3164075336807
 30
0.0
 10
58.50580366281599
 20
125.9824720321452
 30
0.0
 10
58.50580366281599
 20
125.9181307757777
 30
0.0
 10
58.50580366281599
 20
125.8969325175605
 30
0.0
 10
58.50580366281599
 20
125.8966136046113
 30
0.0
 10
58.50580366281599
 20
125.8966120806957
 30
0.0
 10
58.50580366281599
 20
125.8966136994756
 30
0.0
 10
58.50580366281599
 20
125.8966148215336
 30
0.0
 10
58.50580366281599
 20
125.8966141483398
 30
0.0
 10
58.50580366281599
 20
125.8966141483398
 30
0.0
 10
58.50580366281599
 20
125.8966141483398
 30
0.0
 10
58.50580366281599
 20
125.8966141483398
 30
0.0
  0
SPLINE
  5
149
330
1F
100
AcDbEntity
  8
0
  6
SLD-Сплошная
 62
     7
370
    25
100
AcDbSpline
210
0.0
220
0.0
230
1.0
 70
    24
 71
     3
 72
    20
 73
    16
 74
     0
 42
0.00000001
 43
0.00000001
 40
0.0
 40
0.0
 40
0.0
 40
0.0
 40
0.2500000000000026
 40
0.2500000000000026
 40
0.5000000000000051
 40
0.5000000000000051
 40
0.6250000000000064
 40
0.6250000000000064
 40
0.6562500000000057
 40
0.6562500000000057
 40
0.687500000000005
 40
0.687500000000005
 40
0.7500000000000037
 40
0.7500000000000037
 40
1.0
 40
1.0
 40
1.0
 40
1.0
 10
52.83650671643854
 20
129.6027292500694
 30
0.0
 10
52.83650671643854
 20
128.6748497499961
 30
0.0
 10
52.83650671643852
 20
127.9073504518618
 30
0.0
 10
52.83650671643851
 20
126.7275276252924
 30
0.0
 10
52.8365067164385
 20
126.3164075336807
 30
0.0
 10
52.8365067164385
 20
125.9824720321452
 30
0.0
 10
52.8365067164385
 20
125.918130775778
 30
0.0
 10
52.8365067164385
 20
125.8969325175603
 30
0.0
 10
52.8365067164385
 20
125.8966136046114
 30
0.0
 10
52.8365067164385
 20
125.8966120806961
 30
0.0
 10
52.8365067164385
 20
125.8966136994757
 30
0.0
 10
52.8365067164385
 20
125.8966148215336
 30
0.0
 10
52.8365067164385
 20
125.8966141483399
 30
0.0
 10
52.8365067164385
 20
125.8966141483398
 30
0.0
 10
52.8365067164385
 20
125.8966141483399
 30
0.0
 10
52.8365067164385
 20
125.8966141483399
 30
0.0
  0
SPLINE
  5
14A
330
1F
100
AcDbEntity
  8
0
  6
SLD-Сплошная
 62
     7
370
    25
100
AcDbSpline
210
0.0
220
0.0
230
1.0
 70
    24
 71
     3
 72
    20
 73
    16
 74
     0
 42
0.00000001
 43
0.00000001
 40
0.0
 40
0.0
 40
0.0
 40
0.0
 40
0.2500000000000025
 40
0.2500000000000025
 40
0.500000000000005
 40
0.500000000000005
 40
0.6250000000000062
 40
0.6250000000000062
 40
0.6562500000000056
 40
0.6562500000000056
 40
0.6875000000000049
 40
0.6875000000000049
 40
0.7500000000000034
 40
0.7500000000000034
 40
1.0
 40
1.0
 40
1.0
 40
1.0
 10
36.69869454416421
 20
145.7405414223441
 30
0.0
 10
35.7708150440909
 20
145.7405414223441
 30
0.0
 10
35.00331574595661
 20
145.7405414223441
 30
0.0
 10
33.82349291938721
 20
145.7405414223441
 30
0.0
 10
33.41237282777411
 20
145.740541422344
 30
0.0
 10
33.0784373262418
 20
145.7405414223442
 30
0.0
 10
33.01409606987301
 20
145.7405414223441
 30
0.0
 10
32.99289781165549
 20
145.7405414223441
 30
0.0
 10
32.99257889870621
 20
145.7405414223441
 30
0.0
 10
32.99257737479061
 20
145.7405414223441
 30
0.0
 10
32.99257899357041
 20
145.7405414223441
 30
0.0
 10
32.99258011562856
 20
145.7405414223441
 30
0.0
 10
32.99257944243472
 20
145.7405414223441
 30
0.0
 10
32.99257944243472
 20
145.7405414223441
 30
0.0
 10
32.99257944243472
 20
145.740541422344
 30
0.0
 10
32.99257944243472
 20
145.740541422344
 30
0.0
  0
SPLINE
  5
14B
330
1F
100
AcDbEntity
  8
0
  6
SLD-Сплошная
 62
     7
370
    25
100
AcDbSpline
210
0.0
220
0.0
230
1.0
 70
    24
 71
     3
 72
    20
 73
    16
 74
     0
 42
0.00000001
 43
0.00000001
 40
0.0
 40
0.0
 40
0.0
 40
0.0
 40
0.2499999999999981
 40
0.2499999999999981
 40
0.4999999999999961
 40
0.4999999999999961
 40
0.6249999999999951
 40
0.6249999999999951
 40
0.6562499999999964
 40
0.6562499999999964
 40
0.6874999999999978
 40
0.6874999999999978
 40
0.7499999999999981
 40
0.7499999999999981
 40
1.0
 40
1.0
 40
1.0
 40
1.0
 10
36.69869454416426
 20
151.4098383687216
 30
0.0
 10
35.77081504409095
 20
151.4098383687216
 30
0.0
 10
35.00331574595666
 20
151.4098383687216
 30
0.0
 10
33.82349291938726
 20
151.4098383687216
 30
0.0
 10
33.41237282777626
 20
151.4098383687215
 30
0.0
 10
33.07843732623969
 20
151.4098383687217
 30
0.0
 10
33.01409606987313
 20
151.4098383687216
 30
0.0
 10
32.99289781165492
 20
151.4098383687216
 30
0.0
 10
32.99257889870643
 20
151.4098383687216
 30
0.0
 10
32.99257737479127
 20
151.4098383687216
 30
0.0
 10
32.99257899357061
 20
151.4098383687216
 30
0.0
 10
32.99258011562839
 20
151.4098383687216
 30
0.0
 10
32.99257944243476
 20
151.4098383687216
 30
0.0
 10
32.99257944243476
 20
151.4098383687216
 30
0.0
 10
32.99257944243476
 20
151.4098383687215
 30
0.0
 10
32.99257944243476
 20
151.4098383687215
 30
0.0
  0
SPLINE
  5
14C
330
1F
100
AcDbEntity
  8
0
  6
SLD-Сплошная
 62
     7
370
    25
100
AcDbSpline
210
0.0
220
0.0
230
1.0
 70
    24
 71
     3
 72
    20
 73
    16
 74
     0
 42
0.00000001
 43
0.00000001
 40
0.0
 40
0.0
 40
0.0
 40
0.0
 40
0.2499999999999959
 40
0.2499999999999959
 40
0.4999999999999919
 40
0.4999999999999919
 40
0.6249999999999909
 40
0.6249999999999909
 40
0.6562499999999916
 40
0.6562499999999916
 40
0.6874999999999923
 40
0.6874999999999923
 40
0.7499999999999938
 40
0.7499999999999938
 40
1.0
 40
1.0
 40
1.0
 40
1.0
 10
52.83650671643871
 20
167.5476505409958
 30
0.0
 10
52.83650671643872
 20
168.4755300410691
 30
0.0
 10
52.83650671643872
 20
169.2430293392034
 30
0.0
 10
52.83650671643872
 20
170.4228521657728
 30
0.0
 10
52.83650671643872
 20
170.8339722573831
 30
0.0
 10
52.83650671643872
 20
171.1679077589208
 30
0.0
 10
52.83650671643872
 20
171.2322490152876
 30
0.0
 10
52.83650671643872
 20
171.253447273505
 30
0.0
 10
52.83650671643872
 20
171.2537661864536
 30
0.0
 10
52.83650671643872
 20
171.253767710369
 30
0.0
 10
52.83650671643872
 20
171.2537660915894
 30
0.0
 10
52.83650671643872
 20
171.2537649695315
 30
0.0
 10
52.83650671643872
 20
171.2537656427252
 30
0.0
 10
52.83650671643872
 20
171.2537656427251
 30
0.0
 10
52.83650671643872
 20
171.2537656427251
 30
0.0
 10
52.83650671643872
 20
171.2537656427251
 30
0.0
  0
SPLINE
  5
14D
330
1F
100
AcDbEntity
  8
0
  6
SLD-Сплошная
 62
     7
370
    25
100
AcDbSpline
210
0.0
220
0.0
230
1.0
 70
    24
 71
     3
 72
    20
 73
    16
 74
     0
 42
0.00000001
 43
0.00000001
 40
0.0
 40
0.0
 40
0.0
 40
0.0
 40
0.249999999999997
 40
0.249999999999997
 40
0.499999999999994
 40
0.499999999999994
 40
0.6249999999999925
 40
0.6249999999999925
 40
0.6562499999999931
 40
0.6562499999999931
 40
0.6874999999999938
 40
0.6874999999999938
 40
0.749999999999995
 40
0.749999999999995
 40
1.0
 40
1.0
 40
1.0
 40
1.0
 10
58.5058036628162
 20
167.5476505409958
 30
0.0
 10
58.5058036628162
 20
168.4755300410685
 30
0.0
 10
58.50580366281621
 20
169.2430293392053
 30
0.0
 10
58.50580366281621
 20
170.4228521657737
 30
0.0
 10
58.50580366281621
 20
170.8339722573837
 30
0.0
 10
58.50580366281621
 20
171.1679077589203
 30
0.0
 10
58.50580366281621
 20
171.232249015287
 30
0.0
 10
58.50580366281621
 20
171.2534472735045
 30
0.0
 10
58.50580366281621
 20
171.2537661864537
 30
0.0
 10
58.50580366281621
 20
171.2537677103693
 30
0.0
 10
58.50580366281621
 20
171.2537660915895
 30
0.0
 10
58.50580366281621
 20
171.2537649695314
 30
0.0
 10
58.50580366281621
 20
171.2537656427252
 30
0.0
 10
58.50580366281621
 20
171.2537656427253
 30
0.0
 10
58.50580366281621
 20
171.2537656427252
 30
0.0
 10
58.50580366281621
 20
171.2537656427252
 30
0.0
  0
LINE
  5
14E
330
1F
100
AcDbEntity
  8
0
  6
SLD-Сплошная
 62
     7
370
    25
100
AcDbLine
 10
78.3497309368
 20
145.7405414223
 30
0.0
 11
77.3898733499
 21
145.0684419044
 31
0.0
  0
LINE
  5
14F
330
1F
100
AcDbEntity
  8
0
  6
SLD-Сплошная
 62
     7
370
    25
100
AcDbLine
 10
77.3898733499
 20
145.0684419044
 30
0.0
 11
77.3898732028
 21
145.0684409928
 31
0.0
  0
LINE
  5
150
330
1F
100
AcDbEntity
  8
0
  6
SLD-Сплошная
 62
     7
370
    25
100
AcDbLine
 10
77.3898733499
 20
152.0819378867
 30
0.0
 11
78.3497309368
 21
151.4098383687
 31
0.0
  0
LWPOLYLINE
  5
151
330
1F
100
AcDbEntity
  8
0
  6
SLD-Сплошная
 62
     7
370
    25
100
AcDbPolyline
 90
        2
 70
   128
 43
0.0
 10
77.3898733499
 20
152.0819378867
 10
77.3898733499
 20
152.0819378867
  0
LWPOLYLINE
  5
152
330
1F
100
AcDbEntity
  8
0
  6
SLD-Сплошная
 62
     7
370
    25
100
AcDbPolyline
 90
        2
 70
   128
 43
0.0
 10
59.1779031808
 20
126.8564717352
 10
59.1779031808
 20
126.8564717352
  0
LINE
  5
153
330
1F
100
AcDbEntity
  8
0
  6
SLD-Сплошная
 62
     7
370
    25
100
AcDbLine
 10
58.5058036628
 20
125.8966141483
 30
0.0
 11
59.1779031808
 21
126.8564717352
 31
0.0
  0
LINE
  5
154
330
1F
100
AcDbEntity
  8
0
  6
SLD-Сплошная
 62
     7
370
    25
100
AcDbLine
 10
52.8365067164
 20
125.8966141483
 30
0.0
 11
52.1644071985
 21
126.8564717352
 31
0.0
  0
LINE
  5
155
330
1F
100
AcDbEntity
  8
0
  6
SLD-Сплошная
 62
     7
370
    25
100
AcDbLine
 10
32.9925794424
 20
151.4098383687
 30
0.0
 11
33.9524370293
 21
152.0819378867
 31
0.0
  0
LWPOLYLINE
  5
156
330
1F
100
AcDbEntity
  8
0
  6
SLD-Сплошная
 62
     7
370
    25
100
AcDbPolyline
 90
        2
 70
   128
 43
0.0
 10
33.9524370293
 20
145.0684419044
 10
33.9524370293
 20
145.0684419044
  0
LINE
  5
157
330
1F
100
AcDbEntity
  8
0
  6
SLD-Сплошная
 62
     7
370
    25
100
AcDbLine
 10
32.9925794424
 20
145.7405414223
 30
0.0
 11
33.9524370293
 21
145.0684419044
 31
0.0
  0
LINE
  5
158
330
1F
100
AcDbEntity
  8
0
  6
SLD-Сплошная
 62
     7
370
    25
100
AcDbLine
 10
58.5058036628
 20
171.2537656427
 30
0.0
 11
59.1779031808
 21
170.2939080558
 31
0.0
  0
LINE
  5
159
330
1F
100
AcDbEntity
  8
0
  6
SLD-Сплошная
 62
     7
370
    25
100
AcDbLine
 10
52.1644071985
 20
170.2939080558
 30
0.0
 11
52.8365067164
 21
171.2537656427
 31
0.0
  0
LWPOLYLINE
  5
15A
330
1F
100
AcDbEntity
  8
0
  6
SLD-Сплошная
 62
     7
370
    25
100
AcDbPolyline
 90
        2
 70
   128
 43
0.0
 10
52.1644071985
 20
170.2939080558
 10
52.1644071985
 20
170.2939080558
  0
ARC
  5
15B
330
1F
100
AcDbEntity
  8
0
  6
SLD-Сплошная
 62
     7
370
    25
100
AcDbCircle
 10
55.6711551896
 20
148.5751898955
 30
0.0
 40
8.934951801230172
100
AcDbArc
 50
355.5534273277
 51
175.5534273277
  0
ARC
  5
15C
330
1F
100
AcDbEntity
  8
0
  6
SLD-Сплошная
 62
     7
370
    25
100
AcDbCircle
 10
55.6711551896
 20
148.5751898955
 30
0.0
 40
8.934951801230172
100
AcDbArc
 50
175.5534273277
 51
355.5534273277
  0
LINE
  5
15D
330
1F
100
AcDbEntity
  8
0
  6
SLD-Сплошная
 62
     7
370
    25
100
AcDbLine
 10
28.7211551896
 20
135.5156001409
 30
0.0
 11
30.8862186991
 21
131.7656001409
 31
0.0
  0
LINE
  5
15E
330
1F
100
AcDbEntity
  8
0
  6
SLD-Сплошная
 62
     7
370
    25
100
AcDbLine
 10
28.7211551896
 20
161.6347796502
 30
0.0
 11
28.7211551896
 21
135.5156001409
 31
0.0
  0
LINE
  5
15F
330
1F
100
AcDbEntity
  8
0
  6
SLD-Сплошная
 62
     7
370
    25
100
AcDbLine
 10
30.8862186991
 20
165.3847796502
 30
0.0
 11
28.7211551896
 21
161.6347796502
 31
0.0
  0
LINE
  5
160
330
1F
100
AcDbEntity
  8
0
  6
SLD-Сплошная
 62
     7
370
    25
100
AcDbLine
 10
53.5060916802
 20
178.4443694049
 30
0.0
 11
30.8862186991
 21
165.3847796502
 31
0.0
  0
LINE
  5
161
330
1F
100
AcDbEntity
  8
0
  6
SLD-Сплошная
 62
     7
370
    25
100
AcDbLine
 10
57.8362186991
 20
178.4443694049
 30
0.0
 11
53.5060916802
 21
178.4443694049
 31
0.0
  0
LINE
  5
162
330
1F
100
AcDbEntity
  8
0
  6
SLD-Сплошная
 62
     7
370
    25
100
AcDbLine
 10
57.8362186991
 20
178.4443694049
 30
0.0
 11
80.4560916802
 21
165.3847796502
 31
0.0
  0
LINE
  5
163
330
1F
100
AcDbEntity
  8
0
  6
SLD-Сплошная
 62
     7
370
    25
100
AcDbLine
 10
80.4560916802
 20
165.3847796502
 30
0.0
 11
82.6211551896
 21
161.6347796502
 31
0.0
  0
LINE
  5
164
330
1F
100
AcDbEntity
  8
0
  6
SLD-Сплошная
 62
     7
370
    25
100
AcDbLine
 10
82.6211551896
 20
161.6347796502
 30
0.0
 11
82.6211551896
 21
135.5156001409
 31
0.0
  0
LINE
  5
165
330
1F
100
AcDbEntity
  8
0
  6
SLD-Сплошная
 62
     7
370
    25
100
AcDbLine
 10
82.6211551896
 20
135.5156001409
 30
0.0
 11
80.4560916802
 21
131.7656001409
 31
0.0
  0
LINE
  5
166
330
1F
100
AcDbEntity
  8
0
  6
SLD-Сплошная
 62
     7
370
    25
100
AcDbLine
 10
80.4560916802
 20
131.7656001409
 30
0.0
 11
57.8362186991
 21
118.7060103862
 31
0.0
  0
LINE
  5
167
330
1F
100
AcDbEntity
  8
0
  6
SLD-Сплошная
 62
     7
370
    25
100
AcDbLine
 10
53.5060916802
 20
118.7060103862
 30
0.0
 11
57.8362186991
 21
118.7060103862
 31
0.0
  0
LINE
  5
168
330
1F
100
AcDbEntity
  8
0
  6
SLD-Сплошная
 62
     7
370
    25
100
AcDbLine
 10
30.8862186991
 20
131.7656001409
 30
0.0
 11
53.5060916802
 21
118.7060103862
 31
0.0
  0
ARC
  5
169
330
1F
100
AcDbEntity
  8
0
  6
SLD-Сплошная
 62
     7
370
    25
100
AcDbCircle
 10
55.6711551896
 20
148.5751898955
 30
0.0
 40
29.94754388192843
100
AcDbArc
 50
0.0
 51
25.8541736882
  0
ARC
  5
16A
330
1F
100
AcDbEntity
  8
0
  6
SLD-Сплошная
 62
     7
370
    25
100
AcDbCircle
 10
55.6711551896
 20
148.5751898955
 30
0.0
 40
29.94754388192845
100
AcDbArc
 50
334.1458263118
 51
0.0
  0
ARC
  5
16B
330
1F
100
AcDbEntity
  8
0
  6
SLD-Сплошная
 62
     7
370
    25
100
AcDbCircle
 10
55.6711551896
 20
148.5751898955
 30
0.0
 40
29.94754388192845
100
AcDbArc
 50
325.8541736882
 51
334.1458263118
  0
ARC
  5
16C
330
1F
100
AcDbEntity
  8
0
  6
SLD-Сплошная
 62
     7
370
    25
100
AcDbCircle
 10
55.6711551896
 20
148.5751898955
 30
0.0
 40
29.94754388192849
100
AcDbArc
 50
25.8541736882
 51
34.1458263118
  0
ARC
  5
16D
330
1F
100
AcDbEntity
  8
0
  6
SLD-Сплошная
 62
     7
370
    25
100
AcDbCircle
 10
55.6711551896
 20
148.5751898955
 30
0.0
 40
29.94754388192848
100
AcDbArc
 50
274.1458263118
 51
325.8541736882
  0
ARC
  5
16E
330
1F
100
AcDbEntity
  8
0
  6
SLD-Сплошная
 62
     7
370
    25
100
AcDbCircle
 10
55.6711551896
 20
148.5751898955
 30
0.0
 40
29.94754388192852
100
AcDbArc
 50
34.1458263118
 51
85.8541736882
  0
ARC
  5
16F
330
1F
100
AcDbEntity
  8
0
  6
SLD-Сплошная
 62
     7
370
    25
100
AcDbCircle
 10
55.6711551896
 20
148.5751898955
 30
0.0
 40
29.94754388192849
100
AcDbArc
 50
265.8541736882
 51
274.1458263118
  0
ARC
  5
170
330
1F
100
AcDbEntity
  8
0
  6
SLD-Сплошная
 62
     7
370
    25
100
AcDbCircle
 10
55.6711551896
 20
148.5751898955
 30
0.0
 40
29.94754388192852
100
AcDbArc
 50
85.8541736882
 51
94.1458263118
  0
ARC
  5
171
330
1F
100
AcDbEntity
  8
0
  6
SLD-Сплошная
 62
     7
370
    25
100
AcDbCircle
 10
55.6711551896
 20
148.5751898955
 30
0.0
 40
29.94754388192849
100
AcDbArc
 50
214.1458263118
 51
265.8541736882
  0
ARC
  5
172
330
1F
100
AcDbEntity
  8
0
  6
SLD-Сплошная
 62
     7
370
    25
100
AcDbCircle
 10
55.6711551896
 20
148.5751898955
 30
0.0
 40
29.94754388192851
100
AcDbArc
 50
94.1458263118
 51
145.8541736882
  0
ARC
  5
173
330
1F
100
AcDbEntity
  8
0
  6
SLD-Сплошная
 62
     7
370
    25
100
AcDbCircle
 10
55.6711551896
 20
148.5751898955
 30
0.0
 40
29.94754388192857
100
AcDbArc
 50
145.8541736882
 51
154.1458263118
  0
ARC
  5
174
330
1F
100
AcDbEntity
  8
0
  6
SLD-Сплошная
 62
     7
370
    25
100
AcDbCircle
 10
55.6711551896
 20
148.5751898955
 30
0.0
 40
29.94754388192851
100
AcDbArc
 50
205.8541736882
 51
214.1458263118
  0
ARC
  5
175
330
1F
100
AcDbEntity
  8
0
  6
SLD-Сплошная
 62
     7
370
    25
100
AcDbCircle
 10
55.6711551896
 20
148.5751898955
 30
0.0
 40
29.94754388192857
100
AcDbArc
 50
154.1458263118
 51
180.0
  0
ARC
  5
176
330
1F
100
AcDbEntity
  8
0
  6
SLD-Сплошная
 62
     7
370
    25
100
AcDbCircle
 10
55.6711551896
 20
148.5751898955
 30
0.0
 40
29.94754388192851
100
AcDbArc
 50
180.0
 51
205.8541736882
  0
CIRCLE
  5
177
330
1F
100
AcDbEntity
  8
0
  6
SLD-Сплошная
 62
     7
370
    25
100
AcDbCircle
 10
55.6711551896
 20
143.3384441583
 30
0.0
 40
2.5
  0
CIRCLE
  5
178
330
1F
100
AcDbEntity
  8
0
  6
SLD-Сплошная
 62
     7
370
    25
100
AcDbCircle
 10
55.6711551896
 20
143.3384441583
 30
0.0
 40
2.850000000000001
  0
LINE
  5
179
330
1F
100
AcDbEntity
  8
0
  6
SLD-Сплошная
 62
     7
370
    25
100
AcDbLine
 10
53.993642563
 20
143.1384441583
 30
0.0
 11
57.3486678162
 21
143.1384441583
 31
0.0
  0
ARC
  5
17A
330
1F
100
AcDbEntity
  8
0
  6
SLD-Сплошная
 62
     7
370
    25
100
AcDbCircle
 10
53.993642563
 20
143.3134441583
 30
0.0
 40
0.1750000000000114
100
AcDbArc
 50
90.0
 51
270.0
  0
LINE
  5
17B
330
1F
100
AcDbEntity
  8
0
  6
SLD-Сплошная
 62
     7
370
    25
100
AcDbLine
 10
55.4961551896
 20
143.4884441583
 30
0.0
 11
53.993642563
 21
143.4884441583
 31
0.0
  0
LINE
  5
17C
330
1F
100
AcDbEntity
  8
0
  6
SLD-Сплошная
 62
     7
370
    25
100
AcDbLine
 10
55.4961551896
 20
143.4884441583
 30
0.0
 11
55.4961551896
 21
144.0634441583
 31
0.0
  0
ARC
  5
17D
330
1F
100
AcDbEntity
  8
0
  6
SLD-Сплошная
 62
     7
370
    25
100
AcDbCircle
 10
55.6711551896
 20
144.0634441583
 30
0.0
 40
0.1750000000000043
100
AcDbArc
 50
0.0
 51
180.0
  0
LINE
  5
17E
330
1F
100
AcDbEntity
  8
0
  6
SLD-Сплошная
 62
     7
370
    25
100
AcDbLine
 10
55.8461551896
 20
144.0634441583
 30
0.0
 11
55.8461551896
 21
143.4884441583
 31
0.0
  0
LINE
  5
17F
330
1F
100
AcDbEntity
  8
0
  6
SLD-Сплошная
 62
     7
370
    25
100
AcDbLine
 10
57.3486678162
 20
143.4884441583
 30
0.0
 11
55.8461551896
 21
143.4884441583
 31
0.0
  0
ARC
  5
180
330
1F
100
AcDbEntity
  8
0
  6
SLD-Сплошная
 62
     7
370
    25
100
AcDbCircle
 10
57.3486678162
 20
143.3134441583
 30
0.0
 40
0.1750000000000114
100
AcDbArc
 50
270.0
 51
90.0
  0
ARC
  5
181
330
1F
100
AcDbEntity
  8
0
  6
SLD-Сплошная
 62
     7
370
    25
100
AcDbCircle
 10
54.693642563
 20
142.6134441583
 30
0.0
 40
0.1750000000000114
100
AcDbArc
 50
90.0
 51
270.0
  0
LINE
  5
182
330
1F
100
AcDbEntity
  8
0
  6
SLD-Сплошная
 62
     7
370
    25
100
AcDbLine
 10
56.6486678162
 20
142.7884441583
 30
0.0
 11
54.693642563
 21
142.7884441583
 31
0.0
  0
ARC
  5
183
330
1F
100
AcDbEntity
  8
0
  6
SLD-Сплошная
 62
     7
370
    25
100
AcDbCircle
 10
56.6486678162
 20
142.6134441583
 30
0.0
 40
0.1750000000000114
100
AcDbArc
 50
270.0
 51
90.0
  0
LINE
  5
184
330
1F
100
AcDbEntity
  8
0
  6
SLD-Сплошная
 62
     7
370
    25
100
AcDbLine
 10
54.693642563
 20
142.4384441583
 30
0.0
 11
56.6486678162
 21
142.4384441583
 31
0.0
  0
ARC
  5
185
330
1F
100
AcDbEntity
  8
0
  6
SLD-Сплошная
 62
     7
370
    25
100
AcDbCircle
 10
55.393642563
 20
141.9134441583
 30
0.0
 40
0.1750000000000114
100
AcDbArc
 50
90.0
 51
270.0
  0
LINE
  5
186
330
1F
100
AcDbEntity
  8
0
  6
SLD-Сплошная
 62
     7
370
    25
100
AcDbLine
 10
55.393642563
 20
142.0884441583
 30
0.0
 11
55.9486678162
 21
142.0884441583
 31
0.0
  0
ARC
  5
187
330
1F
100
AcDbEntity
  8
0
  6
SLD-Сплошная
 62
     7
370
    25
100
AcDbCircle
 10
55.9486678162
 20
141.9134441583
 30
0.0
 40
0.1750000000000114
100
AcDbArc
 50
270.0
 51
90.0
  0
LINE
  5
188
330
1F
100
AcDbEntity
  8
0
  6
SLD-Сплошная
 62
     7
370
    25
100
AcDbLine
 10
55.9486678162
 20
141.7384441583
 30
0.0
 11
55.393642563
 21
141.7384441583
 31
0.0
  0
LINE
  5
189
330
1F
100
AcDbEntity
  8
0
  6
SLD-Сплошная
 62
     7
370
    25
100
AcDbLine
 10
60.1711551896
 20
142.9301151322
 30
0.0
 11
60.1711551896
 21
148.2396038985
 31
0.0
  0
LWPOLYLINE
  5
18A
330
1F
100
AcDbEntity
  8
0
  6
SLD-Сплошная
 62
     7
370
    25
100
AcDbPolyline
 90
        3
 70
   128
 43
0.0
 10
51.1711551896
 20
142.9301151322
 10
50.0368528809
 20
142.032927511
 10
49.821331829
 20
141.8214553479
  0
LWPOLYLINE
  5
18B
330
1F
100
AcDbEntity
  8
0
  6
SLD-Сплошная
 62
     7
370
    25
100
AcDbPolyline
 90
        3
 70
   128
 43
0.0
 10
61.5209785503
 20
141.8214553479
 10
61.3054574983
 20
142.032927511
 10
60.1711551896
 20
142.9301151322
  0
LINE
  5
18C
330
1F
100
AcDbEntity
  8
0
  6
SLD-Сплошная
 62
     7
370
    25
100
AcDbLine
 10
51.1711551896
 20
148.2396038985
 30
0.0
 11
51.1711551896
 21
142.9301151322
 31
0.0
  0
LINE
  5
18D
330
1F
100
AcDbEntity
  8
0
  6
SLD-Сплошная
 62
     7
370
    25
100
AcDbLine
 10
60.1711551896
 20
148.2396038985
 30
0.0
 11
51.1711551896
 21
148.2396038985
 31
0.0
  0
LINE
  5
18E
330
1F
100
AcDbEntity
  8
0
  6
SLD-Сплошная
 62
     7
370
    25
100
AcDbLine
 10
51.8445983274
 20
156.6492735135
 30
0.0
 11
52.3113473198
 21
148.2396038985
 31
0.0
  0
LINE
  5
18F
330
1F
100
AcDbEntity
  8
0
  6
SLD-Сплошная
 62
     7
370
    25
100
AcDbLine
 10
59.0309630595
 20
148.2396038985
 30
0.0
 11
59.4977120519
 21
156.6492735135
 31
0.0
  0
ELLIPSE
  5
190
330
1F
100
AcDbEntity
  8
0
  6
SLD-Сплошная
 62
     7
370
    25
100
AcDbEllipse
 10
31.4937512884
 20
160.5238595719
 30
0.0
 11
-2.004293700431461
 21
-5.066623313622046
 31
3.552713678800501E-14
210
2.398515904167503E-15
220
6.063171577864217E-15
230
1.0
 40
0.6882429703
 41
3.82546249865925
 42
4.712388980384696
  0
ELLIPSE
  5
191
330
1F
100
AcDbEntity
  8
0
  6
SLD-Сплошная
 62
     7
370
    25
100
AcDbEllipse
 10
79.8485590908
 20
160.5238595719
 30
0.0
 11
2.004293700431461
 21
-5.066623313622046
 31
3.552713678800501E-14
210
-6.365882595186512E-16
220
6.760168425703924E-15
230
1.0
 40
0.6882429703
 41
1.570796326794883
 42
2.457722808520437
  0
ARC
  5
192
330
1F
100
AcDbEntity
  8
0
  6
SLD-Сплошная
 62
     7
370
    25
100
AcDbCircle
 10
55.6711551896
 20
116.9251898955
 30
0.0
 40
6.80000000000002
100
AcDbArc
 50
177.2355682531
 51
2.7644317469
  0
ARC
  5
193
330
1F
100
AcDbEntity
  8
0
  6
SLD-Сплошная
 62
     7
370
    25
100
AcDbCircle
 10
55.6711551896
 20
148.5751898955
 30
0.0
 40
32.05000000000002
100
AcDbArc
 50
282.2349855497
 51
257.7650144503
  0
LINE
  5
194
330
1F
100
AcDbEntity
  8
0
  6
SLD-Сплошная
 62
     7
370
    25
100
AcDbLine
 10
41.3711551896
 20
177.2581552234
 30
0.0
 11
41.3711551896
 21
197.2216664865
 31
0.0
  0
LINE
  5
195
330
1F
100
AcDbEntity
  8
0
  6
SLD-Сплошная
 62
     7
370
    25
100
AcDbLine
 10
45.3711551896
 20
197.2216664865
 30
0.0
 11
45.3711551896
 21
189.2252079669
 31
0.0
  0
LINE
  5
196
330
1F
100
AcDbEntity
  8
0
  6
SLD-Сплошная
 62
     7
370
    25
100
AcDbLine
 10
65.9711551896
 20
189.2252079669
 30
0.0
 11
45.3711551896
 21
189.2252079669
 31
0.0
  0
LINE
  5
197
330
1F
100
AcDbEntity
  8
0
  6
SLD-Сплошная
 62
     7
370
    25
100
AcDbLine
 10
65.9711551896
 20
189.2252079669
 30
0.0
 11
65.9711551896
 21
197.2216664865
 31
0.0
  0
LINE
  5
198
330
1F
100
AcDbEntity
  8
0
  6
SLD-Сплошная
 62
     7
370
    25
100
AcDbLine
 10
69.9711551896
 20
177.2581552234
 30
0.0
 11
69.9711551896
 21
197.2216664865
 31
0.0
  0
LINE
  5
199
330
1F
100
AcDbEntity
  8
0
  6
SLD-Сплошная
 62
     7
370
    25
100
AcDbLine
 10
65.9711551896
 20
197.2216664865
 30
0.0
 11
65.9711551896
 21
198.0251898955
 31
0.0
  0
LINE
  5
19A
330
1F
100
AcDbEntity
  8
0
  6
SLD-Сплошная
 62
     7
370
    25
100
AcDbLine
 10
69.9711551896
 20
197.2216664865
 30
0.0
 11
69.9711551896
 21
198.0251898955
 31
0.0
  0
LINE
  5
19B
330
1F
100
AcDbEntity
  8
0
  6
SLD-Сплошная
 62
     7
370
    25
100
AcDbLine
 10
45.3711551896
 20
198.0251898955
 30
0.0
 11
45.3711551896
 21
197.2216664865
 31
0.0
  0
LINE
  5
19C
330
1F
100
AcDbEntity
  8
0
  6
SLD-Сплошная
 62
     7
370
    25
100
AcDbLine
 10
41.3711551896
 20
197.2216664865
 30
0.0
 11
41.3711551896
 21
198.0251898955
 31
0.0
  0
LINE
  5
19D
330
1F
100
AcDbEntity
  8
0
  6
SLD-Сплошная
 62
     7
370
    25
100
AcDbLine
 10
377.658426295
 20
198.0251898955
 30
0.0
 11
373.658426295
 21
198.0251898955
 31
0.0
  0
LINE
  5
19E
330
1F
100
AcDbEntity
  8
0
  6
SLD-Сплошная
 62
     7
370
    25
100
AcDbLine
 10
350.858426295
 20
198.0251898955
 30
0.0
 11
349.058426295
 21
198.0251898955
 31
0.0
  0
LINE
  5
19F
330
1F
100
AcDbEntity
  8
0
  6
SLD-Сплошная
 62
     7
370
    25
100
AcDbLine
 10
353.358426295
 20
185.3561061908
 30
0.0
 11
353.358426295
 21
173.5751898955
 31
0.0
  0
LINE
  5
1A0
330
1F
100
AcDbEntity
  8
0
  6
SLD-Сплошная
 62
     7
370
    25
100
AcDbLine
 10
358.358426295
 20
185.3561061908
 30
0.0
 11
358.358426295
 21
173.5751898955
 31
0.0
  0
LINE
  5
1A1
330
1F
100
AcDbEntity
  8
0
  6
SLD-Сплошная
 62
     7
370
    25
100
AcDbLine
 10
368.358426295
 20
185.3561061908
 30
0.0
 11
368.358426295
 21
173.5751898955
 31
0.0
  0
LINE
  5
1A2
330
1F
100
AcDbEntity
  8
0
  6
SLD-Сплошная
 62
     7
370
    25
100
AcDbLine
 10
373.358426295
 20
185.3561061908
 30
0.0
 11
373.358426295
 21
173.5751898955
 31
0.0
  0
ARC
  5
1A3
330
1F
100
AcDbEntity
  8
0
  6
SLD-Сплошная
 62
     7
370
    25
100
AcDbCircle
 10
370.858426295
 20
173.5751898955
 30
0.0
 40
2.500000000000111
100
AcDbArc
 50
180.0
 51
201.5042037213
  0
ARC
  5
1A4
330
1F
100
AcDbEntity
  8
0
  6
SLD-Сплошная
 62
     7
370
    25
100
AcDbCircle
 10
370.858426295
 20
173.5751898955
 30
0.0
 40
2.500000000000008
100
AcDbArc
 50
305.0973078107
 51
0.0
  0
ARC
  5
1A5
330
1F
100
AcDbEntity
  8
0
  6
SLD-Сплошная
 62
     7
370
    25
100
AcDbCircle
 10
370.861921113
 20
173.5868392891
 30
0.0
 40
2.507540072267463
100
AcDbArc
 50
201.7225849308
 51
304.8789266011
  0
ARC
  5
1A6
330
1F
100
AcDbEntity
  8
0
  6
SLD-Сплошная
 62
     7
370
    25
100
AcDbCircle
 10
355.858426295
 20
173.5751898955
 30
0.0
 40
2.50000000000002
100
AcDbArc
 50
180.0
 51
234.9026921892
  0
ARC
  5
1A7
330
1F
100
AcDbEntity
  8
0
  6
SLD-Сплошная
 62
     7
370
    25
100
AcDbCircle
 10
355.858426295
 20
173.5751898955
 30
0.0
 40
2.5
100
AcDbArc
 50
338.4957962787
 51
0.0
  0
ARC
  5
1A8
330
1F
100
AcDbEntity
  8
0
  6
SLD-Сплошная
 62
     7
370
    25
100
AcDbCircle
 10
355.8549314769
 20
173.5868392891
 30
0.0
 40
2.507540072267159
100
AcDbArc
 50
235.1210733988
 51
338.2774150692
  0
LINE
  5
1A9
330
1F
100
AcDbEntity
  8
0
  6
SLD-Сплошная
 62
     7
370
    25
100
AcDbLine
 10
368.358426295
 20
113.0251898955
 30
0.0
 11
368.358426295
 21
123.5751898955
 31
0.0
  0
LINE
  5
1AA
330
1F
100
AcDbEntity
  8
0
  6
SLD-Сплошная
 62
     7
370
    25
100
AcDbLine
 10
373.358426295
 20
113.0251898955
 30
0.0
 11
373.358426295
 21
123.5751898955
 31
0.0
  0
LINE
  5
1AB
330
1F
100
AcDbEntity
  8
0
  6
SLD-Сплошная
 62
     7
370
    25
100
AcDbLine
 10
353.358426295
 20
113.0251898955
 30
0.0
 11
353.358426295
 21
123.5751898955
 31
0.0
  0
LINE
  5
1AC
330
1F
100
AcDbEntity
  8
0
  6
SLD-Сплошная
 62
     7
370
    25
100
AcDbLine
 10
358.358426295
 20
113.0251898955
 30
0.0
 11
358.358426295
 21
123.5751898955
 31
0.0
  0
ARC
  5
1AD
330
1F
100
AcDbEntity
  8
0
  6
SLD-Сплошная
 62
     7
370
    25
100
AcDbCircle
 10
355.858426295
 20
123.5751898955
 30
0.0
 40
2.500000000000083
100
AcDbArc
 50
125.0973078108
 51
180.0
  0
ARC
  5
1AE
330
1F
100
AcDbEntity
  8
0
  6
SLD-Сплошная
 62
     7
370
    25
100
AcDbCircle
 10
355.8549314769
 20
123.563540502
 30
0.0
 40
2.507540072267231
100
AcDbArc
 50
21.7225849308
 51
124.8789266012
  0
ARC
  5
1AF
330
1F
100
AcDbEntity
  8
0
  6
SLD-Сплошная
 62
     7
370
    25
100
AcDbCircle
 10
355.858426295
 20
123.5751898955
 30
0.0
 40
2.500000000000037
100
AcDbArc
 50
0.0
 51
21.5042037212
  0
ARC
  5
1B0
330
1F
100
AcDbEntity
  8
0
  6
SLD-Сплошная
 62
     7
370
    25
100
AcDbCircle
 10
370.858426295
 20
123.5751898955
 30
0.0
 40
2.50000000000009
100
AcDbArc
 50
158.4957962788
 51
180.0
  0
ARC
  5
1B1
330
1F
100
AcDbEntity
  8
0
  6
SLD-Сплошная
 62
     7
370
    25
100
AcDbCircle
 10
370.861921113
 20
123.563540502
 30
0.0
 40
2.507540072267263
100
AcDbArc
 50
55.1210733988
 51
158.2774150692
  0
ARC
  5
1B2
330
1F
100
AcDbEntity
  8
0
  6
SLD-Сплошная
 62
     7
370
    25
100
AcDbCircle
 10
370.858426295
 20
123.5751898955
 30
0.0
 40
2.500000000000083
100
AcDbArc
 50
0.0
 51
54.9026921892
  0
ARC
  5
1B3
330
1F
100
AcDbEntity
  8
0
  6
SLD-Сплошная
 62
     7
370
    25
100
AcDbCircle
 10
370.858426295
 20
113.0251898955
 30
0.0
 40
2.5
100
AcDbArc
 50
180.0
 51
0.0
  0
ARC
  5
1B4
330
1F
100
AcDbEntity
  8
0
  6
SLD-Сплошная
 62
     7
370
    25
100
AcDbCircle
 10
355.858426295
 20
113.0251898955
 30
0.0
 40
2.5
100
AcDbArc
 50
180.0
 51
0.0
  0
ARC
  5
1B5
330
1F
100
AcDbEntity
  8
0
  6
SLD-Сплошная
 62
     7
370
    25
100
AcDbCircle
 10
363.358426295
 20
148.5751898955
 30
0.0
 40
32.05000000000002
100
AcDbArc
 50
108.1805538416
 51
251.8194461584
  0
ARC
  5
1B6
330
1F
100
AcDbEntity
  8
0
  6
SLD-Сплошная
 62
     7
370
    25
100
AcDbCircle
 10
363.358426295
 20
148.5751898955
 30
0.0
 40
32.05
100
AcDbArc
 50
81.0248404589
 51
98.9751595411
  0
ARC
  5
1B7
330
1F
100
AcDbEntity
  8
0
  6
SLD-Сплошная
 62
     7
370
    25
100
AcDbCircle
 10
363.358426295
 20
148.5751898955
 30
0.0
 40
32.05000000000002
100
AcDbArc
 50
288.1805538416
 51
71.8194461584
  0
ARC
  5
1B8
330
1F
100
AcDbEntity
  8
0
  6
SLD-Сплошная
 62
     7
370
    25
100
AcDbCircle
 10
363.358426295
 20
148.5751898955
 30
0.0
 40
34.40930106822062
100
AcDbArc
 50
261.644795141
 51
278.355204859
  0
LINE
  5
1B9
330
1F
100
AcDbEntity
  8
0
  6
SLD-Сплошная
 62
     7
370
    25
100
AcDbLine
 10
353.358426295
 20
185.3561061908
 30
0.0
 11
353.358426295
 21
196.8377004244
 31
0.0
  0
LINE
  5
1BA
330
1F
100
AcDbEntity
  8
0
  6
SLD-Сплошная
 62
     7
370
    25
100
AcDbLine
 10
353.358426295
 20
196.8377004244
 30
0.0
 11
353.358426295
 21
199.1742416885
 31
0.0
  0
LINE
  5
1BB
330
1F
100
AcDbEntity
  8
0
  6
SLD-Сплошная
 62
     7
370
    25
100
AcDbLine
 10
358.358426295
 20
199.1742416885
 30
0.0
 11
353.358426295
 21
199.1742416885
 31
0.0
  0
LINE
  5
1BC
330
1F
100
AcDbEntity
  8
0
  6
SLD-Сплошная
 62
     7
370
    25
100
AcDbLine
 10
358.358426295
 20
185.3561061908
 30
0.0
 11
358.358426295
 21
199.1742416885
 31
0.0
  0
LINE
  5
1BD
330
1F
100
AcDbEntity
  8
0
  6
SLD-Сплошная
 62
     7
370
    25
100
AcDbLine
 10
373.358426295
 20
185.3561061908
 30
0.0
 11
373.358426295
 21
199.1742416885
 31
0.0
  0
LINE
  5
1BE
330
1F
100
AcDbEntity
  8
0
  6
SLD-Сплошная
 62
     7
370
    25
100
AcDbLine
 10
368.358426295
 20
185.3561061908
 30
0.0
 11
368.358426295
 21
199.1742416885
 31
0.0
  0
LINE
  5
1BF
330
1F
100
AcDbEntity
  8
0
  6
SLD-Сплошная
 62
     7
370
    25
100
AcDbLine
 10
368.358426295
 20
199.1742416885
 30
0.0
 11
373.358426295
 21
199.1742416885
 31
0.0
  0
LINE
  5
1C0
330
1F
100
AcDbEntity
  8
0
  6
SLD-Сплошная
 62
     7
370
    25
100
AcDbLine
 10
358.358426295
 20
184.0251898955
 30
0.0
 11
368.358426295
 21
184.0251898955
 31
0.0
  0
ARC
  5
1C1
330
1F
100
AcDbEntity
  8
0
  6
SLD-Сплошная
 62
     7
370
    25
100
AcDbCircle
 10
363.358426295
 20
142.8062263288
 30
0.0
 40
33.21091224697684
100
AcDbArc
 50
255.864678464
 51
284.135321536
  0
LINE
  5
1C2
330
1F
100
AcDbEntity
  8
0
  6
SLD-Сплошная
 62
     7
370
    25
100
AcDbLine
 10
350.858426295
 20
196.8377004244
 30
0.0
 11
353.358426295
 21
196.8377004244
 31
0.0
  0
LINE
  5
1C3
330
1F
100
AcDbEntity
  8
0
  6
SLD-Сплошная
 62
     7
370
    25
100
AcDbLine
 10
350.858426295
 20
196.8377004244
 30
0.0
 11
350.858426295
 21
199.1742416885
 31
0.0
  0
LINE
  5
1C4
330
1F
100
AcDbEntity
  8
0
  6
SLD-Сплошная
 62
     7
370
    25
100
AcDbLine
 10
350.858426295
 20
199.1742416885
 30
0.0
 11
353.358426295
 21
199.1742416885
 31
0.0
  0
LINE
  5
1C5
330
1F
100
AcDbEntity
  8
0
  6
SLD-Сплошная
 62
     7
370
    25
100
AcDbLine
 10
358.358426295
 20
199.1742416885
 30
0.0
 11
358.358426295
 21
199.3290706797
 31
0.0
  0
LINE
  5
1C6
330
1F
100
AcDbEntity
  8
0
  6
SLD-Сплошная
 62
     7
370
    25
100
AcDbLine
 10
368.358426295
 20
199.3290706797
 30
0.0
 11
358.358426295
 21
199.3290706797
 31
0.0
  0
LINE
  5
1C7
330
1F
100
AcDbEntity
  8
0
  6
SLD-Сплошная
 62
     7
370
    25
100
AcDbLine
 10
368.358426295
 20
199.1742416885
 30
0.0
 11
368.358426295
 21
199.3290706797
 31
0.0
  0
LINE
  5
1C8
330
1F
100
AcDbEntity
  8
0
  6
SLD-Сплошная
 62
     7
370
    25
100
AcDbLine
 10
370.358426295
 20
199.1742416885
 30
0.0
 11
370.358426295
 21
206.9963127577
 31
0.0
  0
LINE
  5
1C9
330
1F
100
AcDbEntity
  8
0
  6
SLD-Сплошная
 62
     7
370
    25
100
AcDbLine
 10
370.358426295
 20
206.9963127577
 30
0.0
 11
356.358426295
 21
206.9963127577
 31
0.0
  0
LINE
  5
1CA
330
1F
100
AcDbEntity
  8
0
  6
SLD-Сплошная
 62
     7
370
    25
100
AcDbLine
 10
356.358426295
 20
199.1742416885
 30
0.0
 11
356.358426295
 21
206.9963127577
 31
0.0
  0
LINE
  5
1CB
330
1F
100
AcDbEntity
  8
0
  6
SLD-Сплошная
 62
     7
370
    25
100
AcDbLine
 10
373.658426295
 20
193.3251898955
 30
0.0
 11
373.658426295
 21
198.0251898955
 31
0.0
  0
LINE
  5
1CC
330
1F
100
AcDbEntity
  8
0
  6
SLD-Сплошная
 62
     7
370
    25
100
AcDbLine
 10
377.658426295
 20
198.0251898955
 30
0.0
 11
377.658426295
 21
193.3251898955
 31
0.0
  0
LINE
  5
1CD
330
1F
100
AcDbEntity
  8
0
  6
SLD-Сплошная
 62
     7
370
    25
100
AcDbLine
 10
353.058426295
 20
193.3251898955
 30
0.0
 11
353.058426295
 21
178.9250251504
 31
0.0
  0
LINE
  5
1CE
330
1F
100
AcDbEntity
  8
0
  6
SLD-Сплошная
 62
     7
370
    25
100
AcDbLine
 10
349.058426295
 20
193.3251898955
 30
0.0
 11
349.058426295
 21
177.2581552234
 31
0.0
  0
LINE
  5
1CF
330
1F
100
AcDbEntity
  8
0
  6
SLD-Сплошная
 62
     7
370
    25
100
AcDbLine
 10
377.658426295
 20
193.3251898955
 30
0.0
 11
377.658426295
 21
177.2581552234
 31
0.0
  0
LINE
  5
1D0
330
1F
100
AcDbEntity
  8
0
  6
SLD-Сплошная
 62
     7
370
    25
100
AcDbLine
 10
373.658426295
 20
178.9250251504
 30
0.0
 11
373.658426295
 21
193.3251898955
 31
0.0
  0
LINE
  5
1D1
330
1F
100
AcDbEntity
  8
0
  6
SLD-Сплошная
 62
     7
370
    25
100
AcDbLine
 10
353.058426295
 20
196.8377004244
 30
0.0
 11
353.058426295
 21
193.3251898955
 31
0.0
  0
LINE
  5
1D2
330
1F
100
AcDbEntity
  8
0
  6
SLD-Сплошная
 62
     7
370
    25
100
AcDbLine
 10
349.058426295
 20
198.0251898955
 30
0.0
 11
349.058426295
 21
193.3251898955
 31
0.0
  0
LINE
  5
1D3
330
1F
100
AcDbEntity
  8
0
  6
SLD-Сплошная
 62
     7
370
    25
100
AcDbLine
 10
353.058426295
 20
187.5671328218
 30
0.0
 11
353.358426295
 21
187.5671328218
 31
0.0
  0
LINE
  5
1D4
330
1F
100
AcDbEntity
  8
0
  6
SLD-Сплошная
 62
     7
370
    25
100
AcDbLine
 10
373.358426295
 20
187.5671328218
 30
0.0
 11
373.658426295
 21
187.5671328218
 31
0.0
  0
LINE
  5
1D5
330
1F
100
AcDbEntity
  8
0
  6
SLD-Сплошная
 62
     7
370
    25
100
AcDbLine
 10
353.058426295
 20
189.2252079669
 30
0.0
 11
353.358426295
 21
189.2252079669
 31
0.0
  0
LINE
  5
1D6
330
1F
100
AcDbEntity
  8
0
  6
SLD-Сплошная
 62
     7
370
    25
100
AcDbLine
 10
373.358426295
 20
189.2252079669
 30
0.0
 11
373.658426295
 21
189.2252079669
 31
0.0
  0
LINE
  5
1D7
330
1F
100
AcDbEntity
  8
0
  6
SLD-Сплошная
 62
     7
370
    25
100
AcDbLine
 10
122.6860306781
 20
263.030068953
 30
0.0
 11
119.6860306781
 21
263.030068953
 31
0.0
  0
LINE
  5
1D8
330
1F
100
AcDbEntity
  8
0
  6
SLD-Сплошная
 62
     7
370
    25
100
AcDbLine
 10
119.6860306781
 20
249.430068953
 30
0.0
 11
122.6860306781
 21
249.430068953
 31
0.0
  0
ARC
  5
1D9
330
1F
100
AcDbEntity
  8
0
  6
SLD-Сплошная
 62
     7
370
    25
100
AcDbCircle
 10
262.6860306781
 20
256.230068953
 30
0.0
 40
150.0
100
AcDbArc
 50
167.662684676
 51
176.4505011539
  0
LWPOLYLINE
  5
1DA
330
1F
100
AcDbEntity
  8
0
  6
SLD-Сплошная
 62
     7
370
    25
100
AcDbPolyline
 90
        3
 70
   128
 43
0.0
 10
112.8020836118
 20
262.1294258517
 10
112.6860306781
 20
256.230068953
 10
112.8020836118
 20
250.3307120543
  0
ARC
  5
1DB
330
1F
100
AcDbEntity
  8
0
  6
SLD-Сплошная
 62
     7
370
    25
100
AcDbCircle
 10
262.6860306781
 20
256.230068953
 30
0.0
 40
150.0
100
AcDbArc
 50
183.5494988461
 51
192.337315324
  0
LINE
  5
1DC
330
1F
100
AcDbEntity
  8
0
  6
SLD-Сплошная
 62
     7
370
    25
100
AcDbLine
 10
116.1500368063
 20
224.180068953
 30
0.0
 11
122.6860306781
 21
224.180068953
 31
0.0
  0
LINE
  5
1DD
330
1F
100
AcDbEntity
  8
0
  6
SLD-Сплошная
 62
     7
370
    25
100
AcDbLine
 10
122.6860306781
 20
288.280068953
 30
0.0
 11
116.1500368063
 21
288.280068953
 31
0.0
  0
LINE
  5
1DE
330
1F
100
AcDbEntity
  8
0
  6
SLD-Сплошная
 62
     7
370
    25
100
AcDbLine
 10
122.6860306781
 20
249.430068953
 30
0.0
 11
175.2860306781
 21
249.430068953
 31
0.0
  0
LINE
  5
1DF
330
1F
100
AcDbEntity
  8
0
  6
SLD-Сплошная
 62
     7
370
    25
100
AcDbLine
 10
175.2860306781
 20
263.030068953
 30
0.0
 11
122.6860306781
 21
263.030068953
 31
0.0
  0
LINE
  5
1E0
330
1F
100
AcDbEntity
  8
0
  6
SLD-Сплошная
 62
     7
370
    25
100
AcDbLine
 10
137.5760306781
 20
288.280068953
 30
0.0
 11
122.6860306781
 21
288.280068953
 31
0.0
  0
LINE
  5
1E1
330
1F
100
AcDbEntity
  8
0
  6
SLD-Сплошная
 62
     7
370
    25
100
AcDbLine
 10
175.2860306781
 20
288.280068953
 30
0.0
 11
159.7326973447
 21
288.280068953
 31
0.0
  0
LINE
  5
1E2
330
1F
100
AcDbEntity
  8
0
  6
SLD-Сплошная
 62
     7
370
    25
100
AcDbLine
 10
122.6860306781
 20
224.180068953
 30
0.0
 11
175.2860306781
 21
224.180068953
 31
0.0
  0
LINE
  5
1E3
330
1F
100
AcDbEntity
  8
0
  6
SLD-Сплошная
 62
     7
370
    25
100
AcDbLine
 10
200.3703382523
 20
227.4800842344
 30
0.0
 11
204.9774833672
 21
227.5273938855
 31
0.0
  0
ARC
  5
1E4
330
1F
100
AcDbEntity
  8
0
  6
SLD-Сплошная
 62
     7
370
    25
100
AcDbCircle
 10
200.2860306781
 20
460.0421330092
 30
0.0
 40
232.5620640561955
100
AcDbArc
 50
272.1490196966
 51
277.9987919837
  0
ARC
  5
1E5
330
1F
100
AcDbEntity
  8
0
  6
SLD-Сплошная
 62
     7
370
    25
100
AcDbCircle
 10
200.2860306781
 20
460.0421330092
 30
0.0
 40
232.5620640561955
100
AcDbArc
 50
278.9216396533
 51
282.6377445265
  0
ARC
  5
1E6
330
1F
100
AcDbEntity
  8
0
  6
SLD-Сплошная
 62
     7
370
    25
100
AcDbCircle
 10
200.2860306781
 20
52.4180048968
 30
0.0
 40
232.5620640561955
100
AcDbArc
 50
77.3670933374
 51
81.0783603467
  0
ARC
  5
1E7
330
1F
100
AcDbEntity
  8
0
  6
SLD-Сплошная
 62
     7
370
    25
100
AcDbCircle
 10
200.2860306781
 20
52.4180048968
 30
0.0
 40
232.5620640561955
100
AcDbArc
 50
82.0012080163
 51
87.8509803034
  0
LINE
  5
1E8
330
1F
100
AcDbEntity
  8
0
  6
SLD-Сплошная
 62
     7
370
    25
100
AcDbLine
 10
204.9774833672
 20
284.9327440205
 30
0.0
 11
200.2860306781
 21
284.980068953
 31
0.0
  0
SPLINE
  5
1E9
330
1F
100
AcDbEntity
  8
0
  6
SLD-Сплошная
 62
     7
370
    25
100
AcDbSpline
210
0.0
220
0.0
230
1.0
 70
     8
 71
     3
 72
     9
 73
     5
 74
     0
 42
0.00000001
 43
0.00000001
 40
0.0
 40
0.0
 40
0.0
 40
0.0
 40
0.2898131504117424
 40
1.0
 40
1.0
 40
1.0
 40
1.0
 10
201.6264521498983
 20
230.4283724316493
 30
0.0
 10
201.9157391217528
 20
230.0756979845796
 30
0.0
 10
202.9139235431412
 20
228.8587951402172
 30
0.0
 10
204.0489446940154
 20
228.1248220772813
 30
0.0
 10
204.8550217893708
 20
227.6035640600322
 30
0.0
  0
SPLINE
  5
1EA
330
1F
100
AcDbEntity
  8
0
  6
SLD-Сплошная
 62
     7
370
    25
100
AcDbSpline
210
0.0
220
0.0
230
1.0
 70
     8
 71
     3
 72
     9
 73
     5
 74
     0
 42
0.00000001
 43
0.00000001
 40
0.0
 40
0.0
 40
0.0
 40
0.0
 40
0.7121223359969524
 40
1.0
 40
1.0
 40
1.0
 40
1.0
 10
204.8549071456308
 20
284.8565030929263
 30
0.0
 10
204.0488296227845
 20
284.3354995411994
 30
0.0
 10
202.9168927601137
 20
283.6038786870417
 30
0.0
 10
201.9213948137312
 20
282.3906990397704
 30
0.0
 10
201.6348131904068
 20
282.0414517168979
 30
0.0
  0
SPLINE
  5
1EB
330
1F
100
AcDbEntity
  8
0
  6
SLD-Сплошная
 62
     7
370
    25
100
AcDbSpline
210
0.0
220
0.0
230
1.0
 70
     8
 71
     3
 72
     9
 73
     5
 74
     0
 42
0.00000001
 43
0.00000001
 40
0.0
 40
0.0
 40
0.0
 40
0.0
 40
0.3543942864674549
 40
1.0
 40
1.0
 40
1.0
 40
1.0
 10
229.8790736836044
 20
231.6034732447142
 30
0.0
 10
230.1390329891189
 20
231.3657865349667
 30
0.0
 10
230.8725642999808
 20
230.695102162155
 30
0.0
 10
231.6679556325714
 20
230.2449410214091
 30
0.0
 10
232.1814648213862
 20
229.9543144169333
 30
0.0
  0
SPLINE
  5
1EC
330
1F
100
AcDbEntity
  8
0
  6
SLD-Сплошная
 62
     7
370
    25
100
AcDbSpline
210
0.0
220
0.0
230
1.0
 70
     8
 71
     3
 72
     9
 73
     5
 74
     0
 42
0.00000001
 43
0.00000001
 40
0.0
 40
0.0
 40
0.0
 40
0.0
 40
0.660097882275369
 40
1.0
 40
1.0
 40
1.0
 40
1.0
 10
232.1810759201382
 20
282.5056197674266
 30
0.0
 10
231.6674747680834
 20
282.215715246517
 30
0.0
 10
230.889406596914
 20
281.7765311062644
 30
0.0
 10
230.171805532447
 20
281.1217278544835
 30
0.0
 10
229.9278914109532
 20
280.8991588425102
 30
0.0
  0
LINE
  5
1ED
330
1F
100
AcDbEntity
  8
0
  6
SLD-Сплошная
 62
     7
370
    25
100
AcDbLine
 10
192.5970635332
 20
284.980068953
 30
0.0
 11
175.2860306781
 21
284.980068953
 31
0.0
  0
LINE
  5
1EE
330
1F
100
AcDbEntity
  8
0
  6
SLD-Сплошная
 62
     7
370
    25
100
AcDbLine
 10
200.2860306781
 20
284.980068953
 30
0.0
 11
199.6237725185
 21
284.980068953
 31
0.0
  0
LINE
  5
1EF
330
1F
100
AcDbEntity
  8
0
  6
SLD-Сплошная
 62
     7
370
    25
100
AcDbLine
 10
199.4357150203
 20
227.480068953
 30
0.0
 11
200.2860306781
 21
227.480068953
 31
0.0
  0
LINE
  5
1F0
330
1F
100
AcDbEntity
  8
0
  6
SLD-Сплошная
 62
     7
370
    25
100
AcDbLine
 10
175.2860306781
 20
227.480068953
 30
0.0
 11
193.4593327414
 21
227.480068953
 31
0.0
  0
SPLINE
  5
1F1
330
1F
100
AcDbEntity
  8
0
  6
SLD-Сплошная
 62
     7
370
    25
100
AcDbSpline
210
0.0
220
0.0
230
1.0
 70
     8
 71
     3
 72
    23
 73
    19
 74
     0
 42
0.00000001
 43
0.00000001
 40
0.0
 40
0.0
 40
0.0
 40
0.0
 40
0.0188019555498375
 40
0.0796294604291259
 40
0.1355413473799526
 40
0.1881268722387004
 40
0.243358613794892
 40
0.3015617809980503
 40
0.3698534449701935
 40
0.4431681835214326
 40
0.52233966832157
 40
0.6054043604940266
 40
0.6856140640213143
 40
0.7810467693817638
 40
0.8656562946418911
 40
0.9394646147320865
 40
0.9836811737888684
 40
1.0
 40
1.0
 40
1.0
 40
1.0
 10
177.1890963924449
 20
227.4800689529984
 30
0.0
 10
177.4727328031322
 20
227.3903444640646
 30
0.0
 10
178.6739809542202
 20
227.0103460845268
 30
0.0
 10
180.9811320912167
 20
226.6800454692514
 30
0.0
 10
183.9547229220826
 20
226.3649082416086
 30
0.0
 10
186.9628521661938
 20
226.2056138260906
 30
0.0
 10
190.1212767642218
 20
226.1129784565966
 30
0.0
 10
193.6580873674397
 20
226.072006519581
 30
0.0
 10
197.5983610821415
 20
226.0632377504245
 30
0.0
 10
201.9029430397209
 20
226.0983780451359
 30
0.0
 10
206.4670768441967
 20
226.2454377615083
 30
0.0
 10
211.1694354931377
 20
226.5083618422666
 30
0.0
 10
216.1766909025309
 20
226.9147854302982
 30
0.0
 10
221.2017465813198
 20
227.4624391784357
 30
0.0
 10
226.0861072624264
 20
228.1363587659066
 30
0.0
 10
229.9690938759338
 20
228.7799759856665
 30
0.0
 10
232.5365053369109
 20
229.2474682540296
 30
0.0
 10
233.6890820585248
 20
229.4806500613283
 30
0.0
 10
233.9997879230662
 20
229.5435100459813
 30
0.0
  0
SPLINE
  5
1F2
330
1F
100
AcDbEntity
  8
0
  6
SLD-Сплошная
 62
     7
370
    25
100
AcDbSpline
210
0.0
220
0.0
230
1.0
 70
     8
 71
     3
 72
    21
 73
    17
 74
     0
 42
0.00000001
 43
0.00000001
 40
0.0
 40
0.0
 40
0.0
 40
0.0
 40
0.0075525342133126
 40
0.1016638196151435
 40
0.2042830704836569
 40
0.3163004588659133
 40
0.4269209035283635
 40
0.5286741155799374
 40
0.6215519512259797
 40
0.7094059209191066
 40
0.7990674305547377
 40
0.8463971297444866
 40
0.8969838085327719
 40
0.9450036100634955
 40
0.981797798469233
 40
1.0
 40
1.0
 40
1.0
 40
1.0
 10
235.4316859686504
 20
229.8305909871209
 30
0.0
 10
235.5097626846736
 20
229.8462260692383
 30
0.0
 10
236.5607446398347
 20
230.0566881635706
 30
0.0
 10
238.6877980945203
 20
230.5028500724308
 30
0.0
 10
241.9528020080134
 20
231.0144849256165
 30
0.0
 10
245.3071188077854
 20
231.3959854200589
 30
0.0
 10
248.4436595527131
 20
231.6349298145745
 30
0.0
 10
251.1429786048773
 20
231.836047075216
 30
0.0
 10
253.3505952735427
 20
232.0741709360467
 30
0.0
 10
255.2742896199129
 20
232.4463924034937
 30
0.0
 10
256.8076160632644
 20
232.9956478534793
 30
0.0
 10
257.9867875953447
 20
233.6957142737646
 30
0.0
 10
258.8374664289989
 20
234.4133647295245
 30
0.0
 10
259.491404430484
 20
235.2183081891757
 30
0.0
 10
259.8813803831139
 20
235.8900892872577
 30
0.0
 10
260.026285007656
 20
236.2301028605696
 30
0.0
 10
260.0742442133731
 20
236.3426374395076
 30
0.0
  0
SPLINE
  5
1F3
330
1F
100
AcDbEntity
  8
0
  6
SLD-Сплошная
 62
     7
370
    25
100
AcDbSpline
210
0.0
220
0.0
230
1.0
 70
     8
 71
     3
 72
    21
 73
    17
 74
     0
 42
0.00000001
 43
0.00000001
 40
0.0
 40
0.0
 40
0.0
 40
0.0
 40
0.0017091884131778
 40
0.0334243950705509
 40
0.0757426412750197
 40
0.1311364759988617
 40
0.1810542165522844
 40
0.2184830863014298
 40
0.2538708597216389
 40
0.3361329149096905
 40
0.4336587443913798
 40
0.5444640698311063
 40
0.6589277101960371
 40
0.7756401937269057
 40
0.895260570193471
 40
1.0
 40
1.0
 40
1.0
 40
1.0
 10
260.0209204313572
 20
276.2411995765806
 30
0.0
 10
260.0178072489152
 20
276.251654693662
 30
0.0
 10
259.9569267520281
 20
276.4561119443308
 30
0.0
 10
259.62341415863
 20
277.0119041685355
 30
0.0
 10
259.0801632679783
 20
277.7872726038621
 30
0.0
 10
258.2652678975849
 20
278.5626538350536
 30
0.0
 10
257.3626827735603
 20
279.1501043999797
 30
0.0
 10
256.5633121129291
 20
279.5315721645185
 30
0.0
 10
255.5692913822689
 20
279.9012949210855
 30
0.0
 10
254.1086295947825
 20
280.2598552247713
 30
0.0
 10
251.9338737742387
 20
280.5508251726812
 30
0.0
 10
249.2084347907048
 20
280.762486646202
 30
0.0
 10
245.9530246899533
 20
281.0038707297501
 30
0.0
 10
242.3677292369986
 20
281.3837057607034
 30
0.0
 10
238.7667340734366
 20
281.9382630730228
 30
0.0
 10
236.456165367677
 20
282.4202898371036
 30
0.0
 10
235.3775067042108
 20
282.6453177031013
 30
0.0
  0
SPLINE
  5
1F4
330
1F
100
AcDbEntity
  8
0
  6
SLD-Сплошная
 62
     7
370
    25
100
AcDbSpline
210
0.0
220
0.0
230
1.0
 70
     8
 71
     3
 72
    22
 73
    18
 74
     0
 42
0.00000001
 43
0.00000001
 40
0.0
 40
0.0
 40
0.0
 40
0.0
 40
0.052560113146468
 40
0.1658032831995961
 40
0.277118974028605
 40
0.3820136576051363
 40
0.480617794155698
 40
0.573002852910358
 40
0.6260082220024065
 40
0.6784792860341293
 40
0.731785251971531
 40
0.7861380608451679
 40
0.8409993662605337
 40
0.8994323289443902
 40
0.9437040816627086
 40
0.9921726586339211
 40
1.0
 40
1.0
 40
1.0
 40
1.0
 10
233.8857049487771
 20
282.9357379150771
 30
0.0
 10
232.8848195870121
 20
283.1311380546086
 30
0.0
 10
229.7274808913245
 20
283.7475367404657
 30
0.0
 10
224.4104712930876
 20
284.5843030698613
 30
0.0
 10
218.0607074123237
 20
285.3691080944654
 30
0.0
 10
211.9730006645477
 20
285.9059464970978
 30
0.0
 10
206.2346054994564
 20
286.2321263324127
 30
0.0
 10
201.5122801771658
 20
286.3682214570398
 30
0.0
 10
197.6469042984377
 20
286.3935249806409
 30
0.0
 10
194.5225338939108
 20
286.391744933069
 30
0.0
 10
191.3918325643797
 20
286.3664156947754
 30
0.0
 10
188.2652624727847
 20
286.3021594522069
 30
0.0
 10
185.1346298669581
 20
286.1691867084842
 30
0.0
 10
182.3058824255129
 20
285.9497217006777
 30
0.0
 10
179.723511665591
 20
285.5829838274649
 30
0.0
 10
178.0474258963067
 20
285.2918847464458
 30
0.0
 10
177.20266784282
 20
285.0181314075576
 30
0.0
 10
177.0852133301008
 20
284.9800689529984
 30
0.0
  0
ARC
  5
1F5
330
1F
100
AcDbEntity
  8
0
  6
SLD-Сплошная
 62
     7
370
    25
100
AcDbCircle
 10
200.2860306781
 20
460.0421330092
 30
0.0
 40
232.5620640561955
100
AcDbArc
 50
284.751588602
 51
284.9511640551
  0
ARC
  5
1F6
330
1F
100
AcDbEntity
  8
0
  6
SLD-Сплошная
 62
     7
370
    25
100
AcDbCircle
 10
200.2860306781
 20
52.4180048968
 30
0.0
 40
232.5620640561955
100
AcDbArc
 50
75.0488359449
 51
75.2586437386
  0
ARC
  5
1F7
330
1F
100
AcDbEntity
  8
0
  6
SLD-Сплошная
 62
     7
370
    25
100
AcDbCircle
 10
286.7334717948
 20
256.230068953
 30
0.0
 40
21.99999999999998
100
AcDbArc
 50
312.3911339443
 51
332.0836609946
  0
ARC
  5
1F8
330
1F
100
AcDbEntity
  8
0
  6
SLD-Сплошная
 62
     7
370
    25
100
AcDbCircle
 10
286.7334717948
 20
256.230068953
 30
0.0
 40
21.99999999999995
100
AcDbArc
 50
27.9163390054
 51
47.6088660557
  0
LINE
  5
1F9
330
1F
100
AcDbEntity
  8
0
  6
SLD-Сплошная
 62
     7
370
    25
100
AcDbLine
 10
142.9130649983
 20
288.080068953
 30
0.0
 11
137.5760306781
 21
288.080068953
 31
0.0
  0
LINE
  5
1FA
330
1F
100
AcDbEntity
  8
0
  6
SLD-Сплошная
 62
     7
370
    25
100
AcDbLine
 10
147.0885586364
 20
288.080068953
 30
0.0
 11
146.0446757483
 21
288.080068953
 31
0.0
  0
LINE
  5
1FB
330
1F
100
AcDbEntity
  8
0
  6
SLD-Сплошная
 62
     7
370
    25
100
AcDbLine
 10
151.2640522745
 20
288.080068953
 30
0.0
 11
150.2201693864
 21
288.080068953
 31
0.0
  0
LINE
  5
1FC
330
1F
100
AcDbEntity
  8
0
  6
SLD-Сплошная
 62
     7
370
    25
100
AcDbLine
 10
159.7326973447
 20
288.080068953
 30
0.0
 11
154.3956630245
 21
288.080068953
 31
0.0
  0
ARC
  5
1FD
330
1F
100
AcDbEntity
  8
0
  6
SLD-Сплошная
 62
     7
370
    25
100
AcDbCircle
 10
233.9967792246
 20
233.4018453972
 30
0.0
 40
3.900000000000017
100
AcDbArc
 50
241.8185168223
 51
330.8118502745
  0
ARC
  5
1FE
330
1F
100
AcDbEntity
  8
0
  6
SLD-Сплошная
 62
     7
370
    25
100
AcDbCircle
 10
233.9967792246
 20
279.0582925088
 30
0.0
 40
3.900000000000034
100
AcDbArc
 50
29.2660278773
 51
90.0
  0
ARC
  5
1FF
330
1F
100
AcDbEntity
  8
0
  6
SLD-Сплошная
 62
     7
370
    25
100
AcDbCircle
 10
233.9967792246
 20
279.0582925088
 30
0.0
 40
3.900000000000034
100
AcDbArc
 50
90.0
 51
117.9487055285
  0
ARC
  5
200
330
1F
100
AcDbEntity
  8
0
  6
SLD-Сплошная
 62
     7
370
    25
100
AcDbCircle
 10
206.8958603654
 20
230.922954177
 30
0.0
 40
3.900000000000014
100
AcDbArc
 50
239.2770129718
 51
324.1050893997
  0
ARC
  5
201
330
1F
100
AcDbEntity
  8
0
  6
SLD-Сплошная
 62
     7
370
    25
100
AcDbCircle
 10
206.8958603654
 20
281.537183729
 30
0.0
 40
3.900000000000011
100
AcDbArc
 50
35.8058451582
 51
90.0
  0
ARC
  5
202
330
1F
100
AcDbEntity
  8
0
  6
SLD-Сплошная
 62
     7
370
    25
100
AcDbCircle
 10
206.8958603654
 20
281.537183729
 30
0.0
 40
3.899999999999977
100
AcDbArc
 50
90.0
 51
120.552183154
  0
LINE
  5
203
330
1F
100
AcDbEntity
  8
0
  6
SLD-Сплошная
 62
     7
370
    25
100
AcDbLine
 10
146.0446757483
 20
288.280068953
 30
0.0
 11
142.9130649983
 21
288.280068953
 31
0.0
  0
LINE
  5
204
330
1F
100
AcDbEntity
  8
0
  6
SLD-Сплошная
 62
     7
370
    25
100
AcDbLine
 10
150.2201693864
 20
288.280068953
 30
0.0
 11
147.0885586364
 21
288.280068953
 31
0.0
  0
LINE
  5
205
330
1F
100
AcDbEntity
  8
0
  6
SLD-Сплошная
 62
     7
370
    25
100
AcDbLine
 10
154.3956630245
 20
288.280068953
 30
0.0
 11
151.2640522745
 21
288.280068953
 31
0.0
  0
LINE
  5
206
330
1F
100
AcDbEntity
  8
0
  6
SLD-Сплошная
 62
     7
370
    25
100
AcDbLine
 10
301.5291964864
 20
238.810552291
 30
0.0
 11
301.565610205
 21
239.981756112
 31
0.0
  0
LINE
  5
207
330
1F
100
AcDbEntity
  8
0
  6
SLD-Сплошная
 62
     7
370
    25
100
AcDbLine
 10
301.565610205
 20
272.478381794
 30
0.0
 11
301.5291964864
 21
273.649585615
 31
0.0
  0
ARC
  5
208
330
1F
100
AcDbEntity
  8
0
  6
SLD-Сплошная
 62
     7
370
    25
100
AcDbCircle
 10
297.6903435069
 20
239.4984533022
 30
0.0
 40
3.900000000000002
100
AcDbArc
 50
303.1931986079
 51
349.840740668
  0
ARC
  5
209
330
1F
100
AcDbEntity
  8
0
  6
SLD-Сплошная
 62
     7
370
    25
100
AcDbCircle
 10
297.6903435069
 20
272.9616846038
 30
0.0
 40
3.900000000000003
100
AcDbArc
 50
10.159259332
 51
56.7523103784
  0
SPLINE
  5
20A
330
1F
100
AcDbEntity
  8
0
  6
SLD-Сплошная
 62
     7
370
    25
100
AcDbSpline
210
0.0
220
0.0
230
1.0
 70
     8
 71
     3
 72
    14
 73
    10
 74
     0
 42
0.00000001
 43
0.00000001
 40
0.0
 40
0.0
 40
0.0
 40
0.0
 40
0.2590389089760491
 40
0.38721449522695
 40
0.5177568502771414
 40
0.6443105763397938
 40
0.7668665689181342
 40
0.8854229200212212
 40
1.0
 40
1.0
 40
1.0
 40
1.0
 10
279.7860306780806
 20
232.3300689529984
 30
0.0
 10
281.5815363621277
 20
232.3356558359089
 30
0.0
 10
284.2654799823108
 20
232.3440071760788
 30
0.0
 10
287.8570733943519
 20
232.3050970220519
 30
0.0
 10
290.5204624025089
 20
232.5818251706103
 30
0.0
 10
293.0974047406105
 20
233.1432866582063
 30
0.0
 10
295.5164545133781
 20
233.958819433227
 30
0.0
 10
297.771108584847
 20
234.9732871974253
 30
0.0
 10
299.1495009508099
 20
235.8197706738823
 30
0.0
 10
299.8269334907256
 20
236.2357882503091
 30
0.0
  0
SPLINE
  5
20B
330
1F
100
AcDbEntity
  8
0
  6
SLD-Сплошная
 62
     7
370
    25
100
AcDbSpline
210
0.0
220
0.0
230
1.0
 70
     8
 71
     3
 72
    14
 73
    10
 74
     0
 42
0.00000001
 43
0.00000001
 40
0.0
 40
0.0
 40
0.0
 40
0.0
 40
0.1179373309070449
 40
0.257247372470476
 40
0.4179351563529662
 40
0.5525139979457723
 40
0.6966137432249627
 40
0.8427082361514786
 40
1.0
 40
1.0
 40
1.0
 40
1.0
 10
299.8269334907255
 20
276.2243496556876
 30
0.0
 10
299.1291981952161
 20
276.651678227774
 30
0.0
 10
297.6072833776663
 20
277.5837762454699
 30
0.0
 10
294.9417280224619
 20
278.7448600106882
 30
0.0
 10
292.0448272078801
 20
279.5978291294339
 30
0.0
 10
289.0292289271741
 20
280.08888883541
 30
0.0
 10
286.080285695874
 20
280.14151261606
 30
0.0
 10
282.9796365433722
 20
280.1269331628487
 30
0.0
 10
280.8764406327573
 20
280.1289982833732
 30
0.0
 10
279.7860306780806
 20
280.1300689529984
 30
0.0
  0
LINE
  5
20C
330
1F
100
AcDbEntity
  8
0
  6
SLD-Сплошная
 62
     7
370
    25
100
AcDbLine
 10
119.6860306781
 20
264.3406011264
 30
0.0
 11
119.6860306781
 21
248.1195367796
 31
0.0
  0
LINE
  5
20D
330
1F
100
AcDbEntity
  8
0
  6
SLD-Сплошная
 62
     7
370
    25
100
AcDbLine
 10
116.6860306781
 20
248.1195367796
 30
0.0
 11
116.6860306781
 21
264.3406011264
 31
0.0
  0
LINE
  5
20E
330
1F
100
AcDbEntity
  8
0
  6
SLD-Сплошная
 62
     7
370
    25
100
AcDbLine
 10
122.6860306781
 20
249.430068953
 30
0.0
 11
122.6860306781
 21
263.030068953
 31
0.0
  0
LINE
  5
20F
330
1F
100
AcDbEntity
  8
0
  6
SLD-Сплошная
 62
     7
370
    25
100
AcDbLine
 10
119.6860306781
 20
246.230068953
 30
0.0
 11
114.7224850443
 21
246.230068953
 31
0.0
  0
LINE
  5
210
330
1F
100
AcDbEntity
  8
0
  6
SLD-Сплошная
 62
     7
370
    25
100
AcDbLine
 10
116.6860306781
 20
251.230068953
 30
0.0
 11
114.7224850443
 21
251.230068953
 31
0.0
  0
LINE
  5
211
330
1F
100
AcDbEntity
  8
0
  6
SLD-Сплошная
 62
     7
370
    25
100
AcDbLine
 10
119.6860306781
 20
248.1195367796
 30
0.0
 11
119.6860306781
 21
246.230068953
 31
0.0
  0
ARC
  5
212
330
1F
100
AcDbEntity
  8
0
  6
SLD-Сплошная
 62
     7
370
    25
100
AcDbCircle
 10
114.7224850443
 20
248.730068953
 30
0.0
 40
2.5
100
AcDbArc
 50
90.0
 51
270.0
  0
LINE
  5
213
330
1F
100
AcDbEntity
  8
0
  6
SLD-Сплошная
 62
     7
370
    25
100
AcDbLine
 10
119.6860306781
 20
266.230068953
 30
0.0
 11
114.7224850443
 21
266.230068953
 31
0.0
  0
LINE
  5
214
330
1F
100
AcDbEntity
  8
0
  6
SLD-Сплошная
 62
     7
370
    25
100
AcDbLine
 10
116.6860306781
 20
261.230068953
 30
0.0
 11
114.7224850443
 21
261.230068953
 31
0.0
  0
LINE
  5
215
330
1F
100
AcDbEntity
  8
0
  6
SLD-Сплошная
 62
     7
370
    25
100
AcDbLine
 10
119.6860306781
 20
266.230068953
 30
0.0
 11
119.6860306781
 21
264.3406011264
 31
0.0
  0
ARC
  5
216
330
1F
100
AcDbEntity
  8
0
  6
SLD-Сплошная
 62
     7
370
    25
100
AcDbCircle
 10
114.7224850443
 20
263.730068953
 30
0.0
 40
2.5
100
AcDbArc
 50
90.0
 51
270.0
  0
LINE
  5
217
330
1F
100
AcDbEntity
  8
0
  6
SLD-Сплошная
 62
     7
370
    25
100
AcDbLine
 10
116.1500368063
 20
224.180068953
 30
0.0
 11
116.1500368063
 21
246.230068953
 31
0.0
  0
LINE
  5
218
330
1F
100
AcDbEntity
  8
0
  6
SLD-Сплошная
 62
     7
370
    25
100
AcDbLine
 10
116.1500368063
 20
266.230068953
 30
0.0
 11
116.1500368063
 21
288.280068953
 31
0.0
  0
LINE
  5
219
330
1F
100
AcDbEntity
  8
0
  6
SLD-Сплошная
 62
     7
370
    25
100
AcDbLine
 10
122.6860306781
 20
224.180068953
 30
0.0
 11
122.6860306781
 21
249.4405501783
 31
0.0
  0
LINE
  5
21A
330
1F
100
AcDbEntity
  8
0
  6
SLD-Сплошная
 62
     7
370
    25
100
AcDbLine
 10
122.6860306781
 20
263.0195877277
 30
0.0
 11
122.6860306781
 21
288.280068953
 31
0.0
  0
LINE
  5
21B
330
1F
100
AcDbEntity
  8
0
  6
SLD-Сплошная
 62
     7
370
    25
100
AcDbLine
 10
175.2860306781
 20
249.430068953
 30
0.0
 11
175.2860306781
 21
263.030068953
 31
0.0
  0
LINE
  5
21C
330
1F
100
AcDbEntity
  8
0
  6
SLD-Сплошная
 62
     7
370
    25
100
AcDbLine
 10
137.5760306781
 20
288.280068953
 30
0.0
 11
137.5760306781
 21
283.2380392754
 31
0.0
  0
LINE
  5
21D
330
1F
100
AcDbEntity
  8
0
  6
SLD-Сплошная
 62
     7
370
    25
100
AcDbLine
 10
137.5760306781
 20
283.2380392754
 30
0.0
 11
159.7326973447
 21
283.2380392754
 31
0.0
  0
LINE
  5
21E
330
1F
100
AcDbEntity
  8
0
  6
SLD-Сплошная
 62
     7
370
    25
100
AcDbLine
 10
159.7326973447
 20
288.280068953
 30
0.0
 11
159.7326973447
 21
283.2380392754
 31
0.0
  0
LINE
  5
21F
330
1F
100
AcDbEntity
  8
0
  6
SLD-Сплошная
 62
     7
370
    25
100
AcDbLine
 10
175.2860306781
 20
249.437982317
 30
0.0
 11
175.2860306781
 21
224.180068953
 31
0.0
  0
LINE
  5
220
330
1F
100
AcDbEntity
  8
0
  6
SLD-Сплошная
 62
     7
370
    25
100
AcDbLine
 10
175.2860306781
 20
288.280068953
 30
0.0
 11
175.2860306781
 21
263.022155589
 31
0.0
  0
LINE
  5
221
330
1F
100
AcDbEntity
  8
0
  6
SLD-Сплошная
 62
     7
370
    25
100
AcDbLine
 10
122.6860306781
 20
249.437982317
 30
0.0
 11
122.6860306781
 21
224.180068953
 31
0.0
  0
LINE
  5
222
330
1F
100
AcDbEntity
  8
0
  6
SLD-Сплошная
 62
     7
370
    25
100
AcDbLine
 10
122.6860306781
 20
288.280068953
 30
0.0
 11
122.6860306781
 21
263.022155589
 31
0.0
  0
SPLINE
  5
223
330
1F
100
AcDbEntity
  8
0
  6
SLD-Сплошная
 62
     7
370
    25
100
AcDbSpline
210
0.0
220
0.0
230
1.0
 70
     8
 71
     3
 72
    16
 73
    12
 74
     0
 42
0.00000001
 43
0.00000001
 40
0.0
 40
0.0
 40
0.0
 40
0.0
 40
0.1184434907555593
 40
0.2368985391198392
 40
0.3551927128446141
 40
0.4735140435362811
 40
0.5989439074636199
 40
0.7244080212584882
 40
0.8579418705379338
 40
0.9915042180396694
 40
1.0
 40
1.0
 40
1.0
 40
1.0
 10
222.7182891731636
 20
256.2300689529984
 30
0.0
 10
222.7442442037313
 20
254.8730889595598
 30
0.0
 10
222.7961567975351
 20
252.1589965598019
 30
0.0
 10
223.1990332713876
 20
248.1994587629939
 30
0.0
 10
223.8313788186328
 20
244.4621516728015
 30
0.0
 10
224.702523290249
 20
240.9574711034304
 30
0.0
 10
225.8002370436919
 20
237.8003990892865
 30
0.0
 10
227.1254281897419
 20
234.9978334438328
 30
0.0
 10
228.640876214677
 20
232.7779518625559
 30
0.0
 10
229.7731610304588
 20
231.5351522065143
 30
0.0
 10
230.3848871375845
 20
231.1542887736873
 30
0.0
 10
230.4214713981634
 20
231.1315112480771
 30
0.0
  0
SPLINE
  5
224
330
1F
100
AcDbEntity
  8
0
  6
SLD-Сплошная
 62
     7
370
    25
100
AcDbSpline
210
0.0
220
0.0
230
1.0
 70
     8
 71
     3
 72
    10
 73
     6
 74
     0
 42
0.00000001
 43
0.00000001
 40
0.0
 40
0.0
 40
0.0
 40
0.0
 40
0.0578912012711121
 40
0.6369614753177437
 40
0.9999999999999999
 40
0.9999999999999999
 40
0.9999999999999999
 40
0.9999999999999999
 10
237.1914240369509
 20
232.0925891490363
 30
0.0
 10
237.2056303818418
 20
232.082585115208
 30
0.0
 10
237.3619390125479
 20
231.9725133943513
 30
0.0
 10
237.5250842775195
 20
231.7779676212745
 30
0.0
 10
237.4110396757246
 20
231.5911011281256
 30
0.0
 10
237.3670929637956
 20
231.5190927400531
 30
0.0
  0
SPLINE
  5
225
330
1F
100
AcDbEntity
  8
0
  6
SLD-Сплошная
 62
     7
370
    25
100
AcDbSpline
210
0.0
220
0.0
230
1.0
 70
     8
 71
     3
 72
    28
 73
    24
 74
     0
 42
0.00000001
 43
0.00000001
 40
0.0
 40
0.0
 40
0.0
 40
0.0
 40
0.1249999999999997
 40
0.1249999999999997
 40
0.1874999999999996
 40
0.1874999999999996
 40
0.2499999999999996
 40
0.2499999999999996
 40
0.3749999999999995
 40
0.3749999999999995
 40
0.4374999999999997
 40
0.4374999999999997
 40
0.4999999999999999
 40
0.4999999999999999
 40
0.6249999999999999
 40
0.6249999999999999
 40
0.75
 40
0.75
 40
0.8125
 40
0.8125
 40
0.8749999999999999
 40
0.8749999999999999
 40
1.0
 40
1.0
 40
1.0
 40
1.0
 10
237.1872313886415
 20
232.0912550111796
 30
0.0
 10
236.6384925554441
 20
232.4637468932044
 30
0.0
 10
236.1051740174413
 20
232.9293245686329
 30
0.0
 10
235.3275819949023
 20
233.7660753012554
 30
0.0
 10
235.0721497360202
 20
234.0681612999897
 30
0.0
 10
234.5690653593417
 20
234.7197742048012
 30
0.0
 10
234.3208670165262
 20
235.0701461830148
 30
0.0
 10
233.5923158439917
 20
236.1898666259242
 30
0.0
 10
233.1335674648456
 20
237.0177385940199
 30
0.0
 10
232.4867257953472
 20
238.3826068338876
 30
0.0
 10
232.2779769811954
 20
238.858149511867
 30
0.0
 10
231.8748136703596
 20
239.8517832479917
 30
0.0
 10
231.6795956820089
 20
240.3721697908988
 30
0.0
 10
231.1227707289898
 20
241.9829431215121
 30
0.0
 10
230.791625777921
 20
243.1154373219571
 30
0.0
 10
230.2106723613595
 20
245.4978216107124
 30
0.0
 10
229.9607110266618
 20
246.7476212439956
 30
0.0
 10
229.6526153930592
 20
248.7176975429831
 30
0.0
 10
229.5621664702067
 20
249.3842896727069
 30
0.0
 10
229.407290387149
 20
250.7242646734898
 30
0.0
 10
229.3425508186978
 20
251.3996370891862
 30
0.0
 10
229.186432699181
 20
253.4418564513947
 30
0.0
 10
229.1328955320559
 20
254.8246878652135
 30
0.0
 10
229.1328955320278
 20
256.2300689529984
 30
0.0
  0
SPLINE
  5
226
330
1F
100
AcDbEntity
  8
0
  6
SLD-Сплошная
 62
     7
370
    25
100
AcDbSpline
210
0.0
220
0.0
230
1.0
 70
     8
 71
     3
 72
    28
 73
    24
 74
     0
 42
0.00000001
 43
0.00000001
 40
0.0
 40
0.0
 40
0.0
 40
0.0
 40
0.1250000000000001
 40
0.1250000000000001
 40
0.1875000000000002
 40
0.1875000000000002
 40
0.2500000000000003
 40
0.2500000000000003
 40
0.3750000000000006
 40
0.3750000000000006
 40
0.4375000000000006
 40
0.4375000000000006
 40
0.5000000000000006
 40
0.5000000000000006
 40
0.6250000000000003
 40
0.6250000000000003
 40
0.6875000000000003
 40
0.6875000000000003
 40
0.7500000000000002
 40
0.7500000000000002
 40
0.8750000000000002
 40
0.8750000000000002
 40
1.0
 40
1.0
 40
1.0
 40
1.0
 10
229.1328955320276
 20
256.2300689529984
 30
0.0
 10
229.1328955320557
 20
257.6351025173159
 30
0.0
 10
229.1864096604938
 20
259.0187666965696
 30
0.0
 10
229.3428303774356
 20
261.063763472698
 30
0.0
 10
229.4077263539116
 20
261.7403181816168
 30
0.0
 10
229.5630885841304
 20
263.0831473738213
 30
0.0
 10
229.6540811841545
 20
263.7525584857408
 30
0.0
 10
229.961736416267
 20
265.717568263459
 30
0.0
 10
230.212025809895
 20
266.9695404749934
 30
0.0
 10
230.6505582383701
 20
268.765357334753
 30
0.0
 10
230.8072897406184
 20
269.3502018202178
 30
0.0
 10
231.1419490457663
 20
270.4922866534341
 30
0.0
 10
231.3200731126582
 20
271.0496888868351
 30
0.0
 10
231.8760800185716
 20
272.652705705933
 30
0.0
 10
232.2784357973347
 20
273.6397482697845
 30
0.0
 10
232.9263122328439
 20
275.0041965062674
 30
0.0
 10
233.1496749631668
 20
275.4395669692921
 30
0.0
 10
233.6114568328284
 20
276.2712326214052
 30
0.0
 10
233.8496859015426
 20
276.6669084428517
 30
0.0
 10
234.5741543274349
 20
277.777018524218
 30
0.0
 10
235.0743392799696
 20
278.4220647176626
 30
0.0
 10
236.1065705999735
 20
279.5318011421687
 30
0.0
 10
236.6385897980253
 20
279.996457022466
 30
0.0
 10
237.1872313886419
 20
280.368882894816
 30
0.0
  0
SPLINE
  5
227
330
1F
100
AcDbEntity
  8
0
  6
SLD-Сплошная
 62
     7
370
    25
100
AcDbSpline
210
0.0
220
0.0
230
1.0
 70
     8
 71
     3
 72
    10
 73
     6
 74
     0
 42
0.00000001
 43
0.00000001
 40
0.0
 40
0.0
 40
0.0
 40
0.0
 40
0.2019076746504067
 40
0.7873666916164153
 40
0.9999999999999999
 40
0.9999999999999999
 40
0.9999999999999999
 40
0.9999999999999999
 10
237.3703434728179
 20
280.9417870554134
 30
0.0
 10
237.4037292661466
 20
280.9020152534761
 30
0.0
 10
237.5339217498436
 20
280.7469196526516
 30
0.0
 10
237.4204148492552
 20
280.5456907379699
 30
0.0
 10
237.2395983839185
 20
280.4050256937631
 30
0.0
 10
237.1914240035698
 20
280.3675487343016
 30
0.0
  0
SPLINE
  5
228
330
1F
100
AcDbEntity
  8
0
  6
SLD-Сплошная
 62
     7
370
    25
100
AcDbSpline
210
0.0
220
0.0
230
1.0
 70
     8
 71
     3
 72
    16
 73
    12
 74
     0
 42
0.00000001
 43
0.00000001
 40
0.0
 40
0.0
 40
0.0
 40
0.0
 40
0.0162531613382828
 40
0.1289540207195889
 40
0.2702721919156327
 40
0.4115416032223482
 40
0.5521686208779426
 40
0.6927395571475754
 40
0.8233477430271564
 40
0.9539322988806743
 40
0.9999999999999999
 40
0.9999999999999999
 40
0.9999999999999999
 40
0.9999999999999999
 10
230.2392846827937
 20
281.1701140530355
 30
0.0
 10
230.17047130606
 20
281.1255474132362
 30
0.0
 10
229.624499883984
 20
280.7719517482171
 30
0.0
 10
228.5372773425136
 20
279.5370369428645
 30
0.0
 10
227.0362263894704
 20
277.3198676940824
 30
0.0
 10
225.6115669293575
 20
274.2303696013647
 30
0.0
 10
224.4226058727393
 20
270.5547452641829
 30
0.0
 10
223.5263438286871
 20
266.4926714518489
 30
0.0
 10
222.9552278485397
 20
262.1857850238018
 30
0.0
 10
222.7372607611625
 20
258.742136502169
 30
0.0
 10
222.7222132824045
 20
256.7496684448358
 30
0.0
 10
222.7182891731636
 20
256.2300689529984
 30
0.0
  0
SPLINE
  5
229
330
1F
100
AcDbEntity
  8
0
  6
SLD-Сплошная
 62
     7
370
    25
100
AcDbSpline
210
0.0
220
0.0
230
1.0
 70
     8
 71
     3
 72
    30
 73
    26
 74
     0
 42
0.00000001
 43
0.00000001
 40
0.0
 40
0.0
 40
0.0
 40
0.0
 40
0.1249999999999999
 40
0.1249999999999999
 40
0.1874999999999998
 40
0.1874999999999998
 40
0.2499999999999998
 40
0.2499999999999998
 40
0.3749999999999998
 40
0.3749999999999998
 40
0.4374999999999996
 40
0.4374999999999996
 40
0.4687499999999995
 40
0.4687499999999995
 40
0.4999999999999993
 40
0.4999999999999993
 40
0.6249999999999994
 40
0.6249999999999994
 40
0.7499999999999996
 40
0.7499999999999996
 40
0.8124999999999996
 40
0.8124999999999996
 40
0.8749999999999997
 40
0.8749999999999997
 40
1.0
 40
1.0
 40
1.0
 40
1.0
 10
209.8593413559413
 20
283.2549022861228
 30
0.0
 10
209.2592499586239
 20
282.8163160046645
 30
0.0
 10
208.6757795119588
 20
282.2753868708708
 30
0.0
 10
207.8264558047922
 20
281.3100504481406
 30
0.0
 10
207.547656519484
 20
280.9625075339023
 30
0.0
 10
206.9988320190324
 20
280.2144752931591
 30
0.0
 10
206.7290469521844
 20
279.8140439757735
 30
0.0
 10
205.9444117468063
 20
278.5497955380553
 30
0.0
 10
205.4504251383449
 20
277.6181820170808
 30
0.0
 10
204.7538529369097
 20
276.0854935604928
 30
0.0
 10
204.5290425071482
 20
275.5519696819582
 30
0.0
 10
204.2036813468946
 20
274.716417272176
 30
0.0
 10
204.0971959311671
 20
274.4320170420502
 30
0.0
 10
203.8882163277723
 20
273.8511633690273
 30
0.0
 10
203.7855670869623
 20
273.5541996692278
 30
0.0
 10
203.2868317537578
 20
272.0524388212934
 30
0.0
 10
202.9313436016906
 20
270.788225619003
 30
0.0
 10
202.3107606629448
 20
268.1339717946486
 30
0.0
 10
202.0454647039745
 20
266.7440040181721
 30
0.0
 10
201.7177694694256
 20
264.5580517140068
 30
0.0
 10
201.6211782098124
 20
263.8176659439161
 30
0.0
 10
201.4560256429702
 20
262.3307842898612
 30
0.0
 10
201.3870596817131
 20
261.5816843053142
 30
0.0
 10
201.2212140665835
 20
259.3174605637045
 30
0.0
 10
201.1653427547948
 20
257.7855152770966
 30
0.0
 10
201.1653427547647
 20
256.2300689529986
 30
0.0
  0
SPLINE
  5
22A
330
1F
100
AcDbEntity
  8
0
  6
SLD-Сплошная
 62
     7
370
    25
100
AcDbSpline
210
0.0
220
0.0
230
1.0
 70
     8
 71
     3
 72
    10
 73
     6
 74
     0
 42
0.00000001
 43
0.00000001
 40
0.0
 40
0.0
 40
0.0
 40
0.0
 40
0.0665178634984962
 40
0.6345304004922644
 40
1.0
 40
1.0
 40
1.0
 40
1.0
 10
210.0452658667533
 20
283.8096605438685
 30
0.0
 10
210.059530376683
 20
283.7990031275876
 30
0.0
 10
210.1956030753908
 20
283.6973393899802
 30
0.0
 10
210.1319777907511
 20
283.4986924659362
 30
0.0
 10
209.9389288793884
 20
283.3229615096104
 30
0.0
 10
209.8633478847852
 20
283.2541607048406
 30
0.0
  0
SPLINE
  5
22B
330
1F
100
AcDbEntity
  8
0
  6
SLD-Сплошная
 62
     7
370
    25
100
AcDbSpline
210
0.0
220
0.0
230
1.0
 70
     8
 71
     3
 72
     9
 73
     5
 74
     0
 42
0.00000001
 43
0.00000001
 40
0.0
 40
0.0
 40
0.0
 40
0.0
 40
0.7342347950110036
 40
1.0
 40
1.0
 40
1.0
 40
1.0
 10
200.2860306780806
 20
280.3878240403811
 30
0.0
 10
200.7219086465841
 20
281.0221065605849
 30
0.0
 10
201.3155579416942
 20
281.8859753454935
 30
0.0
 10
201.9594954205164
 20
282.4620325906494
 30
0.0
 10
202.1306315965757
 20
282.6151285624937
 30
0.0
  0
LINE
  5
22C
330
1F
100
AcDbEntity
  8
0
  6
SLD-Сплошная
 62
     7
370
    25
100
AcDbLine
 10
200.2860306781
 20
284.9795647512
 30
0.0
 11
200.2860306781
 21
284.980068953
 31
0.0
  0
SPLINE
  5
22D
330
1F
100
AcDbEntity
  8
0
  6
SLD-Сплошная
 62
     7
370
    25
100
AcDbSpline
210
0.0
220
0.0
230
1.0
 70
     8
 71
     3
 72
    18
 73
    14
 74
     0
 42
0.00000001
 43
0.00000001
 40
0.0
 40
0.0
 40
0.0
 40
0.0
 40
0.1031440714290933
 40
0.2092706124217323
 40
0.3124123922978452
 40
0.4185413593593757
 40
0.5217762346552685
 40
0.6280020470948955
 40
0.7312672223276149
 40
0.8382221893822238
 40
0.9114293610485221
 40
0.9867791638751678
 40
1.0
 40
1.0
 40
1.0
 40
1.0
 10
254.516447156186
 20
256.2300689529984
 30
0.0
 10
254.5175083436098
 20
257.4664273762838
 30
0.0
 10
254.5196614032957
 20
259.9748942307415
 30
0.0
 10
254.5214150313541
 20
263.6155385029788
 30
0.0
 10
254.5157290960033
 20
267.0800107474992
 30
0.0
 10
254.5163495062508
 20
270.2079678680802
 30
0.0
 10
254.519156797658
 20
272.966757296517
 30
0.0
 10
254.5054771590552
 20
275.2327908287871
 30
0.0
 10
254.5568464885561
 20
276.9682028133487
 30
0.0
 10
253.9515345265791
 20
278.127552912222
 30
0.0
 10
252.8382775973296
 20
278.8475546741551
 30
0.0
 10
251.9306249034191
 20
279.1945640176639
 30
0.0
 10
251.2470769224014
 20
279.3185474552436
 30
0.0
 10
251.145044511351
 20
279.3370543185771
 30
0.0
  0
SPLINE
  5
22E
330
1F
100
AcDbEntity
  8
0
  6
SLD-Сплошная
 62
     7
370
    25
100
AcDbSpline
210
0.0
220
0.0
230
1.0
 70
     8
 71
     3
 72
    18
 73
    14
 74
     0
 42
0.00000001
 43
0.00000001
 40
0.0
 40
0.0
 40
0.0
 40
0.0
 40
0.0663836684815775
 40
0.1412556652993425
 40
0.2142757638293536
 40
0.289262871714321
 40
0.3940291281541949
 40
0.5017162723878239
 40
0.6067391172197352
 40
0.7149161171140004
 40
0.8181625642733941
 40
0.9243895266905177
 40
1.0
 40
1.0
 40
1.0
 40
1.0
 10
251.1657223804582
 20
233.1226093148183
 30
0.0
 10
251.6164293173886
 20
233.2359095719266
 30
0.0
 10
252.5754740596777
 20
233.4769975316987
 30
0.0
 10
253.5713287060728
 20
234.0423256963897
 30
0.0
 10
254.2498494768839
 20
234.8322396641189
 30
0.0
 10
254.5774117148671
 20
235.9879346610543
 30
0.0
 10
254.4973086458416
 20
237.6626296377013
 30
0.0
 10
254.5214457171733
 20
240.0759225733559
 30
0.0
 10
254.5153309726157
 20
242.9824997546738
 30
0.0
 10
254.5170511958276
 20
246.2371343335066
 30
0.0
 10
254.5220266664153
 20
249.7904045927438
 30
0.0
 10
254.5185183546098
 20
253.1469535795185
 30
0.0
 10
254.5170554512533
 20
255.324581650618
 30
0.0
 10
254.516447156186
 20
256.2300689529984
 30
0.0
  0
LINE
  5
22F
330
1F
100
AcDbEntity
  8
0
  6
SLD-Сплошная
 62
     7
370
    25
100
AcDbLine
 10
200.2860306781
 20
227.480068953
 30
0.0
 11
200.2860306781
 21
227.4805731548
 31
0.0
  0
SPLINE
  5
230
330
1F
100
AcDbEntity
  8
0
  6
SLD-Сплошная
 62
     7
370
    25
100
AcDbSpline
210
0.0
220
0.0
230
1.0
 70
     8
 71
     3
 72
     9
 73
     5
 74
     0
 42
0.00000001
 43
0.00000001
 40
0.0
 40
0.0
 40
0.0
 40
0.0
 40
0.4680145887919008
 40
1.0
 40
1.0
 40
1.0
 40
1.0
 10
202.1425825436964
 20
229.8311810295538
 30
0.0
 10
201.8419459668321
 20
230.1219811357444
 30
0.0
 10
201.1995801430652
 20
230.7433295149503
 30
0.0
 10
200.6032628032909
 20
231.610821033435
 30
0.0
 10
200.2860306780806
 20
232.0723138656157
 30
0.0
  0
SPLINE
  5
231
330
1F
100
AcDbEntity
  8
0
  6
SLD-Сплошная
 62
     7
370
    25
100
AcDbSpline
210
0.0
220
0.0
230
1.0
 70
     8
 71
     3
 72
     9
 73
     5
 74
     0
 42
0.00000001
 43
0.00000001
 40
0.0
 40
0.0
 40
0.0
 40
0.0
 40
0.5740971929215042
 40
1.0
 40
1.0
 40
1.0
 40
1.0
 10
209.8633478847851
 20
229.2059772011563
 30
0.0
 10
209.9847773267028
 20
229.0954622989478
 30
0.0
 10
210.196291062382
 20
228.9029602216495
 30
0.0
 10
210.0786303609965
 20
228.7279720974535
 30
0.0
 10
210.0285183379935
 20
228.653444164153
 30
0.0
  0
SPLINE
  5
232
330
1F
100
AcDbEntity
  8
0
  6
SLD-Сплошная
 62
     7
370
    25
100
AcDbSpline
210
0.0
220
0.0
230
1.0
 70
     8
 71
     3
 72
    28
 73
    24
 74
     0
 42
0.00000001
 43
0.00000001
 40
0.0
 40
0.0
 40
0.0
 40
0.0
 40
0.1250000000000003
 40
0.1250000000000003
 40
0.1875000000000004
 40
0.1875000000000004
 40
0.2500000000000006
 40
0.2500000000000006
 40
0.3750000000000008
 40
0.3750000000000008
 40
0.4375000000000009
 40
0.4375000000000009
 40
0.500000000000001
 40
0.500000000000001
 40
0.6250000000000011
 40
0.6250000000000011
 40
0.687500000000001
 40
0.687500000000001
 40
0.7500000000000008
 40
0.7500000000000008
 40
0.8750000000000003
 40
0.8750000000000003
 40
1.0
 40
1.0
 40
1.0
 40
1.0
 10
201.1653427547646
 20
256.2300689529982
 30
0.0
 10
201.1653427547946
 20
254.6777027543625
 30
0.0
 10
201.2209970246554
 20
253.1461088017917
 30
0.0
 10
201.3870172298166
 20
250.8787993620934
 30
0.0
 10
201.4561239488593
 20
250.1280652946307
 30
0.0
 10
201.6218586767255
 20
248.6367508301672
 30
0.0
 10
201.7188158596421
 20
247.8948338741879
 30
0.0
 10
202.0447870969844
 20
245.7212001211172
 30
0.0
 10
202.3098787022711
 20
244.3290494994927
 30
0.0
 10
202.7790500796998
 20
242.3237245637449
 30
0.0
 10
202.9479585346124
 20
241.6671827776911
 30
0.0
 10
203.3071385094075
 20
240.3913654118535
 30
0.0
 10
203.4963742664634
 20
239.7753832003673
 30
0.0
 10
204.090639121046
 20
237.9901239585683
 30
0.0
 10
204.522404213295
 20
236.8832569454575
 30
0.0
 10
205.2222404663248
 20
235.3443658905474
 30
0.0
 10
205.4649783046176
 20
234.8502634547977
 30
0.0
 10
205.9642555586818
 20
233.9100530466748
 30
0.0
 10
206.2195025809398
 20
233.4660220660049
 30
0.0
 10
207.0016606787076
 20
232.2090811800759
 30
0.0
 10
207.5444363117514
 20
231.4707927813671
 30
0.0
 10
208.6724218181405
 20
230.1884041036046
 30
0.0
 10
209.2601771396653
 20
229.6431442564151
 30
0.0
 10
209.8593413559412
 20
229.2052356198739
 30
0.0
  0
SPLINE
  5
233
330
1F
100
AcDbEntity
  8
0
  6
SLD-Сплошная
 62
     7
370
    25
100
AcDbSpline
210
0.0
220
0.0
230
1.0
 70
     8
 71
     3
 72
    26
 73
    22
 74
     0
 42
0.00000001
 43
0.00000001
 40
0.0
 40
0.0
 40
0.0
 40
0.0
 40
0.2499999999999999
 40
0.2499999999999999
 40
0.3124999999999997
 40
0.3124999999999997
 40
0.3749999999999994
 40
0.3749999999999994
 40
0.4999999999999993
 40
0.4999999999999993
 40
0.5624999999999994
 40
0.5624999999999994
 40
0.6249999999999996
 40
0.6249999999999996
 40
0.7499999999999998
 40
0.7499999999999998
 40
0.8749999999999999
 40
0.8749999999999999
 40
0.9375
 40
0.9375
 40
1.0
 40
1.0
 40
1.0
 40
1.0
 10
200.2860306780806
 20
232.0723138656154
 30
0.0
 10
199.4530050204692
 20
233.3323511315621
 30
0.0
 10
198.6947643371198
 20
234.8196117986
 30
0.0
 10
197.8396892370358
 20
236.9783434671754
 30
0.0
 10
197.6740012649159
 20
237.4239364967453
 30
0.0
 10
197.3567092556504
 20
238.3354145344487
 30
0.0
 10
197.2045377032939
 20
238.8023457015026
 30
0.0
 10
196.7661868044565
 20
240.2364583299985
 30
0.0
 10
196.4979103376974
 20
241.2367897836364
 30
0.0
 10
196.1313000708174
 20
242.8055226840551
 30
0.0
 10
196.0151293564814
 20
243.3398467255786
 30
0.0
 10
195.7956471381266
 20
244.4321811340892
 30
0.0
 10
195.6920854813526
 20
244.9920052495081
 30
0.0
 10
195.4070412224048
 20
246.6816276423754
 30
0.0
 10
195.2504810025866
 20
247.8284118625465
 30
0.0
 10
194.9978024250633
 20
250.1614663377226
 30
0.0
 10
194.9013519301557
 20
251.3477031857743
 30
0.0
 10
194.8020332245623
 20
253.157380930224
 30
0.0
 10
194.7765592748044
 20
253.7656799093739
 30
0.0
 10
194.7419812736477
 20
254.9928162535199
 30
0.0
 10
194.732928520571
 20
255.6119938248134
 30
0.0
 10
194.732928520564
 20
256.2300689529985
 30
0.0
  0
SPLINE
  5
234
330
1F
100
AcDbEntity
  8
0
  6
SLD-Сплошная
 62
     7
370
    25
100
AcDbSpline
210
0.0
220
0.0
230
1.0
 70
     8
 71
     3
 72
    26
 73
    22
 74
     0
 42
0.00000001
 43
0.00000001
 40
0.0
 40
0.0
 40
0.0
 40
0.0
 40
0.1250000000000005
 40
0.1250000000000005
 40
0.250000000000001
 40
0.250000000000001
 40
0.3125000000000012
 40
0.3125000000000012
 40
0.3750000000000015
 40
0.3750000000000015
 40
0.5000000000000018
 40
0.5000000000000018
 40
0.5625000000000017
 40
0.5625000000000017
 40
0.6250000000000016
 40
0.6250000000000016
 40
0.7500000000000011
 40
0.7500000000000011
 40
0.8750000000000006
 40
0.8750000000000006
 40
1.0
 40
1.0
 40
1.0
 40
1.0
 10
194.732928520564
 20
256.2300689529983
 30
0.0
 10
194.7329285205779
 20
257.4629067120589
 30
0.0
 10
194.768283077987
 20
258.6825676515671
 30
0.0
 10
194.9002179190858
 20
261.0969328879108
 30
0.0
 10
194.9968809858118
 20
262.2916285391691
 30
0.0
 10
195.1891498038046
 20
264.0646969767429
 30
0.0
 10
195.2613313636994
 20
264.6530139189218
 30
0.0
 10
195.4203435039815
 20
265.807546951968
 30
0.0
 10
195.5074846567884
 20
266.3757438119331
 30
0.0
 10
195.7915321373997
 20
268.0537627670663
 30
0.0
 10
196.0101955693965
 20
269.1372450775584
 30
0.0
 10
196.3782480971861
 20
270.7108863613078
 30
0.0
 10
196.5080965506139
 20
271.2283344398284
 30
0.0
 10
196.7792750674216
 20
272.2378479145221
 30
0.0
 10
196.9202947119001
 20
272.7290064762203
 30
0.0
 10
197.3596843386346
 20
274.1629782415373
 30
0.0
 10
197.6749409822978
 20
275.0662938681639
 30
0.0
 10
198.3505391995529
 20
276.7710644852875
 30
0.0
 10
198.7103913500397
 20
277.5741763390577
 30
0.0
 10
199.4724162846763
 20
279.0716752937259
 30
0.0
 10
199.8705993354832
 20
279.7594412668952
 30
0.0
 10
200.2860306780806
 20
280.3878240403814
 30
0.0
  0
LINE
  5
235
330
1F
100
AcDbEntity
  8
0
  6
SLD-Сплошная
 62
     7
370
    25
100
AcDbLine
 10
271.7860306781
 20
283.180068953
 30
0.0
 11
271.7860306781
 21
286.1776128349
 31
0.0
  0
LINE
  5
236
330
1F
100
AcDbEntity
  8
0
  6
SLD-Сплошная
 62
     7
370
    25
100
AcDbLine
 10
271.7860306781
 20
281.0150054435
 30
0.0
 11
271.7860306781
 21
283.180068953
 31
0.0
  0
LINE
  5
237
330
1F
100
AcDbEntity
  8
0
  6
SLD-Сплошная
 62
     7
370
    25
100
AcDbLine
 10
271.7860306781
 20
258.3951324625
 30
0.0
 11
271.7860306781
 21
281.0150054435
 31
0.0
  0
LINE
  5
238
330
1F
100
AcDbEntity
  8
0
  6
SLD-Сплошная
 62
     7
370
    25
100
AcDbLine
 10
271.7860306781
 20
254.0650054435
 30
0.0
 11
271.7860306781
 21
258.3951324625
 31
0.0
  0
LINE
  5
239
330
1F
100
AcDbEntity
  8
0
  6
SLD-Сплошная
 62
     7
370
    25
100
AcDbLine
 10
271.7860306781
 20
231.4451324625
 30
0.0
 11
271.7860306781
 21
254.0650054435
 31
0.0
  0
LINE
  5
23A
330
1F
100
AcDbEntity
  8
0
  6
SLD-Сплошная
 62
     7
370
    25
100
AcDbLine
 10
271.7860306781
 20
229.280068953
 30
0.0
 11
271.7860306781
 21
231.4451324625
 31
0.0
  0
LINE
  5
23B
330
1F
100
AcDbEntity
  8
0
  6
SLD-Сплошная
 62
     7
370
    25
100
AcDbLine
 10
271.7860306781
 20
226.2825250711
 30
0.0
 11
271.7860306781
 21
229.280068953
 31
0.0
  0
LINE
  5
23C
330
1F
100
AcDbEntity
  8
0
  6
SLD-Сплошная
 62
     7
370
    25
100
AcDbLine
 10
269.7860306781
 20
226.2825250711
 30
0.0
 11
271.7860306781
 21
226.2825250711
 31
0.0
  0
LINE
  5
23D
330
1F
100
AcDbEntity
  8
0
  6
SLD-Сплошная
 62
     7
370
    25
100
AcDbLine
 10
269.7860306781
 20
286.1776128349
 30
0.0
 11
271.7860306781
 21
286.1776128349
 31
0.0
  0
LINE
  5
23E
330
1F
100
AcDbEntity
  8
0
  6
SLD-Сплошная
 62
     7
370
    25
100
AcDbLine
 10
269.7860306781
 20
226.2825250711
 30
0.0
 11
269.7860306781
 21
286.1776128349
 31
0.0
  0
LINE
  5
23F
330
1F
100
AcDbEntity
  8
0
  6
SLD-Сплошная
 62
     7
370
    25
100
AcDbLine
 10
279.7860306781
 20
254.0650054435
 30
0.0
 11
271.7860306781
 21
254.0650054435
 31
0.0
  0
LINE
  5
240
330
1F
100
AcDbEntity
  8
0
  6
SLD-Сплошная
 62
     7
370
    25
100
AcDbLine
 10
279.7860306781
 20
231.4451324625
 30
0.0
 11
279.7860306781
 21
254.0650054435
 31
0.0
  0
LINE
  5
241
330
1F
100
AcDbEntity
  8
0
  6
SLD-Сплошная
 62
     7
370
    25
100
AcDbLine
 10
271.7860306781
 20
231.4451324625
 30
0.0
 11
279.7860306781
 21
231.4451324625
 31
0.0
  0
LINE
  5
242
330
1F
100
AcDbEntity
  8
0
  6
SLD-Сплошная
 62
     7
370
    25
100
AcDbLine
 10
271.7860306781
 20
258.3951324625
 30
0.0
 11
279.7860306781
 21
258.3951324625
 31
0.0
  0
LINE
  5
243
330
1F
100
AcDbEntity
  8
0
  6
SLD-Сплошная
 62
     7
370
    25
100
AcDbLine
 10
279.7860306781
 20
258.3951324625
 30
0.0
 11
279.7860306781
 21
254.0650054435
 31
0.0
  0
LINE
  5
244
330
1F
100
AcDbEntity
  8
0
  6
SLD-Сплошная
 62
     7
370
    25
100
AcDbLine
 10
279.7860306781
 20
281.0150054435
 30
0.0
 11
271.7860306781
 21
281.0150054435
 31
0.0
  0
LINE
  5
245
330
1F
100
AcDbEntity
  8
0
  6
SLD-Сплошная
 62
     7
370
    25
100
AcDbLine
 10
279.7860306781
 20
281.0150054435
 30
0.0
 11
279.7860306781
 21
258.3951324625
 31
0.0
  0
SPLINE
  5
246
330
1F
100
AcDbEntity
  8
0
  6
SLD-Сплошная
 62
     7
370
    25
100
AcDbSpline
210
0.0
220
0.0
230
1.0
 70
     8
 71
     3
 72
     9
 73
     5
 74
     0
 42
0.00000001
 43
0.00000001
 40
0.0
 40
0.0
 40
0.0
 40
0.0
 40
0.358295174945371
 40
0.9999999999999999
 40
0.9999999999999999
 40
0.9999999999999999
 40
0.9999999999999999
 10
193.4714527552337
 20
227.481209865809
 30
0.0
 10
194.1810125289833
 20
227.4808041801176
 30
0.0
 10
196.1613902269465
 20
227.4796719134285
 30
0.0
 10
198.1517262563288
 20
227.4801796670245
 30
0.0
 10
199.4289344898635
 20
227.480505494957
 30
0.0
  0
SPLINE
  5
247
330
1F
100
AcDbEntity
  8
0
  6
SLD-Сплошная
 62
     7
370
    25
100
AcDbSpline
210
0.0
220
0.0
230
1.0
 70
     8
 71
     3
 72
    10
 73
     6
 74
     0
 42
0.00000001
 43
0.00000001
 40
0.0
 40
0.0
 40
0.0
 40
0.0
 40
0.4459481290190673
 40
0.9975052801231183
 40
0.9999999999999999
 40
0.9999999999999999
 40
0.9999999999999999
 40
0.9999999999999999
 10
199.6150971765989
 20
284.979626801178
 30
0.0
 10
198.5890378452578
 20
284.9791778205296
 30
0.0
 10
196.2939287638862
 20
284.9781735320523
 30
0.0
 10
193.9518342504286
 20
284.9853545518998
 30
0.0
 10
192.6964614634762
 20
284.9797798054346
 30
0.0
 10
192.690808917914
 20
284.9797547041191
 30
0.0
  0
SPLINE
  5
248
330
1F
100
AcDbEntity
  8
0
  6
SLD-Сплошная
 62
     7
370
    25
100
AcDbSpline
210
0.0
220
0.0
230
1.0
 70
    24
 71
     3
 72
    20
 73
    16
 74
     0
 42
0.00000001
 43
0.00000001
 40
0.0
 40
0.0
 40
0.0
 40
0.0
 40
0.2500000000000025
 40
0.2500000000000025
 40
0.500000000000005
 40
0.500000000000005
 40
0.6250000000000062
 40
0.6250000000000062
 40
0.6562500000000056
 40
0.6562500000000056
 40
0.6875000000000049
 40
0.6875000000000049
 40
0.7500000000000034
 40
0.7500000000000034
 40
1.0
 40
1.0
 40
1.0
 40
1.0
 10
299.1577840485256
 20
253.3954204798097
 30
0.0
 10
297.7408720343695
 20
253.3954204798097
 30
0.0
 10
296.220338831897
 20
253.3954204798097
 30
0.0
 10
293.0475242105633
 20
253.3954204798098
 30
0.0
 10
291.3947392470944
 20
253.3954204798098
 30
0.0
 10
288.8788139414231
 20
253.3954204798098
 30
0.0
 10
288.0364244198065
 20
253.3954204798098
 30
0.0
 10
286.9742974932349
 20
253.3954204798098
 30
0.0
 10
286.7633537128598
 20
253.3954204798098
 30
0.0
 10
286.3508745495856
 20
253.3954204798098
 30
0.0
 10
286.1477692926515
 20
253.3954204798098
 30
0.0
 10
285.5335372093164
 20
253.3954204798098
 30
0.0
 10
285.122178051141
 20
253.3954204798098
 30
0.0
 10
283.0698136768866
 20
253.3954204798098
 30
0.0
 10
281.4279221774846
 20
253.3954204798098
 30
0.0
 10
279.7860306780806
 20
253.3954204798098
 30
0.0
  0
SPLINE
  5
249
330
1F
100
AcDbEntity
  8
0
  6
SLD-Сплошная
 62
     7
370
    25
100
AcDbSpline
210
0.0
220
0.0
230
1.0
 70
    24
 71
     3
 72
    20
 73
    16
 74
     0
 42
0.00000001
 43
0.00000001
 40
0.0
 40
0.0
 40
0.0
 40
0.0
 40
0.2500000000000026
 40
0.2500000000000026
 40
0.5000000000000051
 40
0.5000000000000051
 40
0.6250000000000064
 40
0.6250000000000064
 40
0.6562500000000057
 40
0.6562500000000057
 40
0.687500000000005
 40
0.687500000000005
 40
0.7500000000000037
 40
0.7500000000000037
 40
1.0
 40
1.0
 40
1.0
 40
1.0
 10
299.1577840485256
 20
259.0647174261873
 30
0.0
 10
297.740872034371
 20
259.0647174261873
 30
0.0
 10
296.2203388318956
 20
259.0647174261873
 30
0.0
 10
293.0475242105625
 20
259.0647174261873
 30
0.0
 10
291.3947392470946
 20
259.0647174261873
 30
0.0
 10
288.8788139414225
 20
259.0647174261873
 30
0.0
 10
288.0364244198066
 20
259.0647174261873
 30
0.0
 10
286.9742974932349
 20
259.0647174261873
 30
0.0
 10
286.7633537128598
 20
259.0647174261873
 30
0.0
 10
286.3508745495856
 20
259.0647174261873
 30
0.0
 10
286.1477692926515
 20
259.0647174261873
 30
0.0
 10
285.5335372093164
 20
259.0647174261873
 30
0.0
 10
285.122178051141
 20
259.0647174261873
 30
0.0
 10
283.0698136768866
 20
259.0647174261873
 30
0.0
 10
281.4279221774846
 20
259.0647174261873
 30
0.0
 10
279.7860306780806
 20
259.0647174261873
 30
0.0
  0
SPLINE
  5
24A
330
1F
100
AcDbEntity
  8
0
  6
SLD-Сплошная
 62
     7
370
    25
100
AcDbSpline
210
0.0
220
0.0
230
1.0
 70
     8
 71
     3
 72
    15
 73
    11
 74
     0
 42
0.00000001
 43
0.00000001
 40
0.0
 40
0.0
 40
0.0
 40
0.0
 40
0.1323508827334418
 40
0.2685453191273591
 40
0.400897795061213
 40
0.5370904483608832
 40
0.6693902225885755
 40
0.8055287289488735
 40
0.9377636704935903
 40
0.9999999999999999
 40
0.9999999999999999
 40
0.9999999999999999
 40
0.9999999999999999
 10
260.2815193672315
 20
256.2300689529984
 30
0.0
 10
260.2810364395178
 20
255.0722266506676
 30
0.0
 10
260.2800565595633
 20
252.7229175704647
 30
0.0
 10
260.2790547403699
 20
249.3135462974692
 30
0.0
 10
260.2824436449431
 20
246.0705314530875
 30
0.0
 10
260.2793510180114
 20
243.1458855282257
 30
0.0
 10
260.2883412310767
 20
240.5626036400479
 30
0.0
 10
260.2558324453229
 20
238.4685836598775
 30
0.0
 10
260.3534954431111
 20
237.0875772916336
 30
0.0
 10
260.0878074416276
 20
236.5490644787676
 30
0.0
 10
260.0027797359061
 20
236.3767250854793
 30
0.0
  0
SPLINE
  5
24B
330
1F
100
AcDbEntity
  8
0
  6
SLD-Сплошная
 62
     7
370
    25
100
AcDbSpline
210
0.0
220
0.0
230
1.0
 70
     8
 71
     3
 72
    16
 73
    12
 74
     0
 42
0.00000001
 43
0.00000001
 40
0.0
 40
0.0
 40
0.0
 40
0.0
 40
0.004507126074315
 40
0.1210569377339654
 40
0.2403705545103804
 40
0.3699437265993487
 40
0.5032104773098133
 40
0.6338369248865425
 40
0.7682473217930094
 40
0.8828582551571738
 40
1.0
 40
1.0
 40
1.0
 40
1.0
 10
260.0140008468604
 20
276.2412187024682
 30
0.0
 10
260.0224130608682
 20
276.2305010646024
 30
0.0
 10
260.2483567887679
 20
275.9426359376062
 30
0.0
 10
260.2884173896531
 20
275.0324447996855
 30
0.0
 10
260.2794697695864
 20
273.4454249386
 30
0.0
 10
260.2821277288516
 20
271.2784792928019
 30
0.0
 10
260.281225313273
 20
268.6457920148106
 30
0.0
 10
260.2815119597891
 20
265.6251589076148
 30
0.0
 10
260.2789943861998
 20
262.4910762306893
 30
0.0
 10
260.2803439226839
 20
259.3198856545565
 30
0.0
 10
260.2811247102344
 20
257.2674788275992
 30
0.0
 10
260.2815193672315
 20
256.2300689529984
 30
0.0
  0
SPLINE
  5
24C
330
1F
100
AcDbEntity
  8
0
  6
SLD-Сплошная
 62
     7
370
    25
100
AcDbSpline
210
0.0
220
0.0
230
1.0
 70
    24
 71
     3
 72
    16
 73
    12
 74
     0
 42
0.00000001
 43
0.00000001
 40
0.0
 40
0.0
 40
0.0
 40
0.0
 40
0.0624999999999987
 40
0.0624999999999987
 40
0.1249999999999973
 40
0.1249999999999973
 40
0.2499999999999977
 40
0.2499999999999977
 40
0.4999999999999984
 40
0.4999999999999984
 40
1.0
 40
1.0
 40
1.0
 40
1.0
 10
286.7334717948169
 20
252.7233209618616
 30
0.0
 10
286.9975075072662
 20
252.7233209618616
 30
0.0
 10
287.258104193712
 20
252.7233209618616
 30
0.0
 10
287.7823093742161
 20
252.7233209618616
 30
0.0
 10
288.0442190635379
 20
252.7233209618616
 30
0.0
 10
288.8288989468052
 20
252.7233209618616
 30
0.0
 10
289.350623467614
 20
252.7233209618616
 30
0.0
 10
290.9076899409287
 20
252.7233209618616
 30
0.0
 10
291.9349238188258
 20
252.7233209618616
 30
0.0
 10
294.9517075175344
 20
252.7233209618615
 30
0.0
 10
296.8750008447005
 20
252.7233209618615
 30
0.0
 10
298.631932226456
 20
252.7233209618615
 30
0.0
  0
LINE
  5
24D
330
1F
100
AcDbEntity
  8
0
  6
SLD-Сплошная
 62
     7
370
    25
100
AcDbLine
 10
279.7860306781
 20
252.7233209619
 30
0.0
 11
286.7334717948
 21
252.7233209619
 31
0.0
  0
LWPOLYLINE
  5
24E
330
1F
100
AcDbEntity
  8
0
  6
SLD-Сплошная
 62
     7
370
    25
100
AcDbPolyline
 90
        3
 70
   128
 43
0.0
 10
286.7334717948
 20
259.7368169441
 10
282.8429047695
 20
259.7368178557
 10
279.7860306781
 20
259.7368169441
  0
SPLINE
  5
24F
330
1F
100
AcDbEntity
  8
0
  6
SLD-Сплошная
 62
     7
370
    25
100
AcDbSpline
210
0.0
220
0.0
230
1.0
 70
    24
 71
     3
 72
    16
 73
    12
 74
     0
 42
0.00000001
 43
0.00000001
 40
0.0
 40
0.0
 40
0.0
 40
0.0
 40
0.5000000000000047
 40
0.5000000000000047
 40
0.7500000000000056
 40
0.7500000000000056
 40
0.8750000000000043
 40
0.8750000000000043
 40
0.9375000000000022
 40
0.9375000000000022
 40
1.0
 40
1.0
 40
1.0
 40
1.0
 10
298.631932226456
 20
259.7368169441354
 30
0.0
 10
296.8750008447001
 20
259.7368169441354
 30
0.0
 10
294.9517075175341
 20
259.7368169441355
 30
0.0
 10
291.934923818826
 20
259.7368169441355
 30
0.0
 10
290.9076899409288
 20
259.7368169441355
 30
0.0
 10
289.3506234676141
 20
259.7368169441355
 30
0.0
 10
288.8288989468054
 20
259.7368169441355
 30
0.0
 10
288.044219063538
 20
259.7368169441355
 30
0.0
 10
287.7823093742159
 20
259.7368169441355
 30
0.0
 10
287.2581041937123
 20
259.7368169441355
 30
0.0
 10
286.9975075072662
 20
259.7368169441355
 30
0.0
 10
286.7334717948169
 20
259.7368169441355
 30
0.0
  0
LINE
  5
250
330
1F
100
AcDbEntity
  8
0
  6
SLD-Сплошная
 62
     7
370
    25
100
AcDbLine
 10
260.2860306781
 20
256.230068953
 30
0.0
 11
260.2860306781
 21
235.3532066286
 31
0.0
  0
LINE
  5
251
330
1F
100
AcDbEntity
  8
0
  6
SLD-Сплошная
 62
     7
370
    25
100
AcDbLine
 10
260.2860306781
 20
277.1069312774
 30
0.0
 11
260.2860306781
 21
256.230068953
 31
0.0
  0
LINE
  5
252
330
1F
100
AcDbEntity
  8
0
  6
SLD-Сплошная
 62
     7
370
    25
100
AcDbLine
 10
298.6319322265
 20
238.0606067187
 30
0.0
 11
301.565610205
 21
239.981756112
 31
0.0
  0
SPLINE
  5
253
330
1F
100
AcDbEntity
  8
0
  6
SLD-Сплошная
 62
     7
370
    25
100
AcDbSpline
210
0.0
220
0.0
230
1.0
 70
     8
 71
     3
 72
    16
 73
    12
 74
     0
 42
0.00000001
 43
0.00000001
 40
0.0
 40
0.0
 40
0.0
 40
0.0
 40
0.4999999999999999
 40
0.4999999999999999
 40
0.7499999999999983
 40
0.7499999999999983
 40
0.8749999999999991
 40
0.8749999999999991
 40
0.9374999999999996
 40
0.9374999999999996
 40
1.0
 40
1.0
 40
1.0
 40
1.0
 10
298.6302800752413
 20
238.0631296248602
 30
0.0
 10
296.8738680093238
 20
236.9123241957003
 30
0.0
 10
294.950993303514
 20
236.0188898226625
 30
0.0
 10
291.9346345199699
 20
235.1185305861691
 30
0.0
 10
290.9075087497589
 20
234.8914449160995
 30
0.0
 10
289.350550761614
 20
234.6638586388283
 30
0.0
 10
288.8288534802248
 20
234.6068095226013
 30
0.0
 10
288.0442008615617
 20
234.5496668763182
 30
0.0
 10
287.7822979961387
 20
234.5353564011552
 30
0.0
 10
287.2581019166184
 20
234.5162298070944
 30
0.0
 10
286.9975075072721
 20
234.5114166016139
 30
0.0
 10
286.733471794823
 20
234.5113507926958
 30
0.0
  0
ARC
  5
254
330
1F
100
AcDbEntity
  8
0
  6
SLD-Сплошная
 62
     7
370
    25
100
AcDbCircle
 10
298.3174110845
 20
255.96694661
 30
0.0
 40
3.258838887367461
100
AcDbArc
 50
275.5384230883
 51
4.6311673259
  0
LINE
  5
255
330
1F
100
AcDbEntity
  8
0
  6
SLD-Сплошная
 62
     7
370
    25
100
AcDbLine
 10
306.173379202
 20
245.930068953
 30
0.0
 11
306.173379202
 21
256.230068953
 31
0.0
  0
LWPOLYLINE
  5
256
330
1F
100
AcDbEntity
  8
0
  6
SLD-Сплошная
 62
     7
370
    25
100
AcDbPolyline
 90
        3
 70
   128
 43
0.0
 10
286.7334717948
 20
234.5113507927
 10
282.8429047695
 20
234.5113509399
 10
279.7860306781
 20
234.5113507927
  0
ARC
  5
257
330
1F
100
AcDbEntity
  8
0
  6
SLD-Сплошная
 62
     7
370
    25
100
AcDbCircle
 10
298.3174110845
 20
256.493191296
 30
0.0
 40
3.258838887367264
100
AcDbArc
 50
355.3688326741
 51
84.4615769118
  0
SPLINE
  5
258
330
1F
100
AcDbEntity
  8
0
  6
SLD-Сплошная
 62
     7
370
    25
100
AcDbSpline
210
0.0
220
0.0
230
1.0
 70
     8
 71
     3
 72
    16
 73
    12
 74
     0
 42
0.00000001
 43
0.00000001
 40
0.0
 40
0.0
 40
0.0
 40
0.0
 40
0.0625
 40
0.0625
 40
0.125
 40
0.125
 40
0.25
 40
0.25
 40
0.5
 40
0.5
 40
1.0
 40
1.0
 40
1.0
 40
1.0
 10
286.7334717948169
 20
277.948787113301
 30
0.0
 10
286.9975075072662
 20
277.9487841322003
 30
0.0
 10
287.2581041937118
 20
277.9440337545203
 30
0.0
 10
287.7823093742162
 20
277.9250325687279
 30
0.0
 10
288.0442190635379
 20
277.9107846740214
 30
0.0
 10
288.8288989468052
 20
277.8538290280653
 30
0.0
 10
289.3506234676136
 20
277.79690358987
 30
0.0
 10
290.9076899409296
 20
277.5696824410346
 30
0.0
 10
291.934923818825
 20
277.342832288308
 30
0.0
 10
294.951707517536
 20
276.4431330766894
 30
0.0
 10
296.8750008446989
 20
275.5500758900607
 30
0.0
 10
298.6319322264558
 20
274.3995311872948
 30
0.0
  0
LINE
  5
259
330
1F
100
AcDbEntity
  8
0
  6
SLD-Сплошная
 62
     7
370
    25
100
AcDbLine
 10
301.565610205
 20
272.478381794
 30
0.0
 11
298.6319322265
 21
274.3995311873
 31
0.0
  0
LINE
  5
25A
330
1F
100
AcDbEntity
  8
0
  6
SLD-Сплошная
 62
     7
370
    25
100
AcDbLine
 10
306.173379202
 20
256.230068953
 30
0.0
 11
306.173379202
 21
266.530068953
 31
0.0
  0
LINE
  5
25B
330
1F
100
AcDbEntity
  8
0
  6
SLD-Сплошная
 62
     7
370
    25
100
AcDbLine
 10
279.7860306781
 20
277.9487871133
 30
0.0
 11
286.7334717948
 21
277.9487871133
 31
0.0
  0
LWPOLYLINE
  5
25C
330
1F
100
AcDbEntity
  8
0
  6
SLD-Сплошная
 62
     7
370
    25
100
AcDbPolyline
 90
       11
 70
   128
 43
0.0
 10
299.1577840485
 20
259.0647174262
 10
299.8905907925
 20
258.9259798548
 10
300.5516653066
 20
258.5233477409
 10
301.0762970115
 20
257.896233521
 10
301.4131313004
 20
257.1060235043
 10
301.5291964864
 20
256.230068953
 10
301.4131313004
 20
255.3541144017
 10
301.0762970115
 20
254.563904385
 10
300.5516653066
 20
253.9367901651
 10
299.8905907925
 20
253.5341580512
 10
299.1577840485
 20
253.3954204798
  0
LINE
  5
25D
330
1F
100
AcDbEntity
  8
0
  6
SLD-Сплошная
 62
     7
370
    25
100
AcDbLine
 10
142.9130649983
 20
284.916352605
 30
0.0
 11
146.0446757483
 21
284.916352605
 31
0.0
  0
LINE
  5
25E
330
1F
100
AcDbEntity
  8
0
  6
SLD-Сплошная
 62
     7
370
    25
100
AcDbLine
 10
147.0885586364
 20
284.916352605
 30
0.0
 11
154.3956630245
 21
284.916352605
 31
0.0
  0
LINE
  5
25F
330
1F
100
AcDbEntity
  8
0
  6
SLD-Сплошная
 62
     7
370
    25
100
AcDbLine
 10
147.0885586364
 20
286.6385508285
 30
0.0
 11
154.3956630245
 21
286.6385508285
 31
0.0
  0
LINE
  5
260
330
1F
100
AcDbEntity
  8
0
  6
SLD-Сплошная
 62
     7
370
    25
100
AcDbLine
 10
142.9130649983
 20
286.6385508284
 30
0.0
 11
146.0446757483
 21
286.6385508285
 31
0.0
  0
LINE
  5
261
330
1F
100
AcDbEntity
  8
0
  6
SLD-Сплошная
 62
     7
370
    25
100
AcDbLine
 10
269.7860306781
 20
273.030068953
 30
0.0
 11
260.2860306781
 21
273.030068953
 31
0.0
  0
LINE
  5
262
330
1F
100
AcDbEntity
  8
0
  6
SLD-Сплошная
 62
     7
370
    25
100
AcDbLine
 10
269.7860306781
 20
239.430068953
 30
0.0
 11
260.2860306781
 21
239.430068953
 31
0.0
  0
LINE
  5
263
330
1F
100
AcDbEntity
  8
0
  6
SLD-Сплошная
 62
     7
370
    25
100
AcDbLine
 10
279.7860306781
 20
229.280068953
 30
0.0
 11
271.7860306781
 21
229.280068953
 31
0.0
  0
LINE
  5
264
330
1F
100
AcDbEntity
  8
0
  6
SLD-Сплошная
 62
     7
370
    25
100
AcDbLine
 10
279.7860306781
 20
229.280068953
 30
0.0
 11
279.7860306781
 21
231.4451324625
 31
0.0
  0
LINE
  5
265
330
1F
100
AcDbEntity
  8
0
  6
SLD-Сплошная
 62
     7
370
    25
100
AcDbLine
 10
271.7860306781
 20
283.180068953
 30
0.0
 11
279.7860306781
 21
283.180068953
 31
0.0
  0
LINE
  5
266
330
1F
100
AcDbEntity
  8
0
  6
SLD-Сплошная
 62
     7
370
    25
100
AcDbLine
 10
279.7860306781
 20
283.180068953
 30
0.0
 11
279.7860306781
 21
281.0150054435
 31
0.0
  0
LINE
  5
267
330
1F
100
AcDbEntity
  8
0
  6
SLD-Сплошная
 62
     7
370
    25
100
AcDbLine
 10
142.9130649983
 20
285.1382489332
 30
0.0
 11
146.0446757483
 21
285.1382489332
 31
0.0
  0
LINE
  5
268
330
1F
100
AcDbEntity
  8
0
  6
SLD-Сплошная
 62
     7
370
    25
100
AcDbLine
 10
146.0446757483
 20
284.916352605
 30
0.0
 11
146.0446757483
 21
285.1382489332
 31
0.0
  0
LINE
  5
269
330
1F
100
AcDbEntity
  8
0
  6
SLD-Сплошная
 62
     7
370
    25
100
AcDbLine
 10
142.9130649983
 20
284.916352605
 30
0.0
 11
142.9130649983
 21
285.1382489332
 31
0.0
  0
LINE
  5
26A
330
1F
100
AcDbEntity
  8
0
  6
SLD-Сплошная
 62
     7
370
    25
100
AcDbLine
 10
146.0446757483
 20
286.5234633861
 30
0.0
 11
142.9130649983
 21
286.5234633861
 31
0.0
  0
LINE
  5
26B
330
1F
100
AcDbEntity
  8
0
  6
SLD-Сплошная
 62
     7
370
    25
100
AcDbLine
 10
146.0446757483
 20
286.5234633861
 30
0.0
 11
146.0446757483
 21
285.1382489332
 31
0.0
  0
LINE
  5
26C
330
1F
100
AcDbEntity
  8
0
  6
SLD-Сплошная
 62
     7
370
    25
100
AcDbLine
 10
142.9130649983
 20
286.5234633861
 30
0.0
 11
142.9130649983
 21
285.1382489332
 31
0.0
  0
LINE
  5
26D
330
1F
100
AcDbEntity
  8
0
  6
SLD-Сплошная
 62
     7
370
    25
100
AcDbLine
 10
147.0885586364
 20
285.1382489332
 30
0.0
 11
154.3956630245
 21
285.1382489332
 31
0.0
  0
LINE
  5
26E
330
1F
100
AcDbEntity
  8
0
  6
SLD-Сплошная
 62
     7
370
    25
100
AcDbLine
 10
154.3956630245
 20
284.916352605
 30
0.0
 11
154.3956630245
 21
285.1382489332
 31
0.0
  0
LINE
  5
26F
330
1F
100
AcDbEntity
  8
0
  6
SLD-Сплошная
 62
     7
370
    25
100
AcDbLine
 10
147.0885586364
 20
284.916352605
 30
0.0
 11
147.0885586364
 21
285.1382489332
 31
0.0
  0
LINE
  5
270
330
1F
100
AcDbEntity
  8
0
  6
SLD-Сплошная
 62
     7
370
    25
100
AcDbLine
 10
147.0885586364
 20
286.5234633861
 30
0.0
 11
147.0885586364
 21
285.1382489332
 31
0.0
  0
LINE
  5
271
330
1F
100
AcDbEntity
  8
0
  6
SLD-Сплошная
 62
     7
370
    25
100
AcDbLine
 10
154.3956630245
 20
286.5234633861
 30
0.0
 11
147.0885586364
 21
286.5234633861
 31
0.0
  0
LINE
  5
272
330
1F
100
AcDbEntity
  8
0
  6
SLD-Сплошная
 62
     7
370
    25
100
AcDbLine
 10
154.3956630245
 20
286.5234633861
 30
0.0
 11
154.3956630245
 21
285.1382489332
 31
0.0
  0
LINE
  5
273
330
1F
100
AcDbEntity
  8
0
  6
SLD-Сплошная
 62
     7
370
    25
100
AcDbLine
 10
142.9130649983
 20
286.8479684559
 30
0.0
 11
146.0446757483
 21
286.8479684559
 31
0.0
  0
LINE
  5
274
330
1F
100
AcDbEntity
  8
0
  6
SLD-Сплошная
 62
     7
370
    25
100
AcDbLine
 10
146.0446757483
 20
286.6385508285
 30
0.0
 11
146.0446757483
 21
286.8479684559
 31
0.0
  0
LINE
  5
275
330
1F
100
AcDbEntity
  8
0
  6
SLD-Сплошная
 62
     7
370
    25
100
AcDbLine
 10
142.9130649983
 20
286.6385508284
 30
0.0
 11
142.9130649983
 21
286.8479684559
 31
0.0
  0
LINE
  5
276
330
1F
100
AcDbEntity
  8
0
  6
SLD-Сплошная
 62
     7
370
    25
100
AcDbLine
 10
146.0446757483
 20
288.280068953
 30
0.0
 11
146.0446757483
 21
286.8479684559
 31
0.0
  0
LINE
  5
277
330
1F
100
AcDbEntity
  8
0
  6
SLD-Сплошная
 62
     7
370
    25
100
AcDbLine
 10
142.9130649983
 20
288.280068953
 30
0.0
 11
142.9130649983
 21
286.8479684559
 31
0.0
  0
LINE
  5
278
330
1F
100
AcDbEntity
  8
0
  6
SLD-Сплошная
 62
     7
370
    25
100
AcDbLine
 10
147.0885586364
 20
286.8479684559
 30
0.0
 11
154.3956630245
 21
286.8479684559
 31
0.0
  0
LINE
  5
279
330
1F
100
AcDbEntity
  8
0
  6
SLD-Сплошная
 62
     7
370
    25
100
AcDbLine
 10
154.3956630245
 20
286.6385508285
 30
0.0
 11
154.3956630245
 21
286.8479684559
 31
0.0
  0
LINE
  5
27A
330
1F
100
AcDbEntity
  8
0
  6
SLD-Сплошная
 62
     7
370
    25
100
AcDbLine
 10
147.0885586364
 20
286.6385508285
 30
0.0
 11
147.0885586364
 21
286.8479684559
 31
0.0
  0
LINE
  5
27B
330
1F
100
AcDbEntity
  8
0
  6
SLD-Сплошная
 62
     7
370
    25
100
AcDbLine
 10
150.2201693864
 20
288.280068953
 30
0.0
 11
150.2201693864
 21
287.7265425288
 31
0.0
  0
LINE
  5
27C
330
1F
100
AcDbEntity
  8
0
  6
SLD-Сплошная
 62
     7
370
    25
100
AcDbLine
 10
151.2640522745
 20
287.7265425288
 30
0.0
 11
150.2201693864
 21
287.7265425288
 31
0.0
  0
LINE
  5
27D
330
1F
100
AcDbEntity
  8
0
  6
SLD-Сплошная
 62
     7
370
    25
100
AcDbLine
 10
151.2640522745
 20
288.280068953
 30
0.0
 11
151.2640522745
 21
287.7265425288
 31
0.0
  0
LINE
  5
27E
330
1F
100
AcDbEntity
  8
0
  6
SLD-Сплошная
 62
     7
370
    25
100
AcDbLine
 10
154.3956630245
 20
288.280068953
 30
0.0
 11
154.3956630245
 21
286.8479684559
 31
0.0
  0
LINE
  5
27F
330
1F
100
AcDbEntity
  8
0
  6
SLD-Сплошная
 62
     7
370
    25
100
AcDbLine
 10
147.0885586364
 20
288.280068953
 30
0.0
 11
147.0885586364
 21
286.8479684559
 31
0.0
  0
LINE
  5
280
330
1F
100
AcDbEntity
  8
0
  6
SLD-Сплошная
 62
     7
370
    25
100
AcDbLine
 10
299.1577840485
 20
237.2576083075
 30
0.0
 11
301.5291964864
 21
238.810552291
 31
0.0
  0
SPLINE
  5
281
330
1F
100
AcDbEntity
  8
0
  6
SLD-Сплошная
 62
     7
370
    25
100
AcDbSpline
210
0.0
220
0.0
230
1.0
 70
     8
 71
     3
 72
    20
 73
    16
 74
     0
 42
0.00000001
 43
0.00000001
 40
0.0
 40
0.0
 40
0.0
 40
0.0
 40
0.2500000000000025
 40
0.2500000000000025
 40
0.500000000000005
 40
0.500000000000005
 40
0.6250000000000062
 40
0.6250000000000062
 40
0.6562500000000056
 40
0.6562500000000056
 40
0.6875000000000049
 40
0.6875000000000049
 40
0.7500000000000034
 40
0.7500000000000034
 40
1.0
 40
1.0
 40
1.0
 40
1.0
 10
299.1577840485256
 20
237.2576083075352
 30
0.0
 10
297.7408720343695
 20
236.3297288074609
 30
0.0
 10
296.220338831897
 20
235.5622295093271
 30
0.0
 10
293.0475242105633
 20
234.3824066827583
 30
0.0
 10
291.3947392470957
 20
233.9712865911465
 30
0.0
 10
288.8788139414212
 20
233.637351089611
 30
0.0
 10
288.0364244198062
 20
233.5730098332435
 30
0.0
 10
286.9742974932348
 20
233.5518115750263
 30
0.0
 10
286.7633537128598
 20
233.5514926620772
 30
0.0
 10
286.3508745495856
 20
233.5514911381616
 30
0.0
 10
286.1477692926515
 20
233.5514927569414
 30
0.0
 10
285.5335372093164
 20
233.5514938789995
 30
0.0
 10
285.122178051141
 20
233.5514932058057
 30
0.0
 10
283.0698136768866
 20
233.5514932058057
 30
0.0
 10
281.4279221774846
 20
233.5514932058057
 30
0.0
 10
279.7860306780806
 20
233.5514932058057
 30
0.0
  0
SPLINE
  5
282
330
1F
100
AcDbEntity
  8
0
  6
SLD-Сплошная
 62
     7
370
    25
100
AcDbSpline
210
0.0
220
0.0
230
1.0
 70
     8
 71
     3
 72
    20
 73
    16
 74
     0
 42
0.00000001
 43
0.00000001
 40
0.0
 40
0.0
 40
0.0
 40
0.0
 40
0.2500000000000025
 40
0.2500000000000025
 40
0.500000000000005
 40
0.500000000000005
 40
0.6250000000000062
 40
0.6250000000000062
 40
0.6562500000000056
 40
0.6562500000000056
 40
0.6875000000000049
 40
0.6875000000000049
 40
0.7500000000000034
 40
0.7500000000000034
 40
1.0
 40
1.0
 40
1.0
 40
1.0
 10
299.1577840485256
 20
275.2025295984615
 30
0.0
 10
297.7408720343711
 20
276.1304090985349
 30
0.0
 10
296.2203388318956
 20
276.8979083966692
 30
0.0
 10
293.0475242105624
 20
278.0777312232385
 30
0.0
 10
291.3947392470935
 20
278.4888513148517
 30
0.0
 10
288.8788139414233
 20
278.8227868163839
 30
0.0
 10
288.0364244198068
 20
278.8871280727528
 30
0.0
 10
286.9742974932346
 20
278.9083263309703
 30
0.0
 10
286.7633537128598
 20
278.9086452439196
 30
0.0
 10
286.3508745495859
 20
278.9086467678352
 30
0.0
 10
286.1477692926516
 20
278.9086451490554
 30
0.0
 10
285.5335372093163
 20
278.9086440269972
 30
0.0
 10
285.122178051141
 20
278.9086447001911
 30
0.0
 10
283.0698136768866
 20
278.9086447001911
 30
0.0
 10
281.4279221774846
 20
278.9086447001911
 30
0.0
 10
279.7860306780806
 20
278.9086447001911
 30
0.0
  0
LINE
  5
283
330
1F
100
AcDbEntity
  8
0
  6
SLD-Сплошная
 62
     7
370
    25
100
AcDbLine
 10
301.5291964864
 20
273.649585615
 30
0.0
 11
299.1577840485
 21
275.2025295985
 31
0.0
  0
LINE
  5
284
330
1F
100
AcDbEntity
  8
0
  6
SLD-Сплошная
 62
     7
370
    25
100
AcDbLine
 10
146.0446757483
 20
288.184575637
 30
0.0
 11
147.0885586364
 21
288.184575637
 31
0.0
  0
LINE
  5
285
330
1F
100
AcDbEntity
  8
0
  6
SLD-Сплошная
 62
     7
370
    25
100
AcDbLine
 10
150.2201693864
 20
288.184575637
 30
0.0
 11
151.2640522745
 21
288.184575637
 31
0.0
  0
LINE
  5
286
330
1F
100
AcDbEntity
  8
0
  6
SLD-Сплошная
 62
     7
370
    25
100
AcDbLine
 10
144.8790984892
 20
35.7246343987
 30
0.0
 11
144.8790984892
 21
49.7246343987
 31
0.0
  0
LINE
  5
287
330
1F
100
AcDbEntity
  8
0
  6
SLD-Сплошная
 62
     7
370
    25
100
AcDbLine
 10
147.3860306781
 20
32.7246343987
 30
0.0
 11
147.3860306781
 21
52.7246343987
 31
0.0
  0
ARC
  5
288
330
1F
100
AcDbEntity
  8
0
  6
SLD-Сплошная
 62
     7
370
    25
100
AcDbCircle
 10
262.6860306781
 20
42.7246343987
 30
0.0
 40
150.0
100
AcDbArc
 50
167.662684676
 51
176.4505011539
  0
LWPOLYLINE
  5
289
330
1F
100
AcDbEntity
  8
0
  6
SLD-Сплошная
 62
     7
370
    25
100
AcDbPolyline
 90
        3
 70
   128
 43
0.0
 10
112.8020836118
 20
48.6239912974
 10
112.6860306781
 20
42.7246343987
 10
112.8020836118
 20
36.8252775
  0
ARC
  5
28A
330
1F
100
AcDbEntity
  8
0
  6
SLD-Сплошная
 62
     7
370
    25
100
AcDbCircle
 10
262.6860306781
 20
42.7246343987
 30
0.0
 40
150.0
100
AcDbArc
 50
183.5494988461
 51
192.337315324
  0
LINE
  5
28B
330
1F
100
AcDbEntity
  8
0
  6
SLD-Сплошная
 62
     7
370
    25
100
AcDbLine
 10
122.6860306781
 20
74.7746343987
 30
0.0
 11
116.1500368063
 21
74.7746343987
 31
0.0
  0
LINE
  5
28C
330
1F
100
AcDbEntity
  8
0
  6
SLD-Сплошная
 62
     7
370
    25
100
AcDbLine
 10
116.1500368063
 20
10.6746343987
 30
0.0
 11
122.6860306781
 21
10.6746343987
 31
0.0
  0
LINE
  5
28D
330
1F
100
AcDbEntity
  8
0
  6
SLD-Сплошная
 62
     7
370
    25
100
AcDbLine
 10
175.2860306781
 20
74.7746343987
 30
0.0
 11
122.6860306781
 21
74.7746343987
 31
0.0
  0
LINE
  5
28E
330
1F
100
AcDbEntity
  8
0
  6
SLD-Сплошная
 62
     7
370
    25
100
AcDbLine
 10
159.7326973447
 20
10.6746343987
 30
0.0
 11
175.2860306781
 21
10.6746343987
 31
0.0
  0
LINE
  5
28F
330
1F
100
AcDbEntity
  8
0
  6
SLD-Сплошная
 62
     7
370
    25
100
AcDbLine
 10
122.6860306781
 20
10.6746343987
 30
0.0
 11
137.5760306781
 21
10.6746343987
 31
0.0
  0
ARC
  5
290
330
1F
100
AcDbEntity
  8
0
  6
SLD-Сплошная
 62
     7
370
    25
100
AcDbCircle
 10
200.2860306781
 20
246.5366984549
 30
0.0
 40
232.5620640561955
100
AcDbArc
 50
284.4132172191
 51
284.9511640551
  0
ARC
  5
291
330
1F
100
AcDbEntity
  8
0
  6
SLD-Сплошная
 62
     7
370
    25
100
AcDbCircle
 10
200.2860306781
 20
-161.0874296575
 30
0.0
 40
232.5620640561955
100
AcDbArc
 50
75.0488359449
 51
75.6015381343
  0
ARC
  5
292
330
1F
100
AcDbEntity
  8
0
  6
SLD-Сплошная
 62
     7
370
    25
100
AcDbCircle
 10
286.7334717948
 20
42.7246343987
 30
0.0
 40
21.99999999999998
100
AcDbArc
 50
27.9163390054
 51
47.6088660557
  0
ARC
  5
293
330
1F
100
AcDbEntity
  8
0
  6
SLD-Сплошная
 62
     7
370
    25
100
AcDbCircle
 10
286.7334717948
 20
42.7246343987
 30
0.0
 40
21.99999999999996
100
AcDbArc
 50
312.3911339443
 51
332.0836609946
  0
LINE
  5
294
330
1F
100
AcDbEntity
  8
0
  6
SLD-Сплошная
 62
     7
370
    25
100
AcDbLine
 10
154.3956630245
 20
10.8746343987
 30
0.0
 11
159.7326973447
 21
10.8746343987
 31
0.0
  0
LINE
  5
295
330
1F
100
AcDbEntity
  8
0
  6
SLD-Сплошная
 62
     7
370
    25
100
AcDbLine
 10
137.5760306781
 20
10.8746343987
 30
0.0
 11
142.9130649983
 21
10.8746343987
 31
0.0
  0
SPLINE
  5
296
330
1F
100
AcDbEntity
  8
0
  6
SLD-Сплошная
 62
     7
370
    25
100
AcDbSpline
210
0.0
220
0.0
230
1.0
 70
     8
 71
     3
 72
    34
 73
    30
 74
     0
 42
0.00000001
 43
0.00000001
 40
0.0
 40
0.0
 40
0.0
 40
0.0
 40
0.0301292847090746
 40
0.060817135994994
 40
0.0888477704490174
 40
0.1258445667466044
 40
0.1605799703244339
 40
0.1949934196129668
 40
0.2287440609060022
 40
0.2840957068378377
 40
0.3439578595091946
 40
0.4083903770934271
 40
0.4771361209863674
 40
0.5502844163766951
 40
0.6250031540555219
 40
0.6539571414972781
 40
0.6823620365590203
 40
0.7106368981852823
 40
0.7515686202090509
 40
0.7915053189028929
 40
0.8306725080360546
 40
0.8685878943073883
 40
0.9019593002534124
 40
0.9301077451548738
 40
0.9422167398551284
 40
0.9550241572658577
 40
0.9721050187439886
 40
0.9910596911143819
 40
1.0
 40
1.0
 40
1.0
 40
1.0
 10
175.2862006324882
 20
14.54376954428344
 30
0.0
 10
175.9915710905512
 20
14.30206290716697
 30
0.0
 10
177.4153888641589
 20
13.81416863545273
 30
0.0
 10
179.7161138795527
 20
13.3629503365986
 30
0.0
 10
182.3084840978561
 20
13.00806899967845
 30
0.0
 10
185.1339069151852
 20
12.78464128993248
 30
0.0
 10
188.2654429905594
 20
12.652821340456
 30
0.0
 10
191.3918081928545
 20
12.58802586316285
 30
0.0
 10
195.2057867272094
 20
12.55840656176705
 30
0.0
 10
199.8459276928592
 20
12.5598306894775
 30
0.0
 10
205.3313743784894
 20
12.68292516238449
 30
0.0
 10
211.2478252106002
 20
12.99564445899408
 30
0.0
 10
217.5502361851066
 20
13.53064873448919
 30
0.0
 10
224.1476137219872
 20
14.32593123699064
 30
0.0
 10
229.5020260942754
 20
15.18115700717107
 30
0.0
 10
233.4838693558031
 20
15.92271686817731
 30
0.0
 10
236.0469573210483
 20
16.45437228041518
 30
0.0
 10
239.003422365486
 20
17.05231592914479
 30
0.0
 10
242.3667455722953
 20
17.57101905628933
 30
0.0
 10
245.9532807358986
 20
17.95082563187046
 30
0.0
 10
249.2083672359321
 20
18.1922236026982
 30
0.0
 10
251.9338949153403
 20
18.40385908043285
 30
0.0
 10
254.1086083488888
 20
18.69490507062897
 30
0.0
 10
255.5693342208152
 20
19.05327382399672
 30
0.0
 10
256.5632479993569
 20
19.4233339528897
 30
0.0
 10
257.3629815205479
 20
19.80365335954598
 30
0.0
 10
258.2636584741773
 20
20.39714399776044
 30
0.0
 10
258.9959599260832
 20
21.06603695597924
 30
0.0
 10
259.3457411139162
 20
21.57690111335645
 30
0.0
 10
259.4578455757513
 20
21.74063247863776
 30
0.0
  0
SPLINE
  5
297
330
1F
100
AcDbEntity
  8
0
  6
SLD-Сплошная
 62
     7
370
    25
100
AcDbSpline
210
0.0
220
0.0
230
1.0
 70
     8
 71
     3
 72
    34
 73
    30
 74
     0
 42
0.00000001
 43
0.00000001
 40
0.0
 40
0.0
 40
0.0
 40
0.0
 40
0.0150374254825355
 40
0.0324439033067065
 40
0.0487296800982419
 40
0.0795814995206276
 40
0.1098113586823452
 40
0.1417698905578229
 40
0.1767823695649283
 40
0.2148459934880493
 40
0.2533902947448645
 40
0.2887007708892202
 40
0.3210837231128134
 40
0.3499098726687047
 40
0.3779357691838187
 40
0.4201822292085279
 40
0.4680865405293009
 40
0.521656091072988
 40
0.5809201619007193
 40
0.643547520525299
 40
0.70292859342325
 40
0.7437384687693193
 40
0.7822718284280806
 40
0.8191628931261012
 40
0.8541705713856318
 40
0.8875009912401405
 40
0.9229397678223785
 40
0.9614942232884932
 40
1.0
 40
1.0
 40
1.0
 40
1.0
 10
259.4551209408193
 20
63.73025357183857
 30
0.0
 10
259.2545008464988
 20
63.9956683306166
 30
0.0
 10
258.8216542166637
 20
64.56831228353049
 30
0.0
 10
257.9843700299157
 20
65.25750642737133
 30
0.0
 10
256.8088965737672
 20
65.95984072091282
 30
0.0
 10
255.2738711126318
 20
66.50805506218768
 30
0.0
 10
253.3507138704128
 20
66.880602289527
 30
0.0
 10
251.1429398569074
 20
67.11864432195622
 30
0.0
 10
248.4436835979697
 20
67.31973778632366
 30
0.0
 10
245.3070617269835
 20
67.55889017361359
 30
0.0
 10
241.95299930577
 20
67.9395852356019
 30
0.0
 10
238.6871560618475
 20
68.45392248567548
 30
0.0
 10
235.7691807799886
 20
69.05777778981874
 30
0.0
 10
233.0938617363399
 20
69.60102158043294
 30
0.0
 10
230.1057977256978
 20
70.15171645703627
 30
0.0
 10
226.5337584972268
 20
70.74533404341982
 30
0.0
 10
222.1732728667174
 20
71.36485898647727
 30
0.0
 10
217.2805005009513
 20
71.93199332174208
 30
0.0
 10
211.9257194633618
 20
72.40084131524397
 30
0.0
 10
206.3767363346045
 20
72.7210434965557
 30
0.0
 10
201.4058025037866
 20
72.86688931468684
 30
0.0
 10
197.1241747728183
 20
72.89048374381913
 30
0.0
 10
193.5125120836528
 20
72.88119243980505
 30
0.0
 10
190.1213371137307
 20
72.84150345732854
 30
0.0
 10
186.9623354143619
 20
72.74974952164796
 30
0.0
 10
183.9566805915284
 20
72.5874238242654
 30
0.0
 10
180.9729766306888
 20
72.28449660159905
 30
0.0
 10
177.9932920728399
 20
71.80190815828503
 30
0.0
 10
176.1783602424316
 20
71.19865259588664
 30
0.0
 10
175.2714675711608
 20
70.89721535219725
 30
0.0
  0
LINE
  5
298
330
1F
100
AcDbEntity
  8
0
  6
SLD-Сплошная
 62
     7
370
    25
100
AcDbLine
 10
177.1890963924
 20
71.4746343987
 30
0.0
 11
175.2860306781
 21
71.4746343987
 31
0.0
  0
LINE
  5
299
330
1F
100
AcDbEntity
  8
0
  6
SLD-Сплошная
 62
     7
370
    25
100
AcDbLine
 10
175.2860306781
 20
13.9746343987
 30
0.0
 11
177.0852133301
 21
13.9746343987
 31
0.0
  0
LINE
  5
29A
330
1F
100
AcDbEntity
  8
0
  6
SLD-Сплошная
 62
     7
370
    25
100
AcDbLine
 10
301.565610205
 20
58.9729472397
 30
0.0
 11
301.5291964864
 21
60.1441510607
 31
0.0
  0
LINE
  5
29B
330
1F
100
AcDbEntity
  8
0
  6
SLD-Сплошная
 62
     7
370
    25
100
AcDbLine
 10
301.5291964864
 20
25.3051177367
 30
0.0
 11
301.565610205
 21
26.4763215577
 31
0.0
  0
ARC
  5
29C
330
1F
100
AcDbEntity
  8
0
  6
SLD-Сплошная
 62
     7
370
    25
100
AcDbCircle
 10
297.6903435069
 20
25.9930187479
 30
0.0
 40
3.899999999999995
100
AcDbArc
 50
303.1931986079
 51
349.840740668
  0
ARC
  5
29D
330
1F
100
AcDbEntity
  8
0
  6
SLD-Сплошная
 62
     7
370
    25
100
AcDbCircle
 10
297.6903435069
 20
59.4562500495
 30
0.0
 40
3.899999999999996
100
AcDbArc
 50
10.159259332
 51
56.7523103784
  0
SPLINE
  5
29E
330
1F
100
AcDbEntity
  8
0
  6
SLD-Сплошная
 62
     7
370
    25
100
AcDbSpline
210
0.0
220
0.0
230
1.0
 70
     8
 71
     3
 72
    14
 73
    10
 74
     0
 42
0.00000001
 43
0.00000001
 40
0.0
 40
0.0
 40
0.0
 40
0.0
 40
0.2590389089760493
 40
0.3872144952269503
 40
0.5177568502771419
 40
0.644310576339777
 40
0.7668665689181695
 40
0.8854229200212068
 40
1.0
 40
1.0
 40
1.0
 40
1.0
 10
279.7860306780806
 20
18.82463439870349
 30
0.0
 10
281.5815363621277
 20
18.8302212816141
 30
0.0
 10
284.2654799823108
 20
18.83857262178409
 30
0.0
 10
287.857073394352
 20
18.79966246775665
 30
0.0
 10
290.5204624025086
 20
19.07639061631617
 30
0.0
 10
293.0974047406108
 20
19.63785210391095
 30
0.0
 10
295.5164545133778
 20
20.45338487893283
 30
0.0
 10
297.7711085848471
 20
21.46785264313058
 30
0.0
 10
299.1495009508097
 20
22.3143361195875
 30
0.0
 10
299.8269334907256
 20
22.73035369601431
 30
0.0
  0
SPLINE
  5
29F
330
1F
100
AcDbEntity
  8
0
  6
SLD-Сплошная
 62
     7
370
    25
100
AcDbSpline
210
0.0
220
0.0
230
1.0
 70
     8
 71
     3
 72
    14
 73
    10
 74
     0
 42
0.00000001
 43
0.00000001
 40
0.0
 40
0.0
 40
0.0
 40
0.0
 40
0.1179373309070334
 40
0.2572473724705143
 40
0.4179351563529508
 40
0.5525139979457736
 40
0.6966137432249631
 40
0.8427082361514738
 40
1.0
 40
1.0
 40
1.0
 40
1.0
 10
299.8269334907256
 20
62.7189151013928
 30
0.0
 10
299.1291981952162
 20
63.14624367347922
 30
0.0
 10
297.6072833776662
 20
64.0783416911753
 30
0.0
 10
294.9417280224621
 20
65.23942545639396
 30
0.0
 10
292.04482720788
 20
66.09239457513924
 30
0.0
 10
289.0292289271742
 20
66.58345428111518
 30
0.0
 10
286.080285695874
 20
66.63607806176528
 30
0.0
 10
282.9796365433723
 20
66.62149860855384
 30
0.0
 10
280.8764406327574
 20
66.62356372907826
 30
0.0
 10
279.7860306780806
 20
66.62463439870349
 30
0.0
  0
LINE
  5
2A0
330
1F
100
AcDbEntity
  8
0
  6
SLD-Сплошная
 62
     7
370
    25
100
AcDbLine
 10
151.2640522745
 20
10.6746343987
 30
0.0
 11
154.3956630245
 21
10.6746343987
 31
0.0
  0
LINE
  5
2A1
330
1F
100
AcDbEntity
  8
0
  6
SLD-Сплошная
 62
     7
370
    25
100
AcDbLine
 10
147.0885586364
 20
10.6746343987
 30
0.0
 11
150.2201693864
 21
10.6746343987
 31
0.0
  0
LINE
  5
2A2
330
1F
100
AcDbEntity
  8
0
  6
SLD-Сплошная
 62
     7
370
    25
100
AcDbLine
 10
142.9130649983
 20
10.6746343987
 30
0.0
 11
146.0446757483
 21
10.6746343987
 31
0.0
  0
ARC
  5
2A3
330
1F
100
AcDbEntity
  8
0
  6
SLD-Сплошная
 62
     7
370
    25
100
AcDbCircle
 10
233.9967792246
 20
65.5528579545
 30
0.0
 40
3.899999999999991
100
AcDbArc
 50
68.6266636745
 51
90.0
  0
LINE
  5
2A4
330
1F
100
AcDbEntity
  8
0
  6
SLD-Сплошная
 62
     7
370
    25
100
AcDbLine
 10
143.6475104509
 20
35.7246343987
 30
0.0
 11
144.6898602002
 21
35.7246343987
 31
0.0
  0
LINE
  5
2A5
330
1F
100
AcDbEntity
  8
0
  6
SLD-Сплошная
 62
     7
370
    25
100
AcDbLine
 10
143.6475104509
 20
35.7246343987
 30
0.0
 11
143.6475104509
 21
49.7246343987
 31
0.0
  0
LINE
  5
2A6
330
1F
100
AcDbEntity
  8
0
  6
SLD-Сплошная
 62
     7
370
    25
100
AcDbLine
 10
144.6898602002
 20
49.7246343987
 30
0.0
 11
143.6475104509
 21
49.7246343987
 31
0.0
  0
LINE
  5
2A7
330
1F
100
AcDbEntity
  8
0
  6
SLD-Сплошная
 62
     7
370
    25
100
AcDbLine
 10
139.5072686004
 20
35.7246343987
 30
0.0
 11
143.6475104509
 21
35.7246343987
 31
0.0
  0
LINE
  5
2A8
330
1F
100
AcDbEntity
  8
0
  6
SLD-Сплошная
 62
     7
370
    25
100
AcDbLine
 10
139.5072686004
 20
37.7246343987
 30
0.0
 11
139.5072686004
 21
35.7246343987
 31
0.0
  0
LINE
  5
2A9
330
1F
100
AcDbEntity
  8
0
  6
SLD-Сплошная
 62
     7
370
    25
100
AcDbLine
 10
139.6389639279
 20
37.7246343987
 30
0.0
 11
139.6389639279
 21
47.7246343987
 31
0.0
  0
LINE
  5
2AA
330
1F
100
AcDbEntity
  8
0
  6
SLD-Сплошная
 62
     7
370
    25
100
AcDbLine
 10
139.5072686004
 20
47.7246343987
 30
0.0
 11
139.5072686004
 21
49.7246343987
 31
0.0
  0
LINE
  5
2AB
330
1F
100
AcDbEntity
  8
0
  6
SLD-Сплошная
 62
     7
370
    25
100
AcDbLine
 10
139.5072686004
 20
49.7246343987
 30
0.0
 11
143.6475104509
 21
49.7246343987
 31
0.0
  0
LINE
  5
2AC
330
1F
100
AcDbEntity
  8
0
  6
SLD-Сплошная
 62
     7
370
    25
100
AcDbLine
 10
144.6898602002
 20
35.7246343987
 30
0.0
 11
144.8790984892
 21
35.7246343987
 31
0.0
  0
LINE
  5
2AD
330
1F
100
AcDbEntity
  8
0
  6
SLD-Сплошная
 62
     7
370
    25
100
AcDbLine
 10
144.6898602002
 20
49.7246343987
 30
0.0
 11
144.8790984892
 21
49.7246343987
 31
0.0
  0
LINE
  5
2AE
330
1F
100
AcDbEntity
  8
0
  6
SLD-Сплошная
 62
     7
370
    25
100
AcDbLine
 10
139.1296763499
 20
47.7246343987
 30
0.0
 11
139.6389639279
 21
47.7246343987
 31
0.0
  0
LINE
  5
2AF
330
1F
100
AcDbEntity
  8
0
  6
SLD-Сплошная
 62
     7
370
    25
100
AcDbLine
 10
139.1296763499
 20
37.7246343987
 30
0.0
 11
139.6389639279
 21
37.7246343987
 31
0.0
  0
LINE
  5
2B0
330
1F
100
AcDbEntity
  8
0
  6
SLD-Сплошная
 62
     7
370
    25
100
AcDbLine
 10
135.3624941936
 20
55.2246343987
 30
0.0
 11
135.3624941936
 21
52.7246343987
 31
0.0
  0
LINE
  5
2B1
330
1F
100
AcDbEntity
  8
0
  6
SLD-Сплошная
 62
     7
370
    25
100
AcDbLine
 10
138.9624941936
 20
52.7246343987
 30
0.0
 11
143.2423850062
 21
52.7246343987
 31
0.0
  0
LINE
  5
2B2
330
1F
100
AcDbEntity
  8
0
  6
SLD-Сплошная
 62
     7
370
    25
100
AcDbLine
 10
143.2423850062
 20
49.7246343987
 30
0.0
 11
143.2423850062
 21
52.7246343987
 31
0.0
  0
ELLIPSE
  5
2B3
330
1F
100
AcDbEntity
  8
0
  6
SLD-Сплошная
 62
     7
370
    25
100
AcDbEllipse
 10
135.3624941936
 20
50.2246343987
 30
0.0
 11
4.4938217704279
 21
0.0
 31
3.552713678800501E-14
210
-7.905773438055628E-15
220
0.0
230
1.0
 40
0.5563193486
 41
1.570796326794897
 42
4.712388980393033
  0
LINE
  5
2B4
330
1F
100
AcDbEntity
  8
0
  6
SLD-Сплошная
 62
     7
370
    25
100
AcDbLine
 10
135.3624941936
 20
55.2246343987
 30
0.0
 11
138.9624941936
 21
55.2246343987
 31
0.0
  0
LINE
  5
2B5
330
1F
100
AcDbEntity
  8
0
  6
SLD-Сплошная
 62
     7
370
    25
100
AcDbLine
 10
138.9624941936
 20
55.2246343987
 30
0.0
 11
138.9624941936
 21
52.7246343987
 31
0.0
  0
LINE
  5
2B6
330
1F
100
AcDbEntity
  8
0
  6
SLD-Сплошная
 62
     7
370
    25
100
AcDbLine
 10
139.1296763499
 20
47.7246343987
 30
0.0
 11
135.3624941936
 21
47.7246343987
 31
0.0
  0
LINE
  5
2B7
330
1F
100
AcDbEntity
  8
0
  6
SLD-Сплошная
 62
     7
370
    25
100
AcDbLine
 10
131.8724261539
 20
55.2246343987
 30
0.0
 11
131.8724261539
 21
52.7246343987
 31
0.0
  0
LINE
  5
2B8
330
1F
100
AcDbEntity
  8
0
  6
SLD-Сплошная
 62
     7
370
    25
100
AcDbLine
 10
131.8724261539
 20
52.7246343987
 30
0.0
 11
135.3624941936
 21
52.7246343987
 31
0.0
  0
LINE
  5
2B9
330
1F
100
AcDbEntity
  8
0
  6
SLD-Сплошная
 62
     7
370
    25
100
AcDbLine
 10
131.8724261539
 20
55.2246343987
 30
0.0
 11
135.3624941936
 21
55.2246343987
 31
0.0
  0
LINE
  5
2BA
330
1F
100
AcDbEntity
  8
0
  6
SLD-Сплошная
 62
     7
370
    25
100
AcDbLine
 10
114.7224850443
 20
52.7246343987
 30
0.0
 11
131.8724261539
 21
52.7246343987
 31
0.0
  0
LINE
  5
2BB
330
1F
100
AcDbEntity
  8
0
  6
SLD-Сплошная
 62
     7
370
    25
100
AcDbLine
 10
114.7224850443
 20
47.7246343987
 30
0.0
 11
135.3624941936
 21
47.7246343987
 31
0.0
  0
LINE
  5
2BC
330
1F
100
AcDbEntity
  8
0
  6
SLD-Сплошная
 62
     7
370
    25
100
AcDbLine
 10
143.2423850062
 20
32.7246343987
 30
0.0
 11
143.2423850062
 21
35.7246343987
 31
0.0
  0
LINE
  5
2BD
330
1F
100
AcDbEntity
  8
0
  6
SLD-Сплошная
 62
     7
370
    25
100
AcDbLine
 10
147.3860306781
 20
52.7246343987
 30
0.0
 11
143.2423850062
 21
52.7246343987
 31
0.0
  0
LINE
  5
2BE
330
1F
100
AcDbEntity
  8
0
  6
SLD-Сплошная
 62
     7
370
    25
100
AcDbLine
 10
143.2423850062
 20
32.7246343987
 30
0.0
 11
147.3860306781
 21
32.7246343987
 31
0.0
  0
LINE
  5
2BF
330
1F
100
AcDbEntity
  8
0
  6
SLD-Сплошная
 62
     7
370
    25
100
AcDbLine
 10
143.2423850062
 20
32.7246343987
 30
0.0
 11
135.3624941936
 21
32.7246343987
 31
0.0
  0
ELLIPSE
  5
2C0
330
1F
100
AcDbEntity
  8
0
  6
SLD-Сплошная
 62
     7
370
    25
100
AcDbEllipse
 10
135.3624941936
 20
35.2246343987
 30
0.0
 11
4.4938217704279
 21
0.0
 31
3.552713678800501E-14
210
-7.905773438055628E-15
220
0.0
230
1.0
 40
0.5563193486
 41
1.570796326786561
 42
4.712388980384698
  0
LINE
  5
2C1
330
1F
100
AcDbEntity
  8
0
  6
SLD-Сплошная
 62
     7
370
    25
100
AcDbLine
 10
139.1296763499
 20
37.7246343987
 30
0.0
 11
135.3624941936
 21
37.7246343987
 31
0.0
  0
LINE
  5
2C2
330
1F
100
AcDbEntity
  8
0
  6
SLD-Сплошная
 62
     7
370
    25
100
AcDbLine
 10
114.7224850443
 20
32.7246343987
 30
0.0
 11
135.3624941936
 21
32.7246343987
 31
0.0
  0
LINE
  5
2C3
330
1F
100
AcDbEntity
  8
0
  6
SLD-Сплошная
 62
     7
370
    25
100
AcDbLine
 10
114.7224850443
 20
37.7246343987
 30
0.0
 11
135.3624941936
 21
37.7246343987
 31
0.0
  0
LINE
  5
2C4
330
1F
100
AcDbEntity
  8
0
  6
SLD-Сплошная
 62
     7
370
    25
100
AcDbLine
 10
116.1500368063
 20
47.7246343987
 30
0.0
 11
116.1500368063
 21
37.7246343987
 31
0.0
  0
ARC
  5
2C5
330
1F
100
AcDbEntity
  8
0
  6
SLD-Сплошная
 62
     7
370
    25
100
AcDbCircle
 10
114.7224850443
 20
50.2246343987
 30
0.0
 40
2.500000000000007
100
AcDbArc
 50
90.0
 51
270.0
  0
ARC
  5
2C6
330
1F
100
AcDbEntity
  8
0
  6
SLD-Сплошная
 62
     7
370
    25
100
AcDbCircle
 10
114.7224850443
 20
35.2246343987
 30
0.0
 40
2.500000000000007
100
AcDbArc
 50
90.0
 51
270.0
  0
LINE
  5
2C7
330
1F
100
AcDbEntity
  8
0
  6
SLD-Сплошная
 62
     7
370
    25
100
AcDbLine
 10
116.1500368063
 20
52.7246343987
 30
0.0
 11
116.1500368063
 21
74.7746343987
 31
0.0
  0
LINE
  5
2C8
330
1F
100
AcDbEntity
  8
0
  6
SLD-Сплошная
 62
     7
370
    25
100
AcDbLine
 10
116.1500368063
 20
10.6746343987
 30
0.0
 11
116.1500368063
 21
32.7246343987
 31
0.0
  0
LINE
  5
2C9
330
1F
100
AcDbEntity
  8
0
  6
SLD-Сплошная
 62
     7
370
    25
100
AcDbLine
 10
122.6860306781
 20
52.7246343987
 30
0.0
 11
122.6860306781
 21
74.7746343987
 31
0.0
  0
LINE
  5
2CA
330
1F
100
AcDbEntity
  8
0
  6
SLD-Сплошная
 62
     7
370
    25
100
AcDbLine
 10
122.6860306781
 20
10.6746343987
 30
0.0
 11
122.6860306781
 21
32.7246343987
 31
0.0
  0
LINE
  5
2CB
330
1F
100
AcDbEntity
  8
0
  6
SLD-Сплошная
 62
     7
370
    25
100
AcDbLine
 10
143.8142373244
 20
53.0246343987
 30
0.0
 11
138.9624941936
 21
53.0246343987
 31
0.0
  0
LINE
  5
2CC
330
1F
100
AcDbEntity
  8
0
  6
SLD-Сплошная
 62
     7
370
    25
100
AcDbLine
 10
136.4860306781
 20
55.2246343987
 30
0.0
 11
136.4860306781
 21
57.0246343987
 31
0.0
  0
LINE
  5
2CD
330
1F
100
AcDbEntity
  8
0
  6
SLD-Сплошная
 62
     7
370
    25
100
AcDbLine
 10
143.8142373244
 20
57.0246343987
 30
0.0
 11
136.4860306781
 21
57.0246343987
 31
0.0
  0
LINE
  5
2CE
330
1F
100
AcDbEntity
  8
0
  6
SLD-Сплошная
 62
     7
370
    25
100
AcDbLine
 10
143.8142373244
 20
28.4246343987
 30
0.0
 11
136.4860306781
 21
28.4246343987
 31
0.0
  0
LINE
  5
2CF
330
1F
100
AcDbEntity
  8
0
  6
SLD-Сплошная
 62
     7
370
    25
100
AcDbLine
 10
136.4860306781
 20
32.4246343987
 30
0.0
 11
136.4860306781
 21
28.4246343987
 31
0.0
  0
LINE
  5
2D0
330
1F
100
AcDbEntity
  8
0
  6
SLD-Сплошная
 62
     7
370
    25
100
AcDbLine
 10
136.4860306781
 20
32.4246343987
 30
0.0
 11
143.8142373244
 21
32.4246343987
 31
0.0
  0
LINE
  5
2D1
330
1F
100
AcDbEntity
  8
0
  6
SLD-Сплошная
 62
     7
370
    25
100
AcDbLine
 10
155.6694746119
 20
53.0246343987
 30
0.0
 11
155.6694746119
 21
32.4246343987
 31
0.0
  0
ELLIPSE
  5
2D2
330
1F
100
AcDbEntity
  8
0
  6
SLD-Сплошная
 62
     7
370
    25
100
AcDbEllipse
 10
215.9356047739
 20
42.7246343987
 30
0.0
 11
47.51607904083343
 21
1.421085471520200E-14
 31
0.0
210
0.0
220
0.0
230
1.0
 40
0.6745085168
 41
2.679102711698746
 42
3.604082595480858
  0
LINE
  5
2D3
330
1F
100
AcDbEntity
  8
0
  6
SLD-Сплошная
 62
     7
370
    25
100
AcDbLine
 10
173.4113599176
 20
28.4246343987
 30
0.0
 11
143.8142373244
 21
28.4246343987
 31
0.0
  0
LINE
  5
2D4
330
1F
100
AcDbEntity
  8
0
  6
SLD-Сплошная
 62
     7
370
    25
100
AcDbLine
 10
143.8142373244
 20
32.4246343987
 30
0.0
 11
155.6694746119
 21
32.4246343987
 31
0.0
  0
LINE
  5
2D5
330
1F
100
AcDbEntity
  8
0
  6
SLD-Сплошная
 62
     7
370
    25
100
AcDbLine
 10
155.6694746119
 20
53.0246343987
 30
0.0
 11
143.8142373244
 21
53.0246343987
 31
0.0
  0
LINE
  5
2D6
330
1F
100
AcDbEntity
  8
0
  6
SLD-Сплошная
 62
     7
370
    25
100
AcDbLine
 10
173.4113599176
 20
57.0246343987
 30
0.0
 11
143.8142373244
 21
57.0246343987
 31
0.0
  0
LINE
  5
2D7
330
1F
100
AcDbEntity
  8
0
  6
SLD-Сплошная
 62
     7
370
    25
100
AcDbLine
 10
154.551088805
 20
53.0246343987
 30
0.0
 11
154.551088805
 21
32.4246343987
 31
0.0
  0
LINE
  5
2D8
330
1F
100
AcDbEntity
  8
0
  6
SLD-Сплошная
 62
     7
370
    25
100
AcDbLine
 10
175.2860306781
 20
74.7746343987
 30
0.0
 11
175.2860306781
 21
10.6746343987
 31
0.0
  0
LINE
  5
2D9
330
1F
100
AcDbEntity
  8
0
  6
SLD-Сплошная
 62
     7
370
    25
100
AcDbLine
 10
137.5760306781
 20
16.1004777622
 30
0.0
 11
137.5760306781
 21
10.6746343987
 31
0.0
  0
LINE
  5
2DA
330
1F
100
AcDbEntity
  8
0
  6
SLD-Сплошная
 62
     7
370
    25
100
AcDbLine
 10
159.7326973447
 20
16.1004777622
 30
0.0
 11
159.7326973447
 21
10.6746343987
 31
0.0
  0
LINE
  5
2DB
330
1F
100
AcDbEntity
  8
0
  6
SLD-Сплошная
 62
     7
370
    25
100
AcDbLine
 10
159.7326973447
 20
16.1004777622
 30
0.0
 11
137.5760306781
 21
16.1004777622
 31
0.0
  0
LINE
  5
2DC
330
1F
100
AcDbEntity
  8
0
  6
SLD-Сплошная
 62
     7
370
    25
100
AcDbLine
 10
269.7860306781
 20
72.6721782806
 30
0.0
 11
271.7860306781
 21
72.6721782806
 31
0.0
  0
LINE
  5
2DD
330
1F
100
AcDbEntity
  8
0
  6
SLD-Сплошная
 62
     7
370
    25
100
AcDbLine
 10
271.7860306781
 20
69.6746343987
 30
0.0
 11
271.7860306781
 21
72.6721782806
 31
0.0
  0
LINE
  5
2DE
330
1F
100
AcDbEntity
  8
0
  6
SLD-Сплошная
 62
     7
370
    25
100
AcDbLine
 10
271.7860306781
 20
67.5095708892
 30
0.0
 11
271.7860306781
 21
69.6746343987
 31
0.0
  0
LINE
  5
2DF
330
1F
100
AcDbEntity
  8
0
  6
SLD-Сплошная
 62
     7
370
    25
100
AcDbLine
 10
271.7860306781
 20
44.8896979082
 30
0.0
 11
271.7860306781
 21
67.5095708892
 31
0.0
  0
LINE
  5
2E0
330
1F
100
AcDbEntity
  8
0
  6
SLD-Сплошная
 62
     7
370
    25
100
AcDbLine
 10
271.7860306781
 20
40.5595708892
 30
0.0
 11
271.7860306781
 21
44.8896979082
 31
0.0
  0
LINE
  5
2E1
330
1F
100
AcDbEntity
  8
0
  6
SLD-Сплошная
 62
     7
370
    25
100
AcDbLine
 10
271.7860306781
 20
17.9396979082
 30
0.0
 11
271.7860306781
 21
40.5595708892
 31
0.0
  0
LINE
  5
2E2
330
1F
100
AcDbEntity
  8
0
  6
SLD-Сплошная
 62
     7
370
    25
100
AcDbLine
 10
271.7860306781
 20
15.7746343987
 30
0.0
 11
271.7860306781
 21
17.9396979082
 31
0.0
  0
LINE
  5
2E3
330
1F
100
AcDbEntity
  8
0
  6
SLD-Сплошная
 62
     7
370
    25
100
AcDbLine
 10
271.7860306781
 20
12.7770905168
 30
0.0
 11
271.7860306781
 21
15.7746343987
 31
0.0
  0
LINE
  5
2E4
330
1F
100
AcDbEntity
  8
0
  6
SLD-Сплошная
 62
     7
370
    25
100
AcDbLine
 10
269.7860306781
 20
12.7770905168
 30
0.0
 11
271.7860306781
 21
12.7770905168
 31
0.0
  0
LINE
  5
2E5
330
1F
100
AcDbEntity
  8
0
  6
SLD-Сплошная
 62
     7
370
    25
100
AcDbLine
 10
269.7860306781
 20
12.7770905168
 30
0.0
 11
269.7860306781
 21
72.6721782806
 31
0.0
  0
LINE
  5
2E6
330
1F
100
AcDbEntity
  8
0
  6
SLD-Сплошная
 62
     7
370
    25
100
AcDbLine
 10
279.7860306781
 20
67.5095708892
 30
0.0
 11
271.7860306781
 21
67.5095708892
 31
0.0
  0
LINE
  5
2E7
330
1F
100
AcDbEntity
  8
0
  6
SLD-Сплошная
 62
     7
370
    25
100
AcDbLine
 10
271.7860306781
 20
44.8896979082
 30
0.0
 11
279.7860306781
 21
44.8896979082
 31
0.0
  0
LINE
  5
2E8
330
1F
100
AcDbEntity
  8
0
  6
SLD-Сплошная
 62
     7
370
    25
100
AcDbLine
 10
279.7860306781
 20
44.8896979082
 30
0.0
 11
279.7860306781
 21
67.5095708892
 31
0.0
  0
LINE
  5
2E9
330
1F
100
AcDbEntity
  8
0
  6
SLD-Сплошная
 62
     7
370
    25
100
AcDbLine
 10
279.7860306781
 20
40.5595708892
 30
0.0
 11
271.7860306781
 21
40.5595708892
 31
0.0
  0
LINE
  5
2EA
330
1F
100
AcDbEntity
  8
0
  6
SLD-Сплошная
 62
     7
370
    25
100
AcDbLine
 10
279.7860306781
 20
44.8896979082
 30
0.0
 11
279.7860306781
 21
40.5595708892
 31
0.0
  0
LINE
  5
2EB
330
1F
100
AcDbEntity
  8
0
  6
SLD-Сплошная
 62
     7
370
    25
100
AcDbLine
 10
271.7860306781
 20
17.9396979082
 30
0.0
 11
279.7860306781
 21
17.9396979082
 31
0.0
  0
LINE
  5
2EC
330
1F
100
AcDbEntity
  8
0
  6
SLD-Сплошная
 62
     7
370
    25
100
AcDbLine
 10
279.7860306781
 20
40.5595708892
 30
0.0
 11
279.7860306781
 21
17.9396979082
 31
0.0
  0
SPLINE
  5
2ED
330
1F
100
AcDbEntity
  8
0
  6
SLD-Сплошная
 62
     7
370
    25
100
AcDbSpline
210
0.0
220
0.0
230
1.0
 70
     8
 71
     3
 72
    24
 73
    20
 74
     0
 42
0.00000001
 43
0.00000001
 40
0.0
 40
0.0
 40
0.0
 40
0.0
 40
0.0624999999999998
 40
0.0624999999999998
 40
0.1249999999999997
 40
0.1249999999999997
 40
0.2499999999999993
 40
0.2499999999999993
 40
0.374999999999999
 40
0.374999999999999
 40
0.4999999999999989
 40
0.4999999999999989
 40
0.624999999999999
 40
0.624999999999999
 40
0.6874999999999992
 40
0.6874999999999992
 40
0.7499999999999996
 40
0.7499999999999996
 40
1.0
 40
1.0
 40
1.0
 40
1.0
 10
200.2860306780806
 20
70.7217065855226
 30
0.0
 10
199.792617127832
 20
70.74086196370938
 30
0.0
 10
199.2990845927
 20
70.75676241333798
 30
0.0
 10
198.3116921228665
 20
70.7805575539407
 30
0.0
 10
197.8178467324551
 20
70.78880630619358
 30
0.0
 10
196.3358654646172
 20
70.80321592120679
 30
0.0
 10
195.3472835164484
 20
70.79917076820982
 30
0.0
 10
193.3689339130333
 20
70.76311038146838
 30
0.0
 10
192.3731624430997
 20
70.73033821628538
 30
0.0
 10
190.4295124976646
 20
70.63253065536537
 30
0.0
 10
189.4771430577524
 20
70.56780076045601
 30
0.0
 10
187.6122439289177
 20
70.39627150183347
 30
0.0
 10
186.6997945517699
 20
70.28940997165182
 30
0.0
 10
185.3612872177736
 20
70.08653101319317
 30
0.0
 10
184.9218394838024
 20
70.01190901952786
 30
0.0
 10
184.0662335250213
 20
69.8486698943067
 30
0.0
 10
183.6485622598642
 20
69.75983146109193
 30
0.0
 10
181.6100525390746
 20
69.27510031275276
 30
0.0
 10
180.1367367703613
 20
68.76099108310359
 30
0.0
 10
178.825732841569
 20
68.04058651422264
 30
0.0
  0
SPLINE
  5
2EE
330
1F
100
AcDbEntity
  8
0
  6
SLD-Сплошная
 62
     7
370
    25
100
AcDbSpline
210
0.0
220
0.0
230
1.0
 70
     8
 71
     3
 72
    26
 73
    22
 74
     0
 42
0.00000001
 43
0.00000001
 40
0.0
 40
0.0
 40
0.0
 40
0.0
 40
0.2499999999999999
 40
0.2499999999999999
 40
0.3124999999999999
 40
0.3124999999999999
 40
0.3749999999999999
 40
0.3749999999999999
 40
0.4999999999999996
 40
0.4999999999999996
 40
0.5624999999999994
 40
0.5624999999999994
 40
0.6249999999999993
 40
0.6249999999999993
 40
0.7499999999999997
 40
0.7499999999999997
 40
0.8749999999999998
 40
0.8749999999999998
 40
0.9374999999999999
 40
0.9374999999999999
 40
1.0
 40
1.0
 40
1.0
 40
1.0
 10
178.825732841569
 20
17.40868228318429
 30
0.0
 10
180.13301811278
 20
16.69032113908097
 30
0.0
 10
181.6081740086538
 20
16.17395814385826
 30
0.0
 10
183.6609622281626
 20
15.686655436824
 30
0.0
 10
184.0834534588819
 20
15.59704305949077
 30
0.0
 10
184.9432498332009
 20
15.43355787675934
 30
0.0
 10
185.3793485764648
 20
15.35983710096793
 30
0.0
 10
186.7058778108157
 20
15.15927090131636
 30
0.0
 10
187.6143212081164
 20
15.05276120382368
 30
0.0
 10
189.0139392747842
 20
14.92409509906805
 30
0.0
 10
189.4866725999894
 20
14.88643888873812
 30
0.0
 10
190.4443112059675
 20
14.82013099269156
 30
0.0
 10
190.9306436107254
 20
14.79142875486151
 30
0.0
 10
192.39010432477
 20
14.71826592030853
 30
0.0
 10
193.3677825307296
 20
14.68625523517731
 30
0.0
 10
195.3326018076978
 20
14.65029041636984
 30
0.0
 10
196.3196311901673
 20
14.64601224555608
 30
0.0
 10
197.807349873561
 20
14.66030291190856
 30
0.0
 10
198.3054778572798
 20
14.6685774394759
 30
0.0
 10
199.2989206445722
 20
14.69248658178555
 30
0.0
 10
199.793305833431
 20
14.7084335707343
 30
0.0
 10
200.2860306780806
 20
14.72756221188439
 30
0.0
  0
SPLINE
  5
2EF
330
1F
100
AcDbEntity
  8
0
  6
SLD-Сплошная
 62
     7
370
    25
100
AcDbSpline
210
0.0
220
0.0
230
1.0
 70
     8
 71
     3
 72
     8
 73
     4
 74
     0
 42
0.00000001
 43
0.00000001
 40
0.0
 40
0.0
 40
0.0
 40
0.0
 40
1.0
 40
1.0
 40
1.0
 40
1.0
 10
175.2860306780804
 20
19.68512896736799
 30
0.0
 10
176.4638757535057
 20
18.83572912203308
 30
0.0
 10
177.6253975267055
 20
18.07014720474072
 30
0.0
 10
178.8269750395718
 20
17.4092446695233
 30
0.0
  0
SPLINE
  5
2F0
330
1F
100
AcDbEntity
  8
0
  6
SLD-Сплошная
 62
     7
370
    25
100
AcDbSpline
210
0.0
220
0.0
230
1.0
 70
     8
 71
     3
 72
     8
 73
     4
 74
     0
 42
0.00000001
 43
0.00000001
 40
0.0
 40
0.0
 40
0.0
 40
0.0
 40
1.0
 40
1.0
 40
1.0
 40
1.0
 10
175.2860306780804
 20
65.764139830039
 30
0.0
 10
176.4638757535056
 20
66.61353967537391
 30
0.0
 10
177.6253975267055
 20
67.37912159266625
 30
0.0
 10
178.8269750395717
 20
68.04002412788367
 30
0.0
  0
SPLINE
  5
2F1
330
1F
100
AcDbEntity
  8
0
  6
SLD-Сплошная
 62
     7
370
    25
100
AcDbSpline
210
0.0
220
0.0
230
1.0
 70
     8
 71
     3
 72
    21
 73
    17
 74
     0
 42
0.00000001
 43
0.00000001
 40
0.0
 40
0.0
 40
0.0
 40
0.0
 40
0.1169996676283089
 40
0.2340007830652407
 40
0.3512093751994708
 40
0.4505112713571588
 40
0.5499735149265643
 40
0.6062991013664464
 40
0.6641198002287595
 40
0.7205316068840453
 40
0.7787368285521417
 40
0.8328304946685483
 40
0.8884595529953633
 40
0.9428717004633742
 40
0.9989623890171087
 40
1.0
 40
1.0
 40
1.0
 40
1.0
 10
200.2860306780806
 20
14.72756221188439
 30
0.0
 10
202.739538474523
 20
14.85135717754349
 30
0.0
 10
207.646584428261
 20
15.09894864075851
 30
0.0
 10
214.9868617621811
 20
15.85123591701712
 30
0.0
 10
221.920842526317
 20
16.84760998772473
 30
0.0
 10
228.4573026310136
 20
18.05596849783853
 30
0.0
 10
233.659739508153
 20
19.29017320686843
 30
0.0
 10
238.0592568861868
 20
20.36632017526593
 30
0.0
 10
241.6606095787438
 20
20.9358511533054
 30
0.0
 10
245.240135602185
 20
21.25158610680542
 30
0.0
 10
248.5801004557008
 20
21.31117862013489
 30
0.0
 10
251.6255705020328
 20
21.21689270346692
 30
0.0
 10
254.2687831677076
 20
21.07052306335971
 30
0.0
 10
256.4463377633252
 20
21.05854112242498
 30
0.0
 10
257.7409927071758
 20
21.10395287911732
 30
0.0
 10
258.1648653328947
 20
21.29501874492491
 30
0.0
 10
258.172564054813
 20
21.29848903972497
 30
0.0
  0
SPLINE
  5
2F2
330
1F
100
AcDbEntity
  8
0
  6
SLD-Сплошная
 62
     7
370
    25
100
AcDbSpline
210
0.0
220
0.0
230
1.0
 70
     8
 71
     3
 72
    20
 73
    16
 74
     0
 42
0.00000001
 43
0.00000001
 40
0.0
 40
0.0
 40
0.0
 40
0.0
 40
0.0273253047269309
 40
0.0763809280341414
 40
0.1266469579514016
 40
0.1796470753609853
 40
0.2340900435769563
 40
0.288703825997641
 40
0.344933391110841
 40
0.3989775570224674
 40
0.4544648244525104
 40
0.5899160819251337
 40
0.692083896772142
 40
0.7944040143866187
 40
1.0
 40
1.0
 40
1.0
 40
1.0
 10
258.101178552101
 20
64.11615052509146
 30
0.0
 10
257.8693876973939
 20
64.18615211152249
 30
0.0
 10
257.2214754135503
 20
64.38182371295184
 30
0.0
 10
255.6770123643741
 20
64.40540811181502
 30
0.0
 10
253.5248863383481
 20
64.33624804437315
 30
0.0
 10
250.8987116333262
 20
64.2015199443964
 30
0.0
 10
247.8898368964105
 20
64.13567919024592
 30
0.0
 10
244.5807389868814
 20
64.23860204218262
 30
0.0
 10
241.1436576326393
 20
64.58361643104749
 30
0.0
 10
237.649087895812
 20
65.1694896184043
 30
0.0
 10
232.6248935693897
 20
66.43024715180768
 30
0.0
 10
226.6302344209732
 20
67.7773847990181
 30
0.0
 10
219.5846705492016
 20
68.9598795269863
 30
0.0
 10
211.0489958234363
 20
70.09597177105155
 30
0.0
 10
204.5952231494306
 20
70.47117973579627
 30
0.0
 10
200.2860306780806
 20
70.7217065855226
 30
0.0
  0
LINE
  5
2F3
330
1F
100
AcDbEntity
  8
0
  6
SLD-Сплошная
 62
     7
370
    25
100
AcDbLine
 10
260.2860306781
 20
63.6014967231
 30
0.0
 11
260.2860306781
 21
21.8477720743
 31
0.0
  0
SPLINE
  5
2F4
330
1F
100
AcDbEntity
  8
0
  6
SLD-Сплошная
 62
     7
370
    25
100
AcDbSpline
210
0.0
220
0.0
230
1.0
 70
    24
 71
     3
 72
    20
 73
    16
 74
     0
 42
0.00000001
 43
0.00000001
 40
0.0
 40
0.0
 40
0.0
 40
0.0
 40
0.2499999999999959
 40
0.2499999999999959
 40
0.4999999999999919
 40
0.4999999999999919
 40
0.6249999999999909
 40
0.6249999999999909
 40
0.6562499999999916
 40
0.6562499999999916
 40
0.6874999999999923
 40
0.6874999999999923
 40
0.7499999999999938
 40
0.7499999999999938
 40
1.0
 40
1.0
 40
1.0
 40
1.0
 10
299.1577840485253
 20
39.88998592551484
 30
0.0
 10
297.7408720343709
 20
39.88998592551484
 30
0.0
 10
296.2203388318954
 20
39.88998592551485
 30
0.0
 10
293.0475242105622
 20
39.88998592551485
 30
0.0
 10
291.394739247094
 20
39.88998592551485
 30
0.0
 10
288.8788139414227
 20
39.88998592551485
 30
0.0
 10
288.0364244198066
 20
39.88998592551485
 30
0.0
 10
286.9742974932345
 20
39.88998592551485
 30
0.0
 10
286.7633537128596
 20
39.88998592551485
 30
0.0
 10
286.3508745495856
 20
39.88998592551485
 30
0.0
 10
286.1477692926513
 20
39.88998592551485
 30
0.0
 10
285.5335372093161
 20
39.88998592551485
 30
0.0
 10
285.1221780511408
 20
39.88998592551485
 30
0.0
 10
283.0698136768863
 20
39.88998592551485
 30
0.0
 10
281.4279221774843
 20
39.88998592551485
 30
0.0
 10
279.7860306780806
 20
39.88998592551485
 30
0.0
  0
SPLINE
  5
2F5
330
1F
100
AcDbEntity
  8
0
  6
SLD-Сплошная
 62
     7
370
    25
100
AcDbSpline
210
0.0
220
0.0
230
1.0
 70
    24
 71
     3
 72
    20
 73
    16
 74
     0
 42
0.00000001
 43
0.00000001
 40
0.0
 40
0.0
 40
0.0
 40
0.0
 40
0.249999999999997
 40
0.249999999999997
 40
0.499999999999994
 40
0.499999999999994
 40
0.6249999999999925
 40
0.6249999999999925
 40
0.6562499999999931
 40
0.6562499999999931
 40
0.6874999999999938
 40
0.6874999999999938
 40
0.749999999999995
 40
0.749999999999995
 40
1.0
 40
1.0
 40
1.0
 40
1.0
 10
299.1577840485253
 20
45.55928287189233
 30
0.0
 10
297.7408720343718
 20
45.55928287189233
 30
0.0
 10
296.2203388318959
 20
45.55928287189234
 30
0.0
 10
293.0475242105622
 20
45.55928287189234
 30
0.0
 10
291.3947392470949
 20
45.55928287189233
 30
0.0
 10
288.8788139414213
 20
45.55928287189234
 30
0.0
 10
288.0364244198066
 20
45.55928287189234
 30
0.0
 10
286.9742974932345
 20
45.55928287189234
 30
0.0
 10
286.7633537128596
 20
45.55928287189234
 30
0.0
 10
286.3508745495856
 20
45.55928287189234
 30
0.0
 10
286.1477692926514
 20
45.55928287189234
 30
0.0
 10
285.5335372093161
 20
45.55928287189234
 30
0.0
 10
285.1221780511408
 20
45.55928287189234
 30
0.0
 10
283.0698136768863
 20
45.55928287189234
 30
0.0
 10
281.4279221774843
 20
45.55928287189234
 30
0.0
 10
279.7860306780806
 20
45.55928287189234
 30
0.0
  0
LWPOLYLINE
  5
2F6
330
1F
100
AcDbEntity
  8
0
  6
SLD-Сплошная
 62
     7
370
    25
100
AcDbPolyline
 90
        3
 70
   128
 43
0.0
 10
286.7334717948
 20
46.2313823898
 10
282.8429047695
 20
46.2313833014
 10
279.7860306781
 20
46.2313823898
  0
SPLINE
  5
2F7
330
1F
100
AcDbEntity
  8
0
  6
SLD-Сплошная
 62
     7
370
    25
100
AcDbSpline
210
0.0
220
0.0
230
1.0
 70
     8
 71
     3
 72
    16
 73
    12
 74
     0
 42
0.00000001
 43
0.00000001
 40
0.0
 40
0.0
 40
0.0
 40
0.0
 40
0.4999999999999984
 40
0.4999999999999984
 40
0.7499999999999977
 40
0.7499999999999977
 40
0.8749999999999972
 40
0.8749999999999972
 40
0.9374999999999987
 40
0.9374999999999987
 40
1.0
 40
1.0
 40
1.0
 40
1.0
 10
298.6302800752411
 20
46.23349403039827
 30
0.0
 10
296.8738680093255
 20
46.23314209030532
 30
0.0
 10
294.95099330351
 20
46.23279015021238
 30
0.0
 10
291.9346345199716
 20
46.23226224007296
 30
0.0
 10
290.907508749758
 20
46.23208627002649
 30
0.0
 10
289.3505507616144
 20
46.23182231495678
 30
0.0
 10
288.8288534802246
 20
46.23173432993354
 30
0.0
 10
288.0442008615615
 20
46.23160235239869
 30
0.0
 10
287.7822979961384
 20
46.23155835988707
 30
0.0
 10
287.2581019166182
 20
46.23147037486383
 30
0.0
 10
286.9975075072718
 20
46.23142638235222
 30
0.0
 10
286.7334717948228
 20
46.2313823898406
 30
0.0
  0
SPLINE
  5
2F8
330
1F
100
AcDbEntity
  8
0
  6
SLD-Сплошная
 62
     7
370
    25
100
AcDbSpline
210
0.0
220
0.0
230
1.0
 70
    24
 71
     3
 72
    16
 73
    12
 74
     0
 42
0.00000001
 43
0.00000001
 40
0.0
 40
0.0
 40
0.0
 40
0.0
 40
0.0625000000000016
 40
0.0625000000000016
 40
0.1250000000000032
 40
0.1250000000000032
 40
0.2500000000000033
 40
0.2500000000000033
 40
0.5000000000000032
 40
0.5000000000000032
 40
1.0
 40
1.0
 40
1.0
 40
1.0
 10
286.7334717948166
 20
39.21788640756664
 30
0.0
 10
286.9975075072658
 20
39.21788640756664
 30
0.0
 10
287.2581041937115
 20
39.21788640756664
 30
0.0
 10
287.7823093742159
 20
39.21788640756664
 30
0.0
 10
288.0442190635378
 20
39.21788640756664
 30
0.0
 10
288.8288989468045
 20
39.21788640756664
 30
0.0
 10
289.3506234676133
 20
39.21788640756664
 30
0.0
 10
290.9076899409292
 20
39.21788640756664
 30
0.0
 10
291.9349238188256
 20
39.21788640756664
 30
0.0
 10
294.9517075175339
 20
39.21788640756664
 30
0.0
 10
296.8750008447004
 20
39.21788640756664
 30
0.0
 10
298.6319322264556
 20
39.21788640756663
 30
0.0
  0
LINE
  5
2F9
330
1F
100
AcDbEntity
  8
0
  6
SLD-Сплошная
 62
     7
370
    25
100
AcDbLine
 10
279.7860306781
 20
39.2178864076
 30
0.0
 11
286.7334717948
 21
39.2178864076
 31
0.0
  0
ARC
  5
2FA
330
1F
100
AcDbEntity
  8
0
  6
SLD-Сплошная
 62
     7
370
    25
100
AcDbCircle
 10
298.3174110845
 20
42.9877567417
 30
0.0
 40
3.258838887367256
100
AcDbArc
 50
355.3688326741
 51
84.4615769118
  0
SPLINE
  5
2FB
330
1F
100
AcDbEntity
  8
0
  6
SLD-Сплошная
 62
     7
370
    25
100
AcDbSpline
210
0.0
220
0.0
230
1.0
 70
     8
 71
     3
 72
    16
 73
    12
 74
     0
 42
0.00000001
 43
0.00000001
 40
0.0
 40
0.0
 40
0.0
 40
0.0
 40
0.0624999999999977
 40
0.0624999999999977
 40
0.1249999999999953
 40
0.1249999999999953
 40
0.2499999999999942
 40
0.2499999999999942
 40
0.499999999999995
 40
0.499999999999995
 40
1.0
 40
1.0
 40
1.0
 40
1.0
 10
286.7334717948168
 20
64.44335255900614
 30
0.0
 10
286.997507507266
 20
64.44334957790575
 30
0.0
 10
287.2581041937121
 20
64.4385992002253
 30
0.0
 10
287.7823093742159
 20
64.41959801443339
 30
0.0
 10
288.0442190635376
 20
64.40535011972707
 30
0.0
 10
288.8288989468058
 20
64.34839447376959
 30
0.0
 10
289.3506234676144
 20
64.29146903557513
 30
0.0
 10
290.9076899409279
 20
64.06424788673982
 30
0.0
 10
291.9349238188266
 20
63.83739773401123
 30
0.0
 10
294.9517075175324
 20
62.93769852239844
 30
0.0
 10
296.8750008447022
 20
62.0446413357637
 30
0.0
 10
298.6319322264555
 20
60.89409663299995
 30
0.0
  0
LINE
  5
2FC
330
1F
100
AcDbEntity
  8
0
  6
SLD-Сплошная
 62
     7
370
    25
100
AcDbLine
 10
301.565610205
 20
58.9729472397
 30
0.0
 11
298.6319322265
 21
60.894096633
 31
0.0
  0
LINE
  5
2FD
330
1F
100
AcDbEntity
  8
0
  6
SLD-Сплошная
 62
     7
370
    25
100
AcDbLine
 10
306.173379202
 20
42.7246343987
 30
0.0
 11
306.173379202
 21
53.0246343987
 31
0.0
  0
LINE
  5
2FE
330
1F
100
AcDbEntity
  8
0
  6
SLD-Сплошная
 62
     7
370
    25
100
AcDbLine
 10
279.7860306781
 20
64.443352559
 30
0.0
 11
286.7334717948
 21
64.443352559
 31
0.0
  0
LINE
  5
2FF
330
1F
100
AcDbEntity
  8
0
  6
SLD-Сплошная
 62
     7
370
    25
100
AcDbLine
 10
298.6319322265
 20
24.5551721644
 30
0.0
 11
301.565610205
 21
26.4763215577
 31
0.0
  0
SPLINE
  5
300
330
1F
100
AcDbEntity
  8
0
  6
SLD-Сплошная
 62
     7
370
    25
100
AcDbSpline
210
0.0
220
0.0
230
1.0
 70
     8
 71
     3
 72
    16
 73
    12
 74
     0
 42
0.00000001
 43
0.00000001
 40
0.0
 40
0.0
 40
0.0
 40
0.0
 40
0.5
 40
0.5
 40
0.75
 40
0.75
 40
0.875
 40
0.875
 40
0.9375
 40
0.9375
 40
1.0
 40
1.0
 40
1.0
 40
1.0
 10
298.6319322264555
 20
24.5551721644072
 30
0.0
 10
296.8750008446992
 20
23.40462746164156
 30
0.0
 10
294.951707517534
 20
22.51157027501428
 30
0.0
 10
291.9349238188257
 20
21.6118710633931
 30
0.0
 10
290.9076899409279
 20
21.38502091066647
 30
0.0
 10
289.3506234676144
 20
21.15779976183247
 30
0.0
 10
288.8288989468047
 20
21.10087432363759
 30
0.0
 10
288.0442190635382
 20
21.04391867768006
 30
0.0
 10
287.7823093742156
 20
21.02967078297351
 30
0.0
 10
287.2581041937121
 20
21.01066959718207
 30
0.0
 10
286.9975075072659
 20
21.0059192195014
 30
0.0
 10
286.7334717948168
 20
21.005916238401
 30
0.0
  0
ARC
  5
301
330
1F
100
AcDbEntity
  8
0
  6
SLD-Сплошная
 62
     7
370
    25
100
AcDbCircle
 10
298.3174110845
 20
42.4615120557
 30
0.0
 40
3.258838887367413
100
AcDbArc
 50
275.5384230882
 51
4.6311673259
  0
LINE
  5
302
330
1F
100
AcDbEntity
  8
0
  6
SLD-Сплошная
 62
     7
370
    25
100
AcDbLine
 10
306.173379202
 20
32.4246343987
 30
0.0
 11
306.173379202
 21
42.7246343987
 31
0.0
  0
LWPOLYLINE
  5
303
330
1F
100
AcDbEntity
  8
0
  6
SLD-Сплошная
 62
     7
370
    25
100
AcDbPolyline
 90
        3
 70
   128
 43
0.0
 10
286.7334717948
 20
21.0059162384
 10
282.8429047695
 20
21.0059163856
 10
279.7860306781
 20
21.0059162384
  0
LWPOLYLINE
  5
304
330
1F
100
AcDbEntity
  8
0
  6
SLD-Сплошная
 62
     7
370
    25
100
AcDbPolyline
 90
       11
 70
   128
 43
0.0
 10
299.1577840485
 20
45.5592828719
 10
299.8905907925
 20
45.4205453005
 10
300.5516653066
 20
45.0179131866
 10
301.0762970115
 20
44.3907989667
 10
301.4131313004
 20
43.60058895
 10
301.5291964864
 20
42.7246343987
 10
301.4131313004
 20
41.8486798474
 10
301.0762970115
 20
41.0584698307
 10
300.5516653066
 20
40.4313556108
 10
299.8905907925
 20
40.0287234969
 10
299.1577840485
 20
39.8899859255
  0
SPLINE
  5
305
330
1F
100
AcDbEntity
  8
0
  6
SLD-Сплошная
 62
     7
370
    25
100
AcDbSpline
210
0.0
220
0.0
230
1.0
 70
     8
 71
     3
 72
     8
 73
     4
 74
     0
 42
0.00000001
 43
0.00000001
 40
0.0
 40
0.0
 40
0.0
 40
0.0
 40
1.0
 40
1.0
 40
1.0
 40
1.0
 10
154.3956630245127
 20
14.34982916921544
 30
0.0
 10
152.4818966868137
 20
13.62226659813439
 30
0.0
 10
150.5681303491145
 20
13.00256311222184
 30
0.0
 10
148.6543640114154
 20
12.49774785280644
 30
0.0
  0
SPLINE
  5
306
330
1F
100
AcDbEntity
  8
0
  6
SLD-Сплошная
 62
     7
370
    25
100
AcDbSpline
210
0.0
220
0.0
230
1.0
 70
     8
 71
     3
 72
     8
 73
     4
 74
     0
 42
0.00000001
 43
0.00000001
 40
0.0
 40
0.0
 40
0.0
 40
0.0
 40
1.0
 40
1.0
 40
1.0
 40
1.0
 10
148.6543640114154
 20
12.49774785280644
 30
0.0
 10
146.7405976737145
 20
13.00256311222184
 30
0.0
 10
144.8268313360136
 20
13.62226659813439
 30
0.0
 10
142.9130649983126
 20
14.34982916921544
 30
0.0
  0
LINE
  5
307
330
1F
100
AcDbEntity
  8
0
  6
SLD-Сплошная
 62
     7
370
    25
100
AcDbLine
 10
147.5687841188
 20
11.462361956
 30
0.0
 11
142.9130649983
 21
11.462361956
 31
0.0
  0
LINE
  5
308
330
1F
100
AcDbEntity
  8
0
  6
SLD-Сплошная
 62
     7
370
    25
100
AcDbLine
 10
154.3956630245
 20
11.462361956
 30
0.0
 11
149.8183624666
 21
11.462361956
 31
0.0
  0
LINE
  5
309
330
1F
100
AcDbEntity
  8
0
  6
SLD-Сплошная
 62
     7
370
    25
100
AcDbLine
 10
269.7860306781
 20
25.9246343987
 30
0.0
 11
260.2860306781
 21
25.9246343987
 31
0.0
  0
LINE
  5
30A
330
1F
100
AcDbEntity
  8
0
  6
SLD-Сплошная
 62
     7
370
    25
100
AcDbLine
 10
269.7860306781
 20
59.5246343987
 30
0.0
 11
260.2860306781
 21
59.5246343987
 31
0.0
  0
LINE
  5
30B
330
1F
100
AcDbEntity
  8
0
  6
SLD-Сплошная
 62
     7
370
    25
100
AcDbLine
 10
271.7860306781
 20
69.6746343987
 30
0.0
 11
279.7860306781
 21
69.6746343987
 31
0.0
  0
LINE
  5
30C
330
1F
100
AcDbEntity
  8
0
  6
SLD-Сплошная
 62
     7
370
    25
100
AcDbLine
 10
279.7860306781
 20
67.5095708892
 30
0.0
 11
279.7860306781
 21
69.6746343987
 31
0.0
  0
LINE
  5
30D
330
1F
100
AcDbEntity
  8
0
  6
SLD-Сплошная
 62
     7
370
    25
100
AcDbLine
 10
279.7860306781
 20
15.7746343987
 30
0.0
 11
271.7860306781
 21
15.7746343987
 31
0.0
  0
LINE
  5
30E
330
1F
100
AcDbEntity
  8
0
  6
SLD-Сплошная
 62
     7
370
    25
100
AcDbLine
 10
279.7860306781
 20
17.9396979082
 30
0.0
 11
279.7860306781
 21
15.7746343987
 31
0.0
  0
SPLINE
  5
30F
330
1F
100
AcDbEntity
  8
0
  6
SLD-Сплошная
 62
     7
370
    25
100
AcDbSpline
210
0.0
220
0.0
230
1.0
 70
     8
 71
     3
 72
     8
 73
     4
 74
     0
 42
0.00000001
 43
0.00000001
 40
0.0
 40
0.0
 40
0.0
 40
0.0
 40
1.0
 40
1.0
 40
1.0
 40
1.0
 10
154.3956630245127
 20
14.12551602398114
 30
0.0
 10
152.4812684004002
 20
13.40342300297833
 30
0.0
 10
150.5680274122679
 20
12.78837510334245
 30
0.0
 10
148.6543640114154
 20
12.28708078054074
 30
0.0
  0
LINE
  5
310
330
1F
100
AcDbEntity
  8
0
  6
SLD-Сплошная
 62
     7
370
    25
100
AcDbLine
 10
148.6543640114
 20
12.4977478528
 30
0.0
 11
148.6543640114
 21
12.2870807805
 31
0.0
  0
LINE
  5
311
330
1F
100
AcDbEntity
  8
0
  6
SLD-Сплошная
 62
     7
370
    25
100
AcDbLine
 10
154.3956630245
 20
14.3498291692
 30
0.0
 11
154.3956630245
 21
14.125516024
 31
0.0
  0
LINE
  5
312
330
1F
100
AcDbEntity
  8
0
  6
SLD-Сплошная
 62
     7
370
    25
100
AcDbLine
 10
142.9130649983
 20
11.2586260995
 30
0.0
 11
142.9130649983
 21
10.7701277147
 31
0.0
  0
LINE
  5
313
330
1F
100
AcDbEntity
  8
0
  6
SLD-Сплошная
 62
     7
370
    25
100
AcDbLine
 10
148.5077650257
 20
11.2586260995
 30
0.0
 11
142.9130649983
 21
11.2586260995
 31
0.0
  0
LINE
  5
314
330
1F
100
AcDbEntity
  8
0
  6
SLD-Сплошная
 62
     7
370
    25
100
AcDbLine
 10
148.5077650257
 20
11.282167305
 30
0.0
 11
148.5077650257
 21
11.2586260995
 31
0.0
  0
SPLINE
  5
315
330
1F
100
AcDbEntity
  8
0
  6
SLD-Сплошная
 62
     7
370
    25
100
AcDbSpline
210
0.0
220
0.0
230
1.0
 70
     8
 71
     3
 72
     8
 73
     4
 74
     0
 42
0.00000001
 43
0.00000001
 40
0.0
 40
0.0
 40
0.0
 40
0.0
 40
1.0
 40
1.0
 40
1.0
 40
1.0
 10
142.9130649983127
 20
12.52059002318614
 30
0.0
 10
144.7784110023335
 20
11.99880153063674
 30
0.0
 10
146.6428399072371
 20
11.58457037826507
 30
0.0
 10
148.507765025742
 20
11.28216730502264
 30
0.0
  0
LINE
  5
316
330
1F
100
AcDbEntity
  8
0
  6
SLD-Сплошная
 62
     7
370
    25
100
AcDbLine
 10
142.9130649983
 20
14.125516024
 30
0.0
 11
142.9130649983
 21
12.5205900232
 31
0.0
  0
SPLINE
  5
317
330
1F
100
AcDbEntity
  8
0
  6
SLD-Сплошная
 62
     7
370
    25
100
AcDbSpline
210
0.0
220
0.0
230
1.0
 70
     8
 71
     3
 72
     8
 73
     4
 74
     0
 42
0.00000001
 43
0.00000001
 40
0.0
 40
0.0
 40
0.0
 40
0.0
 40
1.0
 40
1.0
 40
1.0
 40
1.0
 10
148.6543640114154
 20
12.28708078054074
 30
0.0
 10
146.7407008115124
 20
12.78837505070218
 30
0.0
 10
144.8274593839899
 20
13.40342309291475
 30
0.0
 10
142.9130649983126
 20
14.12551602398114
 30
0.0
  0
SPLINE
  5
318
330
1F
100
AcDbEntity
  8
0
  6
SLD-Сплошная
 62
     7
370
    25
100
AcDbSpline
210
0.0
220
0.0
230
1.0
 70
     8
 71
     3
 72
     8
 73
     4
 74
     0
 42
0.00000001
 43
0.00000001
 40
0.0
 40
0.0
 40
0.0
 40
0.0
 40
1.0
 40
1.0
 40
1.0
 40
1.0
 10
148.8009629970827
 20
11.28216730502304
 30
0.0
 10
150.665888007618
 20
11.58457036075781
 30
0.0
 10
152.5303171538195
 20
11.99880156793238
 30
0.0
 10
154.3956630245128
 20
12.52059002318614
 30
0.0
  0
LINE
  5
319
330
1F
100
AcDbEntity
  8
0
  6
SLD-Сплошная
 62
     7
370
    25
100
AcDbLine
 10
148.8009629971
 20
11.282167305
 30
0.0
 11
148.8009629971
 21
11.2586260995
 31
0.0
  0
LINE
  5
31A
330
1F
100
AcDbEntity
  8
0
  6
SLD-Сплошная
 62
     7
370
    25
100
AcDbLine
 10
154.3956630245
 20
11.2586260995
 30
0.0
 11
148.8009629971
 21
11.2586260995
 31
0.0
  0
LINE
  5
31B
330
1F
100
AcDbEntity
  8
0
  6
SLD-Сплошная
 62
     7
370
    25
100
AcDbLine
 10
154.3956630245
 20
11.2586260995
 30
0.0
 11
154.3956630245
 21
10.7701277147
 31
0.0
  0
LINE
  5
31C
330
1F
100
AcDbEntity
  8
0
  6
SLD-Сплошная
 62
     7
370
    25
100
AcDbLine
 10
142.9130649983
 20
10.7701277147
 30
0.0
 11
154.3956630245
 21
10.7701277147
 31
0.0
  0
LINE
  5
31D
330
1F
100
AcDbEntity
  8
0
  6
SLD-Сплошная
 62
     7
370
    25
100
AcDbLine
 10
154.3956630245
 20
14.125516024
 30
0.0
 11
154.3956630245
 21
12.5205900232
 31
0.0
  0
LINE
  5
31E
330
1F
100
AcDbEntity
  8
0
  6
SLD-Сплошная
 62
     7
370
    25
100
AcDbLine
 10
142.9130649983
 20
14.3498291692
 30
0.0
 11
142.9130649983
 21
14.125516024
 31
0.0
  0
LINE
  5
31F
330
1F
100
AcDbEntity
  8
0
  6
SLD-Сплошная
 62
     7
370
    25
100
AcDbLine
 10
154.3956630245
 20
11.462361956
 30
0.0
 11
154.3956630245
 21
11.2586260995
 31
0.0
  0
LINE
  5
320
330
1F
100
AcDbEntity
  8
0
  6
SLD-Сплошная
 62
     7
370
    25
100
AcDbLine
 10
142.9130649983
 20
11.462361956
 30
0.0
 11
142.9130649983
 21
11.2586260995
 31
0.0
  0
SPLINE
  5
321
330
1F
100
AcDbEntity
  8
0
  6
SLD-Сплошная
 62
     7
370
    25
100
AcDbSpline
210
0.0
220
0.0
230
1.0
 70
     8
 71
     3
 72
    20
 73
    16
 74
     0
 42
0.00000001
 43
0.00000001
 40
0.0
 40
0.0
 40
0.0
 40
0.0
 40
0.2499999999999981
 40
0.2499999999999981
 40
0.4999999999999961
 40
0.4999999999999961
 40
0.6249999999999951
 40
0.6249999999999951
 40
0.6562499999999964
 40
0.6562499999999964
 40
0.6874999999999978
 40
0.6874999999999978
 40
0.7499999999999981
 40
0.7499999999999981
 40
1.0
 40
1.0
 40
1.0
 40
1.0
 10
299.1577840485256
 20
23.75217375324039
 30
0.0
 10
297.7408720343711
 20
22.82429425316707
 30
0.0
 10
296.2203388318956
 20
22.05679495503279
 30
0.0
 10
293.0475242105623
 20
20.87697212846339
 30
0.0
 10
291.3947392470948
 20
20.46585203685239
 30
0.0
 10
288.8788139414214
 20
20.13191653531582
 30
0.0
 10
288.0364244198067
 20
20.06757527894926
 30
0.0
 10
286.9742974932346
 20
20.04637702073105
 30
0.0
 10
286.7633537128597
 20
20.04605810778255
 30
0.0
 10
286.3508745495857
 20
20.0460565838674
 30
0.0
 10
286.1477692926516
 20
20.04605820264673
 30
0.0
 10
285.5335372093163
 20
20.04605932470452
 30
0.0
 10
285.1221780511408
 20
20.04605865151089
 30
0.0
 10
283.0698136768863
 20
20.04605865151089
 30
0.0
 10
281.4279221774846
 20
20.0460586515109
 30
0.0
 10
279.7860306780806
 20
20.04605865151089
 30
0.0
  0
SPLINE
  5
322
330
1F
100
AcDbEntity
  8
0
  6
SLD-Сплошная
 62
     7
370
    25
100
AcDbSpline
210
0.0
220
0.0
230
1.0
 70
     8
 71
     3
 72
    20
 73
    16
 74
     0
 42
0.00000001
 43
0.00000001
 40
0.0
 40
0.0
 40
0.0
 40
0.0
 40
0.2500000000000016
 40
0.2500000000000016
 40
0.5000000000000031
 40
0.5000000000000031
 40
0.6250000000000039
 40
0.6250000000000039
 40
0.6562500000000036
 40
0.6562500000000036
 40
0.6875000000000031
 40
0.6875000000000031
 40
0.7500000000000026
 40
0.7500000000000026
 40
1.0
 40
1.0
 40
1.0
 40
1.0
 10
299.1577840485256
 20
61.69709504416674
 30
0.0
 10
297.7408720343698
 20
62.62497454424068
 30
0.0
 10
296.220338831895
 20
63.39247384237241
 30
0.0
 10
293.0475242105625
 20
64.57229666894284
 30
0.0
 10
291.3947392470936
 20
64.98341676055536
 30
0.0
 10
288.8788139414232
 20
65.3173522620909
 30
0.0
 10
288.0364244198066
 20
65.38169351845839
 30
0.0
 10
286.9742974932348
 20
65.40289177667557
 30
0.0
 10
286.7633537128597
 20
65.40321068962474
 30
0.0
 10
286.3508745495856
 20
65.40321221354036
 30
0.0
 10
286.1477692926516
 20
65.40321059476054
 30
0.0
 10
285.5335372093164
 20
65.40320947270243
 30
0.0
 10
285.1221780511408
 20
65.40321014589625
 30
0.0
 10
283.0698136768863
 20
65.40321014589624
 30
0.0
 10
281.4279221774847
 20
65.40321014589625
 30
0.0
 10
279.7860306780806
 20
65.40321014589624
 30
0.0
  0
LINE
  5
323
330
1F
100
AcDbEntity
  8
0
  6
SLD-Сплошная
 62
     7
370
    25
100
AcDbLine
 10
301.5291964864
 20
60.1441510607
 30
0.0
 11
299.1577840485
 21
61.6970950442
 31
0.0
  0
LINE
  5
324
330
1F
100
AcDbEntity
  8
0
  6
SLD-Сплошная
 62
     7
370
    25
100
AcDbLine
 10
299.1577840485
 20
23.7521737532
 30
0.0
 11
301.5291964864
 21
25.3051177367
 31
0.0
  0
LINE
  5
325
330
1F
100
AcDbEntity
  8
0
  6
SLD-Сплошная
 62
     7
370
    25
100
AcDbLine
 10
150.2201693864
 20
10.7065686096
 30
0.0
 11
147.0885586364
 21
10.7065686096
 31
0.0
  0
LINE
  5
326
330
1F
100
AcDbEntity
  8
0
  6
SLD-Сплошная
 62
     7
370
    25
100
AcDbLine
 10
150.2201693864
 20
10.7065686096
 30
0.0
 11
150.2201693864
 21
10.6746343987
 31
0.0
  0
LINE
  5
327
330
1F
100
AcDbEntity
  8
0
  6
SLD-Сплошная
 62
     7
370
    25
100
AcDbLine
 10
151.2640522745
 20
10.7065686096
 30
0.0
 11
151.2640522745
 21
10.6746343987
 31
0.0
  0
LINE
  5
328
330
1F
100
AcDbEntity
  8
0
  6
SLD-Сплошная
 62
     7
370
    25
100
AcDbLine
 10
154.3956630245
 20
10.7065686096
 30
0.0
 11
151.2640522745
 21
10.7065686096
 31
0.0
  0
LINE
  5
329
330
1F
100
AcDbEntity
  8
0
  6
SLD-Сплошная
 62
     7
370
    25
100
AcDbLine
 10
147.0885586364
 20
10.7065686096
 30
0.0
 11
147.0885586364
 21
10.6746343987
 31
0.0
  0
LINE
  5
32A
330
1F
100
AcDbEntity
  8
0
  6
SLD-Сплошная
 62
     7
370
    25
100
AcDbLine
 10
154.3956630245
 20
10.7065686096
 30
0.0
 11
154.3956630245
 21
10.6746343987
 31
0.0
  0
LINE
  5
32B
330
1F
100
AcDbEntity
  8
0
  6
SLD-Сплошная
 62
     7
370
    25
100
AcDbLine
 10
151.2640522745
 20
10.7701277147
 30
0.0
 11
151.2640522745
 21
10.7065686096
 31
0.0
  0
LINE
  5
32C
330
1F
100
AcDbEntity
  8
0
  6
SLD-Сплошная
 62
     7
370
    25
100
AcDbLine
 10
154.3956630245
 20
10.7701277147
 30
0.0
 11
154.3956630245
 21
10.7065686096
 31
0.0
  0
LINE
  5
32D
330
1F
100
AcDbEntity
  8
0
  6
SLD-Сплошная
 62
     7
370
    25
100
AcDbLine
 10
147.0885586364
 20
10.7701277147
 30
0.0
 11
147.0885586364
 21
10.7065686096
 31
0.0
  0
LINE
  5
32E
330
1F
100
AcDbEntity
  8
0
  6
SLD-Сплошная
 62
     7
370
    25
100
AcDbLine
 10
150.2201693864
 20
10.7701277147
 30
0.0
 11
150.2201693864
 21
10.7065686096
 31
0.0
  0
LINE
  5
32F
330
1F
100
AcDbEntity
  8
0
  6
SLD-Сплошная
 62
     7
370
    25
100
AcDbLine
 10
142.9130649983
 20
10.7065686096
 30
0.0
 11
142.9130649983
 21
10.6746343987
 31
0.0
  0
LINE
  5
330
330
1F
100
AcDbEntity
  8
0
  6
SLD-Сплошная
 62
     7
370
    25
100
AcDbLine
 10
146.0446757483
 20
10.7065686096
 30
0.0
 11
142.9130649983
 21
10.7065686096
 31
0.0
  0
LINE
  5
331
330
1F
100
AcDbEntity
  8
0
  6
SLD-Сплошная
 62
     7
370
    25
100
AcDbLine
 10
146.0446757483
 20
10.7065686096
 30
0.0
 11
146.0446757483
 21
10.6746343987
 31
0.0
  0
LINE
  5
332
330
1F
100
AcDbEntity
  8
0
  6
SLD-Сплошная
 62
     7
370
    25
100
AcDbLine
 10
142.9130649983
 20
10.7701277147
 30
0.0
 11
142.9130649983
 21
10.7065686096
 31
0.0
  0
LINE
  5
333
330
1F
100
AcDbEntity
  8
0
  6
SLD-Сплошная
 62
     7
370
    25
100
AcDbLine
 10
146.0446757483
 20
10.7701277147
 30
0.0
 11
146.0446757483
 21
10.7065686096
 31
0.0
  0
ENDSEC
  0
SECTION
  2
OBJECTS
  0
DICTIONARY
  5
C
330
0
100
AcDbDictionary
281
     1
  3
ACAD_GROUP
350
D
  3
ACAD_LAYOUT
350
1A
  3
ACAD_MLINESTYLE
350
17
  3
ACAD_PLOTSETTINGS
350
19
  3
ACAD_PLOTSTYLENAME
350
E
  3
ACAD_SCALELIST
350
47
  3
DWGPROPS
350
334
  0
DICTIONARY
  5
D
102
{ACAD_REACTORS
330
C
102
}
330
C
100
AcDbDictionary
281
     1
  0
DICTIONARY
  5
1A
102
{ACAD_REACTORS
330
C
102
}
330
C
100
AcDbDictionary
281
     1
  3
Layout1
350
1E
  3
Layout2
350
26
  3
Model
350
22
  0
DICTIONARY
  5
17
102
{ACAD_REACTORS
330
C
102
}
330
C
100
AcDbDictionary
281
     1
  3
Standard
350
18
  0
DICTIONARY
  5
19
102
{ACAD_REACTORS
330
C
102
}
330
C
100
AcDbDictionary
281
     1
  0
ACDBDICTIONARYWDFLT
  5
E
102
{ACAD_REACTORS
330
C
102
}
330
C
100
AcDbDictionary
281
     1
  3
Normal
350
F
100
AcDbDictionaryWithDefault
340
F
  0
DICTIONARY
  5
47
102
{ACAD_REACTORS
330
C
102
}
330
C
100
AcDbDictionary
281
     1
  3
A0
350
48
  3
A1
350
49
  3
A2
350
4A
  3
A3
350
4B
  3
A4
350
4C
  3
A5
350
4D
  3
A6
350
4E
  3
A7
350
4F
  3
A8
350
50
  3
A9
350
51
  3
B0
350
52
  3
B1
350
53
  3
B2
350
54
  3
B3
350
55
  3
B4
350
56
  3
B5
350
57
  3
B6
350
58
  0
XRECORD
  5
334
102
{ACAD_REACTORS
330
C
102
}
330
C
100
AcDbXrecord
280
     1
  1
DWGPROPS COOKIE
  2

  3

  4

  6

  7

  8
inyankin
  9

300
=
301
=
302
=
303
=
304
=
305
=
306
=
307
=
308
=
309
=
 40
0.0
 41
2460921.372745787
 42
2460921.372746632
  1

 90
        0
  0
LAYOUT
  5
1E
102
{ACAD_REACTORS
330
1A
102
}
330
1A
100
AcDbPlotSettings
  1

  2
none_device
  4

  6

 40
0.0
 41
0.0
 42
0.0
 43
0.0
 44
0.0
 45
0.0
 46
0.0
 47
0.0
 48
0.0
 49
0.0
140
0.0
141
0.0
142
1.0
143
1.0
 70
   688
 72
     1
 73
     0
 74
     5
  7

 75
    16
147
1.0
148
0.0
149
0.0
100
AcDbLayout
  1
Layout1
 70
     1
 71
     1
 10
0.0
 20
0.0
 11
420.0
 21
297.0
 12
0.0
 22
0.0
 32
0.0
 14
1.0000000000E+20
 24
1.0000000000E+20
 34
1.0000000000E+20
 15
-1.0000000000E+20
 25
-1.0000000000E+20
 35
-1.0000000000E+20
146
0.0
 13
0.0
 23
0.0
 33
0.0
 16
1.0
 26
0.0
 36
0.0
 17
0.0
 27
1.0
 37
0.0
 76
     0
330
1B
  0
LAYOUT
  5
26
102
{ACAD_REACTORS
330
1A
102
}
330
1A
100
AcDbPlotSettings
  1

  2
none_device
  4

  6

 40
0.0
 41
0.0
 42
0.0
 43
0.0
 44
0.0
 45
0.0
 46
0.0
 47
0.0
 48
0.0
 49
0.0
140
0.0
141
0.0
142
1.0
143
1.0
 70
   688
 72
     1
 73
     0
 74
     5
  7

 75
    16
147
1.0
148
0.0
149
0.0
100
AcDbLayout
  1
Layout2
 70
     1
 71
     2
 10
0.0
 20
0.0
 11
0.0
 21
0.0
 12
0.0
 22
0.0
 32
0.0
 14
0.0
 24
0.0
 34
0.0
 15
0.0
 25
0.0
 35
0.0
146
0.0
 13
0.0
 23
0.0
 33
0.0
 16
1.0
 26
0.0
 36
0.0
 17
0.0
 27
1.0
 37
0.0
 76
     0
330
23
  0
LAYOUT
  5
22
102
{ACAD_REACTORS
330
1A
102
}
330
1A
100
AcDbPlotSettings
  1

  2
none_device
  4
Letter_(8.50_x_11.00_Inches)
  6

 40
6.35
 41
6.35
 42
6.35000508
 43
6.35000508
 44
215.9
 45
279.4
 46
0.0
 47
0.0
 48
0.0
 49
0.0
140
0.0
141
0.0
142
1.0
143
1.0
 70
  1712
 72
     1
 73
     0
 74
     0
  7

 75
     0
147
1.0
148
0.0
149
0.0
100
AcDbLayout
  1
Model
 70
     1
 71
     0
 10
0.0
 20
0.0
 11
431.8
 21
279.4
 12
0.0
 22
0.0
 32
0.0
 14
0.0
 24
0.0
 34
0.0
 15
431.8
 25
279.4
 35
0.0
146
0.0
 13
0.0
 23
0.0
 33
0.0
 16
1.0
 26
0.0
 36
0.0
 17
0.0
 27
1.0
 37
0.0
 76
     0
330
1F
331
29
  0
MLINESTYLE
  5
18
102
{ACAD_REACTORS
330
17
102
}
330
17
100
AcDbMlineStyle
  2
Standard
 70
     0
  3

 62
   256
 51
90.0
 52
90.0
 71
     2
 49
0.5
 62
   256
  6
BYLAYER
 49
-0.5
 62
   256
  6
BYLAYER
  0
ACDBPLACEHOLDER
  5
F
102
{ACAD_REACTORS
330
E
102
}
330
E
  0
SCALE
  5
48
102
{ACAD_REACTORS
330
47
102
}
330
47
100
AcDbScale
 70
     0
300
1:1
140
1.0
141
1.0
290
     1
  0
SCALE
  5
49
102
{ACAD_REACTORS
330
47
102
}
330
47
100
AcDbScale
 70
     0
300
1:2
140
1.0
141
2.0
290
     0
  0
SCALE
  5
4A
102
{ACAD_REACTORS
330
47
102
}
330
47
100
AcDbScale
 70
     0
300
1:4
140
1.0
141
4.0
290
     0
  0
SCALE
  5
4B
102
{ACAD_REACTORS
330
47
102
}
330
47
100
AcDbScale
 70
     0
300
1:5
140
1.0
141
5.0
290
     0
  0
SCALE
  5
4C
102
{ACAD_REACTORS
330
47
102
}
330
47
100
AcDbScale
 70
     0
300
1:8
140
1.0
141
8.0
290
     0
  0
SCALE
  5
4D
102
{ACAD_REACTORS
330
47
102
}
330
47
100
AcDbScale
 70
     0
300
1:10
140
1.0
141
10.0
290
     0
  0
SCALE
  5
4E
102
{ACAD_REACTORS
330
47
102
}
330
47
100
AcDbScale
 70
     0
300
1:16
140
1.0
141
16.0
290
     0
  0
SCALE
  5
4F
102
{ACAD_REACTORS
330
47
102
}
330
47
100
AcDbScale
 70
     0
300
1:20
140
1.0
141
20.0
290
     0
  0
SCALE
  5
50
102
{ACAD_REACTORS
330
47
102
}
330
47
100
AcDbScale
 70
     0
300
1:30
140
1.0
141
30.0
290
     0
  0
SCALE
  5
51
102
{ACAD_REACTORS
330
47
102
}
330
47
100
AcDbScale
 70
     0
300
1:40
140
1.0
141
40.0
290
     0
  0
SCALE
  5
52
102
{ACAD_REACTORS
330
47
102
}
330
47
100
AcDbScale
 70
     0
300
1:50
140
1.0
141
50.0
290
     0
  0
SCALE
  5
53
102
{ACAD_REACTORS
330
47
102
}
330
47
100
AcDbScale
 70
     0
300
1:100
140
1.0
141
100.0
290
     0
  0
SCALE
  5
54
102
{ACAD_REACTORS
330
47
102
}
330
47
100
AcDbScale
 70
     0
300
2:1
140
2.0
141
1.0
290
     0
  0
SCALE
  5
55
102
{ACAD_REACTORS
330
47
102
}
330
47
100
AcDbScale
 70
     0
300
4:1
140
4.0
141
1.0
290
     0
  0
SCALE
  5
56
102
{ACAD_REACTORS
330
47
102
}
330
47
100
AcDbScale
 70
     0
300
8:1
140
8.0
141
1.0
290
     0
  0
SCALE
  5
57
102
{ACAD_REACTORS
330
47
102
}
330
47
100
AcDbScale
 70
     0
300
10:1
140
10.0
141
1.0
290
     0
  0
SCALE
  5
58
102
{ACAD_REACTORS
330
47
102
}
330
47
100
AcDbScale
 70
     0
300
100:1
140
100.0
141
1.0
290
     0
  0
ENDSEC
  0
EOF
