  0
SECTION
  2
HEADER
  9
$ACADVER
  1
AC1015
  9
$ACADMAINTVER
 70
     6
  9
$DWGCODEPAGE
  3
ANSI_1251
  9
$INSBASE
 10
0.0
 20
0.0
 30
0.0
  9
$EXTMIN
 10
0.0
 20
0.0
 30
0.0
  9
$EXTMAX
 10
4000.0
 20
3300.0
 30
0.0
  9
$LIMMIN
 10
0.0
 20
0.0
  9
$LIMMAX
 10
4000.0
 20
3300.0
  9
$ORTHOMODE
 70
     0
  9
$REGENMODE
 70
     1
  9
$FILLMODE
 70
     1
  9
$QTEXTMODE
 70
     0
  9
$MIRRTEXT
 70
     1
  9
$LTSCALE
 40
1.0
  9
$ATTMODE
 70
     1
  9
$TEXTSIZE
 40
3.5
  9
$TRACEWID
 40
1.0
  9
$TEXTSTYLE
  7
Standard
  9
$CLAYER
  8
0
  9
$CELTYPE
  6
ByLayer
  9
$CECOLOR
 62
   256
  9
$CELTSCALE
 40
1.0
  9
$DISPSILH
 70
     0
  9
$DIMSCALE
 40
1.0
  9
$DIMASZ
 40
3.302
  9
$DIMEXO
 40
0.0
  9
$DIMDLI
 40
3.75
  9
$DIMRND
 40
0.0
  9
$DIMDLE
 40
0.0
  9
$DIMEXE
 40
1.0
  9
$DIMTP
 40
0.0
  9
$DIMTM
 40
0.0
  9
$DIMTXT
 40
3.5
  9
$DIMCEN
 40
2.5
  9
$DIMTSZ
 40
0.0
  9
$DIMTOL
 70
     0
  9
$DIMLIM
 70
     0
  9
$DIMTIH
 70
     1
  9
$DIMTOH
 70
     1
  9
$DIMSE1
 70
     0
  9
$DIMSE2
 70
     0
  9
$DIMTAD
 70
     1
  9
$DIMZIN
 70
     0
  9
$DIMBLK
  1

  9
$DIMASO
 70
     1
  9
$DIMSHO
 70
     1
  9
$DIMPOST
  1

  9
$DIMAPOST
  1

  9
$DIMALT
 70
     0
  9
$DIMALTD
 70
     3
  9
$DIMALTF
 40
0.0393700787
  9
$DIMLFAC
 40
1.0
  9
$DIMTOFL
 70
     1
  9
$DIMTVP
 40
0.0
  9
$DIMTIX
 70
     0
  9
$DIMSOXD
 70
     0
  9
$DIMSAH
 70
     0
  9
$DIMBLK1
  1

  9
$DIMBLK2
  1

  9
$DIMSTYLE
  2
ISO-25
  9
$DIMCLRD
 70
     0
  9
$DIMCLRE
 70
     0
  9
$DIMCLRT
 70
     0
  9
$DIMTFAC
 40
1.0
  9
$DIMGAP
 40
1.524
  9
$DIMJUST
 70
     0
  9
$DIMSD1
 70
     0
  9
$DIMSD2
 70
     0
  9
$DIMTOLJ
 70
     0
  9
$DIMTZIN
 70
     0
  9
$DIMALTZ
 70
     0
  9
$DIMALTTZ
 70
     0
  9
$DIMUPT
 70
     0
  9
$DIMDEC
 70
     2
  9
$DIMTDEC
 70
     2
  9
$DIMALTU
 70
     2
  9
$DIMALTTD
 70
     3
  9
$DIMTXSTY
  7
Standard
  9
$DIMAUNIT
 70
     0
  9
$DIMADEC
 70
     2
  9
$DIMALTRND
 40
0.0
  9
$DIMAZIN
 70
     0
  9
$DIMDSEP
 70
    44
  9
$DIMATFIT
 70
     3
  9
$DIMFRAC
 70
     0
  9
$DIMLDRBLK
  1

  9
$DIMLUNIT
 70
     2
  9
$DIMLWD
 70
    -2
  9
$DIMLWE
 70
    -2
  9
$DIMTMOVE
 70
     0
  9
$LUNITS
 70
     2
  9
$LUPREC
 70
     1
  9
$SKETCHINC
 40
1.0
  9
$FILLETRAD
 40
10.0
  9
$AUNITS
 70
     1
  9
$AUPREC
 70
     2
  9
$MENU
  1
.
  9
$ELEVATION
 40
0.0
  9
$PELEVATION
 40
0.0
  9
$THICKNESS
 40
0.0
  9
$LIMCHECK
 70
     0
  9
$CHAMFERA
 40
0.0
  9
$CHAMFERB
 40
0.0
  9
$CHAMFERC
 40
0.0
  9
$CHAMFERD
 40
0.0
  9
$SKPOLY
 70
     0
  9
$TDCREATE
 40
2459492.740507095
  9
$TDUCREATE
 40
2459492.615507095
  9
$TDUPDATE
 40
2459492.740508611
  9
$TDUUPDATE
 40
2459492.615508611
  9
$TDINDWG
 40
0.0000000116
  9
$TDUSRTIMER
 40
0.0000000116
  9
$USRTIMER
 70
     1
  9
$ANGBASE
 50
0.0
  9
$ANGDIR
 70
     0
  9
$PDMODE
 70
     0
  9
$PDSIZE
 40
-1.0
  9
$PLINEWID
 40
0.0
  9
$SPLFRAME
 70
     0
  9
$SPLINETYPE
 70
     6
  9
$SPLINESEGS
 70
     8
  9
$HANDSEED
  5
1FA
  9
$SURFTAB1
 70
     6
  9
$SURFTAB2
 70
     6
  9
$SURFTYPE
 70
     6
  9
$SURFU
 70
     6
  9
$SURFV
 70
     6
  9
$UCSBASE
  2

  9
$UCSNAME
  2

  9
$UCSORG
 10
0.0
 20
0.0
 30
0.0
  9
$UCSXDIR
 10
1.0
 20
0.0
 30
0.0
  9
$UCSYDIR
 10
0.0
 20
1.0
 30
0.0
  9
$UCSORTHOREF
  2

  9
$UCSORTHOVIEW
 70
     0
  9
$UCSORGTOP
 10
0.0
 20
0.0
 30
0.0
  9
$UCSORGBOTTOM
 10
0.0
 20
0.0
 30
0.0
  9
$UCSORGLEFT
 10
0.0
 20
0.0
 30
0.0
  9
$UCSORGRIGHT
 10
0.0
 20
0.0
 30
0.0
  9
$UCSORGFRONT
 10
0.0
 20
0.0
 30
0.0
  9
$UCSORGBACK
 10
0.0
 20
0.0
 30
0.0
  9
$PUCSBASE
  2

  9
$PUCSNAME
  2

  9
$PUCSORG
 10
0.0
 20
0.0
 30
0.0
  9
$PUCSXDIR
 10
1.0
 20
0.0
 30
0.0
  9
$PUCSYDIR
 10
0.0
 20
1.0
 30
0.0
  9
$PUCSORTHOREF
  2

  9
$PUCSORTHOVIEW
 70
     0
  9
$PUCSORGTOP
 10
0.0
 20
0.0
 30
0.0
  9
$PUCSORGBOTTOM
 10
0.0
 20
0.0
 30
0.0
  9
$PUCSORGLEFT
 10
0.0
 20
0.0
 30
0.0
  9
$PUCSORGRIGHT
 10
0.0
 20
0.0
 30
0.0
  9
$PUCSORGFRONT
 10
0.0
 20
0.0
 30
0.0
  9
$PUCSORGBACK
 10
0.0
 20
0.0
 30
0.0
  9
$USERI1
 70
     0
  9
$USERI2
 70
     0
  9
$USERI3
 70
     0
  9
$USERI4
 70
     0
  9
$USERI5
 70
     0
  9
$USERR1
 40
0.0
  9
$USERR2
 40
0.0
  9
$USERR3
 40
0.0
  9
$USERR4
 40
0.0
  9
$USERR5
 40
0.0
  9
$WORLDVIEW
 70
     1
  9
$SHADEDGE
 70
     3
  9
$SHADEDIF
 70
    70
  9
$TILEMODE
 70
     1
  9
$MAXACTVP
 70
    64
  9
$PINSBASE
 10
0.0
 20
0.0
 30
0.0
  9
$PLIMCHECK
 70
     0
  9
$PEXTMIN
 10
1.0000000000E+20
 20
1.0000000000E+20
 30
1.0000000000E+20
  9
$PEXTMAX
 10
-1.0000000000E+20
 20
-1.0000000000E+20
 30
-1.0000000000E+20
  9
$PLIMMIN
 10
0.0
 20
0.0
  9
$PLIMMAX
 10
420.0
 20
297.0
  9
$UNITMODE
 70
     0
  9
$VISRETAIN
 70
     1
  9
$PLINEGEN
 70
     0
  9
$PSLTSCALE
 70
     1
  9
$TREEDEPTH
 70
  3020
  9
$CMLSTYLE
  2
Standard
  9
$CMLJUST
 70
     0
  9
$CMLSCALE
 40
20.0
  9
$PROXYGRAPHICS
 70
     1
  9
$MEASUREMENT
 70
     1
  9
$CELWEIGHT
370
    -1
  9
$ENDCAPS
280
     0
  9
$JOINSTYLE
280
     0
  9
$LWDISPLAY
290
     1
  9
$INSUNITS
 70
     4
  9
$HYPERLINKBASE
  1

  9
$STYLESHEET
  1

  9
$XEDIT
290
     1
  9
$CEPSNTYPE
380
     0
  9
$PSTYLEMODE
290
     1
  9
$FINGERPRINTGUID
  2
{9744CA60-3634-49C6-8645-46EAC0C525D4}
  9
$VERSIONGUID
  2
{FAEB1C32-E019-11D5-929B-00C0DF256EC4}
  9
$EXTNAMES
290
     1
  9
$PSVPSCALE
 40
0.0
  9
$OLESTARTUP
290
     0
  0
ENDSEC
  0
SECTION
  2
CLASSES
  0
CLASS
  1
ACDBDICTIONARYWDFLT
  2
AcDbDictionaryWithDefault
  3
ObjectDBX Classes
 90
        0
280
     0
281
     0
  0
CLASS
  1
VISUALSTYLE
  2
AcDbVisualStyle
  3
ObjectDBX Classes
 90
     4095
280
     0
281
     0
  0
CLASS
  1
MATERIAL
  2
AcDbMaterial
  3
ObjectDBX Classes
 90
     1153
280
     0
281
     0
  0
CLASS
  1
SCALE
  2
AcDbScale
  3
ObjectDBX Classes
 90
     1153
280
     0
281
     0
  0
CLASS
  1
TABLESTYLE
  2
AcDbTableStyle
  3
ObjectDBX Classes
 90
     4095
280
     0
281
     0
  0
CLASS
  1
MLEADERSTYLE
  2
AcDbMLeaderStyle
  3
ACDB_MLEADERSTYLE_CLASS
 90
     4095
280
     0
281
     0
  0
CLASS
  1
SUN
  2
AcDbSun
  3
SCENEOE
 90
     1153
280
     0
281
     0
  0
CLASS
  1
ACDBPLACEHOLDER
  2
AcDbPlaceHolder
  3
ObjectDBX Classes
 90
        0
280
     0
281
     0
  0
CLASS
  1
LAYOUT
  2
AcDbLayout
  3
ObjectDBX Classes
 90
        0
280
     0
281
     0
  0
ENDSEC
  0
SECTION
  2
TABLES
  0
TABLE
  2
VPORT
  5
8
330
0
100
AcDbSymbolTable
 70
     1
  0
VPORT
  5
29
330
8
100
AcDbSymbolTableRecord
100
AcDbViewportTableRecord
  2
*Active
 70
     0
 10
0.0
 20
0.0
 11
1.0
 21
1.0
 12
2000.0
 22
1650.0
 13
0.0
 23
0.0
 14
10.0
 24
10.0
 15
10.0
 25
10.0
 16
0.0
 26
0.0
 36
1.0
 17
0.0
 27
0.0
 37
0.0
 40
3300.0
 41
1.2121212121
 42
50.0
 43
0.0
 44
0.0
 50
0.0
 51
0.0
 71
     0
 72
  2000
 73
     1
 74
     3
 75
     0
 76
     0
 77
     0
 78
     0
281
     0
 65
     1
110
0.0
120
0.0
130
0.0
111
1.0
121
0.0
131
0.0
112
0.0
122
1.0
132
0.0
 79
     0
146
0.0
  0
ENDTAB
  0
TABLE
  2
LTYPE
  5
5
330
0
100
AcDbSymbolTable
 70
     6
  0
LTYPE
  5
14
330
5
100
AcDbSymbolTableRecord
100
AcDbLinetypeTableRecord
  2
ByBlock
 70
     0
  3

 72
    65
 73
     0
 40
0.0
  0
LTYPE
  5
15
330
5
100
AcDbSymbolTableRecord
100
AcDbLinetypeTableRecord
  2
ByLayer
 70
     0
  3

 72
    65
 73
     0
 40
0.0
  0
LTYPE
  5
16
330
5
100
AcDbSymbolTableRecord
100
AcDbLinetypeTableRecord
  2
Continuous
 70
     0
  3
Solid line
 72
    65
 73
     0
 40
0.0
  0
LTYPE
  5
6E
330
5
100
AcDbSymbolTableRecord
100
AcDbLinetypeTableRecord
  2
HIDDEN
 70
     0
  3
Hidden __ __ __ __ __ __ __ __ __ __ __ __ __ __
 72
    65
 73
     2
 40
1.905
 49
1.27
 74
     0
 49
-0.635
 74
     0
  0
LTYPE
  5
6F
330
5
100
AcDbSymbolTableRecord
100
AcDbLinetypeTableRecord
  2
PHANTOM
 70
     0
  3
Phantom ______  __  __  ______  __  __  ______
 72
    65
 73
     6
 40
12.7
 49
6.35
 74
     0
 49
-1.27
 74
     0
 49
1.27
 74
     0
 49
-1.27
 74
     0
 49
1.27
 74
     0
 49
-1.27
 74
     0
  0
LTYPE
  5
70
330
5
100
AcDbSymbolTableRecord
100
AcDbLinetypeTableRecord
  2
CENTER
 70
     0
  3
Center ____ _ ____ _ ____ _ ____ _ ____ _ ____
 72
    65
 73
     4
 40
10.16
 49
6.35
 74
     0
 49
-1.27
 74
     0
 49
1.27
 74
     0
 49
-1.27
 74
     0
  0
LTYPE
  5
71
330
5
100
AcDbSymbolTableRecord
100
AcDbLinetypeTableRecord
  2
CENTERX2
 70
     0
  3
Center (2x) ________  __  ________  __  _____
 72
    65
 73
     4
 40
20.32
 49
12.7
 74
     0
 49
-2.54
 74
     0
 49
2.54
 74
     0
 49
-2.54
 74
     0
  0
LTYPE
  5
72
330
5
100
AcDbSymbolTableRecord
100
AcDbLinetypeTableRecord
  2
DOT2
 70
     0
  3
Dot (.5x) ........................................
 72
    65
 73
     2
 40
0.635
 49
0.0
 74
     0
 49
-0.635
 74
     0
  0
ENDTAB
  0
TABLE
  2
LAYER
  5
2
330
0
100
AcDbSymbolTable
 70
    11
  0
LAYER
  5
10
330
2
100
AcDbSymbolTableRecord
100
AcDbLayerTableRecord
  2
0
 70
     0
 62
     7
  6
Continuous
370
    -3
390
F
  0
LAYER
  5
73
330
2
100
AcDbSymbolTableRecord
100
AcDbLayerTableRecord
  2
SLD-0
 70
     0
 62
     7
  6
Continuous
370
    25
390
F
  0
LAYER
  5
74
330
2
100
AcDbSymbolTableRecord
100
AcDbLayerTableRecord
  2
OSNOVA
 70
     0
 62
     5
  6
Continuous
370
    -3
390
F
  0
LAYER
  5
75
330
2
100
AcDbSymbolTableRecord
100
AcDbLayerTableRecord
  2
HIDE
 70
     0
 62
    -1
  6
Continuous
290
     0
370
    -3
390
F
  0
LAYER
  5
76
330
2
100
AcDbSymbolTableRecord
100
AcDbLayerTableRecord
  2
THIN_LINE
 70
     0
 62
     7
  6
Continuous
370
    25
390
F
  0
LAYER
  5
77
330
2
100
AcDbSymbolTableRecord
100
AcDbLayerTableRecord
  2
THICK_LINE
 70
     0
 62
     7
  6
Continuous
370
    25
390
F
  0
LAYER
  5
78
330
2
100
AcDbSymbolTableRecord
100
AcDbLayerTableRecord
  2
ПОДЧЕРКТИПОРАЗМЕР
 70
     0
 62
    -7
  6
Continuous
290
     0
370
    -3
390
F
  0
LAYER
  5
79
330
2
100
AcDbSymbolTableRecord
100
AcDbLayerTableRecord
  2
THIN_LIONE
 70
     0
 62
     7
  6
Continuous
370
    -3
390
F
  0
LAYER
  5
7A
330
2
100
AcDbSymbolTableRecord
100
AcDbLayerTableRecord
  2
THICK_LIONE
 70
     0
 62
     7
  6
Continuous
370
    25
390
F
  0
LAYER
  5
7B
330
2
100
AcDbSymbolTableRecord
100
AcDbLayerTableRecord
  2
ПОДЧЕРКТИПАРАЗМЕР
 70
     0
 62
    -7
  6
Continuous
290
     0
370
    -3
390
F
  0
LAYER
  5
7C
330
2
100
AcDbSymbolTableRecord
100
AcDbLayerTableRecord
  2
ИЗМЕН_РАЗМЕР
 70
     0
 62
     1
  6
Continuous
370
    -3
390
F
  0
ENDTAB
  0
TABLE
  2
STYLE
  5
3
330
0
100
AcDbSymbolTable
 70
     1
  0
STYLE
  5
11
330
3
100
AcDbSymbolTableRecord
100
AcDbTextStyleTableRecord
  2
Standard
 70
     0
 40
0.0
 41
1.0
 50
0.0
 71
     0
 42
3.5
  3
txt
  4

  0
ENDTAB
  0
TABLE
  2
VIEW
  5
6
330
0
100
AcDbSymbolTable
 70
     0
  0
ENDTAB
  0
TABLE
  2
UCS
  5
7
330
0
100
AcDbSymbolTable
 70
     0
  0
ENDTAB
  0
TABLE
  2
APPID
  5
9
330
0
100
AcDbSymbolTable
 70
     1
  0
APPID
  5
12
330
9
100
AcDbSymbolTableRecord
100
AcDbRegAppTableRecord
  2
ACAD
 70
     0
  0
ENDTAB
  0
TABLE
  2
DIMSTYLE
  5
A
330
0
100
AcDbSymbolTable
 70
     1
100
AcDbDimStyleTable
  0
DIMSTYLE
105
27
330
A
100
AcDbSymbolTableRecord
100
AcDbDimStyleTableRecord
  2
ISO-25
 70
     0
 41
2.5
 42
0.625
 43
3.75
 44
1.25
 73
     0
 74
     0
 77
     1
 78
     8
140
2.5
141
2.5
143
0.0393700787
147
0.625
171
     3
172
     1
178
     0
271
     2
272
     2
274
     3
278
    44
283
     0
284
     8
340
11
  0
ENDTAB
  0
TABLE
  2
BLOCK_RECORD
  5
1
330
0
100
AcDbSymbolTable
 70
     1
  0
BLOCK_RECORD
  5
1F
330
1
100
AcDbSymbolTableRecord
100
AcDbBlockTableRecord
  2
*Model_Space
340
22
  0
BLOCK_RECORD
  5
1B
330
1
100
AcDbSymbolTableRecord
100
AcDbBlockTableRecord
  2
*Paper_Space
340
1E
  0
BLOCK_RECORD
  5
23
330
1
100
AcDbSymbolTableRecord
100
AcDbBlockTableRecord
  2
*Paper_Space0
340
26
  0
ENDTAB
  0
ENDSEC
  0
SECTION
  2
BLOCKS
  0
BLOCK
  5
20
330
1F
100
AcDbEntity
  8
0
100
AcDbBlockBegin
  2
*Model_Space
 70
     0
 10
0.0
 20
0.0
 30
0.0
  3
*Model_Space
  1

  0
ENDBLK
  5
21
330
1F
100
AcDbEntity
  8
0
100
AcDbBlockEnd
  0
BLOCK
  5
1C
330
1B
100
AcDbEntity
 67
     1
  8
0
100
AcDbBlockBegin
  2
*Paper_Space
 70
     0
 10
0.0
 20
0.0
 30
0.0
  3
*Paper_Space
  1

  0
ENDBLK
  5
1D
330
1B
100
AcDbEntity
 67
     1
  8
0
100
AcDbBlockEnd
  0
BLOCK
  5
24
330
23
100
AcDbEntity
  8
0
100
AcDbBlockBegin
  2
*Paper_Space0
 70
     0
 10
0.0
 20
0.0
 30
0.0
  3
*Paper_Space0
  1

  0
ENDBLK
  5
25
330
23
100
AcDbEntity
  8
0
100
AcDbBlockEnd
  0
ENDSEC
  0
SECTION
  2
ENTITIES
  0
LINE
  5
7D
330
1F
100
AcDbEntity
  8
0
  6
Continuous
 62
     7
370
    25
100
AcDbLine
 10
109.3759275917
 20
2058.378709553
 30
0.0
 11
109.3759275917
 21
2059.5444786984
 31
0.0
  0
LINE
  5
7E
330
1F
100
AcDbEntity
  8
0
  6
Continuous
 62
     7
370
    25
100
AcDbLine
 10
3109.3759275917
 20
2059.5444786984
 30
0.0
 11
109.3759275917
 21
2059.5444786984
 31
0.0
  0
LINE
  5
7F
330
1F
100
AcDbEntity
  8
0
  6
Continuous
 62
     7
370
    25
100
AcDbLine
 10
3109.3759275917
 20
2058.378709553
 30
0.0
 11
3109.3759275917
 21
2059.5444786984
 31
0.0
  0
LINE
  5
80
330
1F
100
AcDbEntity
  8
0
  6
Continuous
 62
     7
370
    25
100
AcDbLine
 10
3109.3759275917
 20
1993.378709553
 30
0.0
 11
3109.3759275917
 21
1995.878709553
 31
0.0
  0
LINE
  5
81
330
1F
100
AcDbEntity
  8
0
  6
Continuous
 62
     7
370
    25
100
AcDbLine
 10
3109.3759275917
 20
1993.378709553
 30
0.0
 11
109.3759275917
 21
1993.378709553
 31
0.0
  0
LINE
  5
82
330
1F
100
AcDbEntity
  8
0
  6
Continuous
 62
     7
370
    25
100
AcDbLine
 10
109.3759275917
 20
1993.378709553
 30
0.0
 11
109.3759275917
 21
1995.878709553
 31
0.0
  0
LINE
  5
83
330
1F
100
AcDbEntity
  8
0
  6
Continuous
 62
     7
370
    25
100
AcDbLine
 10
109.3759275917
 20
2058.378709553
 30
0.0
 11
109.3759275917
 21
1995.878709553
 31
0.0
  0
ARC
  5
84
330
1F
100
AcDbEntity
  8
0
  6
Continuous
 62
     7
370
    25
100
AcDbCircle
 10
3075.3759275917
 20
2011.378709553
 30
0.0
 40
3.5
100
AcDbArc
 50
90.0
 51
270.0
  0
LINE
  5
85
330
1F
100
AcDbEntity
  8
0
  6
Continuous
 62
     7
370
    25
100
AcDbLine
 10
3093.3759275917
 20
2014.878709553
 30
0.0
 11
3075.3759275917
 21
2014.878709553
 31
0.0
  0
ARC
  5
86
330
1F
100
AcDbEntity
  8
0
  6
Continuous
 62
     7
370
    25
100
AcDbCircle
 10
3025.3759275917
 20
2011.378709553
 30
0.0
 40
3.5
100
AcDbArc
 50
90.0
 51
270.0
  0
LINE
  5
87
330
1F
100
AcDbEntity
  8
0
  6
Continuous
 62
     7
370
    25
100
AcDbLine
 10
3025.3759275917
 20
2007.878709553
 30
0.0
 11
3043.3759275917
 21
2007.878709553
 31
0.0
  0
ARC
  5
88
330
1F
100
AcDbEntity
  8
0
  6
Continuous
 62
     7
370
    25
100
AcDbCircle
 10
3043.3759275917
 20
2011.378709553
 30
0.0
 40
3.5
100
AcDbArc
 50
270.0
 51
90.0
  0
LINE
  5
89
330
1F
100
AcDbEntity
  8
0
  6
Continuous
 62
     7
370
    25
100
AcDbLine
 10
3043.3759275917
 20
2014.878709553
 30
0.0
 11
3025.3759275917
 21
2014.878709553
 31
0.0
  0
ARC
  5
8A
330
1F
100
AcDbEntity
  8
0
  6
Continuous
 62
     7
370
    25
100
AcDbCircle
 10
143.3759275917
 20
2011.378709553
 30
0.0
 40
3.5
100
AcDbArc
 50
270.0
 51
90.0
  0
LINE
  5
8B
330
1F
100
AcDbEntity
  8
0
  6
Continuous
 62
     7
370
    25
100
AcDbLine
 10
143.3759275917
 20
2014.878709553
 30
0.0
 11
125.3759275917
 21
2014.878709553
 31
0.0
  0
ARC
  5
8C
330
1F
100
AcDbEntity
  8
0
  6
Continuous
 62
     7
370
    25
100
AcDbCircle
 10
125.3759275917
 20
2011.378709553
 30
0.0
 40
3.5
100
AcDbArc
 50
90.0
 51
270.0
  0
LINE
  5
8D
330
1F
100
AcDbEntity
  8
0
  6
Continuous
 62
     7
370
    25
100
AcDbLine
 10
125.3759275917
 20
2007.878709553
 30
0.0
 11
143.3759275917
 21
2007.878709553
 31
0.0
  0
LINE
  5
8E
330
1F
100
AcDbEntity
  8
0
  6
Continuous
 62
     7
370
    25
100
AcDbLine
 10
193.3759275917
 20
2039.878709553
 30
0.0
 11
175.3759275917
 21
2039.878709553
 31
0.0
  0
ARC
  5
8F
330
1F
100
AcDbEntity
  8
0
  6
Continuous
 62
     7
370
    25
100
AcDbCircle
 10
175.3759275917
 20
2036.378709553
 30
0.0
 40
3.5
100
AcDbArc
 50
90.0
 51
270.0
  0
LINE
  5
90
330
1F
100
AcDbEntity
  8
0
  6
Continuous
 62
     7
370
    25
100
AcDbLine
 10
175.3759275917
 20
2032.878709553
 30
0.0
 11
193.3759275917
 21
2032.878709553
 31
0.0
  0
ARC
  5
91
330
1F
100
AcDbEntity
  8
0
  6
Continuous
 62
     7
370
    25
100
AcDbCircle
 10
3075.3759275917
 20
2036.378709553
 30
0.0
 40
3.5
100
AcDbArc
 50
90.0
 51
270.0
  0
LINE
  5
92
330
1F
100
AcDbEntity
  8
0
  6
Continuous
 62
     7
370
    25
100
AcDbLine
 10
3075.3759275917
 20
2032.878709553
 30
0.0
 11
3093.3759275917
 21
2032.878709553
 31
0.0
  0
ARC
  5
93
330
1F
100
AcDbEntity
  8
0
  6
Continuous
 62
     7
370
    25
100
AcDbCircle
 10
3093.3759275917
 20
2036.378709553
 30
0.0
 40
3.5
100
AcDbArc
 50
270.0
 51
90.0
  0
LINE
  5
94
330
1F
100
AcDbEntity
  8
0
  6
Continuous
 62
     7
370
    25
100
AcDbLine
 10
3093.3759275917
 20
2039.878709553
 30
0.0
 11
3075.3759275917
 21
2039.878709553
 31
0.0
  0
LINE
  5
95
330
1F
100
AcDbEntity
  8
0
  6
Continuous
 62
     7
370
    25
100
AcDbLine
 10
3043.3759275917
 20
2039.878709553
 30
0.0
 11
3025.3759275917
 21
2039.878709553
 31
0.0
  0
ARC
  5
96
330
1F
100
AcDbEntity
  8
0
  6
Continuous
 62
     7
370
    25
100
AcDbCircle
 10
143.3759275917
 20
2036.378709553
 30
0.0
 40
3.5
100
AcDbArc
 50
270.0
 51
90.0
  0
LINE
  5
97
330
1F
100
AcDbEntity
  8
0
  6
Continuous
 62
     7
370
    25
100
AcDbLine
 10
143.3759275917
 20
2039.878709553
 30
0.0
 11
125.3759275917
 21
2039.878709553
 31
0.0
  0
ARC
  5
98
330
1F
100
AcDbEntity
  8
0
  6
Continuous
 62
     7
370
    25
100
AcDbCircle
 10
125.3759275917
 20
2036.378709553
 30
0.0
 40
3.5
100
AcDbArc
 50
90.0
 51
270.0
  0
LINE
  5
99
330
1F
100
AcDbEntity
  8
0
  6
Continuous
 62
     7
370
    25
100
AcDbLine
 10
125.3759275917
 20
2032.878709553
 30
0.0
 11
143.3759275917
 21
2032.878709553
 31
0.0
  0
LINE
  5
9A
330
1F
100
AcDbEntity
  8
0
  6
Continuous
 62
     7
370
    25
100
AcDbLine
 10
3075.3759275917
 20
2007.878709553
 30
0.0
 11
3093.3759275917
 21
2007.878709553
 31
0.0
  0
ARC
  5
9B
330
1F
100
AcDbEntity
  8
0
  6
Continuous
 62
     7
370
    25
100
AcDbCircle
 10
3093.3759275917
 20
2011.378709553
 30
0.0
 40
3.5
100
AcDbArc
 50
270.0
 51
90.0
  0
ARC
  5
9C
330
1F
100
AcDbEntity
  8
0
  6
Continuous
 62
     7
370
    25
100
AcDbCircle
 10
3025.3759275917
 20
2036.378709553
 30
0.0
 40
3.5
100
AcDbArc
 50
90.0
 51
270.0
  0
LINE
  5
9D
330
1F
100
AcDbEntity
  8
0
  6
Continuous
 62
     7
370
    25
100
AcDbLine
 10
3025.3759275917
 20
2032.878709553
 30
0.0
 11
3043.3759275917
 21
2032.878709553
 31
0.0
  0
ARC
  5
9E
330
1F
100
AcDbEntity
  8
0
  6
Continuous
 62
     7
370
    25
100
AcDbCircle
 10
3043.3759275917
 20
2036.378709553
 30
0.0
 40
3.5
100
AcDbArc
 50
270.0
 51
90.0
  0
LINE
  5
9F
330
1F
100
AcDbEntity
  8
0
  6
Continuous
 62
     7
370
    25
100
AcDbLine
 10
3109.3759275917
 20
2058.378709553
 30
0.0
 11
3109.3759275917
 21
1995.878709553
 31
0.0
  0
LINE
  5
A0
330
1F
100
AcDbEntity
  8
0
  6
Continuous
 62
     7
370
    25
100
AcDbLine
 10
175.3759275917
 20
2007.878709553
 30
0.0
 11
193.3759275917
 21
2007.878709553
 31
0.0
  0
ARC
  5
A1
330
1F
100
AcDbEntity
  8
0
  6
Continuous
 62
     7
370
    25
100
AcDbCircle
 10
193.3759275917
 20
2011.378709553
 30
0.0
 40
3.5
100
AcDbArc
 50
270.0
 51
90.0
  0
LINE
  5
A2
330
1F
100
AcDbEntity
  8
0
  6
Continuous
 62
     7
370
    25
100
AcDbLine
 10
193.3759275917
 20
2014.878709553
 30
0.0
 11
175.3759275917
 21
2014.878709553
 31
0.0
  0
ARC
  5
A3
330
1F
100
AcDbEntity
  8
0
  6
Continuous
 62
     7
370
    25
100
AcDbCircle
 10
175.3759275917
 20
2011.378709553
 30
0.0
 40
3.5
100
AcDbArc
 50
90.0
 51
270.0
  0
ARC
  5
A4
330
1F
100
AcDbEntity
  8
0
  6
Continuous
 62
     7
370
    25
100
AcDbCircle
 10
193.3759275917
 20
2036.378709553
 30
0.0
 40
3.5
100
AcDbArc
 50
270.0
 51
90.0
  0
LINE
  5
A5
330
1F
100
AcDbEntity
  8
0
  6
Continuous
 62
     7
370
    25
100
AcDbLine
 10
3109.3759275917
 20
2060.2938206608
 30
0.0
 11
3109.3759275917
 21
2063.5546756435
 31
0.0
  0
LINE
  5
A6
330
1F
100
AcDbEntity
  8
0
  6
Continuous
 62
     7
370
    25
100
AcDbLine
 10
109.3759275917
 20
2063.5546756435
 30
0.0
 11
109.3759275917
 21
2060.2938206608
 31
0.0
  0
LINE
  5
A7
330
1F
100
AcDbEntity
  8
0
  6
Continuous
 62
     7
370
    25
100
AcDbLine
 10
109.3759275917
 20
2063.5546756435
 30
0.0
 11
3109.3759275917
 21
2063.5546756435
 31
0.0
  0
LINE
  5
A8
330
1F
100
AcDbEntity
  8
0
  6
Continuous
 62
     7
370
    25
100
AcDbLine
 10
3109.3759275917
 20
2059.5444786984
 30
0.0
 11
3109.3759275917
 21
2060.2938206608
 31
0.0
  0
LINE
  5
A9
330
1F
100
AcDbEntity
  8
0
  6
Continuous
 62
     7
370
    25
100
AcDbLine
 10
109.3759275917
 20
2059.5444786984
 30
0.0
 11
109.3759275917
 21
2060.2938206608
 31
0.0
  0
LINE
  5
AA
330
1F
100
AcDbEntity
  8
0
  6
Continuous
 62
     7
370
    25
100
AcDbLine
 10
109.3759275917
 20
2073.3450172112
 30
0.0
 11
109.3759275917
 21
2068.6543878319
 31
0.0
  0
LINE
  5
AB
330
1F
100
AcDbEntity
  8
0
  6
Continuous
 62
     7
370
    25
100
AcDbLine
 10
3109.3759275917
 20
2073.3450172112
 30
0.0
 11
109.3759275917
 21
2073.3450172112
 31
0.0
  0
LINE
  5
AC
330
1F
100
AcDbEntity
  8
0
  6
Continuous
 62
     7
370
    25
100
AcDbLine
 10
3109.3759275917
 20
2068.6543878319
 30
0.0
 11
3109.3759275917
 21
2073.3450172112
 31
0.0
  0
LINE
  5
AD
330
1F
100
AcDbEntity
  8
0
  6
Continuous
 62
     7
370
    25
100
AcDbLine
 10
109.3759275917
 20
2068.6543878319
 30
0.0
 11
3109.3759275917
 21
2068.6543878319
 31
0.0
  0
LINE
  5
AE
330
1F
100
AcDbEntity
  8
0
  6
Continuous
 62
     7
370
    25
100
AcDbLine
 10
109.3759275917
 20
2068.6543878319
 30
0.0
 11
109.3759275917
 21
2063.5546756435
 31
0.0
  0
LINE
  5
AF
330
1F
100
AcDbEntity
  8
0
  6
Continuous
 62
     7
370
    25
100
AcDbLine
 10
3109.3759275917
 20
2068.6543878319
 30
0.0
 11
3109.3759275917
 21
2063.5546756435
 31
0.0
  0
LINE
  5
B0
330
1F
100
AcDbEntity
  8
0
  6
Continuous
 62
     7
370
    25
100
AcDbLine
 10
109.3759275917
 20
2778.9033568925
 30
0.0
 11
109.3759275917
 21
2781.4033568925
 31
0.0
  0
LINE
  5
B1
330
1F
100
AcDbEntity
  8
0
  6
Continuous
 62
     7
370
    25
100
AcDbLine
 10
3109.3759275917
 20
2781.4033568925
 30
0.0
 11
109.3759275917
 21
2781.4033568925
 31
0.0
  0
LINE
  5
B2
330
1F
100
AcDbEntity
  8
0
  6
Continuous
 62
     7
370
    25
100
AcDbLine
 10
3109.3759275917
 20
2778.9033568925
 30
0.0
 11
3109.3759275917
 21
2781.4033568925
 31
0.0
  0
LINE
  5
B3
330
1F
100
AcDbEntity
  8
0
  6
Continuous
 62
     7
370
    25
100
AcDbLine
 10
3109.3759275917
 20
2778.9033568925
 30
0.0
 11
3109.3759275917
 21
2583.9033568925
 31
0.0
  0
LINE
  5
B4
330
1F
100
AcDbEntity
  8
0
  6
Continuous
 62
     7
370
    25
100
AcDbLine
 10
3109.3759275917
 20
2581.4033568925
 30
0.0
 11
109.3759275917
 21
2581.4033568925
 31
0.0
  0
LINE
  5
B5
330
1F
100
AcDbEntity
  8
0
  6
Continuous
 62
     7
370
    25
100
AcDbLine
 10
109.3759275917
 20
2581.4033568925
 30
0.0
 11
109.3759275917
 21
2583.9033568925
 31
0.0
  0
LINE
  5
B6
330
1F
100
AcDbEntity
  8
0
  6
Continuous
 62
     7
370
    25
100
AcDbLine
 10
109.3759275917
 20
2778.9033568925
 30
0.0
 11
109.3759275917
 21
2583.9033568925
 31
0.0
  0
ARC
  5
B7
330
1F
100
AcDbEntity
  8
0
  6
Continuous
 62
     7
370
    25
100
AcDbCircle
 10
3088.3759275917
 20
2685.4033568925
 30
0.0
 40
1.0
100
AcDbArc
 50
90.0
 51
180.0
  0
LINE
  5
B8
330
1F
100
AcDbEntity
  8
0
  6
Continuous
 62
     7
370
    25
100
AcDbLine
 10
3087.3759275917
 20
2677.4033568925
 30
0.0
 11
3087.3759275917
 21
2685.4033568925
 31
0.0
  0
ARC
  5
B9
330
1F
100
AcDbEntity
  8
0
  6
Continuous
 62
     7
370
    25
100
AcDbCircle
 10
3088.3759275917
 20
2677.4033568925
 30
0.0
 40
1.0
100
AcDbArc
 50
180.0
 51
270.0
  0
LINE
  5
BA
330
1F
100
AcDbEntity
  8
0
  6
Continuous
 62
     7
370
    25
100
AcDbLine
 10
3093.3759275917
 20
2676.4033568925
 30
0.0
 11
3088.3759275917
 21
2676.4033568925
 31
0.0
  0
ARC
  5
BB
330
1F
100
AcDbEntity
  8
0
  6
Continuous
 62
     7
370
    25
100
AcDbCircle
 10
3093.3759275917
 20
2677.4033568925
 30
0.0
 40
1.0
100
AcDbArc
 50
270.0
 51
0.0
  0
LINE
  5
BC
330
1F
100
AcDbEntity
  8
0
  6
Continuous
 62
     7
370
    25
100
AcDbLine
 10
3094.3759275917
 20
2685.4033568925
 30
0.0
 11
3094.3759275917
 21
2677.4033568925
 31
0.0
  0
ARC
  5
BD
330
1F
100
AcDbEntity
  8
0
  6
Continuous
 62
     7
370
    25
100
AcDbCircle
 10
3093.3759275917
 20
2685.4033568925
 30
0.0
 40
1.0
100
AcDbArc
 50
0.0
 51
90.0
  0
LINE
  5
BE
330
1F
100
AcDbEntity
  8
0
  6
Continuous
 62
     7
370
    25
100
AcDbLine
 10
3088.3759275917
 20
2686.4033568925
 30
0.0
 11
3093.3759275917
 21
2686.4033568925
 31
0.0
  0
ARC
  5
BF
330
1F
100
AcDbEntity
  8
0
  6
Continuous
 62
     7
370
    25
100
AcDbCircle
 10
125.3759275917
 20
2685.4033568925
 30
0.0
 40
1.0
100
AcDbArc
 50
90.0
 51
180.0
  0
LINE
  5
C0
330
1F
100
AcDbEntity
  8
0
  6
Continuous
 62
     7
370
    25
100
AcDbLine
 10
124.3759275917
 20
2677.4033568925
 30
0.0
 11
124.3759275917
 21
2685.4033568925
 31
0.0
  0
ARC
  5
C1
330
1F
100
AcDbEntity
  8
0
  6
Continuous
 62
     7
370
    25
100
AcDbCircle
 10
125.3759275917
 20
2677.4033568925
 30
0.0
 40
1.0
100
AcDbArc
 50
180.0
 51
270.0
  0
LINE
  5
C2
330
1F
100
AcDbEntity
  8
0
  6
Continuous
 62
     7
370
    25
100
AcDbLine
 10
130.3759275917
 20
2676.4033568925
 30
0.0
 11
125.3759275917
 21
2676.4033568925
 31
0.0
  0
ARC
  5
C3
330
1F
100
AcDbEntity
  8
0
  6
Continuous
 62
     7
370
    25
100
AcDbCircle
 10
130.3759275917
 20
2677.4033568925
 30
0.0
 40
1.0
100
AcDbArc
 50
270.0
 51
0.0
  0
LINE
  5
C4
330
1F
100
AcDbEntity
  8
0
  6
Continuous
 62
     7
370
    25
100
AcDbLine
 10
131.3759275917
 20
2685.4033568925
 30
0.0
 11
131.3759275917
 21
2677.4033568925
 31
0.0
  0
ARC
  5
C5
330
1F
100
AcDbEntity
  8
0
  6
Continuous
 62
     7
370
    25
100
AcDbCircle
 10
130.3759275917
 20
2685.4033568925
 30
0.0
 40
1.0
100
AcDbArc
 50
0.0
 51
90.0
  0
LINE
  5
C6
330
1F
100
AcDbEntity
  8
0
  6
Continuous
 62
     7
370
    25
100
AcDbLine
 10
125.3759275917
 20
2686.4033568925
 30
0.0
 11
130.3759275917
 21
2686.4033568925
 31
0.0
  0
ARC
  5
C7
330
1F
100
AcDbEntity
  8
0
  6
Continuous
 62
     7
370
    25
100
AcDbCircle
 10
143.3759275917
 20
2593.9033568925
 30
0.0
 40
3.5
100
AcDbArc
 50
270.0
 51
90.0
  0
LINE
  5
C8
330
1F
100
AcDbEntity
  8
0
  6
Continuous
 62
     7
370
    25
100
AcDbLine
 10
125.3759275917
 20
2597.4033568925
 30
0.0
 11
143.3759275917
 21
2597.4033568925
 31
0.0
  0
ARC
  5
C9
330
1F
100
AcDbEntity
  8
0
  6
Continuous
 62
     7
370
    25
100
AcDbCircle
 10
125.3759275917
 20
2593.9033568925
 30
0.0
 40
3.5
100
AcDbArc
 50
90.0
 51
270.0
  0
LINE
  5
CA
330
1F
100
AcDbEntity
  8
0
  6
Continuous
 62
     7
370
    25
100
AcDbLine
 10
143.3759275917
 20
2590.4033568925
 30
0.0
 11
125.3759275917
 21
2590.4033568925
 31
0.0
  0
ARC
  5
CB
330
1F
100
AcDbEntity
  8
0
  6
Continuous
 62
     7
370
    25
100
AcDbCircle
 10
3075.3759275917
 20
2768.9033568925
 30
0.0
 40
3.500000000000455
100
AcDbArc
 50
90.0
 51
270.0
  0
LINE
  5
CC
330
1F
100
AcDbEntity
  8
0
  6
Continuous
 62
     7
370
    25
100
AcDbLine
 10
3093.3759275917
 20
2765.4033568925
 30
0.0
 11
3075.3759275917
 21
2765.4033568925
 31
0.0
  0
ARC
  5
CD
330
1F
100
AcDbEntity
  8
0
  6
Continuous
 62
     7
370
    25
100
AcDbCircle
 10
3093.3759275917
 20
2768.9033568925
 30
0.0
 40
3.500000000000455
100
AcDbArc
 50
270.0
 51
90.0
  0
LINE
  5
CE
330
1F
100
AcDbEntity
  8
0
  6
Continuous
 62
     7
370
    25
100
AcDbLine
 10
3075.3759275917
 20
2772.4033568925
 30
0.0
 11
3093.3759275917
 21
2772.4033568925
 31
0.0
  0
ARC
  5
CF
330
1F
100
AcDbEntity
  8
0
  6
Continuous
 62
     7
370
    25
100
AcDbCircle
 10
3025.3759275917
 20
2768.9033568925
 30
0.0
 40
3.500000000000909
100
AcDbArc
 50
90.0
 51
270.0
  0
LINE
  5
D0
330
1F
100
AcDbEntity
  8
0
  6
Continuous
 62
     7
370
    25
100
AcDbLine
 10
3043.3759275917
 20
2765.4033568925
 30
0.0
 11
3025.3759275917
 21
2765.4033568925
 31
0.0
  0
ARC
  5
D1
330
1F
100
AcDbEntity
  8
0
  6
Continuous
 62
     7
370
    25
100
AcDbCircle
 10
3043.3759275917
 20
2768.9033568925
 30
0.0
 40
3.500000000000909
100
AcDbArc
 50
270.0
 51
90.0
  0
LINE
  5
D2
330
1F
100
AcDbEntity
  8
0
  6
Continuous
 62
     7
370
    25
100
AcDbLine
 10
3025.3759275917
 20
2772.4033568925
 30
0.0
 11
3043.3759275917
 21
2772.4033568925
 31
0.0
  0
ARC
  5
D3
330
1F
100
AcDbEntity
  8
0
  6
Continuous
 62
     7
370
    25
100
AcDbCircle
 10
3025.3759275917
 20
2593.9033568925
 30
0.0
 40
3.500000000000455
100
AcDbArc
 50
90.0
 51
270.0
  0
LINE
  5
D4
330
1F
100
AcDbEntity
  8
0
  6
Continuous
 62
     7
370
    25
100
AcDbLine
 10
3043.3759275917
 20
2590.4033568925
 30
0.0
 11
3025.3759275917
 21
2590.4033568925
 31
0.0
  0
ARC
  5
D5
330
1F
100
AcDbEntity
  8
0
  6
Continuous
 62
     7
370
    25
100
AcDbCircle
 10
3043.3759275917
 20
2593.9033568925
 30
0.0
 40
3.500000000000455
100
AcDbArc
 50
270.0
 51
90.0
  0
LINE
  5
D6
330
1F
100
AcDbEntity
  8
0
  6
Continuous
 62
     7
370
    25
100
AcDbLine
 10
3025.3759275917
 20
2597.4033568925
 30
0.0
 11
3043.3759275917
 21
2597.4033568925
 31
0.0
  0
ARC
  5
D7
330
1F
100
AcDbEntity
  8
0
  6
Continuous
 62
     7
370
    25
100
AcDbCircle
 10
193.3759275917
 20
2593.9033568925
 30
0.0
 40
3.500000000000455
100
AcDbArc
 50
270.0
 51
90.0
  0
LINE
  5
D8
330
1F
100
AcDbEntity
  8
0
  6
Continuous
 62
     7
370
    25
100
AcDbLine
 10
175.3759275917
 20
2597.4033568925
 30
0.0
 11
193.3759275917
 21
2597.4033568925
 31
0.0
  0
ARC
  5
D9
330
1F
100
AcDbEntity
  8
0
  6
Continuous
 62
     7
370
    25
100
AcDbCircle
 10
175.3759275917
 20
2593.9033568925
 30
0.0
 40
3.500000000000455
100
AcDbArc
 50
90.0
 51
270.0
  0
LINE
  5
DA
330
1F
100
AcDbEntity
  8
0
  6
Continuous
 62
     7
370
    25
100
AcDbLine
 10
193.3759275917
 20
2590.4033568925
 30
0.0
 11
175.3759275917
 21
2590.4033568925
 31
0.0
  0
ARC
  5
DB
330
1F
100
AcDbEntity
  8
0
  6
Continuous
 62
     7
370
    25
100
AcDbCircle
 10
143.3759275917
 20
2768.9033568925
 30
0.0
 40
3.500000000000455
100
AcDbArc
 50
270.0
 51
90.0
  0
LINE
  5
DC
330
1F
100
AcDbEntity
  8
0
  6
Continuous
 62
     7
370
    25
100
AcDbLine
 10
125.3759275917
 20
2772.4033568925
 30
0.0
 11
143.3759275917
 21
2772.4033568925
 31
0.0
  0
ARC
  5
DD
330
1F
100
AcDbEntity
  8
0
  6
Continuous
 62
     7
370
    25
100
AcDbCircle
 10
125.3759275917
 20
2768.9033568925
 30
0.0
 40
3.500000000000455
100
AcDbArc
 50
90.0
 51
270.0
  0
LINE
  5
DE
330
1F
100
AcDbEntity
  8
0
  6
Continuous
 62
     7
370
    25
100
AcDbLine
 10
143.3759275917
 20
2765.4033568925
 30
0.0
 11
125.3759275917
 21
2765.4033568925
 31
0.0
  0
ARC
  5
DF
330
1F
100
AcDbEntity
  8
0
  6
Continuous
 62
     7
370
    25
100
AcDbCircle
 10
193.3759275917
 20
2768.9033568925
 30
0.0
 40
3.500000000000909
100
AcDbArc
 50
270.0
 51
90.0
  0
LINE
  5
E0
330
1F
100
AcDbEntity
  8
0
  6
Continuous
 62
     7
370
    25
100
AcDbLine
 10
175.3759275917
 20
2772.4033568925
 30
0.0
 11
193.3759275917
 21
2772.4033568925
 31
0.0
  0
ARC
  5
E1
330
1F
100
AcDbEntity
  8
0
  6
Continuous
 62
     7
370
    25
100
AcDbCircle
 10
175.3759275917
 20
2768.9033568925
 30
0.0
 40
3.500000000000909
100
AcDbArc
 50
90.0
 51
270.0
  0
LINE
  5
E2
330
1F
100
AcDbEntity
  8
0
  6
Continuous
 62
     7
370
    25
100
AcDbLine
 10
193.3759275917
 20
2765.4033568925
 30
0.0
 11
175.3759275917
 21
2765.4033568925
 31
0.0
  0
ARC
  5
E3
330
1F
100
AcDbEntity
  8
0
  6
Continuous
 62
     7
370
    25
100
AcDbCircle
 10
3075.3759275917
 20
2593.9033568925
 30
0.0
 40
3.5
100
AcDbArc
 50
90.0
 51
270.0
  0
LINE
  5
E4
330
1F
100
AcDbEntity
  8
0
  6
Continuous
 62
     7
370
    25
100
AcDbLine
 10
3093.3759275917
 20
2590.4033568925
 30
0.0
 11
3075.3759275917
 21
2590.4033568925
 31
0.0
  0
ARC
  5
E5
330
1F
100
AcDbEntity
  8
0
  6
Continuous
 62
     7
370
    25
100
AcDbCircle
 10
3093.3759275917
 20
2593.9033568925
 30
0.0
 40
3.5
100
AcDbArc
 50
270.0
 51
90.0
  0
LINE
  5
E6
330
1F
100
AcDbEntity
  8
0
  6
Continuous
 62
     7
370
    25
100
AcDbLine
 10
3075.3759275917
 20
2597.4033568925
 30
0.0
 11
3093.3759275917
 21
2597.4033568925
 31
0.0
  0
LINE
  5
E7
330
1F
100
AcDbEntity
  8
0
  6
Continuous
 62
     7
370
    25
100
AcDbLine
 10
3109.3759275917
 20
2581.4033568925
 30
0.0
 11
3109.3759275917
 21
2583.9033568925
 31
0.0
  0
LINE
  5
E8
330
1F
100
AcDbEntity
  8
0
  6
Continuous
 62
     7
370
    25
100
AcDbLine
 10
3095.1787032294
 20
2590.9033568925
 30
0.0
 11
3073.5731519539
 21
2590.9033568925
 31
0.0
  0
LINE
  5
E9
330
1F
100
AcDbEntity
  8
0
  6
Continuous
 62
     7
370
    25
100
AcDbLine
 10
3045.1787032294
 20
2590.9033568925
 30
0.0
 11
3023.5731519539
 21
2590.9033568925
 31
0.0
  0
LINE
  5
EA
330
1F
100
AcDbEntity
  8
0
  6
Continuous
 62
     7
370
    25
100
AcDbLine
 10
195.1787032294
 20
2590.9033568925
 30
0.0
 11
173.5731519539
 21
2590.9033568925
 31
0.0
  0
LINE
  5
EB
330
1F
100
AcDbEntity
  8
0
  6
Continuous
 62
     7
370
    25
100
AcDbLine
 10
145.1787032294
 20
2590.9033568925
 30
0.0
 11
123.5731519539
 21
2590.9033568925
 31
0.0
  0
LINE
  5
EC
330
1F
100
AcDbEntity
  8
0
  6
Continuous
 62
     7
370
    25
100
AcDbLine
 10
3095.1787032294
 20
2771.9033568925
 30
0.0
 11
3073.5731519539
 21
2771.9033568925
 31
0.0
  0
LINE
  5
ED
330
1F
100
AcDbEntity
  8
0
  6
Continuous
 62
     7
370
    25
100
AcDbLine
 10
3045.1787032294
 20
2771.9033568925
 30
0.0
 11
3023.5731519539
 21
2771.9033568925
 31
0.0
  0
LINE
  5
EE
330
1F
100
AcDbEntity
  8
0
  6
Continuous
 62
     7
370
    25
100
AcDbLine
 10
195.1787032294
 20
2771.9033568925
 30
0.0
 11
173.5731519539
 21
2771.9033568925
 31
0.0
  0
LINE
  5
EF
330
1F
100
AcDbEntity
  8
0
  6
Continuous
 62
     7
370
    25
100
AcDbLine
 10
145.1787032294
 20
2771.9033568925
 30
0.0
 11
123.5731519539
 21
2771.9033568925
 31
0.0
  0
LINE
  5
F0
330
1F
100
AcDbEntity
  8
0
  6
Continuous
 62
     7
370
    25
100
AcDbLine
 10
3487.8401275686
 20
1993.378709553
 30
0.0
 11
3490.3401275686
 21
1993.378709553
 31
0.0
  0
LINE
  5
F1
330
1F
100
AcDbEntity
  8
0
  6
Continuous
 62
     7
370
    25
100
AcDbLine
 10
3487.8401275686
 20
1995.878709553
 30
0.0
 11
3487.8401275686
 21
1993.378709553
 31
0.0
  0
LINE
  5
F2
330
1F
100
AcDbEntity
  8
0
  6
Continuous
 62
     7
370
    25
100
AcDbLine
 10
3489.3401275686
 20
1995.878709553
 30
0.0
 11
3489.3401275686
 21
1994.878709553
 31
0.0
  0
LINE
  5
F3
330
1F
100
AcDbEntity
  8
0
  6
Continuous
 62
     7
370
    25
100
AcDbLine
 10
3489.3401275686
 20
1994.878709553
 30
0.0
 11
3490.3401275686
 21
1994.878709553
 31
0.0
  0
LINE
  5
F4
330
1F
100
AcDbEntity
  8
0
  6
Continuous
 62
     7
370
    25
100
AcDbLine
 10
3489.3401275686
 20
1995.878709553
 30
0.0
 11
3489.3401275686
 21
2058.378709553
 31
0.0
  0
LINE
  5
F5
330
1F
100
AcDbEntity
  8
0
  6
Continuous
 62
     7
370
    25
100
AcDbLine
 10
3487.8401275686
 20
1995.878709553
 30
0.0
 11
3487.8401275686
 21
2058.378709553
 31
0.0
  0
LINE
  5
F6
330
1F
100
AcDbEntity
  8
0
  6
Continuous
 62
     7
370
    25
100
AcDbLine
 10
3487.8401275686
 20
2059.5444786984
 30
0.0
 11
3487.8401275686
 21
2058.378709553
 31
0.0
  0
LINE
  5
F7
330
1F
100
AcDbEntity
  8
0
  6
Continuous
 62
     7
370
    25
100
AcDbLine
 10
3489.697339959
 20
2059.1447539961
 30
0.0
 11
3489.3401275686
 21
2058.8450172112
 31
0.0
  0
LINE
  5
F8
330
1F
100
AcDbEntity
  8
0
  6
Continuous
 62
     7
370
    25
100
AcDbLine
 10
3489.3401275686
 20
2058.8450172112
 30
0.0
 11
3489.3401275686
 21
2058.378709553
 31
0.0
  0
LINE
  5
F9
330
1F
100
AcDbEntity
  8
0
  6
Continuous
 62
     7
370
    25
100
AcDbLine
 10
3488.7331585444
 20
2060.2938206608
 30
0.0
 11
3487.8401275686
 21
2059.5444786984
 31
0.0
  0
LINE
  5
FA
330
1F
100
AcDbEntity
  8
0
  6
Continuous
 62
     7
370
    25
100
AcDbLine
 10
3687.8401275686
 20
1993.378709553
 30
0.0
 11
3687.8401275686
 21
1995.878709553
 31
0.0
  0
LINE
  5
FB
330
1F
100
AcDbEntity
  8
0
  6
Continuous
 62
     7
370
    25
100
AcDbLine
 10
3685.3401275686
 20
1993.378709553
 30
0.0
 11
3687.8401275686
 21
1993.378709553
 31
0.0
  0
LINE
  5
FC
330
1F
100
AcDbEntity
  8
0
  6
Continuous
 62
     7
370
    25
100
AcDbLine
 10
3685.3401275686
 20
1994.878709553
 30
0.0
 11
3686.3401275686
 21
1994.878709553
 31
0.0
  0
LINE
  5
FD
330
1F
100
AcDbEntity
  8
0
  6
Continuous
 62
     7
370
    25
100
AcDbLine
 10
3686.3401275686
 20
1994.878709553
 30
0.0
 11
3686.3401275686
 21
1995.878709553
 31
0.0
  0
LINE
  5
FE
330
1F
100
AcDbEntity
  8
0
  6
Continuous
 62
     7
370
    25
100
AcDbLine
 10
3685.3401275686
 20
1994.878709553
 30
0.0
 11
3490.3401275686
 21
1994.878709553
 31
0.0
  0
LINE
  5
FF
330
1F
100
AcDbEntity
  8
0
  6
Continuous
 62
     7
370
    25
100
AcDbLine
 10
3685.3401275686
 20
1993.378709553
 30
0.0
 11
3490.3401275686
 21
1993.378709553
 31
0.0
  0
LINE
  5
100
330
1F
100
AcDbEntity
  8
0
  6
Continuous
 62
     7
370
    25
100
AcDbLine
 10
3687.8401275686
 20
2059.5444786984
 30
0.0
 11
3686.9470965929
 21
2060.2938206608
 31
0.0
  0
LINE
  5
101
330
1F
100
AcDbEntity
  8
0
  6
Continuous
 62
     7
370
    25
100
AcDbLine
 10
3686.3401275686
 20
2058.8450172112
 30
0.0
 11
3685.9829151783
 21
2059.1447539961
 31
0.0
  0
LINE
  5
102
330
1F
100
AcDbEntity
  8
0
  6
Continuous
 62
     7
370
    25
100
AcDbLine
 10
3687.8401275686
 20
2058.378709553
 30
0.0
 11
3687.8401275686
 21
2059.5444786984
 31
0.0
  0
LINE
  5
103
330
1F
100
AcDbEntity
  8
0
  6
Continuous
 62
     7
370
    25
100
AcDbLine
 10
3686.3401275686
 20
2058.378709553
 30
0.0
 11
3686.3401275686
 21
2058.8450172112
 31
0.0
  0
LINE
  5
104
330
1F
100
AcDbEntity
  8
0
  6
Continuous
 62
     7
370
    25
100
AcDbLine
 10
3687.8401275686
 20
2058.378709553
 30
0.0
 11
3687.8401275686
 21
1995.878709553
 31
0.0
  0
LINE
  5
105
330
1F
100
AcDbEntity
  8
0
  6
Continuous
 62
     7
370
    25
100
AcDbLine
 10
3686.3401275686
 20
2058.378709553
 30
0.0
 11
3686.3401275686
 21
1995.878709553
 31
0.0
  0
LINE
  5
106
330
1F
100
AcDbEntity
  8
0
  6
Continuous
 62
     7
370
    25
100
AcDbLine
 10
3488.3401275686
 20
2068.6543878319
 30
0.0
 11
3492.619294185
 21
2063.5546756435
 31
0.0
  0
LINE
  5
107
330
1F
100
AcDbEntity
  8
0
  6
Continuous
 62
     7
370
    25
100
AcDbLine
 10
3497.3401275686
 20
2065.5578142606
 30
0.0
 11
3497.3401275686
 21
2073.3450172112
 31
0.0
  0
LINE
  5
108
330
1F
100
AcDbEntity
  8
0
  6
Continuous
 62
     7
370
    25
100
AcDbLine
 10
3497.3401275686
 20
2065.5578142606
 30
0.0
 11
3489.697339959
 21
2059.1447539961
 31
0.0
  0
LINE
  5
109
330
1F
100
AcDbEntity
  8
0
  6
Continuous
 62
     7
370
    25
100
AcDbLine
 10
3493.930201983
 20
2073.3450172112
 30
0.0
 11
3488.3401275686
 21
2068.6543878319
 31
0.0
  0
LINE
  5
10A
330
1F
100
AcDbEntity
  8
0
  6
Continuous
 62
     7
370
    25
100
AcDbLine
 10
3492.619294185
 20
2063.5546756435
 30
0.0
 11
3488.7331585444
 21
2060.2938206608
 31
0.0
  0
LINE
  5
10B
330
1F
100
AcDbEntity
  8
0
  6
Continuous
 62
     7
370
    25
100
AcDbLine
 10
3497.3401275686
 20
2073.3450172112
 30
0.0
 11
3493.930201983
 21
2073.3450172112
 31
0.0
  0
LINE
  5
10C
330
1F
100
AcDbEntity
  8
0
  6
Continuous
 62
     7
370
    25
100
AcDbLine
 10
3678.3401275686
 20
2065.5578142606
 30
0.0
 11
3685.9829151783
 21
2059.1447539961
 31
0.0
  0
LINE
  5
10D
330
1F
100
AcDbEntity
  8
0
  6
Continuous
 62
     7
370
    25
100
AcDbLine
 10
3678.3401275686
 20
2065.5578142606
 30
0.0
 11
3678.3401275686
 21
2073.3450172112
 31
0.0
  0
LINE
  5
10E
330
1F
100
AcDbEntity
  8
0
  6
Continuous
 62
     7
370
    25
100
AcDbLine
 10
3681.7500531543
 20
2073.3450172112
 30
0.0
 11
3678.3401275686
 21
2073.3450172112
 31
0.0
  0
LINE
  5
10F
330
1F
100
AcDbEntity
  8
0
  6
Continuous
 62
     7
370
    25
100
AcDbLine
 10
3687.3401275686
 20
2068.6543878319
 30
0.0
 11
3683.0609609523
 21
2063.5546756435
 31
0.0
  0
LINE
  5
110
330
1F
100
AcDbEntity
  8
0
  6
Continuous
 62
     7
370
    25
100
AcDbLine
 10
3683.0609609523
 20
2063.5546756435
 30
0.0
 11
3686.9470965929
 21
2060.2938206608
 31
0.0
  0
LINE
  5
111
330
1F
100
AcDbEntity
  8
0
  6
Continuous
 62
     7
370
    25
100
AcDbLine
 10
3681.7500531543
 20
2073.3450172112
 30
0.0
 11
3687.3401275686
 21
2068.6543878319
 31
0.0
  0
LINE
  5
112
330
1F
100
AcDbEntity
  8
0
  6
Continuous
 62
     7
370
    25
100
AcDbLine
 10
1519.7022343187
 20
325.160877804
 30
0.0
 11
1523.6550138445
 21
319.0488964336
 31
0.0
  0
LINE
  5
113
330
1F
100
AcDbEntity
  8
0
  6
Continuous
 62
     7
370
    25
100
AcDbLine
 10
3641.0225778784
 20
1549.7730455381
 30
0.0
 11
1519.7022343187
 21
325.160877804
 31
0.0
  0
LINE
  5
114
330
1F
100
AcDbEntity
  8
0
  6
Continuous
 62
     7
370
    25
100
AcDbLine
 10
3644.9753574041
 20
1543.6610641676
 30
0.0
 11
3641.0225778784
 21
1549.7730455381
 31
0.0
  0
LINE
  5
115
330
1F
100
AcDbEntity
  8
0
  6
Continuous
 62
     7
370
    25
100
AcDbLine
 10
1523.6550138445
 20
319.0488964336
 30
0.0
 11
3644.9753574041
 21
1543.6610641676
 31
0.0
  0
LINE
  5
116
330
1F
100
AcDbEntity
  8
0
  6
Continuous
 62
     7
370
    25
100
AcDbLine
 10
1517.2910528138
 20
320.1942542388
 30
0.0
 11
1522.6953197598
 21
311.8379119031
 31
0.0
  0
LINE
  5
117
330
1F
100
AcDbEntity
  8
0
  6
Continuous
 62
     7
370
    25
100
AcDbLine
 10
1517.2910528138
 20
320.1942542388
 30
0.0
 11
1517.2910528138
 21
326.5528232584
 31
0.0
  0
LINE
  5
118
330
1F
100
AcDbEntity
  8
0
  6
Continuous
 62
     7
370
    25
100
AcDbLine
 10
1519.7022343187
 20
325.160877804
 30
0.0
 11
1517.2910528138
 21
326.5528232584
 31
0.0
  0
LINE
  5
119
330
1F
100
AcDbEntity
  8
0
  6
Continuous
 62
     7
370
    25
100
AcDbLine
 10
1523.6550138445
 20
319.0488964336
 30
0.0
 11
1520.6291861122
 21
316.6315464716
 31
0.0
  0
LINE
  5
11A
330
1F
100
AcDbEntity
  8
0
  6
Continuous
 62
     7
370
    25
100
AcDbLine
 10
1520.6291861122
 20
316.6315464716
 30
0.0
 11
1523.3770989763
 21
312.3825889663
 31
0.0
  0
LINE
  5
11B
330
1F
100
AcDbEntity
  8
0
  6
Continuous
 62
     7
370
    25
100
AcDbLine
 10
3644.9753574041
 20
1543.6610641676
 30
0.0
 11
3641.9495296719
 21
1541.2437142057
 31
0.0
  0
LINE
  5
11C
330
1F
100
AcDbEntity
  8
0
  6
Continuous
 62
     7
370
    25
100
AcDbLine
 10
1520.6291861122
 20
316.6315464716
 30
0.0
 11
3641.9495296719
 21
1541.2437142057
 31
0.0
  0
LINE
  5
11D
330
1F
100
AcDbEntity
  8
0
  6
Continuous
 62
     7
370
    25
100
AcDbLine
 10
3641.0225778784
 20
1549.7730455381
 30
0.0
 11
3638.6113963734
 21
1551.1649909925
 31
0.0
  0
LINE
  5
11E
330
1F
100
AcDbEntity
  8
0
  6
Continuous
 62
     7
370
    25
100
AcDbLine
 10
3638.6113963734
 20
1551.1649909925
 30
0.0
 11
1517.2910528138
 21
326.5528232584
 31
0.0
  0
LINE
  5
11F
330
1F
100
AcDbEntity
  8
0
  6
Continuous
 62
     7
370
    25
100
AcDbLine
 10
3644.6974425359
 20
1536.9947567004
 30
0.0
 11
3641.9495296719
 21
1541.2437142057
 31
0.0
  0
LINE
  5
120
330
1F
100
AcDbEntity
  8
0
  6
Continuous
 62
     7
370
    25
100
AcDbLine
 10
3645.3289107947
 20
1536.0183495396
 30
0.0
 11
3644.6974425359
 21
1536.9947567004
 31
0.0
  0
LINE
  5
121
330
1F
100
AcDbEntity
  8
0
  6
Continuous
 62
     7
370
    25
100
AcDbLine
 10
3645.3289107947
 20
1536.0183495396
 30
0.0
 11
1524.0085672351
 21
311.4061818056
 31
0.0
  0
LINE
  5
122
330
1F
100
AcDbEntity
  8
0
  6
Continuous
 62
     7
370
    25
100
AcDbLine
 10
1524.0085672351
 20
311.4061818056
 30
0.0
 11
1523.3770989763
 21
312.3825889663
 31
0.0
  0
LINE
  5
123
330
1F
100
AcDbEntity
  8
0
  6
Continuous
 62
     7
370
    25
100
AcDbLine
 10
1524.0085672351
 20
310.4542837211
 30
0.0
 11
1524.0085672351
 21
311.4061818056
 31
0.0
  0
LINE
  5
124
330
1F
100
AcDbEntity
  8
0
  6
Continuous
 62
     7
370
    25
100
AcDbLine
 10
1522.9479070633
 20
311.066589805
 30
0.0
 11
1522.9479070633
 21
311.4473490388
 31
0.0
  0
LINE
  5
125
330
1F
100
AcDbEntity
  8
0
  6
Continuous
 62
     7
370
    25
100
AcDbLine
 10
1522.9479070633
 20
311.4473490388
 30
0.0
 11
1522.6953197598
 21
311.8379119031
 31
0.0
  0
LINE
  5
126
330
1F
100
AcDbEntity
  8
0
  6
Continuous
 62
     7
370
    25
100
AcDbLine
 10
3645.3289107947
 20
1535.0664514552
 30
0.0
 11
3645.3289107947
 21
1536.0183495396
 31
0.0
  0
LINE
  5
127
330
1F
100
AcDbEntity
  8
0
  6
Continuous
 62
     7
370
    25
100
AcDbLine
 10
3645.3289107947
 20
1535.0664514552
 30
0.0
 11
3645.3289107947
 21
1484.0326507123
 31
0.0
  0
LINE
  5
128
330
1F
100
AcDbEntity
  8
0
  6
Continuous
 62
     7
370
    25
100
AcDbLine
 10
3645.3289107947
 20
1481.9912986826
 30
0.0
 11
3645.3289107947
 21
1484.0326507123
 31
0.0
  0
LINE
  5
129
330
1F
100
AcDbEntity
  8
0
  6
Continuous
 62
     7
370
    25
100
AcDbLine
 10
3645.3289107947
 20
1481.9912986826
 30
0.0
 11
1524.0085672351
 21
257.3791309486
 31
0.0
  0
LINE
  5
12A
330
1F
100
AcDbEntity
  8
0
  6
Continuous
 62
     7
370
    25
100
AcDbLine
 10
1524.0085672351
 20
257.3791309486
 30
0.0
 11
1524.0085672351
 21
259.4204829783
 31
0.0
  0
LINE
  5
12B
330
1F
100
AcDbEntity
  8
0
  6
Continuous
 62
     7
370
    25
100
AcDbLine
 10
1524.0085672351
 20
310.4542837211
 30
0.0
 11
1524.0085672351
 21
259.4204829783
 31
0.0
  0
LWPOLYLINE
  5
12C
330
1F
100
AcDbEntity
  8
0
  6
Continuous
 62
     7
370
    25
100
AcDbPolyline
 90
       10
 70
   128
 43
0.0
 10
1583.4055368547
 20
303.5081134175
 10
1584.251993524
 20
304.1691144788
 10
1584.9963550266
 20
305.0950931115
 10
1585.5488403797
 20
306.1743626265
 10
1585.8428116958
 20
307.2767471919
 10
1585.8428116958
 20
308.2692829597
 10
1585.5488403797
 20
309.0322554681
 10
1584.9963550266
 20
309.4736389722
 10
1584.251993524
 20
309.5401961073
 10
1583.4055368547
 20
309.2238991007
  0
LINE
  5
12D
330
1F
100
AcDbEntity
  8
0
  6
Continuous
 62
     7
370
    25
100
AcDbLine
 10
1583.4055368547
 20
309.2238991007
 30
0.0
 11
1570.6776147934
 21
301.8762260943
 31
0.0
  0
LWPOLYLINE
  5
12E
330
1F
100
AcDbEntity
  8
0
  6
Continuous
 62
     7
370
    25
100
AcDbPolyline
 90
       10
 70
   128
 43
0.0
 10
1570.6776147934
 20
301.8762260943
 10
1569.8311581241
 20
301.2152250329
 10
1569.0867966215
 20
300.2892464002
 10
1568.5343112684
 20
299.2099768852
 10
1568.2403399522
 20
298.1075923198
 10
1568.2403399522
 20
297.115056552
 10
1568.5343112684
 20
296.3520840436
 10
1569.0867966215
 20
295.9107005395
 10
1569.8311581241
 20
295.8441434044
 10
1570.6776147934
 20
296.1604404111
  0
LINE
  5
12F
330
1F
100
AcDbEntity
  8
0
  6
Continuous
 62
     7
370
    25
100
AcDbLine
 10
1570.6776147934
 20
296.1604404111
 30
0.0
 11
1583.4055368547
 21
303.5081134175
 31
0.0
  0
LWPOLYLINE
  5
130
330
1F
100
AcDbEntity
  8
0
  6
Continuous
 62
     7
370
    25
100
AcDbPolyline
 90
       10
 70
   128
 43
0.0
 10
3621.2872802344
 20
1485.6679882372
 10
3620.4408235651
 20
1485.0069871758
 10
3619.6964620625
 20
1484.0810085431
 10
3619.1439767094
 20
1483.0017390282
 10
3618.8500053932
 20
1481.8993544627
 10
3618.8500053932
 20
1480.9068186949
 10
3619.1439767094
 20
1480.1438461866
 10
3619.6964620625
 20
1479.7024626825
 10
3620.4408235651
 20
1479.6359055474
 10
3621.2872802344
 20
1479.952202554
  0
LINE
  5
131
330
1F
100
AcDbEntity
  8
0
  6
Continuous
 62
     7
370
    25
100
AcDbLine
 10
3621.2872802344
 20
1479.952202554
 30
0.0
 11
3634.0152022957
 21
1487.2998755604
 31
0.0
  0
LWPOLYLINE
  5
132
330
1F
100
AcDbEntity
  8
0
  6
Continuous
 62
     7
370
    25
100
AcDbPolyline
 90
       10
 70
   128
 43
0.0
 10
3634.0152022957
 20
1487.2998755604
 10
3634.861658965
 20
1487.9608766217
 10
3635.6060204676
 20
1488.8868552544
 10
3636.1585058206
 20
1489.9661247694
 10
3636.4524771368
 20
1491.0685093348
 10
3636.4524771368
 20
1492.0610451027
 10
3636.1585058206
 20
1492.824017611
 10
3635.6060204676
 20
1493.2654011151
 10
3634.861658965
 20
1493.3319582502
 10
3634.0152022957
 20
1493.0156612436
  0
LINE
  5
133
330
1F
100
AcDbEntity
  8
0
  6
Continuous
 62
     7
370
    25
100
AcDbLine
 10
3634.0152022957
 20
1493.0156612436
 30
0.0
 11
3621.2872802344
 21
1485.6679882372
 31
0.0
  0
LWPOLYLINE
  5
134
330
1F
100
AcDbEntity
  8
0
  6
Continuous
 62
     7
370
    25
100
AcDbPolyline
 90
       10
 70
   128
 43
0.0
 10
3585.931941175
 20
1465.2577854416
 10
3585.0854845058
 20
1464.5967843803
 10
3584.3411230032
 20
1463.6708057476
 10
3583.7886376501
 20
1462.5915362326
 10
3583.4946663339
 20
1461.4891516672
 10
3583.4946663339
 20
1460.4966158993
 10
3583.7886376501
 20
1459.733643391
 10
3584.3411230032
 20
1459.2922598869
 10
3585.0854845058
 20
1459.2257027518
 10
3585.931941175
 20
1459.5419997584
  0
LINE
  5
135
330
1F
100
AcDbEntity
  8
0
  6
Continuous
 62
     7
370
    25
100
AcDbLine
 10
3585.931941175
 20
1459.5419997584
 30
0.0
 11
3598.6598632364
 21
1466.8896727648
 31
0.0
  0
LWPOLYLINE
  5
136
330
1F
100
AcDbEntity
  8
0
  6
Continuous
 62
     7
370
    25
100
AcDbPolyline
 90
       10
 70
   128
 43
0.0
 10
3598.6598632364
 20
1466.8896727648
 10
3599.5063199057
 20
1467.5506738262
 10
3600.2506814082
 20
1468.4766524589
 10
3600.8031667613
 20
1469.5559219738
 10
3601.0971380775
 20
1470.6583065393
 10
3601.0971380775
 20
1471.6508423071
 10
3600.8031667613
 20
1472.4138148154
 10
3600.2506814082
 20
1472.8551983195
 10
3599.5063199057
 20
1472.9217554546
 10
3598.6598632364
 20
1472.605458448
  0
LINE
  5
137
330
1F
100
AcDbEntity
  8
0
  6
Continuous
 62
     7
370
    25
100
AcDbLine
 10
3598.6598632364
 20
1472.605458448
 30
0.0
 11
3585.931941175
 21
1465.2577854416
 31
0.0
  0
LWPOLYLINE
  5
138
330
1F
100
AcDbEntity
  8
0
  6
Continuous
 62
     7
370
    25
100
AcDbPolyline
 90
       10
 70
   128
 43
0.0
 10
1548.0501977954
 20
283.0979106219
 10
1548.8966544647
 20
283.7589116832
 10
1549.6410159672
 20
284.6848903159
 10
1550.1935013203
 20
285.7641598309
 10
1550.4874726365
 20
286.8665443963
 10
1550.4874726365
 20
287.8590801642
 10
1550.1935013203
 20
288.6220526725
 10
1549.6410159672
 20
289.0634361766
 10
1548.8966544647
 20
289.1299933117
 10
1548.0501977954
 20
288.8136963051
  0
LINE
  5
139
330
1F
100
AcDbEntity
  8
0
  6
Continuous
 62
     7
370
    25
100
AcDbLine
 10
1548.0501977954
 20
288.8136963051
 30
0.0
 11
1535.322275734
 21
281.4660232987
 31
0.0
  0
LWPOLYLINE
  5
13A
330
1F
100
AcDbEntity
  8
0
  6
Continuous
 62
     7
370
    25
100
AcDbPolyline
 90
       10
 70
   128
 43
0.0
 10
1535.322275734
 20
281.4660232987
 10
1534.4758190648
 20
280.8050222374
 10
1533.7314575622
 20
279.8790436047
 10
1533.1789722091
 20
278.7997740897
 10
1532.8850008929
 20
277.6973895242
 10
1532.8850008929
 20
276.7048537564
 10
1533.1789722091
 20
275.9418812481
 10
1533.7314575622
 20
275.500497744
 10
1534.4758190648
 20
275.4339406089
 10
1535.322275734
 20
275.7502376155
  0
LINE
  5
13B
330
1F
100
AcDbEntity
  8
0
  6
Continuous
 62
     7
370
    25
100
AcDbLine
 10
1535.322275734
 20
275.7502376155
 30
0.0
 11
1548.0501977954
 21
283.0979106219
 31
0.0
  0
LWPOLYLINE
  5
13C
330
1F
100
AcDbEntity
  8
0
  6
Continuous
 62
     7
370
    25
100
AcDbPolyline
 90
       10
 70
   128
 43
0.0
 10
1583.4055368547
 20
323.9216337146
 10
1584.251993524
 20
324.5826347759
 10
1584.9963550266
 20
325.5086134086
 10
1585.5488403797
 20
326.5878829236
 10
1585.8428116958
 20
327.690267489
 10
1585.8428116958
 20
328.6828032569
 10
1585.5488403797
 20
329.4457757652
 10
1584.9963550266
 20
329.8871592693
 10
1584.251993524
 20
329.9537164044
 10
1583.4055368547
 20
329.6374193978
  0
LINE
  5
13D
330
1F
100
AcDbEntity
  8
0
  6
Continuous
 62
     7
370
    25
100
AcDbLine
 10
1583.4055368547
 20
329.6374193978
 30
0.0
 11
1570.6776147934
 21
322.2897463914
 31
0.0
  0
LWPOLYLINE
  5
13E
330
1F
100
AcDbEntity
  8
0
  6
Continuous
 62
     7
370
    25
100
AcDbPolyline
 90
       10
 70
   128
 43
0.0
 10
1570.6776147934
 20
322.2897463914
 10
1569.8311581241
 20
321.6287453301
 10
1569.0867966215
 20
320.7027666974
 10
1568.5343112684
 20
319.6234971824
 10
1568.2403399522
 20
318.521112617
 10
1568.2403399522
 20
317.5285768491
 10
1568.5343112684
 20
316.7656043408
 10
1569.0867966215
 20
316.3242208367
 10
1569.8311581241
 20
316.2576637016
 10
1570.6776147934
 20
316.5739607082
  0
LINE
  5
13F
330
1F
100
AcDbEntity
  8
0
  6
Continuous
 62
     7
370
    25
100
AcDbLine
 10
1570.6776147934
 20
316.5739607082
 30
0.0
 11
1583.4055368547
 21
323.9216337146
 31
0.0
  0
LWPOLYLINE
  5
140
330
1F
100
AcDbEntity
  8
0
  6
Continuous
 62
     7
370
    25
100
AcDbPolyline
 90
       10
 70
   128
 43
0.0
 10
3621.2872802344
 20
1506.0815085343
 10
3620.4408235651
 20
1505.420507473
 10
3619.6964620625
 20
1504.4945288403
 10
3619.1439767094
 20
1503.4152593253
 10
3618.8500053932
 20
1502.3128747599
 10
3618.8500053932
 20
1501.3203389921
 10
3619.1439767094
 20
1500.5573664837
 10
3619.6964620625
 20
1500.1159829796
 10
3620.4408235651
 20
1500.0494258445
 10
3621.2872802344
 20
1500.3657228511
  0
LINE
  5
141
330
1F
100
AcDbEntity
  8
0
  6
Continuous
 62
     7
370
    25
100
AcDbLine
 10
3621.2872802344
 20
1500.3657228511
 30
0.0
 11
3634.0152022957
 21
1507.7133958575
 31
0.0
  0
LWPOLYLINE
  5
142
330
1F
100
AcDbEntity
  8
0
  6
Continuous
 62
     7
370
    25
100
AcDbPolyline
 90
       10
 70
   128
 43
0.0
 10
3634.0152022957
 20
1507.7133958575
 10
3634.861658965
 20
1508.3743969189
 10
3635.6060204676
 20
1509.3003755516
 10
3636.1585058206
 20
1510.3796450665
 10
3636.4524771368
 20
1511.482029632
 10
3636.4524771368
 20
1512.4745653998
 10
3636.1585058206
 20
1513.2375379081
 10
3635.6060204676
 20
1513.6789214122
 10
3634.861658965
 20
1513.7454785474
 10
3634.0152022957
 20
1513.4291815407
  0
LINE
  5
143
330
1F
100
AcDbEntity
  8
0
  6
Continuous
 62
     7
370
    25
100
AcDbLine
 10
3634.0152022957
 20
1513.4291815407
 30
0.0
 11
3621.2872802344
 21
1506.0815085343
 31
0.0
  0
LWPOLYLINE
  5
144
330
1F
100
AcDbEntity
  8
0
  6
Continuous
 62
     7
370
    25
100
AcDbPolyline
 90
       10
 70
   128
 43
0.0
 10
3585.931941175
 20
1485.6713057388
 10
3585.0854845058
 20
1485.0103046774
 10
3584.3411230032
 20
1484.0843260447
 10
3583.7886376501
 20
1483.0050565297
 10
3583.4946663339
 20
1481.9026719643
 10
3583.4946663339
 20
1480.9101361965
 10
3583.7886376501
 20
1480.1471636881
 10
3584.3411230032
 20
1479.705780184
 10
3585.0854845058
 20
1479.6392230489
 10
3585.931941175
 20
1479.9555200556
  0
LINE
  5
145
330
1F
100
AcDbEntity
  8
0
  6
Continuous
 62
     7
370
    25
100
AcDbLine
 10
3585.931941175
 20
1479.9555200556
 30
0.0
 11
3598.6598632364
 21
1487.303193062
 31
0.0
  0
LWPOLYLINE
  5
146
330
1F
100
AcDbEntity
  8
0
  6
Continuous
 62
     7
370
    25
100
AcDbPolyline
 90
       10
 70
   128
 43
0.0
 10
3598.6598632364
 20
1487.303193062
 10
3599.5063199057
 20
1487.9641941233
 10
3600.2506814082
 20
1488.890172756
 10
3600.8031667613
 20
1489.969442271
 10
3601.0971380775
 20
1491.0718268364
 10
3601.0971380775
 20
1492.0643626042
 10
3600.8031667613
 20
1492.8273351126
 10
3600.2506814082
 20
1493.2687186167
 10
3599.5063199057
 20
1493.3352757518
 10
3598.6598632364
 20
1493.0189787452
  0
LINE
  5
147
330
1F
100
AcDbEntity
  8
0
  6
Continuous
 62
     7
370
    25
100
AcDbLine
 10
3598.6598632364
 20
1493.0189787452
 30
0.0
 11
3585.931941175
 21
1485.6713057388
 31
0.0
  0
LWPOLYLINE
  5
148
330
1F
100
AcDbEntity
  8
0
  6
Continuous
 62
     7
370
    25
100
AcDbPolyline
 90
       10
 70
   128
 43
0.0
 10
1548.0501977954
 20
303.511430919
 10
1548.8966544647
 20
304.1724319804
 10
1549.6410159672
 20
305.0984106131
 10
1550.1935013203
 20
306.1776801281
 10
1550.4874726365
 20
307.2800646935
 10
1550.4874726365
 20
308.2726004613
 10
1550.1935013203
 20
309.0355729697
 10
1549.6410159672
 20
309.4769564737
 10
1548.8966544647
 20
309.5435136089
 10
1548.0501977954
 20
309.2272166022
  0
LINE
  5
149
330
1F
100
AcDbEntity
  8
0
  6
Continuous
 62
     7
370
    25
100
AcDbLine
 10
1548.0501977954
 20
309.2272166022
 30
0.0
 11
1535.322275734
 21
301.8795435958
 31
0.0
  0
LWPOLYLINE
  5
14A
330
1F
100
AcDbEntity
  8
0
  6
Continuous
 62
     7
370
    25
100
AcDbPolyline
 90
       10
 70
   128
 43
0.0
 10
1535.322275734
 20
301.8795435958
 10
1534.4758190648
 20
301.2185425345
 10
1533.7314575622
 20
300.2925639018
 10
1533.1789722091
 20
299.2132943868
 10
1532.8850008929
 20
298.1109098214
 10
1532.8850008929
 20
297.1183740536
 10
1533.1789722091
 20
296.3554015452
 10
1533.7314575622
 20
295.9140180411
 10
1534.4758190648
 20
295.847460906
 10
1535.322275734
 20
296.1637579126
  0
LINE
  5
14B
330
1F
100
AcDbEntity
  8
0
  6
Continuous
 62
     7
370
    25
100
AcDbLine
 10
1535.322275734
 20
296.1637579126
 30
0.0
 11
1548.0501977954
 21
303.511430919
 31
0.0
  0
LINE
  5
14C
330
1F
100
AcDbEntity
  8
0
  6
Continuous
 62
     7
370
    25
100
AcDbLine
 10
1522.9479070633
 20
311.066589805
 30
0.0
 11
1522.9479070633
 21
260.0327890621
 31
0.0
  0
LWPOLYLINE
  5
14D
330
1F
100
AcDbEntity
  8
0
  6
Continuous
 62
     7
370
    25
100
AcDbPolyline
 90
        3
 70
   128
 43
0.0
 10
1534.2616155623
 20
296.7760639965
 10
1533.415158893
 20
296.4597669899
 10
1533.124363658
 20
296.4391467314
  0
LINE
  5
14E
330
1F
100
AcDbEntity
  8
0
  6
Continuous
 62
     7
370
    25
100
AcDbLine
 10
1546.9895376236
 20
304.1237370029
 30
0.0
 11
1534.2616155623
 21
296.7760639965
 31
0.0
  0
ARC
  5
14F
330
1F
100
AcDbEntity
  8
0
  6
Continuous
 62
     7
370
    25
100
AcDbCircle
 10
1544.8162881351
 20
308.1659048454
 30
0.0
 40
4.589350085409245
100
AcDbArc
 50
298.2644546681
 51
17.7382019346
  0
LWPOLYLINE
  5
150
330
1F
100
AcDbEntity
  8
0
  6
Continuous
 62
     7
370
    25
100
AcDbPolyline
 90
        3
 70
   128
 43
0.0
 10
1534.2616155623
 20
276.3625436994
 10
1533.415158893
 20
276.0462466927
 10
1533.1243460522
 20
276.0256267894
  0
LINE
  5
151
330
1F
100
AcDbEntity
  8
0
  6
Continuous
 62
     7
370
    25
100
AcDbLine
 10
1522.2408002821
 20
258.3996410883
 30
0.0
 11
1524.0085672351
 21
257.3791309486
 31
0.0
  0
LINE
  5
152
330
1F
100
AcDbEntity
  8
0
  6
Continuous
 62
     7
370
    25
100
AcDbLine
 10
1522.2408002821
 20
259.6244523062
 30
0.0
 11
1522.9479070633
 21
259.2162482503
 31
0.0
  0
LINE
  5
153
330
1F
100
AcDbEntity
  8
0
  6
Continuous
 62
     7
370
    25
100
AcDbLine
 10
1522.9479070633
 20
259.2162482503
 30
0.0
 11
1522.9479070633
 21
260.0327890621
 31
0.0
  0
LINE
  5
154
330
1F
100
AcDbEntity
  8
0
  6
Continuous
 62
     7
370
    25
100
AcDbLine
 10
1383.6478711695
 20
339.6324472648
 30
0.0
 11
1384.3549779507
 21
339.2242432089
 31
0.0
  0
LINE
  5
155
330
1F
100
AcDbEntity
  8
0
  6
Continuous
 62
     7
370
    25
100
AcDbLine
 10
3504.9682147292
 20
1564.2446149989
 30
0.0
 11
1383.6478711695
 21
339.6324472648
 31
0.0
  0
LINE
  5
156
330
1F
100
AcDbEntity
  8
0
  6
Continuous
 62
     7
370
    25
100
AcDbLine
 10
3504.9682147292
 20
1564.2446149989
 30
0.0
 11
3505.6753215104
 21
1563.8364109429
 31
0.0
  0
LINE
  5
157
330
1F
100
AcDbEntity
  8
0
  6
Continuous
 62
     7
370
    25
100
AcDbLine
 10
3634.5179410514
 20
1489.457149889
 30
0.0
 11
3631.1844764894
 21
1491.3815180193
 31
0.0
  0
LINE
  5
158
330
1F
100
AcDbEntity
  8
0
  6
Continuous
 62
     7
370
    25
100
AcDbLine
 10
3583.1183196809
 20
1519.129519712
 30
0.0
 11
3505.6753215104
 21
1563.8364109429
 31
0.0
  0
LINE
  5
159
330
1F
100
AcDbEntity
  8
0
  6
Continuous
 62
     7
370
    25
100
AcDbLine
 10
1522.2408002821
 20
259.6244523062
 30
0.0
 11
1384.3549779507
 21
339.2242432089
 31
0.0
  0
ARC
  5
15A
330
1F
100
AcDbEntity
  8
0
  6
Continuous
 62
     7
370
    25
100
AcDbCircle
 10
3556.388383392
 20
1517.0970465411
 30
0.0
 40
0.4366153168335875
100
AcDbArc
 50
110.7834207993
 51
249.2165792007
  0
LINE
  5
15B
330
1F
100
AcDbEntity
  8
0
  6
Continuous
 62
     7
370
    25
100
AcDbLine
 10
3556.2334563652
 20
1516.6888424852
 30
0.0
 11
3561.8903106147
 21
1513.4232100379
 31
0.0
  0
ARC
  5
15C
330
1F
100
AcDbEntity
  8
0
  6
Continuous
 62
     7
370
    25
100
AcDbCircle
 10
3562.5974173959
 20
1514.7879211228
 30
0.0
 40
1.537021907909805
100
AcDbArc
 50
242.6096722366
 51
297.3903277634
  0
LINE
  5
15D
330
1F
100
AcDbEntity
  8
0
  6
Continuous
 62
     7
370
    25
100
AcDbLine
 10
3563.3045241771
 20
1513.4232100379
 30
0.0
 11
3566.840058083
 21
1515.4642303174
 31
0.0
  0
ARC
  5
15E
330
1F
100
AcDbEntity
  8
0
  6
Continuous
 62
     7
370
    25
100
AcDbCircle
 10
3566.6851310562
 20
1515.8724343734
 30
0.0
 40
0.4366153168344455
100
AcDbArc
 50
290.7834207994
 51
69.2165792005
  0
LINE
  5
15F
330
1F
100
AcDbEntity
  8
0
  6
Continuous
 62
     7
370
    25
100
AcDbLine
 10
3566.840058083
 20
1516.2806384293
 30
0.0
 11
3561.1832038335
 21
1519.5462708766
 31
0.0
  0
ARC
  5
160
330
1F
100
AcDbEntity
  8
0
  6
Continuous
 62
     7
370
    25
100
AcDbCircle
 10
3560.4760970523
 20
1518.1815597916
 30
0.0
 40
1.53702190791385
100
AcDbArc
 50
62.6096722366
 51
117.3903277634
  0
LINE
  5
161
330
1F
100
AcDbEntity
  8
0
  6
Continuous
 62
     7
370
    25
100
AcDbLine
 10
3559.7689902711
 20
1519.5462708766
 30
0.0
 11
3556.2334563652
 21
1517.505250597
 31
0.0
  0
ARC
  5
162
330
1F
100
AcDbEntity
  8
0
  6
Continuous
 62
     7
370
    25
100
AcDbCircle
 10
1461.2309907362
 20
307.5884288758
 30
0.0
 40
0.4366153168341779
100
AcDbArc
 50
110.7834207994
 51
249.2165792006
  0
LINE
  5
163
330
1F
100
AcDbEntity
  8
0
  6
Continuous
 62
     7
370
    25
100
AcDbLine
 10
1461.0760637094
 20
307.1802248198
 30
0.0
 11
1466.7329179589
 21
303.9145923726
 31
0.0
  0
ARC
  5
164
330
1F
100
AcDbEntity
  8
0
  6
Continuous
 62
     7
370
    25
100
AcDbCircle
 10
1467.4400247401
 20
305.2793034575
 30
0.0
 40
1.537021907911517
100
AcDbArc
 50
242.6096722366
 51
297.3903277634
  0
LINE
  5
165
330
1F
100
AcDbEntity
  8
0
  6
Continuous
 62
     7
370
    25
100
AcDbLine
 10
1468.1471315213
 20
303.9145923726
 30
0.0
 11
1471.6826654272
 21
305.9556126521
 31
0.0
  0
ARC
  5
166
330
1F
100
AcDbEntity
  8
0
  6
Continuous
 62
     7
370
    25
100
AcDbCircle
 10
1471.5277384005
 20
306.363816708
 30
0.0
 40
0.436615316834231
100
AcDbArc
 50
290.7834207994
 51
69.2165792005
  0
LINE
  5
167
330
1F
100
AcDbEntity
  8
0
  6
Continuous
 62
     7
370
    25
100
AcDbLine
 10
1471.6826654272
 20
306.7720207639
 30
0.0
 11
1466.0258111778
 21
310.0376532112
 31
0.0
  0
ARC
  5
168
330
1F
100
AcDbEntity
  8
0
  6
Continuous
 62
     7
370
    25
100
AcDbCircle
 10
1465.3187043966
 20
308.6729421263
 30
0.0
 40
1.53702190791071
100
AcDbArc
 50
62.6096722366
 51
117.3903277634
  0
LINE
  5
169
330
1F
100
AcDbEntity
  8
0
  6
Continuous
 62
     7
370
    25
100
AcDbLine
 10
1464.6115976154
 20
310.0376532112
 30
0.0
 11
1461.0760637094
 21
307.9966329317
 31
0.0
  0
LINE
  5
16A
330
1F
100
AcDbEntity
  8
0
  6
Continuous
 62
     7
370
    25
100
AcDbLine
 10
1405.2146279957
 20
340.2447533487
 30
0.0
 11
1417.9425500571
 21
347.5924263551
 31
0.0
  0
LWPOLYLINE
  5
16B
330
1F
100
AcDbEntity
  8
0
  6
Continuous
 62
     7
370
    25
100
AcDbPolyline
 90
       10
 70
   128
 43
0.0
 10
1417.9425500571
 20
347.5924263551
 10
1418.6397535775
 20
348.1672373978
 10
1418.9543577662
 20
348.8450417631
 10
1418.8484167149
 20
349.5440862411
 10
1418.3347084779
 20
350.180055751
 10
1417.4751938501
 20
350.676242984
 10
1416.3735429808
 20
350.9728004368
 10
1415.1626312233
 20
351.0339589039
 10
1413.9885124068
 20
350.8523417716
 10
1412.9928025888
 20
350.4498547464
  0
LINE
  5
16C
330
1F
100
AcDbEntity
  8
0
  6
Continuous
 62
     7
370
    25
100
AcDbLine
 10
1412.9928025888
 20
350.4498547464
 30
0.0
 11
1400.2648805274
 21
343.10218174
 31
0.0
  0
LWPOLYLINE
  5
16D
330
1F
100
AcDbEntity
  8
0
  6
Continuous
 62
     7
370
    25
100
AcDbPolyline
 90
       10
 70
   128
 43
0.0
 10
1400.2648805274
 20
343.10218174
 10
1399.5676770069
 20
342.5273706973
 10
1399.2530728182
 20
341.849566332
 10
1399.3590138695
 20
341.150521854
 10
1399.8727221065
 20
340.5145523441
 10
1400.7322367343
 20
340.0183651111
 10
1401.8338876037
 20
339.7218076583
 10
1403.0447993612
 20
339.6606491912
 10
1404.2189181777
 20
339.8422663235
 10
1405.2146279957
 20
340.2447533487
  0
LINE
  5
16E
330
1F
100
AcDbEntity
  8
0
  6
Continuous
 62
     7
370
    25
100
AcDbLine
 10
3622.7014937967
 20
1483.2161099005
 30
0.0
 11
3618.8380565818
 21
1480.9857950699
 31
0.0
  0
ARC
  5
16F
330
1F
100
AcDbEntity
  8
0
  6
Continuous
 62
     7
370
    25
100
AcDbCircle
 10
3625.1569532315
 20
1478.4754365746
 30
0.0
 40
5.338844876741561
100
AcDbArc
 50
83.1834142245
 51
117.3821616972
  0
LINE
  5
170
330
1F
100
AcDbEntity
  8
0
  6
Continuous
 62
     7
370
    25
100
AcDbLine
 10
3587.3461547374
 20
1462.8059071049
 30
0.0
 11
3583.4827175225
 21
1460.5755922743
 31
0.0
  0
ARC
  5
171
330
1F
100
AcDbEntity
  8
0
  6
Continuous
 62
     7
370
    25
100
AcDbCircle
 10
3589.8016141721
 20
1458.065233779
 30
0.0
 40
5.338844876743797
100
AcDbArc
 50
83.1834142245
 51
117.3821616972
  0
LINE
  5
172
330
1F
100
AcDbEntity
  8
0
  6
Continuous
 62
     7
370
    25
100
AcDbLine
 10
3463.6024680298
 20
1534.2416168894
 30
0.0
 11
3450.8745459684
 21
1526.893943883
 31
0.0
  0
LWPOLYLINE
  5
173
330
1F
100
AcDbEntity
  8
0
  6
Continuous
 62
     7
370
    25
100
AcDbPolyline
 90
       10
 70
   128
 43
0.0
 10
3450.8745459684
 20
1526.893943883
 10
3450.1773424479
 20
1526.3191328402
 10
3449.8627382592
 20
1525.6413284749
 10
3449.9686793105
 20
1524.9422839969
 10
3450.4823875475
 20
1524.306314487
 10
3451.3419021753
 20
1523.810127254
 10
3452.4435530447
 20
1523.5135698012
 10
3453.6544648022
 20
1523.4524113341
 10
3454.8285836186
 20
1523.6340284664
 10
3455.8242934367
 20
1524.0365154916
  0
LINE
  5
174
330
1F
100
AcDbEntity
  8
0
  6
Continuous
 62
     7
370
    25
100
AcDbLine
 10
3455.8242934367
 20
1524.0365154916
 30
0.0
 11
3468.5522154981
 21
1531.384188498
 31
0.0
  0
LWPOLYLINE
  5
175
330
1F
100
AcDbEntity
  8
0
  6
Continuous
 62
     7
370
    25
100
AcDbPolyline
 90
       10
 70
   128
 43
0.0
 10
3468.5522154981
 20
1531.384188498
 10
3469.2494190185
 20
1531.9589995408
 10
3469.5640232072
 20
1532.636803906
 10
3469.4580821559
 20
1533.3358483841
 10
3468.9443739189
 20
1533.9718178939
 10
3468.0848592911
 20
1534.4680051269
 10
3466.9832084218
 20
1534.7645625797
 10
3465.7722966643
 20
1534.8257210469
 10
3464.5981778478
 20
1534.6441039146
 10
3463.6024680298
 20
1534.2416168894
  0
LINE
  5
176
330
1F
100
AcDbEntity
  8
0
  6
Continuous
 62
     7
370
    25
100
AcDbLine
 10
1440.569967055
 20
360.6549561442
 30
0.0
 11
1453.2978891164
 21
368.0026291506
 31
0.0
  0
LWPOLYLINE
  5
177
330
1F
100
AcDbEntity
  8
0
  6
Continuous
 62
     7
370
    25
100
AcDbPolyline
 90
       10
 70
   128
 43
0.0
 10
1453.2978891164
 20
368.0026291506
 10
1453.9950926369
 20
368.5774401934
 10
1454.3096968256
 20
369.2552445587
 10
1454.2037557743
 20
369.9542890367
 10
1453.6900475373
 20
370.5902585466
 10
1452.8305329095
 20
371.0864457796
 10
1451.7288820401
 20
371.3830032324
 10
1450.5179702826
 20
371.4441616995
 10
1449.3438514662
 20
371.2625445672
 10
1448.3481416481
 20
370.860057542
  0
LINE
  5
178
330
1F
100
AcDbEntity
  8
0
  6
Continuous
 62
     7
370
    25
100
AcDbLine
 10
1448.3481416481
 20
370.860057542
 30
0.0
 11
1435.6202195867
 21
363.5123845356
 31
0.0
  0
LWPOLYLINE
  5
179
330
1F
100
AcDbEntity
  8
0
  6
Continuous
 62
     7
370
    25
100
AcDbPolyline
 90
       10
 70
   128
 43
0.0
 10
1435.6202195867
 20
363.5123845356
 10
1434.9230160663
 20
362.9375734928
 10
1434.6084118776
 20
362.2597691276
 10
1434.7143529289
 20
361.5607246496
 10
1435.2280611659
 20
360.9247551397
 10
1436.0875757937
 20
360.4285679067
 10
1437.189226663
 20
360.1320104539
 10
1438.4001384205
 20
360.0708519867
 10
1439.574257237
 20
360.252469119
 10
1440.569967055
 20
360.6549561442
  0
ARC
  5
17A
330
1F
100
AcDbEntity
  8
0
  6
Continuous
 62
     7
370
    25
100
AcDbCircle
 10
1539.1919487311
 20
274.2734716361
 30
0.0
 40
5.338844876744758
100
AcDbArc
 50
83.1834142245
 51
117.3821616972
  0
LINE
  5
17B
330
1F
100
AcDbEntity
  8
0
  6
Continuous
 62
     7
370
    25
100
AcDbLine
 10
1536.7364892964
 20
279.014144962
 30
0.0
 11
1532.8730520815
 21
276.7838301314
 31
0.0
  0
ARC
  5
17C
330
1F
100
AcDbEntity
  8
0
  6
Continuous
 62
     7
370
    25
100
AcDbCircle
 10
1574.5472877905
 20
294.6836744317
 30
0.0
 40
5.338844876747382
100
AcDbArc
 50
83.1834142245
 51
117.3821616972
  0
LINE
  5
17D
330
1F
100
AcDbEntity
  8
0
  6
Continuous
 62
     7
370
    25
100
AcDbLine
 10
1572.0918283557
 20
299.4243477575
 30
0.0
 11
1568.2283911409
 21
297.194032927
 31
0.0
  0
LINE
  5
17E
330
1F
100
AcDbEntity
  8
0
  6
Continuous
 62
     7
370
    25
100
AcDbLine
 10
3498.9578070891
 20
1554.6518196849
 30
0.0
 11
3486.2298850277
 21
1547.3041466785
 31
0.0
  0
LWPOLYLINE
  5
17F
330
1F
100
AcDbEntity
  8
0
  6
Continuous
 62
     7
370
    25
100
AcDbPolyline
 90
       10
 70
   128
 43
0.0
 10
3486.2298850277
 20
1547.3041466785
 10
3485.5326815073
 20
1546.7293356358
 10
3485.2180773186
 20
1546.0515312705
 10
3485.3240183699
 20
1545.3524867925
 10
3485.8377266069
 20
1544.7165172826
 10
3486.6972412346
 20
1544.2203300496
 10
3487.798892104
 20
1543.9237725968
 10
3489.0098038615
 20
1543.8626141297
 10
3490.183922678
 20
1544.044231262
 10
3491.179632496
 20
1544.4467182872
  0
LINE
  5
180
330
1F
100
AcDbEntity
  8
0
  6
Continuous
 62
     7
370
    25
100
AcDbLine
 10
3491.179632496
 20
1544.4467182872
 30
0.0
 11
3503.9075545574
 21
1551.7943912936
 31
0.0
  0
LWPOLYLINE
  5
181
330
1F
100
AcDbEntity
  8
0
  6
Continuous
 62
     7
370
    25
100
AcDbPolyline
 90
       10
 70
   128
 43
0.0
 10
3503.9075545574
 20
1551.7943912936
 10
3504.6047580779
 20
1552.3692023363
 10
3504.9193622666
 20
1553.0470067016
 10
3504.8134212152
 20
1553.7460511796
 10
3504.2997129782
 20
1554.3820206895
 10
3503.4401983505
 20
1554.8782079225
 10
3502.3385474811
 20
1555.1747653753
 10
3501.1276357236
 20
1555.2359238424
 10
3499.9535169071
 20
1555.0543067101
 10
3498.9578070891
 20
1554.6518196849
  0
LINE
  5
182
330
1F
100
AcDbEntity
  8
0
  6
Continuous
 62
     7
370
    25
100
AcDbLine
 10
1522.2408002821
 20
258.3996410883
 30
0.0
 11
1384.3549779507
 21
337.9994319911
 31
0.0
  0
LINE
  5
183
330
1F
100
AcDbEntity
  8
0
  6
Continuous
 62
     7
370
    25
100
AcDbLine
 10
1546.9895376236
 20
283.7102167058
 30
0.0
 11
1534.2616155623
 21
276.3625436994
 31
0.0
  0
ARC
  5
184
330
1F
100
AcDbEntity
  8
0
  6
Continuous
 62
     7
370
    25
100
AcDbCircle
 10
1544.8162881351
 20
287.7523845483
 30
0.0
 40
4.589350085384368
100
AcDbArc
 50
298.264454668
 51
17.7382019354
  0
LWPOLYLINE
  5
185
330
1F
100
AcDbEntity
  8
0
  6
Continuous
 62
     7
370
    25
100
AcDbPolyline
 90
        3
 70
   128
 43
0.0
 10
1569.6169546216
 20
317.1862667921
 10
1568.7704979523
 20
316.8699697854
 10
1568.4797024435
 20
316.8493495325
  0
LINE
  5
186
330
1F
100
AcDbEntity
  8
0
  6
Continuous
 62
     7
370
    25
100
AcDbLine
 10
1582.3448766829
 20
324.5339397985
 30
0.0
 11
1569.6169546216
 21
317.1862667921
 31
0.0
  0
ARC
  5
187
330
1F
100
AcDbEntity
  8
0
  6
Continuous
 62
     7
370
    25
100
AcDbCircle
 10
1580.1716229779
 20
328.576110811
 30
0.0
 40
4.589354874149342
100
AcDbArc
 50
298.2644822915
 51
17.738057253
  0
LWPOLYLINE
  5
188
330
1F
100
AcDbEntity
  8
0
  6
Continuous
 62
     7
370
    25
100
AcDbPolyline
 90
        3
 70
   128
 43
0.0
 10
1569.6169546216
 20
296.7727464949
 10
1568.7704979523
 20
296.4564494883
 10
1568.4796985284
 20
296.4358293143
  0
LINE
  5
189
330
1F
100
AcDbEntity
  8
0
  6
Continuous
 62
     7
370
    25
100
AcDbLine
 10
1582.3448766829
 20
304.1204195013
 30
0.0
 11
1569.6169546216
 21
296.7727464949
 31
0.0
  0
ARC
  5
18A
330
1F
100
AcDbEntity
  8
0
  6
Continuous
 62
     7
370
    25
100
AcDbCircle
 10
1580.1716294535
 20
308.1625856454
 30
0.0
 40
4.589347519715576
100
AcDbArc
 50
298.2644398681
 51
17.7382794516
  0
LINE
  5
18B
330
1F
100
AcDbEntity
  8
0
  6
Continuous
 62
     7
370
    25
100
AcDbLine
 10
3510.6250689787
 20
1625.0499251124
 30
0.0
 11
1389.304725419
 21
400.4377573784
 31
0.0
  0
LINE
  5
18C
330
1F
100
AcDbEntity
  8
0
  6
Continuous
 62
     7
370
    25
100
AcDbLine
 10
1389.304725419
 20
400.4377573784
 30
0.0
 11
1386.8935439141
 21
401.8297028328
 31
0.0
  0
LINE
  5
18D
330
1F
100
AcDbEntity
  8
0
  6
Continuous
 62
     7
370
    25
100
AcDbLine
 10
3508.2138874737
 20
1626.4418705669
 30
0.0
 11
1386.8935439141
 21
401.8297028328
 31
0.0
  0
LINE
  5
18E
330
1F
100
AcDbEntity
  8
0
  6
Continuous
 62
     7
370
    25
100
AcDbLine
 10
3510.6250689787
 20
1625.0499251124
 30
0.0
 11
3508.2138874737
 21
1626.4418705669
 31
0.0
  0
LINE
  5
18F
330
1F
100
AcDbEntity
  8
0
  6
Continuous
 62
     7
370
    25
100
AcDbLine
 10
1385.9665921206
 20
394.3706072606
 30
0.0
 11
1383.2186792565
 21
393.2943224159
 31
0.0
  0
LINE
  5
190
330
1F
100
AcDbEntity
  8
0
  6
Continuous
 62
     7
370
    25
100
AcDbLine
 10
1382.9407643883
 20
400.2815035599
 30
0.0
 11
1385.9665921206
 21
394.3706072606
 31
0.0
  0
LINE
  5
191
330
1F
100
AcDbEntity
  8
0
  6
Continuous
 62
     7
370
    25
100
AcDbLine
 10
1386.8935439141
 20
401.8297028328
 30
0.0
 11
1382.9407643883
 21
400.2815035599
 31
0.0
  0
LINE
  5
192
330
1F
100
AcDbEntity
  8
0
  6
Continuous
 62
     7
370
    25
100
AcDbLine
 10
1389.304725419
 20
394.0791883588
 30
0.0
 11
1389.304725419
 21
400.4377573784
 31
0.0
  0
LINE
  5
193
330
1F
100
AcDbEntity
  8
0
  6
Continuous
 62
     7
370
    25
100
AcDbLine
 10
1389.304725419
 20
394.0791883588
 30
0.0
 11
1383.900458473
 21
391.9624798245
 31
0.0
  0
LINE
  5
194
330
1F
100
AcDbEntity
  8
0
  6
Continuous
 62
     7
370
    25
100
AcDbLine
 10
3510.6250689787
 20
1618.6913560928
 30
0.0
 11
1389.304725419
 21
394.0791883588
 31
0.0
  0
LINE
  5
195
330
1F
100
AcDbEntity
  8
0
  6
Continuous
 62
     7
370
    25
100
AcDbLine
 10
3510.6250689787
 20
1625.0499251124
 30
0.0
 11
3510.6250689787
 21
1618.6913560928
 31
0.0
  0
LINE
  5
196
330
1F
100
AcDbEntity
  8
0
  6
Continuous
 62
     7
370
    25
100
AcDbLine
 10
3504.261107948
 20
1624.893671294
 30
0.0
 11
3508.2138874737
 21
1626.4418705669
 31
0.0
  0
LINE
  5
197
330
1F
100
AcDbEntity
  8
0
  6
Continuous
 62
     7
370
    25
100
AcDbLine
 10
1382.9407643883
 20
400.2815035599
 30
0.0
 11
3504.261107948
 21
1624.893671294
 31
0.0
  0
LINE
  5
198
330
1F
100
AcDbEntity
  8
0
  6
Continuous
 62
     7
370
    25
100
AcDbLine
 10
1471.3289396355
 20
305.7514110991
 30
0.0
 11
1466.0258111778
 21
308.8128419934
 31
0.0
  0
LINE
  5
199
330
1F
100
AcDbEntity
  8
0
  6
Continuous
 62
     7
370
    25
100
AcDbLine
 10
1464.6115976154
 20
308.8128419934
 30
0.0
 11
1461.4297895012
 21
306.9760232668
 31
0.0
  0
ARC
  5
19A
330
1F
100
AcDbEntity
  8
0
  6
Continuous
 62
     7
370
    25
100
AcDbCircle
 10
1465.3187043966
 20
307.4481309084
 30
0.0
 40
1.537021907911265
100
AcDbArc
 50
62.6096722366
 51
117.3903277634
  0
LINE
  5
19B
330
1F
100
AcDbEntity
  8
0
  6
Continuous
 62
     7
370
    25
100
AcDbLine
 10
1383.2186792565
 20
393.2943224159
 30
0.0
 11
1382.5872109977
 21
393.0469929879
 31
0.0
  0
LINE
  5
19C
330
1F
100
AcDbEntity
  8
0
  6
Continuous
 62
     7
370
    25
100
AcDbLine
 10
1385.7187381871
 20
394.8547851543
 30
0.0
 11
1382.5872109977
 21
393.0469929879
 31
0.0
  0
LINE
  5
19D
330
1F
100
AcDbEntity
  8
0
  6
Continuous
 62
     7
370
    25
100
AcDbLine
 10
1382.5872109977
 20
393.0469929879
 30
0.0
 11
1382.5872109977
 21
392.0950949034
 31
0.0
  0
LINE
  5
19E
330
1F
100
AcDbEntity
  8
0
  6
Continuous
 62
     7
370
    25
100
AcDbLine
 10
1383.6478711695
 20
391.8635480533
 30
0.0
 11
1383.6478711695
 21
391.4827888195
 31
0.0
  0
LINE
  5
19F
330
1F
100
AcDbEntity
  8
0
  6
Continuous
 62
     7
370
    25
100
AcDbLine
 10
1383.900458473
 20
391.9624798245
 30
0.0
 11
1383.6478711695
 21
391.8635480533
 31
0.0
  0
LINE
  5
1A0
330
1F
100
AcDbEntity
  8
0
  6
Continuous
 62
     7
370
    25
100
AcDbLine
 10
3504.9682147292
 20
1565.0611558107
 30
0.0
 11
3504.9682147292
 21
1615.4257236456
 31
0.0
  0
LINE
  5
1A1
330
1F
100
AcDbEntity
  8
0
  6
Continuous
 62
     7
370
    25
100
AcDbLine
 10
3504.9682147292
 20
1565.0611558107
 30
0.0
 11
3504.9682147292
 21
1564.2446149989
 31
0.0
  0
LINE
  5
1A2
330
1F
100
AcDbEntity
  8
0
  6
Continuous
 62
     7
370
    25
100
AcDbLine
 10
1383.6478711695
 20
340.4489880767
 30
0.0
 11
1383.6478711695
 21
339.6324472648
 31
0.0
  0
LINE
  5
1A3
330
1F
100
AcDbEntity
  8
0
  6
Continuous
 62
     7
370
    25
100
AcDbLine
 10
1383.6478711695
 20
340.4489880767
 30
0.0
 11
1383.6478711695
 21
391.4827888195
 31
0.0
  0
LINE
  5
1A4
330
1F
100
AcDbEntity
  8
0
  6
Continuous
 62
     7
370
    25
100
AcDbLine
 10
1430.3169187278
 20
377.1889455095
 30
0.0
 11
1443.0448407892
 21
384.5366185159
 31
0.0
  0
LWPOLYLINE
  5
1A5
330
1F
100
AcDbEntity
  8
0
  6
Continuous
 62
     7
370
    25
100
AcDbPolyline
 90
       10
 70
   128
 43
0.0
 10
1443.0448407892
 20
384.5366185159
 10
1443.8912974585
 20
385.1976195772
 10
1444.635658961
 20
386.1235982099
 10
1445.1881443141
 20
387.2028677249
 10
1445.4821156303
 20
388.3052522903
 10
1445.4821156303
 20
389.2977880581
 10
1445.1881443141
 20
390.0607605665
 10
1444.635658961
 20
390.5021440706
 10
1443.8912974585
 20
390.5687012057
 10
1443.0448407892
 20
390.2524041991
  0
LINE
  5
1A6
330
1F
100
AcDbEntity
  8
0
  6
Continuous
 62
     7
370
    25
100
AcDbLine
 10
1443.0448407892
 20
390.2524041991
 30
0.0
 11
1430.3169187278
 21
382.9047311927
 31
0.0
  0
LWPOLYLINE
  5
1A7
330
1F
100
AcDbEntity
  8
0
  6
Continuous
 62
     7
370
    25
100
AcDbPolyline
 90
       10
 70
   128
 43
0.0
 10
1430.3169187278
 20
382.9047311927
 10
1429.4704620586
 20
382.2437301313
 10
1428.726100556
 20
381.3177514986
 10
1428.1736152029
 20
380.2384819836
 10
1427.8796438867
 20
379.1360974182
 10
1427.8796438867
 20
378.1435616504
 10
1428.1736152029
 20
377.380589142
 10
1428.726100556
 20
376.939205638
 10
1429.4704620586
 20
376.8726485028
 10
1430.3169187278
 20
377.1889455095
  0
LINE
  5
1A8
330
1F
100
AcDbEntity
  8
0
  6
Continuous
 62
     7
370
    25
100
AcDbLine
 10
3493.6545062302
 20
1574.044166342
 30
0.0
 11
3480.9265841688
 21
1566.6964933356
 31
0.0
  0
LWPOLYLINE
  5
1A9
330
1F
100
AcDbEntity
  8
0
  6
Continuous
 62
     7
370
    25
100
AcDbPolyline
 90
       10
 70
   128
 43
0.0
 10
3480.9265841688
 20
1566.6964933356
 10
3480.0801274996
 20
1566.0354922743
 10
3479.335765997
 20
1565.1095136416
 10
3478.7832806439
 20
1564.0302441266
 10
3478.4893093277
 20
1562.9278595611
 10
3478.4893093277
 20
1561.9353237933
 10
3478.7832806439
 20
1561.172351285
 10
3479.335765997
 20
1560.7309677809
 10
3480.0801274996
 20
1560.6644106458
 10
3480.9265841688
 20
1560.9807076524
  0
LINE
  5
1AA
330
1F
100
AcDbEntity
  8
0
  6
Continuous
 62
     7
370
    25
100
AcDbLine
 10
3480.9265841688
 20
1560.9807076524
 30
0.0
 11
3493.6545062302
 21
1568.3283806588
 31
0.0
  0
LWPOLYLINE
  5
1AB
330
1F
100
AcDbEntity
  8
0
  6
Continuous
 62
     7
370
    25
100
AcDbPolyline
 90
       10
 70
   128
 43
0.0
 10
3493.6545062302
 20
1568.3283806588
 10
3494.5009628995
 20
1568.9893817201
 10
3495.245324402
 20
1569.9153603528
 10
3495.7978097551
 20
1570.9946298678
 10
3496.0917810713
 20
1572.0970144332
 10
3496.0917810713
 20
1573.0895502011
 10
3495.7978097551
 20
1573.8525227094
 10
3495.245324402
 20
1574.2939062135
 10
3494.5009628995
 20
1574.3604633486
 10
3493.6545062302
 20
1574.044166342
  0
LINE
  5
1AC
330
1F
100
AcDbEntity
  8
0
  6
Continuous
 62
     7
370
    25
100
AcDbLine
 10
3458.2991671709
 20
1553.6339635464
 30
0.0
 11
3445.5712451095
 21
1546.28629054
 31
0.0
  0
LWPOLYLINE
  5
1AD
330
1F
100
AcDbEntity
  8
0
  6
Continuous
 62
     7
370
    25
100
AcDbPolyline
 90
       10
 70
   128
 43
0.0
 10
3445.5712451095
 20
1546.28629054
 10
3444.7247884402
 20
1545.6252894787
 10
3443.9804269376
 20
1544.699310846
 10
3443.4279415846
 20
1543.620041331
 10
3443.1339702684
 20
1542.5176567656
 10
3443.1339702684
 20
1541.5251209978
 10
3443.4279415846
 20
1540.7621484894
 10
3443.9804269376
 20
1540.3207649853
 10
3444.7247884402
 20
1540.2542078502
 10
3445.5712451095
 20
1540.5705048568
  0
LINE
  5
1AE
330
1F
100
AcDbEntity
  8
0
  6
Continuous
 62
     7
370
    25
100
AcDbLine
 10
3445.5712451095
 20
1540.5705048568
 30
0.0
 11
3458.2991671709
 21
1547.9181778632
 31
0.0
  0
LWPOLYLINE
  5
1AF
330
1F
100
AcDbEntity
  8
0
  6
Continuous
 62
     7
370
    25
100
AcDbPolyline
 90
       10
 70
   128
 43
0.0
 10
3458.2991671709
 20
1547.9181778632
 10
3459.1456238401
 20
1548.5791789246
 10
3459.8899853427
 20
1549.5051575573
 10
3460.4424706958
 20
1550.5844270722
 10
3460.736442012
 20
1551.6868116377
 10
3460.736442012
 20
1552.6793474055
 10
3460.4424706958
 20
1553.4423199138
 10
3459.8899853427
 20
1553.8837034179
 10
3459.1456238401
 20
1553.9502605531
 10
3458.2991671709
 20
1553.6339635464
  0
LINE
  5
1B0
330
1F
100
AcDbEntity
  8
0
  6
Continuous
 62
     7
370
    25
100
AcDbLine
 10
1394.9615796685
 20
356.7787427139
 30
0.0
 11
1407.6895017299
 21
364.1264157203
 31
0.0
  0
LWPOLYLINE
  5
1B1
330
1F
100
AcDbEntity
  8
0
  6
Continuous
 62
     7
370
    25
100
AcDbPolyline
 90
       10
 70
   128
 43
0.0
 10
1407.6895017299
 20
364.1264157203
 10
1408.5359583991
 20
364.7874167816
 10
1409.2803199017
 20
365.7133954143
 10
1409.8328052548
 20
366.7926649293
 10
1410.126776571
 20
367.8950494947
 10
1410.126776571
 20
368.8875852626
 10
1409.8328052548
 20
369.6505577709
 10
1409.2803199017
 20
370.091941275
 10
1408.5359583991
 20
370.1584984101
 10
1407.6895017299
 20
369.8422014035
  0
LINE
  5
1B2
330
1F
100
AcDbEntity
  8
0
  6
Continuous
 62
     7
370
    25
100
AcDbLine
 10
1407.6895017299
 20
369.8422014035
 30
0.0
 11
1394.9615796685
 21
362.4945283971
 31
0.0
  0
LWPOLYLINE
  5
1B3
330
1F
100
AcDbEntity
  8
0
  6
Continuous
 62
     7
370
    25
100
AcDbPolyline
 90
       10
 70
   128
 43
0.0
 10
1394.9615796685
 20
362.4945283971
 10
1394.1151229992
 20
361.8335273358
 10
1393.3707614967
 20
360.9075487031
 10
1392.8182761436
 20
359.8282791881
 10
1392.5243048274
 20
358.7258946226
 10
1392.5243048274
 20
357.7333588548
 10
1392.8182761436
 20
356.9703863465
 10
1393.3707614967
 20
356.5290028424
 10
1394.1151229992
 20
356.4624457073
 10
1394.9615796685
 20
356.7787427139
  0
LINE
  5
1B4
330
1F
100
AcDbEntity
  8
0
  6
Continuous
 62
     7
370
    25
100
AcDbLine
 10
1430.3169187278
 20
397.6024658066
 30
0.0
 11
1443.0448407892
 21
404.950138813
 31
0.0
  0
LWPOLYLINE
  5
1B5
330
1F
100
AcDbEntity
  8
0
  6
Continuous
 62
     7
370
    25
100
AcDbPolyline
 90
       10
 70
   128
 43
0.0
 10
1443.0448407892
 20
404.950138813
 10
1443.8912974585
 20
405.6111398743
 10
1444.635658961
 20
406.537118507
 10
1445.1881443141
 20
407.616388022
 10
1445.4821156303
 20
408.7187725875
 10
1445.4821156303
 20
409.7113083553
 10
1445.1881443141
 20
410.4742808636
 10
1444.635658961
 20
410.9156643677
 10
1443.8912974585
 20
410.9822215028
 10
1443.0448407892
 20
410.6659244962
  0
LINE
  5
1B6
330
1F
100
AcDbEntity
  8
0
  6
Continuous
 62
     7
370
    25
100
AcDbLine
 10
1443.0448407892
 20
410.6659244962
 30
0.0
 11
1430.3169187278
 21
403.3182514898
 31
0.0
  0
LWPOLYLINE
  5
1B7
330
1F
100
AcDbEntity
  8
0
  6
Continuous
 62
     7
370
    25
100
AcDbPolyline
 90
       10
 70
   128
 43
0.0
 10
1430.3169187278
 20
403.3182514898
 10
1429.4704620586
 20
402.6572504285
 10
1428.726100556
 20
401.7312717958
 10
1428.1736152029
 20
400.6520022808
 10
1427.8796438867
 20
399.5496177154
 10
1427.8796438867
 20
398.5570819475
 10
1428.1736152029
 20
397.7941094392
 10
1428.726100556
 20
397.3527259351
 10
1429.4704620586
 20
397.2861688
 10
1430.3169187278
 20
397.6024658066
  0
LINE
  5
1B8
330
1F
100
AcDbEntity
  8
0
  6
Continuous
 62
     7
370
    25
100
AcDbLine
 10
3493.6545062302
 20
1594.4576866391
 30
0.0
 11
3480.9265841688
 21
1587.1100136327
 31
0.0
  0
LWPOLYLINE
  5
1B9
330
1F
100
AcDbEntity
  8
0
  6
Continuous
 62
     7
370
    25
100
AcDbPolyline
 90
       10
 70
   128
 43
0.0
 10
3480.9265841688
 20
1587.1100136327
 10
3480.0801274996
 20
1586.4490125714
 10
3479.335765997
 20
1585.5230339387
 10
3478.7832806439
 20
1584.4437644237
 10
3478.4893093277
 20
1583.3413798583
 10
3478.4893093277
 20
1582.3488440905
 10
3478.7832806439
 20
1581.5858715821
 10
3479.335765997
 20
1581.144488078
 10
3480.0801274996
 20
1581.0779309429
 10
3480.9265841688
 20
1581.3942279495
  0
LINE
  5
1BA
330
1F
100
AcDbEntity
  8
0
  6
Continuous
 62
     7
370
    25
100
AcDbLine
 10
3480.9265841688
 20
1581.3942279495
 30
0.0
 11
3493.6545062302
 21
1588.7419009559
 31
0.0
  0
LWPOLYLINE
  5
1BB
330
1F
100
AcDbEntity
  8
0
  6
Continuous
 62
     7
370
    25
100
AcDbPolyline
 90
       10
 70
   128
 43
0.0
 10
3493.6545062302
 20
1588.7419009559
 10
3494.5009628995
 20
1589.4029020173
 10
3495.245324402
 20
1590.32888065
 10
3495.7978097551
 20
1591.4081501649
 10
3496.0917810713
 20
1592.5105347304
 10
3496.0917810713
 20
1593.5030704982
 10
3495.7978097551
 20
1594.2660430065
 10
3495.245324402
 20
1594.7074265106
 10
3494.5009628995
 20
1594.7739836458
 10
3493.6545062302
 20
1594.4576866391
  0
LINE
  5
1BC
330
1F
100
AcDbEntity
  8
0
  6
Continuous
 62
     7
370
    25
100
AcDbLine
 10
3458.2991671709
 20
1574.0474838436
 30
0.0
 11
3445.5712451095
 21
1566.6998108372
 31
0.0
  0
LWPOLYLINE
  5
1BD
330
1F
100
AcDbEntity
  8
0
  6
Continuous
 62
     7
370
    25
100
AcDbPolyline
 90
       10
 70
   128
 43
0.0
 10
3445.5712451095
 20
1566.6998108372
 10
3444.7247884402
 20
1566.0388097758
 10
3443.9804269376
 20
1565.1128311431
 10
3443.4279415846
 20
1564.0335616281
 10
3443.1339702684
 20
1562.9311770627
 10
3443.1339702684
 20
1561.9386412949
 10
3443.4279415846
 20
1561.1756687865
 10
3443.9804269376
 20
1560.7342852825
 10
3444.7247884402
 20
1560.6677281473
 10
3445.5712451095
 20
1560.984025154
  0
LINE
  5
1BE
330
1F
100
AcDbEntity
  8
0
  6
Continuous
 62
     7
370
    25
100
AcDbLine
 10
3445.5712451095
 20
1560.984025154
 30
0.0
 11
3458.2991671709
 21
1568.3316981604
 31
0.0
  0
LWPOLYLINE
  5
1BF
330
1F
100
AcDbEntity
  8
0
  6
Continuous
 62
     7
370
    25
100
AcDbPolyline
 90
       10
 70
   128
 43
0.0
 10
3458.2991671709
 20
1568.3316981604
 10
3459.1456238401
 20
1568.9926992217
 10
3459.8899853427
 20
1569.9186778544
 10
3460.4424706958
 20
1570.9979473694
 10
3460.736442012
 20
1572.1003319348
 10
3460.736442012
 20
1573.0928677026
 10
3460.4424706958
 20
1573.855840211
 10
3459.8899853427
 20
1574.2972237151
 10
3459.1456238401
 20
1574.3637808502
 10
3458.2991671709
 20
1574.0474838436
  0
LINE
  5
1C0
330
1F
100
AcDbEntity
  8
0
  6
Continuous
 62
     7
370
    25
100
AcDbLine
 10
1394.9615796685
 20
377.192263011
 30
0.0
 11
1407.6895017299
 21
384.5399360174
 31
0.0
  0
LWPOLYLINE
  5
1C1
330
1F
100
AcDbEntity
  8
0
  6
Continuous
 62
     7
370
    25
100
AcDbPolyline
 90
       10
 70
   128
 43
0.0
 10
1407.6895017299
 20
384.5399360174
 10
1408.5359583991
 20
385.2009370788
 10
1409.2803199017
 20
386.1269157115
 10
1409.8328052548
 20
387.2061852265
 10
1410.126776571
 20
388.3085697919
 10
1410.126776571
 20
389.3011055597
 10
1409.8328052548
 20
390.0640780681
 10
1409.2803199017
 20
390.5054615721
 10
1408.5359583991
 20
390.5720187073
 10
1407.6895017299
 20
390.2557217006
  0
LINE
  5
1C2
330
1F
100
AcDbEntity
  8
0
  6
Continuous
 62
     7
370
    25
100
AcDbLine
 10
1407.6895017299
 20
390.2557217006
 30
0.0
 11
1394.9615796685
 21
382.9080486942
 31
0.0
  0
LWPOLYLINE
  5
1C3
330
1F
100
AcDbEntity
  8
0
  6
Continuous
 62
     7
370
    25
100
AcDbPolyline
 90
       10
 70
   128
 43
0.0
 10
1394.9615796685
 20
382.9080486942
 10
1394.1151229992
 20
382.2470476329
 10
1393.3707614967
 20
381.3210690002
 10
1392.8182761436
 20
380.2417994852
 10
1392.5243048274
 20
379.1394149198
 10
1392.5243048274
 20
378.146879152
 10
1392.8182761436
 20
377.3839066436
 10
1393.3707614967
 20
376.9425231395
 10
1394.1151229992
 20
376.8759660044
 10
1394.9615796685
 20
377.192263011
  0
LINE
  5
1C4
330
1F
100
AcDbEntity
  8
0
  6
Continuous
 62
     7
370
    25
100
AcDbLine
 10
1382.5872109977
 20
341.0612941605
 30
0.0
 11
1382.5872109977
 21
392.0950949034
 31
0.0
  0
LWPOLYLINE
  5
1C5
330
1F
100
AcDbEntity
  8
0
  6
Continuous
 62
     7
370
    25
100
AcDbPolyline
 90
        3
 70
   128
 43
0.0
 10
1392.7636570906
 20
377.4676520416
 10
1393.0544628275
 20
377.4882720883
 10
1393.9009194967
 20
377.8045690949
  0
LINE
  5
1C6
330
1F
100
AcDbEntity
  8
0
  6
Continuous
 62
     7
370
    25
100
AcDbLine
 10
1393.9009194967
 20
377.8045690949
 30
0.0
 11
1406.6288415581
 21
385.1522421013
 31
0.0
  0
ARC
  5
1C7
330
1F
100
AcDbEntity
  8
0
  6
Continuous
 62
     7
370
    25
100
AcDbCircle
 10
1404.4555920694
 20
389.1944099439
 30
0.0
 40
4.589350085552437
100
AcDbArc
 50
298.2644546689
 51
17.7382019303
  0
LWPOLYLINE
  5
1C8
330
1F
100
AcDbEntity
  8
0
  6
Continuous
 62
     7
370
    25
100
AcDbPolyline
 90
        3
 70
   128
 43
0.0
 10
1392.7636565978
 20
357.0541317544
 10
1393.0544628275
 20
357.0747517911
 10
1393.9009194967
 20
357.3910487978
  0
LWPOLYLINE
  5
1C9
330
1F
100
AcDbEntity
  8
0
  6
Continuous
 62
     7
370
    25
100
AcDbPolyline
 90
        3
 70
   128
 43
0.0
 10
1400.2648805274
 20
341.8773705222
 10
1399.5676770069
 20
341.3025594794
 10
1399.4043930739
 20
341.0610619355
  0
LINE
  5
1CA
330
1F
100
AcDbEntity
  8
0
  6
Continuous
 62
     7
370
    25
100
AcDbLine
 10
1382.5872109977
 20
341.0612941605
 30
0.0
 11
1382.5872109977
 21
339.0199421308
 31
0.0
  0
LINE
  5
1CB
330
1F
100
AcDbEntity
  8
0
  6
Continuous
 62
     7
370
    25
100
AcDbLine
 10
1382.5872109977
 20
339.0199421308
 30
0.0
 11
1384.3549779507
 21
337.9994319911
 31
0.0
  0
LINE
  5
1CC
330
1F
100
AcDbEntity
  8
0
  6
Continuous
 62
     7
370
    25
100
AcDbLine
 10
1393.9009194967
 20
357.3910487978
 30
0.0
 11
1406.6288415581
 21
364.7387218042
 31
0.0
  0
LINE
  5
1CD
330
1F
100
AcDbEntity
  8
0
  6
Continuous
 62
     7
370
    25
100
AcDbLine
 10
1412.9928025888
 20
349.2250435286
 30
0.0
 11
1400.2648805274
 21
341.8773705222
 31
0.0
  0
ARC
  5
1CE
330
1F
100
AcDbEntity
  8
0
  6
Continuous
 62
     7
370
    25
100
AcDbCircle
 10
1404.4555884167
 20
368.7808923929
 30
0.0
 40
4.589354233969222
100
AcDbArc
 50
298.2644785986
 51
17.7380765947
  0
LWPOLYLINE
  5
1CF
330
1F
100
AcDbEntity
  8
0
  6
Continuous
 62
     7
370
    25
100
AcDbPolyline
 90
        3
 70
   128
 43
0.0
 10
1428.1190083015
 20
397.8778545922
 10
1428.4098018868
 20
397.8984748838
 10
1429.2562585561
 20
398.2147718905
  0
ARC
  5
1D0
330
1F
100
AcDbEntity
  8
0
  6
Continuous
 62
     7
370
    25
100
AcDbCircle
 10
1415.4067975418
 20
345.3212293919
 30
0.0
 40
4.589895036639917
100
AcDbArc
 50
42.2738245032
 51
121.7313331984
  0
LINE
  5
1D1
330
1F
100
AcDbEntity
  8
0
  6
Continuous
 62
     7
370
    25
100
AcDbLine
 10
1429.2562585561
 20
398.2147718905
 30
0.0
 11
1441.9841806174
 21
405.5624448969
 31
0.0
  0
ARC
  5
1D2
330
1F
100
AcDbEntity
  8
0
  6
Continuous
 62
     7
370
    25
100
AcDbCircle
 10
1439.8109342504
 20
409.6046103925
 30
0.0
 40
4.589346540179895
100
AcDbArc
 50
298.2644342178
 51
17.7383090461
  0
LWPOLYLINE
  5
1D3
330
1F
100
AcDbEntity
  8
0
  6
Continuous
 62
     7
370
    25
100
AcDbPolyline
 90
        3
 70
   128
 43
0.0
 10
1428.1190087758
 20
377.4643342854
 10
1428.4098018868
 20
377.4849545867
 10
1429.2562585561
 20
377.8012515933
  0
LWPOLYLINE
  5
1D4
330
1F
100
AcDbEntity
  8
0
  6
Continuous
 62
     7
370
    25
100
AcDbPolyline
 90
        3
 70
   128
 43
0.0
 10
1435.6202195867
 20
362.2875733178
 10
1434.9230160663
 20
361.712762275
 10
1434.7597321332
 20
361.471264731
  0
LINE
  5
1D5
330
1F
100
AcDbEntity
  8
0
  6
Continuous
 62
     7
370
    25
100
AcDbLine
 10
1429.2562585561
 20
377.8012515933
 30
0.0
 11
1441.9841806174
 21
385.1489245997
 31
0.0
  0
LINE
  5
1D6
330
1F
100
AcDbEntity
  8
0
  6
Continuous
 62
     7
370
    25
100
AcDbLine
 10
1448.3481416481
 20
369.6352463242
 30
0.0
 11
1435.6202195867
 21
362.2875733178
 31
0.0
  0
ARC
  5
1D7
330
1F
100
AcDbEntity
  8
0
  6
Continuous
 62
     7
370
    25
100
AcDbCircle
 10
1439.8109311288
 20
389.1910924423
 30
0.0
 40
4.589350085474142
100
AcDbArc
 50
298.2644546685
 51
17.7382019327
  0
ARC
  5
1D8
330
1F
100
AcDbEntity
  8
0
  6
Continuous
 62
     7
370
    25
100
AcDbCircle
 10
1450.7621366011
 20
365.7314321875
 30
0.0
 40
4.589895036549489
100
AcDbArc
 50
42.2738245005
 51
121.7313331989
  0
LWPOLYLINE
  5
1D9
330
1F
100
AcDbEntity
  8
0
  6
Continuous
 62
     7
370
    25
100
AcDbPolyline
 90
        3
 70
   128
 43
0.0
 10
3584.8712810032
 20
1480.5678261394
 10
3584.024824334
 20
1480.2515291328
 10
3583.7340249099
 20
1480.2309089588
  0
LINE
  5
1DA
330
1F
100
AcDbEntity
  8
0
  6
Continuous
 62
     7
370
    25
100
AcDbLine
 10
3597.5992030646
 20
1487.9154991458
 30
0.0
 11
3584.8712810032
 21
1480.5678261394
 31
0.0
  0
ARC
  5
1DB
330
1F
100
AcDbEntity
  8
0
  6
Continuous
 62
     7
370
    25
100
AcDbCircle
 10
3595.425953576
 20
1491.9576669884
 30
0.0
 40
4.589350085529926
100
AcDbArc
 50
298.2644546688
 51
17.738201931
  0
LWPOLYLINE
  5
1DC
330
1F
100
AcDbEntity
  8
0
  6
Continuous
 62
     7
370
    25
100
AcDbPolyline
 90
        3
 70
   128
 43
0.0
 10
3584.8712810032
 20
1460.1543058423
 10
3584.024824334
 20
1459.8380088357
 10
3583.73402491
 20
1459.8173886617
  0
LINE
  5
1DD
330
1F
100
AcDbEntity
  8
0
  6
Continuous
 62
     7
370
    25
100
AcDbLine
 10
3597.5992030646
 20
1467.5019788487
 30
0.0
 11
3584.8712810032
 21
1460.1543058423
 31
0.0
  0
ARC
  5
1DE
330
1F
100
AcDbEntity
  8
0
  6
Continuous
 62
     7
370
    25
100
AcDbCircle
 10
3595.4259535759
 20
1471.5441466913
 30
0.0
 40
4.589350085621718
100
AcDbArc
 50
298.2644546693
 51
17.7382019282
  0
LWPOLYLINE
  5
1DF
330
1F
100
AcDbEntity
  8
0
  6
Continuous
 62
     7
370
    25
100
AcDbPolyline
 90
        3
 70
   128
 43
0.0
 10
3620.2266200626
 20
1500.978028935
 10
3619.3801633933
 20
1500.6617319284
 10
3619.0893562318
 20
1500.6411119104
  0
LINE
  5
1E0
330
1F
100
AcDbEntity
  8
0
  6
Continuous
 62
     7
370
    25
100
AcDbLine
 10
3632.9545421239
 20
1508.3257019414
 30
0.0
 11
3620.2266200626
 21
1500.978028935
 31
0.0
  0
ARC
  5
1E1
330
1F
100
AcDbEntity
  8
0
  6
Continuous
 62
     7
370
    25
100
AcDbCircle
 10
3630.7812926353
 20
1512.367869784
 30
0.0
 40
4.589350085507352
100
AcDbArc
 50
298.2644546687
 51
17.7382019316
  0
LWPOLYLINE
  5
1E2
330
1F
100
AcDbEntity
  8
0
  6
Continuous
 62
     7
370
    25
100
AcDbPolyline
 90
        3
 70
   128
 43
0.0
 10
3620.2266200626
 20
1480.5645086378
 10
3619.3801633933
 20
1480.2482116312
 10
3619.089378393
 20
1480.2275911665
  0
LINE
  5
1E3
330
1F
100
AcDbEntity
  8
0
  6
Continuous
 62
     7
370
    25
100
AcDbLine
 10
3632.9545421239
 20
1487.9121816443
 30
0.0
 11
3620.2266200626
 21
1480.5645086378
 31
0.0
  0
ARC
  5
1E4
330
1F
100
AcDbEntity
  8
0
  6
Continuous
 62
     7
370
    25
100
AcDbCircle
 10
3630.7812926354
 20
1491.9543494868
 30
0.0
 40
4.589350085409377
100
AcDbArc
 50
298.2644546681
 51
17.7382019346
  0
LWPOLYLINE
  5
1E5
330
1F
100
AcDbEntity
  8
0
  6
Continuous
 62
     7
370
    25
100
AcDbPolyline
 90
        3
 70
   128
 43
0.0
 10
3443.3733288444
 20
1561.2594140572
 10
3443.6641282685
 20
1561.2800342312
 10
3444.5105849377
 20
1561.5963312378
  0
LINE
  5
1E6
330
1F
100
AcDbEntity
  8
0
  6
Continuous
 62
     7
370
    25
100
AcDbLine
 10
3444.5105849377
 20
1561.5963312378
 30
0.0
 11
3457.2385069991
 21
1568.9440042442
 31
0.0
  0
LINE
  5
1E7
330
1F
100
AcDbEntity
  8
0
  6
Continuous
 62
     7
370
    25
100
AcDbLine
 10
3566.4863322913
 20
1515.2600287644
 30
0.0
 11
3561.1832038335
 21
1518.3214596587
 31
0.0
  0
LINE
  5
1E8
330
1F
100
AcDbEntity
  8
0
  6
Continuous
 62
     7
370
    25
100
AcDbLine
 10
3559.7689902711
 20
1518.3214596587
 30
0.0
 11
3556.5871821569
 21
1516.4846409322
 31
0.0
  0
ARC
  5
1E9
330
1F
100
AcDbEntity
  8
0
  6
Continuous
 62
     7
370
    25
100
AcDbCircle
 10
3455.0652630247
 20
1572.9861679411
 30
0.0
 40
4.589343822892832
100
AcDbArc
 50
298.2644185434
 51
17.7383911431
  0
ARC
  5
1EA
330
1F
100
AcDbEntity
  8
0
  6
Continuous
 62
     7
370
    25
100
AcDbCircle
 10
3560.4760970523
 20
1516.9567485738
 30
0.0
 40
1.537021907913648
100
AcDbArc
 50
62.6096722366
 51
117.3903277634
  0
LWPOLYLINE
  5
1EB
330
1F
100
AcDbEntity
  8
0
  6
Continuous
 62
     7
370
    25
100
AcDbPolyline
 90
        3
 70
   128
 43
0.0
 10
3443.3733288443
 20
1540.8458937601
 10
3443.6641282685
 20
1540.8665139341
 10
3444.5105849377
 20
1541.1828109407
  0
LWPOLYLINE
  5
1EC
330
1F
100
AcDbEntity
  8
0
  6
Continuous
 62
     7
370
    25
100
AcDbPolyline
 90
        3
 70
   128
 43
0.0
 10
3450.8745459684
 20
1525.6691326651
 10
3450.1773424479
 20
1525.0943216224
 10
3450.0140585149
 20
1524.8528240784
  0
LINE
  5
1ED
330
1F
100
AcDbEntity
  8
0
  6
Continuous
 62
     7
370
    25
100
AcDbLine
 10
3444.5105849377
 20
1541.1828109407
 30
0.0
 11
3457.2385069991
 21
1548.5304839471
 31
0.0
  0
LINE
  5
1EE
330
1F
100
AcDbEntity
  8
0
  6
Continuous
 62
     7
370
    25
100
AcDbLine
 10
3463.6024680298
 20
1533.0168056715
 30
0.0
 11
3450.8745459684
 21
1525.6691326651
 31
0.0
  0
ARC
  5
1EF
330
1F
100
AcDbEntity
  8
0
  6
Continuous
 62
     7
370
    25
100
AcDbCircle
 10
3455.0652575105
 20
1552.5726517896
 30
0.0
 40
4.589350085404947
100
AcDbArc
 50
298.2644546681
 51
17.7382019347
  0
LWPOLYLINE
  5
1F0
330
1F
100
AcDbEntity
  8
0
  6
Continuous
 62
     7
370
    25
100
AcDbPolyline
 90
        3
 70
   128
 43
0.0
 10
3478.7286729082
 20
1581.6696167519
 10
3479.0194673278
 20
1581.6902370268
 10
3479.865923997
 20
1582.0065340334
  0
ARC
  5
1F1
330
1F
100
AcDbEntity
  8
0
  6
Continuous
 62
     7
370
    25
100
AcDbCircle
 10
3466.0164629827
 20
1529.112991535
 30
0.0
 40
4.5898950364741
100
AcDbArc
 50
42.2738244982
 51
121.7313331993
  0
LINE
  5
1F2
330
1F
100
AcDbEntity
  8
0
  6
Continuous
 62
     7
370
    25
100
AcDbLine
 10
3479.865923997
 20
1582.0065340334
 30
0.0
 11
3492.5938460584
 21
1589.3542070398
 31
0.0
  0
ARC
  5
1F3
330
1F
100
AcDbEntity
  8
0
  6
Continuous
 62
     7
370
    25
100
AcDbCircle
 10
3490.4205965699
 20
1593.3963748823
 30
0.0
 40
4.589350085393705
100
AcDbArc
 50
298.264454668
 51
17.7382019351
  0
LWPOLYLINE
  5
1F4
330
1F
100
AcDbEntity
  8
0
  6
Continuous
 62
     7
370
    25
100
AcDbPolyline
 90
        3
 70
   128
 43
0.0
 10
3478.7286490858
 20
1561.2560969352
 10
3479.0194673278
 20
1561.2767167296
 10
3479.865923997
 20
1561.5930137363
  0
LWPOLYLINE
  5
1F5
330
1F
100
AcDbEntity
  8
0
  6
Continuous
 62
     7
370
    25
100
AcDbPolyline
 90
        3
 70
   128
 43
0.0
 10
3486.2298850277
 20
1546.0793354607
 10
3485.5326815073
 20
1545.5045244179
 10
3485.3693975742
 20
1545.263026874
  0
LINE
  5
1F6
330
1F
100
AcDbEntity
  8
0
  6
Continuous
 62
     7
370
    25
100
AcDbLine
 10
3479.865923997
 20
1561.5930137363
 30
0.0
 11
3492.5938460584
 21
1568.9406867427
 31
0.0
  0
LINE
  5
1F7
330
1F
100
AcDbEntity
  8
0
  6
Continuous
 62
     7
370
    25
100
AcDbLine
 10
3498.9578070891
 20
1553.4270084671
 30
0.0
 11
3486.2298850277
 21
1546.0793354607
 31
0.0
  0
ARC
  5
1F8
330
1F
100
AcDbEntity
  8
0
  6
Continuous
 62
     7
370
    25
100
AcDbCircle
 10
3490.4206048409
 20
1572.9828483668
 30
0.0
 40
4.589340691791985
100
AcDbArc
 50
298.2644004819
 51
17.7384857425
  0
ARC
  5
1F9
330
1F
100
AcDbEntity
  8
0
  6
Continuous
 62
     7
370
    25
100
AcDbCircle
 10
3501.3718020421
 20
1549.5231943305
 30
0.0
 40
4.589895036498293
100
AcDbArc
 50
42.273824499
 51
121.7313331992
  0
ENDSEC
  0
SECTION
  2
OBJECTS
  0
DICTIONARY
  5
C
330
0
100
AcDbDictionary
281
     1
  3
ACAD_GROUP
350
D
  3
ACAD_LAYOUT
350
1A
  3
ACAD_MLINESTYLE
350
17
  3
ACAD_PLOTSETTINGS
350
19
  3
ACAD_PLOTSTYLENAME
350
E
  3
ACAD_SCALELIST
350
47
  0
DICTIONARY
  5
D
102
{ACAD_REACTORS
330
C
102
}
330
C
100
AcDbDictionary
281
     1
  0
DICTIONARY
  5
1A
102
{ACAD_REACTORS
330
C
102
}
330
C
100
AcDbDictionary
281
     1
  3
Layout1
350
1E
  3
Layout2
350
26
  3
Model
350
22
  0
DICTIONARY
  5
17
102
{ACAD_REACTORS
330
C
102
}
330
C
100
AcDbDictionary
281
     1
  3
Standard
350
18
  0
DICTIONARY
  5
19
102
{ACAD_REACTORS
330
C
102
}
330
C
100
AcDbDictionary
281
     1
  0
ACDBDICTIONARYWDFLT
  5
E
102
{ACAD_REACTORS
330
C
102
}
330
C
100
AcDbDictionary
281
     1
  3
Normal
350
F
100
AcDbDictionaryWithDefault
340
F
  0
DICTIONARY
  5
47
102
{ACAD_REACTORS
330
C
102
}
330
C
100
AcDbDictionary
281
     1
  3
A0
350
48
  3
A1
350
49
  3
A2
350
4A
  3
A3
350
4B
  3
A4
350
4C
  3
A5
350
4D
  3
A6
350
4E
  3
A7
350
4F
  3
A8
350
50
  3
A9
350
51
  3
B0
350
52
  3
B1
350
53
  3
B2
350
54
  3
B3
350
55
  3
B4
350
56
  3
B5
350
57
  3
B6
350
58
  3
B7
350
59
  3
B8
350
5A
  3
B9
350
5B
  3
C0
350
5C
  3
C1
350
5D
  3
C2
350
5E
  3
C3
350
5F
  3
C4
350
60
  3
C5
350
61
  3
C6
350
62
  3
C7
350
63
  3
C8
350
64
  3
C9
350
65
  3
D0
350
66
  3
D1
350
67
  3
D2
350
68
  0
LAYOUT
  5
1E
102
{ACAD_REACTORS
330
1A
102
}
330
1A
100
AcDbPlotSettings
  1

  2
none_device
  4

  6

 40
0.0
 41
0.0
 42
0.0
 43
0.0
 44
0.0
 45
0.0
 46
0.0
 47
0.0
 48
0.0
 49
0.0
140
0.0
141
0.0
142
1.0
143
1.0
 70
   688
 72
     1
 73
     0
 74
     5
  7

 75
    16
147
1.0
148
0.0
149
0.0
100
AcDbLayout
  1
Layout1
 70
     1
 71
     1
 10
0.0
 20
0.0
 11
420.0
 21
297.0
 12
0.0
 22
0.0
 32
0.0
 14
1.0000000000E+20
 24
1.0000000000E+20
 34
1.0000000000E+20
 15
-1.0000000000E+20
 25
-1.0000000000E+20
 35
-1.0000000000E+20
146
0.0
 13
0.0
 23
0.0
 33
0.0
 16
1.0
 26
0.0
 36
0.0
 17
0.0
 27
1.0
 37
0.0
 76
     0
330
1B
  0
LAYOUT
  5
26
102
{ACAD_REACTORS
330
1A
102
}
330
1A
100
AcDbPlotSettings
  1

  2
none_device
  4

  6

 40
0.0
 41
0.0
 42
0.0
 43
0.0
 44
0.0
 45
0.0
 46
0.0
 47
0.0
 48
0.0
 49
0.0
140
0.0
141
0.0
142
1.0
143
1.0
 70
   688
 72
     1
 73
     0
 74
     5
  7

 75
    16
147
1.0
148
0.0
149
0.0
100
AcDbLayout
  1
Layout2
 70
     1
 71
     2
 10
0.0
 20
0.0
 11
0.0
 21
0.0
 12
0.0
 22
0.0
 32
0.0
 14
0.0
 24
0.0
 34
0.0
 15
0.0
 25
0.0
 35
0.0
146
0.0
 13
0.0
 23
0.0
 33
0.0
 16
1.0
 26
0.0
 36
0.0
 17
0.0
 27
1.0
 37
0.0
 76
     0
330
23
  0
LAYOUT
  5
22
102
{ACAD_REACTORS
330
1A
102
}
330
1A
100
AcDbPlotSettings
  1

  2
none_device
  4
Letter_(8.50_x_11.00_Inches)
  6

 40
6.35
 41
6.35
 42
6.35000508
 43
6.35000508
 44
215.9
 45
279.4
 46
0.0
 47
0.0
 48
0.0
 49
0.0
140
0.0
141
0.0
142
1.0
143
1.0
 70
  1712
 72
     1
 73
     0
 74
     0
  7

 75
     0
147
1.0
148
0.0
149
0.0
100
AcDbLayout
  1
Model
 70
     1
 71
     0
 10
0.0
 20
0.0
 11
4000.0
 21
3300.0
 12
0.0
 22
0.0
 32
0.0
 14
0.0
 24
0.0
 34
0.0
 15
4000.0
 25
3300.0
 35
0.0
146
0.0
 13
0.0
 23
0.0
 33
0.0
 16
1.0
 26
0.0
 36
0.0
 17
0.0
 27
1.0
 37
0.0
 76
     0
330
1F
331
29
  0
MLINESTYLE
  5
18
102
{ACAD_REACTORS
330
17
102
}
330
17
100
AcDbMlineStyle
  2
Standard
 70
     0
  3

 62
   256
 51
90.0
 52
90.0
 71
     2
 49
0.5
 62
   256
  6
BYLAYER
 49
-0.5
 62
   256
  6
BYLAYER
  0
ACDBPLACEHOLDER
  5
F
102
{ACAD_REACTORS
330
E
102
}
330
E
  0
SCALE
  5
48
102
{ACAD_REACTORS
330
47
102
}
330
47
100
AcDbScale
 70
     0
300
1:1
140
1.0
141
1.0
290
     1
  0
SCALE
  5
49
102
{ACAD_REACTORS
330
47
102
}
330
47
100
AcDbScale
 70
     0
300
1:2
140
1.0
141
2.0
290
     0
  0
SCALE
  5
4A
102
{ACAD_REACTORS
330
47
102
}
330
47
100
AcDbScale
 70
     0
300
1:4
140
1.0
141
4.0
290
     0
  0
SCALE
  5
4B
102
{ACAD_REACTORS
330
47
102
}
330
47
100
AcDbScale
 70
     0
300
1:5
140
1.0
141
5.0
290
     0
  0
SCALE
  5
4C
102
{ACAD_REACTORS
330
47
102
}
330
47
100
AcDbScale
 70
     0
300
1:8
140
1.0
141
8.0
290
     0
  0
SCALE
  5
4D
102
{ACAD_REACTORS
330
47
102
}
330
47
100
AcDbScale
 70
     0
300
1:10
140
1.0
141
10.0
290
     0
  0
SCALE
  5
4E
102
{ACAD_REACTORS
330
47
102
}
330
47
100
AcDbScale
 70
     0
300
1:16
140
1.0
141
16.0
290
     0
  0
SCALE
  5
4F
102
{ACAD_REACTORS
330
47
102
}
330
47
100
AcDbScale
 70
     0
300
1:20
140
1.0
141
20.0
290
     0
  0
SCALE
  5
50
102
{ACAD_REACTORS
330
47
102
}
330
47
100
AcDbScale
 70
     0
300
1:30
140
1.0
141
30.0
290
     0
  0
SCALE
  5
51
102
{ACAD_REACTORS
330
47
102
}
330
47
100
AcDbScale
 70
     0
300
1:40
140
1.0
141
40.0
290
     0
  0
SCALE
  5
52
102
{ACAD_REACTORS
330
47
102
}
330
47
100
AcDbScale
 70
     0
300
1:50
140
1.0
141
50.0
290
     0
  0
SCALE
  5
53
102
{ACAD_REACTORS
330
47
102
}
330
47
100
AcDbScale
 70
     0
300
1:100
140
1.0
141
100.0
290
     0
  0
SCALE
  5
54
102
{ACAD_REACTORS
330
47
102
}
330
47
100
AcDbScale
 70
     0
300
2:1
140
2.0
141
1.0
290
     0
  0
SCALE
  5
55
102
{ACAD_REACTORS
330
47
102
}
330
47
100
AcDbScale
 70
     0
300
4:1
140
4.0
141
1.0
290
     0
  0
SCALE
  5
56
102
{ACAD_REACTORS
330
47
102
}
330
47
100
AcDbScale
 70
     0
300
8:1
140
8.0
141
1.0
290
     0
  0
SCALE
  5
57
102
{ACAD_REACTORS
330
47
102
}
330
47
100
AcDbScale
 70
     0
300
10:1
140
10.0
141
1.0
290
     0
  0
SCALE
  5
58
102
{ACAD_REACTORS
330
47
102
}
330
47
100
AcDbScale
 70
     0
300
100:1
140
100.0
141
1.0
290
     0
  0
SCALE
  5
59
102
{ACAD_REACTORS
330
47
102
}
330
47
100
AcDbScale
 70
     0
300
1/128" = 1'-0"
140
0.0078125
141
12.0
290
     0
  0
SCALE
  5
5A
102
{ACAD_REACTORS
330
47
102
}
330
47
100
AcDbScale
 70
     0
300
1/64" = 1'-0"
140
0.015625
141
12.0
290
     0
  0
SCALE
  5
5B
102
{ACAD_REACTORS
330
47
102
}
330
47
100
AcDbScale
 70
     0
300
1/32" = 1'-0"
140
0.03125
141
12.0
290
     0
  0
SCALE
  5
5C
102
{ACAD_REACTORS
330
47
102
}
330
47
100
AcDbScale
 70
     0
300
1/16" = 1'-0"
140
0.0625
141
12.0
290
     0
  0
SCALE
  5
5D
102
{ACAD_REACTORS
330
47
102
}
330
47
100
AcDbScale
 70
     0
300
3/32" = 1'-0"
140
0.09375
141
12.0
290
     0
  0
SCALE
  5
5E
102
{ACAD_REACTORS
330
47
102
}
330
47
100
AcDbScale
 70
     0
300
1/8" = 1'-0"
140
0.125
141
12.0
290
     0
  0
SCALE
  5
5F
102
{ACAD_REACTORS
330
47
102
}
330
47
100
AcDbScale
 70
     0
300
3/16" = 1'-0"
140
0.1875
141
12.0
290
     0
  0
SCALE
  5
60
102
{ACAD_REACTORS
330
47
102
}
330
47
100
AcDbScale
 70
     0
300
1/4" = 1'-0"
140
0.25
141
12.0
290
     0
  0
SCALE
  5
61
102
{ACAD_REACTORS
330
47
102
}
330
47
100
AcDbScale
 70
     0
300
3/8" = 1'-0"
140
0.375
141
12.0
290
     0
  0
SCALE
  5
62
102
{ACAD_REACTORS
330
47
102
}
330
47
100
AcDbScale
 70
     0
300
1/2" = 1'-0"
140
0.5
141
12.0
290
     0
  0
SCALE
  5
63
102
{ACAD_REACTORS
330
47
102
}
330
47
100
AcDbScale
 70
     0
300
3/4" = 1'-0"
140
0.75
141
12.0
290
     0
  0
SCALE
  5
64
102
{ACAD_REACTORS
330
47
102
}
330
47
100
AcDbScale
 70
     0
300
1" = 1'-0"
140
1.0
141
12.0
290
     0
  0
SCALE
  5
65
102
{ACAD_REACTORS
330
47
102
}
330
47
100
AcDbScale
 70
     0
300
1-1/2" = 1'-0"
140
1.5
141
12.0
290
     0
  0
SCALE
  5
66
102
{ACAD_REACTORS
330
47
102
}
330
47
100
AcDbScale
 70
     0
300
3" = 1'-0"
140
3.0
141
12.0
290
     0
  0
SCALE
  5
67
102
{ACAD_REACTORS
330
47
102
}
330
47
100
AcDbScale
 70
     0
300
6" = 1'-0"
140
6.0
141
12.0
290
     0
  0
SCALE
  5
68
102
{ACAD_REACTORS
330
47
102
}
330
47
100
AcDbScale
 70
     0
300
1'-0" = 1'-0"
140
12.0
141
12.0
290
     0
  0
ENDSEC
  0
EOF
