  0
SECTION
  2
HEADER
  9
$ACADVER
  1
AC1015
  9
$ACADMAINTVER
 70
     6
  9
$DWGCODEPAGE
  3
ANSI_1251
  9
$INSBASE
 10
0.0
 20
0.0
 30
0.0
  9
$EXTMIN
 10
0.0
 20
0.0
 30
0.0
  9
$EXTMAX
 10
3000.0
 20
2000.0
 30
0.0
  9
$LIMMIN
 10
0.0
 20
0.0
  9
$LIMMAX
 10
3000.0
 20
2000.0
  9
$ORTHOMODE
 70
     0
  9
$REGENMODE
 70
     1
  9
$FILLMODE
 70
     1
  9
$QTEXTMODE
 70
     0
  9
$MIRRTEXT
 70
     1
  9
$LTSCALE
 40
1.0
  9
$ATTMODE
 70
     1
  9
$TEXTSIZE
 40
3.5
  9
$TRACEWID
 40
1.0
  9
$TEXTSTYLE
  7
Standard
  9
$CLAYER
  8
0
  9
$CELTYPE
  6
ByLayer
  9
$CECOLOR
 62
   256
  9
$CELTSCALE
 40
1.0
  9
$DISPSILH
 70
     0
  9
$DIMSCALE
 40
1.0
  9
$DIMASZ
 40
3.302
  9
$DIMEXO
 40
0.0
  9
$DIMDLI
 40
3.75
  9
$DIMRND
 40
0.0
  9
$DIMDLE
 40
0.0
  9
$DIMEXE
 40
1.0
  9
$DIMTP
 40
0.0
  9
$DIMTM
 40
0.0
  9
$DIMTXT
 40
3.5
  9
$DIMCEN
 40
2.5
  9
$DIMTSZ
 40
0.0
  9
$DIMTOL
 70
     0
  9
$DIMLIM
 70
     0
  9
$DIMTIH
 70
     1
  9
$DIMTOH
 70
     1
  9
$DIMSE1
 70
     0
  9
$DIMSE2
 70
     0
  9
$DIMTAD
 70
     1
  9
$DIMZIN
 70
     0
  9
$DIMBLK
  1

  9
$DIMASO
 70
     1
  9
$DIMSHO
 70
     1
  9
$DIMPOST
  1

  9
$DIMAPOST
  1

  9
$DIMALT
 70
     0
  9
$DIMALTD
 70
     3
  9
$DIMALTF
 40
0.0393700787
  9
$DIMLFAC
 40
1.0
  9
$DIMTOFL
 70
     1
  9
$DIMTVP
 40
0.0
  9
$DIMTIX
 70
     0
  9
$DIMSOXD
 70
     0
  9
$DIMSAH
 70
     0
  9
$DIMBLK1
  1

  9
$DIMBLK2
  1

  9
$DIMSTYLE
  2
ISO-25
  9
$DIMCLRD
 70
     0
  9
$DIMCLRE
 70
     0
  9
$DIMCLRT
 70
     0
  9
$DIMTFAC
 40
1.0
  9
$DIMGAP
 40
1.524
  9
$DIMJUST
 70
     0
  9
$DIMSD1
 70
     0
  9
$DIMSD2
 70
     0
  9
$DIMTOLJ
 70
     0
  9
$DIMTZIN
 70
     0
  9
$DIMALTZ
 70
     0
  9
$DIMALTTZ
 70
     0
  9
$DIMUPT
 70
     0
  9
$DIMDEC
 70
     2
  9
$DIMTDEC
 70
     2
  9
$DIMALTU
 70
     2
  9
$DIMALTTD
 70
     3
  9
$DIMTXSTY
  7
Standard
  9
$DIMAUNIT
 70
     0
  9
$DIMADEC
 70
     2
  9
$DIMALTRND
 40
0.0
  9
$DIMAZIN
 70
     0
  9
$DIMDSEP
 70
    44
  9
$DIMATFIT
 70
     3
  9
$DIMFRAC
 70
     0
  9
$DIMLDRBLK
  1

  9
$DIMLUNIT
 70
     2
  9
$DIMLWD
 70
    -2
  9
$DIMLWE
 70
    -2
  9
$DIMTMOVE
 70
     0
  9
$LUNITS
 70
     2
  9
$LUPREC
 70
     1
  9
$SKETCHINC
 40
1.0
  9
$FILLETRAD
 40
10.0
  9
$AUNITS
 70
     1
  9
$AUPREC
 70
     2
  9
$MENU
  1
.
  9
$ELEVATION
 40
0.0
  9
$PELEVATION
 40
0.0
  9
$THICKNESS
 40
0.0
  9
$LIMCHECK
 70
     0
  9
$CHAMFERA
 40
0.0
  9
$CHAMFERB
 40
0.0
  9
$CHAMFERC
 40
0.0
  9
$CHAMFERD
 40
0.0
  9
$SKPOLY
 70
     0
  9
$TDCREATE
 40
2459491.582842558
  9
$TDUCREATE
 40
2459491.457842558
  9
$TDUPDATE
 40
2459491.582844178
  9
$TDUUPDATE
 40
2459491.457844178
  9
$TDINDWG
 40
0.0000000116
  9
$TDUSRTIMER
 40
0.0000000116
  9
$USRTIMER
 70
     1
  9
$ANGBASE
 50
0.0
  9
$ANGDIR
 70
     0
  9
$PDMODE
 70
     0
  9
$PDSIZE
 40
-1.0
  9
$PLINEWID
 40
0.0
  9
$SPLFRAME
 70
     0
  9
$SPLINETYPE
 70
     6
  9
$SPLINESEGS
 70
     8
  9
$HANDSEED
  5
238
  9
$SURFTAB1
 70
     6
  9
$SURFTAB2
 70
     6
  9
$SURFTYPE
 70
     6
  9
$SURFU
 70
     6
  9
$SURFV
 70
     6
  9
$UCSBASE
  2

  9
$UCSNAME
  2

  9
$UCSORG
 10
0.0
 20
0.0
 30
0.0
  9
$UCSXDIR
 10
1.0
 20
0.0
 30
0.0
  9
$UCSYDIR
 10
0.0
 20
1.0
 30
0.0
  9
$UCSORTHOREF
  2

  9
$UCSORTHOVIEW
 70
     0
  9
$UCSORGTOP
 10
0.0
 20
0.0
 30
0.0
  9
$UCSORGBOTTOM
 10
0.0
 20
0.0
 30
0.0
  9
$UCSORGLEFT
 10
0.0
 20
0.0
 30
0.0
  9
$UCSORGRIGHT
 10
0.0
 20
0.0
 30
0.0
  9
$UCSORGFRONT
 10
0.0
 20
0.0
 30
0.0
  9
$UCSORGBACK
 10
0.0
 20
0.0
 30
0.0
  9
$PUCSBASE
  2

  9
$PUCSNAME
  2

  9
$PUCSORG
 10
0.0
 20
0.0
 30
0.0
  9
$PUCSXDIR
 10
1.0
 20
0.0
 30
0.0
  9
$PUCSYDIR
 10
0.0
 20
1.0
 30
0.0
  9
$PUCSORTHOREF
  2

  9
$PUCSORTHOVIEW
 70
     0
  9
$PUCSORGTOP
 10
0.0
 20
0.0
 30
0.0
  9
$PUCSORGBOTTOM
 10
0.0
 20
0.0
 30
0.0
  9
$PUCSORGLEFT
 10
0.0
 20
0.0
 30
0.0
  9
$PUCSORGRIGHT
 10
0.0
 20
0.0
 30
0.0
  9
$PUCSORGFRONT
 10
0.0
 20
0.0
 30
0.0
  9
$PUCSORGBACK
 10
0.0
 20
0.0
 30
0.0
  9
$USERI1
 70
     0
  9
$USERI2
 70
     0
  9
$USERI3
 70
     0
  9
$USERI4
 70
     0
  9
$USERI5
 70
     0
  9
$USERR1
 40
0.0
  9
$USERR2
 40
0.0
  9
$USERR3
 40
0.0
  9
$USERR4
 40
0.0
  9
$USERR5
 40
0.0
  9
$WORLDVIEW
 70
     1
  9
$SHADEDGE
 70
     3
  9
$SHADEDIF
 70
    70
  9
$TILEMODE
 70
     1
  9
$MAXACTVP
 70
    64
  9
$PINSBASE
 10
0.0
 20
0.0
 30
0.0
  9
$PLIMCHECK
 70
     0
  9
$PEXTMIN
 10
1.0000000000E+20
 20
1.0000000000E+20
 30
1.0000000000E+20
  9
$PEXTMAX
 10
-1.0000000000E+20
 20
-1.0000000000E+20
 30
-1.0000000000E+20
  9
$PLIMMIN
 10
0.0
 20
0.0
  9
$PLIMMAX
 10
420.0
 20
297.0
  9
$UNITMODE
 70
     0
  9
$VISRETAIN
 70
     1
  9
$PLINEGEN
 70
     0
  9
$PSLTSCALE
 70
     1
  9
$TREEDEPTH
 70
  3020
  9
$CMLSTYLE
  2
Standard
  9
$CMLJUST
 70
     0
  9
$CMLSCALE
 40
20.0
  9
$PROXYGRAPHICS
 70
     1
  9
$MEASUREMENT
 70
     1
  9
$CELWEIGHT
370
    -1
  9
$ENDCAPS
280
     0
  9
$JOINSTYLE
280
     0
  9
$LWDISPLAY
290
     1
  9
$INSUNITS
 70
     4
  9
$HYPERLINKBASE
  1

  9
$STYLESHEET
  1

  9
$XEDIT
290
     1
  9
$CEPSNTYPE
380
     0
  9
$PSTYLEMODE
290
     1
  9
$FINGERPRINTGUID
  2
{BEAA4B6C-E4CA-49DF-88B0-4D910BED5036}
  9
$VERSIONGUID
  2
{FAEB1C32-E019-11D5-929B-00C0DF256EC4}
  9
$EXTNAMES
290
     1
  9
$PSVPSCALE
 40
0.0
  9
$OLESTARTUP
290
     0
  0
ENDSEC
  0
SECTION
  2
CLASSES
  0
CLASS
  1
ACDBDICTIONARYWDFLT
  2
AcDbDictionaryWithDefault
  3
ObjectDBX Classes
 90
        0
280
     0
281
     0
  0
CLASS
  1
VISUALSTYLE
  2
AcDbVisualStyle
  3
ObjectDBX Classes
 90
     4095
280
     0
281
     0
  0
CLASS
  1
MATERIAL
  2
AcDbMaterial
  3
ObjectDBX Classes
 90
     1153
280
     0
281
     0
  0
CLASS
  1
SCALE
  2
AcDbScale
  3
ObjectDBX Classes
 90
     1153
280
     0
281
     0
  0
CLASS
  1
TABLESTYLE
  2
AcDbTableStyle
  3
ObjectDBX Classes
 90
     4095
280
     0
281
     0
  0
CLASS
  1
MLEADERSTYLE
  2
AcDbMLeaderStyle
  3
ACDB_MLEADERSTYLE_CLASS
 90
     4095
280
     0
281
     0
  0
CLASS
  1
SUN
  2
AcDbSun
  3
SCENEOE
 90
     1153
280
     0
281
     0
  0
CLASS
  1
ACDBPLACEHOLDER
  2
AcDbPlaceHolder
  3
ObjectDBX Classes
 90
        0
280
     0
281
     0
  0
CLASS
  1
LAYOUT
  2
AcDbLayout
  3
ObjectDBX Classes
 90
        0
280
     0
281
     0
  0
ENDSEC
  0
SECTION
  2
TABLES
  0
TABLE
  2
VPORT
  5
8
330
0
100
AcDbSymbolTable
 70
     1
  0
VPORT
  5
29
330
8
100
AcDbSymbolTableRecord
100
AcDbViewportTableRecord
  2
*Active
 70
     0
 10
0.0
 20
0.0
 11
1.0
 21
1.0
 12
1500.0
 22
1000.0
 13
0.0
 23
0.0
 14
10.0
 24
10.0
 15
10.0
 25
10.0
 16
0.0
 26
0.0
 36
1.0
 17
0.0
 27
0.0
 37
0.0
 40
2000.0
 41
1.5
 42
50.0
 43
0.0
 44
0.0
 50
0.0
 51
0.0
 71
     0
 72
  2000
 73
     1
 74
     3
 75
     0
 76
     0
 77
     0
 78
     0
281
     0
 65
     1
110
0.0
120
0.0
130
0.0
111
1.0
121
0.0
131
0.0
112
0.0
122
1.0
132
0.0
 79
     0
146
0.0
  0
ENDTAB
  0
TABLE
  2
LTYPE
  5
5
330
0
100
AcDbSymbolTable
 70
     6
  0
LTYPE
  5
14
330
5
100
AcDbSymbolTableRecord
100
AcDbLinetypeTableRecord
  2
ByBlock
 70
     0
  3

 72
    65
 73
     0
 40
0.0
  0
LTYPE
  5
15
330
5
100
AcDbSymbolTableRecord
100
AcDbLinetypeTableRecord
  2
ByLayer
 70
     0
  3

 72
    65
 73
     0
 40
0.0
  0
LTYPE
  5
16
330
5
100
AcDbSymbolTableRecord
100
AcDbLinetypeTableRecord
  2
Continuous
 70
     0
  3
Solid line
 72
    65
 73
     0
 40
0.0
  0
LTYPE
  5
6E
330
5
100
AcDbSymbolTableRecord
100
AcDbLinetypeTableRecord
  2
HIDDEN
 70
     0
  3
Hidden __ __ __ __ __ __ __ __ __ __ __ __ __ __
 72
    65
 73
     2
 40
1.905
 49
1.27
 74
     0
 49
-0.635
 74
     0
  0
LTYPE
  5
6F
330
5
100
AcDbSymbolTableRecord
100
AcDbLinetypeTableRecord
  2
PHANTOM
 70
     0
  3
Phantom ______  __  __  ______  __  __  ______
 72
    65
 73
     6
 40
12.7
 49
6.35
 74
     0
 49
-1.27
 74
     0
 49
1.27
 74
     0
 49
-1.27
 74
     0
 49
1.27
 74
     0
 49
-1.27
 74
     0
  0
LTYPE
  5
70
330
5
100
AcDbSymbolTableRecord
100
AcDbLinetypeTableRecord
  2
CENTER
 70
     0
  3
Center ____ _ ____ _ ____ _ ____ _ ____ _ ____
 72
    65
 73
     4
 40
10.16
 49
6.35
 74
     0
 49
-1.27
 74
     0
 49
1.27
 74
     0
 49
-1.27
 74
     0
  0
LTYPE
  5
71
330
5
100
AcDbSymbolTableRecord
100
AcDbLinetypeTableRecord
  2
CENTERX2
 70
     0
  3
Center (2x) ________  __  ________  __  _____
 72
    65
 73
     4
 40
20.32
 49
12.7
 74
     0
 49
-2.54
 74
     0
 49
2.54
 74
     0
 49
-2.54
 74
     0
  0
LTYPE
  5
72
330
5
100
AcDbSymbolTableRecord
100
AcDbLinetypeTableRecord
  2
DOT2
 70
     0
  3
Dot (.5x) ........................................
 72
    65
 73
     2
 40
0.635
 49
0.0
 74
     0
 49
-0.635
 74
     0
  0
ENDTAB
  0
TABLE
  2
LAYER
  5
2
330
0
100
AcDbSymbolTable
 70
     8
  0
LAYER
  5
10
330
2
100
AcDbSymbolTableRecord
100
AcDbLayerTableRecord
  2
0
 70
     0
 62
     7
  6
Continuous
370
    -3
390
F
  0
LAYER
  5
73
330
2
100
AcDbSymbolTableRecord
100
AcDbLayerTableRecord
  2
SLD-0
 70
     0
 62
     7
  6
Continuous
370
    25
390
F
  0
LAYER
  5
74
330
2
100
AcDbSymbolTableRecord
100
AcDbLayerTableRecord
  2
OSNOVA
 70
     0
 62
     5
  6
Continuous
370
    -3
390
F
  0
LAYER
  5
75
330
2
100
AcDbSymbolTableRecord
100
AcDbLayerTableRecord
  2
THIN_LINE
 70
     0
 62
     7
  6
Continuous
370
    25
390
F
  0
LAYER
  5
76
330
2
100
AcDbSymbolTableRecord
100
AcDbLayerTableRecord
  2
THICK_LINE
 70
     0
 62
     7
  6
Continuous
370
    25
390
F
  0
LAYER
  5
77
330
2
100
AcDbSymbolTableRecord
100
AcDbLayerTableRecord
  2
THIN_LIONE
 70
     0
 62
     7
  6
Continuous
370
    -3
390
F
  0
LAYER
  5
78
330
2
100
AcDbSymbolTableRecord
100
AcDbLayerTableRecord
  2
THICK_LIONE
 70
     0
 62
     7
  6
Continuous
370
    25
390
F
  0
LAYER
  5
79
330
2
100
AcDbSymbolTableRecord
100
AcDbLayerTableRecord
  2
ИЗМЕН_РАЗМЕР
 70
     0
 62
     1
  6
Continuous
370
    -3
390
F
  0
ENDTAB
  0
TABLE
  2
STYLE
  5
3
330
0
100
AcDbSymbolTable
 70
     1
  0
STYLE
  5
11
330
3
100
AcDbSymbolTableRecord
100
AcDbTextStyleTableRecord
  2
Standard
 70
     0
 40
0.0
 41
1.0
 50
0.0
 71
     0
 42
3.5
  3
txt
  4

  0
ENDTAB
  0
TABLE
  2
VIEW
  5
6
330
0
100
AcDbSymbolTable
 70
     0
  0
ENDTAB
  0
TABLE
  2
UCS
  5
7
330
0
100
AcDbSymbolTable
 70
     0
  0
ENDTAB
  0
TABLE
  2
APPID
  5
9
330
0
100
AcDbSymbolTable
 70
     1
  0
APPID
  5
12
330
9
100
AcDbSymbolTableRecord
100
AcDbRegAppTableRecord
  2
ACAD
 70
     0
  0
ENDTAB
  0
TABLE
  2
DIMSTYLE
  5
A
330
0
100
AcDbSymbolTable
 70
     1
100
AcDbDimStyleTable
  0
DIMSTYLE
105
27
330
A
100
AcDbSymbolTableRecord
100
AcDbDimStyleTableRecord
  2
ISO-25
 70
     0
 41
2.5
 42
0.625
 43
3.75
 44
1.25
 73
     0
 74
     0
 77
     1
 78
     8
140
2.5
141
2.5
143
0.0393700787
147
0.625
171
     3
172
     1
178
     0
271
     2
272
     2
274
     3
278
    44
283
     0
284
     8
340
11
  0
ENDTAB
  0
TABLE
  2
BLOCK_RECORD
  5
1
330
0
100
AcDbSymbolTable
 70
     1
  0
BLOCK_RECORD
  5
1F
330
1
100
AcDbSymbolTableRecord
100
AcDbBlockTableRecord
  2
*Model_Space
340
22
  0
BLOCK_RECORD
  5
1B
330
1
100
AcDbSymbolTableRecord
100
AcDbBlockTableRecord
  2
*Paper_Space
340
1E
  0
BLOCK_RECORD
  5
23
330
1
100
AcDbSymbolTableRecord
100
AcDbBlockTableRecord
  2
*Paper_Space0
340
26
  0
ENDTAB
  0
ENDSEC
  0
SECTION
  2
BLOCKS
  0
BLOCK
  5
20
330
1F
100
AcDbEntity
  8
0
100
AcDbBlockBegin
  2
*Model_Space
 70
     0
 10
0.0
 20
0.0
 30
0.0
  3
*Model_Space
  1

  0
ENDBLK
  5
21
330
1F
100
AcDbEntity
  8
0
100
AcDbBlockEnd
  0
BLOCK
  5
1C
330
1B
100
AcDbEntity
 67
     1
  8
0
100
AcDbBlockBegin
  2
*Paper_Space
 70
     0
 10
0.0
 20
0.0
 30
0.0
  3
*Paper_Space
  1

  0
ENDBLK
  5
1D
330
1B
100
AcDbEntity
 67
     1
  8
0
100
AcDbBlockEnd
  0
BLOCK
  5
24
330
23
100
AcDbEntity
  8
0
100
AcDbBlockBegin
  2
*Paper_Space0
 70
     0
 10
0.0
 20
0.0
 30
0.0
  3
*Paper_Space0
  1

  0
ENDBLK
  5
25
330
23
100
AcDbEntity
  8
0
100
AcDbBlockEnd
  0
ENDSEC
  0
SECTION
  2
ENTITIES
  0
LINE
  5
7A
330
1F
100
AcDbEntity
  8
0
  6
Continuous
 62
     7
370
    25
100
AcDbLine
 10
95.4774483545
 20
1280.2206712786
 30
0.0
 11
95.4774483545
 21
1281.386440424
 31
0.0
  0
LINE
  5
7B
330
1F
100
AcDbEntity
  8
0
  6
Continuous
 62
     7
370
    25
100
AcDbLine
 10
2095.4774483545
 20
1281.386440424
 30
0.0
 11
95.4774483545
 21
1281.386440424
 31
0.0
  0
LINE
  5
7C
330
1F
100
AcDbEntity
  8
0
  6
Continuous
 62
     7
370
    25
100
AcDbLine
 10
2095.4774483545
 20
1280.2206712786
 30
0.0
 11
2095.4774483545
 21
1281.386440424
 31
0.0
  0
LINE
  5
7D
330
1F
100
AcDbEntity
  8
0
  6
Continuous
 62
     7
370
    25
100
AcDbLine
 10
2095.4774483545
 20
1280.2206712786
 30
0.0
 11
2095.4774483545
 21
1197.7206712786
 31
0.0
  0
LINE
  5
7E
330
1F
100
AcDbEntity
  8
0
  6
Continuous
 62
     7
370
    25
100
AcDbLine
 10
2095.4774483545
 20
1195.2206712786
 30
0.0
 11
2095.4774483545
 21
1197.7206712786
 31
0.0
  0
LINE
  5
7F
330
1F
100
AcDbEntity
  8
0
  6
Continuous
 62
     7
370
    25
100
AcDbLine
 10
2095.4774483545
 20
1195.2206712786
 30
0.0
 11
95.4774483545
 21
1195.2206712786
 31
0.0
  0
LINE
  5
80
330
1F
100
AcDbEntity
  8
0
  6
Continuous
 62
     7
370
    25
100
AcDbLine
 10
95.4774483545
 20
1195.2206712786
 30
0.0
 11
95.4774483545
 21
1197.7206712786
 31
0.0
  0
LINE
  5
81
330
1F
100
AcDbEntity
  8
0
  6
Continuous
 62
     7
370
    25
100
AcDbLine
 10
95.4774483545
 20
1280.2206712786
 30
0.0
 11
95.4774483545
 21
1197.7206712786
 31
0.0
  0
ARC
  5
82
330
1F
100
AcDbEntity
  8
0
  6
Continuous
 62
     7
370
    25
100
AcDbCircle
 10
179.4774483545
 20
1213.2206712786
 30
0.0
 40
3.5
100
AcDbArc
 50
270.0
 51
90.0
  0
LINE
  5
83
330
1F
100
AcDbEntity
  8
0
  6
Continuous
 62
     7
370
    25
100
AcDbLine
 10
179.4774483545
 20
1216.7206712786
 30
0.0
 11
161.4774483545
 21
1216.7206712786
 31
0.0
  0
ARC
  5
84
330
1F
100
AcDbEntity
  8
0
  6
Continuous
 62
     7
370
    25
100
AcDbCircle
 10
161.4774483545
 20
1213.2206712786
 30
0.0
 40
3.5
100
AcDbArc
 50
90.0
 51
270.0
  0
LINE
  5
85
330
1F
100
AcDbEntity
  8
0
  6
Continuous
 62
     7
370
    25
100
AcDbLine
 10
161.4774483545
 20
1209.7206712786
 30
0.0
 11
179.4774483545
 21
1209.7206712786
 31
0.0
  0
ARC
  5
86
330
1F
100
AcDbEntity
  8
0
  6
Continuous
 62
     7
370
    25
100
AcDbCircle
 10
129.4774483545
 20
1213.2206712786
 30
0.0
 40
3.500000000000227
100
AcDbArc
 50
270.0
 51
90.0
  0
LINE
  5
87
330
1F
100
AcDbEntity
  8
0
  6
Continuous
 62
     7
370
    25
100
AcDbLine
 10
129.4774483545
 20
1216.7206712786
 30
0.0
 11
111.4774483545
 21
1216.7206712786
 31
0.0
  0
ARC
  5
88
330
1F
100
AcDbEntity
  8
0
  6
Continuous
 62
     7
370
    25
100
AcDbCircle
 10
111.4774483545
 20
1213.2206712786
 30
0.0
 40
3.500000000000227
100
AcDbArc
 50
90.0
 51
270.0
  0
LINE
  5
89
330
1F
100
AcDbEntity
  8
0
  6
Continuous
 62
     7
370
    25
100
AcDbLine
 10
111.4774483545
 20
1209.7206712786
 30
0.0
 11
129.4774483545
 21
1209.7206712786
 31
0.0
  0
ARC
  5
8A
330
1F
100
AcDbEntity
  8
0
  6
Continuous
 62
     7
370
    25
100
AcDbCircle
 10
2061.4774483545
 20
1213.2206712786
 30
0.0
 40
3.500000000000227
100
AcDbArc
 50
90.0
 51
270.0
  0
LINE
  5
8B
330
1F
100
AcDbEntity
  8
0
  6
Continuous
 62
     7
370
    25
100
AcDbLine
 10
2061.4774483545
 20
1209.7206712786
 30
0.0
 11
2079.4774483545
 21
1209.7206712786
 31
0.0
  0
ARC
  5
8C
330
1F
100
AcDbEntity
  8
0
  6
Continuous
 62
     7
370
    25
100
AcDbCircle
 10
2079.4774483545
 20
1213.2206712786
 30
0.0
 40
3.500000000000227
100
AcDbArc
 50
270.0
 51
90.0
  0
LINE
  5
8D
330
1F
100
AcDbEntity
  8
0
  6
Continuous
 62
     7
370
    25
100
AcDbLine
 10
2079.4774483545
 20
1216.7206712786
 30
0.0
 11
2061.4774483545
 21
1216.7206712786
 31
0.0
  0
ARC
  5
8E
330
1F
100
AcDbEntity
  8
0
  6
Continuous
 62
     7
370
    25
100
AcDbCircle
 10
2011.4774483545
 20
1213.2206712786
 30
0.0
 40
3.5
100
AcDbArc
 50
90.0
 51
270.0
  0
LINE
  5
8F
330
1F
100
AcDbEntity
  8
0
  6
Continuous
 62
     7
370
    25
100
AcDbLine
 10
2011.4774483545
 20
1209.7206712786
 30
0.0
 11
2029.4774483545
 21
1209.7206712786
 31
0.0
  0
ARC
  5
90
330
1F
100
AcDbEntity
  8
0
  6
Continuous
 62
     7
370
    25
100
AcDbCircle
 10
2029.4774483545
 20
1213.2206712786
 30
0.0
 40
3.5
100
AcDbArc
 50
270.0
 51
90.0
  0
LINE
  5
91
330
1F
100
AcDbEntity
  8
0
  6
Continuous
 62
     7
370
    25
100
AcDbLine
 10
2029.4774483545
 20
1216.7206712786
 30
0.0
 11
2011.4774483545
 21
1216.7206712786
 31
0.0
  0
LINE
  5
92
330
1F
100
AcDbEntity
  8
0
  6
Continuous
 62
     7
370
    25
100
AcDbLine
 10
2079.4774483545
 20
1251.7206712786
 30
0.0
 11
2061.4774483545
 21
1251.7206712786
 31
0.0
  0
ARC
  5
93
330
1F
100
AcDbEntity
  8
0
  6
Continuous
 62
     7
370
    25
100
AcDbCircle
 10
129.4774483545
 20
1248.2206712786
 30
0.0
 40
3.5
100
AcDbArc
 50
270.0
 51
90.0
  0
LINE
  5
94
330
1F
100
AcDbEntity
  8
0
  6
Continuous
 62
     7
370
    25
100
AcDbLine
 10
129.4774483545
 20
1251.7206712786
 30
0.0
 11
111.4774483545
 21
1251.7206712786
 31
0.0
  0
ARC
  5
95
330
1F
100
AcDbEntity
  8
0
  6
Continuous
 62
     7
370
    25
100
AcDbCircle
 10
111.4774483545
 20
1248.2206712786
 30
0.0
 40
3.5
100
AcDbArc
 50
90.0
 51
270.0
  0
LINE
  5
96
330
1F
100
AcDbEntity
  8
0
  6
Continuous
 62
     7
370
    25
100
AcDbLine
 10
111.4774483545
 20
1244.7206712786
 30
0.0
 11
129.4774483545
 21
1244.7206712786
 31
0.0
  0
ARC
  5
97
330
1F
100
AcDbEntity
  8
0
  6
Continuous
 62
     7
370
    25
100
AcDbCircle
 10
2061.4774483545
 20
1248.2206712786
 30
0.0
 40
3.5
100
AcDbArc
 50
90.0
 51
270.0
  0
LINE
  5
98
330
1F
100
AcDbEntity
  8
0
  6
Continuous
 62
     7
370
    25
100
AcDbLine
 10
2061.4774483545
 20
1244.7206712786
 30
0.0
 11
2079.4774483545
 21
1244.7206712786
 31
0.0
  0
ARC
  5
99
330
1F
100
AcDbEntity
  8
0
  6
Continuous
 62
     7
370
    25
100
AcDbCircle
 10
2079.4774483545
 20
1248.2206712786
 30
0.0
 40
3.5
100
AcDbArc
 50
270.0
 51
90.0
  0
LINE
  5
9A
330
1F
100
AcDbEntity
  8
0
  6
Continuous
 62
     7
370
    25
100
AcDbLine
 10
2029.4774483545
 20
1251.7206712786
 30
0.0
 11
2011.4774483545
 21
1251.7206712786
 31
0.0
  0
ARC
  5
9B
330
1F
100
AcDbEntity
  8
0
  6
Continuous
 62
     7
370
    25
100
AcDbCircle
 10
2011.4774483545
 20
1248.2206712786
 30
0.0
 40
3.499999999999773
100
AcDbArc
 50
90.0
 51
270.0
  0
LINE
  5
9C
330
1F
100
AcDbEntity
  8
0
  6
Continuous
 62
     7
370
    25
100
AcDbLine
 10
2011.4774483545
 20
1244.7206712786
 30
0.0
 11
2029.4774483545
 21
1244.7206712786
 31
0.0
  0
ARC
  5
9D
330
1F
100
AcDbEntity
  8
0
  6
Continuous
 62
     7
370
    25
100
AcDbCircle
 10
2029.4774483545
 20
1248.2206712786
 30
0.0
 40
3.499999999999773
100
AcDbArc
 50
270.0
 51
90.0
  0
LINE
  5
9E
330
1F
100
AcDbEntity
  8
0
  6
Continuous
 62
     7
370
    25
100
AcDbLine
 10
161.4774483545
 20
1244.7206712786
 30
0.0
 11
179.4774483545
 21
1244.7206712786
 31
0.0
  0
ARC
  5
9F
330
1F
100
AcDbEntity
  8
0
  6
Continuous
 62
     7
370
    25
100
AcDbCircle
 10
179.4774483545
 20
1248.2206712786
 30
0.0
 40
3.499999999999773
100
AcDbArc
 50
270.0
 51
90.0
  0
LINE
  5
A0
330
1F
100
AcDbEntity
  8
0
  6
Continuous
 62
     7
370
    25
100
AcDbLine
 10
179.4774483545
 20
1251.7206712786
 30
0.0
 11
161.4774483545
 21
1251.7206712786
 31
0.0
  0
ARC
  5
A1
330
1F
100
AcDbEntity
  8
0
  6
Continuous
 62
     7
370
    25
100
AcDbCircle
 10
161.4774483545
 20
1248.2206712786
 30
0.0
 40
3.499999999999773
100
AcDbArc
 50
90.0
 51
270.0
  0
LINE
  5
A2
330
1F
100
AcDbEntity
  8
0
  6
Continuous
 62
     7
370
    25
100
AcDbLine
 10
2095.4774483545
 20
1282.1357823864
 30
0.0
 11
2095.4774483545
 21
1285.3966373691
 31
0.0
  0
LINE
  5
A3
330
1F
100
AcDbEntity
  8
0
  6
Continuous
 62
     7
370
    25
100
AcDbLine
 10
2095.4774483545
 20
1281.386440424
 30
0.0
 11
2095.4774483545
 21
1282.1357823864
 31
0.0
  0
LINE
  5
A4
330
1F
100
AcDbEntity
  8
0
  6
Continuous
 62
     7
370
    25
100
AcDbLine
 10
95.4774483545
 20
1285.3966373691
 30
0.0
 11
95.4774483545
 21
1282.1357823864
 31
0.0
  0
LINE
  5
A5
330
1F
100
AcDbEntity
  8
0
  6
Continuous
 62
     7
370
    25
100
AcDbLine
 10
95.4774483545
 20
1285.3966373691
 30
0.0
 11
2095.4774483545
 21
1285.3966373691
 31
0.0
  0
LINE
  5
A6
330
1F
100
AcDbEntity
  8
0
  6
Continuous
 62
     7
370
    25
100
AcDbLine
 10
95.4774483545
 20
1281.386440424
 30
0.0
 11
95.4774483545
 21
1282.1357823864
 31
0.0
  0
LINE
  5
A7
330
1F
100
AcDbEntity
  8
0
  6
Continuous
 62
     7
370
    25
100
AcDbLine
 10
95.4774483545
 20
1290.4963495574
 30
0.0
 11
2095.4774483545
 21
1290.4963495574
 31
0.0
  0
LINE
  5
A8
330
1F
100
AcDbEntity
  8
0
  6
Continuous
 62
     7
370
    25
100
AcDbLine
 10
2095.4774483545
 20
1290.4963495574
 30
0.0
 11
2095.4774483545
 21
1285.3966373691
 31
0.0
  0
LINE
  5
A9
330
1F
100
AcDbEntity
  8
0
  6
Continuous
 62
     7
370
    25
100
AcDbLine
 10
95.4774483545
 20
1290.4963495574
 30
0.0
 11
95.4774483545
 21
1285.3966373691
 31
0.0
  0
LINE
  5
AA
330
1F
100
AcDbEntity
  8
0
  6
Continuous
 62
     7
370
    25
100
AcDbLine
 10
2095.4774483545
 20
1295.1869789367
 30
0.0
 11
95.4774483545
 21
1295.1869789367
 31
0.0
  0
LINE
  5
AB
330
1F
100
AcDbEntity
  8
0
  6
Continuous
 62
     7
370
    25
100
AcDbLine
 10
2095.4774483545
 20
1290.4963495574
 30
0.0
 11
2095.4774483545
 21
1295.1869789367
 31
0.0
  0
LINE
  5
AC
330
1F
100
AcDbEntity
  8
0
  6
Continuous
 62
     7
370
    25
100
AcDbLine
 10
95.4774483545
 20
1295.1869789367
 30
0.0
 11
95.4774483545
 21
1290.4963495574
 31
0.0
  0
LINE
  5
AD
330
1F
100
AcDbEntity
  8
0
  6
Continuous
 62
     7
370
    25
100
AcDbLine
 10
95.4774483545
 20
1946.9940110858
 30
0.0
 11
95.4774483545
 21
1949.4940110858
 31
0.0
  0
LINE
  5
AE
330
1F
100
AcDbEntity
  8
0
  6
Continuous
 62
     7
370
    25
100
AcDbLine
 10
2095.4774483545
 20
1949.4940110858
 30
0.0
 11
95.4774483545
 21
1949.4940110858
 31
0.0
  0
LINE
  5
AF
330
1F
100
AcDbEntity
  8
0
  6
Continuous
 62
     7
370
    25
100
AcDbLine
 10
2095.4774483545
 20
1946.9940110858
 30
0.0
 11
2095.4774483545
 21
1949.4940110858
 31
0.0
  0
LINE
  5
B0
330
1F
100
AcDbEntity
  8
0
  6
Continuous
 62
     7
370
    25
100
AcDbLine
 10
2095.4774483545
 20
1946.9940110858
 30
0.0
 11
2095.4774483545
 21
1351.9940110858
 31
0.0
  0
LINE
  5
B1
330
1F
100
AcDbEntity
  8
0
  6
Continuous
 62
     7
370
    25
100
AcDbLine
 10
2095.4774483545
 20
1349.4940110858
 30
0.0
 11
95.4774483545
 21
1349.4940110858
 31
0.0
  0
LINE
  5
B2
330
1F
100
AcDbEntity
  8
0
  6
Continuous
 62
     7
370
    25
100
AcDbLine
 10
95.4774483545
 20
1349.4940110858
 30
0.0
 11
95.4774483545
 21
1351.9940110858
 31
0.0
  0
LINE
  5
B3
330
1F
100
AcDbEntity
  8
0
  6
Continuous
 62
     7
370
    25
100
AcDbLine
 10
95.4774483545
 20
1946.9940110858
 30
0.0
 11
95.4774483545
 21
1351.9940110858
 31
0.0
  0
ARC
  5
B4
330
1F
100
AcDbEntity
  8
0
  6
Continuous
 62
     7
370
    25
100
AcDbCircle
 10
2074.4774483545
 20
1653.4940110858
 30
0.0
 40
1.0
100
AcDbArc
 50
90.0
 51
180.0
  0
LINE
  5
B5
330
1F
100
AcDbEntity
  8
0
  6
Continuous
 62
     7
370
    25
100
AcDbLine
 10
2073.4774483545
 20
1645.4940110858
 30
0.0
 11
2073.4774483545
 21
1653.4940110858
 31
0.0
  0
ARC
  5
B6
330
1F
100
AcDbEntity
  8
0
  6
Continuous
 62
     7
370
    25
100
AcDbCircle
 10
2074.4774483545
 20
1645.4940110858
 30
0.0
 40
1.000000000000227
100
AcDbArc
 50
180.0
 51
270.0
  0
LINE
  5
B7
330
1F
100
AcDbEntity
  8
0
  6
Continuous
 62
     7
370
    25
100
AcDbLine
 10
2079.4774483545
 20
1644.4940110858
 30
0.0
 11
2074.4774483545
 21
1644.4940110858
 31
0.0
  0
ARC
  5
B8
330
1F
100
AcDbEntity
  8
0
  6
Continuous
 62
     7
370
    25
100
AcDbCircle
 10
2079.4774483545
 20
1645.4940110858
 30
0.0
 40
1.000000000000227
100
AcDbArc
 50
270.0
 51
0.0
  0
LINE
  5
B9
330
1F
100
AcDbEntity
  8
0
  6
Continuous
 62
     7
370
    25
100
AcDbLine
 10
2080.4774483545
 20
1653.4940110858
 30
0.0
 11
2080.4774483545
 21
1645.4940110858
 31
0.0
  0
ARC
  5
BA
330
1F
100
AcDbEntity
  8
0
  6
Continuous
 62
     7
370
    25
100
AcDbCircle
 10
2079.4774483545
 20
1653.4940110858
 30
0.0
 40
1.000000000000227
100
AcDbArc
 50
0.0
 51
90.0
  0
LINE
  5
BB
330
1F
100
AcDbEntity
  8
0
  6
Continuous
 62
     7
370
    25
100
AcDbLine
 10
2074.4774483545
 20
1654.4940110858
 30
0.0
 11
2079.4774483545
 21
1654.4940110858
 31
0.0
  0
ARC
  5
BC
330
1F
100
AcDbEntity
  8
0
  6
Continuous
 62
     7
370
    25
100
AcDbCircle
 10
111.4774483545
 20
1653.4940110858
 30
0.0
 40
1.000000000000227
100
AcDbArc
 50
90.0
 51
180.0
  0
LINE
  5
BD
330
1F
100
AcDbEntity
  8
0
  6
Continuous
 62
     7
370
    25
100
AcDbLine
 10
110.4774483545
 20
1645.4940110858
 30
0.0
 11
110.4774483545
 21
1653.4940110858
 31
0.0
  0
ARC
  5
BE
330
1F
100
AcDbEntity
  8
0
  6
Continuous
 62
     7
370
    25
100
AcDbCircle
 10
111.4774483545
 20
1645.4940110858
 30
0.0
 40
1.0
100
AcDbArc
 50
180.0
 51
270.0
  0
LINE
  5
BF
330
1F
100
AcDbEntity
  8
0
  6
Continuous
 62
     7
370
    25
100
AcDbLine
 10
116.4774483545
 20
1644.4940110858
 30
0.0
 11
111.4774483545
 21
1644.4940110858
 31
0.0
  0
ARC
  5
C0
330
1F
100
AcDbEntity
  8
0
  6
Continuous
 62
     7
370
    25
100
AcDbCircle
 10
116.4774483545
 20
1645.4940110858
 30
0.0
 40
1.0
100
AcDbArc
 50
270.0
 51
0.0
  0
LINE
  5
C1
330
1F
100
AcDbEntity
  8
0
  6
Continuous
 62
     7
370
    25
100
AcDbLine
 10
117.4774483545
 20
1653.4940110858
 30
0.0
 11
117.4774483545
 21
1645.4940110858
 31
0.0
  0
ARC
  5
C2
330
1F
100
AcDbEntity
  8
0
  6
Continuous
 62
     7
370
    25
100
AcDbCircle
 10
116.4774483545
 20
1653.4940110858
 30
0.0
 40
1.000000000000227
100
AcDbArc
 50
0.0
 51
90.0
  0
LINE
  5
C3
330
1F
100
AcDbEntity
  8
0
  6
Continuous
 62
     7
370
    25
100
AcDbLine
 10
111.4774483545
 20
1654.4940110858
 30
0.0
 11
116.4774483545
 21
1654.4940110858
 31
0.0
  0
ARC
  5
C4
330
1F
100
AcDbEntity
  8
0
  6
Continuous
 62
     7
370
    25
100
AcDbCircle
 10
129.4774483545
 20
1361.9940110858
 30
0.0
 40
3.500000000000227
100
AcDbArc
 50
270.0
 51
90.0
  0
LINE
  5
C5
330
1F
100
AcDbEntity
  8
0
  6
Continuous
 62
     7
370
    25
100
AcDbLine
 10
111.4774483545
 20
1365.4940110858
 30
0.0
 11
129.4774483545
 21
1365.4940110858
 31
0.0
  0
ARC
  5
C6
330
1F
100
AcDbEntity
  8
0
  6
Continuous
 62
     7
370
    25
100
AcDbCircle
 10
111.4774483545
 20
1361.9940110858
 30
0.0
 40
3.500000000000227
100
AcDbArc
 50
90.0
 51
270.0
  0
LINE
  5
C7
330
1F
100
AcDbEntity
  8
0
  6
Continuous
 62
     7
370
    25
100
AcDbLine
 10
129.4774483545
 20
1358.4940110858
 30
0.0
 11
111.4774483545
 21
1358.4940110858
 31
0.0
  0
ARC
  5
C8
330
1F
100
AcDbEntity
  8
0
  6
Continuous
 62
     7
370
    25
100
AcDbCircle
 10
2011.4774483545
 20
1361.9940110858
 30
0.0
 40
3.500000000000455
100
AcDbArc
 50
90.0
 51
270.0
  0
LINE
  5
C9
330
1F
100
AcDbEntity
  8
0
  6
Continuous
 62
     7
370
    25
100
AcDbLine
 10
2029.4774483545
 20
1358.4940110858
 30
0.0
 11
2011.4774483545
 21
1358.4940110858
 31
0.0
  0
ARC
  5
CA
330
1F
100
AcDbEntity
  8
0
  6
Continuous
 62
     7
370
    25
100
AcDbCircle
 10
2029.4774483545
 20
1361.9940110858
 30
0.0
 40
3.500000000000455
100
AcDbArc
 50
270.0
 51
90.0
  0
LINE
  5
CB
330
1F
100
AcDbEntity
  8
0
  6
Continuous
 62
     7
370
    25
100
AcDbLine
 10
2011.4774483545
 20
1365.4940110858
 30
0.0
 11
2029.4774483545
 21
1365.4940110858
 31
0.0
  0
ARC
  5
CC
330
1F
100
AcDbEntity
  8
0
  6
Continuous
 62
     7
370
    25
100
AcDbCircle
 10
2061.4774483545
 20
1936.9940110858
 30
0.0
 40
3.500000000000227
100
AcDbArc
 50
90.0
 51
270.0
  0
LINE
  5
CD
330
1F
100
AcDbEntity
  8
0
  6
Continuous
 62
     7
370
    25
100
AcDbLine
 10
2079.4774483545
 20
1933.4940110858
 30
0.0
 11
2061.4774483545
 21
1933.4940110858
 31
0.0
  0
ARC
  5
CE
330
1F
100
AcDbEntity
  8
0
  6
Continuous
 62
     7
370
    25
100
AcDbCircle
 10
2079.4774483545
 20
1936.9940110858
 30
0.0
 40
3.500000000000227
100
AcDbArc
 50
270.0
 51
90.0
  0
LINE
  5
CF
330
1F
100
AcDbEntity
  8
0
  6
Continuous
 62
     7
370
    25
100
AcDbLine
 10
2061.4774483545
 20
1940.4940110858
 30
0.0
 11
2079.4774483545
 21
1940.4940110858
 31
0.0
  0
ARC
  5
D0
330
1F
100
AcDbEntity
  8
0
  6
Continuous
 62
     7
370
    25
100
AcDbCircle
 10
2011.4774483545
 20
1936.9940110858
 30
0.0
 40
3.500000000000455
100
AcDbArc
 50
90.0
 51
270.0
  0
LINE
  5
D1
330
1F
100
AcDbEntity
  8
0
  6
Continuous
 62
     7
370
    25
100
AcDbLine
 10
2029.4774483545
 20
1933.4940110858
 30
0.0
 11
2011.4774483545
 21
1933.4940110858
 31
0.0
  0
ARC
  5
D2
330
1F
100
AcDbEntity
  8
0
  6
Continuous
 62
     7
370
    25
100
AcDbCircle
 10
2029.4774483545
 20
1936.9940110858
 30
0.0
 40
3.500000000000455
100
AcDbArc
 50
270.0
 51
90.0
  0
LINE
  5
D3
330
1F
100
AcDbEntity
  8
0
  6
Continuous
 62
     7
370
    25
100
AcDbLine
 10
2011.4774483545
 20
1940.4940110858
 30
0.0
 11
2029.4774483545
 21
1940.4940110858
 31
0.0
  0
ARC
  5
D4
330
1F
100
AcDbEntity
  8
0
  6
Continuous
 62
     7
370
    25
100
AcDbCircle
 10
179.4774483545
 20
1361.9940110858
 30
0.0
 40
3.500000000000455
100
AcDbArc
 50
270.0
 51
90.0
  0
LINE
  5
D5
330
1F
100
AcDbEntity
  8
0
  6
Continuous
 62
     7
370
    25
100
AcDbLine
 10
161.4774483545
 20
1365.4940110858
 30
0.0
 11
179.4774483545
 21
1365.4940110858
 31
0.0
  0
ARC
  5
D6
330
1F
100
AcDbEntity
  8
0
  6
Continuous
 62
     7
370
    25
100
AcDbCircle
 10
161.4774483545
 20
1361.9940110858
 30
0.0
 40
3.500000000000455
100
AcDbArc
 50
90.0
 51
270.0
  0
LINE
  5
D7
330
1F
100
AcDbEntity
  8
0
  6
Continuous
 62
     7
370
    25
100
AcDbLine
 10
179.4774483545
 20
1358.4940110858
 30
0.0
 11
161.4774483545
 21
1358.4940110858
 31
0.0
  0
ARC
  5
D8
330
1F
100
AcDbEntity
  8
0
  6
Continuous
 62
     7
370
    25
100
AcDbCircle
 10
129.4774483545
 20
1936.9940110858
 30
0.0
 40
3.500000000000227
100
AcDbArc
 50
270.0
 51
90.0
  0
LINE
  5
D9
330
1F
100
AcDbEntity
  8
0
  6
Continuous
 62
     7
370
    25
100
AcDbLine
 10
111.4774483545
 20
1940.4940110858
 30
0.0
 11
129.4774483545
 21
1940.4940110858
 31
0.0
  0
ARC
  5
DA
330
1F
100
AcDbEntity
  8
0
  6
Continuous
 62
     7
370
    25
100
AcDbCircle
 10
111.4774483545
 20
1936.9940110858
 30
0.0
 40
3.500000000000227
100
AcDbArc
 50
90.0
 51
270.0
  0
LINE
  5
DB
330
1F
100
AcDbEntity
  8
0
  6
Continuous
 62
     7
370
    25
100
AcDbLine
 10
129.4774483545
 20
1933.4940110858
 30
0.0
 11
111.4774483545
 21
1933.4940110858
 31
0.0
  0
ARC
  5
DC
330
1F
100
AcDbEntity
  8
0
  6
Continuous
 62
     7
370
    25
100
AcDbCircle
 10
179.4774483545
 20
1936.9940110858
 30
0.0
 40
3.500000000000455
100
AcDbArc
 50
270.0
 51
90.0
  0
LINE
  5
DD
330
1F
100
AcDbEntity
  8
0
  6
Continuous
 62
     7
370
    25
100
AcDbLine
 10
161.4774483545
 20
1940.4940110858
 30
0.0
 11
179.4774483545
 21
1940.4940110858
 31
0.0
  0
ARC
  5
DE
330
1F
100
AcDbEntity
  8
0
  6
Continuous
 62
     7
370
    25
100
AcDbCircle
 10
161.4774483545
 20
1936.9940110858
 30
0.0
 40
3.500000000000455
100
AcDbArc
 50
90.0
 51
270.0
  0
LINE
  5
DF
330
1F
100
AcDbEntity
  8
0
  6
Continuous
 62
     7
370
    25
100
AcDbLine
 10
179.4774483545
 20
1933.4940110858
 30
0.0
 11
161.4774483545
 21
1933.4940110858
 31
0.0
  0
ARC
  5
E0
330
1F
100
AcDbEntity
  8
0
  6
Continuous
 62
     7
370
    25
100
AcDbCircle
 10
2061.4774483545
 20
1361.9940110858
 30
0.0
 40
3.500000000000227
100
AcDbArc
 50
90.0
 51
270.0
  0
LINE
  5
E1
330
1F
100
AcDbEntity
  8
0
  6
Continuous
 62
     7
370
    25
100
AcDbLine
 10
2079.4774483545
 20
1358.4940110858
 30
0.0
 11
2061.4774483545
 21
1358.4940110858
 31
0.0
  0
ARC
  5
E2
330
1F
100
AcDbEntity
  8
0
  6
Continuous
 62
     7
370
    25
100
AcDbCircle
 10
2079.4774483545
 20
1361.9940110858
 30
0.0
 40
3.500000000000227
100
AcDbArc
 50
270.0
 51
90.0
  0
LINE
  5
E3
330
1F
100
AcDbEntity
  8
0
  6
Continuous
 62
     7
370
    25
100
AcDbLine
 10
2061.4774483545
 20
1365.4940110858
 30
0.0
 11
2079.4774483545
 21
1365.4940110858
 31
0.0
  0
LINE
  5
E4
330
1F
100
AcDbEntity
  8
0
  6
Continuous
 62
     7
370
    25
100
AcDbLine
 10
117.4774483545
 20
1453.4940110858
 30
0.0
 11
117.4774483545
 21
1445.4940110858
 31
0.0
  0
ARC
  5
E5
330
1F
100
AcDbEntity
  8
0
  6
Continuous
 62
     7
370
    25
100
AcDbCircle
 10
116.4774483545
 20
1453.4940110858
 30
0.0
 40
1.000000000000227
100
AcDbArc
 50
0.0
 51
90.0
  0
LINE
  5
E6
330
1F
100
AcDbEntity
  8
0
  6
Continuous
 62
     7
370
    25
100
AcDbLine
 10
111.4774483545
 20
1454.4940110858
 30
0.0
 11
116.4774483545
 21
1454.4940110858
 31
0.0
  0
ARC
  5
E7
330
1F
100
AcDbEntity
  8
0
  6
Continuous
 62
     7
370
    25
100
AcDbCircle
 10
111.4774483545
 20
1453.4940110858
 30
0.0
 40
1.000000000000227
100
AcDbArc
 50
90.0
 51
180.0
  0
LINE
  5
E8
330
1F
100
AcDbEntity
  8
0
  6
Continuous
 62
     7
370
    25
100
AcDbLine
 10
110.4774483545
 20
1445.4940110858
 30
0.0
 11
110.4774483545
 21
1453.4940110858
 31
0.0
  0
ARC
  5
E9
330
1F
100
AcDbEntity
  8
0
  6
Continuous
 62
     7
370
    25
100
AcDbCircle
 10
111.4774483545
 20
1445.4940110858
 30
0.0
 40
1.0
100
AcDbArc
 50
180.0
 51
270.0
  0
LINE
  5
EA
330
1F
100
AcDbEntity
  8
0
  6
Continuous
 62
     7
370
    25
100
AcDbLine
 10
116.4774483545
 20
1444.4940110858
 30
0.0
 11
111.4774483545
 21
1444.4940110858
 31
0.0
  0
ARC
  5
EB
330
1F
100
AcDbEntity
  8
0
  6
Continuous
 62
     7
370
    25
100
AcDbCircle
 10
116.4774483545
 20
1445.4940110858
 30
0.0
 40
1.0
100
AcDbArc
 50
270.0
 51
0.0
  0
LINE
  5
EC
330
1F
100
AcDbEntity
  8
0
  6
Continuous
 62
     7
370
    25
100
AcDbLine
 10
117.4774483545
 20
1853.4940110858
 30
0.0
 11
117.4774483545
 21
1845.4940110858
 31
0.0
  0
ARC
  5
ED
330
1F
100
AcDbEntity
  8
0
  6
Continuous
 62
     7
370
    25
100
AcDbCircle
 10
116.4774483545
 20
1853.4940110858
 30
0.0
 40
1.0
100
AcDbArc
 50
0.0
 51
90.0
  0
LINE
  5
EE
330
1F
100
AcDbEntity
  8
0
  6
Continuous
 62
     7
370
    25
100
AcDbLine
 10
111.4774483545
 20
1854.4940110858
 30
0.0
 11
116.4774483545
 21
1854.4940110858
 31
0.0
  0
ARC
  5
EF
330
1F
100
AcDbEntity
  8
0
  6
Continuous
 62
     7
370
    25
100
AcDbCircle
 10
111.4774483545
 20
1853.4940110858
 30
0.0
 40
1.0
100
AcDbArc
 50
90.0
 51
180.0
  0
LINE
  5
F0
330
1F
100
AcDbEntity
  8
0
  6
Continuous
 62
     7
370
    25
100
AcDbLine
 10
110.4774483545
 20
1845.4940110858
 30
0.0
 11
110.4774483545
 21
1853.4940110858
 31
0.0
  0
ARC
  5
F1
330
1F
100
AcDbEntity
  8
0
  6
Continuous
 62
     7
370
    25
100
AcDbCircle
 10
111.4774483545
 20
1845.4940110858
 30
0.0
 40
1.000000000000227
100
AcDbArc
 50
180.0
 51
270.0
  0
LINE
  5
F2
330
1F
100
AcDbEntity
  8
0
  6
Continuous
 62
     7
370
    25
100
AcDbLine
 10
116.4774483545
 20
1844.4940110858
 30
0.0
 11
111.4774483545
 21
1844.4940110858
 31
0.0
  0
ARC
  5
F3
330
1F
100
AcDbEntity
  8
0
  6
Continuous
 62
     7
370
    25
100
AcDbCircle
 10
116.4774483545
 20
1845.4940110858
 30
0.0
 40
1.000000000000227
100
AcDbArc
 50
270.0
 51
0.0
  0
LINE
  5
F4
330
1F
100
AcDbEntity
  8
0
  6
Continuous
 62
     7
370
    25
100
AcDbLine
 10
2080.4774483545
 20
1453.4940110858
 30
0.0
 11
2080.4774483545
 21
1445.4940110858
 31
0.0
  0
ARC
  5
F5
330
1F
100
AcDbEntity
  8
0
  6
Continuous
 62
     7
370
    25
100
AcDbCircle
 10
2079.4774483545
 20
1453.4940110858
 30
0.0
 40
1.0
100
AcDbArc
 50
0.0
 51
90.0
  0
LINE
  5
F6
330
1F
100
AcDbEntity
  8
0
  6
Continuous
 62
     7
370
    25
100
AcDbLine
 10
2074.4774483545
 20
1454.4940110858
 30
0.0
 11
2079.4774483545
 21
1454.4940110858
 31
0.0
  0
ARC
  5
F7
330
1F
100
AcDbEntity
  8
0
  6
Continuous
 62
     7
370
    25
100
AcDbCircle
 10
2074.4774483545
 20
1453.4940110858
 30
0.0
 40
1.000000000000227
100
AcDbArc
 50
90.0
 51
180.0
  0
LINE
  5
F8
330
1F
100
AcDbEntity
  8
0
  6
Continuous
 62
     7
370
    25
100
AcDbLine
 10
2073.4774483545
 20
1445.4940110858
 30
0.0
 11
2073.4774483545
 21
1453.4940110858
 31
0.0
  0
ARC
  5
F9
330
1F
100
AcDbEntity
  8
0
  6
Continuous
 62
     7
370
    25
100
AcDbCircle
 10
2074.4774483545
 20
1445.4940110858
 30
0.0
 40
1.0
100
AcDbArc
 50
180.0
 51
270.0
  0
LINE
  5
FA
330
1F
100
AcDbEntity
  8
0
  6
Continuous
 62
     7
370
    25
100
AcDbLine
 10
2079.4774483545
 20
1444.4940110858
 30
0.0
 11
2074.4774483545
 21
1444.4940110858
 31
0.0
  0
ARC
  5
FB
330
1F
100
AcDbEntity
  8
0
  6
Continuous
 62
     7
370
    25
100
AcDbCircle
 10
2079.4774483545
 20
1445.4940110858
 30
0.0
 40
1.0
100
AcDbArc
 50
270.0
 51
0.0
  0
LINE
  5
FC
330
1F
100
AcDbEntity
  8
0
  6
Continuous
 62
     7
370
    25
100
AcDbLine
 10
2080.4774483545
 20
1853.4940110858
 30
0.0
 11
2080.4774483545
 21
1845.4940110858
 31
0.0
  0
ARC
  5
FD
330
1F
100
AcDbEntity
  8
0
  6
Continuous
 62
     7
370
    25
100
AcDbCircle
 10
2079.4774483545
 20
1853.4940110858
 30
0.0
 40
1.0
100
AcDbArc
 50
0.0
 51
90.0
  0
LINE
  5
FE
330
1F
100
AcDbEntity
  8
0
  6
Continuous
 62
     7
370
    25
100
AcDbLine
 10
2074.4774483545
 20
1854.4940110858
 30
0.0
 11
2079.4774483545
 21
1854.4940110858
 31
0.0
  0
ARC
  5
FF
330
1F
100
AcDbEntity
  8
0
  6
Continuous
 62
     7
370
    25
100
AcDbCircle
 10
2074.4774483545
 20
1853.4940110858
 30
0.0
 40
1.0
100
AcDbArc
 50
90.0
 51
180.0
  0
LINE
  5
100
330
1F
100
AcDbEntity
  8
0
  6
Continuous
 62
     7
370
    25
100
AcDbLine
 10
2073.4774483545
 20
1845.4940110858
 30
0.0
 11
2073.4774483545
 21
1853.4940110858
 31
0.0
  0
ARC
  5
101
330
1F
100
AcDbEntity
  8
0
  6
Continuous
 62
     7
370
    25
100
AcDbCircle
 10
2074.4774483545
 20
1845.4940110858
 30
0.0
 40
1.000000000000227
100
AcDbArc
 50
180.0
 51
270.0
  0
LINE
  5
102
330
1F
100
AcDbEntity
  8
0
  6
Continuous
 62
     7
370
    25
100
AcDbLine
 10
2079.4774483545
 20
1844.4940110858
 30
0.0
 11
2074.4774483545
 21
1844.4940110858
 31
0.0
  0
ARC
  5
103
330
1F
100
AcDbEntity
  8
0
  6
Continuous
 62
     7
370
    25
100
AcDbCircle
 10
2079.4774483545
 20
1845.4940110858
 30
0.0
 40
1.000000000000227
100
AcDbArc
 50
270.0
 51
0.0
  0
LINE
  5
104
330
1F
100
AcDbEntity
  8
0
  6
Continuous
 62
     7
370
    25
100
AcDbLine
 10
2095.4774483545
 20
1349.4940110858
 30
0.0
 11
2095.4774483545
 21
1351.9940110858
 31
0.0
  0
LINE
  5
105
330
1F
100
AcDbEntity
  8
0
  6
Continuous
 62
     7
370
    25
100
AcDbLine
 10
2081.2802239922
 20
1358.9940110858
 30
0.0
 11
2059.6746727168
 21
1358.9940110858
 31
0.0
  0
LINE
  5
106
330
1F
100
AcDbEntity
  8
0
  6
Continuous
 62
     7
370
    25
100
AcDbLine
 10
2031.2802239922
 20
1358.9940110858
 30
0.0
 11
2009.6746727168
 21
1358.9940110858
 31
0.0
  0
LINE
  5
107
330
1F
100
AcDbEntity
  8
0
  6
Continuous
 62
     7
370
    25
100
AcDbLine
 10
181.2802239922
 20
1358.9940110858
 30
0.0
 11
159.6746727168
 21
1358.9940110858
 31
0.0
  0
LINE
  5
108
330
1F
100
AcDbEntity
  8
0
  6
Continuous
 62
     7
370
    25
100
AcDbLine
 10
131.2802239922
 20
1358.9940110858
 30
0.0
 11
109.6746727168
 21
1358.9940110858
 31
0.0
  0
LINE
  5
109
330
1F
100
AcDbEntity
  8
0
  6
Continuous
 62
     7
370
    25
100
AcDbLine
 10
2081.2802239922
 20
1939.9940110858
 30
0.0
 11
2059.6746727168
 21
1939.9940110858
 31
0.0
  0
LINE
  5
10A
330
1F
100
AcDbEntity
  8
0
  6
Continuous
 62
     7
370
    25
100
AcDbLine
 10
2031.2802239922
 20
1939.9940110858
 30
0.0
 11
2009.6746727168
 21
1939.9940110858
 31
0.0
  0
LINE
  5
10B
330
1F
100
AcDbEntity
  8
0
  6
Continuous
 62
     7
370
    25
100
AcDbLine
 10
181.2802239922
 20
1939.9940110858
 30
0.0
 11
159.6746727168
 21
1939.9940110858
 31
0.0
  0
LINE
  5
10C
330
1F
100
AcDbEntity
  8
0
  6
Continuous
 62
     7
370
    25
100
AcDbLine
 10
131.2802239922
 20
1939.9940110858
 30
0.0
 11
109.6746727168
 21
1939.9940110858
 31
0.0
  0
LINE
  5
10D
330
1F
100
AcDbEntity
  8
0
  6
Continuous
 62
     7
370
    25
100
AcDbLine
 10
2222.8484167386
 20
1281.386440424
 30
0.0
 11
2222.8484167386
 21
1280.2206712786
 31
0.0
  0
LINE
  5
10E
330
1F
100
AcDbEntity
  8
0
  6
Continuous
 62
     7
370
    25
100
AcDbLine
 10
2223.7414477144
 20
1282.1357823864
 30
0.0
 11
2222.8484167386
 21
1281.386440424
 31
0.0
  0
LINE
  5
10F
330
1F
100
AcDbEntity
  8
0
  6
Continuous
 62
     7
370
    25
100
AcDbLine
 10
2224.7056291289
 20
1280.9867157217
 30
0.0
 11
2224.3484167386
 21
1280.6869789367
 31
0.0
  0
LINE
  5
110
330
1F
100
AcDbEntity
  8
0
  6
Continuous
 62
     7
370
    25
100
AcDbLine
 10
2224.3484167386
 20
1280.6869789367
 30
0.0
 11
2224.3484167386
 21
1280.2206712786
 31
0.0
  0
LINE
  5
111
330
1F
100
AcDbEntity
  8
0
  6
Continuous
 62
     7
370
    25
100
AcDbLine
 10
2222.8484167386
 20
1195.2206712786
 30
0.0
 11
2225.3484167386
 21
1195.2206712786
 31
0.0
  0
LINE
  5
112
330
1F
100
AcDbEntity
  8
0
  6
Continuous
 62
     7
370
    25
100
AcDbLine
 10
2222.8484167386
 20
1197.7206712786
 30
0.0
 11
2222.8484167386
 21
1195.2206712786
 31
0.0
  0
LINE
  5
113
330
1F
100
AcDbEntity
  8
0
  6
Continuous
 62
     7
370
    25
100
AcDbLine
 10
2224.3484167386
 20
1197.7206712786
 30
0.0
 11
2224.3484167386
 21
1196.7206712786
 31
0.0
  0
LINE
  5
114
330
1F
100
AcDbEntity
  8
0
  6
Continuous
 62
     7
370
    25
100
AcDbLine
 10
2224.3484167386
 20
1196.7206712786
 30
0.0
 11
2225.3484167386
 21
1196.7206712786
 31
0.0
  0
LINE
  5
115
330
1F
100
AcDbEntity
  8
0
  6
Continuous
 62
     7
370
    25
100
AcDbLine
 10
2224.3484167386
 20
1197.7206712786
 30
0.0
 11
2224.3484167386
 21
1280.2206712786
 31
0.0
  0
LINE
  5
116
330
1F
100
AcDbEntity
  8
0
  6
Continuous
 62
     7
370
    25
100
AcDbLine
 10
2222.8484167386
 20
1197.7206712786
 30
0.0
 11
2222.8484167386
 21
1280.2206712786
 31
0.0
  0
LINE
  5
117
330
1F
100
AcDbEntity
  8
0
  6
Continuous
 62
     7
370
    25
100
AcDbLine
 10
2227.6275833549
 20
1285.3966373691
 30
0.0
 11
2223.7414477144
 21
1282.1357823864
 31
0.0
  0
LINE
  5
118
330
1F
100
AcDbEntity
  8
0
  6
Continuous
 62
     7
370
    25
100
AcDbLine
 10
2223.3484167386
 20
1290.4963495574
 30
0.0
 11
2227.6275833549
 21
1285.3966373691
 31
0.0
  0
LINE
  5
119
330
1F
100
AcDbEntity
  8
0
  6
Continuous
 62
     7
370
    25
100
AcDbLine
 10
2232.3484167386
 20
1295.1869789367
 30
0.0
 11
2228.9384911529
 21
1295.1869789367
 31
0.0
  0
LINE
  5
11A
330
1F
100
AcDbEntity
  8
0
  6
Continuous
 62
     7
370
    25
100
AcDbLine
 10
2232.3484167386
 20
1287.3997759861
 30
0.0
 11
2232.3484167386
 21
1295.1869789367
 31
0.0
  0
LINE
  5
11B
330
1F
100
AcDbEntity
  8
0
  6
Continuous
 62
     7
370
    25
100
AcDbLine
 10
2232.3484167386
 20
1287.3997759861
 30
0.0
 11
2224.7056291289
 21
1280.9867157217
 31
0.0
  0
LINE
  5
11C
330
1F
100
AcDbEntity
  8
0
  6
Continuous
 62
     7
370
    25
100
AcDbLine
 10
2228.9384911529
 20
1295.1869789367
 30
0.0
 11
2223.3484167386
 21
1290.4963495574
 31
0.0
  0
LINE
  5
11D
330
1F
100
AcDbEntity
  8
0
  6
Continuous
 62
     7
370
    25
100
AcDbLine
 10
2822.8484167386
 20
1195.2206712786
 30
0.0
 11
2822.8484167386
 21
1197.7206712786
 31
0.0
  0
LINE
  5
11E
330
1F
100
AcDbEntity
  8
0
  6
Continuous
 62
     7
370
    25
100
AcDbLine
 10
2820.3484167386
 20
1195.2206712786
 30
0.0
 11
2822.8484167386
 21
1195.2206712786
 31
0.0
  0
LINE
  5
11F
330
1F
100
AcDbEntity
  8
0
  6
Continuous
 62
     7
370
    25
100
AcDbLine
 10
2820.3484167386
 20
1196.7206712786
 30
0.0
 11
2821.3484167386
 21
1196.7206712786
 31
0.0
  0
LINE
  5
120
330
1F
100
AcDbEntity
  8
0
  6
Continuous
 62
     7
370
    25
100
AcDbLine
 10
2821.3484167386
 20
1196.7206712786
 30
0.0
 11
2821.3484167386
 21
1197.7206712786
 31
0.0
  0
LINE
  5
121
330
1F
100
AcDbEntity
  8
0
  6
Continuous
 62
     7
370
    25
100
AcDbLine
 10
2820.3484167386
 20
1196.7206712786
 30
0.0
 11
2225.3484167386
 21
1196.7206712786
 31
0.0
  0
LINE
  5
122
330
1F
100
AcDbEntity
  8
0
  6
Continuous
 62
     7
370
    25
100
AcDbLine
 10
2820.3484167386
 20
1195.2206712786
 30
0.0
 11
2225.3484167386
 21
1195.2206712786
 31
0.0
  0
LINE
  5
123
330
1F
100
AcDbEntity
  8
0
  6
Continuous
 62
     7
370
    25
100
AcDbLine
 10
2813.3484167386
 20
1287.3997759861
 30
0.0
 11
2820.9912043483
 21
1280.9867157217
 31
0.0
  0
LINE
  5
124
330
1F
100
AcDbEntity
  8
0
  6
Continuous
 62
     7
370
    25
100
AcDbLine
 10
2813.3484167386
 20
1287.3997759861
 30
0.0
 11
2813.3484167386
 21
1295.1869789367
 31
0.0
  0
LINE
  5
125
330
1F
100
AcDbEntity
  8
0
  6
Continuous
 62
     7
370
    25
100
AcDbLine
 10
2816.7583423243
 20
1295.1869789367
 30
0.0
 11
2813.3484167386
 21
1295.1869789367
 31
0.0
  0
LINE
  5
126
330
1F
100
AcDbEntity
  8
0
  6
Continuous
 62
     7
370
    25
100
AcDbLine
 10
2816.7583423243
 20
1295.1869789367
 30
0.0
 11
2822.3484167386
 21
1290.4963495574
 31
0.0
  0
LINE
  5
127
330
1F
100
AcDbEntity
  8
0
  6
Continuous
 62
     7
370
    25
100
AcDbLine
 10
2818.0692501222
 20
1285.3966373691
 30
0.0
 11
2821.9553857628
 21
1282.1357823864
 31
0.0
  0
LINE
  5
128
330
1F
100
AcDbEntity
  8
0
  6
Continuous
 62
     7
370
    25
100
AcDbLine
 10
2822.3484167386
 20
1290.4963495574
 30
0.0
 11
2818.0692501222
 21
1285.3966373691
 31
0.0
  0
LINE
  5
129
330
1F
100
AcDbEntity
  8
0
  6
Continuous
 62
     7
370
    25
100
AcDbLine
 10
2822.8484167386
 20
1280.2206712786
 30
0.0
 11
2822.8484167386
 21
1197.7206712786
 31
0.0
  0
LINE
  5
12A
330
1F
100
AcDbEntity
  8
0
  6
Continuous
 62
     7
370
    25
100
AcDbLine
 10
2821.3484167386
 20
1280.2206712786
 30
0.0
 11
2821.3484167386
 21
1197.7206712786
 31
0.0
  0
LINE
  5
12B
330
1F
100
AcDbEntity
  8
0
  6
Continuous
 62
     7
370
    25
100
AcDbLine
 10
2822.8484167386
 20
1281.386440424
 30
0.0
 11
2821.9553857628
 21
1282.1357823864
 31
0.0
  0
LINE
  5
12C
330
1F
100
AcDbEntity
  8
0
  6
Continuous
 62
     7
370
    25
100
AcDbLine
 10
2821.3484167386
 20
1280.6869789367
 30
0.0
 11
2820.9912043483
 21
1280.9867157217
 31
0.0
  0
LINE
  5
12D
330
1F
100
AcDbEntity
  8
0
  6
Continuous
 62
     7
370
    25
100
AcDbLine
 10
2822.8484167386
 20
1280.2206712786
 30
0.0
 11
2822.8484167386
 21
1281.386440424
 31
0.0
  0
LINE
  5
12E
330
1F
100
AcDbEntity
  8
0
  6
Continuous
 62
     7
370
    25
100
AcDbLine
 10
2821.3484167386
 20
1280.2206712786
 30
0.0
 11
2821.3484167386
 21
1280.6869789367
 31
0.0
  0
LINE
  5
12F
330
1F
100
AcDbEntity
  8
0
  6
Continuous
 62
     7
370
    25
100
AcDbLine
 10
1501.639833815
 20
114.378203315
 30
0.0
 11
1505.5926133407
 21
108.2662219446
 31
0.0
  0
LINE
  5
130
330
1F
100
AcDbEntity
  8
0
  6
Continuous
 62
     7
370
    25
100
AcDbLine
 10
2915.8533961881
 20
930.7863151377
 30
0.0
 11
1501.639833815
 21
114.378203315
 31
0.0
  0
LINE
  5
131
330
1F
100
AcDbEntity
  8
0
  6
Continuous
 62
     7
370
    25
100
AcDbLine
 10
2919.8061757138
 20
924.6743337673
 30
0.0
 11
2915.8533961881
 21
930.7863151377
 31
0.0
  0
LINE
  5
132
330
1F
100
AcDbEntity
  8
0
  6
Continuous
 62
     7
370
    25
100
AcDbLine
 10
1505.5926133407
 20
108.2662219446
 30
0.0
 11
2919.8061757138
 21
924.6743337673
 31
0.0
  0
LINE
  5
133
330
1F
100
AcDbEntity
  8
0
  6
Continuous
 62
     7
370
    25
100
AcDbLine
 10
1499.2286523101
 20
109.4115797498
 30
0.0
 11
1504.632919256
 21
101.0552374141
 31
0.0
  0
LINE
  5
134
330
1F
100
AcDbEntity
  8
0
  6
Continuous
 62
     7
370
    25
100
AcDbLine
 10
1499.2286523101
 20
109.4115797498
 30
0.0
 11
1499.2286523101
 21
115.7701487694
 31
0.0
  0
LINE
  5
135
330
1F
100
AcDbEntity
  8
0
  6
Continuous
 62
     7
370
    25
100
AcDbLine
 10
1501.639833815
 20
114.378203315
 30
0.0
 11
1499.2286523101
 21
115.7701487694
 31
0.0
  0
LINE
  5
136
330
1F
100
AcDbEntity
  8
0
  6
Continuous
 62
     7
370
    25
100
AcDbLine
 10
1505.5926133407
 20
108.2662219446
 30
0.0
 11
1502.5667856085
 21
105.8488719826
 31
0.0
  0
LINE
  5
137
330
1F
100
AcDbEntity
  8
0
  6
Continuous
 62
     7
370
    25
100
AcDbLine
 10
1502.5667856085
 20
105.8488719826
 30
0.0
 11
1505.3146984726
 21
101.5999144773
 31
0.0
  0
LINE
  5
138
330
1F
100
AcDbEntity
  8
0
  6
Continuous
 62
     7
370
    25
100
AcDbLine
 10
2919.8061757138
 20
924.6743337673
 30
0.0
 11
2916.7803479816
 21
922.2569838054
 31
0.0
  0
LINE
  5
139
330
1F
100
AcDbEntity
  8
0
  6
Continuous
 62
     7
370
    25
100
AcDbLine
 10
1502.5667856085
 20
105.8488719826
 30
0.0
 11
2916.7803479816
 21
922.2569838054
 31
0.0
  0
LINE
  5
13A
330
1F
100
AcDbEntity
  8
0
  6
Continuous
 62
     7
370
    25
100
AcDbLine
 10
2915.8533961881
 20
930.7863151377
 30
0.0
 11
2913.4422146832
 21
932.1782605921
 31
0.0
  0
LINE
  5
13B
330
1F
100
AcDbEntity
  8
0
  6
Continuous
 62
     7
370
    25
100
AcDbLine
 10
2913.4422146832
 20
932.1782605921
 30
0.0
 11
1499.2286523101
 21
115.7701487694
 31
0.0
  0
LINE
  5
13C
330
1F
100
AcDbEntity
  8
0
  6
Continuous
 62
     7
370
    25
100
AcDbLine
 10
2919.5282608456
 20
918.0080263
 30
0.0
 11
2916.7803479816
 21
922.2569838054
 31
0.0
  0
LINE
  5
13D
330
1F
100
AcDbEntity
  8
0
  6
Continuous
 62
     7
370
    25
100
AcDbLine
 10
2920.1597291044
 20
917.0316191393
 30
0.0
 11
2919.5282608456
 21
918.0080263
 31
0.0
  0
LINE
  5
13E
330
1F
100
AcDbEntity
  8
0
  6
Continuous
 62
     7
370
    25
100
AcDbLine
 10
2920.1597291044
 20
917.0316191393
 30
0.0
 11
1505.9461667313
 21
100.6235073166
 31
0.0
  0
LINE
  5
13F
330
1F
100
AcDbEntity
  8
0
  6
Continuous
 62
     7
370
    25
100
AcDbLine
 10
1505.9461667313
 20
100.6235073166
 30
0.0
 11
1505.3146984726
 21
101.5999144773
 31
0.0
  0
LINE
  5
140
330
1F
100
AcDbEntity
  8
0
  6
Continuous
 62
     7
370
    25
100
AcDbLine
 10
1505.9461667313
 20
99.6716092322
 30
0.0
 11
1505.9461667313
 21
100.6235073166
 31
0.0
  0
LINE
  5
141
330
1F
100
AcDbEntity
  8
0
  6
Continuous
 62
     7
370
    25
100
AcDbLine
 10
1504.8855065596
 20
100.283915316
 30
0.0
 11
1504.8855065596
 21
100.6646745498
 31
0.0
  0
LINE
  5
142
330
1F
100
AcDbEntity
  8
0
  6
Continuous
 62
     7
370
    25
100
AcDbLine
 10
1504.8855065596
 20
100.6646745498
 30
0.0
 11
1504.632919256
 21
101.0552374141
 31
0.0
  0
LINE
  5
143
330
1F
100
AcDbEntity
  8
0
  6
Continuous
 62
     7
370
    25
100
AcDbLine
 10
2920.1597291044
 20
916.0797210549
 30
0.0
 11
2920.1597291044
 21
917.0316191393
 31
0.0
  0
LINE
  5
144
330
1F
100
AcDbEntity
  8
0
  6
Continuous
 62
     7
370
    25
100
AcDbLine
 10
2920.1597291044
 20
916.0797210549
 30
0.0
 11
2920.1597291044
 21
848.7151040743
 31
0.0
  0
LINE
  5
145
330
1F
100
AcDbEntity
  8
0
  6
Continuous
 62
     7
370
    25
100
AcDbLine
 10
2920.1597291044
 20
846.6737520446
 30
0.0
 11
2920.1597291044
 21
848.7151040743
 31
0.0
  0
LINE
  5
146
330
1F
100
AcDbEntity
  8
0
  6
Continuous
 62
     7
370
    25
100
AcDbLine
 10
2920.1597291044
 20
846.6737520446
 30
0.0
 11
1505.9461667313
 21
30.2656402219
 31
0.0
  0
LINE
  5
147
330
1F
100
AcDbEntity
  8
0
  6
Continuous
 62
     7
370
    25
100
AcDbLine
 10
1505.9461667313
 20
30.2656402219
 30
0.0
 11
1505.9461667313
 21
32.3069922516
 31
0.0
  0
LINE
  5
148
330
1F
100
AcDbEntity
  8
0
  6
Continuous
 62
     7
370
    25
100
AcDbLine
 10
1505.9461667313
 20
99.6716092322
 30
0.0
 11
1505.9461667313
 21
32.3069922516
 31
0.0
  0
LWPOLYLINE
  5
149
330
1F
100
AcDbEntity
  8
0
  6
Continuous
 62
     7
370
    25
100
AcDbPolyline
 90
       10
 70
   128
 43
0.0
 10
1565.343136351
 20
76.3946226908
 10
1566.1895930203
 20
77.0556237521
 10
1566.9339545229
 20
77.9816023848
 10
1567.4864398759
 20
79.0608718998
 10
1567.7804111921
 20
80.1632564652
 10
1567.7804111921
 20
81.155792233
 10
1567.4864398759
 20
81.9187647414
 10
1566.9339545229
 20
82.3601482455
 10
1566.1895930203
 20
82.4267053806
 10
1565.343136351
 20
82.110408374
  0
LINE
  5
14A
330
1F
100
AcDbEntity
  8
0
  6
Continuous
 62
     7
370
    25
100
AcDbLine
 10
1565.343136351
 20
82.110408374
 30
0.0
 11
1552.6152142896
 21
74.7627353676
 31
0.0
  0
LWPOLYLINE
  5
14B
330
1F
100
AcDbEntity
  8
0
  6
Continuous
 62
     7
370
    25
100
AcDbPolyline
 90
       10
 70
   128
 43
0.0
 10
1552.6152142896
 20
74.7627353676
 10
1551.7687576204
 20
74.1017343062
 10
1551.0243961178
 20
73.1757556735
 10
1550.4719107647
 20
72.0964861585
 10
1550.1779394485
 20
70.9941015931
 10
1550.1779394485
 20
70.0015658253
 10
1550.4719107647
 20
69.2385933169
 10
1551.0243961178
 20
68.7972098128
 10
1551.7687576204
 20
68.7306526777
 10
1552.6152142896
 20
69.0469496844
  0
LINE
  5
14C
330
1F
100
AcDbEntity
  8
0
  6
Continuous
 62
     7
370
    25
100
AcDbLine
 10
1552.6152142896
 20
69.0469496844
 30
0.0
 11
1565.343136351
 21
76.3946226908
 31
0.0
  0
LWPOLYLINE
  5
14D
330
1F
100
AcDbEntity
  8
0
  6
Continuous
 62
     7
370
    25
100
AcDbPolyline
 90
       10
 70
   128
 43
0.0
 10
1529.9877972917
 20
55.9844198952
 10
1530.8342539609
 20
56.6454209565
 10
1531.5786154635
 20
57.5713995892
 10
1532.1311008166
 20
58.6506691042
 10
1532.4250721328
 20
59.7530536696
 10
1532.4250721328
 20
60.7455894375
 10
1532.1311008166
 20
61.5085619458
 10
1531.5786154635
 20
61.9499454499
 10
1530.8342539609
 20
62.016502585
 10
1529.9877972917
 20
61.7002055784
  0
LINE
  5
14E
330
1F
100
AcDbEntity
  8
0
  6
Continuous
 62
     7
370
    25
100
AcDbLine
 10
1529.9877972917
 20
61.7002055784
 30
0.0
 11
1517.2598752303
 21
54.352532572
 31
0.0
  0
LWPOLYLINE
  5
14F
330
1F
100
AcDbEntity
  8
0
  6
Continuous
 62
     7
370
    25
100
AcDbPolyline
 90
       10
 70
   128
 43
0.0
 10
1517.2598752303
 20
54.352532572
 10
1516.4134185611
 20
53.6915315107
 10
1515.6690570585
 20
52.765552878
 10
1515.1165717054
 20
51.686283363
 10
1514.8226003892
 20
50.5838987975
 10
1514.8226003892
 20
49.5913630297
 10
1515.1165717054
 20
48.8283905214
 10
1515.6690570585
 20
48.3870070173
 10
1516.4134185611
 20
48.3204498822
 10
1517.2598752303
 20
48.6367468888
  0
LINE
  5
150
330
1F
100
AcDbEntity
  8
0
  6
Continuous
 62
     7
370
    25
100
AcDbLine
 10
1517.2598752303
 20
48.6367468888
 30
0.0
 11
1529.9877972917
 21
55.9844198952
 31
0.0
  0
LWPOLYLINE
  5
151
330
1F
100
AcDbEntity
  8
0
  6
Continuous
 62
     7
370
    25
100
AcDbPolyline
 90
       10
 70
   128
 43
0.0
 10
2896.1180985441
 20
850.3504415991
 10
2895.2716418748
 20
849.6894405378
 10
2894.5272803722
 20
848.7634619051
 10
2893.9747950192
 20
847.6841923901
 10
2893.680823703
 20
846.5818078247
 10
2893.680823703
 20
845.5892720569
 10
2893.9747950192
 20
844.8262995485
 10
2894.5272803722
 20
844.3849160444
 10
2895.2716418748
 20
844.3183589093
 10
2896.1180985441
 20
844.6346559159
  0
LINE
  5
152
330
1F
100
AcDbEntity
  8
0
  6
Continuous
 62
     7
370
    25
100
AcDbLine
 10
2896.1180985441
 20
844.6346559159
 30
0.0
 11
2908.8460206054
 21
851.9823289223
 31
0.0
  0
LWPOLYLINE
  5
153
330
1F
100
AcDbEntity
  8
0
  6
Continuous
 62
     7
370
    25
100
AcDbPolyline
 90
       10
 70
   128
 43
0.0
 10
2908.8460206054
 20
851.9823289223
 10
2909.6924772747
 20
852.6433299837
 10
2910.4368387773
 20
853.5693086164
 10
2910.9893241304
 20
854.6485781313
 10
2911.2832954466
 20
855.7509626968
 10
2911.2832954466
 20
856.7434984646
 10
2910.9893241304
 20
857.5064709729
 10
2910.4368387773
 20
857.947854477
 10
2909.6924772747
 20
858.0144116122
 10
2908.8460206054
 20
857.6981146055
  0
LINE
  5
154
330
1F
100
AcDbEntity
  8
0
  6
Continuous
 62
     7
370
    25
100
AcDbLine
 10
2908.8460206054
 20
857.6981146055
 30
0.0
 11
2896.1180985441
 21
850.3504415991
 31
0.0
  0
LWPOLYLINE
  5
155
330
1F
100
AcDbEntity
  8
0
  6
Continuous
 62
     7
370
    25
100
AcDbPolyline
 90
       10
 70
   128
 43
0.0
 10
2860.7627594848
 20
829.9402388036
 10
2859.9163028155
 20
829.2792377422
 10
2859.1719413129
 20
828.3532591095
 10
2858.6194559598
 20
827.2739895945
 10
2858.3254846436
 20
826.1716050291
 10
2858.3254846436
 20
825.1790692613
 10
2858.6194559598
 20
824.4160967529
 10
2859.1719413129
 20
823.9747132489
 10
2859.9163028155
 20
823.9081561137
 10
2860.7627594848
 20
824.2244531204
  0
LINE
  5
156
330
1F
100
AcDbEntity
  8
0
  6
Continuous
 62
     7
370
    25
100
AcDbLine
 10
2860.7627594848
 20
824.2244531204
 30
0.0
 11
2873.4906815461
 21
831.5721261268
 31
0.0
  0
LWPOLYLINE
  5
157
330
1F
100
AcDbEntity
  8
0
  6
Continuous
 62
     7
370
    25
100
AcDbPolyline
 90
       10
 70
   128
 43
0.0
 10
2873.4906815461
 20
831.5721261268
 10
2874.3371382154
 20
832.2331271881
 10
2875.081499718
 20
833.1591058208
 10
2875.6339850711
 20
834.2383753358
 10
2875.9279563872
 20
835.3407599012
 10
2875.9279563872
 20
836.333295669
 10
2875.6339850711
 20
837.0962681774
 10
2875.081499718
 20
837.5376516815
 10
2874.3371382154
 20
837.6042088166
 10
2873.4906815461
 20
837.28791181
  0
LINE
  5
158
330
1F
100
AcDbEntity
  8
0
  6
Continuous
 62
     7
370
    25
100
AcDbLine
 10
2873.4906815461
 20
837.28791181
 30
0.0
 11
2860.7627594848
 21
829.9402388036
 31
0.0
  0
LWPOLYLINE
  5
159
330
1F
100
AcDbEntity
  8
0
  6
Continuous
 62
     7
370
    25
100
AcDbPolyline
 90
       10
 70
   128
 43
0.0
 10
1565.343136351
 20
104.9735511068
 10
1566.1895930203
 20
105.6345521681
 10
1566.9339545229
 20
106.5605308008
 10
1567.4864398759
 20
107.6398003158
 10
1567.7804111921
 20
108.7421848812
 10
1567.7804111921
 20
109.734720649
 10
1567.4864398759
 20
110.4976931574
 10
1566.9339545229
 20
110.9390766615
 10
1566.1895930203
 20
111.0056337966
 10
1565.343136351
 20
110.68933679
  0
LINE
  5
15A
330
1F
100
AcDbEntity
  8
0
  6
Continuous
 62
     7
370
    25
100
AcDbLine
 10
1565.343136351
 20
110.68933679
 30
0.0
 11
1552.6152142896
 21
103.3416637836
 31
0.0
  0
LWPOLYLINE
  5
15B
330
1F
100
AcDbEntity
  8
0
  6
Continuous
 62
     7
370
    25
100
AcDbPolyline
 90
       10
 70
   128
 43
0.0
 10
1552.6152142896
 20
103.3416637836
 10
1551.7687576204
 20
102.6806627222
 10
1551.0243961178
 20
101.7546840895
 10
1550.4719107647
 20
100.6754145745
 10
1550.1779394485
 20
99.5730300091
 10
1550.1779394485
 20
98.5804942413
 10
1550.4719107647
 20
97.8175217329
 10
1551.0243961178
 20
97.3761382288
 10
1551.7687576204
 20
97.3095810937
 10
1552.6152142896
 20
97.6258781004
  0
LINE
  5
15C
330
1F
100
AcDbEntity
  8
0
  6
Continuous
 62
     7
370
    25
100
AcDbLine
 10
1552.6152142896
 20
97.6258781004
 30
0.0
 11
1565.343136351
 21
104.9735511068
 31
0.0
  0
LWPOLYLINE
  5
15D
330
1F
100
AcDbEntity
  8
0
  6
Continuous
 62
     7
370
    25
100
AcDbPolyline
 90
       10
 70
   128
 43
0.0
 10
2860.7627594848
 20
858.5191672196
 10
2859.9163028155
 20
857.8581661582
 10
2859.1719413129
 20
856.9321875255
 10
2858.6194559598
 20
855.8529180105
 10
2858.3254846436
 20
854.7505334451
 10
2858.3254846436
 20
853.7579976773
 10
2858.6194559598
 20
852.9950251689
 10
2859.1719413129
 20
852.5536416649
 10
2859.9163028155
 20
852.4870845297
 10
2860.7627594848
 20
852.8033815364
  0
LINE
  5
15E
330
1F
100
AcDbEntity
  8
0
  6
Continuous
 62
     7
370
    25
100
AcDbLine
 10
2860.7627594848
 20
852.8033815364
 30
0.0
 11
2873.4906815461
 21
860.1510545428
 31
0.0
  0
LWPOLYLINE
  5
15F
330
1F
100
AcDbEntity
  8
0
  6
Continuous
 62
     7
370
    25
100
AcDbPolyline
 90
       10
 70
   128
 43
0.0
 10
2873.4906815461
 20
860.1510545428
 10
2874.3371382154
 20
860.8120556041
 10
2875.081499718
 20
861.7380342368
 10
2875.6339850711
 20
862.8173037518
 10
2875.9279563872
 20
863.9196883172
 10
2875.9279563872
 20
864.912224085
 10
2875.6339850711
 20
865.6751965934
 10
2875.081499718
 20
866.1165800975
 10
2874.3371382154
 20
866.1831372326
 10
2873.4906815461
 20
865.866840226
  0
LINE
  5
160
330
1F
100
AcDbEntity
  8
0
  6
Continuous
 62
     7
370
    25
100
AcDbLine
 10
2873.4906815461
 20
865.866840226
 30
0.0
 11
2860.7627594848
 21
858.5191672196
 31
0.0
  0
LWPOLYLINE
  5
161
330
1F
100
AcDbEntity
  8
0
  6
Continuous
 62
     7
370
    25
100
AcDbPolyline
 90
       10
 70
   128
 43
0.0
 10
2896.1180985441
 20
878.9293700151
 10
2895.2716418748
 20
878.2683689538
 10
2894.5272803722
 20
877.3423903211
 10
2893.9747950192
 20
876.2631208061
 10
2893.680823703
 20
875.1607362407
 10
2893.680823703
 20
874.1682004729
 10
2893.9747950192
 20
873.4052279645
 10
2894.5272803722
 20
872.9638444604
 10
2895.2716418748
 20
872.8972873253
 10
2896.1180985441
 20
873.2135843319
  0
LINE
  5
162
330
1F
100
AcDbEntity
  8
0
  6
Continuous
 62
     7
370
    25
100
AcDbLine
 10
2896.1180985441
 20
873.2135843319
 30
0.0
 11
2908.8460206054
 21
880.5612573383
 31
0.0
  0
LWPOLYLINE
  5
163
330
1F
100
AcDbEntity
  8
0
  6
Continuous
 62
     7
370
    25
100
AcDbPolyline
 90
       10
 70
   128
 43
0.0
 10
2908.8460206054
 20
880.5612573383
 10
2909.6924772747
 20
881.2222583997
 10
2910.4368387773
 20
882.1482370324
 10
2910.9893241304
 20
883.2275065473
 10
2911.2832954466
 20
884.3298911128
 10
2911.2832954466
 20
885.3224268806
 10
2910.9893241304
 20
886.0853993889
 10
2910.4368387773
 20
886.526782893
 10
2909.6924772747
 20
886.5933400282
 10
2908.8460206054
 20
886.2770430215
  0
LINE
  5
164
330
1F
100
AcDbEntity
  8
0
  6
Continuous
 62
     7
370
    25
100
AcDbLine
 10
2908.8460206054
 20
886.2770430215
 30
0.0
 11
2896.1180985441
 21
878.9293700151
 31
0.0
  0
LWPOLYLINE
  5
165
330
1F
100
AcDbEntity
  8
0
  6
Continuous
 62
     7
370
    25
100
AcDbPolyline
 90
       10
 70
   128
 43
0.0
 10
1529.9877972917
 20
84.5633483112
 10
1530.8342539609
 20
85.2243493725
 10
1531.5786154635
 20
86.1503280052
 10
1532.1311008166
 20
87.2295975202
 10
1532.4250721328
 20
88.3319820856
 10
1532.4250721328
 20
89.3245178535
 10
1532.1311008166
 20
90.0874903618
 10
1531.5786154635
 20
90.5288738659
 10
1530.8342539609
 20
90.595431001
 10
1529.9877972917
 20
90.2791339944
  0
LINE
  5
166
330
1F
100
AcDbEntity
  8
0
  6
Continuous
 62
     7
370
    25
100
AcDbLine
 10
1529.9877972917
 20
90.2791339944
 30
0.0
 11
1517.2598752303
 21
82.931460988
 31
0.0
  0
LWPOLYLINE
  5
167
330
1F
100
AcDbEntity
  8
0
  6
Continuous
 62
     7
370
    25
100
AcDbPolyline
 90
       10
 70
   128
 43
0.0
 10
1517.2598752303
 20
82.931460988
 10
1516.4134185611
 20
82.2704599267
 10
1515.6690570585
 20
81.344481294
 10
1515.1165717054
 20
80.265211779
 10
1514.8226003892
 20
79.1628272135
 10
1514.8226003892
 20
78.1702914457
 10
1515.1165717054
 20
77.4073189374
 10
1515.6690570585
 20
76.9659354333
 10
1516.4134185611
 20
76.8993782982
 10
1517.2598752303
 20
77.2156753048
  0
LINE
  5
168
330
1F
100
AcDbEntity
  8
0
  6
Continuous
 62
     7
370
    25
100
AcDbLine
 10
1517.2598752303
 20
77.2156753048
 30
0.0
 11
1529.9877972917
 21
84.5633483112
 31
0.0
  0
LINE
  5
169
330
1F
100
AcDbEntity
  8
0
  6
Continuous
 62
     7
370
    25
100
AcDbLine
 10
1504.8855065596
 20
100.283915316
 30
0.0
 11
1504.8855065596
 21
32.9192983354
 31
0.0
  0
LWPOLYLINE
  5
16A
330
1F
100
AcDbEntity
  8
0
  6
Continuous
 62
     7
370
    25
100
AcDbPolyline
 90
        3
 70
   128
 43
0.0
 10
1516.1992150585
 20
77.8279813887
 10
1515.3527583893
 20
77.511684382
 10
1515.0619589653
 20
77.4910642081
  0
LINE
  5
16B
330
1F
100
AcDbEntity
  8
0
  6
Continuous
 62
     7
370
    25
100
AcDbLine
 10
1528.9271371199
 20
85.1756543951
 30
0.0
 11
1516.1992150585
 21
77.8279813887
 31
0.0
  0
ARC
  5
16C
330
1F
100
AcDbEntity
  8
0
  6
Continuous
 62
     7
370
    25
100
AcDbCircle
 10
1526.7538876313
 20
89.2178222376
 30
0.0
 40
4.589350085423082
100
AcDbArc
 50
298.2644546682
 51
17.7382019342
  0
LWPOLYLINE
  5
16D
330
1F
100
AcDbEntity
  8
0
  6
Continuous
 62
     7
370
    25
100
AcDbPolyline
 90
        3
 70
   128
 43
0.0
 10
1516.1992150585
 20
49.2490529727
 10
1515.3527583893
 20
48.932755966
 10
1515.0619589653
 20
48.9121357921
  0
LINE
  5
16E
330
1F
100
AcDbEntity
  8
0
  6
Continuous
 62
     7
370
    25
100
AcDbLine
 10
1504.1783997784
 20
31.2861503616
 30
0.0
 11
1505.9461667313
 21
30.2656402219
 31
0.0
  0
LINE
  5
16F
330
1F
100
AcDbEntity
  8
0
  6
Continuous
 62
     7
370
    25
100
AcDbLine
 10
1504.1783997784
 20
32.5109615795
 30
0.0
 11
1504.8855065596
 21
32.1027575236
 31
0.0
  0
LINE
  5
170
330
1F
100
AcDbEntity
  8
0
  6
Continuous
 62
     7
370
    25
100
AcDbLine
 10
1504.8855065596
 20
32.1027575236
 30
0.0
 11
1504.8855065596
 21
32.9192983354
 31
0.0
  0
LINE
  5
171
330
1F
100
AcDbEntity
  8
0
  6
Continuous
 62
     7
370
    25
100
AcDbLine
 10
1082.7427581912
 20
275.8005789026
 30
0.0
 11
1083.4498649724
 21
275.3923748467
 31
0.0
  0
LINE
  5
172
330
1F
100
AcDbEntity
  8
0
  6
Continuous
 62
     7
370
    25
100
AcDbLine
 10
2496.9563205643
 20
1092.2086907253
 30
0.0
 11
1082.7427581912
 21
275.8005789026
 31
0.0
  0
LINE
  5
173
330
1F
100
AcDbEntity
  8
0
  6
Continuous
 62
     7
370
    25
100
AcDbLine
 10
2496.9563205643
 20
1092.2086907253
 30
0.0
 11
2497.6634273455
 21
1091.8004866694
 31
0.0
  0
LINE
  5
174
330
1F
100
AcDbEntity
  8
0
  6
Continuous
 62
     7
370
    25
100
AcDbLine
 10
2909.3487593611
 20
854.1396032509
 30
0.0
 11
2906.0152947991
 21
856.0639713813
 31
0.0
  0
LINE
  5
175
330
1F
100
AcDbEntity
  8
0
  6
Continuous
 62
     7
370
    25
100
AcDbLine
 10
2843.8047036853
 20
891.9773811928
 30
0.0
 11
2497.6634273455
 21
1091.8004866694
 31
0.0
  0
LINE
  5
176
330
1F
100
AcDbEntity
  8
0
  6
Continuous
 62
     7
370
    25
100
AcDbLine
 10
1504.1783997784
 20
32.5109615795
 30
0.0
 11
1083.4498649724
 21
275.3923748467
 31
0.0
  0
ARC
  5
177
330
1F
100
AcDbEntity
  8
0
  6
Continuous
 62
     7
370
    25
100
AcDbCircle
 10
2689.7978454644
 20
963.4203110853
 30
0.0
 40
0.4366153168343392
100
AcDbArc
 50
110.7834207995
 51
249.2165792005
  0
LINE
  5
178
330
1F
100
AcDbEntity
  8
0
  6
Continuous
 62
     7
370
    25
100
AcDbLine
 10
2689.6429184376
 20
963.0121070294
 30
0.0
 11
2695.2997726871
 21
959.7464745821
 31
0.0
  0
ARC
  5
179
330
1F
100
AcDbEntity
  8
0
  6
Continuous
 62
     7
370
    25
100
AcDbCircle
 10
2696.0068794683
 20
961.1111856671
 30
0.0
 40
1.537021907911521
100
AcDbArc
 50
242.6096722366
 51
297.3903277634
  0
LINE
  5
17A
330
1F
100
AcDbEntity
  8
0
  6
Continuous
 62
     7
370
    25
100
AcDbLine
 10
2696.7139862495
 20
959.7464745821
 30
0.0
 11
2700.2495201554
 21
961.7874948617
 31
0.0
  0
ARC
  5
17B
330
1F
100
AcDbEntity
  8
0
  6
Continuous
 62
     7
370
    25
100
AcDbCircle
 10
2700.0945931286
 20
962.1956989176
 30
0.0
 40
0.4366153168346069
100
AcDbArc
 50
290.7834207996
 51
69.2165792005
  0
LINE
  5
17C
330
1F
100
AcDbEntity
  8
0
  6
Continuous
 62
     7
370
    25
100
AcDbLine
 10
2700.2495201554
 20
962.6039029735
 30
0.0
 11
2694.5926659059
 21
965.8695354208
 31
0.0
  0
ARC
  5
17D
330
1F
100
AcDbEntity
  8
0
  6
Continuous
 62
     7
370
    25
100
AcDbCircle
 10
2693.8855591247
 20
964.5048243358
 30
0.0
 40
1.537021907912422
100
AcDbArc
 50
62.6096722366
 51
117.3903277634
  0
LINE
  5
17E
330
1F
100
AcDbEntity
  8
0
  6
Continuous
 62
     7
370
    25
100
AcDbLine
 10
2693.1784523436
 20
965.8695354208
 30
0.0
 11
2689.6429184376
 21
963.8285151412
 31
0.0
  0
ARC
  5
17F
330
1F
100
AcDbEntity
  8
0
  6
Continuous
 62
     7
370
    25
100
AcDbCircle
 10
1301.7472339952
 20
162.1157493313
 30
0.0
 40
0.4366153168342585
100
AcDbArc
 50
110.7834207995
 51
249.2165792005
  0
LINE
  5
180
330
1F
100
AcDbEntity
  8
0
  6
Continuous
 62
     7
370
    25
100
AcDbLine
 10
1301.5923069684
 20
161.7075452754
 30
0.0
 11
1307.2491612179
 21
158.4419128281
 31
0.0
  0
ARC
  5
181
330
1F
100
AcDbEntity
  8
0
  6
Continuous
 62
     7
370
    25
100
AcDbCircle
 10
1307.9562679991
 20
159.8066239131
 30
0.0
 40
1.537021907911571
100
AcDbArc
 50
242.6096722366
 51
297.3903277634
  0
LINE
  5
182
330
1F
100
AcDbEntity
  8
0
  6
Continuous
 62
     7
370
    25
100
AcDbLine
 10
1308.6633747803
 20
158.4419128281
 30
0.0
 11
1312.1989086862
 21
160.4829331077
 31
0.0
  0
ARC
  5
183
330
1F
100
AcDbEntity
  8
0
  6
Continuous
 62
     7
370
    25
100
AcDbCircle
 10
1312.0439816594
 20
160.8911371636
 30
0.0
 40
0.4366153168342319
100
AcDbArc
 50
290.7834207995
 51
69.2165792006
  0
LINE
  5
184
330
1F
100
AcDbEntity
  8
0
  6
Continuous
 62
     7
370
    25
100
AcDbLine
 10
1312.1989086862
 20
161.2993412195
 30
0.0
 11
1306.5420544367
 21
164.5649736668
 31
0.0
  0
ARC
  5
185
330
1F
100
AcDbEntity
  8
0
  6
Continuous
 62
     7
370
    25
100
AcDbCircle
 10
1305.8349476555
 20
163.2002625818
 30
0.0
 40
1.537021907912029
100
AcDbArc
 50
62.6096722366
 51
117.3903277634
  0
LINE
  5
186
330
1F
100
AcDbEntity
  8
0
  6
Continuous
 62
     7
370
    25
100
AcDbLine
 10
1305.1278408744
 20
164.5649736668
 30
0.0
 11
1301.5923069684
 21
162.5239533872
 31
0.0
  0
LINE
  5
187
330
1F
100
AcDbEntity
  8
0
  6
Continuous
 62
     7
370
    25
100
AcDbLine
 10
1104.3095150174
 20
276.4128849865
 30
0.0
 11
1117.0374370787
 21
283.7605579929
 31
0.0
  0
LWPOLYLINE
  5
188
330
1F
100
AcDbEntity
  8
0
  6
Continuous
 62
     7
370
    25
100
AcDbPolyline
 90
       10
 70
   128
 43
0.0
 10
1117.0374370787
 20
283.7605579929
 10
1117.7346405992
 20
284.3353690357
 10
1118.0492447879
 20
285.013173401
 10
1117.9433037366
 20
285.712217879
 10
1117.4295954996
 20
286.3481873889
 10
1116.5700808718
 20
286.8443746218
 10
1115.4684300024
 20
287.1409320747
 10
1114.257518245
 20
287.2020905418
 10
1113.0833994285
 20
287.0204734095
 10
1112.0876896104
 20
286.6179863843
  0
LINE
  5
189
330
1F
100
AcDbEntity
  8
0
  6
Continuous
 62
     7
370
    25
100
AcDbLine
 10
1112.0876896104
 20
286.6179863843
 30
0.0
 11
1099.3597675491
 21
279.2703133779
 31
0.0
  0
LWPOLYLINE
  5
18A
330
1F
100
AcDbEntity
  8
0
  6
Continuous
 62
     7
370
    25
100
AcDbPolyline
 90
       10
 70
   128
 43
0.0
 10
1099.3597675491
 20
279.2703133779
 10
1098.6625640286
 20
278.6955023351
 10
1098.3479598399
 20
278.0176979698
 10
1098.4539008912
 20
277.3186534918
 10
1098.9676091282
 20
276.6826839819
 10
1099.827123756
 20
276.186496749
 10
1100.9287746254
 20
275.8899392961
 10
1102.1396863828
 20
275.828780829
 10
1103.3138051993
 20
276.0103979613
 10
1104.3095150174
 20
276.4128849865
  0
LINE
  5
18B
330
1F
100
AcDbEntity
  8
0
  6
Continuous
 62
     7
370
    25
100
AcDbLine
 10
2455.5905738649
 20
1062.2056926159
 30
0.0
 11
2442.8626518035
 21
1054.8580196095
 31
0.0
  0
LWPOLYLINE
  5
18C
330
1F
100
AcDbEntity
  8
0
  6
Continuous
 62
     7
370
    25
100
AcDbPolyline
 90
       10
 70
   128
 43
0.0
 10
2442.8626518035
 20
1054.8580196095
 10
2442.165448283
 20
1054.2832085667
 10
2441.8508440943
 20
1053.6054042014
 10
2441.9567851457
 20
1052.9063597234
 10
2442.4704933827
 20
1052.2703902135
 10
2443.3300080104
 20
1051.7742029805
 10
2444.4316588798
 20
1051.4776455277
 10
2445.6425706373
 20
1051.4164870606
 10
2446.8166894538
 20
1051.5981041929
 10
2447.8123992718
 20
1052.0005912181
  0
LINE
  5
18D
330
1F
100
AcDbEntity
  8
0
  6
Continuous
 62
     7
370
    25
100
AcDbLine
 10
2447.8123992718
 20
1052.0005912181
 30
0.0
 11
2460.5403213332
 21
1059.3482642245
 31
0.0
  0
LWPOLYLINE
  5
18E
330
1F
100
AcDbEntity
  8
0
  6
Continuous
 62
     7
370
    25
100
AcDbPolyline
 90
       10
 70
   128
 43
0.0
 10
2460.5403213332
 20
1059.3482642245
 10
2461.2375248537
 20
1059.9230752673
 10
2461.5521290423
 20
1060.6008796325
 10
2461.446187991
 20
1061.2999241105
 10
2460.932479754
 20
1061.9358936204
 10
2460.0729651263
 20
1062.4320808534
 10
2458.9713142569
 20
1062.7286383062
 10
2457.7604024994
 20
1062.7897967734
 10
2456.5862836829
 20
1062.6081796411
 10
2455.5905738649
 20
1062.2056926159
  0
LINE
  5
18F
330
1F
100
AcDbEntity
  8
0
  6
Continuous
 62
     7
370
    25
100
AcDbLine
 10
2897.5323121065
 20
847.8985632624
 30
0.0
 11
2893.6688748916
 21
845.6682484318
 31
0.0
  0
ARC
  5
190
330
1F
100
AcDbEntity
  8
0
  6
Continuous
 62
     7
370
    25
100
AcDbCircle
 10
2899.9877715412
 20
843.1578899366
 30
0.0
 40
5.338844876748664
100
AcDbArc
 50
83.1834142245
 51
117.3821616972
  0
LINE
  5
191
330
1F
100
AcDbEntity
  8
0
  6
Continuous
 62
     7
370
    25
100
AcDbLine
 10
2862.1769730471
 20
827.4883604668
 30
0.0
 11
2858.3135358323
 21
825.2580456363
 31
0.0
  0
ARC
  5
192
330
1F
100
AcDbEntity
  8
0
  6
Continuous
 62
     7
370
    25
100
AcDbCircle
 10
2864.6324324819
 20
822.747687141
 30
0.0
 40
5.338844876746847
100
AcDbArc
 50
83.1834142245
 51
117.3821616972
  0
LINE
  5
193
330
1F
100
AcDbEntity
  8
0
  6
Continuous
 62
     7
370
    25
100
AcDbLine
 10
1139.6648540767
 20
296.8230877821
 30
0.0
 11
1152.3927761381
 21
304.1707607885
 31
0.0
  0
LWPOLYLINE
  5
194
330
1F
100
AcDbEntity
  8
0
  6
Continuous
 62
     7
370
    25
100
AcDbPolyline
 90
       10
 70
   128
 43
0.0
 10
1152.3927761381
 20
304.1707607885
 10
1153.0899796585
 20
304.7455718312
 10
1153.4045838472
 20
305.4233761965
 10
1153.2986427959
 20
306.1224206745
 10
1152.7849345589
 20
306.7583901844
 10
1151.9254199311
 20
307.2545774174
 10
1150.8237690618
 20
307.5511348702
 10
1149.6128573043
 20
307.6122933374
 10
1148.4387384878
 20
307.430676205
 10
1147.4430286698
 20
307.0281891799
  0
LINE
  5
195
330
1F
100
AcDbEntity
  8
0
  6
Continuous
 62
     7
370
    25
100
AcDbLine
 10
1147.4430286698
 20
307.0281891799
 30
0.0
 11
1134.7151066084
 21
299.6805161735
 31
0.0
  0
LWPOLYLINE
  5
196
330
1F
100
AcDbEntity
  8
0
  6
Continuous
 62
     7
370
    25
100
AcDbPolyline
 90
       10
 70
   128
 43
0.0
 10
1134.7151066084
 20
299.6805161735
 10
1134.0179030879
 20
299.1057051307
 10
1133.7032988992
 20
298.4279007654
 10
1133.8092399505
 20
297.7288562874
 10
1134.3229481875
 20
297.0928867775
 10
1135.1824628153
 20
296.5966995445
 10
1136.2841136847
 20
296.3001420917
 10
1137.4950254422
 20
296.2389836246
 10
1138.6691442586
 20
296.4206007569
 10
1139.6648540767
 20
296.8230877821
  0
ARC
  5
197
330
1F
100
AcDbEntity
  8
0
  6
Continuous
 62
     7
370
    25
100
AcDbCircle
 10
1521.1295482274
 20
47.1599809094
 30
0.0
 40
5.338844876746684
100
AcDbArc
 50
83.1834142245
 51
117.3821616972
  0
LINE
  5
198
330
1F
100
AcDbEntity
  8
0
  6
Continuous
 62
     7
370
    25
100
AcDbLine
 10
1518.6740887927
 20
51.9006542353
 30
0.0
 11
1514.8106515778
 21
49.6703394047
 31
0.0
  0
ARC
  5
199
330
1F
100
AcDbEntity
  8
0
  6
Continuous
 62
     7
370
    25
100
AcDbCircle
 10
1556.4848872868
 20
67.570183705
 30
0.0
 40
5.338844876746364
100
AcDbArc
 50
83.1834142245
 51
117.3821616972
  0
LINE
  5
19A
330
1F
100
AcDbEntity
  8
0
  6
Continuous
 62
     7
370
    25
100
AcDbLine
 10
1554.029427852
 20
72.3108570308
 30
0.0
 11
1550.1659906371
 21
70.0805422003
 31
0.0
  0
LINE
  5
19B
330
1F
100
AcDbEntity
  8
0
  6
Continuous
 62
     7
370
    25
100
AcDbLine
 10
2490.9459129242
 20
1082.6158954114
 30
0.0
 11
2478.2179908628
 21
1075.268222405
 31
0.0
  0
LWPOLYLINE
  5
19C
330
1F
100
AcDbEntity
  8
0
  6
Continuous
 62
     7
370
    25
100
AcDbPolyline
 90
       10
 70
   128
 43
0.0
 10
2478.2179908628
 20
1075.268222405
 10
2477.5207873424
 20
1074.6934113623
 10
2477.2061831537
 20
1074.015606997
 10
2477.312124205
 20
1073.316562519
 10
2477.825832442
 20
1072.6805930091
 10
2478.6853470698
 20
1072.1844057761
 10
2479.7869979391
 20
1071.8878483233
 10
2480.9979096966
 20
1071.8266898561
 10
2482.1720285131
 20
1072.0083069885
 10
2483.1677383311
 20
1072.4107940136
  0
LINE
  5
19D
330
1F
100
AcDbEntity
  8
0
  6
Continuous
 62
     7
370
    25
100
AcDbLine
 10
2483.1677383311
 20
1072.4107940136
 30
0.0
 11
2495.8956603925
 21
1079.75846702
 31
0.0
  0
LWPOLYLINE
  5
19E
330
1F
100
AcDbEntity
  8
0
  6
Continuous
 62
     7
370
    25
100
AcDbPolyline
 90
       10
 70
   128
 43
0.0
 10
2495.8956603925
 20
1079.75846702
 10
2496.592863913
 20
1080.3332780628
 10
2496.9074681017
 20
1081.0110824281
 10
2496.8015270504
 20
1081.7101269061
 10
2496.2878188134
 20
1082.346096416
 10
2495.4283041856
 20
1082.842283649
 10
2494.3266533162
 20
1083.1388411018
 10
2493.1157415587
 20
1083.1999995689
 10
2491.9416227423
 20
1083.0183824366
 10
2490.9459129242
 20
1082.6158954114
  0
ARC
  5
19F
330
1F
100
AcDbEntity
  8
0
  6
Continuous
 62
     7
370
    25
100
AcDbCircle
 10
1160.3258777579
 20
243.7565605136
 30
0.0
 40
0.4366153168342045
100
AcDbArc
 50
110.7834207994
 51
249.2165792006
  0
LINE
  5
1A0
330
1F
100
AcDbEntity
  8
0
  6
Continuous
 62
     7
370
    25
100
AcDbLine
 10
1160.1709507311
 20
243.3483564577
 30
0.0
 11
1165.8278049806
 21
240.0827240104
 31
0.0
  0
ARC
  5
1A1
330
1F
100
AcDbEntity
  8
0
  6
Continuous
 62
     7
370
    25
100
AcDbCircle
 10
1166.5349117618
 20
241.4474350953
 30
0.0
 40
1.537021907911723
100
AcDbArc
 50
242.6096722366
 51
297.3903277634
  0
LINE
  5
1A2
330
1F
100
AcDbEntity
  8
0
  6
Continuous
 62
     7
370
    25
100
AcDbLine
 10
1167.242018543
 20
240.0827240104
 30
0.0
 11
1170.7775524489
 21
242.12374429
 31
0.0
  0
ARC
  5
1A3
330
1F
100
AcDbEntity
  8
0
  6
Continuous
 62
     7
370
    25
100
AcDbCircle
 10
1170.6226254221
 20
242.5319483459
 30
0.0
 40
0.4366153168343658
100
AcDbArc
 50
290.7834207995
 51
69.2165792005
  0
LINE
  5
1A4
330
1F
100
AcDbEntity
  8
0
  6
Continuous
 62
     7
370
    25
100
AcDbLine
 10
1170.7775524489
 20
242.9401524018
 30
0.0
 11
1165.1206981994
 21
246.2057848491
 31
0.0
  0
ARC
  5
1A5
330
1F
100
AcDbEntity
  8
0
  6
Continuous
 62
     7
370
    25
100
AcDbCircle
 10
1164.4135914182
 20
244.8410737641
 30
0.0
 40
1.537021907911647
100
AcDbArc
 50
62.6096722366
 51
117.3903277634
  0
LINE
  5
1A6
330
1F
100
AcDbEntity
  8
0
  6
Continuous
 62
     7
370
    25
100
AcDbLine
 10
1163.706484637
 20
246.2057848491
 30
0.0
 11
1160.1709507311
 21
244.1647645695
 31
0.0
  0
ARC
  5
1A7
330
1F
100
AcDbEntity
  8
0
  6
Continuous
 62
     7
370
    25
100
AcDbCircle
 10
1443.1685902325
 20
80.4749381491
 30
0.0
 40
0.4366153168344066
100
AcDbArc
 50
110.7834207995
 51
249.2165792005
  0
LINE
  5
1A8
330
1F
100
AcDbEntity
  8
0
  6
Continuous
 62
     7
370
    25
100
AcDbLine
 10
1443.0136632057
 20
80.0667340931
 30
0.0
 11
1448.6705174552
 21
76.8011016459
 31
0.0
  0
ARC
  5
1A9
330
1F
100
AcDbEntity
  8
0
  6
Continuous
 62
     7
370
    25
100
AcDbCircle
 10
1449.3776242364
 20
78.1658127308
 30
0.0
 40
1.537021907912388
100
AcDbArc
 50
242.6096722366
 51
297.3903277634
  0
LINE
  5
1AA
330
1F
100
AcDbEntity
  8
0
  6
Continuous
 62
     7
370
    25
100
AcDbLine
 10
1450.0847310176
 20
76.8011016459
 30
0.0
 11
1453.6202649235
 21
78.8421219254
 31
0.0
  0
ARC
  5
1AB
330
1F
100
AcDbEntity
  8
0
  6
Continuous
 62
     7
370
    25
100
AcDbCircle
 10
1453.4653378967
 20
79.2503259813
 30
0.0
 40
0.4366153168342861
100
AcDbArc
 50
290.7834207995
 51
69.2165792006
  0
LINE
  5
1AC
330
1F
100
AcDbEntity
  8
0
  6
Continuous
 62
     7
370
    25
100
AcDbLine
 10
1453.6202649235
 20
79.6585300372
 30
0.0
 11
1447.963410674
 21
82.9241624845
 31
0.0
  0
ARC
  5
1AD
330
1F
100
AcDbEntity
  8
0
  6
Continuous
 62
     7
370
    25
100
AcDbCircle
 10
1447.2563038929
 20
81.5594513996
 30
0.0
 40
1.537021907911
100
AcDbArc
 50
62.6096722366
 51
117.3903277634
  0
LINE
  5
1AE
330
1F
100
AcDbEntity
  8
0
  6
Continuous
 62
     7
370
    25
100
AcDbLine
 10
1446.5491971117
 20
82.9241624845
 30
0.0
 11
1443.0136632057
 21
80.883142205
 31
0.0
  0
ARC
  5
1AF
330
1F
100
AcDbEntity
  8
0
  6
Continuous
 62
     7
370
    25
100
AcDbCircle
 10
2548.3764892271
 20
1045.0611222676
 30
0.0
 40
0.4366153168344455
100
AcDbArc
 50
110.7834207995
 51
249.2165792005
  0
LINE
  5
1B0
330
1F
100
AcDbEntity
  8
0
  6
Continuous
 62
     7
370
    25
100
AcDbLine
 10
2548.2215622003
 20
1044.6529182117
 30
0.0
 11
2553.8784164498
 21
1041.3872857644
 31
0.0
  0
ARC
  5
1B1
330
1F
100
AcDbEntity
  8
0
  6
Continuous
 62
     7
370
    25
100
AcDbCircle
 10
2554.585523231
 20
1042.7519968493
 30
0.0
 40
1.537021907910598
100
AcDbArc
 50
242.6096722366
 51
297.3903277634
  0
LINE
  5
1B2
330
1F
100
AcDbEntity
  8
0
  6
Continuous
 62
     7
370
    25
100
AcDbLine
 10
2555.2926300122
 20
1041.3872857644
 30
0.0
 11
2558.8281639181
 21
1043.4283060439
 31
0.0
  0
ARC
  5
1B3
330
1F
100
AcDbEntity
  8
0
  6
Continuous
 62
     7
370
    25
100
AcDbCircle
 10
2558.6732368913
 20
1043.8365100999
 30
0.0
 40
0.4366153168344455
100
AcDbArc
 50
290.7834207995
 51
69.2165792005
  0
LINE
  5
1B4
330
1F
100
AcDbEntity
  8
0
  6
Continuous
 62
     7
370
    25
100
AcDbLine
 10
2558.8281639181
 20
1044.2447141558
 30
0.0
 11
2553.1713096686
 21
1047.5103466031
 31
0.0
  0
ARC
  5
1B5
330
1F
100
AcDbEntity
  8
0
  6
Continuous
 62
     7
370
    25
100
AcDbCircle
 10
2552.4642028874
 20
1046.1456355181
 30
0.0
 40
1.537021907912026
100
AcDbArc
 50
62.6096722366
 51
117.3903277634
  0
LINE
  5
1B6
330
1F
100
AcDbEntity
  8
0
  6
Continuous
 62
     7
370
    25
100
AcDbLine
 10
2551.7570961062
 20
1047.5103466031
 30
0.0
 11
2548.2215622003
 21
1045.4693263235
 31
0.0
  0
LINE
  5
1B7
330
1F
100
AcDbEntity
  8
0
  6
Continuous
 62
     7
370
    25
100
AcDbLine
 10
1504.1783997784
 20
31.2861503616
 30
0.0
 11
1083.4498649724
 21
274.1675636289
 31
0.0
  0
LINE
  5
1B8
330
1F
100
AcDbEntity
  8
0
  6
Continuous
 62
     7
370
    25
100
AcDbLine
 10
1528.9271371199
 20
56.5967259791
 30
0.0
 11
1516.1992150585
 21
49.2490529727
 31
0.0
  0
LWPOLYLINE
  5
1B9
330
1F
100
AcDbEntity
  8
0
  6
Continuous
 62
     7
370
    25
100
AcDbPolyline
 90
        3
 70
   128
 43
0.0
 10
1551.5545541179
 20
98.2381841842
 10
1550.7080974486
 20
97.9218871776
 10
1550.4172980246
 20
97.9012670036
  0
ARC
  5
1BA
330
1F
100
AcDbEntity
  8
0
  6
Continuous
 62
     7
370
    25
100
AcDbCircle
 10
1526.7538876313
 20
60.6388938216
 30
0.0
 40
4.589350085428215
100
AcDbArc
 50
298.2644546682
 51
17.7382019341
  0
LINE
  5
1BB
330
1F
100
AcDbEntity
  8
0
  6
Continuous
 62
     7
370
    25
100
AcDbLine
 10
1564.2824761792
 20
105.5858571906
 30
0.0
 11
1551.5545541179
 21
98.2381841842
 31
0.0
  0
ARC
  5
1BC
330
1F
100
AcDbEntity
  8
0
  6
Continuous
 62
     7
370
    25
100
AcDbCircle
 10
1562.1092266907
 20
109.6280250331
 30
0.0
 40
4.589350085428549
100
AcDbArc
 50
298.2644546682
 51
17.738201934
  0
LWPOLYLINE
  5
1BD
330
1F
100
AcDbEntity
  8
0
  6
Continuous
 62
     7
370
    25
100
AcDbPolyline
 90
        3
 70
   128
 43
0.0
 10
1551.5545541179
 20
69.6592557682
 10
1550.7080974486
 20
69.3429587616
 10
1550.4172980246
 20
69.3223385876
  0
LINE
  5
1BE
330
1F
100
AcDbEntity
  8
0
  6
Continuous
 62
     7
370
    25
100
AcDbLine
 10
1564.2824761792
 20
77.0069287746
 30
0.0
 11
1551.5545541179
 21
69.6592557682
 31
0.0
  0
ARC
  5
1BF
330
1F
100
AcDbEntity
  8
0
  6
Continuous
 62
     7
370
    25
100
AcDbCircle
 10
1562.1092266907
 20
81.0490966172
 30
0.0
 40
4.589350085445276
100
AcDbArc
 50
298.2644546683
 51
17.7382019335
  0
LINE
  5
1C0
330
1F
100
AcDbEntity
  8
0
  6
Continuous
 62
     7
370
    25
100
AcDbLine
 10
1453.2665391318
 20
78.6379203724
 30
0.0
 11
1447.963410674
 21
81.6993512667
 31
0.0
  0
LINE
  5
1C1
330
1F
100
AcDbEntity
  8
0
  6
Continuous
 62
     7
370
    25
100
AcDbLine
 10
1446.5491971117
 20
81.6993512667
 30
0.0
 11
1443.3673889974
 21
79.8625325401
 31
0.0
  0
ARC
  5
1C2
330
1F
100
AcDbEntity
  8
0
  6
Continuous
 62
     7
370
    25
100
AcDbCircle
 10
1447.2563038929
 20
80.3346401817
 30
0.0
 40
1.537021907911442
100
AcDbArc
 50
62.6096722366
 51
117.3903277634
  0
LINE
  5
1C3
330
1F
100
AcDbEntity
  8
0
  6
Continuous
 62
     7
370
    25
100
AcDbLine
 10
1311.8451828945
 20
160.2787315547
 30
0.0
 11
1306.5420544367
 21
163.340162449
 31
0.0
  0
LINE
  5
1C4
330
1F
100
AcDbEntity
  8
0
  6
Continuous
 62
     7
370
    25
100
AcDbLine
 10
1305.1278408744
 20
163.340162449
 30
0.0
 11
1301.9460327601
 21
161.5033437224
 31
0.0
  0
ARC
  5
1C5
330
1F
100
AcDbEntity
  8
0
  6
Continuous
 62
     7
370
    25
100
AcDbCircle
 10
1305.8349476555
 20
161.975451364
 30
0.0
 40
1.53702190791195
100
AcDbArc
 50
62.6096722366
 51
117.3903277634
  0
LINE
  5
1C6
330
1F
100
AcDbEntity
  8
0
  6
Continuous
 62
     7
370
    25
100
AcDbLine
 10
1085.0614791422
 20
346.8695551361
 30
0.0
 11
1082.3135662782
 21
345.7932702914
 31
0.0
  0
LINE
  5
1C7
330
1F
100
AcDbEntity
  8
0
  6
Continuous
 62
     7
370
    25
100
AcDbLine
 10
1082.03565141
 20
352.7804514355
 30
0.0
 11
1085.0614791422
 21
346.8695551361
 31
0.0
  0
LINE
  5
1C8
330
1F
100
AcDbEntity
  8
0
  6
Continuous
 62
     7
370
    25
100
AcDbLine
 10
1085.9884309357
 20
354.3286507084
 30
0.0
 11
1082.03565141
 21
352.7804514355
 31
0.0
  0
LINE
  5
1C9
330
1F
100
AcDbEntity
  8
0
  6
Continuous
 62
     7
370
    25
100
AcDbLine
 10
1088.3996124407
 20
352.9367052539
 30
0.0
 11
1085.9884309357
 21
354.3286507084
 31
0.0
  0
LINE
  5
1CA
330
1F
100
AcDbEntity
  8
0
  6
Continuous
 62
     7
370
    25
100
AcDbLine
 10
1088.3996124407
 20
346.5781362343
 30
0.0
 11
1088.3996124407
 21
352.9367052539
 31
0.0
  0
LINE
  5
1CB
330
1F
100
AcDbEntity
  8
0
  6
Continuous
 62
     7
370
    25
100
AcDbLine
 10
1088.3996124407
 20
346.5781362343
 30
0.0
 11
1082.9953454947
 21
344.4614277001
 31
0.0
  0
LINE
  5
1CC
330
1F
100
AcDbEntity
  8
0
  6
Continuous
 62
     7
370
    25
100
AcDbLine
 10
2502.6131748138
 20
1169.3448170766
 30
0.0
 11
1088.3996124407
 21
352.9367052539
 31
0.0
  0
LINE
  5
1CD
330
1F
100
AcDbEntity
  8
0
  6
Continuous
 62
     7
370
    25
100
AcDbLine
 10
2500.2019933088
 20
1170.7367625311
 30
0.0
 11
1085.9884309357
 21
354.3286507084
 31
0.0
  0
LINE
  5
1CE
330
1F
100
AcDbEntity
  8
0
  6
Continuous
 62
     7
370
    25
100
AcDbLine
 10
2502.6131748138
 20
1169.3448170766
 30
0.0
 11
2500.2019933088
 21
1170.7367625311
 31
0.0
  0
LINE
  5
1CF
330
1F
100
AcDbEntity
  8
0
  6
Continuous
 62
     7
370
    25
100
AcDbLine
 10
2502.6131748138
 20
1162.986248057
 30
0.0
 11
1088.3996124407
 21
346.5781362343
 31
0.0
  0
LINE
  5
1D0
330
1F
100
AcDbEntity
  8
0
  6
Continuous
 62
     7
370
    25
100
AcDbLine
 10
2502.6131748138
 20
1169.3448170766
 30
0.0
 11
2502.6131748138
 21
1162.986248057
 31
0.0
  0
LINE
  5
1D1
330
1F
100
AcDbEntity
  8
0
  6
Continuous
 62
     7
370
    25
100
AcDbLine
 10
2496.2492137831
 20
1169.1885632582
 30
0.0
 11
2500.2019933088
 21
1170.7367625311
 31
0.0
  0
LINE
  5
1D2
330
1F
100
AcDbEntity
  8
0
  6
Continuous
 62
     7
370
    25
100
AcDbLine
 10
1082.03565141
 20
352.7804514355
 30
0.0
 11
2496.2492137831
 21
1169.1885632582
 31
0.0
  0
LINE
  5
1D3
330
1F
100
AcDbEntity
  8
0
  6
Continuous
 62
     7
370
    25
100
AcDbLine
 10
1082.3135662782
 20
345.7932702914
 30
0.0
 11
1081.6820980194
 21
345.5459408634
 31
0.0
  0
LINE
  5
1D4
330
1F
100
AcDbEntity
  8
0
  6
Continuous
 62
     7
370
    25
100
AcDbLine
 10
1084.8136252088
 20
347.3537330299
 30
0.0
 11
1081.6820980194
 21
345.5459408634
 31
0.0
  0
LINE
  5
1D5
330
1F
100
AcDbEntity
  8
0
  6
Continuous
 62
     7
370
    25
100
AcDbLine
 10
1081.6820980194
 20
345.5459408634
 30
0.0
 11
1081.6820980194
 21
344.594042779
 31
0.0
  0
LINE
  5
1D6
330
1F
100
AcDbEntity
  8
0
  6
Continuous
 62
     7
370
    25
100
AcDbLine
 10
1082.7427581912
 20
344.3624959289
 30
0.0
 11
1082.7427581912
 21
343.9817366951
 31
0.0
  0
LINE
  5
1D7
330
1F
100
AcDbEntity
  8
0
  6
Continuous
 62
     7
370
    25
100
AcDbLine
 10
1082.9953454947
 20
344.4614277001
 30
0.0
 11
1082.7427581912
 21
344.3624959289
 31
0.0
  0
LINE
  5
1D8
330
1F
100
AcDbEntity
  8
0
  6
Continuous
 62
     7
370
    25
100
AcDbLine
 10
2496.9563205643
 20
1093.0252315372
 30
0.0
 11
2496.9563205643
 21
1159.7206156098
 31
0.0
  0
LINE
  5
1D9
330
1F
100
AcDbEntity
  8
0
  6
Continuous
 62
     7
370
    25
100
AcDbLine
 10
2496.9563205643
 20
1093.0252315372
 30
0.0
 11
2496.9563205643
 21
1092.2086907253
 31
0.0
  0
LINE
  5
1DA
330
1F
100
AcDbEntity
  8
0
  6
Continuous
 62
     7
370
    25
100
AcDbLine
 10
1082.7427581912
 20
276.6171197145
 30
0.0
 11
1082.7427581912
 21
275.8005789026
 31
0.0
  0
LINE
  5
1DB
330
1F
100
AcDbEntity
  8
0
  6
Continuous
 62
     7
370
    25
100
AcDbLine
 10
1082.7427581912
 20
276.6171197145
 30
0.0
 11
1082.7427581912
 21
343.9817366951
 31
0.0
  0
LINE
  5
1DC
330
1F
100
AcDbEntity
  8
0
  6
Continuous
 62
     7
370
    25
100
AcDbLine
 10
1129.4118057495
 20
313.3570771473
 30
0.0
 11
1142.1397278109
 21
320.7047501537
 31
0.0
  0
LWPOLYLINE
  5
1DD
330
1F
100
AcDbEntity
  8
0
  6
Continuous
 62
     7
370
    25
100
AcDbPolyline
 90
       10
 70
   128
 43
0.0
 10
1142.1397278109
 20
320.7047501537
 10
1142.9861844801
 20
321.365751215
 10
1143.7305459827
 20
322.2917298477
 10
1144.2830313358
 20
323.3709993627
 10
1144.577002652
 20
324.4733839281
 10
1144.577002652
 20
325.465919696
 10
1144.2830313358
 20
326.2288922043
 10
1143.7305459827
 20
326.6702757084
 10
1142.9861844801
 20
326.7368328435
 10
1142.1397278109
 20
326.4205358369
  0
LINE
  5
1DE
330
1F
100
AcDbEntity
  8
0
  6
Continuous
 62
     7
370
    25
100
AcDbLine
 10
1142.1397278109
 20
326.4205358369
 30
0.0
 11
1129.4118057495
 21
319.0728628305
 31
0.0
  0
LWPOLYLINE
  5
1DF
330
1F
100
AcDbEntity
  8
0
  6
Continuous
 62
     7
370
    25
100
AcDbPolyline
 90
       10
 70
   128
 43
0.0
 10
1129.4118057495
 20
319.0728628305
 10
1128.5653490802
 20
318.4118617692
 10
1127.8209875776
 20
317.4858831365
 10
1127.2685022246
 20
316.4066136215
 10
1126.9745309084
 20
315.3042290561
 10
1126.9745309084
 20
314.3116932882
 10
1127.2685022246
 20
313.5487207799
 10
1127.8209875776
 20
313.1073372758
 10
1128.5653490802
 20
313.0407801407
 10
1129.4118057495
 20
313.3570771473
  0
LINE
  5
1E0
330
1F
100
AcDbEntity
  8
0
  6
Continuous
 62
     7
370
    25
100
AcDbLine
 10
1094.0564666902
 20
292.9468743517
 30
0.0
 11
1106.7843887515
 21
300.2945473581
 31
0.0
  0
LWPOLYLINE
  5
1E1
330
1F
100
AcDbEntity
  8
0
  6
Continuous
 62
     7
370
    25
100
AcDbPolyline
 90
       10
 70
   128
 43
0.0
 10
1106.7843887515
 20
300.2945473581
 10
1107.6308454208
 20
300.9555484195
 10
1108.3752069234
 20
301.8815270522
 10
1108.9276922765
 20
302.9607965672
 10
1109.2216635927
 20
304.0631811326
 10
1109.2216635927
 20
305.0557169004
 10
1108.9276922765
 20
305.8186894088
 10
1108.3752069234
 20
306.2600729128
 10
1107.6308454208
 20
306.326630048
 10
1106.7843887515
 20
306.0103330413
  0
LINE
  5
1E2
330
1F
100
AcDbEntity
  8
0
  6
Continuous
 62
     7
370
    25
100
AcDbLine
 10
1106.7843887515
 20
306.0103330413
 30
0.0
 11
1094.0564666902
 21
298.6626600349
 31
0.0
  0
LWPOLYLINE
  5
1E3
330
1F
100
AcDbEntity
  8
0
  6
Continuous
 62
     7
370
    25
100
AcDbPolyline
 90
       10
 70
   128
 43
0.0
 10
1094.0564666902
 20
298.6626600349
 10
1093.2100100209
 20
298.0016589736
 10
1092.4656485183
 20
297.0756803409
 10
1091.9131631652
 20
295.9964108259
 10
1091.6191918491
 20
294.8940262605
 10
1091.6191918491
 20
293.9014904927
 10
1091.9131631652
 20
293.1385179843
 10
1092.4656485183
 20
292.6971344802
 10
1093.2100100209
 20
292.6305773451
 10
1094.0564666902
 20
292.9468743517
  0
LINE
  5
1E4
330
1F
100
AcDbEntity
  8
0
  6
Continuous
 62
     7
370
    25
100
AcDbLine
 10
2485.6426120653
 20
1102.0082420685
 30
0.0
 11
2472.9146900039
 21
1094.6605690621
 31
0.0
  0
LWPOLYLINE
  5
1E5
330
1F
100
AcDbEntity
  8
0
  6
Continuous
 62
     7
370
    25
100
AcDbPolyline
 90
       10
 70
   128
 43
0.0
 10
2472.9146900039
 20
1094.6605690621
 10
2472.0682333347
 20
1093.9995680007
 10
2471.3238718321
 20
1093.073589368
 10
2470.771386479
 20
1091.9943198531
 10
2470.4774151628
 20
1090.8919352876
 10
2470.4774151628
 20
1089.8993995198
 10
2470.771386479
 20
1089.1364270115
 10
2471.3238718321
 20
1088.6950435074
 10
2472.0682333347
 20
1088.6284863722
 10
2472.9146900039
 20
1088.9447833789
  0
LINE
  5
1E6
330
1F
100
AcDbEntity
  8
0
  6
Continuous
 62
     7
370
    25
100
AcDbLine
 10
2472.9146900039
 20
1088.9447833789
 30
0.0
 11
2485.6426120653
 21
1096.2924563853
 31
0.0
  0
LWPOLYLINE
  5
1E7
330
1F
100
AcDbEntity
  8
0
  6
Continuous
 62
     7
370
    25
100
AcDbPolyline
 90
       10
 70
   128
 43
0.0
 10
2485.6426120653
 20
1096.2924563853
 10
2486.4890687346
 20
1096.9534574466
 10
2487.2334302372
 20
1097.8794360793
 10
2487.7859155902
 20
1098.9587055943
 10
2488.0798869064
 20
1100.0610901597
 10
2488.0798869064
 20
1101.0536259275
 10
2487.7859155902
 20
1101.8165984359
 10
2487.2334302372
 20
1102.25798194
 10
2486.4890687346
 20
1102.3245390751
 10
2485.6426120653
 20
1102.0082420685
  0
LINE
  5
1E8
330
1F
100
AcDbEntity
  8
0
  6
Continuous
 62
     7
370
    25
100
AcDbLine
 10
2450.287273006
 20
1081.5980392729
 30
0.0
 11
2437.5593509446
 21
1074.2503662665
 31
0.0
  0
LWPOLYLINE
  5
1E9
330
1F
100
AcDbEntity
  8
0
  6
Continuous
 62
     7
370
    25
100
AcDbPolyline
 90
       10
 70
   128
 43
0.0
 10
2437.5593509446
 20
1074.2503662665
 10
2436.7128942753
 20
1073.5893652052
 10
2435.9685327728
 20
1072.6633865725
 10
2435.4160474197
 20
1071.5841170575
 10
2435.1220761035
 20
1070.4817324921
 10
2435.1220761035
 20
1069.4891967242
 10
2435.4160474197
 20
1068.7262242159
 10
2435.9685327728
 20
1068.2848407118
 10
2436.7128942753
 20
1068.2182835767
 10
2437.5593509446
 20
1068.5345805833
  0
LINE
  5
1EA
330
1F
100
AcDbEntity
  8
0
  6
Continuous
 62
     7
370
    25
100
AcDbLine
 10
2437.5593509446
 20
1068.5345805833
 30
0.0
 11
2450.287273006
 21
1075.8822535897
 31
0.0
  0
LWPOLYLINE
  5
1EB
330
1F
100
AcDbEntity
  8
0
  6
Continuous
 62
     7
370
    25
100
AcDbPolyline
 90
       10
 70
   128
 43
0.0
 10
2450.287273006
 20
1075.8822535897
 10
2451.1337296752
 20
1076.543254651
 10
2451.8780911778
 20
1077.4692332837
 10
2452.4305765309
 20
1078.5485027987
 10
2452.7245478471
 20
1079.6508873642
 10
2452.7245478471
 20
1080.643423132
 10
2452.4305765309
 20
1081.4063956403
 10
2451.8780911778
 20
1081.8477791444
 10
2451.1337296752
 20
1081.9143362795
 10
2450.287273006
 20
1081.5980392729
  0
LINE
  5
1EC
330
1F
100
AcDbEntity
  8
0
  6
Continuous
 62
     7
370
    25
100
AcDbLine
 10
1129.4118057495
 20
341.9360055633
 30
0.0
 11
1142.1397278109
 21
349.2836785697
 31
0.0
  0
LWPOLYLINE
  5
1ED
330
1F
100
AcDbEntity
  8
0
  6
Continuous
 62
     7
370
    25
100
AcDbPolyline
 90
       10
 70
   128
 43
0.0
 10
1142.1397278109
 20
349.2836785697
 10
1142.9861844801
 20
349.944679631
 10
1143.7305459827
 20
350.8706582637
 10
1144.2830313358
 20
351.9499277787
 10
1144.577002652
 20
353.0523123442
 10
1144.577002652
 20
354.044848112
 10
1144.2830313358
 20
354.8078206203
 10
1143.7305459827
 20
355.2492041244
 10
1142.9861844801
 20
355.3157612595
 10
1142.1397278109
 20
354.9994642529
  0
LINE
  5
1EE
330
1F
100
AcDbEntity
  8
0
  6
Continuous
 62
     7
370
    25
100
AcDbLine
 10
1142.1397278109
 20
354.9994642529
 30
0.0
 11
1129.4118057495
 21
347.6517912465
 31
0.0
  0
LWPOLYLINE
  5
1EF
330
1F
100
AcDbEntity
  8
0
  6
Continuous
 62
     7
370
    25
100
AcDbPolyline
 90
       10
 70
   128
 43
0.0
 10
1129.4118057495
 20
347.6517912465
 10
1128.5653490802
 20
346.9907901852
 10
1127.8209875776
 20
346.0648115525
 10
1127.2685022246
 20
344.9855420375
 10
1126.9745309084
 20
343.8831574721
 10
1126.9745309084
 20
342.8906217042
 10
1127.2685022246
 20
342.1276491959
 10
1127.8209875776
 20
341.6862656918
 10
1128.5653490802
 20
341.6197085567
 10
1129.4118057495
 20
341.9360055633
  0
LINE
  5
1F0
330
1F
100
AcDbEntity
  8
0
  6
Continuous
 62
     7
370
    25
100
AcDbLine
 10
2450.287273006
 20
1110.1769676889
 30
0.0
 11
2437.5593509446
 21
1102.8292946825
 31
0.0
  0
LWPOLYLINE
  5
1F1
330
1F
100
AcDbEntity
  8
0
  6
Continuous
 62
     7
370
    25
100
AcDbPolyline
 90
       10
 70
   128
 43
0.0
 10
2437.5593509446
 20
1102.8292946825
 10
2436.7128942753
 20
1102.1682936212
 10
2435.9685327728
 20
1101.2423149885
 10
2435.4160474197
 20
1100.1630454735
 10
2435.1220761035
 20
1099.0606609081
 10
2435.1220761035
 20
1098.0681251402
 10
2435.4160474197
 20
1097.3051526319
 10
2435.9685327728
 20
1096.8637691278
 10
2436.7128942753
 20
1096.7972119927
 10
2437.5593509446
 20
1097.1135089993
  0
LINE
  5
1F2
330
1F
100
AcDbEntity
  8
0
  6
Continuous
 62
     7
370
    25
100
AcDbLine
 10
2437.5593509446
 20
1097.1135089993
 30
0.0
 11
2450.287273006
 21
1104.4611820057
 31
0.0
  0
LWPOLYLINE
  5
1F3
330
1F
100
AcDbEntity
  8
0
  6
Continuous
 62
     7
370
    25
100
AcDbPolyline
 90
       10
 70
   128
 43
0.0
 10
2450.287273006
 20
1104.4611820057
 10
2451.1337296752
 20
1105.122183067
 10
2451.8780911778
 20
1106.0481616997
 10
2452.4305765309
 20
1107.1274312147
 10
2452.7245478471
 20
1108.2298157802
 10
2452.7245478471
 20
1109.222351548
 10
2452.4305765309
 20
1109.9853240563
 10
2451.8780911778
 20
1110.4267075604
 10
2451.1337296752
 20
1110.4932646955
 10
2450.287273006
 20
1110.1769676889
  0
LINE
  5
1F4
330
1F
100
AcDbEntity
  8
0
  6
Continuous
 62
     7
370
    25
100
AcDbLine
 10
2485.6426120653
 20
1130.5871704845
 30
0.0
 11
2472.9146900039
 21
1123.2394974781
 31
0.0
  0
LWPOLYLINE
  5
1F5
330
1F
100
AcDbEntity
  8
0
  6
Continuous
 62
     7
370
    25
100
AcDbPolyline
 90
       10
 70
   128
 43
0.0
 10
2472.9146900039
 20
1123.2394974781
 10
2472.0682333347
 20
1122.5784964167
 10
2471.3238718321
 20
1121.652517784
 10
2470.771386479
 20
1120.5732482691
 10
2470.4774151628
 20
1119.4708637036
 10
2470.4774151628
 20
1118.4783279358
 10
2470.771386479
 20
1117.7153554275
 10
2471.3238718321
 20
1117.2739719234
 10
2472.0682333347
 20
1117.2074147882
 10
2472.9146900039
 20
1117.5237117949
  0
LINE
  5
1F6
330
1F
100
AcDbEntity
  8
0
  6
Continuous
 62
     7
370
    25
100
AcDbLine
 10
2472.9146900039
 20
1117.5237117949
 30
0.0
 11
2485.6426120653
 21
1124.8713848013
 31
0.0
  0
LWPOLYLINE
  5
1F7
330
1F
100
AcDbEntity
  8
0
  6
Continuous
 62
     7
370
    25
100
AcDbPolyline
 90
       10
 70
   128
 43
0.0
 10
2485.6426120653
 20
1124.8713848013
 10
2486.4890687346
 20
1125.5323858626
 10
2487.2334302372
 20
1126.4583644953
 10
2487.7859155902
 20
1127.5376340103
 10
2488.0798869064
 20
1128.6400185757
 10
2488.0798869064
 20
1129.6325543435
 10
2487.7859155902
 20
1130.3955268519
 10
2487.2334302372
 20
1130.836910356
 10
2486.4890687346
 20
1130.9034674911
 10
2485.6426120653
 20
1130.5871704845
  0
LINE
  5
1F8
330
1F
100
AcDbEntity
  8
0
  6
Continuous
 62
     7
370
    25
100
AcDbLine
 10
1094.0564666902
 20
321.5258027677
 30
0.0
 11
1106.7843887515
 21
328.8734757741
 31
0.0
  0
LWPOLYLINE
  5
1F9
330
1F
100
AcDbEntity
  8
0
  6
Continuous
 62
     7
370
    25
100
AcDbPolyline
 90
       10
 70
   128
 43
0.0
 10
1106.7843887515
 20
328.8734757741
 10
1107.6308454208
 20
329.5344768355
 10
1108.3752069234
 20
330.4604554682
 10
1108.9276922765
 20
331.5397249832
 10
1109.2216635927
 20
332.6421095486
 10
1109.2216635927
 20
333.6346453164
 10
1108.9276922765
 20
334.3976178248
 10
1108.3752069234
 20
334.8390013288
 10
1107.6308454208
 20
334.905558464
 10
1106.7843887515
 20
334.5892614573
  0
LINE
  5
1FA
330
1F
100
AcDbEntity
  8
0
  6
Continuous
 62
     7
370
    25
100
AcDbLine
 10
1106.7843887515
 20
334.5892614573
 30
0.0
 11
1094.0564666902
 21
327.2415884509
 31
0.0
  0
LWPOLYLINE
  5
1FB
330
1F
100
AcDbEntity
  8
0
  6
Continuous
 62
     7
370
    25
100
AcDbPolyline
 90
       10
 70
   128
 43
0.0
 10
1094.0564666902
 20
327.2415884509
 10
1093.2100100209
 20
326.5805873896
 10
1092.4656485183
 20
325.6546087569
 10
1091.9131631652
 20
324.5753392419
 10
1091.6191918491
 20
323.4729546765
 10
1091.6191918491
 20
322.4804189087
 10
1091.9131631652
 20
321.7174464003
 10
1092.4656485183
 20
321.2760628962
 10
1093.2100100209
 20
321.2095057611
 10
1094.0564666902
 20
321.5258027677
  0
LINE
  5
1FC
330
1F
100
AcDbEntity
  8
0
  6
Continuous
 62
     7
370
    25
100
AcDbLine
 10
1081.6820980194
 20
277.2294257984
 30
0.0
 11
1081.6820980194
 21
344.594042779
 31
0.0
  0
LINE
  5
1FD
330
1F
100
AcDbEntity
  8
0
  6
Continuous
 62
     7
370
    25
100
AcDbLine
 10
1170.4238266572
 20
241.9195427369
 30
0.0
 11
1165.1206981994
 21
244.9809736312
 31
0.0
  0
LINE
  5
1FE
330
1F
100
AcDbEntity
  8
0
  6
Continuous
 62
     7
370
    25
100
AcDbLine
 10
1163.706484637
 20
244.9809736312
 30
0.0
 11
1160.5246765228
 21
243.1441549047
 31
0.0
  0
ARC
  5
1FF
330
1F
100
AcDbEntity
  8
0
  6
Continuous
 62
     7
370
    25
100
AcDbCircle
 10
1164.4135914182
 20
243.6162625463
 30
0.0
 40
1.537021907911672
100
AcDbArc
 50
62.6096722366
 51
117.3903277634
  0
LWPOLYLINE
  5
200
330
1F
100
AcDbEntity
  8
0
  6
Continuous
 62
     7
370
    25
100
AcDbPolyline
 90
        3
 70
   128
 43
0.0
 10
1091.8585504252
 20
321.801191671
 10
1092.1493498491
 20
321.821811845
 10
1092.9958065184
 20
322.1381088516
  0
LINE
  5
201
330
1F
100
AcDbEntity
  8
0
  6
Continuous
 62
     7
370
    25
100
AcDbLine
 10
1092.9958065184
 20
322.1381088516
 30
0.0
 11
1105.7237285798
 21
329.485781858
 31
0.0
  0
ARC
  5
202
330
1F
100
AcDbEntity
  8
0
  6
Continuous
 62
     7
370
    25
100
AcDbCircle
 10
1103.5504790912
 20
333.5279497005
 30
0.0
 40
4.589350085447039
100
AcDbArc
 50
298.2644546683
 51
17.7382019335
  0
LWPOLYLINE
  5
203
330
1F
100
AcDbEntity
  8
0
  6
Continuous
 62
     7
370
    25
100
AcDbPolyline
 90
        3
 70
   128
 43
0.0
 10
1091.858550425
 20
293.222263255
 10
1092.1493498491
 20
293.242883429
 10
1092.9958065184
 20
293.5591804356
  0
LWPOLYLINE
  5
204
330
1F
100
AcDbEntity
  8
0
  6
Continuous
 62
     7
370
    25
100
AcDbPolyline
 90
        3
 70
   128
 43
0.0
 10
1099.3597675491
 20
278.0455021601
 10
1098.6625640286
 20
277.4706911173
 10
1098.4992800956
 20
277.2291935733
  0
LINE
  5
205
330
1F
100
AcDbEntity
  8
0
  6
Continuous
 62
     7
370
    25
100
AcDbLine
 10
1081.6820980194
 20
277.2294257984
 30
0.0
 11
1081.6820980194
 21
275.1880737687
 31
0.0
  0
LINE
  5
206
330
1F
100
AcDbEntity
  8
0
  6
Continuous
 62
     7
370
    25
100
AcDbLine
 10
1081.6820980194
 20
275.1880737687
 30
0.0
 11
1083.4498649724
 21
274.1675636289
 31
0.0
  0
LINE
  5
207
330
1F
100
AcDbEntity
  8
0
  6
Continuous
 62
     7
370
    25
100
AcDbLine
 10
1092.9958065184
 20
293.5591804356
 30
0.0
 11
1105.7237285798
 21
300.906853442
 31
0.0
  0
LWPOLYLINE
  5
208
330
1F
100
AcDbEntity
  8
0
  6
Continuous
 62
     7
370
    25
100
AcDbPolyline
 90
        3
 70
   128
 43
0.0
 10
1127.2138894845
 20
342.2113944666
 10
1127.5046889085
 20
342.2320146405
 10
1128.3511455777
 20
342.5483116472
  0
LINE
  5
209
330
1F
100
AcDbEntity
  8
0
  6
Continuous
 62
     7
370
    25
100
AcDbLine
 10
1112.0876896104
 20
285.3931751665
 30
0.0
 11
1099.3597675491
 21
278.0455021601
 31
0.0
  0
ARC
  5
20A
330
1F
100
AcDbEntity
  8
0
  6
Continuous
 62
     7
370
    25
100
AcDbCircle
 10
1103.5504790912
 20
304.9490212845
 30
0.0
 40
4.589350085438624
100
AcDbArc
 50
298.2644546683
 51
17.7382019337
  0
LINE
  5
20B
330
1F
100
AcDbEntity
  8
0
  6
Continuous
 62
     7
370
    25
100
AcDbLine
 10
1128.3511455777
 20
342.5483116472
 30
0.0
 11
1141.0790676391
 21
349.8959846536
 31
0.0
  0
ARC
  5
20C
330
1F
100
AcDbEntity
  8
0
  6
Continuous
 62
     7
370
    25
100
AcDbCircle
 10
1114.5016845634
 20
281.4893610299
 30
0.0
 40
4.589895036484553
100
AcDbArc
 50
42.2738244985
 51
121.7313331992
  0
ARC
  5
20D
330
1F
100
AcDbEntity
  8
0
  6
Continuous
 62
     7
370
    25
100
AcDbCircle
 10
1138.9058181505
 20
353.9381524961
 30
0.0
 40
4.58935008542826
100
AcDbArc
 50
298.2644546682
 51
17.738201934
  0
LWPOLYLINE
  5
20E
330
1F
100
AcDbEntity
  8
0
  6
Continuous
 62
     7
370
    25
100
AcDbPolyline
 90
        3
 70
   128
 43
0.0
 10
1127.2138894844
 20
313.6324660506
 10
1127.5046889085
 20
313.6530862245
 10
1128.3511455777
 20
313.9693832312
  0
LWPOLYLINE
  5
20F
330
1F
100
AcDbEntity
  8
0
  6
Continuous
 62
     7
370
    25
100
AcDbPolyline
 90
        3
 70
   128
 43
0.0
 10
1134.7151066084
 20
298.4557049556
 10
1134.0179030879
 20
297.8808939129
 10
1133.8546191548
 20
297.6393963688
  0
LINE
  5
210
330
1F
100
AcDbEntity
  8
0
  6
Continuous
 62
     7
370
    25
100
AcDbLine
 10
1128.3511455777
 20
313.9693832312
 30
0.0
 11
1141.0790676391
 21
321.3170562376
 31
0.0
  0
LINE
  5
211
330
1F
100
AcDbEntity
  8
0
  6
Continuous
 62
     7
370
    25
100
AcDbLine
 10
1147.4430286698
 20
305.803377962
 30
0.0
 11
1134.7151066084
 21
298.4557049556
 31
0.0
  0
ARC
  5
212
330
1F
100
AcDbEntity
  8
0
  6
Continuous
 62
     7
370
    25
100
AcDbCircle
 10
1138.9058181505
 20
325.3592240801
 30
0.0
 40
4.589350085428662
100
AcDbArc
 50
298.2644546682
 51
17.738201934
  0
ARC
  5
213
330
1F
100
AcDbEntity
  8
0
  6
Continuous
 62
     7
370
    25
100
AcDbCircle
 10
1149.8570236227
 20
301.8995638254
 30
0.0
 40
4.589895036556716
100
AcDbArc
 50
42.2738245007
 51
121.7313331988
  0
LWPOLYLINE
  5
214
330
1F
100
AcDbEntity
  8
0
  6
Continuous
 62
     7
370
    25
100
AcDbPolyline
 90
        3
 70
   128
 43
0.0
 10
2859.702099313
 20
853.4156876202
 10
2858.8556426437
 20
853.0993906136
 10
2858.5648432198
 20
853.0787704396
  0
LINE
  5
215
330
1F
100
AcDbEntity
  8
0
  6
Continuous
 62
     7
370
    25
100
AcDbLine
 10
2872.4300213743
 20
860.7633606266
 30
0.0
 11
2859.702099313
 21
853.4156876202
 31
0.0
  0
ARC
  5
216
330
1F
100
AcDbEntity
  8
0
  6
Continuous
 62
     7
370
    25
100
AcDbCircle
 10
2870.2567718857
 20
864.8055284692
 30
0.0
 40
4.589350085501366
100
AcDbArc
 50
298.2644546686
 51
17.7382019318
  0
LWPOLYLINE
  5
217
330
1F
100
AcDbEntity
  8
0
  6
Continuous
 62
     7
370
    25
100
AcDbPolyline
 90
        3
 70
   128
 43
0.0
 10
2859.702099313
 20
824.8367592042
 10
2858.8556426437
 20
824.5204621976
 10
2858.5648432199
 20
824.4998420236
  0
LINE
  5
218
330
1F
100
AcDbEntity
  8
0
  6
Continuous
 62
     7
370
    25
100
AcDbLine
 10
2872.4300213743
 20
832.1844322106
 30
0.0
 11
2859.702099313
 21
824.8367592042
 31
0.0
  0
LWPOLYLINE
  5
219
330
1F
100
AcDbEntity
  8
0
  6
Continuous
 62
     7
370
    25
100
AcDbPolyline
 90
        3
 70
   128
 43
0.0
 10
2895.0574383723
 20
873.8258904158
 10
2894.210981703
 20
873.5095934092
 10
2893.9201822791
 20
873.4889732352
  0
ARC
  5
21A
330
1F
100
AcDbEntity
  8
0
  6
Continuous
 62
     7
370
    25
100
AcDbCircle
 10
2870.2567718858
 20
836.2266000532
 30
0.0
 40
4.589350085443015
100
AcDbArc
 50
298.2644546683
 51
17.7382019336
  0
LINE
  5
21B
330
1F
100
AcDbEntity
  8
0
  6
Continuous
 62
     7
370
    25
100
AcDbLine
 10
2907.7853604337
 20
881.1735634222
 30
0.0
 11
2895.0574383723
 21
873.8258904158
 31
0.0
  0
ARC
  5
21C
330
1F
100
AcDbEntity
  8
0
  6
Continuous
 62
     7
370
    25
100
AcDbCircle
 10
2905.6121109451
 20
885.2157312647
 30
0.0
 40
4.589350085437743
100
AcDbArc
 50
298.2644546683
 51
17.7382019338
  0
LWPOLYLINE
  5
21D
330
1F
100
AcDbEntity
  8
0
  6
Continuous
 62
     7
370
    25
100
AcDbPolyline
 90
        3
 70
   128
 43
0.0
 10
2895.0574383723
 20
845.2469619998
 10
2894.210981703
 20
844.9306649932
 10
2893.9201822791
 20
844.9100448192
  0
LINE
  5
21E
330
1F
100
AcDbEntity
  8
0
  6
Continuous
 62
     7
370
    25
100
AcDbLine
 10
2907.7853604337
 20
852.5946350062
 30
0.0
 11
2895.0574383723
 21
845.2469619998
 31
0.0
  0
ARC
  5
21F
330
1F
100
AcDbEntity
  8
0
  6
Continuous
 62
     7
370
    25
100
AcDbCircle
 10
2905.6121109451
 20
856.6368028487
 30
0.0
 40
4.589350085405767
100
AcDbArc
 50
298.2644546681
 51
17.7382019347
  0
LINE
  5
220
330
1F
100
AcDbEntity
  8
0
  6
Continuous
 62
     7
370
    25
100
AcDbLine
 10
2699.8957943637
 20
961.5832933087
 30
0.0
 11
2694.5926659059
 21
964.644724203
 31
0.0
  0
LINE
  5
221
330
1F
100
AcDbEntity
  8
0
  6
Continuous
 62
     7
370
    25
100
AcDbLine
 10
2693.1784523436
 20
964.644724203
 30
0.0
 11
2689.9966442293
 21
962.8079054764
 31
0.0
  0
ARC
  5
222
330
1F
100
AcDbEntity
  8
0
  6
Continuous
 62
     7
370
    25
100
AcDbCircle
 10
2693.8855591247
 20
963.280013118
 30
0.0
 40
1.537021907911312
100
AcDbArc
 50
62.6096722366
 51
117.3903277634
  0
LWPOLYLINE
  5
223
330
1F
100
AcDbEntity
  8
0
  6
Continuous
 62
     7
370
    25
100
AcDbPolyline
 90
        3
 70
   128
 43
0.0
 10
2435.3614346796
 20
1097.3888979026
 10
2435.6522341036
 20
1097.4095180765
 10
2436.4986907728
 20
1097.7258150832
  0
LINE
  5
224
330
1F
100
AcDbEntity
  8
0
  6
Continuous
 62
     7
370
    25
100
AcDbLine
 10
2436.4986907728
 20
1097.7258150832
 30
0.0
 11
2449.2266128342
 21
1105.0734880896
 31
0.0
  0
ARC
  5
225
330
1F
100
AcDbEntity
  8
0
  6
Continuous
 62
     7
370
    25
100
AcDbCircle
 10
2447.0533633457
 20
1109.1156559321
 30
0.0
 40
4.589350085410624
100
AcDbArc
 50
298.2644546681
 51
17.7382019346
  0
LINE
  5
226
330
1F
100
AcDbEntity
  8
0
  6
Continuous
 62
     7
370
    25
100
AcDbLine
 10
2558.4744381264
 20
1043.2241044909
 30
0.0
 11
2553.1713096686
 21
1046.2855353852
 31
0.0
  0
LINE
  5
227
330
1F
100
AcDbEntity
  8
0
  6
Continuous
 62
     7
370
    25
100
AcDbLine
 10
2551.7570961062
 20
1046.2855353852
 30
0.0
 11
2548.575287992
 21
1044.4487166587
 31
0.0
  0
ARC
  5
228
330
1F
100
AcDbEntity
  8
0
  6
Continuous
 62
     7
370
    25
100
AcDbCircle
 10
2552.4642028874
 20
1044.9208243003
 30
0.0
 40
1.537021907912833
100
AcDbArc
 50
62.6096722366
 51
117.3903277634
  0
LWPOLYLINE
  5
229
330
1F
100
AcDbEntity
  8
0
  6
Continuous
 62
     7
370
    25
100
AcDbPolyline
 90
        3
 70
   128
 43
0.0
 10
2435.3614346796
 20
1068.8099694866
 10
2435.6522341036
 20
1068.8305896605
 10
2436.4986907728
 20
1069.1468866672
  0
LWPOLYLINE
  5
22A
330
1F
100
AcDbEntity
  8
0
  6
Continuous
 62
     7
370
    25
100
AcDbPolyline
 90
        3
 70
   128
 43
0.0
 10
2442.8626518035
 20
1053.6332083916
 10
2442.165448283
 20
1053.0583973489
 10
2442.00216435
 20
1052.8168998049
  0
LINE
  5
22B
330
1F
100
AcDbEntity
  8
0
  6
Continuous
 62
     7
370
    25
100
AcDbLine
 10
2436.4986907728
 20
1069.1468866672
 30
0.0
 11
2449.2266128342
 21
1076.4945596736
 31
0.0
  0
LWPOLYLINE
  5
22C
330
1F
100
AcDbEntity
  8
0
  6
Continuous
 62
     7
370
    25
100
AcDbPolyline
 90
        3
 70
   128
 43
0.0
 10
2470.7167737389
 20
1117.7991006982
 10
2471.0075731629
 20
1117.8197208721
 10
2471.8540298322
 20
1118.1360178787
  0
LINE
  5
22D
330
1F
100
AcDbEntity
  8
0
  6
Continuous
 62
     7
370
    25
100
AcDbLine
 10
2455.5905738649
 20
1060.980881398
 30
0.0
 11
2442.8626518035
 21
1053.6332083916
 31
0.0
  0
ARC
  5
22E
330
1F
100
AcDbEntity
  8
0
  6
Continuous
 62
     7
370
    25
100
AcDbCircle
 10
2447.0533633456
 20
1080.5367275161
 30
0.0
 40
4.589350085442184
100
AcDbArc
 50
298.2644546683
 51
17.7382019336
  0
LINE
  5
22F
330
1F
100
AcDbEntity
  8
0
  6
Continuous
 62
     7
370
    25
100
AcDbLine
 10
2471.8540298322
 20
1118.1360178787
 30
0.0
 11
2484.5819518935
 21
1125.4836908851
 31
0.0
  0
ARC
  5
230
330
1F
100
AcDbEntity
  8
0
  6
Continuous
 62
     7
370
    25
100
AcDbCircle
 10
2458.0045688179
 20
1057.0770672614
 30
0.0
 40
4.589895036530375
100
AcDbArc
 50
42.2738244999
 51
121.731333199
  0
ARC
  5
231
330
1F
100
AcDbEntity
  8
0
  6
Continuous
 62
     7
370
    25
100
AcDbCircle
 10
2482.4087024049
 20
1129.5258587277
 30
0.0
 40
4.589350085460736
100
AcDbArc
 50
298.2644546684
 51
17.7382019331
  0
LWPOLYLINE
  5
232
330
1F
100
AcDbEntity
  8
0
  6
Continuous
 62
     7
370
    25
100
AcDbPolyline
 90
        3
 70
   128
 43
0.0
 10
2470.716773739
 20
1089.2201722821
 10
2471.0075731629
 20
1089.2407924561
 10
2471.8540298322
 20
1089.5570894627
  0
LWPOLYLINE
  5
233
330
1F
100
AcDbEntity
  8
0
  6
Continuous
 62
     7
370
    25
100
AcDbPolyline
 90
        3
 70
   128
 43
0.0
 10
2478.2179908628
 20
1074.0434111872
 10
2477.5207873424
 20
1073.4686001444
 10
2477.3575034093
 20
1073.2271026004
  0
LINE
  5
234
330
1F
100
AcDbEntity
  8
0
  6
Continuous
 62
     7
370
    25
100
AcDbLine
 10
2471.8540298322
 20
1089.5570894627
 30
0.0
 11
2484.5819518935
 21
1096.9047624691
 31
0.0
  0
LINE
  5
235
330
1F
100
AcDbEntity
  8
0
  6
Continuous
 62
     7
370
    25
100
AcDbLine
 10
2490.9459129242
 20
1081.3910841936
 30
0.0
 11
2478.2179908628
 21
1074.0434111872
 31
0.0
  0
ARC
  5
236
330
1F
100
AcDbEntity
  8
0
  6
Continuous
 62
     7
370
    25
100
AcDbCircle
 10
2482.4087024049
 20
1100.9469303117
 30
0.0
 40
4.589350085451468
100
AcDbArc
 50
298.2644546683
 51
17.7382019333
  0
ARC
  5
237
330
1F
100
AcDbEntity
  8
0
  6
Continuous
 62
     7
370
    25
100
AcDbCircle
 10
2493.3599078772
 20
1077.487270057
 30
0.0
 40
4.589895036511022
100
AcDbArc
 50
42.2738244993
 51
121.7313331991
  0
ENDSEC
  0
SECTION
  2
OBJECTS
  0
DICTIONARY
  5
C
330
0
100
AcDbDictionary
281
     1
  3
ACAD_GROUP
350
D
  3
ACAD_LAYOUT
350
1A
  3
ACAD_MLINESTYLE
350
17
  3
ACAD_PLOTSETTINGS
350
19
  3
ACAD_PLOTSTYLENAME
350
E
  3
ACAD_SCALELIST
350
47
  0
DICTIONARY
  5
D
102
{ACAD_REACTORS
330
C
102
}
330
C
100
AcDbDictionary
281
     1
  0
DICTIONARY
  5
1A
102
{ACAD_REACTORS
330
C
102
}
330
C
100
AcDbDictionary
281
     1
  3
Layout1
350
1E
  3
Layout2
350
26
  3
Model
350
22
  0
DICTIONARY
  5
17
102
{ACAD_REACTORS
330
C
102
}
330
C
100
AcDbDictionary
281
     1
  3
Standard
350
18
  0
DICTIONARY
  5
19
102
{ACAD_REACTORS
330
C
102
}
330
C
100
AcDbDictionary
281
     1
  0
ACDBDICTIONARYWDFLT
  5
E
102
{ACAD_REACTORS
330
C
102
}
330
C
100
AcDbDictionary
281
     1
  3
Normal
350
F
100
AcDbDictionaryWithDefault
340
F
  0
DICTIONARY
  5
47
102
{ACAD_REACTORS
330
C
102
}
330
C
100
AcDbDictionary
281
     1
  3
A0
350
48
  3
A1
350
49
  3
A2
350
4A
  3
A3
350
4B
  3
A4
350
4C
  3
A5
350
4D
  3
A6
350
4E
  3
A7
350
4F
  3
A8
350
50
  3
A9
350
51
  3
B0
350
52
  3
B1
350
53
  3
B2
350
54
  3
B3
350
55
  3
B4
350
56
  3
B5
350
57
  3
B6
350
58
  3
B7
350
59
  3
B8
350
5A
  3
B9
350
5B
  3
C0
350
5C
  3
C1
350
5D
  3
C2
350
5E
  3
C3
350
5F
  3
C4
350
60
  3
C5
350
61
  3
C6
350
62
  3
C7
350
63
  3
C8
350
64
  3
C9
350
65
  3
D0
350
66
  3
D1
350
67
  3
D2
350
68
  0
LAYOUT
  5
1E
102
{ACAD_REACTORS
330
1A
102
}
330
1A
100
AcDbPlotSettings
  1

  2
none_device
  4

  6

 40
0.0
 41
0.0
 42
0.0
 43
0.0
 44
0.0
 45
0.0
 46
0.0
 47
0.0
 48
0.0
 49
0.0
140
0.0
141
0.0
142
1.0
143
1.0
 70
   688
 72
     1
 73
     0
 74
     5
  7

 75
    16
147
1.0
148
0.0
149
0.0
100
AcDbLayout
  1
Layout1
 70
     1
 71
     1
 10
0.0
 20
0.0
 11
420.0
 21
297.0
 12
0.0
 22
0.0
 32
0.0
 14
1.0000000000E+20
 24
1.0000000000E+20
 34
1.0000000000E+20
 15
-1.0000000000E+20
 25
-1.0000000000E+20
 35
-1.0000000000E+20
146
0.0
 13
0.0
 23
0.0
 33
0.0
 16
1.0
 26
0.0
 36
0.0
 17
0.0
 27
1.0
 37
0.0
 76
     0
330
1B
  0
LAYOUT
  5
26
102
{ACAD_REACTORS
330
1A
102
}
330
1A
100
AcDbPlotSettings
  1

  2
none_device
  4

  6

 40
0.0
 41
0.0
 42
0.0
 43
0.0
 44
0.0
 45
0.0
 46
0.0
 47
0.0
 48
0.0
 49
0.0
140
0.0
141
0.0
142
1.0
143
1.0
 70
   688
 72
     1
 73
     0
 74
     5
  7

 75
    16
147
1.0
148
0.0
149
0.0
100
AcDbLayout
  1
Layout2
 70
     1
 71
     2
 10
0.0
 20
0.0
 11
0.0
 21
0.0
 12
0.0
 22
0.0
 32
0.0
 14
0.0
 24
0.0
 34
0.0
 15
0.0
 25
0.0
 35
0.0
146
0.0
 13
0.0
 23
0.0
 33
0.0
 16
1.0
 26
0.0
 36
0.0
 17
0.0
 27
1.0
 37
0.0
 76
     0
330
23
  0
LAYOUT
  5
22
102
{ACAD_REACTORS
330
1A
102
}
330
1A
100
AcDbPlotSettings
  1

  2
none_device
  4
Letter_(8.50_x_11.00_Inches)
  6

 40
6.35
 41
6.35
 42
6.35000508
 43
6.35000508
 44
215.9
 45
279.4
 46
0.0
 47
0.0
 48
0.0
 49
0.0
140
0.0
141
0.0
142
1.0
143
1.0
 70
  1712
 72
     1
 73
     0
 74
     0
  7

 75
     0
147
1.0
148
0.0
149
0.0
100
AcDbLayout
  1
Model
 70
     1
 71
     0
 10
0.0
 20
0.0
 11
3000.0
 21
2000.0
 12
0.0
 22
0.0
 32
0.0
 14
0.0
 24
0.0
 34
0.0
 15
3000.0
 25
2000.0
 35
0.0
146
0.0
 13
0.0
 23
0.0
 33
0.0
 16
1.0
 26
0.0
 36
0.0
 17
0.0
 27
1.0
 37
0.0
 76
     0
330
1F
331
29
  0
MLINESTYLE
  5
18
102
{ACAD_REACTORS
330
17
102
}
330
17
100
AcDbMlineStyle
  2
Standard
 70
     0
  3

 62
   256
 51
90.0
 52
90.0
 71
     2
 49
0.5
 62
   256
  6
BYLAYER
 49
-0.5
 62
   256
  6
BYLAYER
  0
ACDBPLACEHOLDER
  5
F
102
{ACAD_REACTORS
330
E
102
}
330
E
  0
SCALE
  5
48
102
{ACAD_REACTORS
330
47
102
}
330
47
100
AcDbScale
 70
     0
300
1:1
140
1.0
141
1.0
290
     1
  0
SCALE
  5
49
102
{ACAD_REACTORS
330
47
102
}
330
47
100
AcDbScale
 70
     0
300
1:2
140
1.0
141
2.0
290
     0
  0
SCALE
  5
4A
102
{ACAD_REACTORS
330
47
102
}
330
47
100
AcDbScale
 70
     0
300
1:4
140
1.0
141
4.0
290
     0
  0
SCALE
  5
4B
102
{ACAD_REACTORS
330
47
102
}
330
47
100
AcDbScale
 70
     0
300
1:5
140
1.0
141
5.0
290
     0
  0
SCALE
  5
4C
102
{ACAD_REACTORS
330
47
102
}
330
47
100
AcDbScale
 70
     0
300
1:8
140
1.0
141
8.0
290
     0
  0
SCALE
  5
4D
102
{ACAD_REACTORS
330
47
102
}
330
47
100
AcDbScale
 70
     0
300
1:10
140
1.0
141
10.0
290
     0
  0
SCALE
  5
4E
102
{ACAD_REACTORS
330
47
102
}
330
47
100
AcDbScale
 70
     0
300
1:16
140
1.0
141
16.0
290
     0
  0
SCALE
  5
4F
102
{ACAD_REACTORS
330
47
102
}
330
47
100
AcDbScale
 70
     0
300
1:20
140
1.0
141
20.0
290
     0
  0
SCALE
  5
50
102
{ACAD_REACTORS
330
47
102
}
330
47
100
AcDbScale
 70
     0
300
1:30
140
1.0
141
30.0
290
     0
  0
SCALE
  5
51
102
{ACAD_REACTORS
330
47
102
}
330
47
100
AcDbScale
 70
     0
300
1:40
140
1.0
141
40.0
290
     0
  0
SCALE
  5
52
102
{ACAD_REACTORS
330
47
102
}
330
47
100
AcDbScale
 70
     0
300
1:50
140
1.0
141
50.0
290
     0
  0
SCALE
  5
53
102
{ACAD_REACTORS
330
47
102
}
330
47
100
AcDbScale
 70
     0
300
1:100
140
1.0
141
100.0
290
     0
  0
SCALE
  5
54
102
{ACAD_REACTORS
330
47
102
}
330
47
100
AcDbScale
 70
     0
300
2:1
140
2.0
141
1.0
290
     0
  0
SCALE
  5
55
102
{ACAD_REACTORS
330
47
102
}
330
47
100
AcDbScale
 70
     0
300
4:1
140
4.0
141
1.0
290
     0
  0
SCALE
  5
56
102
{ACAD_REACTORS
330
47
102
}
330
47
100
AcDbScale
 70
     0
300
8:1
140
8.0
141
1.0
290
     0
  0
SCALE
  5
57
102
{ACAD_REACTORS
330
47
102
}
330
47
100
AcDbScale
 70
     0
300
10:1
140
10.0
141
1.0
290
     0
  0
SCALE
  5
58
102
{ACAD_REACTORS
330
47
102
}
330
47
100
AcDbScale
 70
     0
300
100:1
140
100.0
141
1.0
290
     0
  0
SCALE
  5
59
102
{ACAD_REACTORS
330
47
102
}
330
47
100
AcDbScale
 70
     0
300
1/128" = 1'-0"
140
0.0078125
141
12.0
290
     0
  0
SCALE
  5
5A
102
{ACAD_REACTORS
330
47
102
}
330
47
100
AcDbScale
 70
     0
300
1/64" = 1'-0"
140
0.015625
141
12.0
290
     0
  0
SCALE
  5
5B
102
{ACAD_REACTORS
330
47
102
}
330
47
100
AcDbScale
 70
     0
300
1/32" = 1'-0"
140
0.03125
141
12.0
290
     0
  0
SCALE
  5
5C
102
{ACAD_REACTORS
330
47
102
}
330
47
100
AcDbScale
 70
     0
300
1/16" = 1'-0"
140
0.0625
141
12.0
290
     0
  0
SCALE
  5
5D
102
{ACAD_REACTORS
330
47
102
}
330
47
100
AcDbScale
 70
     0
300
3/32" = 1'-0"
140
0.09375
141
12.0
290
     0
  0
SCALE
  5
5E
102
{ACAD_REACTORS
330
47
102
}
330
47
100
AcDbScale
 70
     0
300
1/8" = 1'-0"
140
0.125
141
12.0
290
     0
  0
SCALE
  5
5F
102
{ACAD_REACTORS
330
47
102
}
330
47
100
AcDbScale
 70
     0
300
3/16" = 1'-0"
140
0.1875
141
12.0
290
     0
  0
SCALE
  5
60
102
{ACAD_REACTORS
330
47
102
}
330
47
100
AcDbScale
 70
     0
300
1/4" = 1'-0"
140
0.25
141
12.0
290
     0
  0
SCALE
  5
61
102
{ACAD_REACTORS
330
47
102
}
330
47
100
AcDbScale
 70
     0
300
3/8" = 1'-0"
140
0.375
141
12.0
290
     0
  0
SCALE
  5
62
102
{ACAD_REACTORS
330
47
102
}
330
47
100
AcDbScale
 70
     0
300
1/2" = 1'-0"
140
0.5
141
12.0
290
     0
  0
SCALE
  5
63
102
{ACAD_REACTORS
330
47
102
}
330
47
100
AcDbScale
 70
     0
300
3/4" = 1'-0"
140
0.75
141
12.0
290
     0
  0
SCALE
  5
64
102
{ACAD_REACTORS
330
47
102
}
330
47
100
AcDbScale
 70
     0
300
1" = 1'-0"
140
1.0
141
12.0
290
     0
  0
SCALE
  5
65
102
{ACAD_REACTORS
330
47
102
}
330
47
100
AcDbScale
 70
     0
300
1-1/2" = 1'-0"
140
1.5
141
12.0
290
     0
  0
SCALE
  5
66
102
{ACAD_REACTORS
330
47
102
}
330
47
100
AcDbScale
 70
     0
300
3" = 1'-0"
140
3.0
141
12.0
290
     0
  0
SCALE
  5
67
102
{ACAD_REACTORS
330
47
102
}
330
47
100
AcDbScale
 70
     0
300
6" = 1'-0"
140
6.0
141
12.0
290
     0
  0
SCALE
  5
68
102
{ACAD_REACTORS
330
47
102
}
330
47
100
AcDbScale
 70
     0
300
1'-0" = 1'-0"
140
12.0
141
12.0
290
     0
  0
ENDSEC
  0
EOF
