  0
SECTION
  2
HEADER
  9
$ACADVER
  1
AC1015
  9
$ACADMAINTVER
 70
     6
  9
$DWGCODEPAGE
  3
ANSI_1251
  9
$INSBASE
 10
0.0
 20
0.0
 30
0.0
  9
$EXTMIN
 10
0.0
 20
0.0
 30
0.0
  9
$EXTMAX
 10
3000.0
 20
2500.0
 30
0.0
  9
$LIMMIN
 10
0.0
 20
0.0
  9
$LIMMAX
 10
3000.0
 20
2500.0
  9
$ORTHOMODE
 70
     0
  9
$REGENMODE
 70
     1
  9
$FILLMODE
 70
     1
  9
$QTEXTMODE
 70
     0
  9
$MIRRTEXT
 70
     1
  9
$LTSCALE
 40
1.0
  9
$ATTMODE
 70
     1
  9
$TEXTSIZE
 40
3.5
  9
$TRACEWID
 40
1.0
  9
$TEXTSTYLE
  7
Standard
  9
$CLAYER
  8
0
  9
$CELTYPE
  6
ByLayer
  9
$CECOLOR
 62
   256
  9
$CELTSCALE
 40
1.0
  9
$DISPSILH
 70
     0
  9
$DIMSCALE
 40
1.0
  9
$DIMASZ
 40
3.302
  9
$DIMEXO
 40
0.0
  9
$DIMDLI
 40
3.75
  9
$DIMRND
 40
0.0
  9
$DIMDLE
 40
0.0
  9
$DIMEXE
 40
1.0
  9
$DIMTP
 40
0.0
  9
$DIMTM
 40
0.0
  9
$DIMTXT
 40
3.5
  9
$DIMCEN
 40
2.5
  9
$DIMTSZ
 40
0.0
  9
$DIMTOL
 70
     0
  9
$DIMLIM
 70
     0
  9
$DIMTIH
 70
     1
  9
$DIMTOH
 70
     1
  9
$DIMSE1
 70
     0
  9
$DIMSE2
 70
     0
  9
$DIMTAD
 70
     1
  9
$DIMZIN
 70
     0
  9
$DIMBLK
  1

  9
$DIMASO
 70
     1
  9
$DIMSHO
 70
     1
  9
$DIMPOST
  1

  9
$DIMAPOST
  1

  9
$DIMALT
 70
     0
  9
$DIMALTD
 70
     3
  9
$DIMALTF
 40
0.0393700787
  9
$DIMLFAC
 40
1.0
  9
$DIMTOFL
 70
     1
  9
$DIMTVP
 40
0.0
  9
$DIMTIX
 70
     0
  9
$DIMSOXD
 70
     0
  9
$DIMSAH
 70
     0
  9
$DIMBLK1
  1

  9
$DIMBLK2
  1

  9
$DIMSTYLE
  2
ISO-25
  9
$DIMCLRD
 70
     0
  9
$DIMCLRE
 70
     0
  9
$DIMCLRT
 70
     0
  9
$DIMTFAC
 40
1.0
  9
$DIMGAP
 40
1.524
  9
$DIMJUST
 70
     0
  9
$DIMSD1
 70
     0
  9
$DIMSD2
 70
     0
  9
$DIMTOLJ
 70
     0
  9
$DIMTZIN
 70
     0
  9
$DIMALTZ
 70
     0
  9
$DIMALTTZ
 70
     0
  9
$DIMUPT
 70
     0
  9
$DIMDEC
 70
     2
  9
$DIMTDEC
 70
     2
  9
$DIMALTU
 70
     2
  9
$DIMALTTD
 70
     3
  9
$DIMTXSTY
  7
Standard
  9
$DIMAUNIT
 70
     0
  9
$DIMADEC
 70
     2
  9
$DIMALTRND
 40
0.0
  9
$DIMAZIN
 70
     0
  9
$DIMDSEP
 70
    44
  9
$DIMATFIT
 70
     3
  9
$DIMFRAC
 70
     0
  9
$DIMLDRBLK
  1

  9
$DIMLUNIT
 70
     2
  9
$DIMLWD
 70
    -2
  9
$DIMLWE
 70
    -2
  9
$DIMTMOVE
 70
     0
  9
$LUNITS
 70
     2
  9
$LUPREC
 70
     1
  9
$SKETCHINC
 40
1.0
  9
$FILLETRAD
 40
10.0
  9
$AUNITS
 70
     1
  9
$AUPREC
 70
     2
  9
$MENU
  1
.
  9
$ELEVATION
 40
0.0
  9
$PELEVATION
 40
0.0
  9
$THICKNESS
 40
0.0
  9
$LIMCHECK
 70
     0
  9
$CHAMFERA
 40
0.0
  9
$CHAMFERB
 40
0.0
  9
$CHAMFERC
 40
0.0
  9
$CHAMFERD
 40
0.0
  9
$SKPOLY
 70
     0
  9
$TDCREATE
 40
2459491.631196099
  9
$TDUCREATE
 40
2459491.506196099
  9
$TDUPDATE
 40
2459491.63120044
  9
$TDUUPDATE
 40
2459491.50620044
  9
$TDINDWG
 40
0.0000000116
  9
$TDUSRTIMER
 40
0.0000000116
  9
$USRTIMER
 70
     1
  9
$ANGBASE
 50
0.0
  9
$ANGDIR
 70
     0
  9
$PDMODE
 70
     0
  9
$PDSIZE
 40
-1.0
  9
$PLINEWID
 40
0.0
  9
$SPLFRAME
 70
     0
  9
$SPLINETYPE
 70
     6
  9
$SPLINESEGS
 70
     8
  9
$HANDSEED
  5
243
  9
$SURFTAB1
 70
     6
  9
$SURFTAB2
 70
     6
  9
$SURFTYPE
 70
     6
  9
$SURFU
 70
     6
  9
$SURFV
 70
     6
  9
$UCSBASE
  2

  9
$UCSNAME
  2

  9
$UCSORG
 10
0.0
 20
0.0
 30
0.0
  9
$UCSXDIR
 10
1.0
 20
0.0
 30
0.0
  9
$UCSYDIR
 10
0.0
 20
1.0
 30
0.0
  9
$UCSORTHOREF
  2

  9
$UCSORTHOVIEW
 70
     0
  9
$UCSORGTOP
 10
0.0
 20
0.0
 30
0.0
  9
$UCSORGBOTTOM
 10
0.0
 20
0.0
 30
0.0
  9
$UCSORGLEFT
 10
0.0
 20
0.0
 30
0.0
  9
$UCSORGRIGHT
 10
0.0
 20
0.0
 30
0.0
  9
$UCSORGFRONT
 10
0.0
 20
0.0
 30
0.0
  9
$UCSORGBACK
 10
0.0
 20
0.0
 30
0.0
  9
$PUCSBASE
  2

  9
$PUCSNAME
  2

  9
$PUCSORG
 10
0.0
 20
0.0
 30
0.0
  9
$PUCSXDIR
 10
1.0
 20
0.0
 30
0.0
  9
$PUCSYDIR
 10
0.0
 20
1.0
 30
0.0
  9
$PUCSORTHOREF
  2

  9
$PUCSORTHOVIEW
 70
     0
  9
$PUCSORGTOP
 10
0.0
 20
0.0
 30
0.0
  9
$PUCSORGBOTTOM
 10
0.0
 20
0.0
 30
0.0
  9
$PUCSORGLEFT
 10
0.0
 20
0.0
 30
0.0
  9
$PUCSORGRIGHT
 10
0.0
 20
0.0
 30
0.0
  9
$PUCSORGFRONT
 10
0.0
 20
0.0
 30
0.0
  9
$PUCSORGBACK
 10
0.0
 20
0.0
 30
0.0
  9
$USERI1
 70
     0
  9
$USERI2
 70
     0
  9
$USERI3
 70
     0
  9
$USERI4
 70
     0
  9
$USERI5
 70
     0
  9
$USERR1
 40
0.0
  9
$USERR2
 40
0.0
  9
$USERR3
 40
0.0
  9
$USERR4
 40
0.0
  9
$USERR5
 40
0.0
  9
$WORLDVIEW
 70
     1
  9
$SHADEDGE
 70
     3
  9
$SHADEDIF
 70
    70
  9
$TILEMODE
 70
     1
  9
$MAXACTVP
 70
    64
  9
$PINSBASE
 10
0.0
 20
0.0
 30
0.0
  9
$PLIMCHECK
 70
     0
  9
$PEXTMIN
 10
1.0000000000E+20
 20
1.0000000000E+20
 30
1.0000000000E+20
  9
$PEXTMAX
 10
-1.0000000000E+20
 20
-1.0000000000E+20
 30
-1.0000000000E+20
  9
$PLIMMIN
 10
0.0
 20
0.0
  9
$PLIMMAX
 10
420.0
 20
297.0
  9
$UNITMODE
 70
     0
  9
$VISRETAIN
 70
     1
  9
$PLINEGEN
 70
     0
  9
$PSLTSCALE
 70
     1
  9
$TREEDEPTH
 70
  3020
  9
$CMLSTYLE
  2
Standard
  9
$CMLJUST
 70
     0
  9
$CMLSCALE
 40
20.0
  9
$PROXYGRAPHICS
 70
     1
  9
$MEASUREMENT
 70
     1
  9
$CELWEIGHT
370
    -1
  9
$ENDCAPS
280
     0
  9
$JOINSTYLE
280
     0
  9
$LWDISPLAY
290
     1
  9
$INSUNITS
 70
     4
  9
$HYPERLINKBASE
  1

  9
$STYLESHEET
  1

  9
$XEDIT
290
     1
  9
$CEPSNTYPE
380
     0
  9
$PSTYLEMODE
290
     1
  9
$FINGERPRINTGUID
  2
{1B4600FC-0E43-4791-B7CD-CF8246BA4CD7}
  9
$VERSIONGUID
  2
{FAEB1C32-E019-11D5-929B-00C0DF256EC4}
  9
$EXTNAMES
290
     1
  9
$PSVPSCALE
 40
0.0
  9
$OLESTARTUP
290
     0
  0
ENDSEC
  0
SECTION
  2
CLASSES
  0
CLASS
  1
ACDBDICTIONARYWDFLT
  2
AcDbDictionaryWithDefault
  3
ObjectDBX Classes
 90
        0
280
     0
281
     0
  0
CLASS
  1
VISUALSTYLE
  2
AcDbVisualStyle
  3
ObjectDBX Classes
 90
     4095
280
     0
281
     0
  0
CLASS
  1
MATERIAL
  2
AcDbMaterial
  3
ObjectDBX Classes
 90
     1153
280
     0
281
     0
  0
CLASS
  1
SCALE
  2
AcDbScale
  3
ObjectDBX Classes
 90
     1153
280
     0
281
     0
  0
CLASS
  1
TABLESTYLE
  2
AcDbTableStyle
  3
ObjectDBX Classes
 90
     4095
280
     0
281
     0
  0
CLASS
  1
MLEADERSTYLE
  2
AcDbMLeaderStyle
  3
ACDB_MLEADERSTYLE_CLASS
 90
     4095
280
     0
281
     0
  0
CLASS
  1
SUN
  2
AcDbSun
  3
SCENEOE
 90
     1153
280
     0
281
     0
  0
CLASS
  1
ACDBPLACEHOLDER
  2
AcDbPlaceHolder
  3
ObjectDBX Classes
 90
        0
280
     0
281
     0
  0
CLASS
  1
LAYOUT
  2
AcDbLayout
  3
ObjectDBX Classes
 90
        0
280
     0
281
     0
  0
ENDSEC
  0
SECTION
  2
TABLES
  0
TABLE
  2
VPORT
  5
8
330
0
100
AcDbSymbolTable
 70
     1
  0
VPORT
  5
29
330
8
100
AcDbSymbolTableRecord
100
AcDbViewportTableRecord
  2
*Active
 70
     0
 10
0.0
 20
0.0
 11
1.0
 21
1.0
 12
1500.0
 22
1250.0
 13
0.0
 23
0.0
 14
10.0
 24
10.0
 15
10.0
 25
10.0
 16
0.0
 26
0.0
 36
1.0
 17
0.0
 27
0.0
 37
0.0
 40
2500.0
 41
1.2
 42
50.0
 43
0.0
 44
0.0
 50
0.0
 51
0.0
 71
     0
 72
  2000
 73
     1
 74
     3
 75
     0
 76
     0
 77
     0
 78
     0
281
     0
 65
     1
110
0.0
120
0.0
130
0.0
111
1.0
121
0.0
131
0.0
112
0.0
122
1.0
132
0.0
 79
     0
146
0.0
  0
ENDTAB
  0
TABLE
  2
LTYPE
  5
5
330
0
100
AcDbSymbolTable
 70
     6
  0
LTYPE
  5
14
330
5
100
AcDbSymbolTableRecord
100
AcDbLinetypeTableRecord
  2
ByBlock
 70
     0
  3

 72
    65
 73
     0
 40
0.0
  0
LTYPE
  5
15
330
5
100
AcDbSymbolTableRecord
100
AcDbLinetypeTableRecord
  2
ByLayer
 70
     0
  3

 72
    65
 73
     0
 40
0.0
  0
LTYPE
  5
16
330
5
100
AcDbSymbolTableRecord
100
AcDbLinetypeTableRecord
  2
Continuous
 70
     0
  3
Solid line
 72
    65
 73
     0
 40
0.0
  0
LTYPE
  5
6E
330
5
100
AcDbSymbolTableRecord
100
AcDbLinetypeTableRecord
  2
HIDDEN
 70
     0
  3
Hidden __ __ __ __ __ __ __ __ __ __ __ __ __ __
 72
    65
 73
     2
 40
1.905
 49
1.27
 74
     0
 49
-0.635
 74
     0
  0
LTYPE
  5
6F
330
5
100
AcDbSymbolTableRecord
100
AcDbLinetypeTableRecord
  2
PHANTOM
 70
     0
  3
Phantom ______  __  __  ______  __  __  ______
 72
    65
 73
     6
 40
12.7
 49
6.35
 74
     0
 49
-1.27
 74
     0
 49
1.27
 74
     0
 49
-1.27
 74
     0
 49
1.27
 74
     0
 49
-1.27
 74
     0
  0
LTYPE
  5
70
330
5
100
AcDbSymbolTableRecord
100
AcDbLinetypeTableRecord
  2
CENTER
 70
     0
  3
Center ____ _ ____ _ ____ _ ____ _ ____ _ ____
 72
    65
 73
     4
 40
10.16
 49
6.35
 74
     0
 49
-1.27
 74
     0
 49
1.27
 74
     0
 49
-1.27
 74
     0
  0
LTYPE
  5
71
330
5
100
AcDbSymbolTableRecord
100
AcDbLinetypeTableRecord
  2
CENTERX2
 70
     0
  3
Center (2x) ________  __  ________  __  _____
 72
    65
 73
     4
 40
20.32
 49
12.7
 74
     0
 49
-2.54
 74
     0
 49
2.54
 74
     0
 49
-2.54
 74
     0
  0
LTYPE
  5
72
330
5
100
AcDbSymbolTableRecord
100
AcDbLinetypeTableRecord
  2
DOT2
 70
     0
  3
Dot (.5x) ........................................
 72
    65
 73
     2
 40
0.635
 49
0.0
 74
     0
 49
-0.635
 74
     0
  0
ENDTAB
  0
TABLE
  2
LAYER
  5
2
330
0
100
AcDbSymbolTable
 70
     8
  0
LAYER
  5
10
330
2
100
AcDbSymbolTableRecord
100
AcDbLayerTableRecord
  2
0
 70
     0
 62
     7
  6
Continuous
370
    -3
390
F
  0
LAYER
  5
73
330
2
100
AcDbSymbolTableRecord
100
AcDbLayerTableRecord
  2
SLD-0
 70
     0
 62
     7
  6
Continuous
370
    25
390
F
  0
LAYER
  5
74
330
2
100
AcDbSymbolTableRecord
100
AcDbLayerTableRecord
  2
OSNOVA
 70
     0
 62
     5
  6
Continuous
370
    -3
390
F
  0
LAYER
  5
75
330
2
100
AcDbSymbolTableRecord
100
AcDbLayerTableRecord
  2
THIN_LINE
 70
     0
 62
     7
  6
Continuous
370
    25
390
F
  0
LAYER
  5
76
330
2
100
AcDbSymbolTableRecord
100
AcDbLayerTableRecord
  2
THICK_LINE
 70
     0
 62
     7
  6
Continuous
370
    25
390
F
  0
LAYER
  5
77
330
2
100
AcDbSymbolTableRecord
100
AcDbLayerTableRecord
  2
THIN_LIONE
 70
     0
 62
     7
  6
Continuous
370
    -3
390
F
  0
LAYER
  5
78
330
2
100
AcDbSymbolTableRecord
100
AcDbLayerTableRecord
  2
THICK_LIONE
 70
     0
 62
     7
  6
Continuous
370
    25
390
F
  0
LAYER
  5
79
330
2
100
AcDbSymbolTableRecord
100
AcDbLayerTableRecord
  2
ИЗМЕН_РАЗМЕР
 70
     0
 62
     1
  6
Continuous
370
    -3
390
F
  0
ENDTAB
  0
TABLE
  2
STYLE
  5
3
330
0
100
AcDbSymbolTable
 70
     1
  0
STYLE
  5
11
330
3
100
AcDbSymbolTableRecord
100
AcDbTextStyleTableRecord
  2
Standard
 70
     0
 40
0.0
 41
1.0
 50
0.0
 71
     0
 42
3.5
  3
txt
  4

  0
ENDTAB
  0
TABLE
  2
VIEW
  5
6
330
0
100
AcDbSymbolTable
 70
     0
  0
ENDTAB
  0
TABLE
  2
UCS
  5
7
330
0
100
AcDbSymbolTable
 70
     0
  0
ENDTAB
  0
TABLE
  2
APPID
  5
9
330
0
100
AcDbSymbolTable
 70
     1
  0
APPID
  5
12
330
9
100
AcDbSymbolTableRecord
100
AcDbRegAppTableRecord
  2
ACAD
 70
     0
  0
ENDTAB
  0
TABLE
  2
DIMSTYLE
  5
A
330
0
100
AcDbSymbolTable
 70
     1
100
AcDbDimStyleTable
  0
DIMSTYLE
105
27
330
A
100
AcDbSymbolTableRecord
100
AcDbDimStyleTableRecord
  2
ISO-25
 70
     0
 41
2.5
 42
0.625
 43
3.75
 44
1.25
 73
     0
 74
     0
 77
     1
 78
     8
140
2.5
141
2.5
143
0.0393700787
147
0.625
171
     3
172
     1
178
     0
271
     2
272
     2
274
     3
278
    44
283
     0
284
     8
340
11
  0
ENDTAB
  0
TABLE
  2
BLOCK_RECORD
  5
1
330
0
100
AcDbSymbolTable
 70
     1
  0
BLOCK_RECORD
  5
1F
330
1
100
AcDbSymbolTableRecord
100
AcDbBlockTableRecord
  2
*Model_Space
340
22
  0
BLOCK_RECORD
  5
1B
330
1
100
AcDbSymbolTableRecord
100
AcDbBlockTableRecord
  2
*Paper_Space
340
1E
  0
BLOCK_RECORD
  5
23
330
1
100
AcDbSymbolTableRecord
100
AcDbBlockTableRecord
  2
*Paper_Space0
340
26
  0
ENDTAB
  0
ENDSEC
  0
SECTION
  2
BLOCKS
  0
BLOCK
  5
20
330
1F
100
AcDbEntity
  8
0
100
AcDbBlockBegin
  2
*Model_Space
 70
     0
 10
0.0
 20
0.0
 30
0.0
  3
*Model_Space
  1

  0
ENDBLK
  5
21
330
1F
100
AcDbEntity
  8
0
100
AcDbBlockEnd
  0
BLOCK
  5
1C
330
1B
100
AcDbEntity
 67
     1
  8
0
100
AcDbBlockBegin
  2
*Paper_Space
 70
     0
 10
0.0
 20
0.0
 30
0.0
  3
*Paper_Space
  1

  0
ENDBLK
  5
1D
330
1B
100
AcDbEntity
 67
     1
  8
0
100
AcDbBlockEnd
  0
BLOCK
  5
24
330
23
100
AcDbEntity
  8
0
100
AcDbBlockBegin
  2
*Paper_Space0
 70
     0
 10
0.0
 20
0.0
 30
0.0
  3
*Paper_Space0
  1

  0
ENDBLK
  5
25
330
23
100
AcDbEntity
  8
0
100
AcDbBlockEnd
  0
ENDSEC
  0
SECTION
  2
ENTITIES
  0
LINE
  5
7A
330
1F
100
AcDbEntity
  8
0
  6
Continuous
 62
     7
370
    25
100
AcDbLine
 10
120.9319913136
 20
1409.3115657532
 30
0.0
 11
120.9319913136
 21
1410.7104887277
 31
0.0
  0
LINE
  5
7B
330
1F
100
AcDbEntity
  8
0
  6
Continuous
 62
     7
370
    25
100
AcDbLine
 10
2120.9319913136
 20
1410.7104887277
 30
0.0
 11
120.9319913136
 21
1410.7104887277
 31
0.0
  0
LINE
  5
7C
330
1F
100
AcDbEntity
  8
0
  6
Continuous
 62
     7
370
    25
100
AcDbLine
 10
2120.9319913136
 20
1409.3115657532
 30
0.0
 11
2120.9319913136
 21
1410.7104887277
 31
0.0
  0
LINE
  5
7D
330
1F
100
AcDbEntity
  8
0
  6
Continuous
 62
     7
370
    25
100
AcDbLine
 10
2120.9319913136
 20
1344.3115657532
 30
0.0
 11
120.9319913136
 21
1344.3115657532
 31
0.0
  0
LINE
  5
7E
330
1F
100
AcDbEntity
  8
0
  6
Continuous
 62
     7
370
    25
100
AcDbLine
 10
120.9319913136
 20
1409.3115657532
 30
0.0
 11
120.9319913136
 21
1347.3115657532
 31
0.0
  0
ARC
  5
7F
330
1F
100
AcDbEntity
  8
0
  6
Continuous
 62
     7
370
    25
100
AcDbCircle
 10
204.9319913136
 20
1362.3115657532
 30
0.0
 40
3.499999999999773
100
AcDbArc
 50
270.0
 51
90.0
  0
LINE
  5
80
330
1F
100
AcDbEntity
  8
0
  6
Continuous
 62
     7
370
    25
100
AcDbLine
 10
204.9319913136
 20
1365.8115657532
 30
0.0
 11
186.9319913136
 21
1365.8115657532
 31
0.0
  0
ARC
  5
81
330
1F
100
AcDbEntity
  8
0
  6
Continuous
 62
     7
370
    25
100
AcDbCircle
 10
186.9319913136
 20
1362.3115657532
 30
0.0
 40
3.499999999999773
100
AcDbArc
 50
90.0
 51
270.0
  0
LINE
  5
82
330
1F
100
AcDbEntity
  8
0
  6
Continuous
 62
     7
370
    25
100
AcDbLine
 10
186.9319913136
 20
1358.8115657532
 30
0.0
 11
204.9319913136
 21
1358.8115657532
 31
0.0
  0
ARC
  5
83
330
1F
100
AcDbEntity
  8
0
  6
Continuous
 62
     7
370
    25
100
AcDbCircle
 10
2086.9319913136
 20
1362.3115657532
 30
0.0
 40
3.5
100
AcDbArc
 50
90.0
 51
270.0
  0
LINE
  5
84
330
1F
100
AcDbEntity
  8
0
  6
Continuous
 62
     7
370
    25
100
AcDbLine
 10
2086.9319913136
 20
1358.8115657532
 30
0.0
 11
2104.9319913136
 21
1358.8115657532
 31
0.0
  0
ARC
  5
85
330
1F
100
AcDbEntity
  8
0
  6
Continuous
 62
     7
370
    25
100
AcDbCircle
 10
2104.9319913136
 20
1362.3115657532
 30
0.0
 40
3.5
100
AcDbArc
 50
270.0
 51
90.0
  0
LINE
  5
86
330
1F
100
AcDbEntity
  8
0
  6
Continuous
 62
     7
370
    25
100
AcDbLine
 10
2104.9319913136
 20
1365.8115657532
 30
0.0
 11
2086.9319913136
 21
1365.8115657532
 31
0.0
  0
ARC
  5
87
330
1F
100
AcDbEntity
  8
0
  6
Continuous
 62
     7
370
    25
100
AcDbCircle
 10
2036.9319913136
 20
1362.3115657532
 30
0.0
 40
3.499999999999773
100
AcDbArc
 50
90.0
 51
270.0
  0
LINE
  5
88
330
1F
100
AcDbEntity
  8
0
  6
Continuous
 62
     7
370
    25
100
AcDbLine
 10
2036.9319913136
 20
1358.8115657532
 30
0.0
 11
2054.9319913136
 21
1358.8115657532
 31
0.0
  0
ARC
  5
89
330
1F
100
AcDbEntity
  8
0
  6
Continuous
 62
     7
370
    25
100
AcDbCircle
 10
2054.9319913136
 20
1362.3115657532
 30
0.0
 40
3.499999999999773
100
AcDbArc
 50
270.0
 51
90.0
  0
LINE
  5
8A
330
1F
100
AcDbEntity
  8
0
  6
Continuous
 62
     7
370
    25
100
AcDbLine
 10
2054.9319913136
 20
1365.8115657532
 30
0.0
 11
2036.9319913136
 21
1365.8115657532
 31
0.0
  0
ARC
  5
8B
330
1F
100
AcDbEntity
  8
0
  6
Continuous
 62
     7
370
    25
100
AcDbCircle
 10
154.9319913136
 20
1362.3115657532
 30
0.0
 40
3.5
100
AcDbArc
 50
270.0
 51
90.0
  0
LINE
  5
8C
330
1F
100
AcDbEntity
  8
0
  6
Continuous
 62
     7
370
    25
100
AcDbLine
 10
154.9319913136
 20
1365.8115657532
 30
0.0
 11
136.9319913136
 21
1365.8115657532
 31
0.0
  0
ARC
  5
8D
330
1F
100
AcDbEntity
  8
0
  6
Continuous
 62
     7
370
    25
100
AcDbCircle
 10
136.9319913136
 20
1362.3115657532
 30
0.0
 40
3.5
100
AcDbArc
 50
90.0
 51
270.0
  0
LINE
  5
8E
330
1F
100
AcDbEntity
  8
0
  6
Continuous
 62
     7
370
    25
100
AcDbLine
 10
136.9319913136
 20
1358.8115657532
 30
0.0
 11
154.9319913136
 21
1358.8115657532
 31
0.0
  0
ARC
  5
8F
330
1F
100
AcDbEntity
  8
0
  6
Continuous
 62
     7
370
    25
100
AcDbCircle
 10
2086.9319913136
 20
1387.3115657532
 30
0.0
 40
3.5
100
AcDbArc
 50
90.0
 51
270.0
  0
LINE
  5
90
330
1F
100
AcDbEntity
  8
0
  6
Continuous
 62
     7
370
    25
100
AcDbLine
 10
2086.9319913136
 20
1383.8115657532
 30
0.0
 11
2104.9319913136
 21
1383.8115657532
 31
0.0
  0
ARC
  5
91
330
1F
100
AcDbEntity
  8
0
  6
Continuous
 62
     7
370
    25
100
AcDbCircle
 10
2104.9319913136
 20
1387.3115657532
 30
0.0
 40
3.500000000000227
100
AcDbArc
 50
270.0
 51
90.0
  0
LINE
  5
92
330
1F
100
AcDbEntity
  8
0
  6
Continuous
 62
     7
370
    25
100
AcDbLine
 10
2054.9319913136
 20
1390.8115657532
 30
0.0
 11
2036.9319913136
 21
1390.8115657532
 31
0.0
  0
ARC
  5
93
330
1F
100
AcDbEntity
  8
0
  6
Continuous
 62
     7
370
    25
100
AcDbCircle
 10
154.9319913136
 20
1387.3115657532
 30
0.0
 40
3.5
100
AcDbArc
 50
270.0
 51
90.0
  0
LINE
  5
94
330
1F
100
AcDbEntity
  8
0
  6
Continuous
 62
     7
370
    25
100
AcDbLine
 10
154.9319913136
 20
1390.8115657532
 30
0.0
 11
136.9319913136
 21
1390.8115657532
 31
0.0
  0
ARC
  5
95
330
1F
100
AcDbEntity
  8
0
  6
Continuous
 62
     7
370
    25
100
AcDbCircle
 10
136.9319913136
 20
1387.3115657532
 30
0.0
 40
3.500000000000227
100
AcDbArc
 50
90.0
 51
270.0
  0
LINE
  5
96
330
1F
100
AcDbEntity
  8
0
  6
Continuous
 62
     7
370
    25
100
AcDbLine
 10
136.9319913136
 20
1383.8115657532
 30
0.0
 11
154.9319913136
 21
1383.8115657532
 31
0.0
  0
ARC
  5
97
330
1F
100
AcDbEntity
  8
0
  6
Continuous
 62
     7
370
    25
100
AcDbCircle
 10
2036.9319913136
 20
1387.3115657532
 30
0.0
 40
3.5
100
AcDbArc
 50
90.0
 51
270.0
  0
LINE
  5
98
330
1F
100
AcDbEntity
  8
0
  6
Continuous
 62
     7
370
    25
100
AcDbLine
 10
2036.9319913136
 20
1383.8115657532
 30
0.0
 11
2054.9319913136
 21
1383.8115657532
 31
0.0
  0
ARC
  5
99
330
1F
100
AcDbEntity
  8
0
  6
Continuous
 62
     7
370
    25
100
AcDbCircle
 10
2054.9319913136
 20
1387.3115657532
 30
0.0
 40
3.5
100
AcDbArc
 50
270.0
 51
90.0
  0
LINE
  5
9A
330
1F
100
AcDbEntity
  8
0
  6
Continuous
 62
     7
370
    25
100
AcDbLine
 10
2104.9319913136
 20
1390.8115657532
 30
0.0
 11
2086.9319913136
 21
1390.8115657532
 31
0.0
  0
LINE
  5
9B
330
1F
100
AcDbEntity
  8
0
  6
Continuous
 62
     7
370
    25
100
AcDbLine
 10
120.9319913136
 20
1344.3115657532
 30
0.0
 11
120.9319913136
 21
1347.3115657532
 31
0.0
  0
LINE
  5
9C
330
1F
100
AcDbEntity
  8
0
  6
Continuous
 62
     7
370
    25
100
AcDbLine
 10
2120.9319913136
 20
1409.3115657532
 30
0.0
 11
2120.9319913136
 21
1347.3115657532
 31
0.0
  0
LINE
  5
9D
330
1F
100
AcDbEntity
  8
0
  6
Continuous
 62
     7
370
    25
100
AcDbLine
 10
2120.9319913136
 20
1344.3115657532
 30
0.0
 11
2120.9319913136
 21
1347.3115657532
 31
0.0
  0
LINE
  5
9E
330
1F
100
AcDbEntity
  8
0
  6
Continuous
 62
     7
370
    25
100
AcDbLine
 10
186.9319913136
 20
1383.8115657532
 30
0.0
 11
204.9319913136
 21
1383.8115657532
 31
0.0
  0
ARC
  5
9F
330
1F
100
AcDbEntity
  8
0
  6
Continuous
 62
     7
370
    25
100
AcDbCircle
 10
204.9319913136
 20
1387.3115657532
 30
0.0
 40
3.5
100
AcDbArc
 50
270.0
 51
90.0
  0
LINE
  5
A0
330
1F
100
AcDbEntity
  8
0
  6
Continuous
 62
     7
370
    25
100
AcDbLine
 10
204.9319913136
 20
1390.8115657532
 30
0.0
 11
186.9319913136
 21
1390.8115657532
 31
0.0
  0
ARC
  5
A1
330
1F
100
AcDbEntity
  8
0
  6
Continuous
 62
     7
370
    25
100
AcDbCircle
 10
186.9319913136
 20
1387.3115657532
 30
0.0
 40
3.5
100
AcDbArc
 50
90.0
 51
270.0
  0
LINE
  5
A2
330
1F
100
AcDbEntity
  8
0
  6
Continuous
 62
     7
370
    25
100
AcDbLine
 10
2120.9319913136
 20
1411.6096990826
 30
0.0
 11
2120.9319913136
 21
1415.1069954101
 31
0.0
  0
LINE
  5
A3
330
1F
100
AcDbEntity
  8
0
  6
Continuous
 62
     7
370
    25
100
AcDbLine
 10
120.9319913136
 20
1415.1069954101
 30
0.0
 11
120.9319913136
 21
1411.6096990826
 31
0.0
  0
LINE
  5
A4
330
1F
100
AcDbEntity
  8
0
  6
Continuous
 62
     7
370
    25
100
AcDbLine
 10
120.9319913136
 20
1415.1069954101
 30
0.0
 11
2120.9319913136
 21
1415.1069954101
 31
0.0
  0
LINE
  5
A5
330
1F
100
AcDbEntity
  8
0
  6
Continuous
 62
     7
370
    25
100
AcDbLine
 10
2120.9319913136
 20
1410.7104887277
 30
0.0
 11
2120.9319913136
 21
1411.6096990826
 31
0.0
  0
LINE
  5
A6
330
1F
100
AcDbEntity
  8
0
  6
Continuous
 62
     7
370
    25
100
AcDbLine
 10
120.9319913136
 20
1410.7104887277
 30
0.0
 11
120.9319913136
 21
1411.6096990826
 31
0.0
  0
LINE
  5
A7
330
1F
100
AcDbEntity
  8
0
  6
Continuous
 62
     7
370
    25
100
AcDbLine
 10
120.9319913136
 20
1420.1594974923
 30
0.0
 11
2120.9319913136
 21
1420.1594974923
 31
0.0
  0
LINE
  5
A8
330
1F
100
AcDbEntity
  8
0
  6
Continuous
 62
     7
370
    25
100
AcDbLine
 10
2120.9319913136
 20
1420.1594974923
 30
0.0
 11
2120.9319913136
 21
1415.1069954101
 31
0.0
  0
LINE
  5
A9
330
1F
100
AcDbEntity
  8
0
  6
Continuous
 62
     7
370
    25
100
AcDbLine
 10
120.9319913136
 20
1420.1594974923
 30
0.0
 11
120.9319913136
 21
1415.1069954101
 31
0.0
  0
LINE
  5
AA
330
1F
100
AcDbEntity
  8
0
  6
Continuous
 62
     7
370
    25
100
AcDbLine
 10
2120.9319913136
 20
1424.2778734114
 30
0.0
 11
120.9319913136
 21
1424.2778734114
 31
0.0
  0
LINE
  5
AB
330
1F
100
AcDbEntity
  8
0
  6
Continuous
 62
     7
370
    25
100
AcDbLine
 10
2120.9319913136
 20
1420.1594974923
 30
0.0
 11
2120.9319913136
 21
1424.2778734114
 31
0.0
  0
LINE
  5
AC
330
1F
100
AcDbEntity
  8
0
  6
Continuous
 62
     7
370
    25
100
AcDbLine
 10
120.9319913136
 20
1424.2778734114
 30
0.0
 11
120.9319913136
 21
1420.1594974923
 31
0.0
  0
LINE
  5
AD
330
1F
100
AcDbEntity
  8
0
  6
Continuous
 62
     7
370
    25
100
AcDbLine
 10
120.9319913136
 20
2158.3121672365
 30
0.0
 11
120.9319913136
 21
2161.3121672365
 31
0.0
  0
LINE
  5
AE
330
1F
100
AcDbEntity
  8
0
  6
Continuous
 62
     7
370
    25
100
AcDbLine
 10
2120.9319913136
 20
2161.3121672365
 30
0.0
 11
120.9319913136
 21
2161.3121672365
 31
0.0
  0
LINE
  5
AF
330
1F
100
AcDbEntity
  8
0
  6
Continuous
 62
     7
370
    25
100
AcDbLine
 10
2120.9319913136
 20
2158.3121672365
 30
0.0
 11
2120.9319913136
 21
2161.3121672365
 31
0.0
  0
LINE
  5
B0
330
1F
100
AcDbEntity
  8
0
  6
Continuous
 62
     7
370
    25
100
AcDbLine
 10
2120.9319913136
 20
2158.3121672365
 30
0.0
 11
2120.9319913136
 21
1664.3121672365
 31
0.0
  0
LINE
  5
B1
330
1F
100
AcDbEntity
  8
0
  6
Continuous
 62
     7
370
    25
100
AcDbLine
 10
2120.9319913136
 20
1661.3121672365
 30
0.0
 11
120.9319913136
 21
1661.3121672365
 31
0.0
  0
LINE
  5
B2
330
1F
100
AcDbEntity
  8
0
  6
Continuous
 62
     7
370
    25
100
AcDbLine
 10
120.9319913136
 20
1661.3121672365
 30
0.0
 11
120.9319913136
 21
1664.3121672365
 31
0.0
  0
LINE
  5
B3
330
1F
100
AcDbEntity
  8
0
  6
Continuous
 62
     7
370
    25
100
AcDbLine
 10
120.9319913136
 20
2158.3121672365
 30
0.0
 11
120.9319913136
 21
1664.3121672365
 31
0.0
  0
ARC
  5
B4
330
1F
100
AcDbEntity
  8
0
  6
Continuous
 62
     7
370
    25
100
AcDbCircle
 10
2099.9319913136
 20
1915.3121672365
 30
0.0
 40
1.000000000000227
100
AcDbArc
 50
90.0
 51
180.0
  0
LINE
  5
B5
330
1F
100
AcDbEntity
  8
0
  6
Continuous
 62
     7
370
    25
100
AcDbLine
 10
2098.9319913136
 20
1907.3121672365
 30
0.0
 11
2098.9319913136
 21
1915.3121672365
 31
0.0
  0
ARC
  5
B6
330
1F
100
AcDbEntity
  8
0
  6
Continuous
 62
     7
370
    25
100
AcDbCircle
 10
2099.9319913136
 20
1907.3121672365
 30
0.0
 40
1.0
100
AcDbArc
 50
180.0
 51
270.0
  0
LINE
  5
B7
330
1F
100
AcDbEntity
  8
0
  6
Continuous
 62
     7
370
    25
100
AcDbLine
 10
2104.9319913136
 20
1906.3121672365
 30
0.0
 11
2099.9319913136
 21
1906.3121672365
 31
0.0
  0
ARC
  5
B8
330
1F
100
AcDbEntity
  8
0
  6
Continuous
 62
     7
370
    25
100
AcDbCircle
 10
2104.9319913136
 20
1907.3121672365
 30
0.0
 40
1.000000000000455
100
AcDbArc
 50
270.0
 51
0.0
  0
LINE
  5
B9
330
1F
100
AcDbEntity
  8
0
  6
Continuous
 62
     7
370
    25
100
AcDbLine
 10
2105.9319913136
 20
1915.3121672365
 30
0.0
 11
2105.9319913136
 21
1907.3121672365
 31
0.0
  0
ARC
  5
BA
330
1F
100
AcDbEntity
  8
0
  6
Continuous
 62
     7
370
    25
100
AcDbCircle
 10
2104.9319913136
 20
1915.3121672365
 30
0.0
 40
1.000000000000455
100
AcDbArc
 50
0.0
 51
90.0
  0
LINE
  5
BB
330
1F
100
AcDbEntity
  8
0
  6
Continuous
 62
     7
370
    25
100
AcDbLine
 10
2099.9319913136
 20
1916.3121672365
 30
0.0
 11
2104.9319913136
 21
1916.3121672365
 31
0.0
  0
ARC
  5
BC
330
1F
100
AcDbEntity
  8
0
  6
Continuous
 62
     7
370
    25
100
AcDbCircle
 10
136.9319913136
 20
1915.3121672365
 30
0.0
 40
1.000000000000227
100
AcDbArc
 50
90.0
 51
180.0
  0
LINE
  5
BD
330
1F
100
AcDbEntity
  8
0
  6
Continuous
 62
     7
370
    25
100
AcDbLine
 10
135.9319913136
 20
1907.3121672365
 30
0.0
 11
135.9319913136
 21
1915.3121672365
 31
0.0
  0
ARC
  5
BE
330
1F
100
AcDbEntity
  8
0
  6
Continuous
 62
     7
370
    25
100
AcDbCircle
 10
136.9319913136
 20
1907.3121672365
 30
0.0
 40
1.0
100
AcDbArc
 50
180.0
 51
270.0
  0
LINE
  5
BF
330
1F
100
AcDbEntity
  8
0
  6
Continuous
 62
     7
370
    25
100
AcDbLine
 10
141.9319913136
 20
1906.3121672365
 30
0.0
 11
136.9319913136
 21
1906.3121672365
 31
0.0
  0
ARC
  5
C0
330
1F
100
AcDbEntity
  8
0
  6
Continuous
 62
     7
370
    25
100
AcDbCircle
 10
141.9319913136
 20
1907.3121672365
 30
0.0
 40
1.0
100
AcDbArc
 50
270.0
 51
0.0
  0
LINE
  5
C1
330
1F
100
AcDbEntity
  8
0
  6
Continuous
 62
     7
370
    25
100
AcDbLine
 10
142.9319913136
 20
1915.3121672365
 30
0.0
 11
142.9319913136
 21
1907.3121672365
 31
0.0
  0
ARC
  5
C2
330
1F
100
AcDbEntity
  8
0
  6
Continuous
 62
     7
370
    25
100
AcDbCircle
 10
141.9319913136
 20
1915.3121672365
 30
0.0
 40
1.000000000000227
100
AcDbArc
 50
0.0
 51
90.0
  0
LINE
  5
C3
330
1F
100
AcDbEntity
  8
0
  6
Continuous
 62
     7
370
    25
100
AcDbLine
 10
136.9319913136
 20
1916.3121672365
 30
0.0
 11
141.9319913136
 21
1916.3121672365
 31
0.0
  0
ARC
  5
C4
330
1F
100
AcDbEntity
  8
0
  6
Continuous
 62
     7
370
    25
100
AcDbCircle
 10
154.9319913136
 20
1673.8121672365
 30
0.0
 40
3.5
100
AcDbArc
 50
270.0
 51
90.0
  0
LINE
  5
C5
330
1F
100
AcDbEntity
  8
0
  6
Continuous
 62
     7
370
    25
100
AcDbLine
 10
136.9319913136
 20
1677.3121672365
 30
0.0
 11
154.9319913136
 21
1677.3121672365
 31
0.0
  0
ARC
  5
C6
330
1F
100
AcDbEntity
  8
0
  6
Continuous
 62
     7
370
    25
100
AcDbCircle
 10
136.9319913136
 20
1673.8121672365
 30
0.0
 40
3.5
100
AcDbArc
 50
90.0
 51
270.0
  0
LINE
  5
C7
330
1F
100
AcDbEntity
  8
0
  6
Continuous
 62
     7
370
    25
100
AcDbLine
 10
154.9319913136
 20
1670.3121672365
 30
0.0
 11
136.9319913136
 21
1670.3121672365
 31
0.0
  0
ARC
  5
C8
330
1F
100
AcDbEntity
  8
0
  6
Continuous
 62
     7
370
    25
100
AcDbCircle
 10
2086.9319913136
 20
2148.8121672365
 30
0.0
 40
3.5
100
AcDbArc
 50
90.0
 51
270.0
  0
LINE
  5
C9
330
1F
100
AcDbEntity
  8
0
  6
Continuous
 62
     7
370
    25
100
AcDbLine
 10
2104.9319913136
 20
2145.3121672365
 30
0.0
 11
2086.9319913136
 21
2145.3121672365
 31
0.0
  0
ARC
  5
CA
330
1F
100
AcDbEntity
  8
0
  6
Continuous
 62
     7
370
    25
100
AcDbCircle
 10
2104.9319913136
 20
2148.8121672365
 30
0.0
 40
3.5
100
AcDbArc
 50
270.0
 51
90.0
  0
LINE
  5
CB
330
1F
100
AcDbEntity
  8
0
  6
Continuous
 62
     7
370
    25
100
AcDbLine
 10
2086.9319913136
 20
2152.3121672365
 30
0.0
 11
2104.9319913136
 21
2152.3121672365
 31
0.0
  0
ARC
  5
CC
330
1F
100
AcDbEntity
  8
0
  6
Continuous
 62
     7
370
    25
100
AcDbCircle
 10
2036.9319913136
 20
2148.8121672365
 30
0.0
 40
3.5
100
AcDbArc
 50
90.0
 51
270.0
  0
LINE
  5
CD
330
1F
100
AcDbEntity
  8
0
  6
Continuous
 62
     7
370
    25
100
AcDbLine
 10
2054.9319913136
 20
2145.3121672365
 30
0.0
 11
2036.9319913136
 21
2145.3121672365
 31
0.0
  0
ARC
  5
CE
330
1F
100
AcDbEntity
  8
0
  6
Continuous
 62
     7
370
    25
100
AcDbCircle
 10
2054.9319913136
 20
2148.8121672365
 30
0.0
 40
3.5
100
AcDbArc
 50
270.0
 51
90.0
  0
LINE
  5
CF
330
1F
100
AcDbEntity
  8
0
  6
Continuous
 62
     7
370
    25
100
AcDbLine
 10
2036.9319913136
 20
2152.3121672365
 30
0.0
 11
2054.9319913136
 21
2152.3121672365
 31
0.0
  0
ARC
  5
D0
330
1F
100
AcDbEntity
  8
0
  6
Continuous
 62
     7
370
    25
100
AcDbCircle
 10
2036.9319913136
 20
1673.8121672365
 30
0.0
 40
3.500000000000227
100
AcDbArc
 50
90.0
 51
270.0
  0
LINE
  5
D1
330
1F
100
AcDbEntity
  8
0
  6
Continuous
 62
     7
370
    25
100
AcDbLine
 10
2054.9319913136
 20
1670.3121672365
 30
0.0
 11
2036.9319913136
 21
1670.3121672365
 31
0.0
  0
ARC
  5
D2
330
1F
100
AcDbEntity
  8
0
  6
Continuous
 62
     7
370
    25
100
AcDbCircle
 10
2054.9319913136
 20
1673.8121672365
 30
0.0
 40
3.500000000000227
100
AcDbArc
 50
270.0
 51
90.0
  0
LINE
  5
D3
330
1F
100
AcDbEntity
  8
0
  6
Continuous
 62
     7
370
    25
100
AcDbLine
 10
2036.9319913136
 20
1677.3121672365
 30
0.0
 11
2054.9319913136
 21
1677.3121672365
 31
0.0
  0
ARC
  5
D4
330
1F
100
AcDbEntity
  8
0
  6
Continuous
 62
     7
370
    25
100
AcDbCircle
 10
204.9319913136
 20
1673.8121672365
 30
0.0
 40
3.500000000000227
100
AcDbArc
 50
270.0
 51
90.0
  0
LINE
  5
D5
330
1F
100
AcDbEntity
  8
0
  6
Continuous
 62
     7
370
    25
100
AcDbLine
 10
186.9319913136
 20
1677.3121672365
 30
0.0
 11
204.9319913136
 21
1677.3121672365
 31
0.0
  0
ARC
  5
D6
330
1F
100
AcDbEntity
  8
0
  6
Continuous
 62
     7
370
    25
100
AcDbCircle
 10
186.9319913136
 20
1673.8121672365
 30
0.0
 40
3.500000000000227
100
AcDbArc
 50
90.0
 51
270.0
  0
LINE
  5
D7
330
1F
100
AcDbEntity
  8
0
  6
Continuous
 62
     7
370
    25
100
AcDbLine
 10
204.9319913136
 20
1670.3121672365
 30
0.0
 11
186.9319913136
 21
1670.3121672365
 31
0.0
  0
ARC
  5
D8
330
1F
100
AcDbEntity
  8
0
  6
Continuous
 62
     7
370
    25
100
AcDbCircle
 10
204.9319913136
 20
2148.8121672365
 30
0.0
 40
3.500000000000455
100
AcDbArc
 50
270.0
 51
90.0
  0
LINE
  5
D9
330
1F
100
AcDbEntity
  8
0
  6
Continuous
 62
     7
370
    25
100
AcDbLine
 10
186.9319913136
 20
2152.3121672365
 30
0.0
 11
204.9319913136
 21
2152.3121672365
 31
0.0
  0
ARC
  5
DA
330
1F
100
AcDbEntity
  8
0
  6
Continuous
 62
     7
370
    25
100
AcDbCircle
 10
186.9319913136
 20
2148.8121672365
 30
0.0
 40
3.5
100
AcDbArc
 50
90.0
 51
270.0
  0
LINE
  5
DB
330
1F
100
AcDbEntity
  8
0
  6
Continuous
 62
     7
370
    25
100
AcDbLine
 10
204.9319913136
 20
2145.3121672365
 30
0.0
 11
186.9319913136
 21
2145.3121672365
 31
0.0
  0
ARC
  5
DC
330
1F
100
AcDbEntity
  8
0
  6
Continuous
 62
     7
370
    25
100
AcDbCircle
 10
154.9319913136
 20
2148.8121672365
 30
0.0
 40
3.5
100
AcDbArc
 50
270.0
 51
90.0
  0
LINE
  5
DD
330
1F
100
AcDbEntity
  8
0
  6
Continuous
 62
     7
370
    25
100
AcDbLine
 10
136.9319913136
 20
2152.3121672365
 30
0.0
 11
154.9319913136
 21
2152.3121672365
 31
0.0
  0
ARC
  5
DE
330
1F
100
AcDbEntity
  8
0
  6
Continuous
 62
     7
370
    25
100
AcDbCircle
 10
136.9319913136
 20
2148.8121672365
 30
0.0
 40
3.5
100
AcDbArc
 50
90.0
 51
270.0
  0
LINE
  5
DF
330
1F
100
AcDbEntity
  8
0
  6
Continuous
 62
     7
370
    25
100
AcDbLine
 10
154.9319913136
 20
2145.3121672365
 30
0.0
 11
136.9319913136
 21
2145.3121672365
 31
0.0
  0
ARC
  5
E0
330
1F
100
AcDbEntity
  8
0
  6
Continuous
 62
     7
370
    25
100
AcDbCircle
 10
2086.9319913136
 20
1673.8121672365
 30
0.0
 40
3.5
100
AcDbArc
 50
90.0
 51
270.0
  0
LINE
  5
E1
330
1F
100
AcDbEntity
  8
0
  6
Continuous
 62
     7
370
    25
100
AcDbLine
 10
2104.9319913136
 20
1670.3121672365
 30
0.0
 11
2086.9319913136
 21
1670.3121672365
 31
0.0
  0
ARC
  5
E2
330
1F
100
AcDbEntity
  8
0
  6
Continuous
 62
     7
370
    25
100
AcDbCircle
 10
2104.9319913136
 20
1673.8121672365
 30
0.0
 40
3.5
100
AcDbArc
 50
270.0
 51
90.0
  0
LINE
  5
E3
330
1F
100
AcDbEntity
  8
0
  6
Continuous
 62
     7
370
    25
100
AcDbLine
 10
2086.9319913136
 20
1677.3121672365
 30
0.0
 11
2104.9319913136
 21
1677.3121672365
 31
0.0
  0
LINE
  5
E4
330
1F
100
AcDbEntity
  8
0
  6
Continuous
 62
     7
370
    25
100
AcDbLine
 10
2105.9319913136
 20
2065.3121672365
 30
0.0
 11
2105.9319913136
 21
2057.3121672365
 31
0.0
  0
ARC
  5
E5
330
1F
100
AcDbEntity
  8
0
  6
Continuous
 62
     7
370
    25
100
AcDbCircle
 10
2104.9319913136
 20
2065.3121672365
 30
0.0
 40
1.000000000000455
100
AcDbArc
 50
0.0
 51
90.0
  0
LINE
  5
E6
330
1F
100
AcDbEntity
  8
0
  6
Continuous
 62
     7
370
    25
100
AcDbLine
 10
2099.9319913136
 20
2066.3121672365
 30
0.0
 11
2104.9319913136
 21
2066.3121672365
 31
0.0
  0
ARC
  5
E7
330
1F
100
AcDbEntity
  8
0
  6
Continuous
 62
     7
370
    25
100
AcDbCircle
 10
2099.9319913136
 20
2065.3121672365
 30
0.0
 40
1.000000000000455
100
AcDbArc
 50
90.0
 51
180.0
  0
LINE
  5
E8
330
1F
100
AcDbEntity
  8
0
  6
Continuous
 62
     7
370
    25
100
AcDbLine
 10
2098.9319913136
 20
2057.3121672365
 30
0.0
 11
2098.9319913136
 21
2065.3121672365
 31
0.0
  0
ARC
  5
E9
330
1F
100
AcDbEntity
  8
0
  6
Continuous
 62
     7
370
    25
100
AcDbCircle
 10
2099.9319913136
 20
2057.3121672365
 30
0.0
 40
1.0
100
AcDbArc
 50
180.0
 51
270.0
  0
LINE
  5
EA
330
1F
100
AcDbEntity
  8
0
  6
Continuous
 62
     7
370
    25
100
AcDbLine
 10
2104.9319913136
 20
2056.3121672365
 30
0.0
 11
2099.9319913136
 21
2056.3121672365
 31
0.0
  0
ARC
  5
EB
330
1F
100
AcDbEntity
  8
0
  6
Continuous
 62
     7
370
    25
100
AcDbCircle
 10
2104.9319913136
 20
2057.3121672365
 30
0.0
 40
1.000000000000455
100
AcDbArc
 50
270.0
 51
0.0
  0
LINE
  5
EC
330
1F
100
AcDbEntity
  8
0
  6
Continuous
 62
     7
370
    25
100
AcDbLine
 10
2105.9319913136
 20
1765.3121672365
 30
0.0
 11
2105.9319913136
 21
1757.3121672365
 31
0.0
  0
ARC
  5
ED
330
1F
100
AcDbEntity
  8
0
  6
Continuous
 62
     7
370
    25
100
AcDbCircle
 10
2104.9319913136
 20
1765.3121672365
 30
0.0
 40
1.000000000000455
100
AcDbArc
 50
0.0
 51
90.0
  0
LINE
  5
EE
330
1F
100
AcDbEntity
  8
0
  6
Continuous
 62
     7
370
    25
100
AcDbLine
 10
2099.9319913136
 20
1766.3121672365
 30
0.0
 11
2104.9319913136
 21
1766.3121672365
 31
0.0
  0
ARC
  5
EF
330
1F
100
AcDbEntity
  8
0
  6
Continuous
 62
     7
370
    25
100
AcDbCircle
 10
2099.9319913136
 20
1765.3121672365
 30
0.0
 40
1.0
100
AcDbArc
 50
90.0
 51
180.0
  0
LINE
  5
F0
330
1F
100
AcDbEntity
  8
0
  6
Continuous
 62
     7
370
    25
100
AcDbLine
 10
2098.9319913136
 20
1757.3121672365
 30
0.0
 11
2098.9319913136
 21
1765.3121672365
 31
0.0
  0
ARC
  5
F1
330
1F
100
AcDbEntity
  8
0
  6
Continuous
 62
     7
370
    25
100
AcDbCircle
 10
2099.9319913136
 20
1757.3121672365
 30
0.0
 40
1.0
100
AcDbArc
 50
180.0
 51
270.0
  0
LINE
  5
F2
330
1F
100
AcDbEntity
  8
0
  6
Continuous
 62
     7
370
    25
100
AcDbLine
 10
2104.9319913136
 20
1756.3121672365
 30
0.0
 11
2099.9319913136
 21
1756.3121672365
 31
0.0
  0
ARC
  5
F3
330
1F
100
AcDbEntity
  8
0
  6
Continuous
 62
     7
370
    25
100
AcDbCircle
 10
2104.9319913136
 20
1757.3121672365
 30
0.0
 40
1.000000000000455
100
AcDbArc
 50
270.0
 51
0.0
  0
LINE
  5
F4
330
1F
100
AcDbEntity
  8
0
  6
Continuous
 62
     7
370
    25
100
AcDbLine
 10
142.9319913136
 20
2065.3121672365
 30
0.0
 11
142.9319913136
 21
2057.3121672365
 31
0.0
  0
ARC
  5
F5
330
1F
100
AcDbEntity
  8
0
  6
Continuous
 62
     7
370
    25
100
AcDbCircle
 10
141.9319913136
 20
2065.3121672365
 30
0.0
 40
1.000000000000455
100
AcDbArc
 50
0.0
 51
90.0
  0
LINE
  5
F6
330
1F
100
AcDbEntity
  8
0
  6
Continuous
 62
     7
370
    25
100
AcDbLine
 10
136.9319913136
 20
2066.3121672365
 30
0.0
 11
141.9319913136
 21
2066.3121672365
 31
0.0
  0
ARC
  5
F7
330
1F
100
AcDbEntity
  8
0
  6
Continuous
 62
     7
370
    25
100
AcDbCircle
 10
136.9319913136
 20
2065.3121672365
 30
0.0
 40
1.000000000000455
100
AcDbArc
 50
90.0
 51
180.0
  0
LINE
  5
F8
330
1F
100
AcDbEntity
  8
0
  6
Continuous
 62
     7
370
    25
100
AcDbLine
 10
135.9319913136
 20
2057.3121672365
 30
0.0
 11
135.9319913136
 21
2065.3121672365
 31
0.0
  0
ARC
  5
F9
330
1F
100
AcDbEntity
  8
0
  6
Continuous
 62
     7
370
    25
100
AcDbCircle
 10
136.9319913136
 20
2057.3121672365
 30
0.0
 40
1.0
100
AcDbArc
 50
180.0
 51
270.0
  0
LINE
  5
FA
330
1F
100
AcDbEntity
  8
0
  6
Continuous
 62
     7
370
    25
100
AcDbLine
 10
141.9319913136
 20
2056.3121672365
 30
0.0
 11
136.9319913136
 21
2056.3121672365
 31
0.0
  0
ARC
  5
FB
330
1F
100
AcDbEntity
  8
0
  6
Continuous
 62
     7
370
    25
100
AcDbCircle
 10
141.9319913136
 20
2057.3121672365
 30
0.0
 40
1.0
100
AcDbArc
 50
270.0
 51
0.0
  0
LINE
  5
FC
330
1F
100
AcDbEntity
  8
0
  6
Continuous
 62
     7
370
    25
100
AcDbLine
 10
142.9319913136
 20
1765.3121672365
 30
0.0
 11
142.9319913136
 21
1757.3121672365
 31
0.0
  0
ARC
  5
FD
330
1F
100
AcDbEntity
  8
0
  6
Continuous
 62
     7
370
    25
100
AcDbCircle
 10
141.9319913136
 20
1765.3121672365
 30
0.0
 40
1.0
100
AcDbArc
 50
0.0
 51
90.0
  0
LINE
  5
FE
330
1F
100
AcDbEntity
  8
0
  6
Continuous
 62
     7
370
    25
100
AcDbLine
 10
136.9319913136
 20
1766.3121672365
 30
0.0
 11
141.9319913136
 21
1766.3121672365
 31
0.0
  0
ARC
  5
FF
330
1F
100
AcDbEntity
  8
0
  6
Continuous
 62
     7
370
    25
100
AcDbCircle
 10
136.9319913136
 20
1765.3121672365
 30
0.0
 40
1.0
100
AcDbArc
 50
90.0
 51
180.0
  0
LINE
  5
100
330
1F
100
AcDbEntity
  8
0
  6
Continuous
 62
     7
370
    25
100
AcDbLine
 10
135.9319913136
 20
1757.3121672365
 30
0.0
 11
135.9319913136
 21
1765.3121672365
 31
0.0
  0
ARC
  5
101
330
1F
100
AcDbEntity
  8
0
  6
Continuous
 62
     7
370
    25
100
AcDbCircle
 10
136.9319913136
 20
1757.3121672365
 30
0.0
 40
1.0
100
AcDbArc
 50
180.0
 51
270.0
  0
LINE
  5
102
330
1F
100
AcDbEntity
  8
0
  6
Continuous
 62
     7
370
    25
100
AcDbLine
 10
141.9319913136
 20
1756.3121672365
 30
0.0
 11
136.9319913136
 21
1756.3121672365
 31
0.0
  0
ARC
  5
103
330
1F
100
AcDbEntity
  8
0
  6
Continuous
 62
     7
370
    25
100
AcDbCircle
 10
141.9319913136
 20
1757.3121672365
 30
0.0
 40
1.0
100
AcDbArc
 50
270.0
 51
0.0
  0
LINE
  5
104
330
1F
100
AcDbEntity
  8
0
  6
Continuous
 62
     7
370
    25
100
AcDbLine
 10
2120.9319913136
 20
1661.3121672365
 30
0.0
 11
2120.9319913136
 21
1664.3121672365
 31
0.0
  0
LINE
  5
105
330
1F
100
AcDbEntity
  8
0
  6
Continuous
 62
     7
370
    25
100
AcDbLine
 10
2107.3814810564
 20
1671.3121672365
 30
0.0
 11
2084.4825015708
 21
1671.3121672365
 31
0.0
  0
LINE
  5
106
330
1F
100
AcDbEntity
  8
0
  6
Continuous
 62
     7
370
    25
100
AcDbLine
 10
2057.3814810564
 20
1671.3121672365
 30
0.0
 11
2034.4825015708
 21
1671.3121672365
 31
0.0
  0
LINE
  5
107
330
1F
100
AcDbEntity
  8
0
  6
Continuous
 62
     7
370
    25
100
AcDbLine
 10
207.3814810564
 20
1671.3121672365
 30
0.0
 11
184.4825015708
 21
1671.3121672365
 31
0.0
  0
LINE
  5
108
330
1F
100
AcDbEntity
  8
0
  6
Continuous
 62
     7
370
    25
100
AcDbLine
 10
157.3814810564
 20
1671.3121672365
 30
0.0
 11
134.4825015708
 21
1671.3121672365
 31
0.0
  0
LINE
  5
109
330
1F
100
AcDbEntity
  8
0
  6
Continuous
 62
     7
370
    25
100
AcDbLine
 10
2107.3814810564
 20
2151.3121672365
 30
0.0
 11
2084.4825015708
 21
2151.3121672365
 31
0.0
  0
LINE
  5
10A
330
1F
100
AcDbEntity
  8
0
  6
Continuous
 62
     7
370
    25
100
AcDbLine
 10
2057.3814810564
 20
2151.3121672365
 30
0.0
 11
2034.4825015708
 21
2151.3121672365
 31
0.0
  0
LINE
  5
10B
330
1F
100
AcDbEntity
  8
0
  6
Continuous
 62
     7
370
    25
100
AcDbLine
 10
207.3814810564
 20
2151.3121672365
 30
0.0
 11
184.4825015708
 21
2151.3121672365
 31
0.0
  0
LINE
  5
10C
330
1F
100
AcDbEntity
  8
0
  6
Continuous
 62
     7
370
    25
100
AcDbLine
 10
157.3814810564
 20
2151.3121672365
 30
0.0
 11
134.4825015708
 21
2151.3121672365
 31
0.0
  0
LINE
  5
10D
330
1F
100
AcDbEntity
  8
0
  6
Continuous
 62
     7
370
    25
100
AcDbLine
 10
2309.2120495373
 20
1410.7104887277
 30
0.0
 11
2309.2120495373
 21
1409.3115657532
 31
0.0
  0
LINE
  5
10E
330
1F
100
AcDbEntity
  8
0
  6
Continuous
 62
     7
370
    25
100
AcDbLine
 10
2310.2836867082
 20
1411.6096990826
 30
0.0
 11
2309.2120495373
 21
1410.7104887277
 31
0.0
  0
LINE
  5
10F
330
1F
100
AcDbEntity
  8
0
  6
Continuous
 62
     7
370
    25
100
AcDbLine
 10
2311.5692619276
 20
1410.0776101964
 30
0.0
 11
2311.2120495373
 21
1409.7778734114
 31
0.0
  0
LINE
  5
110
330
1F
100
AcDbEntity
  8
0
  6
Continuous
 62
     7
370
    25
100
AcDbLine
 10
2311.2120495373
 20
1409.7778734114
 30
0.0
 11
2311.2120495373
 21
1409.3115657532
 31
0.0
  0
LINE
  5
111
330
1F
100
AcDbEntity
  8
0
  6
Continuous
 62
     7
370
    25
100
AcDbLine
 10
2309.2120495373
 20
1344.3115657532
 30
0.0
 11
2312.2120495373
 21
1344.3115657532
 31
0.0
  0
LINE
  5
112
330
1F
100
AcDbEntity
  8
0
  6
Continuous
 62
     7
370
    25
100
AcDbLine
 10
2309.2120495373
 20
1347.3115657532
 30
0.0
 11
2309.2120495373
 21
1344.3115657532
 31
0.0
  0
LINE
  5
113
330
1F
100
AcDbEntity
  8
0
  6
Continuous
 62
     7
370
    25
100
AcDbLine
 10
2311.2120495373
 20
1347.3115657532
 30
0.0
 11
2311.2120495373
 21
1346.3115657532
 31
0.0
  0
LINE
  5
114
330
1F
100
AcDbEntity
  8
0
  6
Continuous
 62
     7
370
    25
100
AcDbLine
 10
2311.2120495373
 20
1346.3115657532
 30
0.0
 11
2312.2120495373
 21
1346.3115657532
 31
0.0
  0
LINE
  5
115
330
1F
100
AcDbEntity
  8
0
  6
Continuous
 62
     7
370
    25
100
AcDbLine
 10
2311.2120495373
 20
1347.3115657532
 30
0.0
 11
2311.2120495373
 21
1409.3115657532
 31
0.0
  0
LINE
  5
116
330
1F
100
AcDbEntity
  8
0
  6
Continuous
 62
     7
370
    25
100
AcDbLine
 10
2309.2120495373
 20
1347.3115657532
 30
0.0
 11
2309.2120495373
 21
1409.3115657532
 31
0.0
  0
LINE
  5
117
330
1F
100
AcDbEntity
  8
0
  6
Continuous
 62
     7
370
    25
100
AcDbLine
 10
2314.451602171
 20
1415.1069954101
 30
0.0
 11
2310.2836867082
 21
1411.6096990826
 31
0.0
  0
LINE
  5
118
330
1F
100
AcDbEntity
  8
0
  6
Continuous
 62
     7
370
    25
100
AcDbLine
 10
2310.2120495373
 20
1420.1594974923
 30
0.0
 11
2314.451602171
 21
1415.1069954101
 31
0.0
  0
LINE
  5
119
330
1F
100
AcDbEntity
  8
0
  6
Continuous
 62
     7
370
    25
100
AcDbLine
 10
2319.2120495373
 20
1424.2778734114
 30
0.0
 11
2315.1201388345
 21
1424.2778734114
 31
0.0
  0
LINE
  5
11A
330
1F
100
AcDbEntity
  8
0
  6
Continuous
 62
     7
370
    25
100
AcDbLine
 10
2319.2120495373
 20
1416.4906704608
 30
0.0
 11
2319.2120495373
 21
1424.2778734114
 31
0.0
  0
LINE
  5
11B
330
1F
100
AcDbEntity
  8
0
  6
Continuous
 62
     7
370
    25
100
AcDbLine
 10
2319.2120495373
 20
1416.4906704608
 30
0.0
 11
2311.5692619276
 21
1410.0776101964
 31
0.0
  0
LINE
  5
11C
330
1F
100
AcDbEntity
  8
0
  6
Continuous
 62
     7
370
    25
100
AcDbLine
 10
2315.1201388345
 20
1424.2778734114
 30
0.0
 11
2310.2120495373
 21
1420.1594974923
 31
0.0
  0
LINE
  5
11D
330
1F
100
AcDbEntity
  8
0
  6
Continuous
 62
     7
370
    25
100
AcDbLine
 10
2809.2120495373
 20
1344.3115657532
 30
0.0
 11
2809.2120495373
 21
1347.3115657532
 31
0.0
  0
LINE
  5
11E
330
1F
100
AcDbEntity
  8
0
  6
Continuous
 62
     7
370
    25
100
AcDbLine
 10
2806.2120495373
 20
1344.3115657532
 30
0.0
 11
2809.2120495373
 21
1344.3115657532
 31
0.0
  0
LINE
  5
11F
330
1F
100
AcDbEntity
  8
0
  6
Continuous
 62
     7
370
    25
100
AcDbLine
 10
2806.2120495373
 20
1346.3115657532
 30
0.0
 11
2807.2120495373
 21
1346.3115657532
 31
0.0
  0
LINE
  5
120
330
1F
100
AcDbEntity
  8
0
  6
Continuous
 62
     7
370
    25
100
AcDbLine
 10
2807.2120495373
 20
1346.3115657532
 30
0.0
 11
2807.2120495373
 21
1347.3115657532
 31
0.0
  0
LINE
  5
121
330
1F
100
AcDbEntity
  8
0
  6
Continuous
 62
     7
370
    25
100
AcDbLine
 10
2806.2120495373
 20
1346.3115657532
 30
0.0
 11
2312.2120495373
 21
1346.3115657532
 31
0.0
  0
LINE
  5
122
330
1F
100
AcDbEntity
  8
0
  6
Continuous
 62
     7
370
    25
100
AcDbLine
 10
2806.2120495373
 20
1344.3115657532
 30
0.0
 11
2312.2120495373
 21
1344.3115657532
 31
0.0
  0
LINE
  5
123
330
1F
100
AcDbEntity
  8
0
  6
Continuous
 62
     7
370
    25
100
AcDbLine
 10
2799.2120495373
 20
1416.4906704608
 30
0.0
 11
2806.854837147
 21
1410.0776101964
 31
0.0
  0
LINE
  5
124
330
1F
100
AcDbEntity
  8
0
  6
Continuous
 62
     7
370
    25
100
AcDbLine
 10
2799.2120495373
 20
1416.4906704608
 30
0.0
 11
2799.2120495373
 21
1424.2778734114
 31
0.0
  0
LINE
  5
125
330
1F
100
AcDbEntity
  8
0
  6
Continuous
 62
     7
370
    25
100
AcDbLine
 10
2803.3039602401
 20
1424.2778734114
 30
0.0
 11
2799.2120495373
 21
1424.2778734114
 31
0.0
  0
LINE
  5
126
330
1F
100
AcDbEntity
  8
0
  6
Continuous
 62
     7
370
    25
100
AcDbLine
 10
2803.3039602401
 20
1424.2778734114
 30
0.0
 11
2808.2120495373
 21
1420.1594974923
 31
0.0
  0
LINE
  5
127
330
1F
100
AcDbEntity
  8
0
  6
Continuous
 62
     7
370
    25
100
AcDbLine
 10
2803.9724969036
 20
1415.1069954101
 30
0.0
 11
2808.1404123663
 21
1411.6096990826
 31
0.0
  0
LINE
  5
128
330
1F
100
AcDbEntity
  8
0
  6
Continuous
 62
     7
370
    25
100
AcDbLine
 10
2808.2120495373
 20
1420.1594974923
 30
0.0
 11
2803.9724969036
 21
1415.1069954101
 31
0.0
  0
LINE
  5
129
330
1F
100
AcDbEntity
  8
0
  6
Continuous
 62
     7
370
    25
100
AcDbLine
 10
2809.2120495373
 20
1409.3115657532
 30
0.0
 11
2809.2120495373
 21
1347.3115657532
 31
0.0
  0
LINE
  5
12A
330
1F
100
AcDbEntity
  8
0
  6
Continuous
 62
     7
370
    25
100
AcDbLine
 10
2807.2120495373
 20
1409.3115657532
 30
0.0
 11
2807.2120495373
 21
1347.3115657532
 31
0.0
  0
LINE
  5
12B
330
1F
100
AcDbEntity
  8
0
  6
Continuous
 62
     7
370
    25
100
AcDbLine
 10
2809.2120495373
 20
1410.7104887277
 30
0.0
 11
2808.1404123663
 21
1411.6096990826
 31
0.0
  0
LINE
  5
12C
330
1F
100
AcDbEntity
  8
0
  6
Continuous
 62
     7
370
    25
100
AcDbLine
 10
2807.2120495373
 20
1409.7778734114
 30
0.0
 11
2806.854837147
 21
1410.0776101964
 31
0.0
  0
LINE
  5
12D
330
1F
100
AcDbEntity
  8
0
  6
Continuous
 62
     7
370
    25
100
AcDbLine
 10
2809.2120495373
 20
1409.3115657532
 30
0.0
 11
2809.2120495373
 21
1410.7104887277
 31
0.0
  0
LINE
  5
12E
330
1F
100
AcDbEntity
  8
0
  6
Continuous
 62
     7
370
    25
100
AcDbLine
 10
2807.2120495373
 20
1409.3115657532
 30
0.0
 11
2807.2120495373
 21
1409.7778734114
 31
0.0
  0
LINE
  5
12F
330
1F
100
AcDbEntity
  8
0
  6
Continuous
 62
     7
370
    25
100
AcDbLine
 10
1400.9586386284
 20
132.9287559294
 30
0.0
 11
1404.4291818532
 21
127.5624319549
 31
0.0
  0
LINE
  5
130
330
1F
100
AcDbEntity
  8
0
  6
Continuous
 62
     7
370
    25
100
AcDbLine
 10
2815.1722010015
 20
949.3368677521
 30
0.0
 11
1400.9586386284
 21
132.9287559294
 31
0.0
  0
LINE
  5
131
330
1F
100
AcDbEntity
  8
0
  6
Continuous
 62
     7
370
    25
100
AcDbLine
 10
2818.6427442263
 20
943.9705437776
 30
0.0
 11
2815.1722010015
 21
949.3368677521
 31
0.0
  0
LINE
  5
132
330
1F
100
AcDbEntity
  8
0
  6
Continuous
 62
     7
370
    25
100
AcDbLine
 10
1404.4291818532
 20
127.5624319549
 30
0.0
 11
2818.6427442263
 21
943.9705437776
 31
0.0
  0
LINE
  5
133
330
1F
100
AcDbEntity
  8
0
  6
Continuous
 62
     7
370
    25
100
AcDbLine
 10
1398.0652208225
 20
128.2405214551
 30
0.0
 11
1403.4694877685
 21
119.8841791194
 31
0.0
  0
LINE
  5
134
330
1F
100
AcDbEntity
  8
0
  6
Continuous
 62
     7
370
    25
100
AcDbLine
 10
1398.0652208225
 20
128.2405214551
 30
0.0
 11
1398.0652208225
 21
134.5990904747
 31
0.0
  0
LINE
  5
135
330
1F
100
AcDbEntity
  8
0
  6
Continuous
 62
     7
370
    25
100
AcDbLine
 10
1400.9586386284
 20
132.9287559294
 30
0.0
 11
1398.0652208225
 21
134.5990904747
 31
0.0
  0
LINE
  5
136
330
1F
100
AcDbEntity
  8
0
  6
Continuous
 62
     7
370
    25
100
AcDbLine
 10
1404.4291818532
 20
127.5624319549
 30
0.0
 11
1401.4313654367
 21
125.167460383
 31
0.0
  0
LINE
  5
137
330
1F
100
AcDbEntity
  8
0
  6
Continuous
 62
     7
370
    25
100
AcDbLine
 10
1401.4313654367
 20
125.167460383
 30
0.0
 11
1404.3785267238
 21
120.6104152037
 31
0.0
  0
LINE
  5
138
330
1F
100
AcDbEntity
  8
0
  6
Continuous
 62
     7
370
    25
100
AcDbLine
 10
2818.6427442263
 20
943.9705437776
 30
0.0
 11
2815.6449278098
 21
941.5755722057
 31
0.0
  0
LINE
  5
139
330
1F
100
AcDbEntity
  8
0
  6
Continuous
 62
     7
370
    25
100
AcDbLine
 10
1401.4313654367
 20
125.167460383
 30
0.0
 11
2815.6449278098
 21
941.5755722057
 31
0.0
  0
LINE
  5
13A
330
1F
100
AcDbEntity
  8
0
  6
Continuous
 62
     7
370
    25
100
AcDbLine
 10
2815.1722010015
 20
949.3368677521
 30
0.0
 11
2812.2787831956
 21
951.0072022974
 31
0.0
  0
LINE
  5
13B
330
1F
100
AcDbEntity
  8
0
  6
Continuous
 62
     7
370
    25
100
AcDbLine
 10
2812.2787831956
 20
951.0072022974
 30
0.0
 11
1398.0652208225
 21
134.5990904747
 31
0.0
  0
LINE
  5
13C
330
1F
100
AcDbEntity
  8
0
  6
Continuous
 62
     7
370
    25
100
AcDbLine
 10
2818.5920890969
 20
937.0185270264
 30
0.0
 11
2815.6449278098
 21
941.5755722057
 31
0.0
  0
LINE
  5
13D
330
1F
100
AcDbEntity
  8
0
  6
Continuous
 62
     7
370
    25
100
AcDbLine
 10
2819.3498510075
 20
935.8468384335
 30
0.0
 11
2818.5920890969
 21
937.0185270264
 31
0.0
  0
LINE
  5
13E
330
1F
100
AcDbEntity
  8
0
  6
Continuous
 62
     7
370
    25
100
AcDbLine
 10
2819.3498510075
 20
935.8468384335
 30
0.0
 11
1405.1362886344
 21
119.4387266108
 31
0.0
  0
LINE
  5
13F
330
1F
100
AcDbEntity
  8
0
  6
Continuous
 62
     7
370
    25
100
AcDbLine
 10
1405.1362886344
 20
119.4387266108
 30
0.0
 11
1404.3785267238
 21
120.6104152037
 31
0.0
  0
LINE
  5
140
330
1F
100
AcDbEntity
  8
0
  6
Continuous
 62
     7
370
    25
100
AcDbLine
 10
1405.1362886344
 20
118.2964489095
 30
0.0
 11
1405.1362886344
 21
119.4387266108
 31
0.0
  0
LINE
  5
141
330
1F
100
AcDbEntity
  8
0
  6
Continuous
 62
     7
370
    25
100
AcDbLine
 10
1403.722075072
 20
119.1128570213
 30
0.0
 11
1403.722075072
 21
119.4936162551
 31
0.0
  0
LINE
  5
142
330
1F
100
AcDbEntity
  8
0
  6
Continuous
 62
     7
370
    25
100
AcDbLine
 10
1403.722075072
 20
119.4936162551
 30
0.0
 11
1403.4694877685
 21
119.8841791194
 31
0.0
  0
LINE
  5
143
330
1F
100
AcDbEntity
  8
0
  6
Continuous
 62
     7
370
    25
100
AcDbLine
 10
2819.3498510075
 20
934.7045607322
 30
0.0
 11
2819.3498510075
 21
935.8468384335
 31
0.0
  0
LINE
  5
144
330
1F
100
AcDbEntity
  8
0
  6
Continuous
 62
     7
370
    25
100
AcDbLine
 10
2819.3498510075
 20
934.7045607322
 30
0.0
 11
2819.3498510075
 21
884.0790303953
 31
0.0
  0
LINE
  5
145
330
1F
100
AcDbEntity
  8
0
  6
Continuous
 62
     7
370
    25
100
AcDbLine
 10
2819.3498510075
 20
881.6294079596
 30
0.0
 11
2819.3498510075
 21
884.0790303953
 31
0.0
  0
LINE
  5
146
330
1F
100
AcDbEntity
  8
0
  6
Continuous
 62
     7
370
    25
100
AcDbLine
 10
2819.3498510075
 20
881.6294079596
 30
0.0
 11
1405.1362886344
 21
65.2212961369
 31
0.0
  0
LINE
  5
147
330
1F
100
AcDbEntity
  8
0
  6
Continuous
 62
     7
370
    25
100
AcDbLine
 10
1405.1362886344
 20
65.2212961369
 30
0.0
 11
1405.1362886344
 21
67.6709185726
 31
0.0
  0
LINE
  5
148
330
1F
100
AcDbEntity
  8
0
  6
Continuous
 62
     7
370
    25
100
AcDbLine
 10
1405.1362886344
 20
118.2964489095
 30
0.0
 11
1405.1362886344
 21
67.6709185726
 31
0.0
  0
LWPOLYLINE
  5
149
330
1F
100
AcDbEntity
  8
0
  6
Continuous
 62
     7
370
    25
100
AcDbPolyline
 90
       10
 70
   128
 43
0.0
 10
1464.533258254
 20
111.3502786058
 10
1465.3797149233
 20
112.0112796671
 10
1466.1240764259
 20
112.9372582998
 10
1466.676561779
 20
114.0165278148
 10
1466.9705330951
 20
115.1189123802
 10
1466.9705330951
 20
116.1114481481
 10
1466.676561779
 20
116.8744206564
 10
1466.1240764259
 20
117.3158041605
 10
1465.3797149233
 20
117.3823612956
 10
1464.533258254
 20
117.066064289
  0
LINE
  5
14A
330
1F
100
AcDbEntity
  8
0
  6
Continuous
 62
     7
370
    25
100
AcDbLine
 10
1464.533258254
 20
117.066064289
 30
0.0
 11
1451.8053361927
 21
109.7183912826
 31
0.0
  0
LWPOLYLINE
  5
14B
330
1F
100
AcDbEntity
  8
0
  6
Continuous
 62
     7
370
    25
100
AcDbPolyline
 90
       10
 70
   128
 43
0.0
 10
1451.8053361927
 20
109.7183912826
 10
1450.9588795234
 20
109.0573902213
 10
1450.2145180208
 20
108.1314115886
 10
1449.6620326677
 20
107.0521420736
 10
1449.3680613515
 20
105.9497575082
 10
1449.3680613515
 20
104.9572217403
 10
1449.6620326677
 20
104.194249232
 10
1450.2145180208
 20
103.7528657279
 10
1450.9588795234
 20
103.6863085928
 10
1451.8053361927
 20
104.0026055994
  0
LINE
  5
14C
330
1F
100
AcDbEntity
  8
0
  6
Continuous
 62
     7
370
    25
100
AcDbLine
 10
1451.8053361927
 20
104.0026055994
 30
0.0
 11
1464.533258254
 21
111.3502786058
 31
0.0
  0
LWPOLYLINE
  5
14D
330
1F
100
AcDbEntity
  8
0
  6
Continuous
 62
     7
370
    25
100
AcDbPolyline
 90
       10
 70
   128
 43
0.0
 10
2795.3082204471
 20
885.3060975142
 10
2794.4617637778
 20
884.6450964528
 10
2793.7174022753
 20
883.7191178201
 10
2793.1649169222
 20
882.6398483052
 10
2792.870945606
 20
881.5374637397
 10
2792.870945606
 20
880.5449279719
 10
2793.1649169222
 20
879.7819554636
 10
2793.7174022753
 20
879.3405719595
 10
2794.4617637778
 20
879.2740148243
 10
2795.3082204471
 20
879.590311831
  0
LINE
  5
14E
330
1F
100
AcDbEntity
  8
0
  6
Continuous
 62
     7
370
    25
100
AcDbLine
 10
2795.3082204471
 20
879.590311831
 30
0.0
 11
2808.0361425085
 21
886.9379848374
 31
0.0
  0
LWPOLYLINE
  5
14F
330
1F
100
AcDbEntity
  8
0
  6
Continuous
 62
     7
370
    25
100
AcDbPolyline
 90
       10
 70
   128
 43
0.0
 10
2808.0361425085
 20
886.9379848374
 10
2808.8825991777
 20
887.5989858987
 10
2809.6269606803
 20
888.5249645314
 10
2810.1794460334
 20
889.6042340464
 10
2810.4734173496
 20
890.7066186118
 10
2810.4734173496
 20
891.6991543796
 10
2810.1794460334
 20
892.462126888
 10
2809.6269606803
 20
892.9035103921
 10
2808.8825991777
 20
892.9700675272
 10
2808.0361425085
 20
892.6537705206
  0
LINE
  5
150
330
1F
100
AcDbEntity
  8
0
  6
Continuous
 62
     7
370
    25
100
AcDbLine
 10
2808.0361425085
 20
892.6537705206
 30
0.0
 11
2795.3082204471
 21
885.3060975142
 31
0.0
  0
LWPOLYLINE
  5
151
330
1F
100
AcDbEntity
  8
0
  6
Continuous
 62
     7
370
    25
100
AcDbPolyline
 90
       10
 70
   128
 43
0.0
 10
2759.9528813878
 20
864.8958947186
 10
2759.1064247185
 20
864.2348936573
 10
2758.3620632159
 20
863.3089150246
 10
2757.8095778628
 20
862.2296455096
 10
2757.5156065467
 20
861.1272609442
 10
2757.5156065467
 20
860.1347251763
 10
2757.8095778628
 20
859.371752668
 10
2758.3620632159
 20
858.9303691639
 10
2759.1064247185
 20
858.8638120288
 10
2759.9528813878
 20
859.1801090354
  0
LINE
  5
152
330
1F
100
AcDbEntity
  8
0
  6
Continuous
 62
     7
370
    25
100
AcDbLine
 10
2759.9528813878
 20
859.1801090354
 30
0.0
 11
2772.6808034491
 21
866.5277820418
 31
0.0
  0
LWPOLYLINE
  5
153
330
1F
100
AcDbEntity
  8
0
  6
Continuous
 62
     7
370
    25
100
AcDbPolyline
 90
       10
 70
   128
 43
0.0
 10
2772.6808034491
 20
866.5277820418
 10
2773.5272601184
 20
867.1887831031
 10
2774.271621621
 20
868.1147617358
 10
2774.8241069741
 20
869.1940312508
 10
2775.1180782903
 20
870.2964158163
 10
2775.1180782903
 20
871.2889515841
 10
2774.8241069741
 20
872.0519240924
 10
2774.271621621
 20
872.4933075965
 10
2773.5272601184
 20
872.5598647316
 10
2772.6808034491
 20
872.243567725
  0
LINE
  5
154
330
1F
100
AcDbEntity
  8
0
  6
Continuous
 62
     7
370
    25
100
AcDbLine
 10
2772.6808034491
 20
872.243567725
 30
0.0
 11
2759.9528813878
 21
864.8958947186
 31
0.0
  0
LWPOLYLINE
  5
155
330
1F
100
AcDbEntity
  8
0
  6
Continuous
 62
     7
370
    25
100
AcDbPolyline
 90
       10
 70
   128
 43
0.0
 10
1429.1779191947
 20
90.9400758102
 10
1430.024375864
 20
91.6010768716
 10
1430.7687373666
 20
92.5270555043
 10
1431.3212227196
 20
93.6063250193
 10
1431.6151940358
 20
94.7087095847
 10
1431.6151940358
 20
95.7012453525
 10
1431.3212227196
 20
96.4642178609
 10
1430.7687373665
 20
96.9056013649
 10
1430.024375864
 20
96.9721585001
 10
1429.1779191947
 20
96.6558614934
  0
LINE
  5
156
330
1F
100
AcDbEntity
  8
0
  6
Continuous
 62
     7
370
    25
100
AcDbLine
 10
1429.1779191947
 20
96.6558614934
 30
0.0
 11
1416.4499971333
 21
89.308188487
 31
0.0
  0
LWPOLYLINE
  5
157
330
1F
100
AcDbEntity
  8
0
  6
Continuous
 62
     7
370
    25
100
AcDbPolyline
 90
       10
 70
   128
 43
0.0
 10
1416.4499971333
 20
89.308188487
 10
1415.6035404641
 20
88.6471874257
 10
1414.8591789615
 20
87.721208793
 10
1414.3066936084
 20
86.641939278
 10
1414.0127222922
 20
85.5395547126
 10
1414.0127222922
 20
84.5470189448
 10
1414.3066936084
 20
83.7840464364
 10
1414.8591789615
 20
83.3426629323
 10
1415.6035404641
 20
83.2761057972
 10
1416.4499971333
 20
83.5924028038
  0
LINE
  5
158
330
1F
100
AcDbEntity
  8
0
  6
Continuous
 62
     7
370
    25
100
AcDbLine
 10
1416.4499971333
 20
83.5924028038
 30
0.0
 11
1429.1779191947
 21
90.9400758102
 31
0.0
  0
LWPOLYLINE
  5
159
330
1F
100
AcDbEntity
  8
0
  6
Continuous
 62
     7
370
    25
100
AcDbPolyline
 90
       10
 70
   128
 43
0.0
 10
1464.533258254
 20
131.763798903
 10
1465.3797149233
 20
132.4247999643
 10
1466.1240764259
 20
133.350778597
 10
1466.676561779
 20
134.430048112
 10
1466.9705330951
 20
135.5324326774
 10
1466.9705330951
 20
136.5249684452
 10
1466.676561779
 20
137.2879409536
 10
1466.1240764259
 20
137.7293244577
 10
1465.3797149233
 20
137.7958815928
 10
1464.533258254
 20
137.4795845862
  0
LINE
  5
15A
330
1F
100
AcDbEntity
  8
0
  6
Continuous
 62
     7
370
    25
100
AcDbLine
 10
1464.533258254
 20
137.4795845862
 30
0.0
 11
1451.8053361927
 21
130.1319115797
 31
0.0
  0
LWPOLYLINE
  5
15B
330
1F
100
AcDbEntity
  8
0
  6
Continuous
 62
     7
370
    25
100
AcDbPolyline
 90
       10
 70
   128
 43
0.0
 10
1451.8053361927
 20
130.1319115797
 10
1450.9588795234
 20
129.4709105184
 10
1450.2145180208
 20
128.5449318857
 10
1449.6620326677
 20
127.4656623707
 10
1449.3680613515
 20
126.3632778053
 10
1449.3680613515
 20
125.3707420375
 10
1449.6620326677
 20
124.6077695291
 10
1450.2145180208
 20
124.166386025
 10
1450.9588795234
 20
124.0998288899
 10
1451.8053361927
 20
124.4161258965
  0
LINE
  5
15C
330
1F
100
AcDbEntity
  8
0
  6
Continuous
 62
     7
370
    25
100
AcDbLine
 10
1451.8053361927
 20
124.4161258965
 30
0.0
 11
1464.533258254
 21
131.763798903
 31
0.0
  0
LWPOLYLINE
  5
15D
330
1F
100
AcDbEntity
  8
0
  6
Continuous
 62
     7
370
    25
100
AcDbPolyline
 90
       10
 70
   128
 43
0.0
 10
2795.3082204471
 20
905.7196178113
 10
2794.4617637778
 20
905.05861675
 10
2793.7174022753
 20
904.1326381173
 10
2793.1649169222
 20
903.0533686023
 10
2792.870945606
 20
901.9509840369
 10
2792.870945606
 20
900.9584482691
 10
2793.1649169222
 20
900.1954757607
 10
2793.7174022753
 20
899.7540922566
 10
2794.4617637778
 20
899.6875351215
 10
2795.3082204471
 20
900.0038321281
  0
LINE
  5
15E
330
1F
100
AcDbEntity
  8
0
  6
Continuous
 62
     7
370
    25
100
AcDbLine
 10
2795.3082204471
 20
900.0038321281
 30
0.0
 11
2808.0361425085
 21
907.3515051345
 31
0.0
  0
LWPOLYLINE
  5
15F
330
1F
100
AcDbEntity
  8
0
  6
Continuous
 62
     7
370
    25
100
AcDbPolyline
 90
       10
 70
   128
 43
0.0
 10
2808.0361425085
 20
907.3515051345
 10
2808.8825991777
 20
908.0125061959
 10
2809.6269606803
 20
908.9384848286
 10
2810.1794460334
 20
910.0177543435
 10
2810.4734173496
 20
911.120138909
 10
2810.4734173496
 20
912.1126746768
 10
2810.1794460334
 20
912.8756471851
 10
2809.6269606803
 20
913.3170306892
 10
2808.8825991777
 20
913.3835878244
 10
2808.0361425085
 20
913.0672908177
  0
LINE
  5
160
330
1F
100
AcDbEntity
  8
0
  6
Continuous
 62
     7
370
    25
100
AcDbLine
 10
2808.0361425085
 20
913.0672908177
 30
0.0
 11
2795.3082204471
 21
905.7196178113
 31
0.0
  0
LWPOLYLINE
  5
161
330
1F
100
AcDbEntity
  8
0
  6
Continuous
 62
     7
370
    25
100
AcDbPolyline
 90
       10
 70
   128
 43
0.0
 10
2759.9528813878
 20
885.3094150158
 10
2759.1064247185
 20
884.6484139544
 10
2758.3620632159
 20
883.7224353217
 10
2757.8095778628
 20
882.6431658067
 10
2757.5156065467
 20
881.5407812413
 10
2757.5156065467
 20
880.5482454735
 10
2757.8095778628
 20
879.7852729651
 10
2758.3620632159
 20
879.343889461
 10
2759.1064247185
 20
879.2773323259
 10
2759.9528813878
 20
879.5936293326
  0
LINE
  5
162
330
1F
100
AcDbEntity
  8
0
  6
Continuous
 62
     7
370
    25
100
AcDbLine
 10
2759.9528813878
 20
879.5936293326
 30
0.0
 11
2772.6808034491
 21
886.941302339
 31
0.0
  0
LWPOLYLINE
  5
163
330
1F
100
AcDbEntity
  8
0
  6
Continuous
 62
     7
370
    25
100
AcDbPolyline
 90
       10
 70
   128
 43
0.0
 10
2772.6808034491
 20
886.941302339
 10
2773.5272601184
 20
887.6023034003
 10
2774.271621621
 20
888.528282033
 10
2774.8241069741
 20
889.607551548
 10
2775.1180782903
 20
890.7099361134
 10
2775.1180782903
 20
891.7024718812
 10
2774.8241069741
 20
892.4654443896
 10
2774.271621621
 20
892.9068278937
 10
2773.5272601184
 20
892.9733850288
 10
2772.6808034491
 20
892.6570880222
  0
LINE
  5
164
330
1F
100
AcDbEntity
  8
0
  6
Continuous
 62
     7
370
    25
100
AcDbLine
 10
2772.6808034491
 20
892.6570880222
 30
0.0
 11
2759.9528813878
 21
885.3094150158
 31
0.0
  0
LWPOLYLINE
  5
165
330
1F
100
AcDbEntity
  8
0
  6
Continuous
 62
     7
370
    25
100
AcDbPolyline
 90
       10
 70
   128
 43
0.0
 10
1429.1779191947
 20
111.3535961074
 10
1430.024375864
 20
112.0145971687
 10
1430.7687373666
 20
112.9405758014
 10
1431.3212227196
 20
114.0198453164
 10
1431.6151940358
 20
115.1222298818
 10
1431.6151940358
 20
116.1147656496
 10
1431.3212227196
 20
116.877738158
 10
1430.7687373665
 20
117.3191216621
 10
1430.024375864
 20
117.3856787972
 10
1429.1779191947
 20
117.0693817906
  0
LINE
  5
166
330
1F
100
AcDbEntity
  8
0
  6
Continuous
 62
     7
370
    25
100
AcDbLine
 10
1429.1779191947
 20
117.0693817906
 30
0.0
 11
1416.4499971333
 21
109.7217087842
 31
0.0
  0
LWPOLYLINE
  5
167
330
1F
100
AcDbEntity
  8
0
  6
Continuous
 62
     7
370
    25
100
AcDbPolyline
 90
       10
 70
   128
 43
0.0
 10
1416.4499971333
 20
109.7217087842
 10
1415.6035404641
 20
109.0607077228
 10
1414.8591789615
 20
108.1347290901
 10
1414.3066936084
 20
107.0554595752
 10
1414.0127222922
 20
105.9530750097
 10
1414.0127222922
 20
104.9605392419
 10
1414.3066936084
 20
104.1975667336
 10
1414.8591789615
 20
103.7561832295
 10
1415.6035404641
 20
103.6896260943
 10
1416.4499971333
 20
104.005923101
  0
LINE
  5
168
330
1F
100
AcDbEntity
  8
0
  6
Continuous
 62
     7
370
    25
100
AcDbLine
 10
1416.4499971333
 20
104.005923101
 30
0.0
 11
1429.1779191947
 21
111.3535961074
 31
0.0
  0
LINE
  5
169
330
1F
100
AcDbEntity
  8
0
  6
Continuous
 62
     7
370
    25
100
AcDbLine
 10
1403.722075072
 20
119.1128570213
 30
0.0
 11
1403.722075072
 21
68.4873266844
 31
0.0
  0
LWPOLYLINE
  5
16A
330
1F
100
AcDbEntity
  8
0
  6
Continuous
 62
     7
370
    25
100
AcDbPolyline
 90
        3
 70
   128
 43
0.0
 10
1415.035783571
 20
104.8223312128
 10
1414.1893269017
 20
104.5060342062
 10
1414.1422142921
 20
104.499266847
  0
LINE
  5
16B
330
1F
100
AcDbEntity
  8
0
  6
Continuous
 62
     7
370
    25
100
AcDbLine
 10
1427.7637056323
 20
112.1700042192
 30
0.0
 11
1415.035783571
 21
104.8223312128
 31
0.0
  0
ARC
  5
16C
330
1F
100
AcDbEntity
  8
0
  6
Continuous
 62
     7
370
    25
100
AcDbCircle
 10
1425.461047203
 20
116.308665393
 30
0.0
 40
4.736111501399521
100
AcDbArc
 50
299.0905834166
 51
13.2284026254
  0
LWPOLYLINE
  5
16D
330
1F
100
AcDbEntity
  8
0
  6
Continuous
 62
     7
370
    25
100
AcDbPolyline
 90
        3
 70
   128
 43
0.0
 10
1415.035783571
 20
84.4088109157
 10
1414.1893269017
 20
84.092513909
 10
1414.1422146267
 20
84.0857465935
  0
LINE
  5
16E
330
1F
100
AcDbEntity
  8
0
  6
Continuous
 62
     7
370
    25
100
AcDbLine
 10
1403.0149682908
 20
66.4459083046
 30
0.0
 11
1405.1362886344
 21
65.2212961369
 31
0.0
  0
LINE
  5
16F
330
1F
100
AcDbEntity
  8
0
  6
Continuous
 62
     7
370
    25
100
AcDbLine
 10
1403.0149682908
 20
68.0789899284
 30
0.0
 11
1403.722075072
 21
67.6707858725
 31
0.0
  0
LINE
  5
170
330
1F
100
AcDbEntity
  8
0
  6
Continuous
 62
     7
370
    25
100
AcDbLine
 10
1403.722075072
 20
67.6707858725
 30
0.0
 11
1403.722075072
 21
68.4873266844
 31
0.0
  0
LINE
  5
171
330
1F
100
AcDbEntity
  8
0
  6
Continuous
 62
     7
370
    25
100
AcDbLine
 10
1052.9971116035
 20
270.1399976045
 30
0.0
 11
1053.7042183846
 21
269.7317935486
 31
0.0
  0
LINE
  5
172
330
1F
100
AcDbEntity
  8
0
  6
Continuous
 62
     7
370
    25
100
AcDbLine
 10
2467.2106739766
 20
1086.5481094272
 30
0.0
 11
1052.9971116035
 21
270.1399976045
 31
0.0
  0
LINE
  5
173
330
1F
100
AcDbEntity
  8
0
  6
Continuous
 62
     7
370
    25
100
AcDbLine
 10
2467.2106739766
 20
1086.5481094272
 30
0.0
 11
2467.9177807577
 21
1086.1399053713
 31
0.0
  0
LINE
  5
174
330
1F
100
AcDbEntity
  8
0
  6
Continuous
 62
     7
370
    25
100
AcDbLine
 10
2808.3711515877
 20
889.6003578531
 30
0.0
 11
2805.5590275598
 21
891.2237624993
 31
0.0
  0
LINE
  5
175
330
1F
100
AcDbEntity
  8
0
  6
Continuous
 62
     7
370
    25
100
AcDbLine
 10
2757.1393173607
 20
919.17586622
 30
0.0
 11
2467.9177807577
 21
1086.1399053713
 31
0.0
  0
LINE
  5
176
330
1F
100
AcDbEntity
  8
0
  6
Continuous
 62
     7
370
    25
100
AcDbLine
 10
1403.0149682908
 20
68.0789899284
 30
0.0
 11
1053.7042183846
 21
269.7317935486
 31
0.0
  0
ARC
  5
177
330
1F
100
AcDbEntity
  8
0
  6
Continuous
 62
     7
370
    25
100
AcDbCircle
 10
2624.3433064268
 20
978.3740346107
 30
0.0
 40
0.4366153168344455
100
AcDbArc
 50
110.7834207995
 51
249.2165792005
  0
LINE
  5
178
330
1F
100
AcDbEntity
  8
0
  6
Continuous
 62
     7
370
    25
100
AcDbLine
 10
2624.1883794
 20
977.9658305548
 30
0.0
 11
2629.8452336495
 21
974.7001981075
 31
0.0
  0
ARC
  5
179
330
1F
100
AcDbEntity
  8
0
  6
Continuous
 62
     7
370
    25
100
AcDbCircle
 10
2630.5523404306
 20
976.0649091925
 30
0.0
 40
1.537021907911117
100
AcDbArc
 50
242.6096722366
 51
297.3903277634
  0
LINE
  5
17A
330
1F
100
AcDbEntity
  8
0
  6
Continuous
 62
     7
370
    25
100
AcDbLine
 10
2631.2594472118
 20
974.7001981075
 30
0.0
 11
2634.7949811178
 21
976.7412183871
 31
0.0
  0
ARC
  5
17B
330
1F
100
AcDbEntity
  8
0
  6
Continuous
 62
     7
370
    25
100
AcDbCircle
 10
2634.640054091
 20
977.149422443
 30
0.0
 40
0.4366153168345006
100
AcDbArc
 50
290.7834207995
 51
69.2165792005
  0
LINE
  5
17C
330
1F
100
AcDbEntity
  8
0
  6
Continuous
 62
     7
370
    25
100
AcDbLine
 10
2634.7949811178
 20
977.5576264989
 30
0.0
 11
2629.1381268683
 21
980.8232589462
 31
0.0
  0
ARC
  5
17D
330
1F
100
AcDbEntity
  8
0
  6
Continuous
 62
     7
370
    25
100
AcDbCircle
 10
2628.4310200871
 20
979.4585478612
 30
0.0
 40
1.537021907912538
100
AcDbArc
 50
62.6096722366
 51
117.3903277634
  0
LINE
  5
17E
330
1F
100
AcDbEntity
  8
0
  6
Continuous
 62
     7
370
    25
100
AcDbLine
 10
2627.7239133059
 20
980.8232589462
 30
0.0
 11
2624.1883794
 21
978.7822386666
 31
0.0
  0
ARC
  5
17F
330
1F
100
AcDbEntity
  8
0
  6
Continuous
 62
     7
370
    25
100
AcDbCircle
 10
1236.2926949576
 20
177.0694728567
 30
0.0
 40
0.4366153168342319
100
AcDbArc
 50
110.7834207995
 51
249.2165792005
  0
LINE
  5
180
330
1F
100
AcDbEntity
  8
0
  6
Continuous
 62
     7
370
    25
100
AcDbLine
 10
1236.1377679308
 20
176.6612688008
 30
0.0
 11
1241.7946221803
 21
173.3956363535
 31
0.0
  0
ARC
  5
181
330
1F
100
AcDbEntity
  8
0
  6
Continuous
 62
     7
370
    25
100
AcDbCircle
 10
1242.5017289614
 20
174.7603474385
 30
0.0
 40
1.537021907911647
100
AcDbArc
 50
242.6096722366
 51
297.3903277634
  0
LINE
  5
182
330
1F
100
AcDbEntity
  8
0
  6
Continuous
 62
     7
370
    25
100
AcDbLine
 10
1243.2088357426
 20
173.3956363535
 30
0.0
 11
1246.7443696486
 21
175.4366566331
 31
0.0
  0
ARC
  5
183
330
1F
100
AcDbEntity
  8
0
  6
Continuous
 62
     7
370
    25
100
AcDbCircle
 10
1246.5894426218
 20
175.844860689
 30
0.0
 40
0.4366153168341779
100
AcDbArc
 50
290.7834207994
 51
69.2165792006
  0
LINE
  5
184
330
1F
100
AcDbEntity
  8
0
  6
Continuous
 62
     7
370
    25
100
AcDbLine
 10
1246.7443696486
 20
176.2530647449
 30
0.0
 11
1241.0875153991
 21
179.5186971922
 31
0.0
  0
ARC
  5
185
330
1F
100
AcDbEntity
  8
0
  6
Continuous
 62
     7
370
    25
100
AcDbCircle
 10
1240.3804086179
 20
178.1539861073
 30
0.0
 40
1.537021907912051
100
AcDbArc
 50
62.6096722366
 51
117.3903277634
  0
LINE
  5
186
330
1F
100
AcDbEntity
  8
0
  6
Continuous
 62
     7
370
    25
100
AcDbLine
 10
1239.6733018367
 20
179.5186971922
 30
0.0
 11
1236.1377679308
 21
177.4776769127
 31
0.0
  0
LINE
  5
187
330
1F
100
AcDbEntity
  8
0
  6
Continuous
 62
     7
370
    25
100
AcDbLine
 10
1074.2103150391
 20
270.9564057164
 30
0.0
 11
1086.9382371004
 21
278.3040787228
 31
0.0
  0
LWPOLYLINE
  5
188
330
1F
100
AcDbEntity
  8
0
  6
Continuous
 62
     7
370
    25
100
AcDbPolyline
 90
       10
 70
   128
 43
0.0
 10
1086.9382371004
 20
278.3040787228
 10
1087.6354406209
 20
278.8788897655
 10
1087.9500448096
 20
279.5566941308
 10
1087.8441037583
 20
280.2557386088
 10
1087.3303955213
 20
280.8917081187
 10
1086.4708808935
 20
281.3878953517
 10
1085.3692300241
 20
281.6844528045
 10
1084.1583182666
 20
281.7456112716
 10
1082.9841994502
 20
281.5639941393
 10
1081.9884896321
 20
281.1615071141
  0
LINE
  5
189
330
1F
100
AcDbEntity
  8
0
  6
Continuous
 62
     7
370
    25
100
AcDbLine
 10
1081.9884896321
 20
281.1615071141
 30
0.0
 11
1069.2605675707
 21
273.8138341077
 31
0.0
  0
LWPOLYLINE
  5
18A
330
1F
100
AcDbEntity
  8
0
  6
Continuous
 62
     7
370
    25
100
AcDbPolyline
 90
       10
 70
   128
 43
0.0
 10
1069.2605675707
 20
273.8138341077
 10
1068.5633640503
 20
273.239023065
 10
1068.2487598616
 20
272.5612186997
 10
1068.3547009129
 20
271.8621742217
 10
1068.8684091499
 20
271.2262047118
 10
1069.7279237777
 20
270.7300174788
 10
1070.829574647
 20
270.433460026
 10
1072.0404864045
 20
270.3723015589
 10
1073.214605221
 20
270.5539186912
 10
1074.2103150391
 20
270.9564057164
  0
LINE
  5
18B
330
1F
100
AcDbEntity
  8
0
  6
Continuous
 62
     7
370
    25
100
AcDbLine
 10
2796.7224340095
 20
883.2624895834
 30
0.0
 11
2792.8333473959
 21
881.0173676702
 31
0.0
  0
ARC
  5
18C
330
1F
100
AcDbEntity
  8
0
  6
Continuous
 62
     7
370
    25
100
AcDbCircle
 10
2799.177899225
 20
878.5217997307
 30
0.0
 40
5.338862210586022
100
AcDbArc
 50
83.1824446664
 51
117.3821352113
  0
LINE
  5
18D
330
1F
100
AcDbEntity
  8
0
  6
Continuous
 62
     7
370
    25
100
AcDbLine
 10
2761.3670949502
 20
862.8522867878
 30
0.0
 11
2757.4780083366
 21
860.6071648746
 31
0.0
  0
ARC
  5
18E
330
1F
100
AcDbEntity
  8
0
  6
Continuous
 62
     7
370
    25
100
AcDbCircle
 10
2763.8225601657
 20
858.1115969352
 30
0.0
 40
5.338862210589086
100
AcDbArc
 50
83.1824446664
 51
117.3821352113
  0
LINE
  5
18F
330
1F
100
AcDbEntity
  8
0
  6
Continuous
 62
     7
370
    25
100
AcDbLine
 10
2425.4913738865
 20
1056.7492133457
 30
0.0
 11
2412.7634518252
 21
1049.4015403393
 31
0.0
  0
LWPOLYLINE
  5
190
330
1F
100
AcDbEntity
  8
0
  6
Continuous
 62
     7
370
    25
100
AcDbPolyline
 90
       10
 70
   128
 43
0.0
 10
2412.7634518252
 20
1049.4015403393
 10
2412.0662483047
 20
1048.8267292965
 10
2411.751644116
 20
1048.1489249313
 10
2411.8575851673
 20
1047.4498804533
 10
2412.3712934043
 20
1046.8139109434
 10
2413.2308080321
 20
1046.3177237104
 10
2414.3324589015
 20
1046.0211662576
 10
2415.543370659
 20
1045.9600077904
 10
2416.7174894754
 20
1046.1416249227
 10
2417.7131992935
 20
1046.5441119479
  0
LINE
  5
191
330
1F
100
AcDbEntity
  8
0
  6
Continuous
 62
     7
370
    25
100
AcDbLine
 10
2417.7131992935
 20
1046.5441119479
 30
0.0
 11
2430.4411213549
 21
1053.8917849543
 31
0.0
  0
LWPOLYLINE
  5
192
330
1F
100
AcDbEntity
  8
0
  6
Continuous
 62
     7
370
    25
100
AcDbPolyline
 90
       10
 70
   128
 43
0.0
 10
2430.4411213549
 20
1053.8917849543
 10
2431.1383248753
 20
1054.4665959971
 10
2431.452929064
 20
1055.1444003624
 10
2431.3469880127
 20
1055.8434448404
 10
2430.8332797757
 20
1056.4794143503
 10
2429.9737651479
 20
1056.9756015833
 10
2428.8721142786
 20
1057.2721590361
 10
2427.6612025211
 20
1057.3333175032
 10
2426.4870837046
 20
1057.1517003709
 10
2425.4913738865
 20
1056.7492133457
  0
LINE
  5
193
330
1F
100
AcDbEntity
  8
0
  6
Continuous
 62
     7
370
    25
100
AcDbLine
 10
1109.5656540984
 20
291.3666085119
 30
0.0
 11
1122.2935761597
 21
298.7142815183
 31
0.0
  0
LWPOLYLINE
  5
194
330
1F
100
AcDbEntity
  8
0
  6
Continuous
 62
     7
370
    25
100
AcDbPolyline
 90
       10
 70
   128
 43
0.0
 10
1122.2935761597
 20
298.7142815183
 10
1122.9907796802
 20
299.2890925611
 10
1123.3053838689
 20
299.9668969264
 10
1123.1994428176
 20
300.6659414044
 10
1122.6857345806
 20
301.3019109143
 10
1121.8262199528
 20
301.7980981473
 10
1120.7245690834
 20
302.0946556001
 10
1119.513657326
 20
302.1558140672
 10
1118.3395385095
 20
301.9741969349
 10
1117.3438286914
 20
301.5717099097
  0
LINE
  5
195
330
1F
100
AcDbEntity
  8
0
  6
Continuous
 62
     7
370
    25
100
AcDbLine
 10
1117.3438286914
 20
301.5717099097
 30
0.0
 11
1104.6159066301
 21
294.2240369033
 31
0.0
  0
LWPOLYLINE
  5
196
330
1F
100
AcDbEntity
  8
0
  6
Continuous
 62
     7
370
    25
100
AcDbPolyline
 90
       10
 70
   128
 43
0.0
 10
1104.6159066301
 20
294.2240369033
 10
1103.9187031096
 20
293.6492258605
 10
1103.6040989209
 20
292.9714214953
 10
1103.7100399722
 20
292.2723770172
 10
1104.2237482092
 20
291.6364075074
 10
1105.083262837
 20
291.1402202744
 10
1106.1849137064
 20
290.8436628216
 10
1107.3958254638
 20
290.7825043544
 10
1108.5699442803
 20
290.9641214867
 10
1109.5656540984
 20
291.3666085119
  0
ARC
  5
197
330
1F
100
AcDbEntity
  8
0
  6
Continuous
 62
     7
370
    25
100
AcDbCircle
 10
1455.6750149706
 20
102.9340934992
 30
0.0
 40
5.33886221059024
100
AcDbArc
 50
83.1824446664
 51
117.3821352113
  0
LINE
  5
198
330
1F
100
AcDbEntity
  8
0
  6
Continuous
 62
     7
370
    25
100
AcDbLine
 10
1453.219549755
 20
107.6747833518
 30
0.0
 11
1449.3304631415
 21
105.4296614386
 31
0.0
  0
ARC
  5
199
330
1F
100
AcDbEntity
  8
0
  6
Continuous
 62
     7
370
    25
100
AcDbCircle
 10
1420.3196759112
 20
82.5238907036
 30
0.0
 40
5.33886221058907
100
AcDbArc
 50
83.1824446664
 51
117.3821352113
  0
LINE
  5
19A
330
1F
100
AcDbEntity
  8
0
  6
Continuous
 62
     7
370
    25
100
AcDbLine
 10
1417.8642106957
 20
87.2645805562
 30
0.0
 11
1413.9751240822
 21
85.019458643
 31
0.0
  0
LINE
  5
19B
330
1F
100
AcDbEntity
  8
0
  6
Continuous
 62
     7
370
    25
100
AcDbLine
 10
2460.8467129459
 20
1077.1594161413
 30
0.0
 11
2448.1187908845
 21
1069.8117431349
 31
0.0
  0
LWPOLYLINE
  5
19C
330
1F
100
AcDbEntity
  8
0
  6
Continuous
 62
     7
370
    25
100
AcDbPolyline
 90
       10
 70
   128
 43
0.0
 10
2448.1187908845
 20
1069.8117431349
 10
2447.421587364
 20
1069.2369320921
 10
2447.1069831753
 20
1068.5591277268
 10
2447.2129242267
 20
1067.8600832488
 10
2447.7266324637
 20
1067.2241137389
 10
2448.5861470914
 20
1066.7279265059
 10
2449.6877979608
 20
1066.4313690531
 10
2450.8987097183
 20
1066.370210586
 10
2452.0728285348
 20
1066.5518277183
 10
2453.0685383528
 20
1066.9543147435
  0
LINE
  5
19D
330
1F
100
AcDbEntity
  8
0
  6
Continuous
 62
     7
370
    25
100
AcDbLine
 10
2453.0685383528
 20
1066.9543147435
 30
0.0
 11
2465.7964604142
 21
1074.3019877499
 31
0.0
  0
LWPOLYLINE
  5
19E
330
1F
100
AcDbEntity
  8
0
  6
Continuous
 62
     7
370
    25
100
AcDbPolyline
 90
       10
 70
   128
 43
0.0
 10
2465.7964604142
 20
1074.3019877499
 10
2466.4936639347
 20
1074.8767987927
 10
2466.8082681233
 20
1075.554603158
 10
2466.702327072
 20
1076.253647636
 10
2466.188618835
 20
1076.8896171459
 10
2465.3291042073
 20
1077.3858043788
 10
2464.2274533379
 20
1077.6823618317
 10
2463.0165415804
 20
1077.7435202988
 10
2461.8424227639
 20
1077.5619031665
 10
2460.8467129459
 20
1077.1594161413
  0
ARC
  5
19F
330
1F
100
AcDbEntity
  8
0
  6
Continuous
 62
     7
370
    25
100
AcDbCircle
 10
2730.4093236047
 20
917.143426224
 30
0.0
 40
0.4366153168342842
100
AcDbArc
 50
110.7834207994
 51
249.2165792006
  0
LINE
  5
1A0
330
1F
100
AcDbEntity
  8
0
  6
Continuous
 62
     7
370
    25
100
AcDbLine
 10
2730.2543965779
 20
916.7352221681
 30
0.0
 11
2735.9112508274
 21
913.4695897208
 31
0.0
  0
ARC
  5
1A1
330
1F
100
AcDbEntity
  8
0
  6
Continuous
 62
     7
370
    25
100
AcDbCircle
 10
2736.6183576086
 20
914.8343008058
 30
0.0
 40
1.53702190791142
100
AcDbArc
 50
242.6096722366
 51
297.3903277634
  0
LINE
  5
1A2
330
1F
100
AcDbEntity
  8
0
  6
Continuous
 62
     7
370
    25
100
AcDbLine
 10
2737.3254643898
 20
913.4695897208
 30
0.0
 11
2740.8609982957
 21
915.5106100004
 31
0.0
  0
ARC
  5
1A3
330
1F
100
AcDbEntity
  8
0
  6
Continuous
 62
     7
370
    25
100
AcDbCircle
 10
2740.7060712689
 20
915.9188140563
 30
0.0
 40
0.4366153168343392
100
AcDbArc
 50
290.7834207995
 51
69.2165792005
  0
LINE
  5
1A4
330
1F
100
AcDbEntity
  8
0
  6
Continuous
 62
     7
370
    25
100
AcDbLine
 10
2740.8609982957
 20
916.3270181122
 30
0.0
 11
2735.2041440463
 21
919.5926505595
 31
0.0
  0
ARC
  5
1A5
330
1F
100
AcDbEntity
  8
0
  6
Continuous
 62
     7
370
    25
100
AcDbCircle
 10
2734.4970372651
 20
918.2279394745
 30
0.0
 40
1.537021907912538
100
AcDbArc
 50
62.6096722366
 51
117.3903277634
  0
LINE
  5
1A6
330
1F
100
AcDbEntity
  8
0
  6
Continuous
 62
     7
370
    25
100
AcDbLine
 10
2733.7899304839
 20
919.5926505595
 30
0.0
 11
2730.2543965779
 21
917.5516302799
 31
0.0
  0
ARC
  5
1A7
330
1F
100
AcDbEntity
  8
0
  6
Continuous
 62
     7
370
    25
100
AcDbCircle
 10
2518.2772892488
 20
1039.6046429974
 30
0.0
 40
0.4366153168346069
100
AcDbArc
 50
110.7834207995
 51
249.2165792005
  0
LINE
  5
1A8
330
1F
100
AcDbEntity
  8
0
  6
Continuous
 62
     7
370
    25
100
AcDbLine
 10
2518.122362222
 20
1039.1964389415
 30
0.0
 11
2523.7792164715
 21
1035.9308064942
 31
0.0
  0
ARC
  5
1A9
330
1F
100
AcDbEntity
  8
0
  6
Continuous
 62
     7
370
    25
100
AcDbCircle
 10
2524.4863232527
 20
1037.2955175792
 30
0.0
 40
1.53702190791041
100
AcDbArc
 50
242.6096722366
 51
297.3903277634
  0
LINE
  5
1AA
330
1F
100
AcDbEntity
  8
0
  6
Continuous
 62
     7
370
    25
100
AcDbLine
 10
2525.1934300338
 20
1035.9308064942
 30
0.0
 11
2528.7289639398
 21
1037.9718267738
 31
0.0
  0
ARC
  5
1AB
330
1F
100
AcDbEntity
  8
0
  6
Continuous
 62
     7
370
    25
100
AcDbCircle
 10
2528.574036913
 20
1038.3800308297
 30
0.0
 40
0.4366153168348194
100
AcDbArc
 50
290.7834207995
 51
69.2165792005
  0
LINE
  5
1AC
330
1F
100
AcDbEntity
  8
0
  6
Continuous
 62
     7
370
    25
100
AcDbLine
 10
2528.7289639398
 20
1038.7882348856
 30
0.0
 11
2523.0721096903
 21
1042.0538673329
 31
0.0
  0
ARC
  5
1AD
330
1F
100
AcDbEntity
  8
0
  6
Continuous
 62
     7
370
    25
100
AcDbCircle
 10
2522.3650029091
 20
1040.689156248
 30
0.0
 40
1.537021907910814
100
AcDbArc
 50
62.6096722366
 51
117.3903277634
  0
LINE
  5
1AE
330
1F
100
AcDbEntity
  8
0
  6
Continuous
 62
     7
370
    25
100
AcDbLine
 10
2521.6578961279
 20
1042.0538673329
 30
0.0
 11
2518.122362222
 21
1040.0128470533
 31
0.0
  0
ARC
  5
1AF
330
1F
100
AcDbEntity
  8
0
  6
Continuous
 62
     7
370
    25
100
AcDbCircle
 10
1342.3587121355
 20
115.83886447
 30
0.0
 40
0.4366153168342585
100
AcDbArc
 50
110.7834207995
 51
249.2165792005
  0
LINE
  5
1B0
330
1F
100
AcDbEntity
  8
0
  6
Continuous
 62
     7
370
    25
100
AcDbLine
 10
1342.2037851088
 20
115.4306604141
 30
0.0
 11
1347.8606393582
 21
112.1650279668
 31
0.0
  0
ARC
  5
1B1
330
1F
100
AcDbEntity
  8
0
  6
Continuous
 62
     7
370
    25
100
AcDbCircle
 10
1348.5677461394
 20
113.5297390518
 30
0.0
 40
1.53702190791177
100
AcDbArc
 50
242.6096722366
 51
297.3903277634
  0
LINE
  5
1B2
330
1F
100
AcDbEntity
  8
0
  6
Continuous
 62
     7
370
    25
100
AcDbLine
 10
1349.2748529206
 20
112.1650279668
 30
0.0
 11
1352.8103868266
 21
114.2060482464
 31
0.0
  0
ARC
  5
1B3
330
1F
100
AcDbEntity
  8
0
  6
Continuous
 62
     7
370
    25
100
AcDbCircle
 10
1352.6554597998
 20
114.6142523023
 30
0.0
 40
0.4366153168342453
100
AcDbArc
 50
290.7834207995
 51
69.2165792005
  0
LINE
  5
1B4
330
1F
100
AcDbEntity
  8
0
  6
Continuous
 62
     7
370
    25
100
AcDbLine
 10
1352.8103868266
 20
115.0224563582
 30
0.0
 11
1347.1535325771
 21
118.2880888055
 31
0.0
  0
ARC
  5
1B5
330
1F
100
AcDbEntity
  8
0
  6
Continuous
 62
     7
370
    25
100
AcDbCircle
 10
1346.4464257959
 20
116.9233777206
 30
0.0
 40
1.537021907911113
100
AcDbArc
 50
62.6096722366
 51
117.3903277634
  0
LINE
  5
1B6
330
1F
100
AcDbEntity
  8
0
  6
Continuous
 62
     7
370
    25
100
AcDbLine
 10
1345.7393190147
 20
118.2880888055
 30
0.0
 11
1342.2037851088
 21
116.247068526
 31
0.0
  0
ARC
  5
1B7
330
1F
100
AcDbEntity
  8
0
  6
Continuous
 62
     7
370
    25
100
AcDbCircle
 10
1130.2266777796
 20
238.3000812435
 30
0.0
 40
0.4366153168342851
100
AcDbArc
 50
110.7834207995
 51
249.2165792005
  0
LINE
  5
1B8
330
1F
100
AcDbEntity
  8
0
  6
Continuous
 62
     7
370
    25
100
AcDbLine
 10
1130.0717507528
 20
237.8918771875
 30
0.0
 11
1135.7286050023
 21
234.6262447402
 31
0.0
  0
ARC
  5
1B9
330
1F
100
AcDbEntity
  8
0
  6
Continuous
 62
     7
370
    25
100
AcDbCircle
 10
1136.4357117835
 20
235.9909558252
 30
0.0
 40
1.537021907911798
100
AcDbArc
 50
242.6096722366
 51
297.3903277634
  0
LINE
  5
1BA
330
1F
100
AcDbEntity
  8
0
  6
Continuous
 62
     7
370
    25
100
AcDbLine
 10
1137.1428185647
 20
234.6262447402
 30
0.0
 11
1140.6783524706
 21
236.6672650198
 31
0.0
  0
ARC
  5
1BB
330
1F
100
AcDbEntity
  8
0
  6
Continuous
 62
     7
370
    25
100
AcDbCircle
 10
1140.5234254438
 20
237.0754690757
 30
0.0
 40
0.4366153168342585
100
AcDbArc
 50
290.7834207995
 51
69.2165792005
  0
LINE
  5
1BC
330
1F
100
AcDbEntity
  8
0
  6
Continuous
 62
     7
370
    25
100
AcDbLine
 10
1140.6783524706
 20
237.4836731316
 30
0.0
 11
1135.0214982211
 21
240.7493055789
 31
0.0
  0
ARC
  5
1BD
330
1F
100
AcDbEntity
  8
0
  6
Continuous
 62
     7
370
    25
100
AcDbCircle
 10
1134.3143914399
 20
239.384594494
 30
0.0
 40
1.537021907911239
100
AcDbArc
 50
62.6096722366
 51
117.3903277634
  0
LINE
  5
1BE
330
1F
100
AcDbEntity
  8
0
  6
Continuous
 62
     7
370
    25
100
AcDbLine
 10
1133.6072846587
 20
240.7493055789
 30
0.0
 11
1130.0717507528
 21
238.7082852994
 31
0.0
  0
LINE
  5
1BF
330
1F
100
AcDbEntity
  8
0
  6
Continuous
 62
     7
370
    25
100
AcDbLine
 10
1403.0149682908
 20
66.4459083046
 30
0.0
 11
1053.7042183846
 21
268.0987119249
 31
0.0
  0
LINE
  5
1C0
330
1F
100
AcDbEntity
  8
0
  6
Continuous
 62
     7
370
    25
100
AcDbLine
 10
1427.7637056323
 20
91.7564839221
 30
0.0
 11
1415.035783571
 21
84.4088109157
 31
0.0
  0
ARC
  5
1C1
330
1F
100
AcDbEntity
  8
0
  6
Continuous
 62
     7
370
    25
100
AcDbCircle
 10
1425.4610474968
 20
95.8951448788
 30
0.0
 40
4.736111168852427
100
AcDbArc
 50
299.090581588
 51
13.2284130605
  0
LWPOLYLINE
  5
1C2
330
1F
100
AcDbEntity
  8
0
  6
Continuous
 62
     7
370
    25
100
AcDbPolyline
 90
        3
 70
   128
 43
0.0
 10
1450.3911226303
 20
125.2325340084
 10
1449.544665961
 20
124.9162370017
 10
1449.4975525467
 20
124.9094695378
  0
LINE
  5
1C3
330
1F
100
AcDbEntity
  8
0
  6
Continuous
 62
     7
370
    25
100
AcDbLine
 10
1463.1190446917
 20
132.5802070148
 30
0.0
 11
1450.3911226303
 21
125.2325340084
 31
0.0
  0
ARC
  5
1C4
330
1F
100
AcDbEntity
  8
0
  6
Continuous
 62
     7
370
    25
100
AcDbCircle
 10
1460.8163861395
 20
136.7188682794
 30
0.0
 40
4.736111640501086
100
AcDbArc
 50
299.0905841815
 51
13.2283982605
  0
LWPOLYLINE
  5
1C5
330
1F
100
AcDbEntity
  8
0
  6
Continuous
 62
     7
370
    25
100
AcDbPolyline
 90
        3
 70
   128
 43
0.0
 10
1450.3911226303
 20
104.8190137112
 10
1449.544665961
 20
104.5027167046
 10
1449.4975519299
 20
104.4959491604
  0
LINE
  5
1C6
330
1F
100
AcDbEntity
  8
0
  6
Continuous
 62
     7
370
    25
100
AcDbLine
 10
1463.1190446917
 20
112.1666867176
 30
0.0
 11
1450.3911226303
 21
104.8190137112
 31
0.0
  0
ARC
  5
1C7
330
1F
100
AcDbEntity
  8
0
  6
Continuous
 62
     7
370
    25
100
AcDbCircle
 10
1460.81638707
 20
116.3053472945
 30
0.0
 40
4.736110587092064
100
AcDbArc
 50
299.0905783889
 51
13.2284313157
  0
LINE
  5
1C8
330
1F
100
AcDbEntity
  8
0
  6
Continuous
 62
     7
370
    25
100
AcDbLine
 10
1352.1030501772
 20
113.7977114904
 30
0.0
 11
1347.1535325771
 21
116.6550071817
 31
0.0
  0
LINE
  5
1C9
330
1F
100
AcDbEntity
  8
0
  6
Continuous
 62
     7
370
    25
100
AcDbLine
 10
1345.7393190147
 20
116.6550071817
 30
0.0
 11
1342.9111217581
 21
115.0223236582
 31
0.0
  0
ARC
  5
1CA
330
1F
100
AcDbEntity
  8
0
  6
Continuous
 62
     7
370
    25
100
AcDbCircle
 10
1346.4464257959
 20
115.2902960968
 30
0.0
 40
1.537021907911517
100
AcDbArc
 50
62.6096722366
 51
117.3903277634
  0
LINE
  5
1CB
330
1F
100
AcDbEntity
  8
0
  6
Continuous
 62
     7
370
    25
100
AcDbLine
 10
1246.0370329992
 20
175.0283198771
 30
0.0
 11
1241.0875153991
 21
177.8856155684
 31
0.0
  0
LINE
  5
1CC
330
1F
100
AcDbEntity
  8
0
  6
Continuous
 62
     7
370
    25
100
AcDbLine
 10
1239.6733018367
 20
177.8856155684
 30
0.0
 11
1236.8451045801
 21
176.2529320449
 31
0.0
  0
ARC
  5
1CD
330
1F
100
AcDbEntity
  8
0
  6
Continuous
 62
     7
370
    25
100
AcDbCircle
 10
1240.3804086179
 20
176.5209044835
 30
0.0
 40
1.537021907912051
100
AcDbArc
 50
62.6096722366
 51
117.3903277634
  0
LINE
  5
1CE
330
1F
100
AcDbEntity
  8
0
  6
Continuous
 62
     7
370
    25
100
AcDbLine
 10
2472.867528226
 20
1140.5865801153
 30
0.0
 11
1058.6539658529
 21
324.1784682926
 31
0.0
  0
LINE
  5
1CF
330
1F
100
AcDbEntity
  8
0
  6
Continuous
 62
     7
370
    25
100
AcDbLine
 10
1058.6539658529
 20
324.1784682926
 30
0.0
 11
1058.6539658529
 21
330.5370373122
 31
0.0
  0
LINE
  5
1D0
330
1F
100
AcDbEntity
  8
0
  6
Continuous
 62
     7
370
    25
100
AcDbLine
 10
2472.867528226
 20
1146.9451491349
 30
0.0
 11
1058.6539658529
 21
330.5370373122
 31
0.0
  0
LINE
  5
1D1
330
1F
100
AcDbEntity
  8
0
  6
Continuous
 62
     7
370
    25
100
AcDbLine
 10
2472.867528226
 20
1146.9451491349
 30
0.0
 11
2472.867528226
 21
1140.5865801153
 31
0.0
  0
LINE
  5
1D2
330
1F
100
AcDbEntity
  8
0
  6
Continuous
 62
     7
370
    25
100
AcDbLine
 10
1058.6539658529
 20
330.5370373122
 30
0.0
 11
1055.760548047
 21
332.2073718575
 31
0.0
  0
LINE
  5
1D3
330
1F
100
AcDbEntity
  8
0
  6
Continuous
 62
     7
370
    25
100
AcDbLine
 10
2469.9741104201
 20
1148.6154836802
 30
0.0
 11
1055.760548047
 21
332.2073718575
 31
0.0
  0
LINE
  5
1D4
330
1F
100
AcDbEntity
  8
0
  6
Continuous
 62
     7
370
    25
100
AcDbLine
 10
2472.867528226
 20
1146.9451491349
 30
0.0
 11
2469.9741104201
 21
1148.6154836802
 31
0.0
  0
LINE
  5
1D5
330
1F
100
AcDbEntity
  8
0
  6
Continuous
 62
     7
370
    25
100
AcDbLine
 10
1055.2878212387
 20
324.9918750662
 30
0.0
 11
1052.3406599516
 21
323.8375498801
 31
0.0
  0
LINE
  5
1D6
330
1F
100
AcDbEntity
  8
0
  6
Continuous
 62
     7
370
    25
100
AcDbLine
 10
1052.2900048223
 20
330.8480517988
 30
0.0
 11
1055.2878212387
 21
324.9918750662
 31
0.0
  0
LINE
  5
1D7
330
1F
100
AcDbEntity
  8
0
  6
Continuous
 62
     7
370
    25
100
AcDbLine
 10
1055.760548047
 20
332.2073718575
 30
0.0
 11
1052.2900048223
 21
330.8480517988
 31
0.0
  0
LINE
  5
1D8
330
1F
100
AcDbEntity
  8
0
  6
Continuous
 62
     7
370
    25
100
AcDbLine
 10
1058.6539658529
 20
324.1784682926
 30
0.0
 11
1053.249698907
 21
322.0617597583
 31
0.0
  0
LINE
  5
1D9
330
1F
100
AcDbEntity
  8
0
  6
Continuous
 62
     7
370
    25
100
AcDbLine
 10
2466.5035671954
 20
1147.2561636215
 30
0.0
 11
2469.9741104201
 21
1148.6154836802
 31
0.0
  0
LINE
  5
1DA
330
1F
100
AcDbEntity
  8
0
  6
Continuous
 62
     7
370
    25
100
AcDbLine
 10
1052.2900048223
 20
330.8480517988
 30
0.0
 11
2466.5035671954
 21
1147.2561636215
 31
0.0
  0
LINE
  5
1DB
330
1F
100
AcDbEntity
  8
0
  6
Continuous
 62
     7
370
    25
100
AcDbLine
 10
1139.9710158212
 20
236.2589282638
 30
0.0
 11
1135.0214982211
 21
239.1162239551
 31
0.0
  0
LINE
  5
1DC
330
1F
100
AcDbEntity
  8
0
  6
Continuous
 62
     7
370
    25
100
AcDbLine
 10
1133.6072846587
 20
239.1162239551
 30
0.0
 11
1130.7790874021
 21
237.4835404316
 31
0.0
  0
ARC
  5
1DD
330
1F
100
AcDbEntity
  8
0
  6
Continuous
 62
     7
370
    25
100
AcDbCircle
 10
1134.3143914399
 20
237.7515128702
 30
0.0
 40
1.537021907911492
100
AcDbArc
 50
62.6096722366
 51
117.3903277634
  0
LINE
  5
1DE
330
1F
100
AcDbEntity
  8
0
  6
Continuous
 62
     7
370
    25
100
AcDbLine
 10
1052.3406599516
 20
323.8375498801
 30
0.0
 11
1051.5828980411
 21
323.5407545665
 31
0.0
  0
LINE
  5
1DF
330
1F
100
AcDbEntity
  8
0
  6
Continuous
 62
     7
370
    25
100
AcDbLine
 10
1055.0160910744
 20
325.5226947179
 30
0.0
 11
1051.5828980411
 21
323.5407545665
 31
0.0
  0
LINE
  5
1E0
330
1F
100
AcDbEntity
  8
0
  6
Continuous
 62
     7
370
    25
100
AcDbLine
 10
1051.5828980411
 20
323.5407545665
 30
0.0
 11
1051.5828980411
 21
322.3984768652
 31
0.0
  0
LINE
  5
1E1
330
1F
100
AcDbEntity
  8
0
  6
Continuous
 62
     7
370
    25
100
AcDbLine
 10
1052.9971116035
 20
321.9628279871
 30
0.0
 11
1052.9971116035
 21
321.5820687533
 31
0.0
  0
LINE
  5
1E2
330
1F
100
AcDbEntity
  8
0
  6
Continuous
 62
     7
370
    25
100
AcDbLine
 10
1053.249698907
 20
322.0617597583
 30
0.0
 11
1052.9971116035
 21
321.9628279871
 31
0.0
  0
LINE
  5
1E3
330
1F
100
AcDbEntity
  8
0
  6
Continuous
 62
     7
370
    25
100
AcDbLine
 10
2467.2106739766
 20
1087.3646502391
 30
0.0
 11
2467.2106739766
 21
1137.320947668
 31
0.0
  0
LINE
  5
1E4
330
1F
100
AcDbEntity
  8
0
  6
Continuous
 62
     7
370
    25
100
AcDbLine
 10
2467.2106739766
 20
1087.3646502391
 30
0.0
 11
2467.2106739766
 21
1086.5481094272
 31
0.0
  0
LINE
  5
1E5
330
1F
100
AcDbEntity
  8
0
  6
Continuous
 62
     7
370
    25
100
AcDbLine
 10
1052.9971116035
 20
270.9565384164
 30
0.0
 11
1052.9971116035
 21
270.1399976045
 31
0.0
  0
LINE
  5
1E6
330
1F
100
AcDbEntity
  8
0
  6
Continuous
 62
     7
370
    25
100
AcDbLine
 10
1052.9971116035
 20
270.9565384164
 30
0.0
 11
1052.9971116035
 21
321.5820687533
 31
0.0
  0
LINE
  5
1E7
330
1F
100
AcDbEntity
  8
0
  6
Continuous
 62
     7
370
    25
100
AcDbLine
 10
1099.6661591618
 20
307.2882254433
 30
0.0
 11
1112.3940812231
 21
314.6358984497
 31
0.0
  0
LWPOLYLINE
  5
1E8
330
1F
100
AcDbEntity
  8
0
  6
Continuous
 62
     7
370
    25
100
AcDbPolyline
 90
       10
 70
   128
 43
0.0
 10
1112.3940812231
 20
314.6358984497
 10
1113.2405378924
 20
315.296899511
 10
1113.984899395
 20
316.2228781437
 10
1114.5373847481
 20
317.3021476587
 10
1114.8313560642
 20
318.4045322241
 10
1114.8313560642
 20
319.3970679919
 10
1114.5373847481
 20
320.1600405003
 10
1113.984899395
 20
320.6014240044
 10
1113.2405378924
 20
320.6679811395
 10
1112.3940812231
 20
320.3516841329
  0
LINE
  5
1E9
330
1F
100
AcDbEntity
  8
0
  6
Continuous
 62
     7
370
    25
100
AcDbLine
 10
1112.3940812231
 20
320.3516841329
 30
0.0
 11
1099.6661591618
 21
313.0040111265
 31
0.0
  0
LWPOLYLINE
  5
1EA
330
1F
100
AcDbEntity
  8
0
  6
Continuous
 62
     7
370
    25
100
AcDbPolyline
 90
       10
 70
   128
 43
0.0
 10
1099.6661591618
 20
313.0040111265
 10
1098.8197024925
 20
312.3430100651
 10
1098.0753409899
 20
311.4170314324
 10
1097.5228556368
 20
310.3377619174
 10
1097.2288843206
 20
309.235377352
 10
1097.2288843206
 20
308.2428415842
 10
1097.5228556368
 20
307.4798690758
 10
1098.0753409899
 20
307.0384855717
 10
1098.8197024925
 20
306.9719284366
 10
1099.6661591618
 20
307.2882254433
  0
LINE
  5
1EB
330
1F
100
AcDbEntity
  8
0
  6
Continuous
 62
     7
370
    25
100
AcDbLine
 10
2455.8969654776
 20
1095.9393903644
 30
0.0
 11
2443.1690434162
 21
1088.591717358
 31
0.0
  0
LWPOLYLINE
  5
1EC
330
1F
100
AcDbEntity
  8
0
  6
Continuous
 62
     7
370
    25
100
AcDbPolyline
 90
       10
 70
   128
 43
0.0
 10
2443.1690434162
 20
1088.591717358
 10
2442.3225867469
 20
1087.9307162967
 10
2441.5782252444
 20
1087.004737664
 10
2441.0257398913
 20
1085.925468149
 10
2440.7317685751
 20
1084.8230835836
 10
2440.7317685751
 20
1083.8305478158
 10
2441.0257398913
 20
1083.0675753074
 10
2441.5782252444
 20
1082.6261918033
 10
2442.3225867469
 20
1082.5596346682
 10
2443.1690434162
 20
1082.8759316748
  0
LINE
  5
1ED
330
1F
100
AcDbEntity
  8
0
  6
Continuous
 62
     7
370
    25
100
AcDbLine
 10
2443.1690434162
 20
1082.8759316748
 30
0.0
 11
2455.8969654776
 21
1090.2236046812
 31
0.0
  0
LWPOLYLINE
  5
1EE
330
1F
100
AcDbEntity
  8
0
  6
Continuous
 62
     7
370
    25
100
AcDbPolyline
 90
       10
 70
   128
 43
0.0
 10
2455.8969654776
 20
1090.2236046812
 10
2456.7434221468
 20
1090.8846057426
 10
2457.4877836494
 20
1091.8105843753
 10
2458.0402690025
 20
1092.8898538902
 10
2458.3342403187
 20
1093.9922384557
 10
2458.3342403187
 20
1094.9847742235
 10
2458.0402690025
 20
1095.7477467318
 10
2457.4877836494
 20
1096.1891302359
 10
2456.7434221468
 20
1096.2556873711
 10
2455.8969654776
 20
1095.9393903644
  0
LINE
  5
1EF
330
1F
100
AcDbEntity
  8
0
  6
Continuous
 62
     7
370
    25
100
AcDbLine
 10
2420.5416264182
 20
1075.5291875689
 30
0.0
 11
2407.8137043569
 21
1068.1815145625
 31
0.0
  0
LWPOLYLINE
  5
1F0
330
1F
100
AcDbEntity
  8
0
  6
Continuous
 62
     7
370
    25
100
AcDbPolyline
 90
       10
 70
   128
 43
0.0
 10
2407.8137043569
 20
1068.1815145625
 10
2406.9672476876
 20
1067.5205135011
 10
2406.222886185
 20
1066.5945348684
 10
2405.6704008319
 20
1065.5152653534
 10
2405.3764295158
 20
1064.412880788
 10
2405.3764295158
 20
1063.4203450202
 10
2405.6704008319
 20
1062.6573725118
 10
2406.222886185
 20
1062.2159890078
 10
2406.9672476876
 20
1062.1494318726
 10
2407.8137043569
 20
1062.4657288793
  0
LINE
  5
1F1
330
1F
100
AcDbEntity
  8
0
  6
Continuous
 62
     7
370
    25
100
AcDbLine
 10
2407.8137043569
 20
1062.4657288793
 30
0.0
 11
2420.5416264182
 21
1069.8134018857
 31
0.0
  0
LWPOLYLINE
  5
1F2
330
1F
100
AcDbEntity
  8
0
  6
Continuous
 62
     7
370
    25
100
AcDbPolyline
 90
       10
 70
   128
 43
0.0
 10
2420.5416264182
 20
1069.8134018857
 10
2421.3880830875
 20
1070.474402947
 10
2422.1324445901
 20
1071.4003815797
 10
2422.6849299432
 20
1072.4796510947
 10
2422.9789012594
 20
1073.5820356601
 10
2422.9789012594
 20
1074.5745714279
 10
2422.6849299432
 20
1075.3375439363
 10
2422.1324445901
 20
1075.7789274404
 10
2421.3880830875
 20
1075.8454845755
 10
2420.5416264182
 20
1075.5291875689
  0
LINE
  5
1F3
330
1F
100
AcDbEntity
  8
0
  6
Continuous
 62
     7
370
    25
100
AcDbLine
 10
1064.3108201024
 20
286.8780226477
 30
0.0
 11
1077.0387421638
 21
294.2256956541
 31
0.0
  0
LWPOLYLINE
  5
1F4
330
1F
100
AcDbEntity
  8
0
  6
Continuous
 62
     7
370
    25
100
AcDbPolyline
 90
       10
 70
   128
 43
0.0
 10
1077.0387421638
 20
294.2256956541
 10
1077.8851988331
 20
294.8866967154
 10
1078.6295603357
 20
295.8126753481
 10
1079.1820456887
 20
296.8919448631
 10
1079.4760170049
 20
297.9943294285
 10
1079.4760170049
 20
298.9868651964
 10
1079.1820456887
 20
299.7498377047
 10
1078.6295603357
 20
300.1912212088
 10
1077.8851988331
 20
300.2577783439
 10
1077.0387421638
 20
299.9414813373
  0
LINE
  5
1F5
330
1F
100
AcDbEntity
  8
0
  6
Continuous
 62
     7
370
    25
100
AcDbLine
 10
1077.0387421638
 20
299.9414813373
 30
0.0
 11
1064.3108201024
 21
292.5938083309
 31
0.0
  0
LWPOLYLINE
  5
1F6
330
1F
100
AcDbEntity
  8
0
  6
Continuous
 62
     7
370
    25
100
AcDbPolyline
 90
       10
 70
   128
 43
0.0
 10
1064.3108201024
 20
292.5938083309
 10
1063.4643634332
 20
291.9328072696
 10
1062.7200019306
 20
291.0068286369
 10
1062.1675165775
 20
289.9275591219
 10
1061.8735452613
 20
288.8251745564
 10
1061.8735452613
 20
287.8326387886
 10
1062.1675165775
 20
287.0696662803
 10
1062.7200019306
 20
286.6282827762
 10
1063.4643634332
 20
286.5617256411
 10
1064.3108201024
 20
286.8780226477
  0
LINE
  5
1F7
330
1F
100
AcDbEntity
  8
0
  6
Continuous
 62
     7
370
    25
100
AcDbLine
 10
1099.6661591618
 20
327.7017457404
 30
0.0
 11
1112.3940812231
 21
335.0494187468
 31
0.0
  0
LWPOLYLINE
  5
1F8
330
1F
100
AcDbEntity
  8
0
  6
Continuous
 62
     7
370
    25
100
AcDbPolyline
 90
       10
 70
   128
 43
0.0
 10
1112.3940812231
 20
335.0494187468
 10
1113.2405378924
 20
335.7104198081
 10
1113.984899395
 20
336.6363984408
 10
1114.5373847481
 20
337.7156679558
 10
1114.8313560642
 20
338.8180525212
 10
1114.8313560642
 20
339.8105882891
 10
1114.5373847481
 20
340.5735607974
 10
1113.984899395
 20
341.0149443015
 10
1113.2405378924
 20
341.0815014366
 10
1112.3940812231
 20
340.76520443
  0
LINE
  5
1F9
330
1F
100
AcDbEntity
  8
0
  6
Continuous
 62
     7
370
    25
100
AcDbLine
 10
1112.3940812231
 20
340.76520443
 30
0.0
 11
1099.6661591618
 21
333.4175314236
 31
0.0
  0
LWPOLYLINE
  5
1FA
330
1F
100
AcDbEntity
  8
0
  6
Continuous
 62
     7
370
    25
100
AcDbPolyline
 90
       10
 70
   128
 43
0.0
 10
1099.6661591618
 20
333.4175314236
 10
1098.8197024925
 20
332.7565303623
 10
1098.0753409899
 20
331.8305517296
 10
1097.5228556368
 20
330.7512822146
 10
1097.2288843206
 20
329.6488976492
 10
1097.2288843206
 20
328.6563618813
 10
1097.5228556368
 20
327.893389373
 10
1098.0753409899
 20
327.4520058689
 10
1098.8197024925
 20
327.3854487338
 10
1099.6661591618
 20
327.7017457404
  0
LINE
  5
1FB
330
1F
100
AcDbEntity
  8
0
  6
Continuous
 62
     7
370
    25
100
AcDbLine
 10
2455.8969654776
 20
1116.3529106616
 30
0.0
 11
2443.1690434162
 21
1109.0052376552
 31
0.0
  0
LWPOLYLINE
  5
1FC
330
1F
100
AcDbEntity
  8
0
  6
Continuous
 62
     7
370
    25
100
AcDbPolyline
 90
       10
 70
   128
 43
0.0
 10
2443.1690434162
 20
1109.0052376552
 10
2442.3225867469
 20
1108.3442365938
 10
2441.5782252444
 20
1107.4182579611
 10
2441.0257398913
 20
1106.3389884462
 10
2440.7317685751
 20
1105.2366038807
 10
2440.7317685751
 20
1104.2440681129
 10
2441.0257398913
 20
1103.4810956046
 10
2441.5782252444
 20
1103.0397121005
 10
2442.3225867469
 20
1102.9731549653
 10
2443.1690434162
 20
1103.289451972
  0
LINE
  5
1FD
330
1F
100
AcDbEntity
  8
0
  6
Continuous
 62
     7
370
    25
100
AcDbLine
 10
2443.1690434162
 20
1103.289451972
 30
0.0
 11
2455.8969654776
 21
1110.6371249784
 31
0.0
  0
LWPOLYLINE
  5
1FE
330
1F
100
AcDbEntity
  8
0
  6
Continuous
 62
     7
370
    25
100
AcDbPolyline
 90
       10
 70
   128
 43
0.0
 10
2455.8969654776
 20
1110.6371249784
 10
2456.7434221468
 20
1111.2981260397
 10
2457.4877836494
 20
1112.2241046724
 10
2458.0402690025
 20
1113.3033741874
 10
2458.3342403187
 20
1114.4057587528
 10
2458.3342403187
 20
1115.3982945206
 10
2458.0402690025
 20
1116.161267029
 10
2457.4877836494
 20
1116.6026505331
 10
2456.7434221468
 20
1116.6692076682
 10
2455.8969654776
 20
1116.3529106616
  0
LINE
  5
1FF
330
1F
100
AcDbEntity
  8
0
  6
Continuous
 62
     7
370
    25
100
AcDbLine
 10
2420.5416264182
 20
1095.942707866
 30
0.0
 11
2407.8137043569
 21
1088.5950348596
 31
0.0
  0
LWPOLYLINE
  5
200
330
1F
100
AcDbEntity
  8
0
  6
Continuous
 62
     7
370
    25
100
AcDbPolyline
 90
       10
 70
   128
 43
0.0
 10
2407.8137043569
 20
1088.5950348596
 10
2406.9672476876
 20
1087.9340337983
 10
2406.222886185
 20
1087.0080551656
 10
2405.6704008319
 20
1085.9287856506
 10
2405.3764295158
 20
1084.8264010852
 10
2405.3764295158
 20
1083.8338653173
 10
2405.6704008319
 20
1083.070892809
 10
2406.222886185
 20
1082.6295093049
 10
2406.9672476876
 20
1082.5629521698
 10
2407.8137043569
 20
1082.8792491764
  0
LINE
  5
201
330
1F
100
AcDbEntity
  8
0
  6
Continuous
 62
     7
370
    25
100
AcDbLine
 10
2407.8137043569
 20
1082.8792491764
 30
0.0
 11
2420.5416264182
 21
1090.2269221828
 31
0.0
  0
LWPOLYLINE
  5
202
330
1F
100
AcDbEntity
  8
0
  6
Continuous
 62
     7
370
    25
100
AcDbPolyline
 90
       10
 70
   128
 43
0.0
 10
2420.5416264182
 20
1090.2269221828
 10
2421.3880830875
 20
1090.8879232441
 10
2422.1324445901
 20
1091.8139018768
 10
2422.6849299432
 20
1092.8931713918
 10
2422.9789012594
 20
1093.9955559573
 10
2422.9789012594
 20
1094.9880917251
 10
2422.6849299432
 20
1095.7510642334
 10
2422.1324445901
 20
1096.1924477375
 10
2421.3880830875
 20
1096.2590048726
 10
2420.5416264182
 20
1095.942707866
  0
LINE
  5
203
330
1F
100
AcDbEntity
  8
0
  6
Continuous
 62
     7
370
    25
100
AcDbLine
 10
1064.3108201024
 20
307.2915429448
 30
0.0
 11
1077.0387421638
 21
314.6392159512
 31
0.0
  0
LWPOLYLINE
  5
204
330
1F
100
AcDbEntity
  8
0
  6
Continuous
 62
     7
370
    25
100
AcDbPolyline
 90
       10
 70
   128
 43
0.0
 10
1077.0387421638
 20
314.6392159512
 10
1077.8851988331
 20
315.3002170126
 10
1078.6295603357
 20
316.2261956453
 10
1079.1820456887
 20
317.3054651603
 10
1079.4760170049
 20
318.4078497257
 10
1079.4760170049
 20
319.4003854935
 10
1079.1820456887
 20
320.1633580019
 10
1078.6295603356
 20
320.6047415059
 10
1077.8851988331
 20
320.6712986411
 10
1077.0387421638
 20
320.3550016344
  0
LINE
  5
205
330
1F
100
AcDbEntity
  8
0
  6
Continuous
 62
     7
370
    25
100
AcDbLine
 10
1077.0387421638
 20
320.3550016344
 30
0.0
 11
1064.3108201024
 21
313.007328628
 31
0.0
  0
LWPOLYLINE
  5
206
330
1F
100
AcDbEntity
  8
0
  6
Continuous
 62
     7
370
    25
100
AcDbPolyline
 90
       10
 70
   128
 43
0.0
 10
1064.3108201024
 20
313.007328628
 10
1063.4643634332
 20
312.3463275667
 10
1062.7200019306
 20
311.420348934
 10
1062.1675165775
 20
310.341079419
 10
1061.8735452613
 20
309.2386948536
 10
1061.8735452613
 20
308.2461590858
 10
1062.1675165775
 20
307.4831865774
 10
1062.7200019306
 20
307.0418030733
 10
1063.4643634332
 20
306.9752459382
 10
1064.3108201024
 20
307.2915429448
  0
LINE
  5
207
330
1F
100
AcDbEntity
  8
0
  6
Continuous
 62
     7
370
    25
100
AcDbLine
 10
1051.5828980411
 20
271.7729465282
 30
0.0
 11
1051.5828980411
 21
322.3984768652
 31
0.0
  0
LWPOLYLINE
  5
208
330
1F
100
AcDbEntity
  8
0
  6
Continuous
 62
     7
370
    25
100
AcDbPolyline
 90
        3
 70
   128
 43
0.0
 10
1062.0030369769
 20
307.7848866539
 10
1062.0501498708
 20
307.79165405
 10
1062.8966065401
 20
308.1079510567
  0
LINE
  5
209
330
1F
100
AcDbEntity
  8
0
  6
Continuous
 62
     7
370
    25
100
AcDbLine
 10
1062.8966065401
 20
308.1079510567
 30
0.0
 11
1075.6245286014
 21
315.4556240631
 31
0.0
  0
ARC
  5
20A
330
1F
100
AcDbEntity
  8
0
  6
Continuous
 62
     7
370
    25
100
AcDbCircle
 10
1073.3218701721
 20
319.5942852369
 30
0.0
 40
4.736111501401592
100
AcDbArc
 50
299.0905834166
 51
13.2284026253
  0
LWPOLYLINE
  5
20B
330
1F
100
AcDbEntity
  8
0
  6
Continuous
 62
     7
370
    25
100
AcDbPolyline
 90
        3
 70
   128
 43
0.0
 10
1062.0030369769
 20
287.3713663567
 10
1062.0501498708
 20
287.3781337529
 10
1062.8966065401
 20
287.6944307595
  0
LINE
  5
20C
330
1F
100
AcDbEntity
  8
0
  6
Continuous
 62
     7
370
    25
100
AcDbLine
 10
1051.5828980411
 20
271.7729465282
 30
0.0
 11
1051.5828980411
 21
269.3233240926
 31
0.0
  0
LINE
  5
20D
330
1F
100
AcDbEntity
  8
0
  6
Continuous
 62
     7
370
    25
100
AcDbLine
 10
1051.5828980411
 20
269.3233240926
 30
0.0
 11
1053.7042183846
 21
268.0987119249
 31
0.0
  0
LWPOLYLINE
  5
20E
330
1F
100
AcDbEntity
  8
0
  6
Continuous
 62
     7
370
    25
100
AcDbPolyline
 90
        3
 70
   128
 43
0.0
 10
1069.2605675707
 20
272.180752484
 10
1068.5633640503
 20
271.6059414412
 10
1068.5339807348
 20
271.5685791002
  0
LINE
  5
20F
330
1F
100
AcDbEntity
  8
0
  6
Continuous
 62
     7
370
    25
100
AcDbLine
 10
1062.8966065401
 20
287.6944307595
 30
0.0
 11
1075.6245286014
 21
295.0421037659
 31
0.0
  0
LINE
  5
210
330
1F
100
AcDbEntity
  8
0
  6
Continuous
 62
     7
370
    25
100
AcDbLine
 10
1081.9884896321
 20
279.5284254904
 30
0.0
 11
1069.2605675707
 21
272.180752484
 31
0.0
  0
ARC
  5
211
330
1F
100
AcDbEntity
  8
0
  6
Continuous
 62
     7
370
    25
100
AcDbCircle
 10
1073.3218701721
 20
299.1807649397
 30
0.0
 40
4.736111501385498
100
AcDbArc
 50
299.0905834165
 51
13.2284026258
  0
LWPOLYLINE
  5
212
330
1F
100
AcDbEntity
  8
0
  6
Continuous
 62
     7
370
    25
100
AcDbPolyline
 90
        3
 70
   128
 43
0.0
 10
1097.3583766632
 20
328.1950895311
 10
1097.4054889301
 20
328.2018568456
 10
1098.2519455994
 20
328.5181538522
  0
ARC
  5
213
330
1F
100
AcDbEntity
  8
0
  6
Continuous
 62
     7
370
    25
100
AcDbCircle
 10
1084.4213538304
 20
275.4641958909
 30
0.0
 40
4.736748931939861
100
AcDbArc
 50
46.7843615555
 51
120.9049089467
  0
LINE
  5
214
330
1F
100
AcDbEntity
  8
0
  6
Continuous
 62
     7
370
    25
100
AcDbLine
 10
1098.2519455994
 20
328.5181538522
 30
0.0
 11
1110.9798676608
 21
335.8658268586
 31
0.0
  0
ARC
  5
215
330
1F
100
AcDbEntity
  8
0
  6
Continuous
 62
     7
370
    25
100
AcDbCircle
 10
1108.6772090905
 20
340.0044881366
 30
0.0
 40
4.736111660969843
100
AcDbArc
 50
299.0905842941
 51
13.2283976182
  0
LWPOLYLINE
  5
216
330
1F
100
AcDbEntity
  8
0
  6
Continuous
 62
     7
370
    25
100
AcDbPolyline
 90
        3
 70
   128
 43
0.0
 10
1097.358376771
 20
307.781569248
 10
1097.4054889301
 20
307.7883365485
 10
1098.2519455994
 20
308.1046335551
  0
LWPOLYLINE
  5
217
330
1F
100
AcDbEntity
  8
0
  6
Continuous
 62
     7
370
    25
100
AcDbPolyline
 90
        3
 70
   128
 43
0.0
 10
1104.6159066301
 20
292.5909552795
 10
1103.9187031096
 20
292.0161442368
 10
1103.8893197942
 20
291.9787818958
  0
LINE
  5
218
330
1F
100
AcDbEntity
  8
0
  6
Continuous
 62
     7
370
    25
100
AcDbLine
 10
1098.2519455994
 20
308.1046335551
 30
0.0
 11
1110.9798676608
 21
315.4523065615
 31
0.0
  0
LINE
  5
219
330
1F
100
AcDbEntity
  8
0
  6
Continuous
 62
     7
370
    25
100
AcDbLine
 10
1117.3438286914
 20
299.9386282859
 30
0.0
 11
1104.6159066301
 21
292.5909552795
 31
0.0
  0
ARC
  5
21A
330
1F
100
AcDbEntity
  8
0
  6
Continuous
 62
     7
370
    25
100
AcDbCircle
 10
1108.6772090649
 20
319.5909678584
 30
0.0
 40
4.736111689962889
100
AcDbArc
 50
299.0905844535
 51
13.2283967084
  0
ARC
  5
21B
330
1F
100
AcDbEntity
  8
0
  6
Continuous
 62
     7
370
    25
100
AcDbCircle
 10
1119.7766928897
 20
295.8743986865
 30
0.0
 40
4.736748931935755
100
AcDbArc
 50
46.7843615554
 51
120.9049089467
  0
LWPOLYLINE
  5
21C
330
1F
100
AcDbEntity
  8
0
  6
Continuous
 62
     7
370
    25
100
AcDbPolyline
 90
        3
 70
   128
 43
0.0
 10
2758.5386678254
 20
880.4100374444
 10
2757.6922111561
 20
880.0937404377
 10
2757.6450977866
 20
880.0869729797
  0
LINE
  5
21D
330
1F
100
AcDbEntity
  8
0
  6
Continuous
 62
     7
370
    25
100
AcDbLine
 10
2771.2665898868
 20
887.7577104508
 30
0.0
 11
2758.5386678254
 21
880.4100374444
 31
0.0
  0
ARC
  5
21E
330
1F
100
AcDbEntity
  8
0
  6
Continuous
 62
     7
370
    25
100
AcDbCircle
 10
2768.9639314574
 20
891.8963716246
 30
0.0
 40
4.736111501414946
100
AcDbArc
 50
299.0905834167
 51
13.2284026249
  0
LWPOLYLINE
  5
21F
330
1F
100
AcDbEntity
  8
0
  6
Continuous
 62
     7
370
    25
100
AcDbPolyline
 90
        3
 70
   128
 43
0.0
 10
2758.5386678254
 20
859.9965171472
 10
2757.6922111561
 20
859.6802201406
 10
2757.6450974341
 20
859.6734526366
  0
LINE
  5
220
330
1F
100
AcDbEntity
  8
0
  6
Continuous
 62
     7
370
    25
100
AcDbLine
 10
2771.2665898868
 20
867.3441901536
 30
0.0
 11
2758.5386678254
 21
859.9965171472
 31
0.0
  0
ARC
  5
221
330
1F
100
AcDbEntity
  8
0
  6
Continuous
 62
     7
370
    25
100
AcDbCircle
 10
2768.963931231
 20
871.4828514948
 30
0.0
 40
4.736111757791725
100
AcDbArc
 50
299.0905848265
 51
13.22839458
  0
LWPOLYLINE
  5
222
330
1F
100
AcDbEntity
  8
0
  6
Continuous
 62
     7
370
    25
100
AcDbPolyline
 90
        3
 70
   128
 43
0.0
 10
2793.8940068847
 20
900.8202402399
 10
2793.0475502155
 20
900.5039432333
 10
2793.0004384047
 20
900.4971759782
  0
LINE
  5
223
330
1F
100
AcDbEntity
  8
0
  6
Continuous
 62
     7
370
    25
100
AcDbLine
 10
2806.6219289461
 20
908.1679132463
 30
0.0
 11
2793.8940068847
 21
900.8202402399
 31
0.0
  0
ARC
  5
224
330
1F
100
AcDbEntity
  8
0
  6
Continuous
 62
     7
370
    25
100
AcDbCircle
 10
2804.3192705168
 20
912.3065744201
 30
0.0
 40
4.736111501356951
100
AcDbArc
 50
299.0905834164
 51
13.2284026267
  0
LWPOLYLINE
  5
225
330
1F
100
AcDbEntity
  8
0
  6
Continuous
 62
     7
370
    25
100
AcDbPolyline
 90
        3
 70
   128
 43
0.0
 10
2793.8940068847
 20
880.4067199428
 10
2793.0475502155
 20
880.0904229362
 10
2793.0004377972
 20
880.083655602
  0
LINE
  5
226
330
1F
100
AcDbEntity
  8
0
  6
Continuous
 62
     7
370
    25
100
AcDbLine
 10
2806.6219289461
 20
887.7543929492
 30
0.0
 11
2793.8940068847
 21
880.4067199428
 31
0.0
  0
ARC
  5
227
330
1F
100
AcDbEntity
  8
0
  6
Continuous
 62
     7
370
    25
100
AcDbCircle
 10
2804.3192705168
 20
891.893054123
 30
0.0
 40
4.736111501375762
100
AcDbArc
 50
299.0905834165
 51
13.2284026261
  0
LINE
  5
228
330
1F
100
AcDbEntity
  8
0
  6
Continuous
 62
     7
370
    25
100
AcDbLine
 10
2740.1536616464
 20
915.1022732444
 30
0.0
 11
2735.2041440463
 21
917.9595689357
 31
0.0
  0
LINE
  5
229
330
1F
100
AcDbEntity
  8
0
  6
Continuous
 62
     7
370
    25
100
AcDbLine
 10
2733.7899304839
 20
917.9595689357
 30
0.0
 11
2730.9617332273
 21
916.3268854121
 31
0.0
  0
ARC
  5
22A
330
1F
100
AcDbEntity
  8
0
  6
Continuous
 62
     7
370
    25
100
AcDbCircle
 10
2734.4970372651
 20
916.5948578508
 30
0.0
 40
1.537021907911427
100
AcDbArc
 50
62.6096722366
 51
117.3903277634
  0
LINE
  5
22B
330
1F
100
AcDbEntity
  8
0
  6
Continuous
 62
     7
370
    25
100
AcDbLine
 10
2634.0876444684
 20
976.3328816311
 30
0.0
 11
2629.1381268683
 21
979.1901773224
 31
0.0
  0
LINE
  5
22C
330
1F
100
AcDbEntity
  8
0
  6
Continuous
 62
     7
370
    25
100
AcDbLine
 10
2627.7239133059
 20
979.1901773224
 30
0.0
 11
2624.8957160493
 21
977.5574937988
 31
0.0
  0
ARC
  5
22D
330
1F
100
AcDbEntity
  8
0
  6
Continuous
 62
     7
370
    25
100
AcDbCircle
 10
2628.4310200871
 20
977.8254662375
 30
0.0
 40
1.537021907912437
100
AcDbArc
 50
62.6096722366
 51
117.3903277634
  0
LWPOLYLINE
  5
22E
330
1F
100
AcDbEntity
  8
0
  6
Continuous
 62
     7
370
    25
100
AcDbPolyline
 90
        3
 70
   128
 43
0.0
 10
2405.5059202395
 20
1083.3725927563
 10
2405.5530341252
 20
1083.3793602816
 10
2406.3994907945
 20
1083.6956572882
  0
LINE
  5
22F
330
1F
100
AcDbEntity
  8
0
  6
Continuous
 62
     7
370
    25
100
AcDbLine
 10
2406.3994907945
 20
1083.6956572882
 30
0.0
 11
2419.1274128559
 21
1091.0433302946
 31
0.0
  0
LINE
  5
230
330
1F
100
AcDbEntity
  8
0
  6
Continuous
 62
     7
370
    25
100
AcDbLine
 10
2528.0216272904
 20
1037.5634900178
 30
0.0
 11
2523.0721096903
 21
1040.4207857091
 31
0.0
  0
LINE
  5
231
330
1F
100
AcDbEntity
  8
0
  6
Continuous
 62
     7
370
    25
100
AcDbLine
 10
2521.6578961279
 20
1040.4207857091
 30
0.0
 11
2518.8296988713
 21
1038.7881021856
 31
0.0
  0
ARC
  5
232
330
1F
100
AcDbEntity
  8
0
  6
Continuous
 62
     7
370
    25
100
AcDbCircle
 10
2416.8247544266
 20
1095.1819914684
 30
0.0
 40
4.736111501393411
100
AcDbArc
 50
299.0905834166
 51
13.2284026256
  0
ARC
  5
233
330
1F
100
AcDbEntity
  8
0
  6
Continuous
 62
     7
370
    25
100
AcDbCircle
 10
2522.3650029091
 20
1039.0560746242
 30
0.0
 40
1.53702190791465
100
AcDbArc
 50
62.6096722367
 51
117.3903277633
  0
LWPOLYLINE
  5
234
330
1F
100
AcDbEntity
  8
0
  6
Continuous
 62
     7
370
    25
100
AcDbPolyline
 90
        3
 70
   128
 43
0.0
 10
2405.505922145
 20
1062.9590727073
 10
2405.5530341252
 20
1062.9658399845
 10
2406.3994907945
 20
1063.2821369911
  0
LWPOLYLINE
  5
235
330
1F
100
AcDbEntity
  8
0
  6
Continuous
 62
     7
370
    25
100
AcDbPolyline
 90
        3
 70
   128
 43
0.0
 10
2412.7634518252
 20
1047.7684587155
 10
2412.0662483047
 20
1047.1936476728
 10
2412.0368649892
 20
1047.1562853317
  0
LINE
  5
236
330
1F
100
AcDbEntity
  8
0
  6
Continuous
 62
     7
370
    25
100
AcDbLine
 10
2406.3994907945
 20
1063.2821369911
 30
0.0
 11
2419.1274128559
 21
1070.6298099975
 31
0.0
  0
LINE
  5
237
330
1F
100
AcDbEntity
  8
0
  6
Continuous
 62
     7
370
    25
100
AcDbLine
 10
2425.4913738865
 20
1055.1161317219
 30
0.0
 11
2412.7634518252
 21
1047.7684587155
 31
0.0
  0
ARC
  5
238
330
1F
100
AcDbEntity
  8
0
  6
Continuous
 62
     7
370
    25
100
AcDbCircle
 10
2416.8247547478
 20
1074.7684709339
 30
0.0
 40
4.73611113775352
100
AcDbArc
 50
299.090581417
 51
13.2284140363
  0
LWPOLYLINE
  5
239
330
1F
100
AcDbEntity
  8
0
  6
Continuous
 62
     7
370
    25
100
AcDbPolyline
 90
        3
 70
   128
 43
0.0
 10
2440.8612610061
 20
1103.7827957742
 10
2440.9083731846
 20
1103.7895630772
 10
2441.7548298538
 20
1104.1058600838
  0
ARC
  5
23A
330
1F
100
AcDbEntity
  8
0
  6
Continuous
 62
     7
370
    25
100
AcDbCircle
 10
2427.9242380848
 20
1051.0519021225
 30
0.0
 40
4.736748931947709
100
AcDbArc
 50
46.7843615557
 51
120.9049089466
  0
LINE
  5
23B
330
1F
100
AcDbEntity
  8
0
  6
Continuous
 62
     7
370
    25
100
AcDbLine
 10
2441.7548298538
 20
1104.1058600838
 30
0.0
 11
2454.4827519152
 21
1111.4535330902
 31
0.0
  0
ARC
  5
23C
330
1F
100
AcDbEntity
  8
0
  6
Continuous
 62
     7
370
    25
100
AcDbCircle
 10
2452.1800938617
 20
1115.5921939863
 30
0.0
 40
4.736111075993658
100
AcDbArc
 50
299.0905810773
 51
13.2284159743
  0
LWPOLYLINE
  5
23D
330
1F
100
AcDbEntity
  8
0
  6
Continuous
 62
     7
370
    25
100
AcDbPolyline
 90
        3
 70
   128
 43
0.0
 10
2440.8612606213
 20
1083.3692754269
 10
2440.9083731846
 20
1083.37604278
 10
2441.7548298538
 20
1083.6923397867
  0
LWPOLYLINE
  5
23E
330
1F
100
AcDbEntity
  8
0
  6
Continuous
 62
     7
370
    25
100
AcDbPolyline
 90
        3
 70
   128
 43
0.0
 10
2448.1187908845
 20
1068.1786615111
 10
2447.421587364
 20
1067.6038504683
 10
2447.3922040486
 20
1067.5664881273
  0
LINE
  5
23F
330
1F
100
AcDbEntity
  8
0
  6
Continuous
 62
     7
370
    25
100
AcDbLine
 10
2441.7548298538
 20
1083.6923397867
 30
0.0
 11
2454.4827519152
 21
1091.0400127931
 31
0.0
  0
LINE
  5
240
330
1F
100
AcDbEntity
  8
0
  6
Continuous
 62
     7
370
    25
100
AcDbLine
 10
2460.8467129459
 20
1075.5263345175
 30
0.0
 11
2448.1187908845
 21
1068.1786615111
 31
0.0
  0
ARC
  5
241
330
1F
100
AcDbEntity
  8
0
  6
Continuous
 62
     7
370
    25
100
AcDbCircle
 10
2452.1800936599
 20
1095.1786738383
 30
0.0
 40
4.736111304444644
100
AcDbArc
 50
299.0905823336
 51
13.2284088057
  0
ARC
  5
242
330
1F
100
AcDbEntity
  8
0
  6
Continuous
 62
     7
370
    25
100
AcDbCircle
 10
2463.2795771441
 20
1071.462104918
 30
0.0
 40
4.736748931956148
100
AcDbArc
 50
46.7843615561
 51
120.9049089466
  0
ENDSEC
  0
SECTION
  2
OBJECTS
  0
DICTIONARY
  5
C
330
0
100
AcDbDictionary
281
     1
  3
ACAD_GROUP
350
D
  3
ACAD_LAYOUT
350
1A
  3
ACAD_MLINESTYLE
350
17
  3
ACAD_PLOTSETTINGS
350
19
  3
ACAD_PLOTSTYLENAME
350
E
  3
ACAD_SCALELIST
350
47
  0
DICTIONARY
  5
D
102
{ACAD_REACTORS
330
C
102
}
330
C
100
AcDbDictionary
281
     1
  0
DICTIONARY
  5
1A
102
{ACAD_REACTORS
330
C
102
}
330
C
100
AcDbDictionary
281
     1
  3
Layout1
350
1E
  3
Layout2
350
26
  3
Model
350
22
  0
DICTIONARY
  5
17
102
{ACAD_REACTORS
330
C
102
}
330
C
100
AcDbDictionary
281
     1
  3
Standard
350
18
  0
DICTIONARY
  5
19
102
{ACAD_REACTORS
330
C
102
}
330
C
100
AcDbDictionary
281
     1
  0
ACDBDICTIONARYWDFLT
  5
E
102
{ACAD_REACTORS
330
C
102
}
330
C
100
AcDbDictionary
281
     1
  3
Normal
350
F
100
AcDbDictionaryWithDefault
340
F
  0
DICTIONARY
  5
47
102
{ACAD_REACTORS
330
C
102
}
330
C
100
AcDbDictionary
281
     1
  3
A0
350
48
  3
A1
350
49
  3
A2
350
4A
  3
A3
350
4B
  3
A4
350
4C
  3
A5
350
4D
  3
A6
350
4E
  3
A7
350
4F
  3
A8
350
50
  3
A9
350
51
  3
B0
350
52
  3
B1
350
53
  3
B2
350
54
  3
B3
350
55
  3
B4
350
56
  3
B5
350
57
  3
B6
350
58
  3
B7
350
59
  3
B8
350
5A
  3
B9
350
5B
  3
C0
350
5C
  3
C1
350
5D
  3
C2
350
5E
  3
C3
350
5F
  3
C4
350
60
  3
C5
350
61
  3
C6
350
62
  3
C7
350
63
  3
C8
350
64
  3
C9
350
65
  3
D0
350
66
  3
D1
350
67
  3
D2
350
68
  0
LAYOUT
  5
1E
102
{ACAD_REACTORS
330
1A
102
}
330
1A
100
AcDbPlotSettings
  1

  2
none_device
  4

  6

 40
0.0
 41
0.0
 42
0.0
 43
0.0
 44
0.0
 45
0.0
 46
0.0
 47
0.0
 48
0.0
 49
0.0
140
0.0
141
0.0
142
1.0
143
1.0
 70
   688
 72
     1
 73
     0
 74
     5
  7

 75
    16
147
1.0
148
0.0
149
0.0
100
AcDbLayout
  1
Layout1
 70
     1
 71
     1
 10
0.0
 20
0.0
 11
420.0
 21
297.0
 12
0.0
 22
0.0
 32
0.0
 14
1.0000000000E+20
 24
1.0000000000E+20
 34
1.0000000000E+20
 15
-1.0000000000E+20
 25
-1.0000000000E+20
 35
-1.0000000000E+20
146
0.0
 13
0.0
 23
0.0
 33
0.0
 16
1.0
 26
0.0
 36
0.0
 17
0.0
 27
1.0
 37
0.0
 76
     0
330
1B
  0
LAYOUT
  5
26
102
{ACAD_REACTORS
330
1A
102
}
330
1A
100
AcDbPlotSettings
  1

  2
none_device
  4

  6

 40
0.0
 41
0.0
 42
0.0
 43
0.0
 44
0.0
 45
0.0
 46
0.0
 47
0.0
 48
0.0
 49
0.0
140
0.0
141
0.0
142
1.0
143
1.0
 70
   688
 72
     1
 73
     0
 74
     5
  7

 75
    16
147
1.0
148
0.0
149
0.0
100
AcDbLayout
  1
Layout2
 70
     1
 71
     2
 10
0.0
 20
0.0
 11
0.0
 21
0.0
 12
0.0
 22
0.0
 32
0.0
 14
0.0
 24
0.0
 34
0.0
 15
0.0
 25
0.0
 35
0.0
146
0.0
 13
0.0
 23
0.0
 33
0.0
 16
1.0
 26
0.0
 36
0.0
 17
0.0
 27
1.0
 37
0.0
 76
     0
330
23
  0
LAYOUT
  5
22
102
{ACAD_REACTORS
330
1A
102
}
330
1A
100
AcDbPlotSettings
  1

  2
none_device
  4
Letter_(8.50_x_11.00_Inches)
  6

 40
6.35
 41
6.35
 42
6.35000508
 43
6.35000508
 44
215.9
 45
279.4
 46
0.0
 47
0.0
 48
0.0
 49
0.0
140
0.0
141
0.0
142
1.0
143
1.0
 70
  1712
 72
     1
 73
     0
 74
     0
  7

 75
     0
147
1.0
148
0.0
149
0.0
100
AcDbLayout
  1
Model
 70
     1
 71
     0
 10
0.0
 20
0.0
 11
3000.0
 21
2500.0
 12
0.0
 22
0.0
 32
0.0
 14
0.0
 24
0.0
 34
0.0
 15
3000.0
 25
2500.0
 35
0.0
146
0.0
 13
0.0
 23
0.0
 33
0.0
 16
1.0
 26
0.0
 36
0.0
 17
0.0
 27
1.0
 37
0.0
 76
     0
330
1F
331
29
  0
MLINESTYLE
  5
18
102
{ACAD_REACTORS
330
17
102
}
330
17
100
AcDbMlineStyle
  2
Standard
 70
     0
  3

 62
   256
 51
90.0
 52
90.0
 71
     2
 49
0.5
 62
   256
  6
BYLAYER
 49
-0.5
 62
   256
  6
BYLAYER
  0
ACDBPLACEHOLDER
  5
F
102
{ACAD_REACTORS
330
E
102
}
330
E
  0
SCALE
  5
48
102
{ACAD_REACTORS
330
47
102
}
330
47
100
AcDbScale
 70
     0
300
1:1
140
1.0
141
1.0
290
     1
  0
SCALE
  5
49
102
{ACAD_REACTORS
330
47
102
}
330
47
100
AcDbScale
 70
     0
300
1:2
140
1.0
141
2.0
290
     0
  0
SCALE
  5
4A
102
{ACAD_REACTORS
330
47
102
}
330
47
100
AcDbScale
 70
     0
300
1:4
140
1.0
141
4.0
290
     0
  0
SCALE
  5
4B
102
{ACAD_REACTORS
330
47
102
}
330
47
100
AcDbScale
 70
     0
300
1:5
140
1.0
141
5.0
290
     0
  0
SCALE
  5
4C
102
{ACAD_REACTORS
330
47
102
}
330
47
100
AcDbScale
 70
     0
300
1:8
140
1.0
141
8.0
290
     0
  0
SCALE
  5
4D
102
{ACAD_REACTORS
330
47
102
}
330
47
100
AcDbScale
 70
     0
300
1:10
140
1.0
141
10.0
290
     0
  0
SCALE
  5
4E
102
{ACAD_REACTORS
330
47
102
}
330
47
100
AcDbScale
 70
     0
300
1:16
140
1.0
141
16.0
290
     0
  0
SCALE
  5
4F
102
{ACAD_REACTORS
330
47
102
}
330
47
100
AcDbScale
 70
     0
300
1:20
140
1.0
141
20.0
290
     0
  0
SCALE
  5
50
102
{ACAD_REACTORS
330
47
102
}
330
47
100
AcDbScale
 70
     0
300
1:30
140
1.0
141
30.0
290
     0
  0
SCALE
  5
51
102
{ACAD_REACTORS
330
47
102
}
330
47
100
AcDbScale
 70
     0
300
1:40
140
1.0
141
40.0
290
     0
  0
SCALE
  5
52
102
{ACAD_REACTORS
330
47
102
}
330
47
100
AcDbScale
 70
     0
300
1:50
140
1.0
141
50.0
290
     0
  0
SCALE
  5
53
102
{ACAD_REACTORS
330
47
102
}
330
47
100
AcDbScale
 70
     0
300
1:100
140
1.0
141
100.0
290
     0
  0
SCALE
  5
54
102
{ACAD_REACTORS
330
47
102
}
330
47
100
AcDbScale
 70
     0
300
2:1
140
2.0
141
1.0
290
     0
  0
SCALE
  5
55
102
{ACAD_REACTORS
330
47
102
}
330
47
100
AcDbScale
 70
     0
300
4:1
140
4.0
141
1.0
290
     0
  0
SCALE
  5
56
102
{ACAD_REACTORS
330
47
102
}
330
47
100
AcDbScale
 70
     0
300
8:1
140
8.0
141
1.0
290
     0
  0
SCALE
  5
57
102
{ACAD_REACTORS
330
47
102
}
330
47
100
AcDbScale
 70
     0
300
10:1
140
10.0
141
1.0
290
     0
  0
SCALE
  5
58
102
{ACAD_REACTORS
330
47
102
}
330
47
100
AcDbScale
 70
     0
300
100:1
140
100.0
141
1.0
290
     0
  0
SCALE
  5
59
102
{ACAD_REACTORS
330
47
102
}
330
47
100
AcDbScale
 70
     0
300
1/128" = 1'-0"
140
0.0078125
141
12.0
290
     0
  0
SCALE
  5
5A
102
{ACAD_REACTORS
330
47
102
}
330
47
100
AcDbScale
 70
     0
300
1/64" = 1'-0"
140
0.015625
141
12.0
290
     0
  0
SCALE
  5
5B
102
{ACAD_REACTORS
330
47
102
}
330
47
100
AcDbScale
 70
     0
300
1/32" = 1'-0"
140
0.03125
141
12.0
290
     0
  0
SCALE
  5
5C
102
{ACAD_REACTORS
330
47
102
}
330
47
100
AcDbScale
 70
     0
300
1/16" = 1'-0"
140
0.0625
141
12.0
290
     0
  0
SCALE
  5
5D
102
{ACAD_REACTORS
330
47
102
}
330
47
100
AcDbScale
 70
     0
300
3/32" = 1'-0"
140
0.09375
141
12.0
290
     0
  0
SCALE
  5
5E
102
{ACAD_REACTORS
330
47
102
}
330
47
100
AcDbScale
 70
     0
300
1/8" = 1'-0"
140
0.125
141
12.0
290
     0
  0
SCALE
  5
5F
102
{ACAD_REACTORS
330
47
102
}
330
47
100
AcDbScale
 70
     0
300
3/16" = 1'-0"
140
0.1875
141
12.0
290
     0
  0
SCALE
  5
60
102
{ACAD_REACTORS
330
47
102
}
330
47
100
AcDbScale
 70
     0
300
1/4" = 1'-0"
140
0.25
141
12.0
290
     0
  0
SCALE
  5
61
102
{ACAD_REACTORS
330
47
102
}
330
47
100
AcDbScale
 70
     0
300
3/8" = 1'-0"
140
0.375
141
12.0
290
     0
  0
SCALE
  5
62
102
{ACAD_REACTORS
330
47
102
}
330
47
100
AcDbScale
 70
     0
300
1/2" = 1'-0"
140
0.5
141
12.0
290
     0
  0
SCALE
  5
63
102
{ACAD_REACTORS
330
47
102
}
330
47
100
AcDbScale
 70
     0
300
3/4" = 1'-0"
140
0.75
141
12.0
290
     0
  0
SCALE
  5
64
102
{ACAD_REACTORS
330
47
102
}
330
47
100
AcDbScale
 70
     0
300
1" = 1'-0"
140
1.0
141
12.0
290
     0
  0
SCALE
  5
65
102
{ACAD_REACTORS
330
47
102
}
330
47
100
AcDbScale
 70
     0
300
1-1/2" = 1'-0"
140
1.5
141
12.0
290
     0
  0
SCALE
  5
66
102
{ACAD_REACTORS
330
47
102
}
330
47
100
AcDbScale
 70
     0
300
3" = 1'-0"
140
3.0
141
12.0
290
     0
  0
SCALE
  5
67
102
{ACAD_REACTORS
330
47
102
}
330
47
100
AcDbScale
 70
     0
300
6" = 1'-0"
140
6.0
141
12.0
290
     0
  0
SCALE
  5
68
102
{ACAD_REACTORS
330
47
102
}
330
47
100
AcDbScale
 70
     0
300
1'-0" = 1'-0"
140
12.0
141
12.0
290
     0
  0
ENDSEC
  0
EOF
