ISO-10303-21;
HEADER;
FILE_DESCRIPTION (( 'STEP AP203' ),
    '1' );
FILE_NAME ('EPCKT4U.STEP',
    '2024-12-09T07:09:35',
    ( '' ),
    ( '' ),
    'SwSTEP 2.0',
    'SolidWorks 2022',
    '' );
FILE_SCHEMA (( 'CONFIG_CONTROL_DESIGN' ));
ENDSEC;

DATA;
#1 = APPROVAL ( #375, 'UNSPECIFIED' ) ;
#2 = ORIENTED_EDGE ( 'NONE', *, *, #93, .T. ) ;
#3 = VECTOR ( 'NONE', #324, 1000.000000000000000 ) ;
#4 = COORDINATED_UNIVERSAL_TIME_OFFSET ( 3, 0, .AHEAD. ) ;
#5 = CARTESIAN_POINT ( 'NONE',  ( 2.500000000000000000, -37.15000000000000568, -15.90000000000029878 ) ) ;
#6 = LINE ( 'NONE', #341, #83 ) ;
#7 = LINE ( 'NONE', #100, #301 ) ;
#8 = FACE_OUTER_BOUND ( 'NONE', #50, .T. ) ;
#9 = DIRECTION ( 'NONE',  ( 0.000000000000000000, -1.000000000000000000, 0.000000000000000000 ) ) ;
#10 = DATE_TIME_ROLE ( 'classification_date' ) ;
#11 = CARTESIAN_POINT ( 'NONE',  ( 2.500000000000000000, -39.40000000000000568, -7.100000000000280309 ) ) ;
#12 = EDGE_CURVE ( 'NONE', #176, #155, #32, .T. ) ;
#13 = CARTESIAN_POINT ( 'NONE',  ( 0.000000000000000000, -39.30000000000000426, -13.75000000000000000 ) ) ;
#14 = VECTOR ( 'NONE', #77, 999.9999999999998863 ) ;
#15 = APPROVAL_STATUS ( 'not_yet_approved' ) ;
#16 = CARTESIAN_POINT ( 'NONE',  ( 2.500000000000000000, -37.15000000000000568, -30.50000000000000000 ) ) ;
#17 = PERSON ( 'UNSPECIFIED', 'UNSPECIFIED', 'UNSPECIFIED', ('UNSPECIFIED'), ('UNSPECIFIED'), ('UNSPECIFIED') ) ;
#18 = ORIENTED_EDGE ( 'NONE', *, *, #241, .T. ) ;
#19 = EDGE_CURVE ( 'NONE', #81, #214, #367, .T. ) ;
#20 = DIRECTION ( 'NONE',  ( 0.000000000000000000, -1.000000000000000000, 0.000000000000000000 ) ) ;
#21 = ORIENTED_EDGE ( 'NONE', *, *, #181, .F. ) ;
#22 = LINE ( 'NONE', #150, #35 ) ;
#23 = VECTOR ( 'NONE', #115, 1000.000000000000114 ) ;
#24 =( GEOMETRIC_REPRESENTATION_CONTEXT ( 3 ) GLOBAL_UNCERTAINTY_ASSIGNED_CONTEXT ( ( #226 ) ) GLOBAL_UNIT_ASSIGNED_CONTEXT ( ( #147, #124, #291 ) ) REPRESENTATION_CONTEXT ( 'NONE', 'WORKASPACE' ) );
#25 = CARTESIAN_POINT ( 'NONE',  ( 2.500000000000000000, -39.40000000000000568, -7.000000000000340172 ) ) ;
#26 = ORIENTED_EDGE ( 'NONE', *, *, #143, .F. ) ;
#27 = EDGE_CURVE ( 'NONE', #195, #191, #34, .T. ) ;
#28 = CALENDAR_DATE ( 2024, 9, 12 ) ;
#29 = CARTESIAN_POINT ( 'NONE',  ( 2.500000000000000000, 0.000000000000000000, 0.000000000000000000 ) ) ;
#30 = ORIENTED_EDGE ( 'NONE', *, *, #167, .F. ) ;
#31 = EDGE_CURVE ( 'NONE', #250, #155, #59, .T. ) ;
#32 = LINE ( 'NONE', #332, #404 ) ;
#33 = PERSON_AND_ORGANIZATION ( #17, #231 ) ;
#34 = LINE ( 'NONE', #29, #374 ) ;
#35 = VECTOR ( 'NONE', #415, 1000.000000000000000 ) ;
#36 = CC_DESIGN_APPROVAL ( #1, ( #109 ) ) ;
#37 = CARTESIAN_POINT ( 'NONE',  ( 0.000000000000000000, 7.099999999999998757, -13.65000000000019931 ) ) ;
#38 = PERSON_AND_ORGANIZATION ( #17, #231 ) ;
#39 = CARTESIAN_POINT ( 'NONE',  ( 0.000000000000000000, 4.850000000000000533, -15.90000000000029878 ) ) ;
#40 = EDGE_CURVE ( 'NONE', #193, #95, #429, .T. ) ;
#41 = CARTESIAN_POINT ( 'NONE',  ( 0.000000000000000000, -32.30000000000000426, 0.000000000000000000 ) ) ;
#42 = LINE ( 'NONE', #206, #416 ) ;
#43 = VECTOR ( 'NONE', #420, 1000.000000000000000 ) ;
#44 = CC_DESIGN_APPROVAL ( #329, ( #236 ) ) ;
#45 = CC_DESIGN_PERSON_AND_ORGANIZATION_ASSIGNMENT ( #33, #246, ( #236 ) ) ;
#46 = CARTESIAN_POINT ( 'NONE',  ( 0.000000000000000000, 0.000000000000000000, 0.000000000000000000 ) ) ;
#47 = CARTESIAN_POINT ( 'NONE',  ( 2.500000000000000000, -32.30000000000000426, 0.000000000000000000 ) ) ;
#48 = CALENDAR_DATE ( 2024, 9, 12 ) ;
#49 = CARTESIAN_POINT ( 'NONE',  ( 2.500000000000000000, -37.15000000000000568, -15.90000000000029878 ) ) ;
#50 = EDGE_LOOP ( 'NONE', ( #179, #331, #187, #245 ) ) ;
#51 = VECTOR ( 'NONE', #380, 1000.000000000000000 ) ;
#52 = DIRECTION ( 'NONE',  ( -0.000000000000000000, 0.7071067811865475727, 0.7071067811865475727 ) ) ;
#53 = CARTESIAN_POINT ( 'NONE',  ( 2.500000000000000000, -37.15000000000000568, -15.90000000000029878 ) ) ;
#54 = APPLICATION_PROTOCOL_DEFINITION ( 'international standard', 'config_control_design', 1994, #101 ) ;
#55 = ORIENTED_EDGE ( 'NONE', *, *, #143, .T. ) ;
#56 = DIRECTION ( 'NONE',  ( 0.000000000000000000, 0.7071067811865420216, 0.7071067811865531239 ) ) ;
#57 = VECTOR ( 'NONE', #189, 1000.000000000000000 ) ;
#58 = EDGE_CURVE ( 'NONE', #398, #122, #158, .T. ) ;
#59 = LINE ( 'NONE', #269, #70 ) ;
#60 = VERTEX_POINT ( 'NONE', #302 ) ;
#61 = DIRECTION ( 'NONE',  ( -0.000000000000000000, -0.7071067811865640040, -0.7071067811865310304 ) ) ;
#62 = ORIENTED_EDGE ( 'NONE', *, *, #12, .T. ) ;
#63 = EDGE_CURVE ( 'NONE', #227, #195, #434, .T. ) ;
#64 = VECTOR ( 'NONE', #111, 1000.000000000000000 ) ;
#65 = LOCAL_TIME ( 10, 9, 35.00000000000000000, #90 ) ;
#66 = ORIENTED_EDGE ( 'NONE', *, *, #19, .T. ) ;
#67 = APPROVAL_DATE_TIME ( #126, #1 ) ;
#68 = LINE ( 'NONE', #361, #194 ) ;
#69 = CARTESIAN_POINT ( 'NONE',  ( 2.500000000000000000, -37.15000000000000568, -30.50000000000000000 ) ) ;
#70 = VECTOR ( 'NONE', #401, 1000.000000000000000 ) ;
#71 = EDGE_CURVE ( 'NONE', #60, #191, #7, .T. ) ;
#72 = DIRECTION ( 'NONE',  ( 1.000000000000000000, 0.000000000000000000, 0.000000000000000000 ) ) ;
#73 = PLANE ( 'NONE',  #186 ) ;
#74 = CARTESIAN_POINT ( 'NONE',  ( 2.500000000000000000, 4.850000000000000533, -30.00000000000000000 ) ) ;
#75 = ADVANCED_FACE ( 'NONE', ( #8 ), #317, .F. ) ;
#76 = APPROVAL_ROLE ( '' ) ;
#77 = DIRECTION ( 'NONE',  ( 0.000000000000000000, -0.7071067811865420216, -0.7071067811865531239 ) ) ;
#78 = LINE ( 'NONE', #290, #347 ) ;
#79 = ORIENTED_EDGE ( 'NONE', *, *, #275, .F. ) ;
#80 = PLANE ( 'NONE',  #313 ) ;
#81 = VERTEX_POINT ( 'NONE', #39 ) ;
#82 = FACE_OUTER_BOUND ( 'NONE', #391, .T. ) ;
#83 = VECTOR ( 'NONE', #309, 1000.000000000000000 ) ;
#84 = FACE_OUTER_BOUND ( 'NONE', #121, .T. ) ;
#85 = ORIENTED_EDGE ( 'NONE', *, *, #384, .F. ) ;
#86 = CARTESIAN_POINT ( 'NONE',  ( 0.000000000000000000, 0.000000000000000000, 0.000000000000000000 ) ) ;
#87 = CARTESIAN_POINT ( 'NONE',  ( 2.500000000000000000, 7.099999999999998757, -13.75000000000000000 ) ) ;
#88 = CARTESIAN_POINT ( 'NONE',  ( 2.500000000000000000, 6.999999999999999112, -7.000000000000340172 ) ) ;
#89 = VECTOR ( 'NONE', #350, 1000.000000000000000 ) ;
#90 = COORDINATED_UNIVERSAL_TIME_OFFSET ( 3, 0, .AHEAD. ) ;
#91 = ORIENTED_EDGE ( 'NONE', *, *, #58, .T. ) ;
#92 = DIRECTION ( 'NONE',  ( 0.000000000000000000, -1.000000000000000000, 0.000000000000000000 ) ) ;
#93 = EDGE_CURVE ( 'NONE', #256, #163, #276, .T. ) ;
#94 = ORIENTED_EDGE ( 'NONE', *, *, #377, .F. ) ;
#95 = VERTEX_POINT ( 'NONE', #280 ) ;
#96 = VECTOR ( 'NONE', #373, 1000.000000000000000 ) ;
#97 = ORIENTED_EDGE ( 'NONE', *, *, #384, .T. ) ;
#98 = DIRECTION ( 'NONE',  ( 0.000000000000000000, -0.000000000000000000, -1.000000000000000000 ) ) ;
#99 = EDGE_CURVE ( 'NONE', #195, #193, #42, .T. ) ;
#100 = CARTESIAN_POINT ( 'NONE',  ( 0.000000000000000000, 6.999999999999999112, -7.000000000000340172 ) ) ;
#101 = APPLICATION_CONTEXT ( 'configuration controlled 3d designs of mechanical parts and assemblies' ) ;
#102 = PERSON_AND_ORGANIZATION_ROLE ( 'creator' ) ;
#103 = FACE_OUTER_BOUND ( 'NONE', #125, .T. ) ;
#104 = MANIFOLD_SOLID_BREP ( 'EPCKT4U.stp<1>', #164 ) ;
#105 = DIRECTION ( 'NONE',  ( -1.000000000000000000, 0.000000000000000000, 0.000000000000000000 ) ) ;
#106 = APPROVAL ( #430, 'UNSPECIFIED' ) ;
#107 = CARTESIAN_POINT ( 'NONE',  ( 2.500000000000000000, -39.40000000000000568, -7.000000000000340172 ) ) ;
#108 = DIRECTION ( 'NONE',  ( 0.000000000000000000, 0.000000000000000000, 1.000000000000000000 ) ) ;
#109 = PRODUCT_DEFINITION_FORMATION_WITH_SPECIFIED_SOURCE ( 'ANY', '', #289, .NOT_KNOWN. ) ;
#110 = ORIENTED_EDGE ( 'NONE', *, *, #258, .F. ) ;
#111 = DIRECTION ( 'NONE',  ( -1.000000000000000000, 0.000000000000000000, 0.000000000000000000 ) ) ;
#112 = ORIENTED_EDGE ( 'NONE', *, *, #167, .T. ) ;
#113 = CC_DESIGN_PERSON_AND_ORGANIZATION_ASSIGNMENT ( #369, #102, ( #135 ) ) ;
#114 = CARTESIAN_POINT ( 'NONE',  ( 2.500000000000000000, -39.30000000000000426, -13.75000000000000000 ) ) ;
#115 = DIRECTION ( 'NONE',  ( 0.000000000000000000, 0.7071067811865474617, -0.7071067811865474617 ) ) ;
#116 = ORIENTED_EDGE ( 'NONE', *, *, #275, .T. ) ;
#117 = LINE ( 'NONE', #13, #221 ) ;
#118 = ORIENTED_EDGE ( 'NONE', *, *, #40, .T. ) ;
#119 = CC_DESIGN_PERSON_AND_ORGANIZATION_ASSIGNMENT ( #38, #337, ( #109 ) ) ;
#120 = PLANE ( 'NONE',  #242 ) ;
#121 = EDGE_LOOP ( 'NONE', ( #128, #248, #362, #157, #359, #370, #325, #292, #257, #94 ) ) ;
#122 = VERTEX_POINT ( 'NONE', #200 ) ;
#123 = LOCAL_TIME ( 10, 9, 35.00000000000000000, #4 ) ;
#124 =( NAMED_UNIT ( * ) PLANE_ANGLE_UNIT ( ) SI_UNIT ( $, .RADIAN. ) );
#125 = EDGE_LOOP ( 'NONE', ( #62, #160, #364, #55 ) ) ;
#126 = DATE_AND_TIME ( #339, #243 ) ;
#127 = ORIENTED_EDGE ( 'NONE', *, *, #215, .T. ) ;
#128 = ORIENTED_EDGE ( 'NONE', *, *, #267, .F. ) ;
#129 = AXIS2_PLACEMENT_3D ( 'NONE', #219, #210, #20 ) ;
#130 = DIRECTION ( 'NONE',  ( 0.000000000000000000, -0.7071067811865310304, 0.7071067811865640040 ) ) ;
#131 = ADVANCED_FACE ( 'NONE', ( #139 ), #73, .F. ) ;
#132 = DIRECTION ( 'NONE',  ( 0.000000000000000000, -0.7071067811865840991, 0.7071067811865110464 ) ) ;
#133 = SECURITY_CLASSIFICATION_LEVEL ( 'unclassified' ) ;
#134 = CARTESIAN_POINT ( 'NONE',  ( 0.000000000000000000, 4.850000000000000533, -30.50000000000000000 ) ) ;
#135 = PRODUCT_DEFINITION ( 'UNKNOWN', '', #109, #266 ) ;
#136 = VECTOR ( 'NONE', #225, 1000.000000000000000 ) ;
#137 = SHAPE_DEFINITION_REPRESENTATION ( #263, #168 ) ;
#138 = DIRECTION ( 'NONE',  ( 0.000000000000000000, -0.000000000000000000, -1.000000000000000000 ) ) ;
#139 = FACE_OUTER_BOUND ( 'NONE', #327, .T. ) ;
#140 = DIRECTION ( 'NONE',  ( 1.000000000000000000, 0.000000000000000000, 0.000000000000000000 ) ) ;
#141 = DIRECTION ( 'NONE',  ( 0.000000000000000000, 1.000000000000000000, 0.000000000000000000 ) ) ;
#142 = ORIENTED_EDGE ( 'NONE', *, *, #322, .T. ) ;
#143 = EDGE_CURVE ( 'NONE', #145, #176, #411, .T. ) ;
#144 = CARTESIAN_POINT ( 'NONE',  ( 2.500000000000000000, -39.30000000000000426, -13.75000000000000000 ) ) ;
#145 = VERTEX_POINT ( 'NONE', #414 ) ;
#146 = DIRECTION ( 'NONE',  ( 0.000000000000000000, -1.000000000000000000, 0.000000000000000000 ) ) ;
#147 =( LENGTH_UNIT ( ) NAMED_UNIT ( * ) SI_UNIT ( .MILLI., .METRE. ) );
#148 = ORIENTED_EDGE ( 'NONE', *, *, #181, .T. ) ;
#149 = CC_DESIGN_PERSON_AND_ORGANIZATION_ASSIGNMENT ( #396, #188, ( #289 ) ) ;
#150 = CARTESIAN_POINT ( 'NONE',  ( 2.500000000000000000, 7.099999999999998757, -13.75000000000000000 ) ) ;
#151 = DIRECTION ( 'NONE',  ( 0.000000000000000000, 0.000000000000000000, 1.000000000000000000 ) ) ;
#152 = ORIENTED_EDGE ( 'NONE', *, *, #63, .T. ) ;
#153 = AXIS2_PLACEMENT_3D ( 'NONE', #172, #140, #146 ) ;
#154 = CARTESIAN_POINT ( 'NONE',  ( 2.500000000000000000, 4.850000000000000533, -15.90000000000029878 ) ) ;
#155 = VERTEX_POINT ( 'NONE', #134 ) ;
#156 = APPLICATION_PROTOCOL_DEFINITION ( 'international standard', 'config_control_design', 1994, #378 ) ;
#157 = ORIENTED_EDGE ( 'NONE', *, *, #340, .F. ) ;
#158 = LINE ( 'NONE', #397, #57 ) ;
#159 = EDGE_CURVE ( 'NONE', #95, #386, #203, .T. ) ;
#160 = ORIENTED_EDGE ( 'NONE', *, *, #31, .F. ) ;
#161 = ORIENTED_EDGE ( 'NONE', *, *, #31, .T. ) ;
#162 = CALENDAR_DATE ( 2024, 9, 12 ) ;
#163 = VERTEX_POINT ( 'NONE', #234 ) ;
#164 = CLOSED_SHELL ( 'NONE', ( #207, #303, #131, #192, #432, #399, #360, #310, #315, #417, #392, #75 ) ) ;
#165 = DIRECTION ( 'NONE',  ( -1.000000000000000000, 0.000000000000000000, 0.000000000000000000 ) ) ;
#166 = CARTESIAN_POINT ( 'NONE',  ( 2.500000000000000000, 4.850000000000000533, -15.90000000000029878 ) ) ;
#167 = EDGE_CURVE ( 'NONE', #227, #60, #6, .T. ) ;
#168 = ADVANCED_BREP_SHAPE_REPRESENTATION ( 'EPCKT4U', ( #104, #348 ), #24 ) ;
#169 = CARTESIAN_POINT ( 'NONE',  ( 2.500000000000000000, 7.099999999999998757, -7.100000000000290079 ) ) ;
#170 = AXIS2_PLACEMENT_3D ( 'NONE', #381, #171, #204 ) ;
#171 = DIRECTION ( 'NONE',  ( 0.000000000000000000, 0.000000000000000000, -1.000000000000000000 ) ) ;
#172 = CARTESIAN_POINT ( 'NONE',  ( 2.500000000000000000, -16.15000000000000213, -15.00000000000000000 ) ) ;
#173 = COORDINATED_UNIVERSAL_TIME_OFFSET ( 3, 0, .AHEAD. ) ;
#174 = DIRECTION ( 'NONE',  ( 0.000000000000000000, 0.000000000000000000, 1.000000000000000000 ) ) ;
#175 = EDGE_CURVE ( 'NONE', #220, #256, #240, .T. ) ;
#176 = VERTEX_POINT ( 'NONE', #311 ) ;
#177 = LINE ( 'NONE', #11, #64 ) ;
#178 = LOCAL_TIME ( 10, 9, 35.00000000000000000, #173 ) ;
#179 = ORIENTED_EDGE ( 'NONE', *, *, #340, .T. ) ;
#180 = CARTESIAN_POINT ( 'NONE',  ( 2.500000000000000000, 7.099999999999998757, -13.65000000000019931 ) ) ;
#181 = EDGE_CURVE ( 'NONE', #338, #145, #413, .T. ) ;
#182 = LINE ( 'NONE', #282, #205 ) ;
#183 = MECHANICAL_CONTEXT ( 'NONE', #101, 'mechanical' ) ;
#184 = FACE_OUTER_BOUND ( 'NONE', #421, .T. ) ;
#185 = LINE ( 'NONE', #394, #3 ) ;
#186 = AXIS2_PLACEMENT_3D ( 'NONE', #74, #279, #72 ) ;
#187 = ORIENTED_EDGE ( 'NONE', *, *, #99, .F. ) ;
#188 = PERSON_AND_ORGANIZATION_ROLE ( 'design_owner' ) ;
#189 = DIRECTION ( 'NONE',  ( 0.000000000000000000, 0.7071067811865110464, 0.7071067811865840991 ) ) ;
#190 = FACE_OUTER_BOUND ( 'NONE', #320, .T. ) ;
#191 = VERTEX_POINT ( 'NONE', #46 ) ;
#192 = ADVANCED_FACE ( 'NONE', ( #202 ), #312, .F. ) ;
#193 = VERTEX_POINT ( 'NONE', #239 ) ;
#194 = VECTOR ( 'NONE', #213, 1000.000000000000000 ) ;
#195 = VERTEX_POINT ( 'NONE', #308 ) ;
#196 = EDGE_CURVE ( 'NONE', #214, #60, #372, .T. ) ;
#197 = PERSON_AND_ORGANIZATION ( #17, #231 ) ;
#198 = DIRECTION ( 'NONE',  ( -1.000000000000000000, 0.000000000000000000, 0.000000000000000000 ) ) ;
#199 = APPROVAL_DATE_TIME ( #433, #106 ) ;
#200 = CARTESIAN_POINT ( 'NONE',  ( 2.500000000000000000, 7.099999999999998757, -13.65000000000019931 ) ) ;
#201 = VECTOR ( 'NONE', #138, 1000.000000000000000 ) ;
#202 = FACE_OUTER_BOUND ( 'NONE', #209, .T. ) ;
#203 = LINE ( 'NONE', #107, #201 ) ;
#204 = DIRECTION ( 'NONE',  ( -1.000000000000000000, 0.000000000000000000, 0.000000000000000000 ) ) ;
#205 = VECTOR ( 'NONE', #326, 1000.000000000000000 ) ;
#206 = CARTESIAN_POINT ( 'NONE',  ( 2.500000000000000000, 0.000000000000000000, 0.000000000000000000 ) ) ;
#207 = ADVANCED_FACE ( 'NONE', ( #103 ), #238, .F. ) ;
#208 = FACE_OUTER_BOUND ( 'NONE', #431, .T. ) ;
#209 = EDGE_LOOP ( 'NONE', ( #66, #333, #253, #356 ) ) ;
#210 = DIRECTION ( 'NONE',  ( 1.000000000000000000, 0.000000000000000000, 0.000000000000000000 ) ) ;
#211 = ORIENTED_EDGE ( 'NONE', *, *, #63, .F. ) ;
#212 = VECTOR ( 'NONE', #165, 1000.000000000000000 ) ;
#213 = DIRECTION ( 'NONE',  ( -1.000000000000000000, 0.000000000000000000, 0.000000000000000000 ) ) ;
#214 = VERTEX_POINT ( 'NONE', #37 ) ;
#215 = EDGE_CURVE ( 'NONE', #386, #163, #274, .T. ) ;
#216 = LINE ( 'NONE', #144, #23 ) ;
#217 = CARTESIAN_POINT ( 'NONE',  ( 0.002500000000000000052, -0.01615000000000000116, 0.000000000000000000 ) ) ;
#218 = ORIENTED_EDGE ( 'NONE', *, *, #27, .F. ) ;
#219 = CARTESIAN_POINT ( 'NONE',  ( 0.000000000000000000, -16.15000000000000213, -15.00000000000000000 ) ) ;
#220 = VERTEX_POINT ( 'NONE', #41 ) ;
#221 = VECTOR ( 'NONE', #355, 1000.000000000000114 ) ;
#222 = ORIENTED_EDGE ( 'NONE', *, *, #99, .T. ) ;
#223 = PRODUCT_RELATED_PRODUCT_CATEGORY ( 'detail', '', ( #289 ) ) ;
#224 = PLANE ( 'NONE',  #260 ) ;
#225 = DIRECTION ( 'NONE',  ( 0.000000000000000000, 0.7071067811865110464, 0.7071067811865840991 ) ) ;
#226 = UNCERTAINTY_MEASURE_WITH_UNIT (LENGTH_MEASURE( 1.000000000000000082E-05 ), #147, 'distance_accuracy_value', 'NONE');
#227 = VERTEX_POINT ( 'NONE', #169 ) ;
#228 = DIRECTION ( 'NONE',  ( 0.000000000000000000, 1.000000000000000000, 0.000000000000000000 ) ) ;
#229 = EDGE_CURVE ( 'NONE', #398, #81, #68, .T. ) ;
#230 = VECTOR ( 'NONE', #353, 1000.000000000000000 ) ;
#231 = ORGANIZATION ( 'UNSPECIFIED', 'UNSPECIFIED', '' ) ;
#232 = APPROVAL_ROLE ( '' ) ;
#233 = EDGE_LOOP ( 'NONE', ( #402, #218, #211, #112 ) ) ;
#234 = CARTESIAN_POINT ( 'NONE',  ( 0.000000000000000000, -39.40000000000000568, -13.65000000000019931 ) ) ;
#235 = CARTESIAN_POINT ( 'NONE',  ( 2.500000000000000000, -39.40000000000000568, -13.65000000000019931 ) ) ;
#236 = SECURITY_CLASSIFICATION ( '', '', #133 ) ;
#237 = EDGE_CURVE ( 'NONE', #155, #81, #318, .T. ) ;
#238 = PLANE ( 'NONE',  #277 ) ;
#239 = CARTESIAN_POINT ( 'NONE',  ( 2.500000000000000000, -32.30000000000000426, 0.000000000000000000 ) ) ;
#240 = LINE ( 'NONE', #408, #14 ) ;
#241 = EDGE_CURVE ( 'NONE', #145, #250, #285, .T. ) ;
#242 = AXIS2_PLACEMENT_3D ( 'NONE', #87, #92, #295 ) ;
#243 = LOCAL_TIME ( 10, 9, 35.00000000000000000, #307 ) ;
#244 = CARTESIAN_POINT ( 'NONE',  ( 0.000000000000000000, -37.15000000000000568, -15.90000000000029878 ) ) ;
#245 = ORIENTED_EDGE ( 'NONE', *, *, #27, .T. ) ;
#246 = PERSON_AND_ORGANIZATION_ROLE ( 'classification_officer' ) ;
#247 = PLANE ( 'NONE',  #293 ) ;
#248 = ORIENTED_EDGE ( 'NONE', *, *, #93, .F. ) ;
#249 = DIRECTION ( 'NONE',  ( -1.000000000000000000, 0.000000000000000000, 0.000000000000000000 ) ) ;
#250 = VERTEX_POINT ( 'NONE', #426 ) ;
#251 = VECTOR ( 'NONE', #321, 1000.000000000000000 ) ;
#252 = DIRECTION ( 'NONE',  ( 1.000000000000000000, 0.000000000000000000, 0.000000000000000000 ) ) ;
#253 = ORIENTED_EDGE ( 'NONE', *, *, #58, .F. ) ;
#254 = CARTESIAN_POINT ( 'NONE',  ( 0.000000000000000000, -39.40000000000000568, -7.100000000000280309 ) ) ;
#255 = DIRECTION ( 'NONE',  ( -1.000000000000000000, 0.000000000000000000, 0.000000000000000000 ) ) ;
#256 = VERTEX_POINT ( 'NONE', #254 ) ;
#257 = ORIENTED_EDGE ( 'NONE', *, *, #12, .F. ) ;
#258 = EDGE_CURVE ( 'NONE', #95, #256, #177, .T. ) ;
#259 = APPROVAL_ROLE ( '' ) ;
#260 = AXIS2_PLACEMENT_3D ( 'NONE', #264, #61, #255 ) ;
#261 = CARTESIAN_POINT ( 'NONE',  ( 2.500000000000000000, -32.30000000000000426, 0.000000000000000000 ) ) ;
#262 = APPROVAL_PERSON_ORGANIZATION ( #304, #1, #232 ) ;
#263 = PRODUCT_DEFINITION_SHAPE ( 'NONE', 'NONE',  #135 ) ;
#264 = CARTESIAN_POINT ( 'NONE',  ( 2.500000000000000000, 6.999999999999999112, -7.000000000000340172 ) ) ;
#265 = DIRECTION ( 'NONE',  ( 0.000000000000000000, -0.7071067811865420216, -0.7071067811865531239 ) ) ;
#266 = DESIGN_CONTEXT ( 'detailed design', #378, 'design' ) ;
#267 = EDGE_CURVE ( 'NONE', #163, #388, #117, .T. ) ;
#268 = ORIENTED_EDGE ( 'NONE', *, *, #237, .T. ) ;
#269 = CARTESIAN_POINT ( 'NONE',  ( 2.500000000000000000, 4.850000000000000533, -30.50000000000000000 ) ) ;
#270 = VECTOR ( 'NONE', #343, 1000.000000000000000 ) ;
#271 = AXIS2_PLACEMENT_3D ( 'NONE', #166, #132, #105 ) ;
#272 = CC_DESIGN_APPROVAL ( #106, ( #135 ) ) ;
#273 = CARTESIAN_POINT ( 'NONE',  ( 0.000000000000000000, 7.099999999999998757, -13.75000000000000000 ) ) ;
#274 = LINE ( 'NONE', #235, #270 ) ;
#275 = EDGE_CURVE ( 'NONE', #386, #338, #216, .T. ) ;
#276 = LINE ( 'NONE', #346, #389 ) ;
#277 = AXIS2_PLACEMENT_3D ( 'NONE', #69, #344, #376 ) ;
#278 = APPROVAL_DATE_TIME ( #379, #329 ) ;
#279 = DIRECTION ( 'NONE',  ( 0.000000000000000000, -1.000000000000000000, 0.000000000000000000 ) ) ;
#280 = CARTESIAN_POINT ( 'NONE',  ( 2.500000000000000000, -39.40000000000000568, -7.100000000000280309 ) ) ;
#281 = CC_DESIGN_PERSON_AND_ORGANIZATION_ASSIGNMENT ( #197, #335, ( #109 ) ) ;
#282 = CARTESIAN_POINT ( 'NONE',  ( 0.000000000000000000, -37.15000000000000568, -15.90000000000029878 ) ) ;
#283 = AXIS2_PLACEMENT_3D ( 'NONE', #47, #319, #56 ) ;
#284 = CALENDAR_DATE ( 2024, 9, 12 ) ;
#285 = LINE ( 'NONE', #16, #251 ) ;
#286 = ORIENTED_EDGE ( 'NONE', *, *, #159, .F. ) ;
#287 = LINE ( 'NONE', #180, #230 ) ;
#288 = ORIENTED_EDGE ( 'NONE', *, *, #371, .T. ) ;
#289 = PRODUCT ( 'EPCKT4U', 'EPCKT4U', '', ( #183 ) ) ;
#290 = CARTESIAN_POINT ( 'NONE',  ( 2.500000000000000000, -32.30000000000000426, 0.000000000000000000 ) ) ;
#291 =( NAMED_UNIT ( * ) SI_UNIT ( $, .STERADIAN. ) SOLID_ANGLE_UNIT ( ) );
#292 = ORIENTED_EDGE ( 'NONE', *, *, #237, .F. ) ;
#293 = AXIS2_PLACEMENT_3D ( 'NONE', #49, #141, #174 ) ;
#294 = CARTESIAN_POINT ( 'NONE',  ( 2.500000000000000000, -39.40000000000000568, -13.65000000000019931 ) ) ;
#295 = DIRECTION ( 'NONE',  ( 1.000000000000000000, 0.000000000000000000, 0.000000000000000000 ) ) ;
#296 = ORIENTED_EDGE ( 'NONE', *, *, #215, .F. ) ;
#297 = DIRECTION ( 'NONE',  ( 0.000000000000000000, 1.000000000000000000, 0.000000000000000000 ) ) ;
#298 = ORIENTED_EDGE ( 'NONE', *, *, #175, .T. ) ;
#299 = PERSON_AND_ORGANIZATION ( #17, #231 ) ;
#300 = ORIENTED_EDGE ( 'NONE', *, *, #159, .T. ) ;
#301 = VECTOR ( 'NONE', #130, 1000.000000000000000 ) ;
#302 = CARTESIAN_POINT ( 'NONE',  ( 0.000000000000000000, 7.099999999999998757, -7.100000000000290079 ) ) ;
#303 = ADVANCED_FACE ( 'NONE', ( #383 ), #247, .F. ) ;
#304 = PERSON_AND_ORGANIZATION ( #17, #231 ) ;
#305 = ORIENTED_EDGE ( 'NONE', *, *, #258, .T. ) ;
#306 = CARTESIAN_POINT ( 'NONE',  ( 0.000000000000000000, 4.850000000000000533, -15.90000000000029878 ) ) ;
#307 = COORDINATED_UNIVERSAL_TIME_OFFSET ( 3, 0, .AHEAD. ) ;
#308 = CARTESIAN_POINT ( 'NONE',  ( 2.500000000000000000, 0.000000000000000000, 0.000000000000000000 ) ) ;
#309 = DIRECTION ( 'NONE',  ( -1.000000000000000000, 0.000000000000000000, 0.000000000000000000 ) ) ;
#310 = ADVANCED_FACE ( 'NONE', ( #385 ), #80, .F. ) ;
#311 = CARTESIAN_POINT ( 'NONE',  ( 0.000000000000000000, -37.15000000000000568, -30.50000000000000000 ) ) ;
#312 = PLANE ( 'NONE',  #271 ) ;
#313 = AXIS2_PLACEMENT_3D ( 'NONE', #114, #52, #252 ) ;
#314 = CC_DESIGN_SECURITY_CLASSIFICATION ( #236, ( #109 ) ) ;
#315 = ADVANCED_FACE ( 'NONE', ( #84 ), #393, .F. ) ;
#316 = PERSON_AND_ORGANIZATION ( #17, #231 ) ;
#317 = PLANE ( 'NONE',  #170 ) ;
#318 = LINE ( 'NONE', #418, #328 ) ;
#319 = DIRECTION ( 'NONE',  ( 0.000000000000000000, 0.7071067811865531239, -0.7071067811865420216 ) ) ;
#320 = EDGE_LOOP ( 'NONE', ( #352, #30, #85, #142 ) ) ;
#321 = DIRECTION ( 'NONE',  ( 0.000000000000000000, 1.000000000000000000, 0.000000000000000000 ) ) ;
#322 = EDGE_CURVE ( 'NONE', #122, #214, #287, .T. ) ;
#323 = PLANE ( 'NONE',  #153 ) ;
#324 = DIRECTION ( 'NONE',  ( 0.000000000000000000, 0.000000000000000000, 1.000000000000000000 ) ) ;
#325 = ORIENTED_EDGE ( 'NONE', *, *, #19, .F. ) ;
#326 = DIRECTION ( 'NONE',  ( 0.000000000000000000, -0.000000000000000000, -1.000000000000000000 ) ) ;
#327 = EDGE_LOOP ( 'NONE', ( #268, #435, #424, #161 ) ) ;
#328 = VECTOR ( 'NONE', #108, 1000.000000000000000 ) ;
#329 = APPROVAL ( #15, 'UNSPECIFIED' ) ;
#330 = PLANE ( 'NONE',  #342 ) ;
#331 = ORIENTED_EDGE ( 'NONE', *, *, #345, .F. ) ;
#332 = CARTESIAN_POINT ( 'NONE',  ( 0.000000000000000000, -37.15000000000000568, -30.50000000000000000 ) ) ;
#333 = ORIENTED_EDGE ( 'NONE', *, *, #322, .F. ) ;
#334 = ORIENTED_EDGE ( 'NONE', *, *, #371, .F. ) ;
#335 = PERSON_AND_ORGANIZATION_ROLE ( 'creator' ) ;
#336 = ORIENTED_EDGE ( 'NONE', *, *, #267, .T. ) ;
#337 = PERSON_AND_ORGANIZATION_ROLE ( 'design_supplier' ) ;
#338 = VERTEX_POINT ( 'NONE', #53 ) ;
#339 = CALENDAR_DATE ( 2024, 9, 12 ) ;
#340 = EDGE_CURVE ( 'NONE', #191, #220, #387, .T. ) ;
#341 = CARTESIAN_POINT ( 'NONE',  ( 2.500000000000000000, 7.099999999999998757, -7.100000000000290079 ) ) ;
#342 = AXIS2_PLACEMENT_3D ( 'NONE', #25, #297, #151 ) ;
#343 = DIRECTION ( 'NONE',  ( -1.000000000000000000, 0.000000000000000000, 0.000000000000000000 ) ) ;
#344 = DIRECTION ( 'NONE',  ( 0.000000000000000000, 0.000000000000000000, 1.000000000000000000 ) ) ;
#345 = EDGE_CURVE ( 'NONE', #193, #220, #78, .T. ) ;
#346 = CARTESIAN_POINT ( 'NONE',  ( 0.000000000000000000, -39.40000000000000568, -7.000000000000340172 ) ) ;
#347 = VECTOR ( 'NONE', #249, 1000.000000000000000 ) ;
#348 = AXIS2_PLACEMENT_3D ( 'NONE', #217, #358, #428 ) ;
#349 = COORDINATED_UNIVERSAL_TIME_OFFSET ( 3, 0, .AHEAD. ) ;
#350 = DIRECTION ( 'NONE',  ( 0.000000000000000000, -0.000000000000000000, -1.000000000000000000 ) ) ;
#351 = PLANE ( 'NONE',  #283 ) ;
#352 = ORIENTED_EDGE ( 'NONE', *, *, #196, .T. ) ;
#353 = DIRECTION ( 'NONE',  ( -1.000000000000000000, 0.000000000000000000, 0.000000000000000000 ) ) ;
#354 = CC_DESIGN_DATE_AND_TIME_ASSIGNMENT ( #403, #409, ( #135 ) ) ;
#355 = DIRECTION ( 'NONE',  ( 0.000000000000000000, 0.7071067811865474617, -0.7071067811865474617 ) ) ;
#356 = ORIENTED_EDGE ( 'NONE', *, *, #229, .T. ) ;
#357 = DIRECTION ( 'NONE',  ( -1.000000000000000000, 0.000000000000000000, 0.000000000000000000 ) ) ;
#358 = DIRECTION ( 'NONE',  ( -0.000000000000000000, 0.000000000000000000, 1.000000000000000000 ) ) ;
#359 = ORIENTED_EDGE ( 'NONE', *, *, #71, .F. ) ;
#360 = ADVANCED_FACE ( 'NONE', ( #82 ), #323, .T. ) ;
#361 = CARTESIAN_POINT ( 'NONE',  ( 2.500000000000000000, 4.850000000000000533, -15.90000000000029878 ) ) ;
#362 = ORIENTED_EDGE ( 'NONE', *, *, #175, .F. ) ;
#363 = ORIENTED_EDGE ( 'NONE', *, *, #377, .T. ) ;
#364 = ORIENTED_EDGE ( 'NONE', *, *, #241, .F. ) ;
#365 = ORIENTED_EDGE ( 'NONE', *, *, #40, .F. ) ;
#366 = VECTOR ( 'NONE', #265, 999.9999999999998863 ) ;
#367 = LINE ( 'NONE', #306, #136 ) ;
#368 = APPROVAL_PERSON_ORGANIZATION ( #316, #329, #76 ) ;
#369 = PERSON_AND_ORGANIZATION ( #17, #231 ) ;
#370 = ORIENTED_EDGE ( 'NONE', *, *, #196, .F. ) ;
#371 = EDGE_CURVE ( 'NONE', #338, #388, #423, .T. ) ;
#372 = LINE ( 'NONE', #273, #96 ) ;
#373 = DIRECTION ( 'NONE',  ( 0.000000000000000000, 0.000000000000000000, 1.000000000000000000 ) ) ;
#374 = VECTOR ( 'NONE', #198, 1000.000000000000000 ) ;
#375 = APPROVAL_STATUS ( 'not_yet_approved' ) ;
#376 = DIRECTION ( 'NONE',  ( 0.000000000000000000, -1.000000000000000000, 0.000000000000000000 ) ) ;
#377 = EDGE_CURVE ( 'NONE', #388, #176, #182, .T. ) ;
#378 = APPLICATION_CONTEXT ( 'configuration controlled 3d designs of mechanical parts and assemblies' ) ;
#379 = DATE_AND_TIME ( #48, #406 ) ;
#380 = DIRECTION ( 'NONE',  ( 0.000000000000000000, -0.7071067811865310304, 0.7071067811865640040 ) ) ;
#381 = CARTESIAN_POINT ( 'NONE',  ( 2.500000000000000000, 0.000000000000000000, 0.000000000000000000 ) ) ;
#382 = VECTOR ( 'NONE', #357, 1000.000000000000000 ) ;
#383 = FACE_OUTER_BOUND ( 'NONE', #427, .T. ) ;
#384 = EDGE_CURVE ( 'NONE', #122, #227, #22, .T. ) ;
#385 = FACE_OUTER_BOUND ( 'NONE', #405, .T. ) ;
#386 = VERTEX_POINT ( 'NONE', #294 ) ;
#387 = LINE ( 'NONE', #86, #43 ) ;
#388 = VERTEX_POINT ( 'NONE', #244 ) ;
#389 = VECTOR ( 'NONE', #98, 1000.000000000000000 ) ;
#390 = CARTESIAN_POINT ( 'NONE',  ( 2.500000000000000000, -37.15000000000000568, -15.90000000000029878 ) ) ;
#391 = EDGE_LOOP ( 'NONE', ( #116, #148, #18, #419, #91, #97, #152, #222, #118, #300 ) ) ;
#392 = ADVANCED_FACE ( 'NONE', ( #208 ), #351, .F. ) ;
#393 = PLANE ( 'NONE',  #129 ) ;
#394 = CARTESIAN_POINT ( 'NONE',  ( 2.500000000000000000, 4.850000000000000533, -30.00000000000000000 ) ) ;
#395 = ORIENTED_EDGE ( 'NONE', *, *, #345, .T. ) ;
#396 = PERSON_AND_ORGANIZATION ( #17, #231 ) ;
#397 = CARTESIAN_POINT ( 'NONE',  ( 2.500000000000000000, 4.850000000000000533, -15.90000000000029878 ) ) ;
#398 = VERTEX_POINT ( 'NONE', #154 ) ;
#399 = ADVANCED_FACE ( 'NONE', ( #184 ), #330, .F. ) ;
#400 = FACE_OUTER_BOUND ( 'NONE', #233, .T. ) ;
#401 = DIRECTION ( 'NONE',  ( -1.000000000000000000, 0.000000000000000000, 0.000000000000000000 ) ) ;
#402 = ORIENTED_EDGE ( 'NONE', *, *, #71, .T. ) ;
#403 = DATE_AND_TIME ( #162, #123 ) ;
#404 = VECTOR ( 'NONE', #228, 1000.000000000000000 ) ;
#405 = EDGE_LOOP ( 'NONE', ( #336, #334, #79, #127 ) ) ;
#406 = LOCAL_TIME ( 10, 9, 35.00000000000000000, #349 ) ;
#407 = CC_DESIGN_DATE_AND_TIME_ASSIGNMENT ( #412, #10, ( #236 ) ) ;
#408 = CARTESIAN_POINT ( 'NONE',  ( 0.000000000000000000, -32.30000000000000426, 0.000000000000000000 ) ) ;
#409 = DATE_TIME_ROLE ( 'creation_date' ) ;
#410 = CARTESIAN_POINT ( 'NONE',  ( 2.500000000000000000, -37.15000000000000568, -30.50000000000000000 ) ) ;
#411 = LINE ( 'NONE', #410, #212 ) ;
#412 = DATE_AND_TIME ( #284, #178 ) ;
#413 = LINE ( 'NONE', #5, #89 ) ;
#414 = CARTESIAN_POINT ( 'NONE',  ( 2.500000000000000000, -37.15000000000000568, -30.50000000000000000 ) ) ;
#415 = DIRECTION ( 'NONE',  ( 0.000000000000000000, 0.000000000000000000, 1.000000000000000000 ) ) ;
#416 = VECTOR ( 'NONE', #9, 1000.000000000000000 ) ;
#417 = ADVANCED_FACE ( 'NONE', ( #400 ), #224, .F. ) ;
#418 = CARTESIAN_POINT ( 'NONE',  ( 0.000000000000000000, 4.850000000000000533, -30.00000000000000000 ) ) ;
#419 = ORIENTED_EDGE ( 'NONE', *, *, #422, .T. ) ;
#420 = DIRECTION ( 'NONE',  ( 0.000000000000000000, -1.000000000000000000, 0.000000000000000000 ) ) ;
#421 = EDGE_LOOP ( 'NONE', ( #2, #296, #286, #305 ) ) ;
#422 = EDGE_CURVE ( 'NONE', #250, #398, #185, .T. ) ;
#423 = LINE ( 'NONE', #390, #382 ) ;
#424 = ORIENTED_EDGE ( 'NONE', *, *, #422, .F. ) ;
#425 = APPROVAL_PERSON_ORGANIZATION ( #299, #106, #259 ) ;
#426 = CARTESIAN_POINT ( 'NONE',  ( 2.500000000000000000, 4.850000000000000533, -30.50000000000000000 ) ) ;
#427 = EDGE_LOOP ( 'NONE', ( #363, #26, #21, #288 ) ) ;
#428 = DIRECTION ( 'NONE',  ( -0.000000000000000000, -1.000000000000000000, -0.000000000000000000 ) ) ;
#429 = LINE ( 'NONE', #261, #366 ) ;
#430 = APPROVAL_STATUS ( 'not_yet_approved' ) ;
#431 = EDGE_LOOP ( 'NONE', ( #298, #110, #365, #395 ) ) ;
#432 = ADVANCED_FACE ( 'NONE', ( #190 ), #120, .F. ) ;
#433 = DATE_AND_TIME ( #28, #65 ) ;
#434 = LINE ( 'NONE', #88, #51 ) ;
#435 = ORIENTED_EDGE ( 'NONE', *, *, #229, .F. ) ;
ENDSEC;
END-ISO-10303-21;
