  0
SECTION
  2
HEADER
  9
$ACADVER
  1
AC1015
  9
$ACADMAINTVER
 70
     6
  9
$DWGCODEPAGE
  3
ANSI_1251
  9
$INSBASE
 10
0.0
 20
0.0
 30
0.0
  9
$EXTMIN
 10
0.0
 20
0.0
 30
0.0
  9
$EXTMAX
 10
431.8
 20
279.4
 30
0.0
  9
$LIMMIN
 10
0.0
 20
0.0
  9
$LIMMAX
 10
431.8
 20
279.4
  9
$ORTHOMODE
 70
     0
  9
$REGENMODE
 70
     1
  9
$FILLMODE
 70
     1
  9
$QTEXTMODE
 70
     0
  9
$MIRRTEXT
 70
     1
  9
$LTSCALE
 40
1.0
  9
$ATTMODE
 70
     1
  9
$TEXTSIZE
 40
3.5
  9
$TRACEWID
 40
1.0
  9
$TEXTSTYLE
  7
STANDARD
  9
$CLAYER
  8
0
  9
$CELTYPE
  6
ByLayer
  9
$CECOLOR
 62
   256
  9
$CELTSCALE
 40
1.0
  9
$DISPSILH
 70
     0
  9
$DIMSCALE
 40
1.0
  9
$DIMASZ
 40
5.0
  9
$DIMEXO
 40
0.0
  9
$DIMDLI
 40
3.75
  9
$DIMRND
 40
0.0
  9
$DIMDLE
 40
0.0
  9
$DIMEXE
 40
1.0
  9
$DIMTP
 40
0.0
  9
$DIMTM
 40
0.0
  9
$DIMTXT
 40
3.5
  9
$DIMCEN
 40
2.5
  9
$DIMTSZ
 40
0.0
  9
$DIMTOL
 70
     0
  9
$DIMLIM
 70
     0
  9
$DIMTIH
 70
     1
  9
$DIMTOH
 70
     1
  9
$DIMSE1
 70
     0
  9
$DIMSE2
 70
     0
  9
$DIMTAD
 70
     1
  9
$DIMZIN
 70
     0
  9
$DIMBLK
  1

  9
$DIMASO
 70
     1
  9
$DIMSHO
 70
     1
  9
$DIMPOST
  1

  9
$DIMAPOST
  1

  9
$DIMALT
 70
     0
  9
$DIMALTD
 70
     3
  9
$DIMALTF
 40
0.0393700787
  9
$DIMLFAC
 40
1.0
  9
$DIMTOFL
 70
     1
  9
$DIMTVP
 40
0.0
  9
$DIMTIX
 70
     0
  9
$DIMSOXD
 70
     0
  9
$DIMSAH
 70
     0
  9
$DIMBLK1
  1

  9
$DIMBLK2
  1

  9
$DIMSTYLE
  2
ISO-25
  9
$DIMCLRD
 70
     0
  9
$DIMCLRE
 70
     0
  9
$DIMCLRT
 70
     0
  9
$DIMTFAC
 40
1.0
  9
$DIMGAP
 40
1.5
  9
$DIMJUST
 70
     0
  9
$DIMSD1
 70
     0
  9
$DIMSD2
 70
     0
  9
$DIMTOLJ
 70
     0
  9
$DIMTZIN
 70
     0
  9
$DIMALTZ
 70
     0
  9
$DIMALTTZ
 70
     0
  9
$DIMUPT
 70
     0
  9
$DIMDEC
 70
     1
  9
$DIMTDEC
 70
     3
  9
$DIMALTU
 70
     2
  9
$DIMALTTD
 70
     3
  9
$DIMTXSTY
  7
STANDARD
  9
$DIMAUNIT
 70
     0
  9
$DIMADEC
 70
     2
  9
$DIMALTRND
 40
0.0
  9
$DIMAZIN
 70
     0
  9
$DIMDSEP
 70
    44
  9
$DIMATFIT
 70
     3
  9
$DIMFRAC
 70
     0
  9
$DIMLDRBLK
  1

  9
$DIMLUNIT
 70
     2
  9
$DIMLWD
 70
    -2
  9
$DIMLWE
 70
    -2
  9
$DIMTMOVE
 70
     0
  9
$LUNITS
 70
     2
  9
$LUPREC
 70
     1
  9
$SKETCHINC
 40
1.0
  9
$FILLETRAD
 40
0.0
  9
$AUNITS
 70
     0
  9
$AUPREC
 70
     2
  9
$MENU
  1
.
  9
$ELEVATION
 40
0.0
  9
$PELEVATION
 40
0.0
  9
$THICKNESS
 40
0.0
  9
$LIMCHECK
 70
     0
  9
$CHAMFERA
 40
0.0
  9
$CHAMFERB
 40
0.0
  9
$CHAMFERC
 40
0.0
  9
$CHAMFERD
 40
0.0
  9
$SKPOLY
 70
     0
  9
$TDCREATE
 40
2460936.465181644
  9
$TDUCREATE
 40
2460936.340181644
  9
$TDUPDATE
 40
2460936.465182188
  9
$TDUUPDATE
 40
2460936.340182188
  9
$TDINDWG
 40
0.0000000116
  9
$TDUSRTIMER
 40
0.0000000116
  9
$USRTIMER
 70
     1
  9
$ANGBASE
 50
0.0
  9
$ANGDIR
 70
     0
  9
$PDMODE
 70
     0
  9
$PDSIZE
 40
-1.0
  9
$PLINEWID
 40
0.0
  9
$SPLFRAME
 70
     0
  9
$SPLINETYPE
 70
     6
  9
$SPLINESEGS
 70
     8
  9
$HANDSEED
  5
3F9
  9
$SURFTAB1
 70
     6
  9
$SURFTAB2
 70
     6
  9
$SURFTYPE
 70
     6
  9
$SURFU
 70
     6
  9
$SURFV
 70
     6
  9
$UCSBASE
  2

  9
$UCSNAME
  2

  9
$UCSORG
 10
0.0
 20
0.0
 30
0.0
  9
$UCSXDIR
 10
1.0
 20
0.0
 30
0.0
  9
$UCSYDIR
 10
0.0
 20
1.0
 30
0.0
  9
$UCSORTHOREF
  2

  9
$UCSORTHOVIEW
 70
     0
  9
$UCSORGTOP
 10
0.0
 20
0.0
 30
0.0
  9
$UCSORGBOTTOM
 10
0.0
 20
0.0
 30
0.0
  9
$UCSORGLEFT
 10
0.0
 20
0.0
 30
0.0
  9
$UCSORGRIGHT
 10
0.0
 20
0.0
 30
0.0
  9
$UCSORGFRONT
 10
0.0
 20
0.0
 30
0.0
  9
$UCSORGBACK
 10
0.0
 20
0.0
 30
0.0
  9
$PUCSBASE
  2

  9
$PUCSNAME
  2

  9
$PUCSORG
 10
0.0
 20
0.0
 30
0.0
  9
$PUCSXDIR
 10
1.0
 20
0.0
 30
0.0
  9
$PUCSYDIR
 10
0.0
 20
1.0
 30
0.0
  9
$PUCSORTHOREF
  2

  9
$PUCSORTHOVIEW
 70
     0
  9
$PUCSORGTOP
 10
0.0
 20
0.0
 30
0.0
  9
$PUCSORGBOTTOM
 10
0.0
 20
0.0
 30
0.0
  9
$PUCSORGLEFT
 10
0.0
 20
0.0
 30
0.0
  9
$PUCSORGRIGHT
 10
0.0
 20
0.0
 30
0.0
  9
$PUCSORGFRONT
 10
0.0
 20
0.0
 30
0.0
  9
$PUCSORGBACK
 10
0.0
 20
0.0
 30
0.0
  9
$USERI1
 70
     0
  9
$USERI2
 70
     0
  9
$USERI3
 70
     0
  9
$USERI4
 70
     0
  9
$USERI5
 70
     0
  9
$USERR1
 40
0.0
  9
$USERR2
 40
0.0
  9
$USERR3
 40
0.0
  9
$USERR4
 40
0.0
  9
$USERR5
 40
0.0
  9
$WORLDVIEW
 70
     1
  9
$SHADEDGE
 70
     3
  9
$SHADEDIF
 70
    70
  9
$TILEMODE
 70
     1
  9
$MAXACTVP
 70
    64
  9
$PINSBASE
 10
0.0
 20
0.0
 30
0.0
  9
$PLIMCHECK
 70
     0
  9
$PEXTMIN
 10
1.0000000000E+20
 20
1.0000000000E+20
 30
1.0000000000E+20
  9
$PEXTMAX
 10
-1.0000000000E+20
 20
-1.0000000000E+20
 30
-1.0000000000E+20
  9
$PLIMMIN
 10
0.0
 20
0.0
  9
$PLIMMAX
 10
420.0
 20
297.0
  9
$UNITMODE
 70
     0
  9
$VISRETAIN
 70
     1
  9
$PLINEGEN
 70
     0
  9
$PSLTSCALE
 70
     1
  9
$TREEDEPTH
 70
  3020
  9
$CMLSTYLE
  2
Standard
  9
$CMLJUST
 70
     0
  9
$CMLSCALE
 40
20.0
  9
$PROXYGRAPHICS
 70
     1
  9
$MEASUREMENT
 70
     1
  9
$CELWEIGHT
370
    -1
  9
$ENDCAPS
280
     0
  9
$JOINSTYLE
280
     0
  9
$LWDISPLAY
290
     1
  9
$INSUNITS
 70
     4
  9
$HYPERLINKBASE
  1

  9
$STYLESHEET
  1

  9
$XEDIT
290
     1
  9
$CEPSNTYPE
380
     0
  9
$PSTYLEMODE
290
     1
  9
$FINGERPRINTGUID
  2
{f6d5d4de-8f9f-4085-8157-4b0147f876b0}
  9
$VERSIONGUID
  2
{FAEB1C32-E019-11D5-929B-00C0DF256EC4}
  9
$EXTNAMES
290
     1
  9
$PSVPSCALE
 40
0.0
  9
$OLESTARTUP
290
     0
  0
ENDSEC
  0
SECTION
  2
CLASSES
  0
CLASS
  1
ACDBDICTIONARYWDFLT
  2
AcDbDictionaryWithDefault
  3
ObjectDBX Classes
 90
        0
280
     0
281
     0
  0
CLASS
  1
VISUALSTYLE
  2
AcDbVisualStyle
  3
ObjectDBX Classes
 90
     4095
280
     0
281
     0
  0
CLASS
  1
MATERIAL
  2
AcDbMaterial
  3
ObjectDBX Classes
 90
     1153
280
     0
281
     0
  0
CLASS
  1
SCALE
  2
AcDbScale
  3
ObjectDBX Classes
 90
     1153
280
     0
281
     0
  0
CLASS
  1
TABLESTYLE
  2
AcDbTableStyle
  3
ObjectDBX Classes
 90
     4095
280
     0
281
     0
  0
CLASS
  1
MLEADERSTYLE
  2
AcDbMLeaderStyle
  3
ACDB_MLEADERSTYLE_CLASS
 90
     4095
280
     0
281
     0
  0
CLASS
  1
SUN
  2
AcDbSun
  3
SCENEOE
 90
     1153
280
     0
281
     0
  0
CLASS
  1
ACDBPLACEHOLDER
  2
AcDbPlaceHolder
  3
ObjectDBX Classes
 90
        0
280
     0
281
     0
  0
CLASS
  1
LAYOUT
  2
AcDbLayout
  3
ObjectDBX Classes
 90
        0
280
     0
281
     0
  0
ENDSEC
  0
SECTION
  2
TABLES
  0
TABLE
  2
VPORT
  5
8
330
0
100
AcDbSymbolTable
 70
     1
  0
VPORT
  5
29
330
8
100
AcDbSymbolTableRecord
100
AcDbViewportTableRecord
  2
*Active
 70
     0
 10
0.0
 20
0.0
 11
1.0
 21
1.0
 12
215.9
 22
139.7
 13
0.0
 23
0.0
 14
10.0
 24
10.0
 15
10.0
 25
10.0
 16
0.0
 26
0.0
 36
1.0
 17
0.0
 27
0.0
 37
0.0
 40
279.4
 41
1.5454545455
 42
50.0
 43
0.0
 44
0.0
 50
0.0
 51
0.0
 71
     0
 72
  2000
 73
     1
 74
     3
 75
     0
 76
     0
 77
     0
 78
     0
281
     0
 65
     1
110
0.0
120
0.0
130
0.0
111
1.0
121
0.0
131
0.0
112
0.0
122
1.0
132
0.0
 79
     0
146
0.0
  0
ENDTAB
  0
TABLE
  2
LTYPE
  5
5
330
0
100
AcDbSymbolTable
 70
     8
  0
LTYPE
  5
14
330
5
100
AcDbSymbolTableRecord
100
AcDbLinetypeTableRecord
  2
ByBlock
 70
     0
  3

 72
    65
 73
     0
 40
0.0
  0
LTYPE
  5
15
330
5
100
AcDbSymbolTableRecord
100
AcDbLinetypeTableRecord
  2
ByLayer
 70
     0
  3

 72
    65
 73
     0
 40
0.0
  0
LTYPE
  5
16
330
5
100
AcDbSymbolTableRecord
100
AcDbLinetypeTableRecord
  2
Continuous
 70
     0
  3
Solid line
 72
    65
 73
     0
 40
0.0
  0
LTYPE
  5
5E
330
5
100
AcDbSymbolTableRecord
100
AcDbLinetypeTableRecord
  2
SLD-Сплошная
 70
     0
  3
SolidWorks Line Style
 72
    65
 73
     0
 40
0.0
  0
LTYPE
  5
5F
330
5
100
AcDbSymbolTableRecord
100
AcDbLinetypeTableRecord
  2
SLD-Штриховая
 70
     0
  3
SolidWorks Line Style
 72
    65
 73
     2
 40
1.905
 49
1.27
 74
     0
 49
-0.635
 74
     0
  0
LTYPE
  5
60
330
5
100
AcDbSymbolTableRecord
100
AcDbLinetypeTableRecord
  2
SLD-Штрихпункт.-с-двумя-точками
 70
     0
  3
SolidWorks Line Style
 72
    65
 73
     6
 40
12.7
 49
6.35
 74
     0
 49
-1.27
 74
     0
 49
1.27
 74
     0
 49
-1.27
 74
     0
 49
1.27
 74
     0
 49
-1.27
 74
     0
  0
LTYPE
  5
61
330
5
100
AcDbSymbolTableRecord
100
AcDbLinetypeTableRecord
  2
SLD-Штрихпункт.-утолщ.
 70
     0
  3
SolidWorks Line Style
 72
    65
 73
     4
 40
10.16
 49
6.35
 74
     0
 49
-1.27
 74
     0
 49
1.27
 74
     0
 49
-1.27
 74
     0
  0
LTYPE
  5
62
330
5
100
AcDbSymbolTableRecord
100
AcDbLinetypeTableRecord
  2
SLD-Осевая
 70
     0
  3
SolidWorks Line Style
 72
    65
 73
     4
 40
19.05
 49
15.24
 74
     0
 49
-1.27
 74
     0
 49
1.27
 74
     0
 49
-1.27
 74
     0
  0
LTYPE
  5
63
330
5
100
AcDbSymbolTableRecord
100
AcDbLinetypeTableRecord
  2
SLD-Сшитая
 70
     0
  3
SolidWorks Line Style
 72
    65
 73
     2
 40
0.635
 49
0.0
 74
     0
 49
-0.635
 74
     0
  0
LTYPE
  5
64
330
5
100
AcDbSymbolTableRecord
100
AcDbLinetypeTableRecord
  2
SLD-Тонкая-Толстая
 70
     0
  3
SolidWorks Line Style
 72
    65
 73
     2
 40
5.080508
 49
0.000508
 74
     0
 49
-5.08
 74
     0
  0
ENDTAB
  0
TABLE
  2
LAYER
  5
2
330
0
100
AcDbSymbolTable
 70
     3
  0
LAYER
  5
10
330
2
100
AcDbSymbolTableRecord
100
AcDbLayerTableRecord
  2
0
 70
     0
 62
     7
  6
Continuous
370
    -3
390
F
  0
LAYER
  5
65
330
2
100
AcDbSymbolTableRecord
100
AcDbLayerTableRecord
  2
ВОДЯНОЙ_ЗНАК
 70
     0
 62
    11
  6
SLD-Сплошная
370
    -3
390
F
  0
LAYER
  5
66
330
2
100
AcDbSymbolTableRecord
100
AcDbLayerTableRecord
  2
ОСНОВНОЙ
 70
     0
 62
     7
  6
SLD-Сплошная
370
    -3
390
F
  0
ENDTAB
  0
TABLE
  2
STYLE
  5
3
330
0
100
AcDbSymbolTable
 70
     1
  0
STYLE
  5
11
330
3
100
AcDbSymbolTableRecord
100
AcDbTextStyleTableRecord
  2
STANDARD
 70
     0
 40
0.0
 41
1.0
 50
0.0
 71
     0
 42
3.5
  3
GOST-TYPE-A.TTF
  4

1001
ACAD
1000
GOST TYPE A
1071
 16777250
  0
ENDTAB
  0
TABLE
  2
VIEW
  5
6
330
0
100
AcDbSymbolTable
 70
     0
  0
ENDTAB
  0
TABLE
  2
UCS
  5
7
330
0
100
AcDbSymbolTable
 70
     0
  0
ENDTAB
  0
TABLE
  2
APPID
  5
9
330
0
100
AcDbSymbolTable
 70
     1
  0
APPID
  5
12
330
9
100
AcDbSymbolTableRecord
100
AcDbRegAppTableRecord
  2
ACAD
 70
     0
  0
ENDTAB
  0
TABLE
  2
DIMSTYLE
  5
A
330
0
100
AcDbSymbolTable
 70
     1
100
AcDbDimStyleTable
  0
DIMSTYLE
105
27
330
A
100
AcDbSymbolTableRecord
100
AcDbDimStyleTableRecord
  2
ISO-25
 70
     0
 41
2.5
 42
0.625
 43
3.75
 44
1.25
 73
     0
 74
     0
 77
     1
 78
     8
140
2.5
141
2.5
143
0.0393700787
147
0.625
171
     3
172
     1
178
     0
271
     2
272
     2
274
     3
278
    44
283
     0
284
     8
340
11
  0
ENDTAB
  0
TABLE
  2
BLOCK_RECORD
  5
1
330
0
100
AcDbSymbolTable
 70
     1
  0
BLOCK_RECORD
  5
1F
330
1
100
AcDbSymbolTableRecord
100
AcDbBlockTableRecord
  2
*Model_Space
340
22
  0
BLOCK_RECORD
  5
1B
330
1
100
AcDbSymbolTableRecord
100
AcDbBlockTableRecord
  2
*Paper_Space
340
1E
  0
BLOCK_RECORD
  5
23
330
1
100
AcDbSymbolTableRecord
100
AcDbBlockTableRecord
  2
*Paper_Space0
340
26
  0
ENDTAB
  0
ENDSEC
  0
SECTION
  2
BLOCKS
  0
BLOCK
  5
20
330
1F
100
AcDbEntity
  8
0
100
AcDbBlockBegin
  2
*Model_Space
 70
     0
 10
0.0
 20
0.0
 30
0.0
  3
*Model_Space
  1

  0
ENDBLK
  5
21
330
1F
100
AcDbEntity
  8
0
100
AcDbBlockEnd
  0
BLOCK
  5
1C
330
1B
100
AcDbEntity
 67
     1
  8
0
100
AcDbBlockBegin
  2
*Paper_Space
 70
     0
 10
0.0
 20
0.0
 30
0.0
  3
*Paper_Space
  1

  0
ENDBLK
  5
1D
330
1B
100
AcDbEntity
 67
     1
  8
0
100
AcDbBlockEnd
  0
BLOCK
  5
24
330
23
100
AcDbEntity
  8
0
100
AcDbBlockBegin
  2
*Paper_Space0
 70
     0
 10
0.0
 20
0.0
 30
0.0
  3
*Paper_Space0
  1

  0
ENDBLK
  5
25
330
23
100
AcDbEntity
  8
0
100
AcDbBlockEnd
  0
ENDSEC
  0
SECTION
  2
ENTITIES
  0
LINE
  5
67
330
1F
100
AcDbEntity
  8
0
  6
SLD-Сплошная
 62
     7
370
    25
100
AcDbLine
 10
168.7127942336
 20
176.9857360752
 30
0.0
 11
161.2127942336
 21
176.9857360752
 31
0.0
  0
LINE
  5
68
330
1F
100
AcDbEntity
  8
0
  6
SLD-Сплошная
 62
     7
370
    25
100
AcDbLine
 10
226.2127942336
 20
169.8357360752
 30
0.0
 11
205.3154411353
 21
169.8357360752
 31
0.0
  0
LINE
  5
69
330
1F
100
AcDbEntity
  8
0
  6
SLD-Сплошная
 62
     7
370
    25
100
AcDbLine
 10
203.2127942336
 20
118.8357360752
 30
0.0
 11
226.2127942336
 21
118.8357360752
 31
0.0
  0
LINE
  5
6A
330
1F
100
AcDbEntity
  8
0
  6
SLD-Сплошная
 62
     7
370
    25
100
AcDbLine
 10
226.2127942336
 20
122.8857360752
 30
0.0
 11
242.7127942336
 21
122.8857360752
 31
0.0
  0
LINE
  5
6B
330
1F
100
AcDbEntity
  8
0
  6
SLD-Сплошная
 62
     7
370
    25
100
AcDbLine
 10
161.2127942336
 20
107.8357360752
 30
0.0
 11
180.4203817613
 21
107.8357360752
 31
0.0
  0
LINE
  5
6C
330
1F
100
AcDbEntity
  8
0
  6
SLD-Сплошная
 62
     7
370
    25
100
AcDbLine
 10
188.7025912046
 20
107.8357360752
 30
0.0
 11
203.2127942336
 21
107.8357360752
 31
0.0
  0
LINE
  5
6D
330
1F
100
AcDbEntity
  8
0
  6
SLD-Сплошная
 62
     7
370
    25
100
AcDbLine
 10
243.1127942336
 20
141.1357360752
 30
0.0
 11
242.7127942336
 21
141.1357360752
 31
0.0
  0
LINE
  5
6E
330
1F
100
AcDbEntity
  8
0
  6
SLD-Сплошная
 62
     7
370
    25
100
AcDbLine
 10
242.7127942336
 20
135.4357360752
 30
0.0
 11
243.1127942336
 21
135.4357360752
 31
0.0
  0
ARC
  5
6F
330
1F
100
AcDbEntity
  8
0
  6
SLD-Сплошная
 62
     7
370
    25
100
AcDbCircle
 10
301.2127942336
 20
144.2857360752
 30
0.0
 40
150.0000000000005
100
AcDbArc
 50
167.4283935242
 51
194.7340856206
  0
LINE
  5
70
330
1F
100
AcDbEntity
  8
0
  6
SLD-Сплошная
 62
     7
370
    25
100
AcDbLine
 10
186.9281244785
 20
101.2133360971
 30
0.0
 11
188.222219704
 21
106.0429652285
 31
0.0
  0
LINE
  5
71
330
1F
100
AcDbEntity
  8
0
  6
SLD-Сплошная
 62
     7
370
    25
100
AcDbLine
 10
186.9281244785
 20
101.2133360971
 30
0.0
 11
179.2007178682
 21
103.2838884579
 31
0.0
  0
LINE
  5
72
330
1F
100
AcDbEntity
  8
0
  6
SLD-Сплошная
 62
     7
370
    25
100
AcDbLine
 10
179.2007178682
 20
103.2838884579
 30
0.0
 11
180.4948130937
 21
108.1135175893
 31
0.0
  0
LINE
  5
73
330
1F
100
AcDbEntity
  8
0
  6
SLD-Сплошная
 62
     7
370
    25
100
AcDbLine
 10
188.222219704
 20
106.0429652285
 30
0.0
 11
207.6336480867
 21
178.4874022002
 31
0.0
  0
LINE
  5
74
330
1F
100
AcDbEntity
  8
0
  6
SLD-Сплошная
 62
     7
370
    25
100
AcDbLine
 10
180.4948130937
 20
108.1135175893
 30
0.0
 11
199.9062414764
 21
180.557954561
 31
0.0
  0
LINE
  5
75
330
1F
100
AcDbEntity
  8
0
  6
SLD-Сплошная
 62
     7
370
    25
100
AcDbLine
 10
208.9277433122
 20
183.3170313316
 30
0.0
 11
201.2003367019
 21
185.3875836925
 31
0.0
  0
LINE
  5
76
330
1F
100
AcDbEntity
  8
0
  6
SLD-Сплошная
 62
     7
370
    25
100
AcDbLine
 10
207.6336480867
 20
178.4874022002
 30
0.0
 11
208.9277433122
 21
183.3170313316
 31
0.0
  0
LINE
  5
77
330
1F
100
AcDbEntity
  8
0
  6
SLD-Сплошная
 62
     7
370
    25
100
AcDbLine
 10
199.9062414764
 20
180.557954561
 30
0.0
 11
201.2003367019
 21
185.3875836925
 31
0.0
  0
LINE
  5
78
330
1F
100
AcDbEntity
  8
0
  6
SLD-Сплошная
 62
     7
370
    25
100
AcDbLine
 10
166.2127942336
 20
130.8250814604
 30
0.0
 11
182.8302942286
 21
130.8250814604
 31
0.0
  0
LINE
  5
79
330
1F
100
AcDbEntity
  8
0
  6
SLD-Сплошная
 62
     7
370
    25
100
AcDbLine
 10
182.8302942286
 20
130.8250814604
 30
0.0
 11
182.8302942286
 21
157.8463906899
 31
0.0
  0
LINE
  5
7A
330
1F
100
AcDbEntity
  8
0
  6
SLD-Сплошная
 62
     7
370
    25
100
AcDbLine
 10
182.8302942286
 20
157.8463906899
 30
0.0
 11
166.2127942336
 21
157.8463906899
 31
0.0
  0
LINE
  5
7B
330
1F
100
AcDbEntity
  8
0
  6
SLD-Сплошная
 62
     7
370
    25
100
AcDbLine
 10
166.2127942336
 20
130.8250814604
 30
0.0
 11
166.2127942336
 21
157.8463906899
 31
0.0
  0
LINE
  5
7C
330
1F
100
AcDbEntity
  8
0
  6
SLD-Сплошная
 62
     7
370
    25
100
AcDbLine
 10
161.2127942336
 20
112.3480665836
 30
0.0
 11
181.629457077
 21
112.3480665836
 31
0.0
  0
LINE
  5
7D
330
1F
100
AcDbEntity
  8
0
  6
SLD-Сплошная
 62
     7
370
    25
100
AcDbLine
 10
161.2127942336
 20
144.3107360752
 30
0.0
 11
161.2127942336
 21
175.4166385717
 31
0.0
  0
LINE
  5
7E
330
1F
100
AcDbEntity
  8
0
  6
SLD-Сплошная
 62
     7
370
    25
100
AcDbLine
 10
168.7127942336
 20
173.6876099506
 30
0.0
 11
198.0653381863
 21
173.6876099506
 31
0.0
  0
LINE
  5
7F
330
1F
100
AcDbEntity
  8
0
  6
SLD-Сплошная
 62
     7
370
    25
100
AcDbLine
 10
203.2127942336
 20
144.3357360752
 30
0.0
 11
203.2127942336
 21
161.9885510074
 31
0.0
  0
LINE
  5
80
330
1F
100
AcDbEntity
  8
0
  6
SLD-Сплошная
 62
     7
370
    25
100
AcDbLine
 10
189.9116665203
 20
112.3480665836
 30
0.0
 11
203.2127942336
 21
112.3480665836
 31
0.0
  0
LINE
  5
81
330
1F
100
AcDbEntity
  8
0
  6
SLD-Сплошная
 62
     7
370
    25
100
AcDbLine
 10
203.2127942336
 20
112.3480665836
 30
0.0
 11
203.2127942336
 21
144.3357360752
 31
0.0
  0
LINE
  5
82
330
1F
100
AcDbEntity
  8
0
  6
SLD-Сплошная
 62
     7
370
    25
100
AcDbLine
 10
172.5648097551
 20
145.1457238927
 30
0.0
 11
170.2167397551
 21
145.1457238927
 31
0.0
  0
LINE
  5
83
330
1F
100
AcDbEntity
  8
0
  6
SLD-Сплошная
 62
     7
370
    25
100
AcDbLine
 10
172.5648097551
 20
136.9273972994
 30
0.0
 11
172.5648097551
 21
145.1457238927
 31
0.0
  0
LINE
  5
84
330
1F
100
AcDbEntity
  8
0
  6
SLD-Сплошная
 62
     7
370
    25
100
AcDbLine
 10
170.2167397551
 20
136.9273972994
 30
0.0
 11
172.5648097551
 21
136.9273972994
 31
0.0
  0
LINE
  5
85
330
1F
100
AcDbEntity
  8
0
  6
SLD-Сплошная
 62
     7
370
    25
100
AcDbLine
 10
170.2167397551
 20
136.9273972994
 30
0.0
 11
170.2167397551
 21
145.1457238927
 31
0.0
  0
LINE
  5
86
330
1F
100
AcDbEntity
  8
0
  6
SLD-Сплошная
 62
     7
370
    25
100
AcDbLine
 10
175.6955792311
 20
145.1457238927
 30
0.0
 11
173.3475092311
 21
145.1457238927
 31
0.0
  0
LINE
  5
87
330
1F
100
AcDbEntity
  8
0
  6
SLD-Сплошная
 62
     7
370
    25
100
AcDbLine
 10
176.4782787071
 20
139.6169460319
 30
0.0
 11
175.6955792311
 21
139.6169460319
 31
0.0
  0
LINE
  5
88
330
1F
100
AcDbEntity
  8
0
  6
SLD-Сплошная
 62
     7
370
    25
100
AcDbLine
 10
178.8263487071
 20
145.1457238927
 30
0.0
 11
176.4782787071
 21
145.1457238927
 31
0.0
  0
LINE
  5
89
330
1F
100
AcDbEntity
  8
0
  6
SLD-Сплошная
 62
     7
370
    25
100
AcDbLine
 10
173.3475092311
 20
136.9273972994
 30
0.0
 11
178.8263487071
 21
136.9273972994
 31
0.0
  0
LINE
  5
8A
330
1F
100
AcDbEntity
  8
0
  6
SLD-Сплошная
 62
     7
370
    25
100
AcDbLine
 10
173.3475092311
 20
136.9273972994
 30
0.0
 11
173.3475092311
 21
145.1457238927
 31
0.0
  0
LINE
  5
8B
330
1F
100
AcDbEntity
  8
0
  6
SLD-Сплошная
 62
     7
370
    25
100
AcDbLine
 10
175.6955792311
 20
139.6169460319
 30
0.0
 11
175.6955792311
 21
145.1457238927
 31
0.0
  0
LINE
  5
8C
330
1F
100
AcDbEntity
  8
0
  6
SLD-Сплошная
 62
     7
370
    25
100
AcDbLine
 10
176.4782787071
 20
139.6169460319
 30
0.0
 11
176.4782787071
 21
145.1457238927
 31
0.0
  0
LINE
  5
8D
330
1F
100
AcDbEntity
  8
0
  6
SLD-Сплошная
 62
     7
370
    25
100
AcDbLine
 10
178.8263487071
 20
136.9273972994
 30
0.0
 11
178.8263487071
 21
145.1457238927
 31
0.0
  0
LINE
  5
8E
330
1F
100
AcDbEntity
  8
0
  6
SLD-Сплошная
 62
     7
370
    25
100
AcDbLine
 10
174.4116248612
 20
148.6547923384
 30
0.0
 11
170.2167397551
 21
148.6547923384
 31
0.0
  0
LINE
  5
8F
330
1F
100
AcDbEntity
  8
0
  6
SLD-Сплошная
 62
     7
370
    25
100
AcDbLine
 10
174.4116248612
 20
148.6547923384
 30
0.0
 11
174.4116248612
 21
148.7459458655
 31
0.0
  0
SPLINE
  5
90
330
1F
100
AcDbEntity
  8
0
  6
SLD-Сплошная
 62
     7
370
    25
100
AcDbSpline
210
0.0
220
0.0
230
1.0
 70
     8
 71
     3
 72
     8
 73
     4
 74
     0
 42
0.00000001
 43
0.00000001
 40
0.0
 40
0.0
 40
0.0
 40
0.0
 40
1.0
 40
1.0
 40
1.0
 40
1.0
 10
170.2167397550604
 20
152.1910079423378
 30
0.0
 10
171.6152913612929
 20
151.0557067386556
 30
0.0
 10
173.0133814363476
 20
149.9052492832286
 30
0.0
 10
174.4116248612008
 20
148.7459458655052
 30
0.0
  0
LINE
  5
91
330
1F
100
AcDbEntity
  8
0
  6
SLD-Сплошная
 62
     7
370
    25
100
AcDbLine
 10
170.2167397551
 20
152.1910079423
 30
0.0
 11
170.2167397551
 21
155.1209349253
 31
0.0
  0
SPLINE
  5
92
330
1F
100
AcDbEntity
  8
0
  6
SLD-Сплошная
 62
     7
370
    25
100
AcDbSpline
210
0.0
220
0.0
230
1.0
 70
     8
 71
     3
 72
     8
 73
     4
 74
     0
 42
0.00000001
 43
0.00000001
 40
0.0
 40
0.0
 40
0.0
 40
0.0
 40
1.0
 40
1.0
 40
1.0
 40
1.0
 10
174.5215442310621
 20
151.6651856078815
 30
0.0
 10
173.086752097027
 20
152.8346487962396
 30
0.0
 10
171.6520443646773
 20
153.9887866748694
 30
0.0
 10
170.2167397550604
 20
155.1209349252979
 30
0.0
  0
SPLINE
  5
93
330
1F
100
AcDbEntity
  8
0
  6
SLD-Сплошная
 62
     7
370
    25
100
AcDbSpline
210
0.0
220
0.0
230
1.0
 70
     8
 71
     3
 72
     8
 73
     4
 74
     0
 42
0.00000001
 43
0.00000001
 40
0.0
 40
0.0
 40
0.0
 40
0.0
 40
1.0
 40
1.0
 40
1.0
 40
1.0
 10
178.8263487070602
 20
155.1209349252979
 30
0.0
 10
177.3910440072733
 20
153.9887866037436
 30
0.0
 10
175.956336442513
 20
152.8346488593402
 30
0.0
 10
174.5215442310621
 20
151.6651856078815
 30
0.0
  0
LINE
  5
94
330
1F
100
AcDbEntity
  8
0
  6
SLD-Сплошная
 62
     7
370
    25
100
AcDbLine
 10
178.8263487071
 20
152.1910079423
 30
0.0
 11
178.8263487071
 21
155.1209349253
 31
0.0
  0
SPLINE
  5
95
330
1F
100
AcDbEntity
  8
0
  6
SLD-Сплошная
 62
     7
370
    25
100
AcDbSpline
210
0.0
220
0.0
230
1.0
 70
     8
 71
     3
 72
     8
 73
     4
 74
     0
 42
0.00000001
 43
0.00000001
 40
0.0
 40
0.0
 40
0.0
 40
0.0
 40
1.0
 40
1.0
 40
1.0
 40
1.0
 10
174.6314636009189
 20
148.745945865507
 30
0.0
 10
176.0297069826005
 20
149.9052492474353
 30
0.0
 10
177.4277971537762
 20
151.0557067816382
 30
0.0
 10
178.8263487070602
 20
152.1910079423378
 30
0.0
  0
LINE
  5
96
330
1F
100
AcDbEntity
  8
0
  6
SLD-Сплошная
 62
     7
370
    25
100
AcDbLine
 10
174.6314636009
 20
148.6547923384
 30
0.0
 11
174.6314636009
 21
148.7459458655
 31
0.0
  0
LINE
  5
97
330
1F
100
AcDbEntity
  8
0
  6
SLD-Сплошная
 62
     7
370
    25
100
AcDbLine
 10
178.8263487071
 20
148.6547923384
 30
0.0
 11
174.6314636009
 21
148.6547923384
 31
0.0
  0
LINE
  5
98
330
1F
100
AcDbEntity
  8
0
  6
SLD-Сплошная
 62
     7
370
    25
100
AcDbLine
 10
170.2167397551
 20
145.9278611137
 30
0.0
 11
170.2167397551
 21
148.6547923384
 31
0.0
  0
LINE
  5
99
330
1F
100
AcDbEntity
  8
0
  6
SLD-Сплошная
 62
     7
370
    25
100
AcDbLine
 10
170.2167397551
 20
145.9278611137
 30
0.0
 11
178.8263487071
 21
145.9278611137
 31
0.0
  0
LINE
  5
9A
330
1F
100
AcDbEntity
  8
0
  6
SLD-Сплошная
 62
     7
370
    25
100
AcDbLine
 10
178.8263487071
 20
145.9278611137
 30
0.0
 11
178.8263487071
 21
148.6547923384
 31
0.0
  0
LINE
  5
9B
330
1F
100
AcDbEntity
  8
0
  6
SLD-Сплошная
 62
     7
370
    25
100
AcDbLine
 10
173.3475092311
 20
133.550537225
 30
0.0
 11
173.3475092311
 21
136.1678946649
 31
0.0
  0
LINE
  5
9C
330
1F
100
AcDbEntity
  8
0
  6
SLD-Сплошная
 62
     7
370
    25
100
AcDbLine
 10
178.8263487071
 20
136.1678946649
 30
0.0
 11
173.3475092311
 21
136.1678946649
 31
0.0
  0
LINE
  5
9D
330
1F
100
AcDbEntity
  8
0
  6
SLD-Сплошная
 62
     7
370
    25
100
AcDbLine
 10
178.8263487071
 20
133.550537225
 30
0.0
 11
178.8263487071
 21
136.1678946649
 31
0.0
  0
LINE
  5
9E
330
1F
100
AcDbEntity
  8
0
  6
SLD-Сплошная
 62
     7
370
    25
100
AcDbLine
 10
173.3475092311
 20
133.550537225
 30
0.0
 11
178.8263487071
 21
133.550537225
 31
0.0
  0
LINE
  5
9F
330
1F
100
AcDbEntity
  8
0
  6
SLD-Сплошная
 62
     7
370
    25
100
AcDbLine
 10
170.2167397551
 20
133.550537225
 30
0.0
 11
170.2167397551
 21
136.1678946649
 31
0.0
  0
LINE
  5
A0
330
1F
100
AcDbEntity
  8
0
  6
SLD-Сплошная
 62
     7
370
    25
100
AcDbLine
 10
172.5648097551
 20
136.1678946649
 30
0.0
 11
170.2167397551
 21
136.1678946649
 31
0.0
  0
LINE
  5
A1
330
1F
100
AcDbEntity
  8
0
  6
SLD-Сплошная
 62
     7
370
    25
100
AcDbLine
 10
170.2167397551
 20
133.550537225
 30
0.0
 11
172.5648097551
 21
133.550537225
 31
0.0
  0
LINE
  5
A2
330
1F
100
AcDbEntity
  8
0
  6
SLD-Сплошная
 62
     7
370
    25
100
AcDbLine
 10
172.5648097551
 20
133.550537225
 30
0.0
 11
172.5648097551
 21
136.1678946649
 31
0.0
  0
LINE
  5
A3
330
1F
100
AcDbEntity
  8
0
  6
SLD-Сплошная
 62
     7
370
    25
100
AcDbLine
 10
203.2127942336
 20
158.864537581
 30
0.0
 11
223.7127942336
 21
158.864537581
 31
0.0
  0
LINE
  5
A4
330
1F
100
AcDbEntity
  8
0
  6
SLD-Сплошная
 62
     7
370
    25
100
AcDbLine
 10
223.7127942336
 20
158.864537581
 30
0.0
 11
223.7127942336
 21
166.7070921396
 31
0.0
  0
LINE
  5
A5
330
1F
100
AcDbEntity
  8
0
  6
SLD-Сплошная
 62
     7
370
    25
100
AcDbLine
 10
204.4771235194
 20
166.7070921396
 30
0.0
 11
223.7127942336
 21
166.7070921396
 31
0.0
  0
LINE
  5
A6
330
1F
100
AcDbEntity
  8
0
  6
SLD-Сплошная
 62
     7
370
    25
100
AcDbLine
 10
204.6421254621
 20
167.3228877731
 30
0.0
 11
223.7127942336
 21
167.3228877731
 31
0.0
  0
LINE
  5
A7
330
1F
100
AcDbEntity
  8
0
  6
SLD-Сплошная
 62
     7
370
    25
100
AcDbLine
 10
223.7127942336
 20
167.3228877731
 30
0.0
 11
223.7127942336
 21
169.428666412
 31
0.0
  0
LINE
  5
A8
330
1F
100
AcDbEntity
  8
0
  6
SLD-Сплошная
 62
     7
370
    25
100
AcDbLine
 10
205.2063671478
 20
169.428666412
 30
0.0
 11
223.7127942336
 21
169.428666412
 31
0.0
  0
LINE
  5
A9
330
1F
100
AcDbEntity
  8
0
  6
SLD-Сплошная
 62
     7
370
    25
100
AcDbLine
 10
226.2127942336
 20
144.3357360752
 30
0.0
 11
226.2127942336
 21
169.8357360752
 31
0.0
  0
LINE
  5
AA
330
1F
100
AcDbEntity
  8
0
  6
SLD-Сплошная
 62
     7
370
    25
100
AcDbLine
 10
226.2127942336
 20
118.8357360752
 30
0.0
 11
226.2127942336
 21
144.3357360752
 31
0.0
  0
LINE
  5
AB
330
1F
100
AcDbEntity
  8
0
  6
SLD-Сплошная
 62
     7
370
    25
100
AcDbLine
 10
226.6127942336
 20
152.1494379982
 30
0.0
 11
226.2127942336
 21
152.1494379982
 31
0.0
  0
SPLINE
  5
AC
330
1F
100
AcDbEntity
  8
0
  6
SLD-Сплошная
 62
     7
370
    25
100
AcDbSpline
210
0.0
220
0.0
230
1.0
 70
    24
 71
     3
 72
    16
 73
    12
 74
     0
 42
0.00000001
 43
0.00000001
 40
0.0
 40
0.0
 40
0.0
 40
0.0
 40
0.2500000000000006
 40
0.2500000000000006
 40
0.5000000000000012
 40
0.5000000000000012
 40
0.7500000000000018
 40
0.7500000000000018
 40
0.8750000000000009
 40
0.8750000000000009
 40
1.0
 40
1.0
 40
1.0
 40
1.0
 10
226.6127942335612
 20
151.1818899213193
 30
0.0
 10
226.6127942335612
 20
151.2801523699094
 30
0.0
 10
226.6127942335612
 20
151.3776165352253
 30
0.0
 10
226.6127942335612
 20
151.5624380156854
 30
0.0
 10
226.6127942335612
 20
151.6508676606345
 30
0.0
 10
226.6127942335612
 20
151.8171544104594
 30
0.0
 10
226.6127942335612
 20
151.8958890782125
 30
0.0
 10
226.6127942335612
 20
152.0021324409233
 30
0.0
 10
226.6127942335612
 20
152.0362178946995
 30
0.0
 10
226.6127942335612
 20
152.0976917750933
 30
0.0
 10
226.6127942335612
 20
152.1237173450925
 30
0.0
 10
226.6127942335612
 20
152.1494379982424
 30
0.0
  0
LINE
  5
AD
330
1F
100
AcDbEntity
  8
0
  6
SLD-Сплошная
 62
     7
370
    25
100
AcDbLine
 10
226.6127942336
 20
151.1818899213
 30
0.0
 11
226.2127942336
 21
151.1818899213
 31
0.0
  0
LINE
  5
AE
330
1F
100
AcDbEntity
  8
0
  6
SLD-Сплошная
 62
     7
370
    25
100
AcDbLine
 10
226.6127942336
 20
152.1494379982
 30
0.0
 11
226.6127942336
 21
152.4383001777
 31
0.0
  0
LINE
  5
AF
330
1F
100
AcDbEntity
  8
0
  6
SLD-Сплошная
 62
     7
370
    25
100
AcDbLine
 10
226.6127942336
 20
152.4383001777
 30
0.0
 11
226.2127942336
 21
152.4383001777
 31
0.0
  0
LINE
  5
B0
330
1F
100
AcDbEntity
  8
0
  6
SLD-Сплошная
 62
     7
370
    25
100
AcDbLine
 10
226.6127942336
 20
155.6690694085
 30
0.0
 11
226.2127942336
 21
155.6690694085
 31
0.0
  0
LINE
  5
B1
330
1F
100
AcDbEntity
  8
0
  6
SLD-Сплошная
 62
     7
370
    25
100
AcDbLine
 10
226.6127942336
 20
154.676280947
 30
0.0
 11
226.2127942336
 21
154.676280947
 31
0.0
  0
SPLINE
  5
B2
330
1F
100
AcDbEntity
  8
0
  6
SLD-Сплошная
 62
     7
370
    25
100
AcDbSpline
210
0.0
220
0.0
230
1.0
 70
    24
 71
     3
 72
    18
 73
    14
 74
     0
 42
0.00000001
 43
0.00000001
 40
0.0
 40
0.0
 40
0.0
 40
0.0
 40
0.124999999999997
 40
0.124999999999997
 40
0.2499999999999939
 40
0.2499999999999939
 40
0.4999999999999933
 40
0.4999999999999933
 40
0.7499999999999927
 40
0.7499999999999927
 40
0.8749999999999963
 40
0.8749999999999963
 40
1.0
 40
1.0
 40
1.0
 40
1.0
 10
226.6127942335612
 20
154.6762809469604
 30
0.0
 10
226.6127942335612
 20
154.7385945686606
 30
0.0
 10
226.6127942335612
 20
154.8009511831129
 30
0.0
 10
226.6127942335612
 20
154.9244487986564
 30
0.0
 10
226.6127942335612
 20
154.9855500925351
 30
0.0
 10
226.6127942335612
 20
155.1636028575329
 30
0.0
 10
226.6127942335612
 20
155.2752079181273
 30
0.0
 10
226.6127942335612
 20
155.4622820868127
 30
0.0
 10
226.6127942335612
 20
155.5410335160385
 30
0.0
 10
226.6127942335613
 20
155.6193362546295
 30
0.0
 10
226.6127942335612
 20
155.6380953997631
 30
0.0
 10
226.6127942335612
 20
155.6637910369375
 30
0.0
 10
226.6127942335612
 20
155.6674645955121
 30
0.0
 10
226.6127942335612
 20
155.6690694084988
 30
0.0
  0
LINE
  5
B3
330
1F
100
AcDbEntity
  8
0
  6
SLD-Сплошная
 62
     7
370
    25
100
AcDbLine
 10
226.6127942336
 20
153.6947104341
 30
0.0
 11
226.2127942336
 21
153.6947104341
 31
0.0
  0
SPLINE
  5
B4
330
1F
100
AcDbEntity
  8
0
  6
SLD-Сплошная
 62
     7
370
    25
100
AcDbSpline
210
0.0
220
0.0
230
1.0
 70
    24
 71
     3
 72
    18
 73
    14
 74
     0
 42
0.00000001
 43
0.00000001
 40
0.0
 40
0.0
 40
0.0
 40
0.0
 40
0.1250000000000018
 40
0.1250000000000018
 40
0.2500000000000037
 40
0.2500000000000037
 40
0.5000000000000024
 40
0.5000000000000024
 40
0.7500000000000012
 40
0.7500000000000012
 40
0.8750000000000006
 40
0.8750000000000006
 40
1.0
 40
1.0
 40
1.0
 40
1.0
 10
226.6127942335612
 20
153.6947104341398
 30
0.0
 10
226.6127942335612
 20
153.6962627751522
 30
0.0
 10
226.6127942335612
 20
153.7001351911123
 30
0.0
 10
226.6127942335612
 20
153.724696407628
 30
0.0
 10
226.6127942335612
 20
153.7432199364899
 30
0.0
 10
226.6127942335612
 20
153.8201265258596
 30
0.0
 10
226.6127942335612
 20
153.8974628400003
 30
0.0
 10
226.6127942335613
 20
154.0828163898239
 30
0.0
 10
226.6127942335612
 20
154.1937037486442
 30
0.0
 10
226.6127942335613
 20
154.3701012616289
 30
0.0
 10
226.6127942335612
 20
154.430700328357
 30
0.0
 10
226.6127942335612
 20
154.5529397940331
 30
0.0
 10
226.6127942335612
 20
154.6146157286502
 30
0.0
 10
226.6127942335612
 20
154.6762809469604
 30
0.0
  0
LINE
  5
B5
330
1F
100
AcDbEntity
  8
0
  6
SLD-Сплошная
 62
     7
370
    25
100
AcDbLine
 10
226.6127942336
 20
155.8036847931
 30
0.0
 11
226.2127942336
 21
155.8036847931
 31
0.0
  0
LINE
  5
B6
330
1F
100
AcDbEntity
  8
0
  6
SLD-Сплошная
 62
     7
370
    25
100
AcDbLine
 10
226.6127942336
 20
153.5600950495
 30
0.0
 11
226.2127942336
 21
153.5600950495
 31
0.0
  0
LINE
  5
B7
330
1F
100
AcDbEntity
  8
0
  6
SLD-Сплошная
 62
     7
370
    25
100
AcDbLine
 10
226.6127942336
 20
158.3357360752
 30
0.0
 11
226.2127942336
 21
158.3357360752
 31
0.0
  0
LINE
  5
B8
330
1F
100
AcDbEntity
  8
0
  6
SLD-Сплошная
 62
     7
370
    25
100
AcDbLine
 10
226.6127942336
 20
158.3357360752
 30
0.0
 11
226.6127942336
 21
156.3357360752
 31
0.0
  0
LINE
  5
B9
330
1F
100
AcDbEntity
  8
0
  6
SLD-Сплошная
 62
     7
370
    25
100
AcDbLine
 10
226.6127942336
 20
156.3357360752
 30
0.0
 11
226.2127942336
 21
156.3357360752
 31
0.0
  0
LINE
  5
BA
330
1F
100
AcDbEntity
  8
0
  6
SLD-Сплошная
 62
     7
370
    25
100
AcDbLine
 10
226.2127942336
 20
151.128629294
 30
0.0
 11
226.6127942336
 21
151.128629294
 31
0.0
  0
LINE
  5
BB
330
1F
100
AcDbEntity
  8
0
  6
SLD-Сплошная
 62
     7
370
    25
100
AcDbLine
 10
226.6127942336
 20
151.128629294
 30
0.0
 11
226.6127942336
 21
150.3357360752
 31
0.0
  0
LINE
  5
BC
330
1F
100
AcDbEntity
  8
0
  6
SLD-Сплошная
 62
     7
370
    25
100
AcDbLine
 10
226.6127942336
 20
150.3357360752
 30
0.0
 11
226.2127942336
 21
150.3357360752
 31
0.0
  0
LINE
  5
BD
330
1F
100
AcDbEntity
  8
0
  6
SLD-Сплошная
 62
     7
370
    25
100
AcDbLine
 10
226.2127942336
 20
155.8357360752
 30
0.0
 11
226.6127942336
 21
155.8357360752
 31
0.0
  0
LINE
  5
BE
330
1F
100
AcDbEntity
  8
0
  6
SLD-Сплошная
 62
     7
370
    25
100
AcDbLine
 10
226.6127942336
 20
153.128629294
 30
0.0
 11
226.6127942336
 21
153.8357360752
 31
0.0
  0
LINE
  5
BF
330
1F
100
AcDbEntity
  8
0
  6
SLD-Сплошная
 62
     7
370
    25
100
AcDbLine
 10
226.6127942336
 20
156.3357360752
 30
0.0
 11
226.6127942336
 21
155.8357360752
 31
0.0
  0
LINE
  5
C0
330
1F
100
AcDbEntity
  8
0
  6
SLD-Сплошная
 62
     7
370
    25
100
AcDbLine
 10
226.2127942336
 20
153.128629294
 30
0.0
 11
226.6127942336
 21
153.128629294
 31
0.0
  0
LINE
  5
C1
330
1F
100
AcDbEntity
  8
0
  6
SLD-Сплошная
 62
     7
370
    25
100
AcDbLine
 10
226.6127942336
 20
153.128629294
 30
0.0
 11
226.6127942336
 21
152.4383001777
 31
0.0
  0
LINE
  5
C2
330
1F
100
AcDbEntity
  8
0
  6
SLD-Сплошная
 62
     7
370
    25
100
AcDbLine
 10
226.6127942336
 20
152.1494379982
 30
0.0
 11
226.6127942336
 21
151.8357360752
 31
0.0
  0
ARC
  5
C3
330
1F
100
AcDbEntity
  8
0
  6
SLD-Сплошная
 62
     7
370
    25
100
AcDbCircle
 10
173.7127942336
 20
184.6857360752
 30
0.0
 40
1.5
100
AcDbArc
 50
0.0
 51
180.0
  0
LINE
  5
C4
330
1F
100
AcDbEntity
  8
0
  6
SLD-Сплошная
 62
     7
370
    25
100
AcDbLine
 10
168.7127942336
 20
184.6857360752
 30
0.0
 11
168.7127942336
 21
173.6876099506
 31
0.0
  0
ARC
  5
C5
330
1F
100
AcDbEntity
  8
0
  6
SLD-Сплошная
 62
     7
370
    25
100
AcDbCircle
 10
173.7127942336
 20
184.6857360752
 30
0.0
 40
5.0
100
AcDbArc
 50
65.0
 51
180.0
  0
LINE
  5
C6
330
1F
100
AcDbEntity
  8
0
  6
SLD-Сплошная
 62
     7
370
    25
100
AcDbLine
 10
199.2942084747
 20
178.2738163029
 30
0.0
 11
175.8258855423
 21
189.2172750103
 31
0.0
  0
ARC
  5
C7
330
1F
100
AcDbEntity
  8
0
  6
SLD-Сплошная
 62
     7
370
    25
100
AcDbCircle
 10
173.7127942336
 20
184.6857360752
 30
0.0
 40
1.5
100
AcDbArc
 50
180.0
 51
0.0
  0
LINE
  5
C8
330
1F
100
AcDbEntity
  8
0
  6
SLD-Сплошная
 62
     7
370
    25
100
AcDbLine
 10
203.2127942336
 20
160.7153790927
 30
0.0
 11
223.7127942336
 21
160.7153790927
 31
0.0
  0
LINE
  5
C9
330
1F
100
AcDbEntity
  8
0
  6
SLD-Сплошная
 62
     7
370
    25
100
AcDbLine
 10
226.6127942336
 20
147.4685202387
 30
0.0
 11
226.2127942336
 21
147.4685202387
 31
0.0
  0
LINE
  5
CA
330
1F
100
AcDbEntity
  8
0
  6
SLD-Сплошная
 62
     7
370
    25
100
AcDbLine
 10
226.6127942336
 20
143.9685202387
 30
0.0
 11
226.6127942336
 21
147.4685202387
 31
0.0
  0
LINE
  5
CB
330
1F
100
AcDbEntity
  8
0
  6
SLD-Сплошная
 62
     7
370
    25
100
AcDbLine
 10
226.6127942336
 20
143.9685202387
 30
0.0
 11
226.2127942336
 21
143.9685202387
 31
0.0
  0
LINE
  5
CC
330
1F
100
AcDbEntity
  8
0
  6
SLD-Сплошная
 62
     7
370
    25
100
AcDbLine
 10
226.6127942336
 20
162.2552112506
 30
0.0
 11
226.2127942336
 21
162.2552112506
 31
0.0
  0
LINE
  5
CD
330
1F
100
AcDbEntity
  8
0
  6
SLD-Сплошная
 62
     7
370
    25
100
AcDbLine
 10
226.6127942336
 20
158.7552112506
 30
0.0
 11
226.6127942336
 21
162.2552112506
 31
0.0
  0
LINE
  5
CE
330
1F
100
AcDbEntity
  8
0
  6
SLD-Сплошная
 62
     7
370
    25
100
AcDbLine
 10
226.6127942336
 20
158.7552112506
 30
0.0
 11
226.2127942336
 21
158.7552112506
 31
0.0
  0
LINE
  5
CF
330
1F
100
AcDbEntity
  8
0
  6
SLD-Сплошная
 62
     7
370
    25
100
AcDbLine
 10
242.7127942336
 20
137.9732247321
 30
0.0
 11
226.2127942336
 21
137.9732247321
 31
0.0
  0
LINE
  5
D0
330
1F
100
AcDbEntity
  8
0
  6
SLD-Сплошная
 62
     7
370
    25
100
AcDbLine
 10
242.7127942336
 20
137.9732247321
 30
0.0
 11
242.7127942336
 21
131.0857360752
 31
0.0
  0
LINE
  5
D1
330
1F
100
AcDbEntity
  8
0
  6
SLD-Сплошная
 62
     7
370
    25
100
AcDbLine
 10
242.7127942336
 20
131.0857360752
 30
0.0
 11
242.7127942336
 21
122.8857360752
 31
0.0
  0
LINE
  5
D2
330
1F
100
AcDbEntity
  8
0
  6
SLD-Сплошная
 62
     7
370
    25
100
AcDbLine
 10
226.6127942336
 20
158.7103394558
 30
0.0
 11
226.2127942336
 21
158.7103394558
 31
0.0
  0
LINE
  5
D3
330
1F
100
AcDbEntity
  8
0
  6
SLD-Сплошная
 62
     7
370
    25
100
AcDbLine
 10
203.2127942336
 20
112.3480665836
 30
0.0
 11
203.2127942336
 21
107.8357360752
 31
0.0
  0
LINE
  5
D4
330
1F
100
AcDbEntity
  8
0
  6
SLD-Сплошная
 62
     7
370
    25
100
AcDbLine
 10
242.7127942336
 20
143.4224018291
 30
0.0
 11
226.2127942336
 21
143.4224018291
 31
0.0
  0
LINE
  5
D5
330
1F
100
AcDbEntity
  8
0
  6
SLD-Сплошная
 62
     7
370
    25
100
AcDbLine
 10
242.7127942336
 20
143.4224018291
 30
0.0
 11
242.7127942336
 21
137.9732247321
 31
0.0
  0
LINE
  5
D6
330
1F
100
AcDbEntity
  8
0
  6
SLD-Сплошная
 62
     7
370
    25
100
AcDbLine
 10
243.1127942336
 20
141.1357360752
 30
0.0
 11
243.1127942336
 21
138.2857360752
 31
0.0
  0
LINE
  5
D7
330
1F
100
AcDbEntity
  8
0
  6
SLD-Сплошная
 62
     7
370
    25
100
AcDbLine
 10
243.1127942336
 20
138.2857360752
 30
0.0
 11
243.1127942336
 21
135.4357360752
 31
0.0
  0
SPLINE
  5
D8
330
1F
100
AcDbEntity
  8
0
  6
SLD-Сплошная
 62
     7
370
    25
100
AcDbSpline
210
0.0
220
0.0
230
1.0
 70
     8
 71
     3
 72
    20
 73
    16
 74
     0
 42
0.00000001
 43
0.00000001
 40
0.0
 40
0.0
 40
0.0
 40
0.0
 40
0.0530937889505971
 40
0.102019279922178
 40
0.1464329503924049
 40
0.1860518546000783
 40
0.2206502400180342
 40
0.2500538019569573
 40
0.3806596197189243
 40
0.4997197892287472
 40
0.62737372273329
 40
0.7494957177013198
 40
0.8337657144807264
 40
0.9174347816783461
 40
1.0
 40
1.0
 40
1.0
 40
1.0
 10
154.4646557444538
 20
114.8751282952887
 30
0.0
 10
154.4752721603998
 20
114.8269778871247
 30
0.0
 10
154.4956715165498
 20
114.7344572728317
 30
0.0
 10
154.5358383326016
 20
114.6044463866308
 30
0.0
 10
154.5787032253583
 20
114.4886488515057
 30
0.0
 10
154.6225696557743
 20
114.3875786249393
 30
0.0
 10
154.6650306274381
 20
114.3012242647912
 30
0.0
 10
154.7514494893014
 20
114.1425596636487
 30
0.0
 10
154.8994213433755
 20
113.9280798727627
 30
0.0
 10
155.1446338229079
 20
113.6759342883855
 30
0.0
 10
155.4230096002293
 20
113.4734675097541
 30
0.0
 10
155.7033674187052
 20
113.3369601618337
 30
0.0
 10
155.9609075375941
 20
113.2567164084863
 30
0.0
 10
156.1901948025432
 20
113.212936046124
 30
0.0
 10
156.3446051061147
 20
113.2075224183783
 30
0.0
 10
156.4212975909752
 20
113.2048335786161
 30
0.0
  0
SPLINE
  5
D9
330
1F
100
AcDbEntity
  8
0
  6
SLD-Сплошная
 62
     7
370
    25
100
AcDbSpline
210
0.0
220
0.0
230
1.0
 70
     8
 71
     3
 72
    19
 73
    15
 74
     0
 42
0.00000001
 43
0.00000001
 40
0.0
 40
0.0
 40
0.0
 40
0.0
 40
0.0493049591857853
 40
0.0990771392713663
 40
0.1492134051971628
 40
0.1996051934524359
 40
0.2501407800065709
 40
0.3722979461329115
 40
0.5000193593954915
 40
0.6191598585066608
 40
0.7498886850199465
 40
0.8139080015860156
 40
0.8979629521414222
 40
1.0
 40
1.0
 40
1.0
 40
1.0
 10
156.4212975909753
 20
175.3666385717145
 30
0.0
 10
156.3755168643799
 20
175.3656814753804
 30
0.0
 10
156.2835215864254
 20
175.3637582131294
 30
0.0
 10
156.1456979067424
 20
175.348160113083
 30
0.0
 10
156.0083403223789
 20
175.3231206731107
 30
0.0
 10
155.8724910080639
 20
175.2877501832003
 30
0.0
 10
155.6762623446697
 20
175.2211211287554
 30
0.0
 10
155.4239879948393
 20
175.0986475492606
 30
0.0
 10
155.1453735132107
 20
174.8961939356191
 30
0.0
 10
154.8999061132232
 20
174.6439568238152
 30
0.0
 10
154.7332769466654
 20
174.4028488313972
 30
0.0
 10
154.6148984448498
 20
174.1725439024195
 30
0.0
 10
154.526884671354
 20
173.9568693847099
 30
0.0
 10
154.4866932865706
 20
173.7886054867067
 30
0.0
 10
154.4646557444538
 20
173.6963438550419
 30
0.0
  0
LINE
  5
DA
330
1F
100
AcDbEntity
  8
0
  6
SLD-Сплошная
 62
     7
370
    25
100
AcDbLine
 10
156.421297591
 20
175.3666385717
 30
0.0
 11
161.2127942336
 21
175.3666385717
 31
0.0
  0
LINE
  5
DB
330
1F
100
AcDbEntity
  8
0
  6
SLD-Сплошная
 62
     7
370
    25
100
AcDbLine
 10
161.2127942336
 20
113.2048335786
 30
0.0
 11
161.2127942336
 21
144.3107360752
 31
0.0
  0
LINE
  5
DC
330
1F
100
AcDbEntity
  8
0
  6
SLD-Сплошная
 62
     7
370
    25
100
AcDbLine
 10
161.2127942336
 20
113.2048335786
 30
0.0
 11
156.421297591
 21
113.2048335786
 31
0.0
  0
SPLINE
  5
DD
330
1F
100
AcDbEntity
  8
0
  6
SLD-Сплошная
 62
     7
370
    25
100
AcDbSpline
210
0.0
220
0.0
230
1.0
 70
     8
 71
     3
 72
     8
 73
     4
 74
     0
 42
0.00000001
 43
0.00000001
 40
0.0
 40
0.0
 40
0.0
 40
0.0
 40
1.0
 40
1.0
 40
1.0
 40
1.0
 10
154.8093192064978
 20
175.3666385717146
 30
0.0
 10
154.6912610136611
 20
174.8105372909162
 30
0.0
 10
154.5763694633558
 20
174.2537543109992
 30
0.0
 10
154.4646557444538
 20
173.6963438550419
 30
0.0
  0
SPLINE
  5
DE
330
1F
100
AcDbEntity
  8
0
  6
SLD-Сплошная
 62
     7
370
    25
100
AcDbSpline
210
0.0
220
0.0
230
1.0
 70
     8
 71
     3
 72
    14
 73
    10
 74
     0
 42
0.00000001
 43
0.00000001
 40
0.0
 40
0.0
 40
0.0
 40
0.0
 40
0.1415918286228583
 40
0.2836122978925401
 40
0.4260573736702701
 40
0.5689229343651951
 40
0.7122047710039987
 40
0.8558985873396617
 40
1.0
 40
1.0
 40
1.0
 40
1.0
 10
156.4903788999301
 20
106.1357360751652
 30
0.0
 10
156.3834388898254
 20
106.5454867744617
 30
0.0
 10
156.169235130347
 20
107.3662286104903
 30
0.0
 10
155.8607437835931
 20
108.6026006752061
 30
0.0
 10
155.5611742673307
 20
109.8450714296174
 30
0.0
 10
155.2715361363508
 20
111.0937747204682
 30
0.0
 10
154.9919605220809
 20
112.3485891962329
 30
0.0
 10
154.7216477378903
 20
113.6092250338649
 30
0.0
 10
154.5504005864478
 20
114.452762315403
 30
0.0
 10
154.4646557444537
 20
114.8751282952887
 30
0.0
  0
LINE
  5
DF
330
1F
100
AcDbEntity
  8
0
  6
SLD-Сплошная
 62
     7
370
    25
100
AcDbLine
 10
156.1453013208
 20
106.1357360752
 30
0.0
 11
156.4903788999
 21
106.1357360752
 31
0.0
  0
LINE
  5
E0
330
1F
100
AcDbEntity
  8
0
  6
SLD-Сплошная
 62
     7
370
    25
100
AcDbLine
 10
156.4903788999
 20
106.1357360752
 30
0.0
 11
161.2127942336
 21
106.1357360752
 31
0.0
  0
LINE
  5
E1
330
1F
100
AcDbEntity
  8
0
  6
SLD-Сплошная
 62
     7
370
    25
100
AcDbLine
 10
161.2127942336
 20
106.1357360752
 30
0.0
 11
161.2127942336
 21
113.2048335786
 31
0.0
  0
LINE
  5
E2
330
1F
100
AcDbEntity
  8
0
  6
SLD-Сплошная
 62
     7
370
    25
100
AcDbLine
 10
161.2127942336
 20
177.2550965115
 30
0.0
 11
163.2196428984
 21
178.4857360752
 31
0.0
  0
LINE
  5
E3
330
1F
100
AcDbEntity
  8
0
  6
SLD-Сплошная
 62
     7
370
    25
100
AcDbLine
 10
169.3487280618
 20
189.4200895345
 30
0.0
 11
154.8093192065
 21
182.2857360752
 31
0.0
  0
LINE
  5
E4
330
1F
100
AcDbEntity
  8
0
  6
SLD-Сплошная
 62
     7
370
    25
100
AcDbLine
 10
177.71603009
 20
189.4200895345
 30
0.0
 11
175.3208667823
 21
189.4200895345
 31
0.0
  0
LINE
  5
E5
330
1F
100
AcDbEntity
  8
0
  6
SLD-Сплошная
 62
     7
370
    25
100
AcDbLine
 10
172.1047216848
 20
189.4200895345
 30
0.0
 11
169.3487280618
 21
189.4200895345
 31
0.0
  0
ARC
  5
E6
330
1F
100
AcDbEntity
  8
0
  6
SLD-Сплошная
 62
     7
370
    25
100
AcDbCircle
 10
173.7127942336
 20
184.6857360752
 30
0.0
 40
6.200000000000018
100
AcDbArc
 50
28.7506791171
 51
49.783080999
  0
LINE
  5
E7
330
1F
100
AcDbEntity
  8
0
  6
SLD-Сплошная
 62
     7
370
    25
100
AcDbLine
 10
163.2196428984
 20
178.4857360752
 30
0.0
 11
168.7127942336
 21
178.4857360752
 31
0.0
  0
LINE
  5
E8
330
1F
100
AcDbEntity
  8
0
  6
SLD-Сплошная
 62
     7
370
    25
100
AcDbLine
 10
154.8093192065
 20
175.3666385717
 30
0.0
 11
154.8093192065
 21
182.2857360752
 31
0.0
  0
LINE
  5
E9
330
1F
100
AcDbEntity
  8
0
  6
SLD-Сплошная
 62
     7
370
    25
100
AcDbLine
 10
161.2127942336
 20
175.4166385717
 30
0.0
 11
161.2127942336
 21
177.2550965115
 31
0.0
  0
ARC
  5
EA
330
1F
100
AcDbEntity
  8
0
  6
SLD-Сплошная
 62
     7
370
    25
100
AcDbCircle
 10
177.3591198146
 20
198.8315161302
 30
0.0
 40
0.5000000000000246
100
AcDbArc
 50
45.4873151147
 51
163.4069748574
  0
LINE
  5
EB
330
1F
100
AcDbEntity
  8
0
  6
SLD-Сплошная
 62
     7
370
    25
100
AcDbLine
 10
179.2939216463
 20
196.9293494742
 30
0.0
 11
178.130351281
 21
191.3918635197
 31
0.0
  0
ARC
  5
EC
330
1F
100
AcDbEntity
  8
0
  6
SLD-Сплошная
 62
     7
370
    25
100
AcDbCircle
 10
182.0448659516
 20
190.5693217919
 30
0.0
 40
3.999999999999986
100
AcDbArc
 50
168.1333008467
 51
195.0
  0
ARC
  5
ED
330
1F
100
AcDbEntity
  8
0
  6
SLD-Сплошная
 62
     7
370
    25
100
AcDbCircle
 10
182.0448659516
 20
190.5693217919
 30
0.0
 40
3.999999999999975
100
AcDbArc
 50
195.0
 51
215.2273371287
  0
ARC
  5
EE
330
1F
100
AcDbEntity
  8
0
  6
SLD-Сплошная
 62
     7
370
    25
100
AcDbCircle
 10
173.7127942336
 20
184.6857360752
 30
0.0
 40
6.200000000000003
100
AcDbArc
 50
98.3526299558
 51
121.5174548656
  0
LINE
  5
EF
330
1F
100
AcDbEntity
  8
0
  6
SLD-Сплошная
 62
     7
370
    25
100
AcDbLine
 10
169.3487280618
 20
189.4200895345
 30
0.0
 11
170.4716928174
 21
189.9711179545
 31
0.0
  0
ARC
  5
F0
330
1F
100
AcDbEntity
  8
0
  6
SLD-Сплошная
 62
     7
370
    25
100
AcDbCircle
 10
157.7127942336
 20
204.6857360752
 30
0.0
 40
20.00000000000002
100
AcDbArc
 50
315.3325305923
 51
343.4069748574
  0
SPLINE
  5
F1
330
1F
100
AcDbEntity
  8
0
  6
SLD-Сплошная
 62
     7
370
    25
100
AcDbSpline
210
0.0
220
0.0
230
1.0
 70
     8
 71
     3
 72
    10
 73
     6
 74
     0
 42
0.00000001
 43
0.00000001
 40
0.0
 40
0.0
 40
0.0
 40
0.0
 40
0.5
 40
0.5
 40
1.0
 40
1.0
 40
1.0
 40
1.0
 10
179.3597926512849
 20
197.2428326773108
 30
0.0
 10
179.37623908041
 20
197.3211020050644
 30
0.0
 10
179.373753456487
 20
197.4086891932709
 30
0.0
 10
179.3244706612942
 20
197.5718156152091
 30
0.0
 10
179.2780442387802
 20
197.6461276677764
 30
0.0
 10
179.2210118953599
 20
197.7021980209228
 30
0.0
  0
LINE
  5
F2
330
1F
100
AcDbEntity
  8
0
  6
SLD-Сплошная
 62
     7
370
    25
100
AcDbLine
 10
179.2210118954
 20
197.7021980209
 30
0.0
 11
177.7096533925
 21
199.1880637579
 31
0.0
  0
SPLINE
  5
F3
330
1F
100
AcDbEntity
  8
0
  6
SLD-Сплошная
 62
     7
370
    25
100
AcDbSpline
210
0.0
220
0.0
230
1.0
 70
    24
 71
     3
 72
     8
 73
     4
 74
     0
 42
0.00000001
 43
0.00000001
 40
0.0
 40
0.0
 40
0.0
 40
0.0
 40
1.0
 40
1.0
 40
1.0
 40
1.0
 10
179.3597926512849
 20
197.2428326773108
 30
0.0
 10
179.3405279112555
 20
197.1511508757485
 30
0.0
 10
179.3168008495272
 20
197.0382326758817
 30
0.0
 10
179.2939216462617
 20
196.9293494742138
 30
0.0
  0
LINE
  5
F4
330
1F
100
AcDbEntity
  8
0
  6
SLD-Сплошная
 62
     7
370
    25
100
AcDbLine
 10
97.8998115312
 20
189.6857360752
 30
0.0
 11
93.5998115312
 21
189.6857360752
 31
0.0
  0
LINE
  5
F5
330
1F
100
AcDbEntity
  8
0
  6
SLD-Сплошная
 62
     7
370
    25
100
AcDbLine
 10
73.5998115312
 20
189.6857360752
 30
0.0
 11
69.2998115312
 21
189.6857360752
 31
0.0
  0
ARC
  5
F6
330
1F
100
AcDbEntity
  8
0
  6
SLD-Сплошная
 62
     7
370
    25
100
AcDbCircle
 10
88.0998115312
 20
198.8315161302
 30
0.0
 40
0.5
100
AcDbArc
 50
0.0
 51
90.0
  0
ARC
  5
F7
330
1F
100
AcDbEntity
  8
0
  6
SLD-Сплошная
 62
     7
370
    25
100
AcDbCircle
 10
79.1087000816
 20
198.8315161302
 30
0.0
 40
0.5000000000000284
100
AcDbArc
 50
90.0
 51
180.0
  0
LINE
  5
F8
330
1F
100
AcDbEntity
  8
0
  6
SLD-Сплошная
 62
     7
370
    25
100
AcDbLine
 10
88.0998115312
 20
199.3315161302
 30
0.0
 11
79.1087000816
 21
199.3315161302
 31
0.0
  0
ARC
  5
F9
330
1F
100
AcDbEntity
  8
0
  6
SLD-Сплошная
 62
     7
370
    25
100
AcDbCircle
 10
82.5972989046
 20
137.5857360752
 30
0.0
 40
0.1750000000000114
100
AcDbArc
 50
90.0
 51
270.0
  0
ARC
  5
FA
330
1F
100
AcDbEntity
  8
0
  6
SLD-Сплошная
 62
     7
370
    25
100
AcDbCircle
 10
84.6023241578
 20
137.5857360752
 30
0.0
 40
0.1750000000000114
100
AcDbArc
 50
270.0
 51
0.0
  0
ARC
  5
FB
330
1F
100
AcDbEntity
  8
0
  6
SLD-Сплошная
 62
     7
370
    25
100
AcDbCircle
 10
84.6023241578
 20
137.5857360752
 30
0.0
 40
0.1750000000000114
100
AcDbArc
 50
0.0
 51
90.0
  0
LINE
  5
FC
330
1F
100
AcDbEntity
  8
0
  6
SLD-Сплошная
 62
     7
370
    25
100
AcDbLine
 10
82.5972989046
 20
137.7607360752
 30
0.0
 11
84.6023241578
 21
137.7607360752
 31
0.0
  0
LINE
  5
FD
330
1F
100
AcDbEntity
  8
0
  6
SLD-Сплошная
 62
     7
370
    25
100
AcDbLine
 10
82.5972989046
 20
137.4107360752
 30
0.0
 11
84.6023241578
 21
137.4107360752
 31
0.0
  0
ARC
  5
FE
330
1F
100
AcDbEntity
  8
0
  6
SLD-Сплошная
 62
     7
370
    25
100
AcDbCircle
 10
83.5998115312
 20
138.2857360752
 30
0.0
 40
2.500000000000028
100
AcDbArc
 50
180.0
 51
0.0
  0
ARC
  5
FF
330
1F
100
AcDbEntity
  8
0
  6
SLD-Сплошная
 62
     7
370
    25
100
AcDbCircle
 10
83.5998115312
 20
138.2857360752
 30
0.0
 40
2.500000000000028
100
AcDbArc
 50
0.0
 51
180.0
  0
ARC
  5
100
330
1F
100
AcDbEntity
  8
0
  6
SLD-Сплошная
 62
     7
370
    25
100
AcDbCircle
 10
83.5998115312
 20
138.2857360752
 30
0.0
 40
2.850000000000009
100
AcDbArc
 50
180.0
 51
0.0
  0
ARC
  5
101
330
1F
100
AcDbEntity
  8
0
  6
SLD-Сплошная
 62
     7
370
    25
100
AcDbCircle
 10
83.5998115312
 20
138.2857360752
 30
0.0
 40
2.850000000000009
100
AcDbArc
 50
0.0
 51
180.0
  0
LINE
  5
102
330
1F
100
AcDbEntity
  8
0
  6
SLD-Сплошная
 62
     7
370
    25
100
AcDbLine
 10
83.7748115312
 20
139.0107360752
 30
0.0
 11
83.7748115312
 21
138.4607360752
 31
0.0
  0
ARC
  5
103
330
1F
100
AcDbEntity
  8
0
  6
SLD-Сплошная
 62
     7
370
    25
100
AcDbCircle
 10
81.8972989046
 20
138.2857360752
 30
0.0
 40
0.1750000000000114
100
AcDbArc
 50
90.0
 51
270.0
  0
LINE
  5
104
330
1F
100
AcDbEntity
  8
0
  6
SLD-Сплошная
 62
     7
370
    25
100
AcDbLine
 10
81.8972989046
 20
138.4607360752
 30
0.0
 11
83.4248115312
 21
138.4607360752
 31
0.0
  0
LINE
  5
105
330
1F
100
AcDbEntity
  8
0
  6
SLD-Сплошная
 62
     7
370
    25
100
AcDbLine
 10
83.4248115312
 20
139.0107360752
 30
0.0
 11
83.4248115312
 21
138.4607360752
 31
0.0
  0
ARC
  5
106
330
1F
100
AcDbEntity
  8
0
  6
SLD-Сплошная
 62
     7
370
    25
100
AcDbCircle
 10
83.5998115312
 20
139.0107360752
 30
0.0
 40
0.1750000000000114
100
AcDbArc
 50
0.0
 51
180.0
  0
ARC
  5
107
330
1F
100
AcDbEntity
  8
0
  6
SLD-Сплошная
 62
     7
370
    25
100
AcDbCircle
 10
85.3023241578
 20
138.2857360752
 30
0.0
 40
0.1750000000000114
100
AcDbArc
 50
0.0
 51
90.0
  0
LINE
  5
108
330
1F
100
AcDbEntity
  8
0
  6
SLD-Сплошная
 62
     7
370
    25
100
AcDbLine
 10
83.7748115312
 20
138.4607360752
 30
0.0
 11
85.3023241578
 21
138.4607360752
 31
0.0
  0
LINE
  5
109
330
1F
100
AcDbEntity
  8
0
  6
SLD-Сплошная
 62
     7
370
    25
100
AcDbLine
 10
81.8972989046
 20
138.1107360752
 30
0.0
 11
85.3023241578
 21
138.1107360752
 31
0.0
  0
ARC
  5
10A
330
1F
100
AcDbEntity
  8
0
  6
SLD-Сплошная
 62
     7
370
    25
100
AcDbCircle
 10
85.3023241578
 20
138.2857360752
 30
0.0
 40
0.1750000000000114
100
AcDbArc
 50
270.0
 51
0.0
  0
ARC
  5
10B
330
1F
100
AcDbEntity
  8
0
  6
SLD-Сплошная
 62
     7
370
    25
100
AcDbCircle
 10
83.8773241578
 20
136.8607360752
 30
0.0
 40
0.1750000000000114
100
AcDbArc
 50
270.0
 51
0.0
  0
LINE
  5
10C
330
1F
100
AcDbEntity
  8
0
  6
SLD-Сплошная
 62
     7
370
    25
100
AcDbLine
 10
83.3222989046
 20
137.0357360752
 30
0.0
 11
83.8773241578
 21
137.0357360752
 31
0.0
  0
ARC
  5
10D
330
1F
100
AcDbEntity
  8
0
  6
SLD-Сплошная
 62
     7
370
    25
100
AcDbCircle
 10
83.8773241578
 20
136.8607360752
 30
0.0
 40
0.1749999999999972
100
AcDbArc
 50
0.0
 51
90.0
  0
ARC
  5
10E
330
1F
100
AcDbEntity
  8
0
  6
SLD-Сплошная
 62
     7
370
    25
100
AcDbCircle
 10
83.3222989046
 20
136.8607360752
 30
0.0
 40
0.1750000000000114
100
AcDbArc
 50
90.0
 51
270.0
  0
LINE
  5
10F
330
1F
100
AcDbEntity
  8
0
  6
SLD-Сплошная
 62
     7
370
    25
100
AcDbLine
 10
83.3222989046
 20
136.6857360752
 30
0.0
 11
83.8773241578
 21
136.6857360752
 31
0.0
  0
ARC
  5
110
330
1F
100
AcDbEntity
  8
0
  6
SLD-Сплошная
 62
     7
370
    25
100
AcDbCircle
 10
83.5998115312
 20
130.2857360752
 30
0.0
 40
2.650000000000006
100
AcDbArc
 50
0.0
 51
180.0
  0
ARC
  5
111
330
1F
100
AcDbEntity
  8
0
  6
SLD-Сплошная
 62
     7
370
    25
100
AcDbCircle
 10
83.5998115312
 20
130.2857360752
 30
0.0
 40
2.650000000000006
100
AcDbArc
 50
180.0
 51
0.0
  0
LINE
  5
112
330
1F
100
AcDbEntity
  8
0
  6
SLD-Сплошная
 62
     7
370
    25
100
AcDbLine
 10
79.1498115312
 20
143.4224018291
 30
0.0
 11
79.1498115312
 21
137.9732247321
 31
0.0
  0
LINE
  5
113
330
1F
100
AcDbEntity
  8
0
  6
SLD-Сплошная
 62
     7
370
    25
100
AcDbLine
 10
88.0498115312
 20
143.4224018291
 30
0.0
 11
79.1498115312
 21
143.4224018291
 31
0.0
  0
LINE
  5
114
330
1F
100
AcDbEntity
  8
0
  6
SLD-Сплошная
 62
     7
370
    25
100
AcDbLine
 10
88.0498115312
 20
137.9732247321
 30
0.0
 11
88.0498115312
 21
143.4224018291
 31
0.0
  0
ARC
  5
115
330
1F
100
AcDbEntity
  8
0
  6
SLD-Сплошная
 62
     7
370
    25
100
AcDbCircle
 10
83.5998115312
 20
131.0857360752
 30
0.0
 40
8.200000000000003
100
AcDbArc
 50
180.0
 51
0.0
  0
ARC
  5
116
330
1F
100
AcDbEntity
  8
0
  6
SLD-Сплошная
 62
     7
370
    25
100
AcDbCircle
 10
83.5998115312
 20
131.0857360752
 30
0.0
 40
8.200000000000022
100
AcDbArc
 50
122.8664647391
 51
180.0
  0
ARC
  5
117
330
1F
100
AcDbEntity
  8
0
  6
SLD-Сплошная
 62
     7
370
    25
100
AcDbCircle
 10
83.5998115312
 20
131.0857360752
 30
0.0
 40
8.199999999999996
100
AcDbArc
 50
0.0
 51
57.1335352609
  0
ARC
  5
118
330
1F
100
AcDbEntity
  8
0
  6
SLD-Сплошная
 62
     7
370
    25
100
AcDbCircle
 10
83.5998115312
 20
130.2857360752
 30
0.0
 40
1.750000000000014
100
AcDbArc
 50
0.0
 51
180.0
  0
ARC
  5
119
330
1F
100
AcDbEntity
  8
0
  6
SLD-Сплошная
 62
     7
370
    25
100
AcDbCircle
 10
83.5998115312
 20
130.2857360752
 30
0.0
 40
1.750000000000014
100
AcDbArc
 50
180.0
 51
0.0
  0
LINE
  5
11A
330
1F
100
AcDbEntity
  8
0
  6
SLD-Сплошная
 62
     7
370
    25
100
AcDbLine
 10
97.4301525719
 20
143.9685202387
 30
0.0
 11
97.0711782129
 21
143.9685202387
 31
0.0
  0
LINE
  5
11B
330
1F
100
AcDbEntity
  8
0
  6
SLD-Сплошная
 62
     7
370
    25
100
AcDbLine
 10
97.0711782129
 20
143.9685202387
 30
0.0
 11
97.0711782129
 21
146.6958840207
 31
0.0
  0
SPLINE
  5
11C
330
1F
100
AcDbEntity
  8
0
  6
SLD-Сплошная
 62
     7
370
    25
100
AcDbSpline
210
0.0
220
0.0
230
1.0
 70
     8
 71
     3
 72
    14
 73
    10
 74
     0
 42
0.00000001
 43
0.00000001
 40
0.0
 40
0.0
 40
0.0
 40
0.0
 40
0.25
 40
0.25
 40
0.5
 40
0.5
 40
0.75
 40
0.75
 40
1.0
 40
1.0
 40
1.0
 40
1.0
 10
97.0711782129395
 20
146.6958840207173
 30
0.0
 10
97.02480280933607
 20
146.6419060255008
 30
0.0
 10
96.97615381854173
 20
146.5899321673525
 30
0.0
 10
96.8711059928866
 20
146.4939181536205
 30
0.0
 10
96.8159277569246
 20
146.4489615880683
 30
0.0
 10
96.70232256446417
 20
146.3632810646607
 30
0.0
 10
96.64422913812062
 20
146.3221869763008
 30
0.0
 10
96.52429183087912
 20
146.2456255770771
 30
0.0
 10
96.46195857836808
 20
146.211254373763
 30
0.0
 10
96.39810128986258
 20
146.1798583796916
 30
0.0
  0
LINE
  5
11D
330
1F
100
AcDbEntity
  8
0
  6
SLD-Сплошная
 62
     7
370
    25
100
AcDbLine
 10
96.3981012899
 20
146.1798583797
 30
0.0
 11
96.3981012899
 21
146.5935202387
 31
0.0
  0
SPLINE
  5
11E
330
1F
100
AcDbEntity
  8
0
  6
SLD-Сплошная
 62
     7
370
    25
100
AcDbSpline
210
0.0
220
0.0
230
1.0
 70
     8
 71
     3
 72
    16
 73
    12
 74
     0
 42
0.00000001
 43
0.00000001
 40
0.0
 40
0.0
 40
0.0
 40
0.0
 40
0.2499999999999994
 40
0.2499999999999994
 40
0.4999999999999988
 40
0.4999999999999988
 40
0.7499999999999982
 40
0.7499999999999982
 40
0.8749999999999991
 40
0.8749999999999991
 40
1.0
 40
1.0
 40
1.0
 40
1.0
 10
96.39810128986258
 20
146.593520238666
 30
0.0
 10
96.48338694763446
 20
146.6466442619736
 30
0.0
 10
96.56763231213574
 20
146.7015830370977
 30
0.0
 10
96.72443131887162
 20
146.8272956132514
 30
0.0
 10
96.79813067460566
 20
146.8959186385576
 30
0.0
 10
96.93461536086438
 20
147.0433813688246
 30
0.0
 10
96.99836877719586
 20
147.1213497331219
 30
0.0
 10
97.08383853654884
 20
147.2454613731576
 30
0.0
 10
97.11053448192101
 20
147.2881587128044
 30
0.0
 10
97.15818523960257
 20
147.3765796151152
 30
0.0
 10
97.17854198223957
 20
147.4225262197081
 30
0.0
 10
97.19878237960619
 20
147.468520238666
 30
0.0
  0
LINE
  5
11F
330
1F
100
AcDbEntity
  8
0
  6
SLD-Сплошная
 62
     7
370
    25
100
AcDbLine
 10
97.1987823796
 20
147.4685202387
 30
0.0
 11
97.4301525719
 21
147.4685202387
 31
0.0
  0
LINE
  5
120
330
1F
100
AcDbEntity
  8
0
  6
SLD-Сплошная
 62
     7
370
    25
100
AcDbLine
 10
97.4301525719
 20
147.4685202387
 30
0.0
 11
97.4301525719
 21
143.9685202387
 31
0.0
  0
LINE
  5
121
330
1F
100
AcDbEntity
  8
0
  6
SLD-Сплошная
 62
     7
370
    25
100
AcDbLine
 10
94.1545115463
 20
143.9685202387
 30
0.0
 11
94.1545115463
 21
147.4685202387
 31
0.0
  0
LINE
  5
122
330
1F
100
AcDbEntity
  8
0
  6
SLD-Сплошная
 62
     7
370
    25
100
AcDbLine
 10
94.1545115463
 20
147.4685202387
 30
0.0
 11
94.5134859052
 21
147.4685202387
 31
0.0
  0
LINE
  5
123
330
1F
100
AcDbEntity
  8
0
  6
SLD-Сплошная
 62
     7
370
    25
100
AcDbLine
 10
94.5134859052
 20
147.4685202387
 30
0.0
 11
94.5134859052
 21
144.3723663925
 31
0.0
  0
LINE
  5
124
330
1F
100
AcDbEntity
  8
0
  6
SLD-Сплошная
 62
     7
370
    25
100
AcDbLine
 10
95.8596397514
 20
144.3723663925
 30
0.0
 11
95.8596397514
 21
143.9685202387
 31
0.0
  0
LINE
  5
125
330
1F
100
AcDbEntity
  8
0
  6
SLD-Сплошная
 62
     7
370
    25
100
AcDbLine
 10
95.8596397514
 20
143.9685202387
 30
0.0
 11
94.1545115463
 21
143.9685202387
 31
0.0
  0
LINE
  5
126
330
1F
100
AcDbEntity
  8
0
  6
SLD-Сплошная
 62
     7
370
    25
100
AcDbLine
 10
94.5134859052
 20
144.3723663925
 30
0.0
 11
95.8596397514
 21
144.3723663925
 31
0.0
  0
LINE
  5
127
330
1F
100
AcDbEntity
  8
0
  6
SLD-Сплошная
 62
     7
370
    25
100
AcDbLine
 10
93.8110430471
 20
158.7552112506
 30
0.0
 11
91.5225815087
 21
158.7552112506
 31
0.0
  0
SPLINE
  5
128
330
1F
100
AcDbEntity
  8
0
  6
SLD-Сплошная
 62
     7
370
    25
100
AcDbSpline
210
0.0
220
0.0
230
1.0
 70
     8
 71
     3
 72
    10
 73
     6
 74
     0
 42
0.00000001
 43
0.00000001
 40
0.0
 40
0.0
 40
0.0
 40
0.0
 40
0.5
 40
0.5
 40
1.0
 40
1.0
 40
1.0
 40
1.0
 10
91.52258150867848
 20
158.7552112506333
 30
0.0
 10
91.52245836962393
 20
158.8079926842896
 30
0.0
 10
91.5246172673268
 20
158.8607214358985
 30
0.0
 10
91.53996950388773
 20
158.965197638052
 30
0.0
 10
91.55342965386856
 20
159.0162397113173
 30
0.0
 10
91.56955666893488
 20
159.0665093275564
 30
0.0
  0
SPLINE
  5
129
330
1F
100
AcDbEntity
  8
0
  6
SLD-Сплошная
 62
     7
370
    25
100
AcDbSpline
210
0.0
220
0.0
230
1.0
 70
     8
 71
     3
 72
    16
 73
    12
 74
     0
 42
0.00000001
 43
0.00000001
 40
0.0
 40
0.0
 40
0.0
 40
0.0
 40
0.1249999999999982
 40
0.1249999999999982
 40
0.2499999999999963
 40
0.2499999999999963
 40
0.4999999999999976
 40
0.4999999999999976
 40
0.7499999999999988
 40
0.7499999999999988
 40
1.0
 40
1.0
 40
1.0
 40
1.0
 10
91.56955666893488
 20
159.0665093275564
 30
0.0
 10
91.5880112907725
 20
159.1175784508603
 30
0.0
 10
91.60668916721856
 20
159.1685658092232
 30
0.0
 10
91.65272252469609
 20
159.2668218691964
 30
0.0
 10
91.67895717434632
 20
159.3144895798007
 30
0.0
 10
91.7625628940014
 20
159.4541648026297
 30
0.0
 10
91.82756554760213
 20
159.5415256497749
 30
0.0
 10
91.96907221650962
 20
159.7060917512989
 30
0.0
 10
92.04733373467191
 20
159.7815760701519
 30
0.0
 10
92.207630904192
 20
159.9278779545346
 30
0.0
 10
92.29152404809744
 20
159.9967877945968
 30
0.0
 10
92.37654785483232
 20
160.0642056416589
 30
0.0
  0
SPLINE
  5
12A
330
1F
100
AcDbEntity
  8
0
  6
SLD-Сплошная
 62
     7
370
    25
100
AcDbSpline
210
0.0
220
0.0
230
1.0
 70
     8
 71
     3
 72
    14
 73
    10
 74
     0
 42
0.00000001
 43
0.00000001
 40
0.0
 40
0.0
 40
0.0
 40
0.0
 40
0.4999999999999983
 40
0.4999999999999983
 40
0.7499999999999964
 40
0.7499999999999964
 40
0.8749999999999982
 40
0.8749999999999982
 40
1.0
 40
1.0
 40
1.0
 40
1.0
 10
92.37654785483232
 20
160.0642056416589
 30
0.0
 10
92.57866656169891
 20
160.2343257033129
 30
0.0
 10
92.77838778361341
 20
160.4080243846036
 30
0.0
 10
93.05207416201372
 20
160.6945874142217
 30
0.0
 10
93.13989846372729
 20
160.7948572876827
 30
0.0
 10
93.23923287026412
 20
160.9662777753286
 30
0.0
 10
93.26673679655124
 20
161.0268513060036
 30
0.0
 10
93.30634957497801
 20
161.152895309802
 30
0.0
 10
93.31577246122771
 20
161.2187753948489
 30
0.0
 10
93.3174533035503
 20
161.2848586865307
 30
0.0
  0
SPLINE
  5
12B
330
1F
100
AcDbEntity
  8
0
  6
SLD-Сплошная
 62
     7
370
    25
100
AcDbSpline
210
0.0
220
0.0
230
1.0
 70
     8
 71
     3
 72
    16
 73
    12
 74
     0
 42
0.00000001
 43
0.00000001
 40
0.0
 40
0.0
 40
0.0
 40
0.0
 40
0.2500000000000004
 40
0.2500000000000004
 40
0.5000000000000009
 40
0.5000000000000009
 40
0.7500000000000013
 40
0.7500000000000013
 40
0.8750000000000007
 40
0.8750000000000007
 40
1.0
 40
1.0
 40
1.0
 40
1.0
 10
92.67943247021695
 20
161.8513650967871
 30
0.0
 10
92.59339288740622
 20
161.8493840889628
 30
0.0
 10
92.50668971716979
 20
161.8417291755316
 30
0.0
 10
92.34295271632192
 20
161.7886659217986
 30
0.0
 10
92.266173858577
 20
161.7459358142399
 30
0.0
 10
92.13857516957371
 20
161.6303155651221
 30
0.0
 10
92.08964340464182
 20
161.5568574681103
 30
0.0
 10
92.044254434134
 20
161.4359707735939
 30
0.0
 10
92.03295701767101
 20
161.3942454092906
 30
0.0
 10
92.0195849897676
 20
161.3092290447381
 30
0.0
 10
92.01766581205538
 20
161.266156626932
 30
0.0
 10
92.01617125226822
 20
161.223159968582
 30
0.0
  0
LINE
  5
12C
330
1F
100
AcDbEntity
  8
0
  6
SLD-Сплошная
 62
     7
370
    25
100
AcDbLine
 10
92.0161712523
 20
161.2231599686
 30
0.0
 11
91.5674533036
 21
161.2680317635
 31
0.0
  0
SPLINE
  5
12D
330
1F
100
AcDbEntity
  8
0
  6
SLD-Сплошная
 62
     7
370
    25
100
AcDbSpline
210
0.0
220
0.0
230
1.0
 70
     8
 71
     3
 72
    18
 73
    14
 74
     0
 42
0.00000001
 43
0.00000001
 40
0.0
 40
0.0
 40
0.0
 40
0.0
 40
0.1250000000000019
 40
0.1250000000000019
 40
0.2500000000000039
 40
0.2500000000000039
 40
0.500000000000002
 40
0.500000000000002
 40
0.7500000000000001
 40
0.7500000000000001
 40
0.875
 40
0.875
 40
1.0
 40
1.0
 40
1.0
 40
1.0
 10
91.5674533035503
 20
161.2680317634538
 30
0.0
 10
91.5755720749331
 20
161.3371974502001
 30
0.0
 10
91.58446199556653
 20
161.406398716539
 30
0.0
 10
91.61626435118997
 20
161.5420101136238
 30
0.0
 10
91.63786102452298
 20
161.6085361546617
 30
0.0
 10
91.72022777147315
 20
161.8005270840651
 30
0.0
 10
91.80351771979593
 20
161.9167646885802
 30
0.0
 10
92.01581165681812
 20
162.0973650519852
 30
0.0
 10
92.14251293798876
 20
162.1622718375665
 30
0.0
 10
92.34317281407515
 20
162.2205117814617
 30
0.0
 10
92.41174280580414
 20
162.233842335635
 30
0.0
 10
92.54994994139257
 20
162.2512916457844
 30
0.0
 10
92.6196150084494
 20
162.2537685122202
 30
0.0
 10
92.68924817534516
 20
162.2552112506333
 30
0.0
  0
SPLINE
  5
12E
330
1F
100
AcDbEntity
  8
0
  6
SLD-Сплошная
 62
     7
370
    25
100
AcDbSpline
210
0.0
220
0.0
230
1.0
 70
     8
 71
     3
 72
    18
 73
    14
 74
     0
 42
0.00000001
 43
0.00000001
 40
0.0
 40
0.0
 40
0.0
 40
0.0
 40
0.1249999999999993
 40
0.1249999999999993
 40
0.2499999999999986
 40
0.2499999999999986
 40
0.4999999999999971
 40
0.4999999999999971
 40
0.7499999999999957
 40
0.7499999999999957
 40
0.8749999999999978
 40
0.8749999999999978
 40
1.0
 40
1.0
 40
1.0
 40
1.0
 10
92.68924817534516
 20
162.2552112506333
 30
0.0
 10
92.75697375261392
 20
162.2540511252704
 30
0.0
 10
92.82471849414686
 20
162.2516957699642
 30
0.0
 10
92.95895451829067
 20
162.2334433216451
 30
0.0
 10
93.02550128719699
 20
162.2198177390689
 30
0.0
 10
93.21999001488419
 20
162.1610347898658
 30
0.0
 10
93.3423916848729
 20
162.0961925775823
 30
0.0
 10
93.54636098322518
 20
161.9178756598706
 30
0.0
 10
93.63088908850833
 20
161.8080496433312
 30
0.0
 10
93.71373186354556
 20
161.622493011733
 30
0.0
 10
93.7337277495634
 20
161.5574223953621
 30
0.0
 10
93.76022956337466
 20
161.424505582872
 30
0.0
 10
93.76491016071704
 20
161.35682506846
 30
0.0
 10
93.76617125226822
 20
161.2890654172999
 30
0.0
  0
SPLINE
  5
12F
330
1F
100
AcDbEntity
  8
0
  6
SLD-Сплошная
 62
     7
370
    25
100
AcDbSpline
210
0.0
220
0.0
230
1.0
 70
     8
 71
     3
 72
    16
 73
    12
 74
     0
 42
0.00000001
 43
0.00000001
 40
0.0
 40
0.0
 40
0.0
 40
0.0
 40
0.1250000000000016
 40
0.1250000000000016
 40
0.2500000000000032
 40
0.2500000000000032
 40
0.5000000000000021
 40
0.5000000000000021
 40
0.750000000000001
 40
0.750000000000001
 40
1.0
 40
1.0
 40
1.0
 40
1.0
 10
93.76617125226822
 20
161.2890654172999
 30
0.0
 10
93.7641347231849
 20
161.2143335923867
 30
0.0
 10
93.75853558768813
 20
161.1396093035005
 30
0.0
 10
93.72821477078439
 20
160.9932318974504
 30
0.0
 10
93.70613536071001
 20
160.9214672497091
 30
0.0
 10
93.61840025823923
 20
160.7151850747993
 30
0.0
 10
93.53457772205184
 20
160.5895854181841
 30
0.0
 10
93.34735368825373
 20
160.3566728911809
 30
0.0
 10
93.24050906513749
 20
160.2515329215442
 30
0.0
 10
93.0216596665019
 20
160.0480704678645
 30
0.0
 10
92.90874459419463
 20
159.9501786906907
 30
0.0
 10
92.79511756637078
 20
159.8531679814025
 30
0.0
  0
SPLINE
  5
130
330
1F
100
AcDbEntity
  8
0
  6
SLD-Сплошная
 62
     7
370
    25
100
AcDbSpline
210
0.0
220
0.0
230
1.0
 70
     8
 71
     3
 72
    14
 73
    10
 74
     0
 42
0.00000001
 43
0.00000001
 40
0.0
 40
0.0
 40
0.0
 40
0.0
 40
0.25
 40
0.25
 40
0.5
 40
0.5
 40
0.75
 40
0.75
 40
1.0
 40
1.0
 40
1.0
 40
1.0
 10
92.79511756637078
 20
159.8531679814025
 30
0.0
 10
92.73329464784594
 20
159.8030826264163
 30
0.0
 10
92.67230821957965
 20
159.7519889278411
 30
0.0
 10
92.55020480684482
 20
159.6499515348061
 30
0.0
 10
92.48834053924078
 20
159.5998845393657
 30
0.0
 10
92.36824482275814
 20
159.4954976558182
 30
0.0
 10
92.30798887327038
 20
159.4434234986809
 30
0.0
 10
92.19581563799022
 20
159.3303608450628
 30
0.0
 10
92.14657690336236
 20
159.2677108814711
 30
0.0
 10
92.09890362406308
 20
159.2039291993512
 30
0.0
  0
LINE
  5
131
330
1F
100
AcDbEntity
  8
0
  6
SLD-Сплошная
 62
     7
370
    25
100
AcDbLine
 10
92.0989036241
 20
159.2039291994
 30
0.0
 11
93.8110430471
 21
159.2039291994
 31
0.0
  0
LINE
  5
132
330
1F
100
AcDbEntity
  8
0
  6
SLD-Сплошная
 62
     7
370
    25
100
AcDbLine
 10
93.8110430471
 20
159.2039291994
 30
0.0
 11
93.8110430471
 21
158.7552112506
 31
0.0
  0
SPLINE
  5
133
330
1F
100
AcDbEntity
  8
0
  6
SLD-Сплошная
 62
     7
370
    25
100
AcDbSpline
210
0.0
220
0.0
230
1.0
 70
     8
 71
     3
 72
    16
 73
    12
 74
     0
 42
0.00000001
 43
0.00000001
 40
0.0
 40
0.0
 40
0.0
 40
0.0
 40
0.1250000000000046
 40
0.1250000000000046
 40
0.2500000000000091
 40
0.2500000000000091
 40
0.500000000000006
 40
0.500000000000006
 40
0.750000000000003
 40
0.750000000000003
 40
1.0
 40
1.0
 40
1.0
 40
1.0
 10
93.3174533035503
 20
161.2848586865307
 30
0.0
 10
93.3164671838773
 20
161.3246770880015
 30
0.0
 10
93.31338049675699
 20
161.3643938514336
 30
0.0
 10
93.29765424739676
 20
161.4425130642444
 30
0.0
 10
93.28485062361432
 20
161.480385706196
 30
0.0
 10
93.23453115697552
 20
161.5887618994757
 30
0.0
 10
93.18313411427276
 20
161.6517823596369
 30
0.0
 10
93.06290063667932
 20
161.7562029602303
 30
0.0
 10
92.99100672898197
 20
161.7942948951912
 30
0.0
 10
92.83897085260341
 20
161.8415354954163
 30
0.0
 10
92.75901706854279
 20
161.8494436907924
 30
0.0
 10
92.67943247021695
 20
161.8513650967871
 30
0.0
  0
LINE
  5
134
330
1F
100
AcDbEntity
  8
0
  6
SLD-Сплошная
 62
     7
370
    25
100
AcDbLine
 10
89.0995045856
 20
158.7552112506
 30
0.0
 11
89.0995045856
 21
162.2552112506
 31
0.0
  0
LINE
  5
135
330
1F
100
AcDbEntity
  8
0
  6
SLD-Сплошная
 62
     7
370
    25
100
AcDbLine
 10
89.0995045856
 20
162.2552112506
 30
0.0
 11
89.5930943292
 21
162.2552112506
 31
0.0
  0
LINE
  5
136
330
1F
100
AcDbEntity
  8
0
  6
SLD-Сплошная
 62
     7
370
    25
100
AcDbLine
 10
89.5930943292
 20
162.2552112506
 30
0.0
 11
89.5930943292
 21
159.1590574045
 31
0.0
  0
LINE
  5
137
330
1F
100
AcDbEntity
  8
0
  6
SLD-Сплошная
 62
     7
370
    25
100
AcDbLine
 10
89.5930943292
 20
159.1590574045
 30
0.0
 11
91.2533507394
 21
159.1590574045
 31
0.0
  0
LINE
  5
138
330
1F
100
AcDbEntity
  8
0
  6
SLD-Сплошная
 62
     7
370
    25
100
AcDbLine
 10
91.2533507394
 20
158.7552112506
 30
0.0
 11
89.0995045856
 21
158.7552112506
 31
0.0
  0
LINE
  5
139
330
1F
100
AcDbEntity
  8
0
  6
SLD-Сплошная
 62
     7
370
    25
100
AcDbLine
 10
91.2533507394
 20
159.1590574045
 30
0.0
 11
91.2533507394
 21
158.7552112506
 31
0.0
  0
LINE
  5
13A
330
1F
100
AcDbEntity
  8
0
  6
SLD-Сплошная
 62
     7
370
    25
100
AcDbLine
 10
76.0360159127
 20
159.6975189429
 30
0.0
 11
76.4847338614
 21
159.7423907378
 31
0.0
  0
SPLINE
  5
13B
330
1F
100
AcDbEntity
  8
0
  6
SLD-Сплошная
 62
     7
370
    25
100
AcDbSpline
210
0.0
220
0.0
230
1.0
 70
     8
 71
     3
 72
    14
 73
    10
 74
     0
 42
0.00000001
 43
0.00000001
 40
0.0
 40
0.0
 40
0.0
 40
0.0
 40
0.25
 40
0.25
 40
0.5
 40
0.5
 40
0.75
 40
0.75
 40
1.0
 40
1.0
 40
1.0
 40
1.0
 10
76.48473386138929
 20
159.7423907378129
 30
0.0
 10
76.50288526535039
 20
159.6607588205944
 30
0.0
 10
76.52447728499827
 20
159.579665673339
 30
0.0
 10
76.58798926532153
 20
159.4249466494745
 30
0.0
 10
76.63007999254134
 20
159.3510992258606
 30
0.0
 10
76.74337218318017
 20
159.2279743979277
 30
0.0
 10
76.81569253203507
 20
159.1811957510409
 30
0.0
 10
76.97289953088348
 20
159.1244528670773
 30
0.0
 10
77.05736343694153
 20
159.1155099037301
 30
0.0
 10
77.14098386138929
 20
159.1141856096078
 30
0.0
  0
SPLINE
  5
13C
330
1F
100
AcDbEntity
  8
0
  6
SLD-Сплошная
 62
     7
370
    25
100
AcDbSpline
210
0.0
220
0.0
230
1.0
 70
     8
 71
     3
 72
    14
 73
    10
 74
     0
 42
0.00000001
 43
0.00000001
 40
0.0
 40
0.0
 40
0.0
 40
0.0
 40
0.25
 40
0.25
 40
0.5
 40
0.5
 40
0.75
 40
0.75
 40
1.0
 40
1.0
 40
1.0
 40
1.0
 10
77.14098386138929
 20
159.1141856096078
 30
0.0
 10
77.23281727998125
 20
159.1155220891268
 30
0.0
 10
77.32529426573367
 20
159.1268088854981
 30
0.0
 10
77.4969464398911
 20
159.1919136003293
 30
0.0
 10
77.57515431127962
 20
159.2443400472382
 30
0.0
 10
77.70190359318336
 20
159.3771342295204
 30
0.0
 10
77.75282213993037
 20
159.4558136240531
 30
0.0
 10
77.81704561732158
 20
159.6277430295927
 30
0.0
 10
77.82920028255825
 20
159.7199960476481
 30
0.0
 10
77.83088770754314
 20
159.8118017955052
 30
0.0
  0
SPLINE
  5
13D
330
1F
100
AcDbEntity
  8
0
  6
SLD-Сплошная
 62
     7
370
    25
100
AcDbSpline
210
0.0
220
0.0
230
1.0
 70
     8
 71
     3
 72
    16
 73
    12
 74
     0
 42
0.00000001
 43
0.00000001
 40
0.0
 40
0.0
 40
0.0
 40
0.0
 40
0.2500000000000003
 40
0.2500000000000003
 40
0.5000000000000006
 40
0.5000000000000006
 40
0.7500000000000009
 40
0.7500000000000009
 40
0.8750000000000004
 40
0.8750000000000004
 40
1.0
 40
1.0
 40
1.0
 40
1.0
 10
77.83088770754314
 20
159.8118017955052
 30
0.0
 10
77.82932276477949
 20
159.898208642856
 30
0.0
 10
77.81777956288236
 20
159.9850203372133
 30
0.0
 10
77.75485098601943
 20
160.1459876722291
 30
0.0
 10
77.70569045076074
 20
160.2190382724813
 30
0.0
 10
77.58330533940702
 20
160.3410445827503
 30
0.0
 10
77.50927774670966
 20
160.3889394671372
 30
0.0
 10
77.38813061013816
 20
160.4348483103102
 30
0.0
 10
77.34625524057488
 20
160.4461726605338
 30
0.0
 10
77.26104742734636
 20
160.4603355817725
 30
0.0
 10
77.21781061555919
 20
160.462173726566
 30
0.0
 10
77.17463770754314
 20
160.4631439429411
 30
0.0
  0
SPLINE
  5
13E
330
1F
100
AcDbEntity
  8
0
  6
SLD-Сплошная
 62
     7
370
    25
100
AcDbSpline
210
0.0
220
0.0
230
1.0
 70
     8
 71
     3
 72
    10
 73
     6
 74
     0
 42
0.00000001
 43
0.00000001
 40
0.0
 40
0.0
 40
0.0
 40
0.0
 40
0.5
 40
0.5
 40
1.0
 40
1.0
 40
1.0
 40
1.0
 10
77.17463770754314
 20
160.4631439429411
 30
0.0
 10
77.12545931411373
 20
160.4618087384935
 30
0.0
 10
77.07646700194502
 20
160.4571385968879
 30
0.0
 10
76.97961003729522
 20
160.4399853593152
 30
0.0
 10
76.93190536546578
 20
160.4280801267675
 30
0.0
 10
76.88437328446622
 20
160.4154676608898
 30
0.0
  0
LINE
  5
13F
330
1F
100
AcDbEntity
  8
0
  6
SLD-Сплошная
 62
     7
370
    25
100
AcDbLine
 10
76.8843732845
 20
160.4154676609
 30
0.0
 11
76.9306473229
 21
160.8193138147
 31
0.0
  0
SPLINE
  5
140
330
1F
100
AcDbEntity
  8
0
  6
SLD-Сплошная
 62
     7
370
    25
100
AcDbSpline
210
0.0
220
0.0
230
1.0
 70
     8
 71
     3
 72
     8
 73
     4
 74
     0
 42
0.00000001
 43
0.00000001
 40
0.0
 40
0.0
 40
0.0
 40
0.0
 40
1.0
 40
1.0
 40
1.0
 40
1.0
 10
76.93064732292775
 20
160.819313814736
 30
0.0
 10
76.95209668908178
 20
160.8169699850133
 30
0.0
 10
76.973592995148
 20
160.8152688311867
 30
0.0
 10
76.99515052805596
 20
160.8144059621719
 30
0.0
  0
SPLINE
  5
141
330
1F
100
AcDbEntity
  8
0
  6
SLD-Сплошная
 62
     7
370
    25
100
AcDbSpline
210
0.0
220
0.0
230
1.0
 70
     8
 71
     3
 72
    16
 73
    12
 74
     0
 42
0.00000001
 43
0.00000001
 40
0.0
 40
0.0
 40
0.0
 40
0.0
 40
0.2500000000000028
 40
0.2500000000000028
 40
0.5000000000000056
 40
0.5000000000000056
 40
0.7500000000000083
 40
0.7500000000000083
 40
0.8750000000000041
 40
0.8750000000000041
 40
1.0
 40
1.0
 40
1.0
 40
1.0
 10
76.99515052805596
 20
160.8144059621719
 30
0.0
 10
77.07454397329083
 20
160.8175908306709
 30
0.0
 10
77.15423541875256
 20
160.8240905818983
 30
0.0
 10
77.30690801342928
 20
160.8680842655854
 30
0.0
 10
77.3805498311645
 20
160.9005760853481
 30
0.0
 10
77.5129148780319
 20
160.9882016597516
 30
0.0
 10
77.56983836929075
 20
161.0476385431496
 30
0.0
 10
77.62099963522893
 20
161.1551063568177
 30
0.0
 10
77.63313904908941
 20
161.1933254734666
 30
0.0
 10
77.64813531075119
 20
161.2712835944057
 30
0.0
 10
77.65000658577345
 20
161.3110975807504
 30
0.0
 10
77.65140052805597
 20
161.3507641352488
 30
0.0
  0
SPLINE
  5
142
330
1F
100
AcDbEntity
  8
0
  6
SLD-Сплошная
 62
     7
370
    25
100
AcDbSpline
210
0.0
220
0.0
230
1.0
 70
     8
 71
     3
 72
    14
 73
    10
 74
     0
 42
0.00000001
 43
0.00000001
 40
0.0
 40
0.0
 40
0.0
 40
0.0
 40
0.25
 40
0.25
 40
0.5
 40
0.5
 40
0.75
 40
0.75
 40
1.0
 40
1.0
 40
1.0
 40
1.0
 10
77.65140052805597
 20
161.3507641352488
 30
0.0
 10
77.65012780193017
 20
161.4191134025155
 30
0.0
 10
77.63970451225107
 20
161.4877383855938
 30
0.0
 10
77.5868778843192
 20
161.6137905116087
 30
0.0
 10
77.54607853577627
 20
161.6705628396592
 30
0.0
 10
77.44483505760039
 20
161.7624156729846
 30
0.0
 10
77.38447902108803
 20
161.7967784482405
 30
0.0
 10
77.25571217370998
 20
161.8429498804218
 30
0.0
 10
77.18692656687027
 20
161.850333806378
 30
0.0
 10
77.11854796395342
 20
161.8513650967872
 30
0.0
  0
SPLINE
  5
143
330
1F
100
AcDbEntity
  8
0
  6
SLD-Сплошная
 62
     7
370
    25
100
AcDbSpline
210
0.0
220
0.0
230
1.0
 70
     8
 71
     3
 72
    16
 73
    12
 74
     0
 42
0.00000001
 43
0.00000001
 40
0.0
 40
0.0
 40
0.0
 40
0.0
 40
0.1249999999999985
 40
0.1249999999999985
 40
0.249999999999997
 40
0.249999999999997
 40
0.499999999999998
 40
0.499999999999998
 40
0.749999999999999
 40
0.749999999999999
 40
1.0
 40
1.0
 40
1.0
 40
1.0
 10
77.11854796395342
 20
161.8513650967872
 30
0.0
 10
77.0818167257375
 20
161.8499328852394
 30
0.0
 10
77.04508548752158
 20
161.8485006736916
 30
0.0
 10
76.97252145990339
 20
161.8381114334719
 30
0.0
 10
76.9366821285704
 20
161.8290610761268
 30
0.0
 10
76.83275251400359
 20
161.7921953634778
 30
0.0
 10
76.76832836513097
 20
161.7537804143566
 30
0.0
 10
76.66130585274834
 20
161.6533319273825
 30
0.0
 10
76.6199307532819
 20
161.5909442942267
 30
0.0
 10
76.56077983842303
 20
161.4566546783208
 30
0.0
 10
76.54259950524757
 20
161.3851119245384
 30
0.0
 10
76.52960565626108
 20
161.3129035583257
 30
0.0
  0
LINE
  5
144
330
1F
100
AcDbEntity
  8
0
  6
SLD-Сплошная
 62
     7
370
    25
100
AcDbLine
 10
76.5296056563
 20
161.3129035583
 30
0.0
 11
76.0808877075
 21
161.3577753532
 31
0.0
  0
SPLINE
  5
145
330
1F
100
AcDbEntity
  8
0
  6
SLD-Сплошная
 62
     7
370
    25
100
AcDbSpline
210
0.0
220
0.0
230
1.0
 70
     8
 71
     3
 72
    18
 73
    14
 74
     0
 42
0.00000001
 43
0.00000001
 40
0.0
 40
0.0
 40
0.0
 40
0.0
 40
0.1249999999999997
 40
0.1249999999999997
 40
0.2499999999999994
 40
0.2499999999999994
 40
0.4999999999999989
 40
0.4999999999999989
 40
0.7499999999999983
 40
0.7499999999999983
 40
0.8749999999999991
 40
0.8749999999999991
 40
1.0
 40
1.0
 40
1.0
 40
1.0
 10
76.08088770754316
 20
161.3577753531975
 30
0.0
 10
76.09323823786833
 20
161.4188224711075
 30
0.0
 10
76.106384999147
 20
161.4797618807802
 30
0.0
 10
76.14329773169983
 20
161.5987477371898
 30
0.0
 10
76.16617392299784
 20
161.6568702249157
 30
0.0
 10
76.2493550744931
 20
161.8242057787693
 30
0.0
 10
76.32398853126655
 20
161.9266383367996
 30
0.0
 10
76.51003951515807
 20
162.0924074288426
 30
0.0
 10
76.61935705716795
 20
162.1567215648398
 30
0.0
 10
76.79591317788191
 20
162.2179082591052
 30
0.0
 10
76.85679433194503
 20
162.2321116381502
 30
0.0
 10
76.9799392043556
 20
162.2511844015659
 30
0.0
 10
77.04223092915294
 20
162.2541193361903
 30
0.0
 10
77.10452552805597
 20
162.2552112506334
 30
0.0
  0
SPLINE
  5
146
330
1F
100
AcDbEntity
  8
0
  6
SLD-Сплошная
 62
     7
370
    25
100
AcDbSpline
210
0.0
220
0.0
230
1.0
 70
     8
 71
     3
 72
    18
 73
    14
 74
     0
 42
0.00000001
 43
0.00000001
 40
0.0
 40
0.0
 40
0.0
 40
0.0
 40
0.125
 40
0.125
 40
0.25
 40
0.25
 40
0.5
 40
0.5
 40
0.75
 40
0.75
 40
0.875
 40
0.875
 40
1.0
 40
1.0
 40
1.0
 40
1.0
 10
77.10452552805597
 20
162.2552112506334
 30
0.0
 10
77.1665576828382
 20
162.2532345757533
 30
0.0
 10
77.22858938281647
 20
162.2507068549278
 30
0.0
 10
77.35113565674892
 20
162.2314850125881
 30
0.0
 10
77.41171428272888
 20
162.2168528419828
 30
0.0
 10
77.5883170669725
 20
162.1583847284118
 30
0.0
 10
77.69933941328107
 20
162.0980900469348
 30
0.0
 10
77.89031734365122
 20
161.9396546461658
 30
0.0
 10
77.96671686834152
 20
161.8381345986445
 30
0.0
 10
78.04527222188027
 20
161.6693855048105
 30
0.0
 10
78.0664684264329
 20
161.6107215092885
 30
0.0
 10
78.0938685446727
 20
161.4896132777431
 30
0.0
 10
78.09771193320793
 20
161.4275169334178
 30
0.0
 10
78.10011847677393
 20
161.3654876929411
 30
0.0
  0
SPLINE
  5
147
330
1F
100
AcDbEntity
  8
0
  6
SLD-Сплошная
 62
     7
370
    25
100
AcDbSpline
210
0.0
220
0.0
230
1.0
 70
     8
 71
     3
 72
    14
 73
    10
 74
     0
 42
0.00000001
 43
0.00000001
 40
0.0
 40
0.0
 40
0.0
 40
0.0
 40
0.25
 40
0.25
 40
0.5
 40
0.5
 40
0.75
 40
0.75
 40
1.0
 40
1.0
 40
1.0
 40
1.0
 10
78.10011847677393
 20
161.3654876929411
 30
0.0
 10
78.09702574300889
 20
161.2910000375417
 30
0.0
 10
78.08998201016519
 20
161.2162440645664
 30
0.0
 10
78.04509031151916
 20
161.0741059141808
 30
0.0
 10
78.011762863949
 20
161.0064960340747
 30
0.0
 10
77.92621118209031
 20
160.8844411180256
 30
0.0
 10
77.87334721744494
 20
160.8308154926005
 30
0.0
 10
77.75559998865943
 20
160.7393223098346
 30
0.0
 10
77.68956659924267
 20
160.7042332907759
 30
0.0
 10
77.62265453446622
 20
160.671377116018
 30
0.0
  0
SPLINE
  5
148
330
1F
100
AcDbEntity
  8
0
  6
SLD-Сплошная
 62
     7
370
    25
100
AcDbSpline
210
0.0
220
0.0
230
1.0
 70
     8
 71
     3
 72
    18
 73
    14
 74
     0
 42
0.00000001
 43
0.00000001
 40
0.0
 40
0.0
 40
0.0
 40
0.0
 40
0.1250000000000002
 40
0.1250000000000002
 40
0.2500000000000005
 40
0.2500000000000005
 40
0.500000000000001
 40
0.500000000000001
 40
0.7500000000000016
 40
0.7500000000000016
 40
0.8750000000000008
 40
0.8750000000000008
 40
1.0
 40
1.0
 40
1.0
 40
1.0
 10
78.27960565626107
 20
159.8082961865308
 30
0.0
 10
78.27792440701877
 20
159.7341255284347
 30
0.0
 10
78.27362891745355
 20
159.6598785872887
 30
0.0
 10
78.2447836825271
 20
159.5143321357465
 30
0.0
 10
78.22281935143246
 20
159.4431141252742
 30
0.0
 10
78.1354277410056
 20
159.2384689915143
 30
0.0
 10
78.04539756683394
 20
159.1166026500521
 30
0.0
 10
77.82912906184661
 20
158.9136158917686
 30
0.0
 10
77.70091002783438
 20
158.833373141004
 30
0.0
 10
77.49186577754642
 20
158.7572059348362
 30
0.0
 10
77.41972200504706
 20
158.7386749065338
 30
0.0
 10
77.27324473397904
 20
158.7151474017092
 30
0.0
 10
77.19900946135174
 20
158.7120039843028
 30
0.0
 10
77.12485806010723
 20
158.7103394557616
 30
0.0
  0
SPLINE
  5
149
330
1F
100
AcDbEntity
  8
0
  6
SLD-Сплошная
 62
     7
370
    25
100
AcDbSpline
210
0.0
220
0.0
230
1.0
 70
     8
 71
     3
 72
    18
 73
    14
 74
     0
 42
0.00000001
 43
0.00000001
 40
0.0
 40
0.0
 40
0.0
 40
0.0
 40
0.1250000000000007
 40
0.1250000000000007
 40
0.2500000000000015
 40
0.2500000000000015
 40
0.4999999999999993
 40
0.4999999999999993
 40
0.7499999999999971
 40
0.7499999999999971
 40
0.8749999999999986
 40
0.8749999999999986
 40
1.0
 40
1.0
 40
1.0
 40
1.0
 10
77.12485806010723
 20
158.7103394557616
 30
0.0
 10
77.05713463110796
 20
158.7118141802444
 30
0.0
 10
76.98933095661177
 20
158.7146005054154
 30
0.0
 10
76.85544381083281
 20
158.7353815521456
 30
0.0
 10
76.7894125097446
 20
158.7517111676916
 30
0.0
 10
76.5977011117957
 20
158.8190580938146
 30
0.0
 10
76.47961345579456
 20
158.8907572119009
 30
0.0
 10
76.27944042097559
 20
159.0732505606527
 30
0.0
 10
76.19719055095564
 20
159.1841035962269
 30
0.0
 10
76.11008575745458
 20
159.3676305590129
 30
0.0
 10
76.08778257607091
 20
159.4319430501571
 30
0.0
 10
76.05386865587137
 20
159.5631151141124
 30
0.0
 10
76.04420062742318
 20
159.6302755847653
 30
0.0
 10
76.03601591267135
 20
159.6975189429411
 30
0.0
  0
SPLINE
  5
14A
330
1F
100
AcDbEntity
  8
0
  6
SLD-Сплошная
 62
     7
370
    25
100
AcDbSpline
210
0.0
220
0.0
230
1.0
 70
     8
 71
     3
 72
    14
 73
    10
 74
     0
 42
0.00000001
 43
0.00000001
 40
0.0
 40
0.0
 40
0.0
 40
0.0
 40
0.25
 40
0.25
 40
0.5
 40
0.5
 40
0.75
 40
0.75
 40
1.0
 40
1.0
 40
1.0
 40
1.0
 10
77.62265453446622
 20
160.671377116018
 30
0.0
 10
77.71818890683194
 20
160.6473666031596
 30
0.0
 10
77.81171278095108
 20
160.6136071343225
 30
0.0
 10
77.97957482651185
 20
160.5104099988237
 30
0.0
 10
78.05385211305145
 20
160.4431963055713
 30
0.0
 10
78.17125086120762
 20
160.2850539757595
 30
0.0
 10
78.21515542187338
 20
160.1951210486684
 30
0.0
 10
78.26844597541296
 20
160.0055382006063
 30
0.0
 10
78.27778295577714
 20
159.9067553952588
 30
0.0
 10
78.27960565626107
 20
159.8082961865308
 30
0.0
  0
LINE
  5
14B
330
1F
100
AcDbEntity
  8
0
  6
SLD-Сплошная
 62
     7
370
    25
100
AcDbLine
 10
73.5231953999
 20
158.7552112506
 30
0.0
 11
73.5231953999
 21
162.2552112506
 31
0.0
  0
LINE
  5
14C
330
1F
100
AcDbEntity
  8
0
  6
SLD-Сплошная
 62
     7
370
    25
100
AcDbLine
 10
73.5231953999
 20
162.2552112506
 30
0.0
 11
74.0167851434
 21
162.2552112506
 31
0.0
  0
LINE
  5
14D
330
1F
100
AcDbEntity
  8
0
  6
SLD-Сплошная
 62
     7
370
    25
100
AcDbLine
 10
74.0167851434
 20
162.2552112506
 30
0.0
 11
74.0167851434
 21
159.1590574045
 31
0.0
  0
LINE
  5
14E
330
1F
100
AcDbEntity
  8
0
  6
SLD-Сплошная
 62
     7
370
    25
100
AcDbLine
 10
75.6770415537
 20
159.1590574045
 30
0.0
 11
75.6770415537
 21
158.7552112506
 31
0.0
  0
LINE
  5
14F
330
1F
100
AcDbEntity
  8
0
  6
SLD-Сплошная
 62
     7
370
    25
100
AcDbLine
 10
75.6770415537
 20
158.7552112506
 30
0.0
 11
73.5231953999
 21
158.7552112506
 31
0.0
  0
LINE
  5
150
330
1F
100
AcDbEntity
  8
0
  6
SLD-Сплошная
 62
     7
370
    25
100
AcDbLine
 10
74.0167851434
 20
159.1590574045
 30
0.0
 11
75.6770415537
 21
159.1590574045
 31
0.0
  0
LINE
  5
151
330
1F
100
AcDbEntity
  8
0
  6
SLD-Сплошная
 62
     7
370
    25
100
AcDbLine
 10
69.8592140802
 20
143.9685202387
 30
0.0
 11
69.8592140802
 21
147.4685202387
 31
0.0
  0
LINE
  5
152
330
1F
100
AcDbEntity
  8
0
  6
SLD-Сплошная
 62
     7
370
    25
100
AcDbLine
 10
69.8592140802
 20
147.4685202387
 30
0.0
 11
70.3808486956
 21
147.4685202387
 31
0.0
  0
LINE
  5
153
330
1F
100
AcDbEntity
  8
0
  6
SLD-Сплошная
 62
     7
370
    25
100
AcDbLine
 10
70.3808486956
 20
147.4685202387
 30
0.0
 11
72.0579320289
 21
144.8568415528
 31
0.0
  0
LINE
  5
154
330
1F
100
AcDbEntity
  8
0
  6
SLD-Сплошная
 62
     7
370
    25
100
AcDbLine
 10
72.0579320289
 20
144.8568415528
 30
0.0
 11
72.0579320289
 21
147.4685202387
 31
0.0
  0
LINE
  5
155
330
1F
100
AcDbEntity
  8
0
  6
SLD-Сплошная
 62
     7
370
    25
100
AcDbLine
 10
72.0579320289
 20
147.4685202387
 30
0.0
 11
72.5515217725
 21
147.4685202387
 31
0.0
  0
LINE
  5
156
330
1F
100
AcDbEntity
  8
0
  6
SLD-Сплошная
 62
     7
370
    25
100
AcDbLine
 10
72.0298871571
 20
143.9685202387
 30
0.0
 11
70.3528038238
 21
146.5801989246
 31
0.0
  0
LINE
  5
157
330
1F
100
AcDbEntity
  8
0
  6
SLD-Сплошная
 62
     7
370
    25
100
AcDbLine
 10
70.3528038238
 20
146.5801989246
 30
0.0
 11
70.3528038238
 21
143.9685202387
 31
0.0
  0
LINE
  5
158
330
1F
100
AcDbEntity
  8
0
  6
SLD-Сплошная
 62
     7
370
    25
100
AcDbLine
 10
70.3528038238
 20
143.9685202387
 30
0.0
 11
69.8592140802
 21
143.9685202387
 31
0.0
  0
LINE
  5
159
330
1F
100
AcDbEntity
  8
0
  6
SLD-Сплошная
 62
     7
370
    25
100
AcDbLine
 10
72.5515217725
 20
143.9685202387
 30
0.0
 11
72.0298871571
 21
143.9685202387
 31
0.0
  0
LINE
  5
15A
330
1F
100
AcDbEntity
  8
0
  6
SLD-Сплошная
 62
     7
370
    25
100
AcDbLine
 10
72.5515217725
 20
147.4685202387
 30
0.0
 11
72.5515217725
 21
143.9685202387
 31
0.0
  0
LINE
  5
15B
330
1F
100
AcDbEntity
  8
0
  6
SLD-Сплошная
 62
     7
370
    25
100
AcDbLine
 10
67.5998115312
 20
156.3357360752
 30
0.0
 11
68.0998115312
 21
156.3357360752
 31
0.0
  0
LINE
  5
15C
330
1F
100
AcDbEntity
  8
0
  6
SLD-Сплошная
 62
     7
370
    25
100
AcDbLine
 10
67.5998115312
 20
158.3357360752
 30
0.0
 11
67.5998115312
 21
156.3357360752
 31
0.0
  0
LINE
  5
15D
330
1F
100
AcDbEntity
  8
0
  6
SLD-Сплошная
 62
     7
370
    25
100
AcDbLine
 10
70.5998115312
 20
158.3357360752
 30
0.0
 11
67.5998115312
 21
158.3357360752
 31
0.0
  0
LINE
  5
15E
330
1F
100
AcDbEntity
  8
0
  6
SLD-Сплошная
 62
     7
370
    25
100
AcDbLine
 10
70.5998115312
 20
156.3357360752
 30
0.0
 11
70.5998115312
 21
158.3357360752
 31
0.0
  0
LINE
  5
15F
330
1F
100
AcDbEntity
  8
0
  6
SLD-Сплошная
 62
     7
370
    25
100
AcDbLine
 10
70.0998115312
 20
156.3357360752
 30
0.0
 11
70.5998115312
 21
156.3357360752
 31
0.0
  0
LINE
  5
160
330
1F
100
AcDbEntity
  8
0
  6
SLD-Сплошная
 62
     7
370
    25
100
AcDbLine
 10
70.0998115312
 20
153.8357360752
 30
0.0
 11
70.0998115312
 21
156.3357360752
 31
0.0
  0
LINE
  5
161
330
1F
100
AcDbEntity
  8
0
  6
SLD-Сплошная
 62
     7
370
    25
100
AcDbLine
 10
70.0998115312
 20
153.8357360752
 30
0.0
 11
68.0998115312
 21
155.8357360752
 31
0.0
  0
LINE
  5
162
330
1F
100
AcDbEntity
  8
0
  6
SLD-Сплошная
 62
     7
370
    25
100
AcDbLine
 10
68.0998115312
 20
156.3357360752
 30
0.0
 11
68.0998115312
 21
155.8357360752
 31
0.0
  0
LINE
  5
163
330
1F
100
AcDbEntity
  8
0
  6
SLD-Сплошная
 62
     7
370
    25
100
AcDbLine
 10
68.0998115312
 20
155.128629294
 30
0.0
 11
70.0998115312
 21
153.128629294
 31
0.0
  0
LINE
  5
164
330
1F
100
AcDbEntity
  8
0
  6
SLD-Сплошная
 62
     7
370
    25
100
AcDbLine
 10
70.0998115312
 20
151.8357360752
 30
0.0
 11
70.0998115312
 21
153.128629294
 31
0.0
  0
LINE
  5
165
330
1F
100
AcDbEntity
  8
0
  6
SLD-Сплошная
 62
     7
370
    25
100
AcDbLine
 10
70.0998115312
 20
151.8357360752
 30
0.0
 11
68.0998115312
 21
153.8357360752
 31
0.0
  0
LINE
  5
166
330
1F
100
AcDbEntity
  8
0
  6
SLD-Сплошная
 62
     7
370
    25
100
AcDbLine
 10
68.0998115312
 20
155.128629294
 30
0.0
 11
68.0998115312
 21
153.8357360752
 31
0.0
  0
LINE
  5
167
330
1F
100
AcDbEntity
  8
0
  6
SLD-Сплошная
 62
     7
370
    25
100
AcDbLine
 10
68.0998115312
 20
153.128629294
 30
0.0
 11
68.0998115312
 21
151.8357360752
 31
0.0
  0
LINE
  5
168
330
1F
100
AcDbEntity
  8
0
  6
SLD-Сплошная
 62
     7
370
    25
100
AcDbLine
 10
69.5998115312
 20
150.3357360752
 30
0.0
 11
70.0998115312
 21
150.3357360752
 31
0.0
  0
LINE
  5
169
330
1F
100
AcDbEntity
  8
0
  6
SLD-Сплошная
 62
     7
370
    25
100
AcDbLine
 10
69.5998115312
 20
150.3357360752
 30
0.0
 11
68.0998115312
 21
151.8357360752
 31
0.0
  0
LINE
  5
16A
330
1F
100
AcDbEntity
  8
0
  6
SLD-Сплошная
 62
     7
370
    25
100
AcDbLine
 10
70.0998115312
 20
150.3357360752
 30
0.0
 11
70.0998115312
 21
151.128629294
 31
0.0
  0
LINE
  5
16B
330
1F
100
AcDbEntity
  8
0
  6
SLD-Сплошная
 62
     7
370
    25
100
AcDbLine
 10
68.0998115312
 20
153.128629294
 30
0.0
 11
70.0998115312
 21
151.128629294
 31
0.0
  0
LINE
  5
16C
330
1F
100
AcDbEntity
  8
0
  6
SLD-Сплошная
 62
     7
370
    25
100
AcDbLine
 10
68.0998115312
 20
151.128629294
 30
0.0
 11
68.0998115312
 21
150.3357360752
 31
0.0
  0
LINE
  5
16D
330
1F
100
AcDbEntity
  8
0
  6
SLD-Сплошная
 62
     7
370
    25
100
AcDbLine
 10
68.0998115312
 20
151.128629294
 30
0.0
 11
68.89270475
 21
150.3357360752
 31
0.0
  0
LINE
  5
16E
330
1F
100
AcDbEntity
  8
0
  6
SLD-Сплошная
 62
     7
370
    25
100
AcDbLine
 10
68.0998115312
 20
150.3357360752
 30
0.0
 11
68.89270475
 21
150.3357360752
 31
0.0
  0
SPLINE
  5
16F
330
1F
100
AcDbEntity
  8
0
  6
SLD-Сплошная
 62
     7
370
    25
100
AcDbSpline
210
0.0
220
0.0
230
1.0
 70
     8
 71
     3
 72
    16
 73
    12
 74
     0
 42
0.00000001
 43
0.00000001
 40
0.0
 40
0.0
 40
0.0
 40
0.0
 40
0.2500000000000004
 40
0.2500000000000004
 40
0.5000000000000008
 40
0.5000000000000008
 40
0.7500000000000011
 40
0.7500000000000011
 40
0.8750000000000006
 40
0.8750000000000006
 40
1.0
 40
1.0
 40
1.0
 40
1.0
 10
66.74083717221333
 20
154.6853955302937
 30
0.0
 10
66.73933367653588
 20
154.774153555484
 30
0.0
 10
66.72924796749615
 20
154.8633880697464
 30
0.0
 10
66.67147277933596
 20
155.0311965357845
 30
0.0
 10
66.62277322829146
 20
155.1082041219632
 30
0.0
 10
66.49629813484407
 20
155.232756072262
 30
0.0
 10
66.41944834791781
 20
155.2810531116886
 30
0.0
 10
66.29421087166197
 20
155.3263284431694
 30
0.0
 10
66.25112550124759
 20
155.3374948349476
 30
0.0
 10
66.16352700642543
 20
155.3518705543294
 30
0.0
 10
66.11914129872373
 20
155.3540114280619
 30
0.0
 10
66.07477146708514
 20
155.3549668443962
 30
0.0
  0
SPLINE
  5
170
330
1F
100
AcDbEntity
  8
0
  6
SLD-Сплошная
 62
     7
370
    25
100
AcDbSpline
210
0.0
220
0.0
230
1.0
 70
     8
 71
     3
 72
    18
 73
    14
 74
     0
 42
0.00000001
 43
0.00000001
 40
0.0
 40
0.0
 40
0.0
 40
0.0
 40
0.1250000000000028
 40
0.1250000000000028
 40
0.2500000000000057
 40
0.2500000000000057
 40
0.5000000000000022
 40
0.5000000000000022
 40
0.7499999999999989
 40
0.7499999999999989
 40
0.8749999999999993
 40
0.8749999999999993
 40
1.0
 40
1.0
 40
1.0
 40
1.0
 10
66.07477146708514
 20
155.3549668443962
 30
0.0
 10
66.02956072714778
 20
155.3539812231005
 30
0.0
 10
65.98429145571453
 20
155.3520451886836
 30
0.0
 10
65.8950282112816
 20
155.3374091438444
 30
0.0
 10
65.85122723498506
 20
155.3254955781018
 30
0.0
 10
65.7238805164537
 20
155.2786797725971
 30
0.0
 10
65.64630582874616
 20
155.2286905391815
 30
0.0
 10
65.51677281822083
 20
155.1024114731631
 30
0.0
 10
65.46725264721711
 20
155.0239374777832
 30
0.0
 10
65.4221945876335
 20
154.8959656113219
 30
0.0
 10
65.4112580651996
 20
154.8519211698781
 30
0.0
 10
65.39722011491162
 20
154.762553569376
 30
0.0
 10
65.39547043097457
 20
154.7172960196022
 30
0.0
 10
65.39468332605948
 20
154.6720742161911
 30
0.0
  0
SPLINE
  5
171
330
1F
100
AcDbEntity
  8
0
  6
SLD-Сплошная
 62
     7
370
    25
100
AcDbSpline
210
0.0
220
0.0
230
1.0
 70
     8
 71
     3
 72
    14
 73
    10
 74
     0
 42
0.00000001
 43
0.00000001
 40
0.0
 40
0.0
 40
0.0
 40
0.0
 40
0.25
 40
0.25
 40
0.5
 40
0.5
 40
0.75
 40
0.75
 40
1.0
 40
1.0
 40
1.0
 40
1.0
 10
65.39468332605948
 20
154.6720742161911
 30
0.0
 10
65.39627960183303
 20
154.5838847647032
 30
0.0
 10
65.40615880147533
 20
154.4951126171187
 30
0.0
 10
65.46619902210266
 20
154.3292538680791
 30
0.0
 10
65.51500979825985
 20
154.2530541501993
 30
0.0
 10
65.64281112712963
 20
154.1314897875755
 30
0.0
 10
65.71839823030618
 20
154.082530224019
 30
0.0
 10
65.88395143931406
 20
154.0220067151725
 30
0.0
 10
65.97258388099782
 20
154.0107572319581
 30
0.0
 10
66.0607490311877
 20
154.0088129982424
 30
0.0
  0
SPLINE
  5
172
330
1F
100
AcDbEntity
  8
0
  6
SLD-Сплошная
 62
     7
370
    25
100
AcDbSpline
210
0.0
220
0.0
230
1.0
 70
     8
 71
     3
 72
    18
 73
    14
 74
     0
 42
0.00000001
 43
0.00000001
 40
0.0
 40
0.0
 40
0.0
 40
0.0
 40
0.1249999999999956
 40
0.1249999999999956
 40
0.2499999999999912
 40
0.2499999999999912
 40
0.4999999999999931
 40
0.4999999999999931
 40
0.749999999999995
 40
0.749999999999995
 40
0.8749999999999974
 40
0.8749999999999974
 40
1.0
 40
1.0
 40
1.0
 40
1.0
 10
66.0607490311877
 20
154.0088129982424
 30
0.0
 10
66.1058244033835
 20
154.0100201372765
 30
0.0
 10
66.15091846502378
 20
154.0119605680861
 30
0.0
 10
66.2399043326868
 20
154.0266060090331
 30
0.0
 10
66.28368431573129
 20
154.0379063122009
 30
0.0
 10
66.41192011856374
 20
154.0808215221324
 30
0.0
 10
66.49383880856914
 20
154.1245287429156
 30
0.0
 10
66.61876936116312
 20
154.2547228054005
 30
0.0
 10
66.66332261811066
 20
154.3356085791584
 30
0.0
 10
66.70917632169665
 20
154.4627739563661
 30
0.0
 10
66.72095973007465
 20
154.5065056659944
 30
0.0
 10
66.73704644994343
 20
154.595234702226
 30
0.0
 10
66.7392896261906
 20
154.6403073428652
 30
0.0
 10
66.74083717221333
 20
154.6853955302937
 30
0.0
  0
SPLINE
  5
173
330
1F
100
AcDbEntity
  8
0
  6
SLD-Сплошная
 62
     7
370
    25
100
AcDbSpline
210
0.0
220
0.0
230
1.0
 70
     8
 71
     3
 72
    16
 73
    12
 74
     0
 42
0.00000001
 43
0.00000001
 40
0.0
 40
0.0
 40
0.0
 40
0.0
 40
0.2499999999999971
 40
0.2499999999999971
 40
0.4999999999999941
 40
0.4999999999999941
 40
0.7499999999999911
 40
0.7499999999999911
 40
0.8749999999999956
 40
0.8749999999999956
 40
1.0
 40
1.0
 40
1.0
 40
1.0
 10
64.99083717221333
 20
154.6860966520886
 30
0.0
 10
64.98987395852053
 20
154.7538693234902
 30
0.0
 10
64.98373552670985
 20
154.8219611510953
 30
0.0
 10
64.94531977030252
 20
154.9518935029322
 30
0.0
 10
64.91361287606084
 20
155.0137736644243
 30
0.0
 10
64.8226498299945
 20
155.1142490490112
 30
0.0
 10
64.76623684111287
 20
155.1546301669486
 30
0.0
 10
64.6728040857606
 20
155.1951409507773
 30
0.0
 10
64.64014109051192
 20
155.2054340132047
 30
0.0
 10
64.57353231565543
 20
155.2173832452892
 30
0.0
 10
64.53959649022356
 20
155.2188698443946
 30
0.0
 10
64.50566089016203
 20
155.2203514597809
 30
0.0
  0
SPLINE
  5
174
330
1F
100
AcDbEntity
  8
0
  6
SLD-Сплошная
 62
     7
370
    25
100
AcDbSpline
210
0.0
220
0.0
230
1.0
 70
     8
 71
     3
 72
    16
 73
    12
 74
     0
 42
0.00000001
 43
0.00000001
 40
0.0
 40
0.0
 40
0.0
 40
0.0
 40
0.1249999999999991
 40
0.1249999999999991
 40
0.2499999999999982
 40
0.2499999999999982
 40
0.4999999999999988
 40
0.4999999999999988
 40
0.7499999999999993
 40
0.7499999999999993
 40
1.0
 40
1.0
 40
1.0
 40
1.0
 10
64.50566089016203
 20
155.2203514597809
 30
0.0
 10
64.47115151373757
 20
155.2186015916776
 30
0.0
 10
64.4366420616376
 20
155.2168509721096
 30
0.0
 10
64.3687231370147
 20
155.2051745497738
 30
0.0
 10
64.33532096870792
 20
155.1953061108781
 30
0.0
 10
64.23980159911383
 20
155.1550445964278
 30
0.0
 10
64.18284015180187
 20
155.113538413063
 30
0.0
 10
64.08759781274992
 20
155.0137012001061
 30
0.0
 10
64.0541122134696
 20
154.9514400487159
 30
0.0
 10
64.01142340145726
 20
154.8202581977957
 30
0.0
 10
64.00465166510882
 20
154.7508752515164
 30
0.0
 10
64.00365768503383
 20
154.6818899213193
 30
0.0
  0
SPLINE
  5
175
330
1F
100
AcDbEntity
  8
0
  6
SLD-Сплошная
 62
     7
370
    25
100
AcDbSpline
210
0.0
220
0.0
230
1.0
 70
     8
 71
     3
 72
    16
 73
    12
 74
     0
 42
0.00000001
 43
0.00000001
 40
0.0
 40
0.0
 40
0.0
 40
0.0
 40
0.2500000000000029
 40
0.2500000000000029
 40
0.5000000000000059
 40
0.5000000000000059
 40
0.7500000000000089
 40
0.7500000000000089
 40
0.8750000000000044
 40
0.8750000000000044
 40
1.0
 40
1.0
 40
1.0
 40
1.0
 10
64.00365768503383
 20
154.6818899213193
 30
0.0
 10
64.00459930499674
 20
154.6143636905331
 30
0.0
 10
64.01062460860915
 20
154.5464828938926
 30
0.0
 10
64.04931608985332
 20
154.4171151017558
 30
0.0
 10
64.08219366011315
 20
154.356348770349
 30
0.0
 10
64.17133399269498
 20
154.2549890899127
 30
0.0
 10
64.22624706595326
 20
154.2131000241454
 30
0.0
 10
64.31850586020136
 20
154.1709061239181
 30
0.0
 10
64.35086782638913
 20
154.1600416284347
 30
0.0
 10
64.4170381648402
 20
154.1470549304309
 30
0.0
 10
64.45083296010576
 20
154.1452336103253
 30
0.0
 10
64.48462723631589
 20
154.1434283828578
 30
0.0
  0
SPLINE
  5
176
330
1F
100
AcDbEntity
  8
0
  6
SLD-Сплошная
 62
     7
370
    25
100
AcDbSpline
210
0.0
220
0.0
230
1.0
 70
     8
 71
     3
 72
    16
 73
    12
 74
     0
 42
0.00000001
 43
0.00000001
 40
0.0
 40
0.0
 40
0.0
 40
0.0
 40
0.1249999999999957
 40
0.1249999999999957
 40
0.2499999999999913
 40
0.2499999999999913
 40
0.4999999999999942
 40
0.4999999999999942
 40
0.7499999999999971
 40
0.7499999999999971
 40
1.0
 40
1.0
 40
1.0
 40
1.0
 10
64.48462723631589
 20
154.1434283828578
 30
0.0
 10
64.51960940157383
 20
154.1442025101078
 30
0.0
 10
64.55468552719212
 20
154.1455766672204
 30
0.0
 10
64.62365964221529
 20
154.1574032995804
 30
0.0
 10
64.65758164839137
 20
154.1668049771118
 30
0.0
 10
64.75524819410485
 20
154.2052139073921
 30
0.0
 10
64.81436014657868
 20
154.2457099298067
 30
0.0
 10
64.90978599105152
 20
154.3481657851906
 30
0.0
 10
64.94231679437993
 20
154.4120000877824
 30
0.0
 10
64.98463761225592
 20
154.5454509825626
 30
0.0
 10
64.98989523996673
 20
154.6160794777052
 30
0.0
 10
64.99083717221333
 20
154.6860966520886
 30
0.0
  0
SPLINE
  5
177
330
1F
100
AcDbEntity
  8
0
  6
SLD-Сплошная
 62
     7
370
    25
100
AcDbSpline
210
0.0
220
0.0
230
1.0
 70
     8
 71
     3
 72
    14
 73
    10
 74
     0
 42
0.00000001
 43
0.00000001
 40
0.0
 40
0.0
 40
0.0
 40
0.0
 40
0.25
 40
0.25
 40
0.5
 40
0.5
 40
0.75
 40
0.75
 40
1.0
 40
1.0
 40
1.0
 40
1.0
 10
65.18014005682873
 20
154.2247585110629
 30
0.0
 10
65.15279032237966
 20
154.1510993426556
 30
0.0
 10
65.1213036153447
 20
154.0786197252872
 30
0.0
 10
65.03640769879857
 20
153.9463898901041
 30
0.0
 10
64.9846408985288
 20
153.8857851746045
 30
0.0
 10
64.86096989275018
 20
153.7888468245076
 30
0.0
 10
64.79008314090373
 20
153.7517860510903
 30
0.0
 10
64.6401996075317
 20
153.7042426793793
 30
0.0
 10
64.56108789601159
 20
153.6979756596777
 30
0.0
 10
64.48252387093129
 20
153.6947104341398
 30
0.0
  0
SPLINE
  5
178
330
1F
100
AcDbEntity
  8
0
  6
SLD-Сплошная
 62
     7
370
    25
100
AcDbSpline
210
0.0
220
0.0
230
1.0
 70
     8
 71
     3
 72
    18
 73
    14
 74
     0
 42
0.00000001
 43
0.00000001
 40
0.0
 40
0.0
 40
0.0
 40
0.0
 40
0.1250000000000018
 40
0.1250000000000018
 40
0.2500000000000037
 40
0.2500000000000037
 40
0.5000000000000024
 40
0.5000000000000024
 40
0.7500000000000012
 40
0.7500000000000012
 40
0.8750000000000006
 40
0.8750000000000006
 40
1.0
 40
1.0
 40
1.0
 40
1.0
 10
64.48252387093129
 20
153.6947104341398
 30
0.0
 10
64.42084653460284
 20
153.6962627751522
 30
0.0
 10
64.35911375981654
 20
153.7001351911123
 30
0.0
 10
64.23819924476138
 20
153.724696407628
 30
0.0
 10
64.1789500497206
 20
153.7432199364899
 30
0.0
 10
64.0106903032091
 20
153.8201265258596
 30
0.0
 10
63.91121647942447
 20
153.8974628400003
 30
0.0
 10
63.74837871360223
 20
154.0828163898239
 30
0.0
 10
63.68868222951266
 20
154.1937037486442
 30
0.0
 10
63.63279095937144
 20
154.3701012616289
 30
0.0
 10
63.62024866672215
 20
154.430700328357
 30
0.0
 10
63.60360617980841
 20
154.5529397940331
 30
0.0
 10
63.60119533150537
 20
154.6146157286502
 30
0.0
 10
63.59981153118768
 20
154.6762809469604
 30
0.0
  0
SPLINE
  5
179
330
1F
100
AcDbEntity
  8
0
  6
SLD-Сплошная
 62
     7
370
    25
100
AcDbSpline
210
0.0
220
0.0
230
1.0
 70
     8
 71
     3
 72
    18
 73
    14
 74
     0
 42
0.00000001
 43
0.00000001
 40
0.0
 40
0.0
 40
0.0
 40
0.0
 40
0.124999999999997
 40
0.124999999999997
 40
0.2499999999999939
 40
0.2499999999999939
 40
0.4999999999999933
 40
0.4999999999999933
 40
0.7499999999999927
 40
0.7499999999999927
 40
0.8749999999999963
 40
0.8749999999999963
 40
1.0
 40
1.0
 40
1.0
 40
1.0
 10
63.59981153118768
 20
154.6762809469604
 30
0.0
 10
63.60121569129758
 20
154.7385945686606
 30
0.0
 10
63.60352438528061
 20
154.8009511831129
 30
0.0
 10
63.62057083098002
 20
154.9244487986564
 30
0.0
 10
63.63395550743454
 20
154.9855500925351
 30
0.0
 10
63.69106460947099
 20
155.1636028575329
 30
0.0
 10
63.75223338370647
 20
155.2752079181273
 30
0.0
 10
63.91708445996439
 20
155.4622820868127
 30
0.0
 10
64.01728899084787
 20
155.5410335160385
 30
0.0
 10
64.18708193957171
 20
155.6193362546295
 30
0.0
 10
64.24697374732067
 20
155.6380953997631
 30
0.0
 10
64.36894972663721
 20
155.6637910369375
 30
0.0
 10
64.43142090278113
 20
155.6674645955121
 30
0.0
 10
64.49374181964923
 20
155.6690694084988
 30
0.0
  0
SPLINE
  5
17A
330
1F
100
AcDbEntity
  8
0
  6
SLD-Сплошная
 62
     7
370
    25
100
AcDbSpline
210
0.0
220
0.0
230
1.0
 70
     8
 71
     3
 72
    16
 73
    12
 74
     0
 42
0.00000001
 43
0.00000001
 40
0.0
 40
0.0
 40
0.0
 40
0.0
 40
0.125000000000004
 40
0.125000000000004
 40
0.250000000000008
 40
0.250000000000008
 40
0.5000000000000053
 40
0.5000000000000053
 40
0.7500000000000027
 40
0.7500000000000027
 40
1.0
 40
1.0
 40
1.0
 40
1.0
 10
64.49374181964923
 20
155.6690694084988
 30
0.0
 10
64.5322685936413
 20
155.6677798989844
 30
0.0
 10
64.57079536785233
 20
155.6664903795375
 30
0.0
 10
64.64698130187206
 20
155.6561798108279
 30
0.0
 10
64.68464043338456
 20
155.6471680670282
 30
0.0
 10
64.79468864522771
 20
155.6116955732288
 30
0.0
 10
64.86420271777037
 20
155.5759333667519
 30
0.0
 10
64.98503420792339
 20
155.4803637990328
 30
0.0
 10
65.0362530320195
 20
155.421528283518
 30
0.0
 10
65.12070875691975
 20
155.2926549185112
 30
0.0
 10
65.15135917142426
 20
155.2216868938527
 30
0.0
 10
65.18014005682873
 20
155.1502392802937
 30
0.0
  0
SPLINE
  5
17B
330
1F
100
AcDbEntity
  8
0
  6
SLD-Сплошная
 62
     7
370
    25
100
AcDbSpline
210
0.0
220
0.0
230
1.0
 70
     8
 71
     3
 72
    14
 73
    10
 74
     0
 42
0.00000001
 43
0.00000001
 40
0.0
 40
0.0
 40
0.0
 40
0.0
 40
0.25
 40
0.25
 40
0.5
 40
0.5
 40
0.75
 40
0.75
 40
1.0
 40
1.0
 40
1.0
 40
1.0
 10
65.18014005682873
 20
155.1502392802937
 30
0.0
 10
65.21225341064941
 20
155.2448947456979
 30
0.0
 10
65.25393317917127
 20
155.3365197639542
 30
0.0
 10
65.36506036021572
 20
155.5025917111523
 30
0.0
 10
65.43537731345029
 20
155.575777892614
 30
0.0
 10
65.59757643196934
 20
155.6925480804041
 30
0.0
 10
65.68919140639268
 20
155.7355983254731
 30
0.0
 10
65.8809107918022
 20
155.7921480151299
 30
0.0
 10
65.98118204492748
 20
155.8015758215847
 30
0.0
 10
66.08108156323898
 20
155.8036847931142
 30
0.0
  0
SPLINE
  5
17C
330
1F
100
AcDbEntity
  8
0
  6
SLD-Сплошная
 62
     7
370
    25
100
AcDbSpline
210
0.0
220
0.0
230
1.0
 70
     8
 71
     3
 72
    18
 73
    14
 74
     0
 42
0.00000001
 43
0.00000001
 40
0.0
 40
0.0
 40
0.0
 40
0.0
 40
0.1249999999999999
 40
0.1249999999999999
 40
0.2499999999999998
 40
0.2499999999999998
 40
0.4999999999999996
 40
0.4999999999999996
 40
0.7499999999999993
 40
0.7499999999999993
 40
0.8749999999999997
 40
0.8749999999999997
 40
1.0
 40
1.0
 40
1.0
 40
1.0
 10
66.08108156323898
 20
155.8036847931142
 30
0.0
 10
66.15330941405449
 20
155.8019322093708
 30
0.0
 10
66.2255083878428
 20
155.7974105144322
 30
0.0
 10
66.3675596215687
 20
155.7708806216118
 30
0.0
 10
66.4373144304388
 20
155.7509043044962
 30
0.0
 10
66.63726491056292
 20
155.6673290478211
 30
0.0
 10
66.75778653077863
 20
155.5818241484868
 30
0.0
 10
66.95502864370722
 20
155.3708166625913
 30
0.0
 10
67.03136125344145
 20
155.2445669075794
 30
0.0
 10
67.10241884715889
 20
155.0398822171306
 30
0.0
 10
67.1189572622001
 20
154.9692635978568
 30
0.0
 10
67.14005582207864
 20
154.8263532703282
 30
0.0
 10
67.14297351224802
 20
154.7540919215178
 30
0.0
 10
67.14468332605948
 20
154.6818899213193
 30
0.0
  0
SPLINE
  5
17D
330
1F
100
AcDbEntity
  8
0
  6
SLD-Сплошная
 62
     7
370
    25
100
AcDbSpline
210
0.0
220
0.0
230
1.0
 70
     8
 71
     3
 72
    18
 73
    14
 74
     0
 42
0.00000001
 43
0.00000001
 40
0.0
 40
0.0
 40
0.0
 40
0.0
 40
0.1249999999999994
 40
0.1249999999999994
 40
0.2499999999999989
 40
0.2499999999999989
 40
0.4999999999999978
 40
0.4999999999999978
 40
0.7499999999999967
 40
0.7499999999999967
 40
0.8749999999999983
 40
0.8749999999999983
 40
1.0
 40
1.0
 40
1.0
 40
1.0
 10
67.14468332605948
 20
154.6818899213193
 30
0.0
 10
67.14292611409226
 20
154.609256513962
 30
0.0
 10
67.14016303707498
 20
154.5365160548023
 30
0.0
 10
67.11857557177602
 20
154.3928007451948
 30
0.0
 10
67.100917430976
 20
154.3220136220754
 30
0.0
 10
67.02948114260806
 20
154.116075574704
 30
0.0
 10
66.95245190348662
 20
153.989029966067
 30
0.0
 10
66.75083310493959
 20
153.7796222317847
 30
0.0
 10
66.62977701454126
 20
153.6937156286705
 30
0.0
 10
66.42794392714207
 20
153.6113911665308
 30
0.0
 10
66.35749477438719
 20
153.5921708930578
 30
0.0
 10
66.21448839126012
 20
153.5660595875145
 30
0.0
 10
66.14182876530322
 20
153.5617838733081
 30
0.0
 10
66.06916249272614
 20
153.5600950495244
 30
0.0
  0
SPLINE
  5
17E
330
1F
100
AcDbEntity
  8
0
  6
SLD-Сплошная
 62
     7
370
    25
100
AcDbSpline
210
0.0
220
0.0
230
1.0
 70
     8
 71
     3
 72
    16
 73
    12
 74
     0
 42
0.00000001
 43
0.00000001
 40
0.0
 40
0.0
 40
0.0
 40
0.0
 40
0.125
 40
0.125
 40
0.25
 40
0.25
 40
0.5
 40
0.5
 40
0.75
 40
0.75
 40
1.0
 40
1.0
 40
1.0
 40
1.0
 10
66.06916249272614
 20
153.5600950495244
 30
0.0
 10
66.01895030553706
 20
153.561183597858
 30
0.0
 10
65.96865353443603
 20
153.5625978398929
 30
0.0
 10
65.86894644743576
 20
153.5748410789892
 30
0.0
 10
65.81967688979304
 20
153.5853511009319
 30
0.0
 10
65.67444547136702
 20
153.6255158743628
 30
0.0
 10
65.58223217945364
 20
153.6693719489352
 30
0.0
 10
65.4205338399298
 20
153.78862541711
 30
0.0
 10
65.35014038208683
 20
153.8629436506224
 30
0.0
 10
65.24382864776653
 20
154.0333355398598
 30
0.0
 10
65.20749888761812
 20
154.1280804032505
 30
0.0
 10
65.18014005682873
 20
154.2247585110629
 30
0.0
  0
LINE
  5
17F
330
1F
100
AcDbEntity
  8
0
  6
SLD-Сплошная
 62
     7
370
    25
100
AcDbLine
 10
67.0998115312
 20
152.4383001777
 30
0.0
 11
67.0998115312
 21
151.989582229
 31
0.0
  0
SPLINE
  5
180
330
1F
100
AcDbEntity
  8
0
  6
SLD-Сплошная
 62
     7
370
    25
100
AcDbSpline
210
0.0
220
0.0
230
1.0
 70
     8
 71
     3
 72
    14
 73
    10
 74
     0
 42
0.00000001
 43
0.00000001
 40
0.0
 40
0.0
 40
0.0
 40
0.0
 40
0.25
 40
0.25
 40
0.5
 40
0.5
 40
0.75
 40
0.75
 40
1.0
 40
1.0
 40
1.0
 40
1.0
 10
64.37244774913638
 20
151.9895822290117
 30
0.0
 10
64.42822559351013
 20
151.9317353384331
 30
0.0
 10
64.48158553498085
 20
151.871585623034
 30
0.0
 10
64.57876147349087
 20
151.7436072571677
 30
0.0
 10
64.62418761889644
 20
151.6772619794717
 30
0.0
 10
64.70907659201433
 20
151.540856991013
 30
0.0
 10
64.74922792962005
 20
151.4712290339844
 30
0.0
 10
64.82498144836211
 20
151.3295463052754
 30
0.0
 10
64.85790370819097
 20
151.2561907234626
 30
0.0
 10
64.88847339016203
 20
151.1818899213193
 30
0.0
  0
LINE
  5
181
330
1F
100
AcDbEntity
  8
0
  6
SLD-Сплошная
 62
     7
370
    25
100
AcDbLine
 10
64.8884733902
 20
151.1818899213
 30
0.0
 11
64.4748115312
 21
151.1818899213
 31
0.0
  0
SPLINE
  5
182
330
1F
100
AcDbEntity
  8
0
  6
SLD-Сплошная
 62
     7
370
    25
100
AcDbSpline
210
0.0
220
0.0
230
1.0
 70
     8
 71
     3
 72
    16
 73
    12
 74
     0
 42
0.00000001
 43
0.00000001
 40
0.0
 40
0.0
 40
0.0
 40
0.0
 40
0.2500000000000006
 40
0.2500000000000006
 40
0.5000000000000012
 40
0.5000000000000012
 40
0.7500000000000018
 40
0.7500000000000018
 40
0.8750000000000009
 40
0.8750000000000009
 40
1.0
 40
1.0
 40
1.0
 40
1.0
 10
64.47481153118768
 20
151.1818899213193
 30
0.0
 10
64.42420617343802
 20
151.2801523699094
 30
0.0
 10
64.37192382424746
 20
151.3776165352253
 30
0.0
 10
64.25063035491047
 20
151.5624380156854
 30
0.0
 10
64.18397071245155
 20
151.6508676606345
 30
0.0
 10
64.03835690173668
 20
151.8171544104594
 30
0.0
 10
63.96035884156031
 20
151.8958890782125
 30
0.0
 10
63.83309598234455
 20
152.0021324409233
 30
0.0
 10
63.78935903873639
 20
152.0362178946995
 30
0.0
 10
63.69757019759853
 20
152.0976917750933
 30
0.0
 10
63.64877495517619
 20
152.1237173450925
 30
0.0
 10
63.59981153118768
 20
152.1494379982424
 30
0.0
  0
LINE
  5
183
330
1F
100
AcDbEntity
  8
0
  6
SLD-Сплошная
 62
     7
370
    25
100
AcDbLine
 10
63.5998115312
 20
152.1494379982
 30
0.0
 11
63.5998115312
 21
152.4383001777
 31
0.0
  0
LINE
  5
184
330
1F
100
AcDbEntity
  8
0
  6
SLD-Сплошная
 62
     7
370
    25
100
AcDbLine
 10
63.5998115312
 20
152.4383001777
 30
0.0
 11
67.0998115312
 21
152.4383001777
 31
0.0
  0
LINE
  5
185
330
1F
100
AcDbEntity
  8
0
  6
SLD-Сплошная
 62
     7
370
    25
100
AcDbLine
 10
67.0998115312
 20
151.989582229
 30
0.0
 11
64.3724477491
 21
151.989582229
 31
0.0
  0
ARC
  5
186
330
1F
100
AcDbEntity
  8
0
  6
SLD-Сплошная
 62
     7
370
    25
100
AcDbCircle
 10
83.5998115312
 20
147.4857360752
 30
0.0
 40
2.900000000000006
100
AcDbArc
 50
180.0
 51
0.0
  0
ARC
  5
187
330
1F
100
AcDbEntity
  8
0
  6
SLD-Сплошная
 62
     7
370
    25
100
AcDbCircle
 10
83.5998115312
 20
147.4857360752
 30
0.0
 40
2.900000000000006
100
AcDbArc
 50
0.0
 51
180.0
  0
ARC
  5
188
330
1F
100
AcDbEntity
  8
0
  6
SLD-Сплошная
 62
     7
370
    25
100
AcDbCircle
 10
75.8116569383
 20
154.2552112506
 30
0.0
 40
2.65000000000002
100
AcDbArc
 50
180.0
 51
0.0
  0
ARC
  5
189
330
1F
100
AcDbEntity
  8
0
  6
SLD-Сплошная
 62
     7
370
    25
100
AcDbCircle
 10
75.8116569383
 20
154.2552112506
 30
0.0
 40
2.65000000000002
100
AcDbArc
 50
0.0
 51
180.0
  0
ARC
  5
18A
330
1F
100
AcDbEntity
  8
0
  6
SLD-Сплошная
 62
     7
370
    25
100
AcDbCircle
 10
71.2053679264
 20
139.4685202387
 30
0.0
 40
2.650000000000006
100
AcDbArc
 50
180.0
 51
0.0
  0
ARC
  5
18B
330
1F
100
AcDbEntity
  8
0
  6
SLD-Сплошная
 62
     7
370
    25
100
AcDbCircle
 10
71.2053679264
 20
139.4685202387
 30
0.0
 40
2.650000000000006
100
AcDbArc
 50
0.0
 51
180.0
  0
ARC
  5
18C
330
1F
100
AcDbEntity
  8
0
  6
SLD-Сплошная
 62
     7
370
    25
100
AcDbCircle
 10
91.3879661241
 20
154.2552112506
 30
0.0
 40
2.650000000000006
100
AcDbArc
 50
180.0
 51
0.0
  0
ARC
  5
18D
330
1F
100
AcDbEntity
  8
0
  6
SLD-Сплошная
 62
     7
370
    25
100
AcDbCircle
 10
91.3879661241
 20
154.2552112506
 30
0.0
 40
2.650000000000006
100
AcDbArc
 50
0.0
 51
180.0
  0
ARC
  5
18E
330
1F
100
AcDbEntity
  8
0
  6
SLD-Сплошная
 62
     7
370
    25
100
AcDbCircle
 10
95.994255136
 20
139.4685202387
 30
0.0
 40
2.650000000000006
100
AcDbArc
 50
180.0
 51
0.0
  0
ARC
  5
18F
330
1F
100
AcDbEntity
  8
0
  6
SLD-Сплошная
 62
     7
370
    25
100
AcDbCircle
 10
95.994255136
 20
139.4685202387
 30
0.0
 40
2.650000000000006
100
AcDbArc
 50
0.0
 51
180.0
  0
ARC
  5
190
330
1F
100
AcDbEntity
  8
0
  6
SLD-Сплошная
 62
     7
370
    25
100
AcDbCircle
 10
83.5998115312
 20
144.3357360752
 30
0.0
 40
25.50000000000003
100
AcDbArc
 50
180.0
 51
0.0
  0
ARC
  5
191
330
1F
100
AcDbEntity
  8
0
  6
SLD-Сплошная
 62
     7
370
    25
100
AcDbCircle
 10
83.5998115312
 20
144.3357360752
 30
0.0
 40
25.50000000000003
100
AcDbArc
 50
0.0
 51
180.0
  0
ARC
  5
192
330
1F
100
AcDbEntity
  8
0
  6
SLD-Сплошная
 62
     7
370
    25
100
AcDbCircle
 10
95.994255136
 20
139.4685202387
 30
0.0
 40
1.750000000000005
100
AcDbArc
 50
345.0
 51
165.0
  0
ARC
  5
193
330
1F
100
AcDbEntity
  8
0
  6
SLD-Сплошная
 62
     7
370
    25
100
AcDbCircle
 10
95.994255136
 20
139.4685202387
 30
0.0
 40
1.750000000000005
100
AcDbArc
 50
165.0
 51
345.0
  0
ARC
  5
194
330
1F
100
AcDbEntity
  8
0
  6
SLD-Сплошная
 62
     7
370
    25
100
AcDbCircle
 10
91.3879661241
 20
154.2552112506
 30
0.0
 40
1.75
100
AcDbArc
 50
0.0
 51
180.0
  0
ARC
  5
195
330
1F
100
AcDbEntity
  8
0
  6
SLD-Сплошная
 62
     7
370
    25
100
AcDbCircle
 10
91.3879661241
 20
154.2552112506
 30
0.0
 40
1.75
100
AcDbArc
 50
180.0
 51
0.0
  0
ARC
  5
196
330
1F
100
AcDbEntity
  8
0
  6
SLD-Сплошная
 62
     7
370
    25
100
AcDbCircle
 10
75.8116569383
 20
154.2552112506
 30
0.0
 40
1.75
100
AcDbArc
 50
0.0
 51
180.0
  0
ARC
  5
197
330
1F
100
AcDbEntity
  8
0
  6
SLD-Сплошная
 62
     7
370
    25
100
AcDbCircle
 10
75.8116569383
 20
154.2552112506
 30
0.0
 40
1.75
100
AcDbArc
 50
180.0
 51
0.0
  0
ARC
  5
198
330
1F
100
AcDbEntity
  8
0
  6
SLD-Сплошная
 62
     7
370
    25
100
AcDbCircle
 10
71.2053679264
 20
139.4685202387
 30
0.0
 40
1.749999999999991
100
AcDbArc
 50
195.0
 51
15.0
  0
ARC
  5
199
330
1F
100
AcDbEntity
  8
0
  6
SLD-Сплошная
 62
     7
370
    25
100
AcDbCircle
 10
71.2053679264
 20
139.4685202387
 30
0.0
 40
1.749999999999991
100
AcDbArc
 50
15.0
 51
195.0
  0
LINE
  5
19A
330
1F
100
AcDbEntity
  8
0
  6
SLD-Сплошная
 62
     7
370
    25
100
AcDbLine
 10
83.5998115312
 20
145.2857360752
 30
0.0
 11
84.0998115312
 21
145.2857360752
 31
0.0
  0
LINE
  5
19B
330
1F
100
AcDbEntity
  8
0
  6
SLD-Сплошная
 62
     7
370
    25
100
AcDbLine
 10
84.0998115312
 20
145.2857360752
 30
0.0
 11
83.8998115312
 21
146.1657360752
 31
0.0
  0
LINE
  5
19C
330
1F
100
AcDbEntity
  8
0
  6
SLD-Сплошная
 62
     7
370
    25
100
AcDbLine
 10
83.8998115312
 20
146.1657360752
 30
0.0
 11
84.273157443
 21
146.8123901633
 31
0.0
  0
LINE
  5
19D
330
1F
100
AcDbEntity
  8
0
  6
SLD-Сплошная
 62
     7
370
    25
100
AcDbLine
 10
84.273157443
 20
146.8123901633
 30
0.0
 11
84.5734013697
 21
146.9857360752
 31
0.0
  0
LINE
  5
19E
330
1F
100
AcDbEntity
  8
0
  6
SLD-Сплошная
 62
     7
370
    25
100
AcDbLine
 10
86.354806994
 20
146.9857360752
 30
0.0
 11
84.5734013697
 21
146.9857360752
 31
0.0
  0
ARC
  5
19F
330
1F
100
AcDbEntity
  8
0
  6
SLD-Сплошная
 62
     7
370
    25
100
AcDbCircle
 10
83.5998115312
 20
147.4857360752
 30
0.0
 40
2.800000000000018
100
AcDbArc
 50
270.0
 51
349.7134393885
  0
LINE
  5
1A0
330
1F
100
AcDbEntity
  8
0
  6
SLD-Сплошная
 62
     7
370
    25
100
AcDbLine
 10
84.5734013697
 20
147.9857360752
 30
0.0
 11
86.354806994
 21
147.9857360752
 31
0.0
  0
LINE
  5
1A1
330
1F
100
AcDbEntity
  8
0
  6
SLD-Сплошная
 62
     7
370
    25
100
AcDbLine
 10
84.5734013697
 20
147.9857360752
 30
0.0
 11
84.273157443
 21
148.159081987
 31
0.0
  0
LINE
  5
1A2
330
1F
100
AcDbEntity
  8
0
  6
SLD-Сплошная
 62
     7
370
    25
100
AcDbLine
 10
84.273157443
 20
148.159081987
 30
0.0
 11
83.8998115312
 21
148.8057360752
 31
0.0
  0
LINE
  5
1A3
330
1F
100
AcDbEntity
  8
0
  6
SLD-Сплошная
 62
     7
370
    25
100
AcDbLine
 10
83.8998115312
 20
148.8057360752
 30
0.0
 11
84.0998115312
 21
149.6857360752
 31
0.0
  0
LINE
  5
1A4
330
1F
100
AcDbEntity
  8
0
  6
SLD-Сплошная
 62
     7
370
    25
100
AcDbLine
 10
84.0998115312
 20
149.6857360752
 30
0.0
 11
83.5998115312
 21
149.6857360752
 31
0.0
  0
ARC
  5
1A5
330
1F
100
AcDbEntity
  8
0
  6
SLD-Сплошная
 62
     7
370
    25
100
AcDbCircle
 10
83.5998115312
 20
147.4857360752
 30
0.0
 40
2.800000000000018
100
AcDbArc
 50
10.2865606115
 51
90.0
  0
LINE
  5
1A6
330
1F
100
AcDbEntity
  8
0
  6
SLD-Сплошная
 62
     7
370
    25
100
AcDbLine
 10
83.5998115312
 20
149.6857360752
 30
0.0
 11
83.0998115312
 21
149.6857360752
 31
0.0
  0
LINE
  5
1A7
330
1F
100
AcDbEntity
  8
0
  6
SLD-Сплошная
 62
     7
370
    25
100
AcDbLine
 10
83.0998115312
 20
149.6857360752
 30
0.0
 11
83.2998115312
 21
148.8057360752
 31
0.0
  0
LINE
  5
1A8
330
1F
100
AcDbEntity
  8
0
  6
SLD-Сплошная
 62
     7
370
    25
100
AcDbLine
 10
83.2998115312
 20
148.8057360752
 30
0.0
 11
82.9264656193
 21
148.159081987
 31
0.0
  0
LINE
  5
1A9
330
1F
100
AcDbEntity
  8
0
  6
SLD-Сплошная
 62
     7
370
    25
100
AcDbLine
 10
82.9264656193
 20
148.159081987
 30
0.0
 11
82.6262216927
 21
147.9857360752
 31
0.0
  0
LINE
  5
1AA
330
1F
100
AcDbEntity
  8
0
  6
SLD-Сплошная
 62
     7
370
    25
100
AcDbLine
 10
80.8448160684
 20
147.9857360752
 30
0.0
 11
82.6262216927
 21
147.9857360752
 31
0.0
  0
ARC
  5
1AB
330
1F
100
AcDbEntity
  8
0
  6
SLD-Сплошная
 62
     7
370
    25
100
AcDbCircle
 10
83.5998115312
 20
147.4857360752
 30
0.0
 40
2.800000000000018
100
AcDbArc
 50
90.0
 51
169.7134393885
  0
LINE
  5
1AC
330
1F
100
AcDbEntity
  8
0
  6
SLD-Сплошная
 62
     7
370
    25
100
AcDbLine
 10
82.6262216927
 20
146.9857360752
 30
0.0
 11
80.8448160684
 21
146.9857360752
 31
0.0
  0
LINE
  5
1AD
330
1F
100
AcDbEntity
  8
0
  6
SLD-Сплошная
 62
     7
370
    25
100
AcDbLine
 10
82.6262216927
 20
146.9857360752
 30
0.0
 11
82.9264656193
 21
146.8123901633
 31
0.0
  0
LINE
  5
1AE
330
1F
100
AcDbEntity
  8
0
  6
SLD-Сплошная
 62
     7
370
    25
100
AcDbLine
 10
83.2998115312
 20
146.1657360752
 30
0.0
 11
83.0998115312
 21
145.2857360752
 31
0.0
  0
LINE
  5
1AF
330
1F
100
AcDbEntity
  8
0
  6
SLD-Сплошная
 62
     7
370
    25
100
AcDbLine
 10
83.0998115312
 20
145.2857360752
 30
0.0
 11
83.5998115312
 21
145.2857360752
 31
0.0
  0
ARC
  5
1B0
330
1F
100
AcDbEntity
  8
0
  6
SLD-Сплошная
 62
     7
370
    25
100
AcDbCircle
 10
83.5998115312
 20
147.4857360752
 30
0.0
 40
2.800000000000018
100
AcDbArc
 50
190.2865606115
 51
270.0
  0
LINE
  5
1B1
330
1F
100
AcDbEntity
  8
0
  6
SLD-Сплошная
 62
     7
370
    25
100
AcDbLine
 10
82.9264656193
 20
146.8123901633
 30
0.0
 11
83.2998115312
 21
146.1657360752
 31
0.0
  0
ARC
  5
1B2
330
1F
100
AcDbEntity
  8
0
  6
SLD-Сплошная
 62
     7
370
    25
100
AcDbCircle
 10
54.5998115312
 20
110.8131382599
 30
0.0
 40
2.250785424654905
100
AcDbArc
 50
1.5136848982
 51
178.4863151018
  0
ARC
  5
1B3
330
1F
100
AcDbEntity
  8
0
  6
SLD-Сплошная
 62
     7
370
    25
100
AcDbCircle
 10
54.5998115312
 20
110.93205046
 30
0.0
 40
2.250785424654905
100
AcDbArc
 50
181.5136848982
 51
358.4863151018
  0
ARC
  5
1B4
330
1F
100
AcDbEntity
  8
0
  6
SLD-Сплошная
 62
     7
370
    25
100
AcDbCircle
 10
112.5998115312
 20
173.5983169686
 30
0.0
 40
2.250785424654904
100
AcDbArc
 50
1.5136848982
 51
178.4863151018
  0
ARC
  5
1B5
330
1F
100
AcDbEntity
  8
0
  6
SLD-Сплошная
 62
     7
370
    25
100
AcDbCircle
 10
112.5998115312
 20
173.7172291688
 30
0.0
 40
2.250785424654905
100
AcDbArc
 50
181.5136848982
 51
358.4863151018
  0
ARC
  5
1B6
330
1F
100
AcDbEntity
  8
0
  6
SLD-Сплошная
 62
     7
370
    25
100
AcDbCircle
 10
54.5998115312
 20
173.5983169686
 30
0.0
 40
2.250785424654904
100
AcDbArc
 50
1.5136848982
 51
178.4863151018
  0
ARC
  5
1B7
330
1F
100
AcDbEntity
  8
0
  6
SLD-Сплошная
 62
     7
370
    25
100
AcDbCircle
 10
54.5998115312
 20
173.7172291688
 30
0.0
 40
2.250785424654905
100
AcDbArc
 50
181.5136848982
 51
358.4863151018
  0
ARC
  5
1B8
330
1F
100
AcDbEntity
  8
0
  6
SLD-Сплошная
 62
     7
370
    25
100
AcDbCircle
 10
112.5998115312
 20
110.8131382599
 30
0.0
 40
2.250785424654906
100
AcDbArc
 50
1.5136848982
 51
178.4863151018
  0
ARC
  5
1B9
330
1F
100
AcDbEntity
  8
0
  6
SLD-Сплошная
 62
     7
370
    25
100
AcDbCircle
 10
112.5998115312
 20
110.93205046
 30
0.0
 40
2.250785424654905
100
AcDbArc
 50
181.5136848982
 51
358.4863151018
  0
SPLINE
  5
1BA
330
1F
100
AcDbEntity
  8
0
  6
SLD-Сплошная
 62
     7
370
    25
100
AcDbSpline
210
0.0
220
0.0
230
1.0
 70
     8
 71
     3
 72
    34
 73
    30
 74
     0
 42
0.00000001
 43
0.00000001
 40
0.0
 40
0.0
 40
0.0
 40
0.0
 40
0.1250000000000004
 40
0.1250000000000004
 40
0.1875000000000005
 40
0.1875000000000005
 40
0.2500000000000006
 40
0.2500000000000006
 40
0.3125000000000006
 40
0.3125000000000006
 40
0.3750000000000007
 40
0.3750000000000007
 40
0.4375000000000006
 40
0.4375000000000006
 40
0.5000000000000006
 40
0.5000000000000006
 40
0.5625000000000007
 40
0.5625000000000007
 40
0.6250000000000006
 40
0.6250000000000006
 40
0.6875000000000006
 40
0.6875000000000006
 40
0.7500000000000006
 40
0.7500000000000006
 40
0.8125000000000004
 40
0.8125000000000004
 40
0.8750000000000002
 40
0.8750000000000002
 40
1.0
 40
1.0
 40
1.0
 40
1.0
 10
111.0661659483127
 20
161.9885510074323
 30
0.0
 10
109.8286507074001
 20
163.9140247822336
 30
0.0
 10
108.314279287089
 20
165.8227610154954
 30
0.0
 10
105.5937971758961
 20
168.4998780994814
 30
0.0
 10
104.6127797214807
 20
169.3606901516576
 30
0.0
 10
102.5066733397751
 20
170.9876353554754
 30
0.0
 10
101.3815487902008
 20
171.7536836232657
 30
0.0
 10
98.99999637746313
 20
173.1587882105569
 30
0.0
 10
97.74356604820936
 20
173.7977413914713
 30
0.0
 10
95.12136252657477
 20
174.9185647827343
 30
0.0
 10
93.75562943248609
 20
175.4003292655395
 30
0.0
 10
90.9454385759426
 20
176.1821071501738
 30
0.0
 10
89.5010640652741
 20
176.4820328263383
 30
0.0
 10
86.57100771655388
 20
176.8838722662531
 30
0.0
 10
85.08544156489218
 20
176.9857360751653
 30
0.0
 10
82.11418149748292
 20
176.9857360751653
 30
0.0
 10
80.62861534582122
 20
176.8838722662531
 30
0.0
 10
77.698558997101
 20
176.4820328263383
 30
0.0
 10
76.25418448643251
 20
176.1821071501738
 30
0.0
 10
73.44399362988904
 20
175.4003292655395
 30
0.0
 10
72.07826053580033
 20
174.9185647827343
 30
0.0
 10
69.45605701416574
 20
173.7977413914713
 30
0.0
 10
68.19962668491195
 20
173.1587882105569
 30
0.0
 10
65.81807427217431
 20
171.7536836232656
 30
0.0
 10
64.69294972259998
 20
170.9876353554754
 30
0.0
 10
62.58684334089437
 20
169.3606901516576
 30
0.0
 10
61.605825886479
 20
168.4998780994814
 30
0.0
 10
58.88534377528607
 20
165.8227610154954
 30
0.0
 10
57.37097235497502
 20
163.9140247822336
 30
0.0
 10
56.13345711406238
 20
161.9885510074323
 30
0.0
  0
LINE
  5
1BB
330
1F
100
AcDbEntity
  8
0
  6
SLD-Сплошная
 62
     7
370
    25
100
AcDbLine
 10
121.0998115312
 20
178.4874022002
 30
0.0
 11
121.0998115312
 21
106.0429652285
 31
0.0
  0
ARC
  5
1BC
330
1F
100
AcDbEntity
  8
0
  6
SLD-Сплошная
 62
     7
370
    25
100
AcDbCircle
 10
116.1835456538
 20
106.1296531712
 30
0.0
 40
4.917030097156963
100
AcDbArc
 50
269.0242395005
 51
358.9898148908
  0
LINE
  5
1BD
330
1F
100
AcDbEntity
  8
0
  6
SLD-Сплошная
 62
     7
370
    25
100
AcDbLine
 10
116.0998115312
 20
101.2133360971
 30
0.0
 11
51.0998115312
 21
101.2133360971
 31
0.0
  0
ARC
  5
1BE
330
1F
100
AcDbEntity
  8
0
  6
SLD-Сплошная
 62
     7
370
    25
100
AcDbCircle
 10
51.0160774086
 20
106.1296531712
 30
0.0
 40
4.917030097156928
100
AcDbArc
 50
181.0101851092
 51
270.9757604995
  0
LINE
  5
1BF
330
1F
100
AcDbEntity
  8
0
  6
SLD-Сплошная
 62
     7
370
    25
100
AcDbLine
 10
46.0998115312
 20
106.0429652285
 30
0.0
 11
46.0998115312
 21
178.4874022002
 31
0.0
  0
ARC
  5
1C0
330
1F
100
AcDbEntity
  8
0
  6
SLD-Сплошная
 62
     7
370
    25
100
AcDbCircle
 10
51.0160774086
 20
178.4007142575
 30
0.0
 40
4.917030097157005
100
AcDbArc
 50
89.0242395005
 51
178.9898148908
  0
LINE
  5
1C1
330
1F
100
AcDbEntity
  8
0
  6
SLD-Сплошная
 62
     7
370
    25
100
AcDbLine
 10
51.0998115312
 20
183.3170313316
 30
0.0
 11
116.0998115312
 21
183.3170313316
 31
0.0
  0
ARC
  5
1C2
330
1F
100
AcDbEntity
  8
0
  6
SLD-Сплошная
 62
     7
370
    25
100
AcDbCircle
 10
116.1835456538
 20
178.4007142575
 30
0.0
 40
4.917030097157036
100
AcDbArc
 50
1.0101851092
 51
90.9757604995
  0
LINE
  5
1C3
330
1F
100
AcDbEntity
  8
0
  6
SLD-Сплошная
 62
     7
370
    25
100
AcDbLine
 10
121.0998115312
 20
178.4874022002
 30
0.0
 11
121.0998115312
 21
180.557954561
 31
0.0
  0
ARC
  5
1C4
330
1F
100
AcDbEntity
  8
0
  6
SLD-Сплошная
 62
     7
370
    25
100
AcDbCircle
 10
116.1835456538
 20
180.4712666184
 30
0.0
 40
4.91703009715692
100
AcDbArc
 50
1.0101851092
 51
90.9757604995
  0
LINE
  5
1C5
330
1F
100
AcDbEntity
  8
0
  6
SLD-Сплошная
 62
     7
370
    25
100
AcDbLine
 10
51.0998115312
 20
185.3875836925
 30
0.0
 11
116.0998115312
 21
185.3875836925
 31
0.0
  0
LINE
  5
1C6
330
1F
100
AcDbEntity
  8
0
  6
SLD-Сплошная
 62
     7
370
    25
100
AcDbLine
 10
46.0998115312
 20
178.4874022002
 30
0.0
 11
46.0998115312
 21
180.557954561
 31
0.0
  0
ARC
  5
1C7
330
1F
100
AcDbEntity
  8
0
  6
SLD-Сплошная
 62
     7
370
    25
100
AcDbCircle
 10
51.0160774086
 20
180.4712666184
 30
0.0
 40
4.917030097157035
100
AcDbArc
 50
89.0242395005
 51
178.9898148908
  0
ARC
  5
1C8
330
1F
100
AcDbEntity
  8
0
  6
SLD-Сплошная
 62
     7
370
    25
100
AcDbCircle
 10
83.5998115312
 20
147.4857360752
 30
0.0
 40
2.800000000000004
100
AcDbArc
 50
0.0
 51
10.2865606115
  0
ARC
  5
1C9
330
1F
100
AcDbEntity
  8
0
  6
SLD-Сплошная
 62
     7
370
    25
100
AcDbCircle
 10
83.5998115312
 20
147.4857360752
 30
0.0
 40
2.799999999999997
100
AcDbArc
 50
169.7134393885
 51
180.0
  0
ARC
  5
1CA
330
1F
100
AcDbEntity
  8
0
  6
SLD-Сплошная
 62
     7
370
    25
100
AcDbCircle
 10
83.5998115312
 20
147.4857360752
 30
0.0
 40
2.799999999999997
100
AcDbArc
 50
180.0
 51
190.2865606115
  0
ARC
  5
1CB
330
1F
100
AcDbEntity
  8
0
  6
SLD-Сплошная
 62
     7
370
    25
100
AcDbCircle
 10
83.5998115312
 20
147.4857360752
 30
0.0
 40
2.800000000000004
100
AcDbArc
 50
349.7134393885
 51
0.0
  0
ARC
  5
1CC
330
1F
100
AcDbEntity
  8
0
  6
SLD-Сплошная
 62
     7
370
    25
100
AcDbCircle
 10
112.5998115312
 20
175.8305404731
 30
0.0
 40
2.282024971152084
100
AcDbArc
 50
209.8979655268
 51
330.1020344732
  0
ARC
  5
1CD
330
1F
100
AcDbEntity
  8
0
  6
SLD-Сплошная
 62
     7
370
    25
100
AcDbCircle
 10
54.5998115312
 20
175.8305404731
 30
0.0
 40
2.28202497115226
100
AcDbArc
 50
209.8979655269
 51
330.1020344731
  0
ARC
  5
1CE
330
1F
100
AcDbEntity
  8
0
  6
SLD-Сплошная
 62
     7
370
    25
100
AcDbCircle
 10
83.5998115312
 20
144.3357360752
 30
0.0
 40
32.65000000000002
100
AcDbArc
 50
180.0
 51
258.4396673831
  0
ARC
  5
1CF
330
1F
100
AcDbEntity
  8
0
  6
SLD-Сплошная
 62
     7
370
    25
100
AcDbCircle
 10
83.5998115312
 20
144.3357360752
 30
0.0
 40
32.65000000000002
100
AcDbArc
 50
147.2708660433
 51
180.0
  0
ARC
  5
1D0
330
1F
100
AcDbEntity
  8
0
  6
SLD-Сплошная
 62
     7
370
    25
100
AcDbCircle
 10
83.5998115312
 20
114.8357360752
 30
0.0
 40
7.000000000000016
100
AcDbArc
 50
200.8168186091
 51
339.1831813909
  0
ARC
  5
1D1
330
1F
100
AcDbEntity
  8
0
  6
SLD-Сплошная
 62
     7
370
    25
100
AcDbCircle
 10
83.5998115312
 20
144.3357360752
 30
0.0
 40
32.65000000000001
100
AcDbArc
 50
281.5603326169
 51
32.7291339567
  0
LINE
  5
1D2
330
1F
100
AcDbEntity
  8
0
  6
SLD-Сплошная
 62
     7
370
    25
100
AcDbLine
 10
93.5998115312
 20
187.6679308708
 30
0.0
 11
93.5998115312
 21
185.3875836925
 31
0.0
  0
LINE
  5
1D3
330
1F
100
AcDbEntity
  8
0
  6
SLD-Сплошная
 62
     7
370
    25
100
AcDbLine
 10
97.8998115312
 20
185.3875836925
 30
0.0
 11
97.8998115312
 21
189.2172750103
 31
0.0
  0
LINE
  5
1D4
330
1F
100
AcDbEntity
  8
0
  6
SLD-Сплошная
 62
     7
370
    25
100
AcDbLine
 10
69.2998115312
 20
185.3875836925
 30
0.0
 11
69.2998115312
 21
189.2172750103
 31
0.0
  0
LINE
  5
1D5
330
1F
100
AcDbEntity
  8
0
  6
SLD-Сплошная
 62
     7
370
    25
100
AcDbLine
 10
73.5998115312
 20
185.3875836925
 30
0.0
 11
73.5998115312
 21
187.6679308708
 31
0.0
  0
ARC
  5
1D6
330
1F
100
AcDbEntity
  8
0
  6
SLD-Сплошная
 62
     7
370
    25
100
AcDbCircle
 10
112.5998115312
 20
113.0453617643
 30
0.0
 40
2.282024971152099
100
AcDbArc
 50
209.8979655268
 51
330.1020344732
  0
ARC
  5
1D7
330
1F
100
AcDbEntity
  8
0
  6
SLD-Сплошная
 62
     7
370
    25
100
AcDbCircle
 10
54.5998115312
 20
113.0453617643
 30
0.0
 40
2.282024971152107
100
AcDbArc
 50
209.8979655268
 51
330.1020344732
  0
LINE
  5
1D8
330
1F
100
AcDbEntity
  8
0
  6
SLD-Сплошная
 62
     7
370
    25
100
AcDbLine
 10
93.5998115312
 20
189.6857360752
 30
0.0
 11
93.5998115312
 21
189.4200895345
 31
0.0
  0
LINE
  5
1D9
330
1F
100
AcDbEntity
  8
0
  6
SLD-Сплошная
 62
     7
370
    25
100
AcDbLine
 10
97.8998115312
 20
189.2172750103
 30
0.0
 11
97.8998115312
 21
189.6857360752
 31
0.0
  0
LINE
  5
1DA
330
1F
100
AcDbEntity
  8
0
  6
SLD-Сплошная
 62
     7
370
    25
100
AcDbLine
 10
73.5998115312
 20
189.6857360752
 30
0.0
 11
73.5998115312
 21
189.4200895345
 31
0.0
  0
LINE
  5
1DB
330
1F
100
AcDbEntity
  8
0
  6
SLD-Сплошная
 62
     7
370
    25
100
AcDbLine
 10
69.2998115312
 20
189.2172750103
 30
0.0
 11
69.2998115312
 21
189.6857360752
 31
0.0
  0
LINE
  5
1DC
330
1F
100
AcDbEntity
  8
0
  6
SLD-Сплошная
 62
     7
370
    25
100
AcDbLine
 10
74.0616569383
 20
154.3223362974
 30
0.0
 11
77.2258705007
 21
154.3223362974
 31
0.0
  0
LINE
  5
1DD
330
1F
100
AcDbEntity
  8
0
  6
SLD-Сплошная
 62
     7
370
    25
100
AcDbLine
 10
77.2258705007
 20
154.3223362974
 30
0.0
 11
77.5616569383
 21
154.3223362974
 31
0.0
  0
LINE
  5
1DE
330
1F
100
AcDbEntity
  8
0
  6
SLD-Сплошная
 62
     7
370
    25
100
AcDbLine
 10
69.4976244898
 20
139.080424726
 30
0.0
 11
72.5540200896
 21
139.8993834588
 31
0.0
  0
LINE
  5
1DF
330
1F
100
AcDbEntity
  8
0
  6
SLD-Сплошная
 62
     7
370
    25
100
AcDbLine
 10
72.5540200896
 20
139.8993834588
 30
0.0
 11
72.8783648818
 21
139.9862913839
 31
0.0
  0
LINE
  5
1E0
330
1F
100
AcDbEntity
  8
0
  6
SLD-Сплошная
 62
     7
370
    25
100
AcDbLine
 10
89.6379661241
 20
154.3223362974
 30
0.0
 11
92.8021796864
 21
154.3223362974
 31
0.0
  0
LINE
  5
1E1
330
1F
100
AcDbEntity
  8
0
  6
SLD-Сплошная
 62
     7
370
    25
100
AcDbLine
 10
92.8021796864
 20
154.3223362974
 30
0.0
 11
93.1379661241
 21
154.3223362974
 31
0.0
  0
LINE
  5
1E2
330
1F
100
AcDbEntity
  8
0
  6
SLD-Сплошная
 62
     7
370
    25
100
AcDbLine
 10
94.3212581805
 20
139.9862913839
 30
0.0
 11
97.3776537803
 21
139.1673326512
 31
0.0
  0
LINE
  5
1E3
330
1F
100
AcDbEntity
  8
0
  6
SLD-Сплошная
 62
     7
370
    25
100
AcDbLine
 10
97.3776537803
 20
139.1673326512
 30
0.0
 11
97.7019985725
 21
139.080424726
 31
0.0
  0
LINE
  5
1E4
330
1F
100
AcDbEntity
  8
0
  6
SLD-Сплошная
 62
     7
370
    25
100
AcDbLine
 10
81.8498115312
 20
130.352861122
 30
0.0
 11
85.0140250936
 21
130.352861122
 31
0.0
  0
LINE
  5
1E5
330
1F
100
AcDbEntity
  8
0
  6
SLD-Сплошная
 62
     7
370
    25
100
AcDbLine
 10
85.0140250936
 20
130.352861122
 30
0.0
 11
85.3498115312
 21
130.352861122
 31
0.0
  0
LINE
  5
1E6
330
1F
100
AcDbEntity
  8
0
  6
SLD-Сплошная
 62
     7
370
    25
100
AcDbLine
 10
73.5998115312
 20
187.6679308708
 30
0.0
 11
73.5998115312
 21
189.4200895345
 31
0.0
  0
LINE
  5
1E7
330
1F
100
AcDbEntity
  8
0
  6
SLD-Сплошная
 62
     7
370
    25
100
AcDbLine
 10
78.6087000816
 20
189.4200895345
 30
0.0
 11
73.5998115312
 21
189.4200895345
 31
0.0
  0
LINE
  5
1E8
330
1F
100
AcDbEntity
  8
0
  6
SLD-Сплошная
 62
     7
370
    25
100
AcDbLine
 10
93.5998115312
 20
189.4200895345
 30
0.0
 11
88.5998115312
 21
189.4200895345
 31
0.0
  0
LINE
  5
1E9
330
1F
100
AcDbEntity
  8
0
  6
SLD-Сплошная
 62
     7
370
    25
100
AcDbLine
 10
93.5998115312
 20
189.4200895345
 30
0.0
 11
93.5998115312
 21
187.6679308708
 31
0.0
  0
SPLINE
  5
1EA
330
1F
100
AcDbEntity
  8
0
  6
SLD-Сплошная
 62
     7
370
    25
100
AcDbSpline
210
0.0
220
0.0
230
1.0
 70
     8
 71
     3
 72
    10
 73
     6
 74
     0
 42
0.00000001
 43
0.00000001
 40
0.0
 40
0.0
 40
0.0
 40
0.0
 40
0.5
 40
0.5
 40
1.0
 40
1.0
 40
1.0
 40
1.0
 10
78.6876902281531
 20
197.2428326773108
 30
0.0
 10
78.73083441257164
 20
197.3211020050644
 30
0.0
 10
78.79401140011679
 20
197.4086891932709
 30
0.0
 10
78.94351730419686
 20
197.5718156152091
 30
0.0
 10
79.02872150514435
 20
197.6461276677764
 30
0.0
 10
79.10870008163813
 20
197.7021980209228
 30
0.0
  0
SPLINE
  5
1EB
330
1F
100
AcDbEntity
  8
0
  6
SLD-Сплошная
 62
     7
370
    25
100
AcDbSpline
210
0.0
220
0.0
230
1.0
 70
     8
 71
     3
 72
    10
 73
     6
 74
     0
 42
0.00000001
 43
0.00000001
 40
0.0
 40
0.0
 40
0.0
 40
0.0
 40
0.5
 40
0.5
 40
1.0
 40
1.0
 40
1.0
 40
1.0
 10
88.09981153118754
 20
197.7021980209228
 30
0.0
 10
88.1797901076813
 20
197.6461276677764
 30
0.0
 10
88.2649943086288
 20
197.5718156152091
 30
0.0
 10
88.41450021270889
 20
197.4086891932709
 30
0.0
 10
88.47767720025402
 20
197.3211020050644
 30
0.0
 10
88.52082138467257
 20
197.2428326773108
 30
0.0
  0
SPLINE
  5
1EC
330
1F
100
AcDbEntity
  8
0
  6
SLD-Сплошная
 62
     7
370
    25
100
AcDbSpline
210
0.0
220
0.0
230
1.0
 70
     8
 71
     3
 72
     8
 73
     4
 74
     0
 42
0.00000001
 43
0.00000001
 40
0.0
 40
0.0
 40
0.0
 40
0.0
 40
1.0
 40
1.0
 40
1.0
 40
1.0
 10
78.6876902281531
 20
197.2428326773108
 30
0.0
 10
78.63715272300318
 20
197.1511508757485
 30
0.0
 10
78.60870008163813
 20
197.0382326758817
 30
0.0
 10
78.60870008163812
 20
196.9293494742138
 30
0.0
  0
LINE
  5
1ED
330
1F
100
AcDbEntity
  8
0
  6
SLD-Сплошная
 62
     7
370
    25
100
AcDbLine
 10
78.6087000816
 20
198.8315161302
 30
0.0
 11
78.6087000816
 21
196.9293494742
 31
0.0
  0
LINE
  5
1EE
330
1F
100
AcDbEntity
  8
0
  6
SLD-Сплошная
 62
     7
370
    25
100
AcDbLine
 10
88.5998115312
 20
196.9293494742
 30
0.0
 11
88.5998115312
 21
198.8315161302
 31
0.0
  0
SPLINE
  5
1EF
330
1F
100
AcDbEntity
  8
0
  6
SLD-Сплошная
 62
     7
370
    25
100
AcDbSpline
210
0.0
220
0.0
230
1.0
 70
     8
 71
     3
 72
     8
 73
     4
 74
     0
 42
0.00000001
 43
0.00000001
 40
0.0
 40
0.0
 40
0.0
 40
0.0
 40
1.0
 40
1.0
 40
1.0
 40
1.0
 10
88.59981153118754
 20
196.9293494742138
 30
0.0
 10
88.59981153118754
 20
197.0382326758816
 30
0.0
 10
88.57135888982248
 20
197.1511508757485
 30
0.0
 10
88.52082138467257
 20
197.2428326773108
 30
0.0
  0
LINE
  5
1F0
330
1F
100
AcDbEntity
  8
0
  6
SLD-Сплошная
 62
     7
370
    25
100
AcDbLine
 10
88.5998115312
 20
191.3918635197
 30
0.0
 11
88.5998115312
 21
196.9293494742
 31
0.0
  0
LINE
  5
1F1
330
1F
100
AcDbEntity
  8
0
  6
SLD-Сплошная
 62
     7
370
    25
100
AcDbLine
 10
78.6087000816
 20
196.9293494742
 30
0.0
 11
78.6087000816
 21
191.3918635197
 31
0.0
  0
LINE
  5
1F2
330
1F
100
AcDbEntity
  8
0
  6
SLD-Сплошная
 62
     7
370
    25
100
AcDbLine
 10
78.6087000816
 20
188.2620332755
 30
0.0
 11
78.6087000816
 21
189.5340456115
 31
0.0
  0
LINE
  5
1F3
330
1F
100
AcDbEntity
  8
0
  6
SLD-Сплошная
 62
     7
370
    25
100
AcDbLine
 10
88.5998115312
 20
189.5340456115
 30
0.0
 11
88.5998115312
 21
188.2620332755
 31
0.0
  0
LINE
  5
1F4
330
1F
100
AcDbEntity
  8
0
  6
SLD-Сплошная
 62
     7
370
    25
100
AcDbLine
 10
78.6087000816
 20
189.5340456115
 30
0.0
 11
78.6087000816
 21
191.3918635197
 31
0.0
  0
LINE
  5
1F5
330
1F
100
AcDbEntity
  8
0
  6
SLD-Сплошная
 62
     7
370
    25
100
AcDbLine
 10
88.5998115312
 20
191.3918635197
 30
0.0
 11
88.5998115312
 21
189.5340456115
 31
0.0
  0
LINE
  5
1F6
330
1F
100
AcDbEntity
  8
0
  6
SLD-Сплошная
 62
     7
370
    25
100
AcDbLine
 10
302.2833863943
 20
189.6857360752
 30
0.0
 11
297.9833863943
 21
189.6857360752
 31
0.0
  0
LINE
  5
1F7
330
1F
100
AcDbEntity
  8
0
  6
SLD-Сплошная
 62
     7
370
    25
100
AcDbLine
 10
326.5833863943
 20
189.6857360752
 30
0.0
 11
322.2833863943
 21
189.6857360752
 31
0.0
  0
ARC
  5
1F8
330
1F
100
AcDbEntity
  8
0
  6
SLD-Сплошная
 62
     7
370
    25
100
AcDbCircle
 10
316.7744978438
 20
198.8315161302
 30
0.0
 40
0.5000000000000284
100
AcDbArc
 50
0.0
 51
90.0
  0
ARC
  5
1F9
330
1F
100
AcDbEntity
  8
0
  6
SLD-Сплошная
 62
     7
370
    25
100
AcDbCircle
 10
307.7833863943
 20
198.8315161302
 30
0.0
 40
0.5
100
AcDbArc
 50
90.0
 51
180.0
  0
LINE
  5
1FA
330
1F
100
AcDbEntity
  8
0
  6
SLD-Сплошная
 62
     7
370
    25
100
AcDbLine
 10
316.7744978438
 20
199.3315161302
 30
0.0
 11
307.7833863943
 21
199.3315161302
 31
0.0
  0
ARC
  5
1FB
330
1F
100
AcDbEntity
  8
0
  6
SLD-Сплошная
 62
     7
370
    25
100
AcDbCircle
 10
312.2833863943
 20
144.3357360752
 30
0.0
 40
32.64999999999998
100
AcDbArc
 50
180.0
 51
252.1145162503
  0
ARC
  5
1FC
330
1F
100
AcDbEntity
  8
0
  6
SLD-Сплошная
 62
     7
370
    25
100
AcDbCircle
 10
312.2833863943
 20
144.3357360752
 30
0.0
 40
32.65000000000001
100
AcDbArc
 50
287.870018586
 51
72.1648890736
  0
ARC
  5
1FD
330
1F
100
AcDbEntity
  8
0
  6
SLD-Сплошная
 62
     7
370
    25
100
AcDbCircle
 10
312.2833863943
 20
144.3357360752
 30
0.0
 40
32.64999999999998
100
AcDbArc
 50
107.8351109264
 51
180.0
  0
LINE
  5
1FE
330
1F
100
AcDbEntity
  8
0
  6
SLD-Сплошная
 62
     7
370
    25
100
AcDbLine
 10
326.5833863943
 20
184.6857360752
 30
0.0
 11
326.5833863943
 21
173.6876099506
 31
0.0
  0
LINE
  5
1FF
330
1F
100
AcDbEntity
  8
0
  6
SLD-Сплошная
 62
     7
370
    25
100
AcDbLine
 10
302.2833863943
 20
189.4200895345
 30
0.0
 11
302.2833863943
 21
189.6857360752
 31
0.0
  0
LINE
  5
200
330
1F
100
AcDbEntity
  8
0
  6
SLD-Сплошная
 62
     7
370
    25
100
AcDbLine
 10
297.9833863943
 20
189.6857360752
 30
0.0
 11
297.9833863943
 21
184.6857360752
 31
0.0
  0
LINE
  5
201
330
1F
100
AcDbEntity
  8
0
  6
SLD-Сплошная
 62
     7
370
    25
100
AcDbLine
 10
297.9833863943
 20
184.6857360752
 30
0.0
 11
297.9833863943
 21
173.6876099506
 31
0.0
  0
LINE
  5
202
330
1F
100
AcDbEntity
  8
0
  6
SLD-Сплошная
 62
     7
370
    25
100
AcDbLine
 10
322.2833863943
 20
189.4200895345
 30
0.0
 11
322.2833863943
 21
189.6857360752
 31
0.0
  0
LINE
  5
203
330
1F
100
AcDbEntity
  8
0
  6
SLD-Сплошная
 62
     7
370
    25
100
AcDbLine
 10
326.5833863943
 20
189.6857360752
 30
0.0
 11
326.5833863943
 21
184.6857360752
 31
0.0
  0
LINE
  5
204
330
1F
100
AcDbEntity
  8
0
  6
SLD-Сплошная
 62
     7
370
    25
100
AcDbLine
 10
344.9220585632
 20
145.1457238927
 30
0.0
 11
344.9233376769
 21
145.1457238927
 31
0.0
  0
ARC
  5
205
330
1F
100
AcDbEntity
  8
0
  6
SLD-Сплошная
 62
     7
370
    25
100
AcDbCircle
 10
341.2833863943
 20
112.8836906207
 30
0.0
 40
2.250785424654948
100
AcDbArc
 50
1.5136848982
 51
178.4863151018
  0
ARC
  5
206
330
1F
100
AcDbEntity
  8
0
  6
SLD-Сплошная
 62
     7
370
    25
100
AcDbCircle
 10
341.2833863943
 20
113.0026028209
 30
0.0
 40
2.250785424654948
100
AcDbArc
 50
181.5136848982
 51
358.4863151018
  0
ARC
  5
207
330
1F
100
AcDbEntity
  8
0
  6
SLD-Сплошная
 62
     7
370
    25
100
AcDbCircle
 10
283.2833863943
 20
175.6688693295
 30
0.0
 40
2.25078542465489
100
AcDbArc
 50
1.5136848982
 51
178.4863151018
  0
ARC
  5
208
330
1F
100
AcDbEntity
  8
0
  6
SLD-Сплошная
 62
     7
370
    25
100
AcDbCircle
 10
283.2833863943
 20
175.7877815297
 30
0.0
 40
2.25078542465489
100
AcDbArc
 50
181.5136848982
 51
358.4863151018
  0
ARC
  5
209
330
1F
100
AcDbEntity
  8
0
  6
SLD-Сплошная
 62
     7
370
    25
100
AcDbCircle
 10
341.2833863943
 20
175.6688693295
 30
0.0
 40
2.250785424654948
100
AcDbArc
 50
1.5136848982
 51
178.4863151018
  0
ARC
  5
20A
330
1F
100
AcDbEntity
  8
0
  6
SLD-Сплошная
 62
     7
370
    25
100
AcDbCircle
 10
341.2833863943
 20
175.7877815297
 30
0.0
 40
2.250785424654948
100
AcDbArc
 50
181.5136848982
 51
358.4863151018
  0
ARC
  5
20B
330
1F
100
AcDbEntity
  8
0
  6
SLD-Сплошная
 62
     7
370
    25
100
AcDbCircle
 10
283.2833863943
 20
112.8836906207
 30
0.0
 40
2.25078542465489
100
AcDbArc
 50
1.5136848982
 51
178.4863151018
  0
ARC
  5
20C
330
1F
100
AcDbEntity
  8
0
  6
SLD-Сплошная
 62
     7
370
    25
100
AcDbCircle
 10
283.2833863943
 20
113.0026028209
 30
0.0
 40
2.25078542465489
100
AcDbArc
 50
181.5136848982
 51
358.4863151018
  0
LINE
  5
20D
330
1F
100
AcDbEntity
  8
0
  6
SLD-Сплошная
 62
     7
370
    25
100
AcDbLine
 10
349.7833863943
 20
108.1135175893
 30
0.0
 11
349.7833863943
 21
180.557954561
 31
0.0
  0
ARC
  5
20E
330
1F
100
AcDbEntity
  8
0
  6
SLD-Сплошная
 62
     7
370
    25
100
AcDbCircle
 10
344.8671205169
 20
108.200205532
 30
0.0
 40
4.91703009715695
100
AcDbArc
 50
269.0242395005
 51
358.9898148908
  0
LINE
  5
20F
330
1F
100
AcDbEntity
  8
0
  6
SLD-Сплошная
 62
     7
370
    25
100
AcDbLine
 10
279.7833863943
 20
103.2838884579
 30
0.0
 11
344.7833863943
 21
103.2838884579
 31
0.0
  0
ARC
  5
210
330
1F
100
AcDbEntity
  8
0
  6
SLD-Сплошная
 62
     7
370
    25
100
AcDbCircle
 10
279.6996522716
 20
108.200205532
 30
0.0
 40
4.917030097156922
100
AcDbArc
 50
181.0101851092
 51
270.9757604995
  0
LINE
  5
211
330
1F
100
AcDbEntity
  8
0
  6
SLD-Сплошная
 62
     7
370
    25
100
AcDbLine
 10
274.7833863943
 20
180.557954561
 30
0.0
 11
274.7833863943
 21
108.1135175893
 31
0.0
  0
ARC
  5
212
330
1F
100
AcDbEntity
  8
0
  6
SLD-Сплошная
 62
     7
370
    25
100
AcDbCircle
 10
279.6996522716
 20
180.4712666184
 30
0.0
 40
4.91703009715692
100
AcDbArc
 50
89.0242395005
 51
178.9898148908
  0
LINE
  5
213
330
1F
100
AcDbEntity
  8
0
  6
SLD-Сплошная
 62
     7
370
    25
100
AcDbLine
 10
344.7833863943
 20
185.3875836925
 30
0.0
 11
326.5833863943
 21
185.3875836925
 31
0.0
  0
LINE
  5
214
330
1F
100
AcDbEntity
  8
0
  6
SLD-Сплошная
 62
     7
370
    25
100
AcDbLine
 10
297.9833863943
 20
185.3875836925
 30
0.0
 11
279.7833863943
 21
185.3875836925
 31
0.0
  0
ARC
  5
215
330
1F
100
AcDbEntity
  8
0
  6
SLD-Сплошная
 62
     7
370
    25
100
AcDbCircle
 10
344.8671205169
 20
180.4712666184
 30
0.0
 40
4.917030097157061
100
AcDbArc
 50
1.0101851092
 51
90.9757604995
  0
LINE
  5
216
330
1F
100
AcDbEntity
  8
0
  6
SLD-Сплошная
 62
     7
370
    25
100
AcDbLine
 10
349.7833863943
 20
106.0429652285
 30
0.0
 11
349.7833863943
 21
108.1135175893
 31
0.0
  0
ARC
  5
217
330
1F
100
AcDbEntity
  8
0
  6
SLD-Сплошная
 62
     7
370
    25
100
AcDbCircle
 10
344.8671205169
 20
106.1296531712
 30
0.0
 40
4.917030097156963
100
AcDbArc
 50
269.0242395005
 51
358.9898148908
  0
ARC
  5
218
330
1F
100
AcDbEntity
  8
0
  6
SLD-Сплошная
 62
     7
370
    25
100
AcDbCircle
 10
279.6996522716
 20
106.1296531712
 30
0.0
 40
4.917030097156908
100
AcDbArc
 50
181.0101851092
 51
270.9757604995
  0
LINE
  5
219
330
1F
100
AcDbEntity
  8
0
  6
SLD-Сплошная
 62
     7
370
    25
100
AcDbLine
 10
274.7833863943
 20
106.0429652285
 30
0.0
 11
274.7833863943
 21
108.1135175893
 31
0.0
  0
LINE
  5
21A
330
1F
100
AcDbEntity
  8
0
  6
SLD-Сплошная
 62
     7
370
    25
100
AcDbLine
 10
279.7833863943
 20
101.2133360971
 30
0.0
 11
344.7833863943
 21
101.2133360971
 31
0.0
  0
ARC
  5
21B
330
1F
100
AcDbEntity
  8
0
  6
SLD-Сплошная
 62
     7
370
    25
100
AcDbCircle
 10
283.2833863943
 20
110.7703793164
 30
0.0
 40
2.282024971152277
100
AcDbArc
 50
29.8979655269
 51
150.1020344731
  0
ARC
  5
21C
330
1F
100
AcDbEntity
  8
0
  6
SLD-Сплошная
 62
     7
370
    25
100
AcDbCircle
 10
341.2833863943
 20
110.7703793164
 30
0.0
 40
2.282024971152171
100
AcDbArc
 50
29.8979655269
 51
150.1020344731
  0
ARC
  5
21D
330
1F
100
AcDbEntity
  8
0
  6
SLD-Сплошная
 62
     7
370
    25
100
AcDbCircle
 10
283.2833863943
 20
173.5555580252
 30
0.0
 40
2.282024971152184
100
AcDbArc
 50
29.8979655269
 51
150.1020344731
  0
ARC
  5
21E
330
1F
100
AcDbEntity
  8
0
  6
SLD-Сплошная
 62
     7
370
    25
100
AcDbCircle
 10
341.2833863943
 20
173.5555580252
 30
0.0
 40
2.282024971152184
100
AcDbArc
 50
29.8979655269
 51
150.1020344731
  0
SPLINE
  5
21F
330
1F
100
AcDbEntity
  8
0
  6
SLD-Сплошная
 62
     7
370
    25
100
AcDbSpline
210
0.0
220
0.0
230
1.0
 70
    24
 71
     3
 72
     8
 73
     4
 74
     0
 42
0.00000001
 43
0.00000001
 40
0.0
 40
0.0
 40
0.0
 40
0.0
 40
1.0
 40
1.0
 40
1.0
 40
1.0
 10
322.2833863942581
 20
175.3666385717146
 30
0.0
 10
322.2833863942581
 20
174.8105372909162
 30
0.0
 10
322.2833863942581
 20
174.2537543109992
 30
0.0
 10
322.2833863942581
 20
173.6963438550419
 30
0.0
  0
SPLINE
  5
220
330
1F
100
AcDbEntity
  8
0
  6
SLD-Сплошная
 62
     7
370
    25
100
AcDbSpline
210
0.0
220
0.0
230
1.0
 70
     8
 71
     3
 72
    14
 73
    10
 74
     0
 42
0.00000001
 43
0.00000001
 40
0.0
 40
0.0
 40
0.0
 40
0.0
 40
0.1415918286228583
 40
0.2836122978925401
 40
0.4260573736702701
 40
0.5689229343651951
 40
0.7122047710039987
 40
0.8558985873396617
 40
1.0
 40
1.0
 40
1.0
 40
1.0
 10
322.2833863942581
 20
106.1357360751652
 30
0.0
 10
322.2833863358736
 20
106.5454867744617
 30
0.0
 10
322.2833862189279
 20
107.3662286104903
 30
0.0
 10
322.2833857274115
 20
108.6026006752061
 30
0.0
 10
322.2833854287163
 20
109.8450714296174
 30
0.0
 10
322.2833854258116
 20
111.0937747204682
 30
0.0
 10
322.2833857215553
 20
112.3485891962329
 30
0.0
 10
322.283386216408
 20
113.6092250338649
 30
0.0
 10
322.2833863349188
 20
114.452762315403
 30
0.0
 10
322.2833863942581
 20
114.8751282952887
 30
0.0
  0
LINE
  5
221
330
1F
100
AcDbEntity
  8
0
  6
SLD-Сплошная
 62
     7
370
    25
100
AcDbLine
 10
302.2833863943
 20
106.1357360752
 30
0.0
 11
322.2833863943
 21
106.1357360752
 31
0.0
  0
SPLINE
  5
222
330
1F
100
AcDbEntity
  8
0
  6
SLD-Сплошная
 62
     7
370
    25
100
AcDbSpline
210
0.0
220
0.0
230
1.0
 70
     8
 71
     3
 72
    15
 73
    11
 74
     0
 42
0.00000001
 43
0.00000001
 40
0.0
 40
0.0
 40
0.0
 40
0.0
 40
0.1261109372633945
 40
0.251910231020482
 40
0.3773949338188905
 40
0.5025621492530674
 40
0.6274090320468728
 40
0.7519327881182444
 40
0.8761306746261387
 40
1.0
 40
1.0
 40
1.0
 40
1.0
 10
302.2833863942581
 20
114.8751282952886
 30
0.0
 10
302.2833864399139
 20
114.5054698702923
 30
0.0
 10
302.2833865311127
 20
113.7670665148005
 30
0.0
 10
302.2833869517681
 20
112.6630278542444
 30
0.0
 10
302.2833872688557
 20
111.5634211176754
 30
0.0
 10
302.2833873922355
 20
110.468476165809
 30
0.0
 10
302.2833872642561
 20
109.3782106460742
 30
0.0
 10
302.2833869460354
 20
108.2927577921841
 30
0.0
 10
302.2833865290562
 20
107.2119911231991
 30
0.0
 10
302.2833864391511
 20
106.4941708439401
 30
0.0
 10
302.2833863942581
 20
106.1357360751652
 30
0.0
  0
SPLINE
  5
223
330
1F
100
AcDbEntity
  8
0
  6
SLD-Сплошная
 62
     7
370
    25
100
AcDbSpline
210
0.0
220
0.0
230
1.0
 70
    24
 71
     3
 72
     8
 73
     4
 74
     0
 42
0.00000001
 43
0.00000001
 40
0.0
 40
0.0
 40
0.0
 40
0.0
 40
1.0
 40
1.0
 40
1.0
 40
1.0
 10
302.2833863942581
 20
173.6963438550419
 30
0.0
 10
302.2833863942581
 20
174.2537543109991
 30
0.0
 10
302.2833863942582
 20
174.8105372909162
 30
0.0
 10
302.2833863942581
 20
175.3666385717145
 30
0.0
  0
SPLINE
  5
224
330
1F
100
AcDbEntity
  8
0
  6
SLD-Сплошная
 62
     7
370
    25
100
AcDbSpline
210
0.0
220
0.0
230
1.0
 70
     8
 71
     3
 72
    25
 73
    21
 74
     0
 42
0.00000001
 43
0.00000001
 40
0.0
 40
0.0
 40
0.0
 40
0.0
 40
0.0278207830237434
 40
0.055605141299689
 40
0.0833618981831839
 40
0.1110998989386867
 40
0.1388280027205268
 40
0.166555074492265
 40
0.194289976921403
 40
0.2220415622865093
 40
0.2498186644337365
 40
0.3744583174145371
 40
0.4990618065229985
 40
0.6243480430326667
 40
0.7496753553682909
 40
0.7997559692940517
 40
0.8497767713471243
 40
0.8997897175905594
 40
0.9498468216042616
 40
0.9999999999999999
 40
0.9999999999999999
 40
0.9999999999999999
 40
0.9999999999999999
 10
322.2833863942581
 20
175.3666385717146
 30
0.0
 10
322.1036795702031
 20
175.4234738484358
 30
0.0
 10
321.7445012057563
 20
175.5370699895004
 30
0.0
 10
321.2024056842282
 20
175.6955589191797
 30
0.0
 10
320.6583960217454
 20
175.8451688272684
 30
0.0
 10
320.1121927782619
 20
175.985067527301
 30
0.0
 10
319.5638594927212
 20
176.1154889546534
 30
0.0
 10
319.0133667309187
 20
176.2363810128739
 30
0.0
 10
318.4607120466446
 20
176.3477676824976
 30
0.0
 10
317.9058758068051
 20
176.4496512026983
 30
0.0
 10
316.7017338816241
 20
176.6493844309305
 30
0.0
 10
314.835749195686
 20
176.8690136577915
 30
0.0
 10
312.297934699463
 20
176.9685236984994
 30
0.0
 10
309.7553080284717
 20
176.8712710595738
 30
0.0
 10
307.7297687032957
 20
176.63397088636
 30
0.0
 10
306.2246758780432
 20
176.3740804413889
 30
0.0
 10
305.2281924087766
 20
176.1700301555872
 30
0.0
 10
304.238925838533
 20
175.9344272834769
 30
0.0
 10
303.2559230928441
 20
175.6699567908141
 30
0.0
 10
302.6077724271373
 20
175.4678092462369
 30
0.0
 10
302.2833863942581
 20
175.3666385717146
 30
0.0
  0
ARC
  5
225
330
1F
100
AcDbEntity
  8
0
  6
SLD-Сплошная
 62
     7
370
    25
100
AcDbCircle
 10
312.2833863943
 20
144.2857360752
 30
0.0
 40
32.65
100
AcDbArc
 50
287.8351109264
 51
72.1648890736
  0
ARC
  5
226
330
1F
100
AcDbEntity
  8
0
  6
SLD-Сплошная
 62
     7
370
    25
100
AcDbCircle
 10
312.2833863943
 20
144.2857360752
 30
0.0
 40
32.65000000000003
100
AcDbArc
 50
107.8351109264
 51
180.0
  0
ARC
  5
227
330
1F
100
AcDbEntity
  8
0
  6
SLD-Сплошная
 62
     7
370
    25
100
AcDbCircle
 10
312.2833863943
 20
144.2857360752
 30
0.0
 40
32.65000000000003
100
AcDbArc
 50
180.0
 51
252.1648890736
  0
LINE
  5
228
330
1F
100
AcDbEntity
  8
0
  6
SLD-Сплошная
 62
     7
370
    25
100
AcDbLine
 10
322.2833863943
 20
182.2857360752
 30
0.0
 11
302.2833863943
 21
182.2857360752
 31
0.0
  0
LINE
  5
229
330
1F
100
AcDbEntity
  8
0
  6
SLD-Сплошная
 62
     7
370
    25
100
AcDbLine
 10
322.2833863943
 20
175.3666385717
 30
0.0
 11
322.2833863943
 21
182.2857360752
 31
0.0
  0
LINE
  5
22A
330
1F
100
AcDbEntity
  8
0
  6
SLD-Сплошная
 62
     7
370
    25
100
AcDbLine
 10
302.2833863943
 20
182.2857360752
 30
0.0
 11
302.2833863943
 21
175.3666385717
 31
0.0
  0
LINE
  5
22B
330
1F
100
AcDbEntity
  8
0
  6
SLD-Сплошная
 62
     7
370
    25
100
AcDbLine
 10
317.2744978438
 20
189.4200895345
 30
0.0
 11
322.2833863943
 21
189.4200895345
 31
0.0
  0
LINE
  5
22C
330
1F
100
AcDbEntity
  8
0
  6
SLD-Сплошная
 62
     7
370
    25
100
AcDbLine
 10
302.2833863943
 20
189.4200895345
 30
0.0
 11
307.2833863943
 21
189.4200895345
 31
0.0
  0
LINE
  5
22D
330
1F
100
AcDbEntity
  8
0
  6
SLD-Сплошная
 62
     7
370
    25
100
AcDbLine
 10
307.2833863943
 20
189.9711179545
 30
0.0
 11
307.2833863943
 21
189.4200895345
 31
0.0
  0
LINE
  5
22E
330
1F
100
AcDbEntity
  8
0
  6
SLD-Сплошная
 62
     7
370
    25
100
AcDbLine
 10
307.2833863943
 20
189.9711179545
 30
0.0
 11
317.2744978438
 21
189.9711179545
 31
0.0
  0
LINE
  5
22F
330
1F
100
AcDbEntity
  8
0
  6
SLD-Сплошная
 62
     7
370
    25
100
AcDbLine
 10
317.2744978438
 20
189.4200895345
 30
0.0
 11
317.2744978438
 21
189.9711179545
 31
0.0
  0
LINE
  5
230
330
1F
100
AcDbEntity
  8
0
  6
SLD-Сплошная
 62
     7
370
    25
100
AcDbLine
 10
322.2833863943
 20
189.4200895345
 30
0.0
 11
322.2833863943
 21
182.2857360752
 31
0.0
  0
LINE
  5
231
330
1F
100
AcDbEntity
  8
0
  6
SLD-Сплошная
 62
     7
370
    25
100
AcDbLine
 10
302.2833863943
 20
182.2857360752
 30
0.0
 11
302.2833863943
 21
189.4200895345
 31
0.0
  0
LINE
  5
232
330
1F
100
AcDbEntity
  8
0
  6
SLD-Сплошная
 62
     7
370
    25
100
AcDbLine
 10
316.7744978438
 20
190.6259156406
 30
0.0
 11
307.7833863943
 21
190.6259156406
 31
0.0
  0
SPLINE
  5
233
330
1F
100
AcDbEntity
  8
0
  6
SLD-Сплошная
 62
     7
370
    25
100
AcDbSpline
210
0.0
220
0.0
230
1.0
 70
     8
 71
     3
 72
    18
 73
    14
 74
     0
 42
0.00000001
 43
0.00000001
 40
0.0
 40
0.0
 40
0.0
 40
0.0
 40
0.0429057850278969
 40
0.0885884636523398
 40
0.1380588050625056
 40
0.1920840782984459
 40
0.2512311228404869
 40
0.3605168849394133
 40
0.5010755150913313
 40
0.6259070120880017
 40
0.7508235257458532
 40
0.8876625009932885
 40
1.0
 40
1.0
 40
1.0
 40
1.0
 10
316.7744978438075
 20
190.6259156406363
 30
0.0
 10
316.7903824327092
 20
190.6262360346184
 30
0.0
 10
316.8231796726533
 20
190.626897558714
 30
0.0
 10
316.8721709747361
 20
190.6316613951145
 30
0.0
 10
316.9213636855366
 20
190.6387908412688
 30
0.0
 10
316.9700258341131
 20
190.6485091809783
 30
0.0
 10
317.0291700187525
 20
190.6638639634158
 30
0.0
 10
317.0974991391503
 20
190.6883412850086
 30
0.0
 10
317.1623910650463
 20
190.7176930422546
 30
0.0
 10
317.2130570357526
 20
190.7476535546899
 30
0.0
 10
317.2488969912358
 20
190.775361300771
 30
0.0
 10
317.2706524262306
 20
190.7995906800311
 30
0.0
 10
317.273302911868
 20
190.8136381585916
 30
0.0
 10
317.2744978438075
 20
190.8199712548983
 30
0.0
  0
SPLINE
  5
234
330
1F
100
AcDbEntity
  8
0
  6
SLD-Сплошная
 62
     7
370
    25
100
AcDbSpline
210
0.0
220
0.0
230
1.0
 70
     8
 71
     3
 72
    18
 73
    14
 74
     0
 42
0.00000001
 43
0.00000001
 40
0.0
 40
0.0
 40
0.0
 40
0.0
 40
0.0721070069161441
 40
0.1550347867513871
 40
0.2488767801117235
 40
0.3735779060553781
 40
0.4986033983858117
 40
0.6237722732866031
 40
0.7487971200663546
 40
0.8154324663527361
 40
0.8742689186619557
 40
0.9394120759899794
 40
1.0
 40
1.0
 40
1.0
 40
1.0
 10
307.2833863942581
 20
190.8199712548983
 30
0.0
 10
307.2838791302136
 20
190.8159662702548
 30
0.0
 10
307.2849385447842
 20
190.8073552910074
 30
0.0
 10
307.2941501390906
 20
190.7921125701755
 30
0.0
 10
307.312696729883
 20
190.7724169307409
 30
0.0
 10
307.3447166671476
 20
190.7476919226874
 30
0.0
 10
307.3934000410196
 20
190.7191200766431
 30
0.0
 10
307.456916116066
 20
190.6890654154124
 30
0.0
 10
307.5262669008645
 20
190.6645284474047
 30
0.0
 10
307.5931633195734
 20
190.6469953737571
 30
0.0
 10
307.6510622775623
 20
190.6356983661259
 30
0.0
 10
307.7143254406982
 20
190.6276374149963
 30
0.0
 10
307.7609288902664
 20
190.6264755337824
 30
0.0
 10
307.7833863942581
 20
190.6259156406363
 30
0.0
  0
LINE
  5
235
330
1F
100
AcDbEntity
  8
0
  6
SLD-Сплошная
 62
     7
370
    25
100
AcDbLine
 10
317.2744978438
 20
189.9711179545
 30
0.0
 11
317.2744978438
 21
190.8199712549
 31
0.0
  0
LINE
  5
236
330
1F
100
AcDbEntity
  8
0
  6
SLD-Сплошная
 62
     7
370
    25
100
AcDbLine
 10
307.2833863943
 20
190.8199712549
 30
0.0
 11
307.2833863943
 21
189.9711179545
 31
0.0
  0
SPLINE
  5
237
330
1F
100
AcDbEntity
  8
0
  6
SLD-Сплошная
 62
     7
370
    25
100
AcDbSpline
210
0.0
220
0.0
230
1.0
 70
    24
 71
     3
 72
    10
 73
     6
 74
     0
 42
0.00000001
 43
0.00000001
 40
0.0
 40
0.0
 40
0.0
 40
0.0
 40
0.5
 40
0.5
 40
1.0
 40
1.0
 40
1.0
 40
1.0
 10
317.2744978438075
 20
190.8199712548983
 30
0.0
 10
317.2744978438075
 20
191.9508193634317
 30
0.0
 10
317.2744978438075
 20
193.2144832592913
 30
0.0
 10
317.2744978438075
 20
195.9195797882487
 30
0.0
 10
317.2744978438075
 20
197.3601282495574
 30
0.0
 10
317.2744978438075
 20
198.8315161302418
 30
0.0
  0
SPLINE
  5
238
330
1F
100
AcDbEntity
  8
0
  6
SLD-Сплошная
 62
     7
370
    25
100
AcDbSpline
210
0.0
220
0.0
230
1.0
 70
    24
 71
     3
 72
    10
 73
     6
 74
     0
 42
0.00000001
 43
0.00000001
 40
0.0
 40
0.0
 40
0.0
 40
0.0
 40
0.5
 40
0.5
 40
1.0
 40
1.0
 40
1.0
 40
1.0
 10
307.2833863942581
 20
198.8315161302418
 30
0.0
 10
307.2833863942581
 20
197.3601282495574
 30
0.0
 10
307.2833863942581
 20
195.9195797882487
 30
0.0
 10
307.2833863942581
 20
193.2144832592913
 30
0.0
 10
307.2833863942581
 20
191.9508193634317
 30
0.0
 10
307.2833863942581
 20
190.8199712548983
 30
0.0
  0
LINE
  5
239
330
1F
100
AcDbEntity
  8
0
  6
SLD-Сплошная
 62
     7
370
    25
100
AcDbLine
 10
198.4824282694
 20
227.1384757635
 30
0.0
 11
203.2127942336
 21
227.1384757635
 31
0.0
  0
LINE
  5
23A
330
1F
100
AcDbEntity
  8
0
  6
SLD-Сплошная
 62
     7
370
    25
100
AcDbLine
 10
166.2127942336
 20
292.4384757635
 30
0.0
 11
161.2127942336
 21
292.4384757635
 31
0.0
  0
LINE
  5
23B
330
1F
100
AcDbEntity
  8
0
  6
SLD-Сплошная
 62
     7
370
    25
100
AcDbLine
 10
170.2167397551
 20
292.0384757635
 30
0.0
 11
166.2127942336
 21
292.0384757635
 31
0.0
  0
LINE
  5
23C
330
1F
100
AcDbEntity
  8
0
  6
SLD-Сплошная
 62
     7
370
    25
100
AcDbLine
 10
173.3475092311
 20
292.0384757635
 30
0.0
 11
172.5648097551
 21
292.0384757635
 31
0.0
  0
LINE
  5
23D
330
1F
100
AcDbEntity
  8
0
  6
SLD-Сплошная
 62
     7
370
    25
100
AcDbLine
 10
179.2007178682
 20
292.0384757635
 30
0.0
 11
178.8263487071
 21
292.0384757635
 31
0.0
  0
LINE
  5
23E
330
1F
100
AcDbEntity
  8
0
  6
SLD-Сплошная
 62
     7
370
    25
100
AcDbLine
 10
172.5648097551
 20
292.4384757635
 30
0.0
 11
170.2167397551
 21
292.4384757635
 31
0.0
  0
LINE
  5
23F
330
1F
100
AcDbEntity
  8
0
  6
SLD-Сплошная
 62
     7
370
    25
100
AcDbLine
 10
175.6955792311
 20
292.4384757635
 30
0.0
 11
173.3475092311
 21
292.4384757635
 31
0.0
  0
LINE
  5
240
330
1F
100
AcDbEntity
  8
0
  6
SLD-Сплошная
 62
     7
370
    25
100
AcDbLine
 10
178.8263487071
 20
292.4384757635
 30
0.0
 11
176.4782787071
 21
292.4384757635
 31
0.0
  0
ARC
  5
241
330
1F
100
AcDbEntity
  8
0
  6
SLD-Сплошная
 62
     7
370
    25
100
AcDbCircle
 10
301.2127942336
 20
259.7884757635
 30
0.0
 40
150.0000000000005
100
AcDbArc
 50
168.0478578232
 51
191.9521421768
  0
ARC
  5
242
330
1F
100
AcDbEntity
  8
0
  6
SLD-Сплошная
 62
     7
370
    25
100
AcDbCircle
 10
156.421297591
 20
290.4384757635
 30
0.0
 40
2.000000000000012
100
AcDbArc
 50
90.0
 51
168.0478578232
  0
LINE
  5
243
330
1F
100
AcDbEntity
  8
0
  6
SLD-Сплошная
 62
     7
370
    25
100
AcDbLine
 10
161.2127942336
 20
292.4384757635
 30
0.0
 11
156.421297591
 21
292.4384757635
 31
0.0
  0
LINE
  5
244
330
1F
100
AcDbEntity
  8
0
  6
SLD-Сплошная
 62
     7
370
    25
100
AcDbLine
 10
156.421297591
 20
227.1384757635
 30
0.0
 11
161.2127942336
 21
227.1384757635
 31
0.0
  0
LWPOLYLINE
  5
245
330
1F
100
AcDbEntity
  8
0
  6
SLD-Сплошная
 62
     7
370
    25
100
AcDbPolyline
 90
       12
 70
   128
 43
0.0
 10
189.5163149295
 20
291.0384757635
 10
189.68037987
 20
290.9473349541
 10
189.8311532448
 20
290.6812962123
 10
189.9564202917
 20
290.2619124148
 10
190.0460326195
 20
289.7231595427
 10
190.0927303704
 20
289.1086841496
 10
190.0927303704
 20
288.4682673773
 10
190.0460326195
 20
287.8537919842
 10
189.9564202917
 20
287.3150391121
 10
189.8311532448
 20
286.8956553146
 10
189.68037987
 20
286.6296165728
 10
189.5163149295
 20
286.5384757635
  0
LWPOLYLINE
  5
246
330
1F
100
AcDbEntity
  8
0
  6
SLD-Сплошная
 62
     7
370
    25
100
AcDbPolyline
 90
       12
 70
   128
 43
0.0
 10
189.5163149295
 20
286.5384757635
 10
189.352249989
 20
286.6296165728
 10
189.2014766143
 20
286.8956553146
 10
189.0762095674
 20
287.3150391121
 10
188.9865972396
 20
287.8537919842
 10
188.9398994886
 20
288.4682673773
 10
188.9398994886
 20
289.1086841496
 10
188.9865972396
 20
289.7231595427
 10
189.0762095674
 20
290.2619124148
 10
189.2014766143
 20
290.6812962123
 10
189.352249989
 20
290.9473349541
 10
189.5163149295
 20
291.0384757635
  0
LWPOLYLINE
  5
247
330
1F
100
AcDbEntity
  8
0
  6
SLD-Сплошная
 62
     7
370
    25
100
AcDbPolyline
 90
       12
 70
   128
 43
0.0
 10
206.3395528612
 20
233.0384757635
 10
206.5036178017
 20
232.9473349541
 10
206.6543911765
 20
232.6812962123
 10
206.7796582233
 20
232.2619124148
 10
206.8692705512
 20
231.7231595427
 10
206.9159683021
 20
231.1086841496
 10
206.9159683021
 20
230.4682673773
 10
206.8692705512
 20
229.8537919842
 10
206.7796582233
 20
229.3150391121
 10
206.6543911765
 20
228.8956553146
 10
206.5036178017
 20
228.6296165728
 10
206.3395528612
 20
228.5384757635
  0
LWPOLYLINE
  5
248
330
1F
100
AcDbEntity
  8
0
  6
SLD-Сплошная
 62
     7
370
    25
100
AcDbPolyline
 90
       12
 70
   128
 43
0.0
 10
206.3395528612
 20
228.5384757635
 10
206.1754879207
 20
228.6296165728
 10
206.0247145459
 20
228.8956553146
 10
205.8994474991
 20
229.3150391121
 10
205.8098351712
 20
229.8537919842
 10
205.7631374203
 20
230.4682673773
 10
205.7631374203
 20
231.1086841496
 10
205.8098351712
 20
231.7231595427
 10
205.8994474991
 20
232.2619124148
 10
206.0247145459
 20
232.6812962123
 10
206.1754879207
 20
232.9473349541
 10
206.3395528612
 20
233.0384757635
  0
LWPOLYLINE
  5
249
330
1F
100
AcDbEntity
  8
0
  6
SLD-Сплошная
 62
     7
370
    25
100
AcDbPolyline
 90
       12
 70
   128
 43
0.0
 10
206.3395528612
 20
291.0384757635
 10
206.5036178017
 20
290.9473349541
 10
206.6543911765
 20
290.6812962123
 10
206.7796582233
 20
290.2619124148
 10
206.8692705512
 20
289.7231595427
 10
206.9159683021
 20
289.1086841496
 10
206.9159683021
 20
288.4682673773
 10
206.8692705512
 20
287.8537919842
 10
206.7796582233
 20
287.3150391121
 10
206.6543911765
 20
286.8956553146
 10
206.5036178017
 20
286.6296165728
 10
206.3395528612
 20
286.5384757635
  0
LWPOLYLINE
  5
24A
330
1F
100
AcDbEntity
  8
0
  6
SLD-Сплошная
 62
     7
370
    25
100
AcDbPolyline
 90
       12
 70
   128
 43
0.0
 10
206.3395528612
 20
286.5384757635
 10
206.1754879207
 20
286.6296165728
 10
206.0247145459
 20
286.8956553146
 10
205.8994474991
 20
287.3150391121
 10
205.8098351712
 20
287.8537919842
 10
205.7631374203
 20
288.4682673773
 10
205.7631374203
 20
289.1086841496
 10
205.8098351712
 20
289.7231595427
 10
205.8994474991
 20
290.2619124148
 10
206.0247145459
 20
290.6812962123
 10
206.1754879207
 20
290.9473349541
 10
206.3395528612
 20
291.0384757635
  0
LWPOLYLINE
  5
24B
330
1F
100
AcDbEntity
  8
0
  6
SLD-Сплошная
 62
     7
370
    25
100
AcDbPolyline
 90
       12
 70
   128
 43
0.0
 10
189.5163149295
 20
233.0384757635
 10
189.68037987
 20
232.9473349541
 10
189.8311532448
 20
232.6812962123
 10
189.9564202917
 20
232.2619124148
 10
190.0460326195
 20
231.7231595427
 10
190.0927303704
 20
231.1086841496
 10
190.0927303704
 20
230.4682673773
 10
190.0460326195
 20
229.8537919842
 10
189.9564202917
 20
229.3150391121
 10
189.8311532448
 20
228.8956553146
 10
189.68037987
 20
228.6296165728
 10
189.5163149295
 20
228.5384757635
  0
LWPOLYLINE
  5
24C
330
1F
100
AcDbEntity
  8
0
  6
SLD-Сплошная
 62
     7
370
    25
100
AcDbPolyline
 90
       12
 70
   128
 43
0.0
 10
189.5163149295
 20
228.5384757635
 10
189.352249989
 20
228.6296165728
 10
189.2014766143
 20
228.8956553146
 10
189.0762095674
 20
229.3150391121
 10
188.9865972396
 20
229.8537919842
 10
188.9398994886
 20
230.4682673773
 10
188.9398994886
 20
231.1086841496
 10
188.9865972396
 20
231.7231595427
 10
189.0762095674
 20
232.2619124148
 10
189.2014766143
 20
232.6812962123
 10
189.352249989
 20
232.9473349541
 10
189.5163149295
 20
233.0384757635
  0
SPLINE
  5
24D
330
1F
100
AcDbEntity
  8
0
  6
SLD-Сплошная
 62
     7
370
    25
100
AcDbSpline
210
0.0
220
0.0
230
1.0
 70
     8
 71
     3
 72
    22
 73
    18
 74
     0
 42
0.00000001
 43
0.00000001
 40
0.0
 40
0.0
 40
0.0
 40
0.0
 40
0.125
 40
0.125
 40
0.2499999999999999
 40
0.2499999999999999
 40
0.3749999999999999
 40
0.3749999999999999
 40
0.4999999999999999
 40
0.4999999999999999
 40
0.6249999999999999
 40
0.6249999999999999
 40
0.7499999999999998
 40
0.7499999999999998
 40
0.8749999999999999
 40
0.8749999999999999
 40
1.0
 40
1.0
 40
1.0
 40
1.0
 10
198.4827367283242
 20
292.4384757634641
 30
0.0
 10
198.0217633216527
 20
292.4384757634641
 30
0.0
 10
197.5475913534791
 20
292.3018083450336
 30
0.0
 10
196.5906008527837
 20
291.7170134146809
 30
0.0
 10
196.1078496331303
 20
291.2685852157164
 30
0.0
 10
195.1558015363087
 20
290.0438770426321
 30
0.0
 10
194.6866141849114
 20
289.2674394887084
 30
0.0
 10
193.7854091388003
 20
287.4000330818666
 30
0.0
 10
193.3535157145879
 20
286.3091363471112
 30
0.0
 10
192.5485959819426
 20
283.8574005805701
 30
0.0
 10
192.175669406748
 20
282.4968653300654
 30
0.0
 10
191.5048485521095
 20
279.5759779847711
 30
0.0
 10
191.2069981084364
 20
278.0160658131356
 30
0.0
 10
190.69470537239
 20
274.7804822965755
 30
0.0
 10
190.4802436620998
 20
273.1052429944088
 30
0.0
 10
190.1349464217924
 20
269.7233499390523
 30
0.0
 10
190.0040454468044
 20
268.0170025624049
 30
0.0
 10
189.9116665203163
 20
266.3315255493769
 30
0.0
  0
SPLINE
  5
24E
330
1F
100
AcDbEntity
  8
0
  6
SLD-Сплошная
 62
     7
370
    25
100
AcDbSpline
210
0.0
220
0.0
230
1.0
 70
     8
 71
     3
 72
    22
 73
    18
 74
     0
 42
0.00000001
 43
0.00000001
 40
0.0
 40
0.0
 40
0.0
 40
0.0
 40
0.1249999999999999
 40
0.1249999999999999
 40
0.2499999999999999
 40
0.2499999999999999
 40
0.3749999999999999
 40
0.3749999999999999
 40
0.5
 40
0.5
 40
0.625
 40
0.625
 40
0.7500000000000001
 40
0.7500000000000001
 40
0.875
 40
0.875
 40
1.0
 40
1.0
 40
1.0
 40
1.0
 10
189.9116665203163
 20
253.2454259775512
 30
0.0
 10
189.7751033419117
 20
253.4391991362887
 30
0.0
 10
189.6331504010419
 20
253.7088007973417
 30
0.0
 10
189.355531525241
 20
254.4424316514141
 30
0.0
 10
189.2199785105742
 20
254.9077526364324
 30
0.0
 10
188.9824650926757
 20
256.0402580505997
 30
0.0
 10
188.8809873625381
 20
256.7081817541216
 30
0.0
 10
188.7407711888093
 20
258.1806632099452
 30
0.0
 10
188.7025912045883
 20
258.9838990346495
 30
0.0
 10
188.7025912045883
 20
260.5930524922786
 30
0.0
 10
188.7407711888093
 20
261.3962883169828
 30
0.0
 10
188.8809873625381
 20
262.8687697728065
 30
0.0
 10
188.9824650926757
 20
263.5366934763283
 30
0.0
 10
189.2199785105742
 20
264.6691988904957
 30
0.0
 10
189.355531525241
 20
265.1345198755139
 30
0.0
 10
189.6331504010419
 20
265.8681507295863
 30
0.0
 10
189.7751033419117
 20
266.1377523906394
 30
0.0
 10
189.9116665203163
 20
266.3315255493769
 30
0.0
  0
SPLINE
  5
24F
330
1F
100
AcDbEntity
  8
0
  6
SLD-Сплошная
 62
     7
370
    25
100
AcDbSpline
210
0.0
220
0.0
230
1.0
 70
     8
 71
     3
 72
    19
 73
    15
 74
     0
 42
0.00000001
 43
0.00000001
 40
0.0
 40
0.0
 40
0.0
 40
0.0
 40
0.076279918868466
 40
0.1566620513443413
 40
0.2410005829813666
 40
0.3290255393661966
 40
0.4203259982127591
 40
0.5126456610716876
 40
0.6069206651277131
 40
0.7023732684000688
 40
0.7981482819402707
 40
0.8952887174795654
 40
0.99092654511022
 40
1.0
 40
1.0
 40
1.0
 40
1.0
 10
189.9116665203163
 20
253.2454259775512
 30
0.0
 10
189.9831858066119
 20
252.1188541967698
 30
0.0
 10
190.1300705735066
 20
249.8051253834473
 30
0.0
 10
190.484470200093
 20
246.3967136872529
 30
0.0
 10
190.953999032765
 20
243.0044714309883
 30
0.0
 10
191.5532442376734
 20
239.7226353370096
 30
0.0
 10
192.2740846585396
 20
236.6629049961116
 30
0.0
 10
193.107574161383
 20
233.9160055482859
 30
0.0
 10
194.0377026832564
 20
231.5608323384534
 30
0.0
 10
195.0496936556009
 20
229.6602481512243
 30
0.0
 10
196.1265400044608
 20
228.2393974561827
 30
0.0
 10
197.2411333892437
 20
227.4107435334404
 30
0.0
 10
198.0356060025771
 20
227.0683043417295
 30
0.0
 10
198.4467976411298
 20
227.1537620303184
 30
0.0
 10
198.4824282694027
 20
227.1611671204265
 30
0.0
  0
LINE
  5
250
330
1F
100
AcDbEntity
  8
0
  6
SLD-Сплошная
 62
     7
370
    25
100
AcDbLine
 10
203.2127942336
 20
232.3221213463
 30
0.0
 11
203.9425943187
 21
234.2884757635
 31
0.0
  0
LINE
  5
251
330
1F
100
AcDbEntity
  8
0
  6
SLD-Сплошная
 62
     7
370
    25
100
AcDbLine
 10
203.9425943187
 20
285.2884757635
 30
0.0
 11
203.2127942336
 21
287.2548301806
 31
0.0
  0
LINE
  5
252
330
1F
100
AcDbEntity
  8
0
  6
SLD-Сплошная
 62
     7
370
    25
100
AcDbLine
 10
207.6336480867
 20
222.2884757635
 30
0.0
 11
188.222219704
 21
222.2884757635
 31
0.0
  0
LWPOLYLINE
  5
253
330
1F
100
AcDbEntity
  8
0
  6
SLD-Сплошная
 62
     7
370
    25
100
AcDbPolyline
 90
        9
 70
   128
 43
0.0
 10
188.222219704
 20
222.2884757635
 10
187.9697542497
 20
222.3845493614
 10
187.7269909013
 20
222.6690781009
 10
187.503258918
 20
223.131127702
 10
187.3071561946
 20
223.7529418575
 10
187.1462188486
 20
224.5106245984
 10
187.026631612
 20
225.3750586016
 10
186.9529901554
 20
226.3130241534
 10
186.9281244785
 20
227.2884757635
  0
LINE
  5
254
330
1F
100
AcDbEntity
  8
0
  6
SLD-Сплошная
 62
     7
370
    25
100
AcDbLine
 10
186.9281244785
 20
227.2884757635
 30
0.0
 11
186.9281244785
 21
292.2884757635
 31
0.0
  0
LWPOLYLINE
  5
255
330
1F
100
AcDbEntity
  8
0
  6
SLD-Сплошная
 62
     7
370
    25
100
AcDbPolyline
 90
        9
 70
   128
 43
0.0
 10
186.9281244785
 20
292.2884757635
 10
186.9529901554
 20
293.2639273735
 10
187.026631612
 20
294.2018929253
 10
187.1462188486
 20
295.0663269286
 10
187.3071561946
 20
295.8240096694
 10
187.503258918
 20
296.445823825
 10
187.7269909013
 20
296.907873426
 10
187.9697542497
 20
297.1924021655
 10
188.222219704
 20
297.2884757635
  0
LINE
  5
256
330
1F
100
AcDbEntity
  8
0
  6
SLD-Сплошная
 62
     7
370
    25
100
AcDbLine
 10
188.222219704
 20
297.2884757635
 30
0.0
 11
207.6336480867
 21
297.2884757635
 31
0.0
  0
LWPOLYLINE
  5
257
330
1F
100
AcDbEntity
  8
0
  6
SLD-Сплошная
 62
     7
370
    25
100
AcDbPolyline
 90
        9
 70
   128
 43
0.0
 10
207.6336480867
 20
297.2884757635
 10
207.886113541
 20
297.1924021655
 10
208.1288768894
 20
296.907873426
 10
208.3526088727
 20
296.445823825
 10
208.5487115962
 20
295.8240096694
 10
208.7096489421
 20
295.0663269286
 10
208.8292361787
 20
294.2018929253
 10
208.9028776353
 20
293.2639273735
 10
208.9277433122
 20
292.2884757635
  0
LINE
  5
258
330
1F
100
AcDbEntity
  8
0
  6
SLD-Сплошная
 62
     7
370
    25
100
AcDbLine
 10
208.9277433122
 20
292.2884757635
 30
0.0
 11
208.9277433122
 21
285.2884757635
 31
0.0
  0
LINE
  5
259
330
1F
100
AcDbEntity
  8
0
  6
SLD-Сплошная
 62
     7
370
    25
100
AcDbLine
 10
208.9277433122
 20
234.2884757635
 30
0.0
 11
208.9277433122
 21
227.2884757635
 31
0.0
  0
LWPOLYLINE
  5
25A
330
1F
100
AcDbEntity
  8
0
  6
SLD-Сплошная
 62
     7
370
    25
100
AcDbPolyline
 90
        9
 70
   128
 43
0.0
 10
208.9277433122
 20
227.2884757635
 10
208.9028776353
 20
226.3130241534
 10
208.8292361787
 20
225.3750586016
 10
208.7096489421
 20
224.5106245984
 10
208.5487115962
 20
223.7529418575
 10
208.3526088727
 20
223.131127702
 10
208.1288768894
 20
222.6690781009
 10
207.886113541
 20
222.3845493614
 10
207.6336480867
 20
222.2884757635
  0
LINE
  5
25B
330
1F
100
AcDbEntity
  8
0
  6
SLD-Сплошная
 62
     7
370
    25
100
AcDbLine
 10
188.222219704
 20
222.2884757635
 30
0.0
 11
180.4948130937
 21
222.2884757635
 31
0.0
  0
LWPOLYLINE
  5
25C
330
1F
100
AcDbEntity
  8
0
  6
SLD-Сплошная
 62
     7
370
    25
100
AcDbPolyline
 90
        9
 70
   128
 43
0.0
 10
180.4948130937
 20
222.2884757635
 10
180.2423476394
 20
222.3845493614
 10
179.999584291
 20
222.6690781009
 10
179.7758523077
 20
223.131127702
 10
179.5797495842
 20
223.7529418575
 10
179.4188122383
 20
224.5106245984
 10
179.2992250017
 20
225.3750586016
 10
179.2255835451
 20
226.3130241534
 10
179.2007178682
 20
227.2884757635
  0
LINE
  5
25D
330
1F
100
AcDbEntity
  8
0
  6
SLD-Сплошная
 62
     7
370
    25
100
AcDbLine
 10
179.2007178682
 20
227.2884757635
 30
0.0
 11
179.2007178682
 21
292.2884757635
 31
0.0
  0
LINE
  5
25E
330
1F
100
AcDbEntity
  8
0
  6
SLD-Сплошная
 62
     7
370
    25
100
AcDbLine
 10
188.222219704
 20
297.2884757635
 30
0.0
 11
180.4948130937
 21
297.2884757635
 31
0.0
  0
LWPOLYLINE
  5
25F
330
1F
100
AcDbEntity
  8
0
  6
SLD-Сплошная
 62
     7
370
    25
100
AcDbPolyline
 90
        9
 70
   128
 43
0.0
 10
179.2007178682
 20
292.2884757635
 10
179.2255835451
 20
293.2639273735
 10
179.2992250017
 20
294.2018929253
 10
179.4188122383
 20
295.0663269286
 10
179.5797495842
 20
295.8240096694
 10
179.7758523077
 20
296.445823825
 10
179.999584291
 20
296.907873426
 10
180.2423476394
 20
297.1924021655
 10
180.4948130937
 20
297.2884757635
  0
LINE
  5
260
330
1F
100
AcDbEntity
  8
0
  6
SLD-Сплошная
 62
     7
370
    25
100
AcDbLine
 10
179.2007178682
 20
253.2454259776
 30
0.0
 11
161.2127942336
 21
253.2454259776
 31
0.0
  0
LINE
  5
261
330
1F
100
AcDbEntity
  8
0
  6
SLD-Сплошная
 62
     7
370
    25
100
AcDbLine
 10
161.2127942336
 20
266.3315255494
 30
0.0
 11
179.2007178682
 21
266.3315255494
 31
0.0
  0
LINE
  5
262
330
1F
100
AcDbEntity
  8
0
  6
SLD-Сплошная
 62
     7
370
    25
100
AcDbLine
 10
203.2127942336
 20
266.3315255494
 30
0.0
 11
203.2127942336
 21
253.2454259776
 31
0.0
  0
LINE
  5
263
330
1F
100
AcDbEntity
  8
0
  6
SLD-Сплошная
 62
     7
370
    25
100
AcDbLine
 10
203.2127942336
 20
253.2454259776
 30
0.0
 11
189.9116665203
 21
253.2454259776
 31
0.0
  0
LINE
  5
264
330
1F
100
AcDbEntity
  8
0
  6
SLD-Сплошная
 62
     7
370
    25
100
AcDbLine
 10
189.9116665203
 20
266.3315255494
 30
0.0
 11
203.2127942336
 21
266.3315255494
 31
0.0
  0
LINE
  5
265
330
1F
100
AcDbEntity
  8
0
  6
SLD-Сплошная
 62
     7
370
    25
100
AcDbLine
 10
203.2127942336
 20
227.1384757635
 30
0.0
 11
203.2127942336
 21
253.2454259776
 31
0.0
  0
LINE
  5
266
330
1F
100
AcDbEntity
  8
0
  6
SLD-Сплошная
 62
     7
370
    25
100
AcDbLine
 10
179.2013003421
 20
227.1384757635
 30
0.0
 11
161.2127942336
 21
227.1384757635
 31
0.0
  0
LINE
  5
267
330
1F
100
AcDbEntity
  8
0
  6
SLD-Сплошная
 62
     7
370
    25
100
AcDbLine
 10
166.2127942336
 20
289.5119464875
 30
0.0
 11
179.2007178682
 21
289.5119464875
 31
0.0
  0
LINE
  5
268
330
1F
100
AcDbEntity
  8
0
  6
SLD-Сплошная
 62
     7
370
    25
100
AcDbLine
 10
166.2127942336
 20
289.5119464875
 30
0.0
 11
166.2127942336
 21
292.4384757635
 31
0.0
  0
LINE
  5
269
330
1F
100
AcDbEntity
  8
0
  6
SLD-Сплошная
 62
     7
370
    25
100
AcDbLine
 10
203.2127942336
 20
292.4384757635
 30
0.0
 11
198.4827367283
 21
292.4384757635
 31
0.0
  0
LINE
  5
26A
330
1F
100
AcDbEntity
  8
0
  6
SLD-Сплошная
 62
     7
370
    25
100
AcDbLine
 10
203.2127942336
 20
266.3315255494
 30
0.0
 11
203.2127942336
 21
292.4384757635
 31
0.0
  0
LINE
  5
26B
330
1F
100
AcDbEntity
  8
0
  6
SLD-Сплошная
 62
     7
370
    25
100
AcDbLine
 10
203.2127942336
 20
285.2884757635
 30
0.0
 11
226.2127942336
 21
285.2884757635
 31
0.0
  0
LINE
  5
26C
330
1F
100
AcDbEntity
  8
0
  6
SLD-Сплошная
 62
     7
370
    25
100
AcDbLine
 10
226.2127942336
 20
234.2884757635
 30
0.0
 11
226.2127942336
 21
285.2884757635
 31
0.0
  0
LINE
  5
26D
330
1F
100
AcDbEntity
  8
0
  6
SLD-Сплошная
 62
     7
370
    25
100
AcDbLine
 10
203.2127942336
 20
234.2884757635
 30
0.0
 11
226.2127942336
 21
234.2884757635
 31
0.0
  0
LINE
  5
26E
330
1F
100
AcDbEntity
  8
0
  6
SLD-Сплошная
 62
     7
370
    25
100
AcDbLine
 10
242.7127942336
 20
251.5884757635
 30
0.0
 11
226.2127942336
 21
251.5884757635
 31
0.0
  0
LINE
  5
26F
330
1F
100
AcDbEntity
  8
0
  6
SLD-Сплошная
 62
     7
370
    25
100
AcDbLine
 10
242.7127942336
 20
267.9884757635
 30
0.0
 11
226.2127942336
 21
267.9884757635
 31
0.0
  0
LINE
  5
270
330
1F
100
AcDbEntity
  8
0
  6
SLD-Сплошная
 62
     7
370
    25
100
AcDbLine
 10
242.7127942336
 20
267.9884757635
 30
0.0
 11
242.7127942336
 21
251.5884757635
 31
0.0
  0
LINE
  5
271
330
1F
100
AcDbEntity
  8
0
  6
SLD-Сплошная
 62
     7
370
    25
100
AcDbLine
 10
170.2167397551
 20
290.1815997517
 30
0.0
 11
172.5648097551
 21
290.1815997517
 31
0.0
  0
LINE
  5
272
330
1F
100
AcDbEntity
  8
0
  6
SLD-Сплошная
 62
     7
370
    25
100
AcDbLine
 10
173.3475092311
 20
290.1815997517
 30
0.0
 11
178.8263487071
 21
290.1815997517
 31
0.0
  0
LINE
  5
273
330
1F
100
AcDbEntity
  8
0
  6
SLD-Сплошная
 62
     7
370
    25
100
AcDbLine
 10
173.3475092311
 20
290.6057109698
 30
0.0
 11
178.8263487071
 21
290.6057109698
 31
0.0
  0
LINE
  5
274
330
1F
100
AcDbEntity
  8
0
  6
SLD-Сплошная
 62
     7
370
    25
100
AcDbLine
 10
178.8263487071
 20
290.1815997517
 30
0.0
 11
178.8263487071
 21
290.6057109698
 31
0.0
  0
LINE
  5
275
330
1F
100
AcDbEntity
  8
0
  6
SLD-Сплошная
 62
     7
370
    25
100
AcDbLine
 10
173.3475092311
 20
290.1815997517
 30
0.0
 11
173.3475092311
 21
290.6057109698
 31
0.0
  0
LINE
  5
276
330
1F
100
AcDbEntity
  8
0
  6
SLD-Сплошная
 62
     7
370
    25
100
AcDbLine
 10
170.2167397551
 20
290.6057109698
 30
0.0
 11
172.5648097551
 21
290.6057109698
 31
0.0
  0
LINE
  5
277
330
1F
100
AcDbEntity
  8
0
  6
SLD-Сплошная
 62
     7
370
    25
100
AcDbLine
 10
170.2167397551
 20
290.1815997517
 30
0.0
 11
170.2167397551
 21
290.6057109698
 31
0.0
  0
LINE
  5
278
330
1F
100
AcDbEntity
  8
0
  6
SLD-Сплошная
 62
     7
370
    25
100
AcDbLine
 10
172.5648097551
 20
290.1815997517
 30
0.0
 11
172.5648097551
 21
290.6057109698
 31
0.0
  0
LINE
  5
279
330
1F
100
AcDbEntity
  8
0
  6
SLD-Сплошная
 62
     7
370
    25
100
AcDbLine
 10
178.8263487071
 20
291.4003226993
 30
0.0
 11
173.3475092311
 21
291.4003226993
 31
0.0
  0
LINE
  5
27A
330
1F
100
AcDbEntity
  8
0
  6
SLD-Сплошная
 62
     7
370
    25
100
AcDbLine
 10
173.3475092311
 20
290.6057109698
 30
0.0
 11
173.3475092311
 21
291.4003226993
 31
0.0
  0
LINE
  5
27B
330
1F
100
AcDbEntity
  8
0
  6
SLD-Сплошная
 62
     7
370
    25
100
AcDbLine
 10
178.8263487071
 20
290.6057109698
 30
0.0
 11
178.8263487071
 21
291.4003226993
 31
0.0
  0
LINE
  5
27C
330
1F
100
AcDbEntity
  8
0
  6
SLD-Сплошная
 62
     7
370
    25
100
AcDbLine
 10
172.5648097551
 20
291.4003226993
 30
0.0
 11
170.2167397551
 21
291.4003226993
 31
0.0
  0
LINE
  5
27D
330
1F
100
AcDbEntity
  8
0
  6
SLD-Сплошная
 62
     7
370
    25
100
AcDbLine
 10
170.2167397551
 20
290.6057109698
 30
0.0
 11
170.2167397551
 21
291.4003226993
 31
0.0
  0
LINE
  5
27E
330
1F
100
AcDbEntity
  8
0
  6
SLD-Сплошная
 62
     7
370
    25
100
AcDbLine
 10
172.5648097551
 20
290.6057109698
 30
0.0
 11
172.5648097551
 21
291.4003226993
 31
0.0
  0
LINE
  5
27F
330
1F
100
AcDbEntity
  8
0
  6
SLD-Сплошная
 62
     7
370
    25
100
AcDbLine
 10
243.1127942336
 20
256.9384757635
 30
0.0
 11
242.7127942336
 21
256.9384757635
 31
0.0
  0
LINE
  5
280
330
1F
100
AcDbEntity
  8
0
  6
SLD-Сплошная
 62
     7
370
    25
100
AcDbLine
 10
243.1127942336
 20
262.6384757635
 30
0.0
 11
242.7127942336
 21
262.6384757635
 31
0.0
  0
LINE
  5
281
330
1F
100
AcDbEntity
  8
0
  6
SLD-Сплошная
 62
     7
370
    25
100
AcDbLine
 10
243.1127942336
 20
262.6384757635
 30
0.0
 11
243.1127942336
 21
256.9384757635
 31
0.0
  0
LINE
  5
282
330
1F
100
AcDbEntity
  8
0
  6
SLD-Сплошная
 62
     7
370
    25
100
AcDbLine
 10
170.2167397551
 20
291.5868879343
 30
0.0
 11
172.5648097551
 21
291.5868879343
 31
0.0
  0
LINE
  5
283
330
1F
100
AcDbEntity
  8
0
  6
SLD-Сплошная
 62
     7
370
    25
100
AcDbLine
 10
172.5648097551
 20
291.4003226993
 30
0.0
 11
172.5648097551
 21
291.5868879343
 31
0.0
  0
LINE
  5
284
330
1F
100
AcDbEntity
  8
0
  6
SLD-Сплошная
 62
     7
370
    25
100
AcDbLine
 10
170.2167397551
 20
291.4003226993
 30
0.0
 11
170.2167397551
 21
291.5868879343
 31
0.0
  0
LINE
  5
285
330
1F
100
AcDbEntity
  8
0
  6
SLD-Сплошная
 62
     7
370
    25
100
AcDbLine
 10
170.2167397551
 20
291.5868879343
 30
0.0
 11
170.2167397551
 21
292.4384757635
 31
0.0
  0
LINE
  5
286
330
1F
100
AcDbEntity
  8
0
  6
SLD-Сплошная
 62
     7
370
    25
100
AcDbLine
 10
172.5648097551
 20
291.5868879343
 30
0.0
 11
172.5648097551
 21
292.4384757635
 31
0.0
  0
LINE
  5
287
330
1F
100
AcDbEntity
  8
0
  6
SLD-Сплошная
 62
     7
370
    25
100
AcDbLine
 10
173.3475092311
 20
291.5868879343
 30
0.0
 11
173.3475092311
 21
291.4003226993
 31
0.0
  0
LINE
  5
288
330
1F
100
AcDbEntity
  8
0
  6
SLD-Сплошная
 62
     7
370
    25
100
AcDbLine
 10
173.3475092311
 20
291.5868879343
 30
0.0
 11
178.8263487071
 21
291.5868879343
 31
0.0
  0
LINE
  5
289
330
1F
100
AcDbEntity
  8
0
  6
SLD-Сплошная
 62
     7
370
    25
100
AcDbLine
 10
178.8263487071
 20
291.5868879343
 30
0.0
 11
178.8263487071
 21
291.4003226993
 31
0.0
  0
LINE
  5
28A
330
1F
100
AcDbEntity
  8
0
  6
SLD-Сплошная
 62
     7
370
    25
100
AcDbLine
 10
175.6955792311
 20
292.0956811599
 30
0.0
 11
175.6955792311
 21
292.4384757635
 31
0.0
  0
LINE
  5
28B
330
1F
100
AcDbEntity
  8
0
  6
SLD-Сплошная
 62
     7
370
    25
100
AcDbLine
 10
176.4782787071
 20
292.0956811599
 30
0.0
 11
175.6955792311
 21
292.0956811599
 31
0.0
  0
LINE
  5
28C
330
1F
100
AcDbEntity
  8
0
  6
SLD-Сплошная
 62
     7
370
    25
100
AcDbLine
 10
176.4782787071
 20
292.0956811599
 30
0.0
 11
176.4782787071
 21
292.4384757635
 31
0.0
  0
LINE
  5
28D
330
1F
100
AcDbEntity
  8
0
  6
SLD-Сплошная
 62
     7
370
    25
100
AcDbLine
 10
173.3475092311
 20
291.5868879343
 30
0.0
 11
173.3475092311
 21
292.4384757635
 31
0.0
  0
LINE
  5
28E
330
1F
100
AcDbEntity
  8
0
  6
SLD-Сплошная
 62
     7
370
    25
100
AcDbLine
 10
178.8263487071
 20
291.5868879343
 30
0.0
 11
178.8263487071
 21
292.4384757635
 31
0.0
  0
LINE
  5
28F
330
1F
100
AcDbEntity
  8
0
  6
SLD-Сплошная
 62
     7
370
    25
100
AcDbLine
 10
226.6127942336
 20
246.3171090817
 30
0.0
 11
226.2127942336
 21
246.3171090817
 31
0.0
  0
LINE
  5
290
330
1F
100
AcDbEntity
  8
0
  6
SLD-Сплошная
 62
     7
370
    25
100
AcDbLine
 10
226.6127942336
 20
245.9581347227
 30
0.0
 11
226.6127942336
 21
246.3171090817
 31
0.0
  0
LINE
  5
291
330
1F
100
AcDbEntity
  8
0
  6
SLD-Сплошная
 62
     7
370
    25
100
AcDbLine
 10
226.6127942336
 20
245.9581347227
 30
0.0
 11
226.2127942336
 21
245.9581347227
 31
0.0
  0
LINE
  5
292
330
1F
100
AcDbEntity
  8
0
  6
SLD-Сплошная
 62
     7
370
    25
100
AcDbLine
 10
226.6127942336
 20
249.2337757484
 30
0.0
 11
226.2127942336
 21
249.2337757484
 31
0.0
  0
LINE
  5
293
330
1F
100
AcDbEntity
  8
0
  6
SLD-Сплошная
 62
     7
370
    25
100
AcDbLine
 10
226.6127942336
 20
247.5286475433
 30
0.0
 11
226.2127942336
 21
247.5286475433
 31
0.0
  0
LINE
  5
294
330
1F
100
AcDbEntity
  8
0
  6
SLD-Сплошная
 62
     7
370
    25
100
AcDbLine
 10
226.6127942336
 20
247.5286475433
 30
0.0
 11
226.6127942336
 21
249.2337757484
 31
0.0
  0
LINE
  5
295
330
1F
100
AcDbEntity
  8
0
  6
SLD-Сплошная
 62
     7
370
    25
100
AcDbLine
 10
226.6127942336
 20
271.3584001375
 30
0.0
 11
226.2127942336
 21
271.3584001375
 31
0.0
  0
LINE
  5
296
330
1F
100
AcDbEntity
  8
0
  6
SLD-Сплошная
 62
     7
370
    25
100
AcDbLine
 10
226.6127942336
 20
270.8367655221
 30
0.0
 11
226.6127942336
 21
271.3584001375
 31
0.0
  0
LINE
  5
297
330
1F
100
AcDbEntity
  8
0
  6
SLD-Сплошная
 62
     7
370
    25
100
AcDbLine
 10
226.6127942336
 20
270.8367655221
 30
0.0
 11
226.2127942336
 21
270.8367655221
 31
0.0
  0
LINE
  5
298
330
1F
100
AcDbEntity
  8
0
  6
SLD-Сплошная
 62
     7
370
    25
100
AcDbLine
 10
226.6127942336
 20
271.3584001375
 30
0.0
 11
226.6127942336
 21
273.0354834709
 31
0.0
  0
LINE
  5
299
330
1F
100
AcDbEntity
  8
0
  6
SLD-Сплошная
 62
     7
370
    25
100
AcDbLine
 10
226.6127942336
 20
273.5290732144
 30
0.0
 11
226.2127942336
 21
273.5290732144
 31
0.0
  0
LINE
  5
29A
330
1F
100
AcDbEntity
  8
0
  6
SLD-Сплошная
 62
     7
370
    25
100
AcDbLine
 10
226.6127942336
 20
273.0354834709
 30
0.0
 11
226.2127942336
 21
273.0354834709
 31
0.0
  0
LINE
  5
29B
330
1F
100
AcDbEntity
  8
0
  6
SLD-Сплошная
 62
     7
370
    25
100
AcDbLine
 10
226.6127942336
 20
273.0354834709
 30
0.0
 11
226.6127942336
 21
273.5290732144
 31
0.0
  0
LINE
  5
29C
330
1F
100
AcDbEntity
  8
0
  6
SLD-Сплошная
 62
     7
370
    25
100
AcDbLine
 10
172.5648097551
 20
292.3996339438
 30
0.0
 11
173.3475092311
 21
292.3996339438
 31
0.0
  0
LINE
  5
29D
330
1F
100
AcDbEntity
  8
0
  6
SLD-Сплошная
 62
     7
370
    25
100
AcDbLine
 10
175.6955792311
 20
292.3996339438
 30
0.0
 11
176.4782787071
 21
292.3996339438
 31
0.0
  0
LINE
  5
29E
330
1F
100
AcDbEntity
  8
0
  6
SLD-Сплошная
 62
     7
370
    25
100
AcDbLine
 10
226.6127942336
 20
246.9901860048
 30
0.0
 11
226.2127942336
 21
246.9901860048
 31
0.0
  0
SPLINE
  5
29F
330
1F
100
AcDbEntity
  8
0
  6
SLD-Сплошная
 62
     7
370
    25
100
AcDbSpline
210
0.0
220
0.0
230
1.0
 70
    24
 71
     3
 72
    14
 73
    10
 74
     0
 42
0.00000001
 43
0.00000001
 40
0.0
 40
0.0
 40
0.0
 40
0.0
 40
0.25
 40
0.25
 40
0.5
 40
0.5
 40
0.75
 40
0.75
 40
1.0
 40
1.0
 40
1.0
 40
1.0
 10
226.6127942335612
 20
246.3171090817121
 30
0.0
 10
226.6127942335612
 20
246.3634844853155
 30
0.0
 10
226.6127942335612
 20
246.4121334761099
 30
0.0
 10
226.6127942335612
 20
246.517181301765
 30
0.0
 10
226.6127942335612
 20
246.572359537727
 30
0.0
 10
226.6127942335612
 20
246.6859647301874
 30
0.0
 10
226.6127942335612
 20
246.7440581565309
 30
0.0
 10
226.6127942335612
 20
246.8639954637724
 30
0.0
 10
226.6127942335612
 20
246.9263287162835
 30
0.0
 10
226.6127942335612
 20
246.990186004789
 30
0.0
  0
LINE
  5
2A0
330
1F
100
AcDbEntity
  8
0
  6
SLD-Сплошная
 62
     7
370
    25
100
AcDbLine
 10
226.6127942336
 20
273.7884757635
 30
0.0
 11
226.2127942336
 21
273.7884757635
 31
0.0
  0
LINE
  5
2A1
330
1F
100
AcDbEntity
  8
0
  6
SLD-Сплошная
 62
     7
370
    25
100
AcDbLine
 10
226.6127942336
 20
273.7884757635
 30
0.0
 11
226.6127942336
 21
273.5290732144
 31
0.0
  0
LINE
  5
2A2
330
1F
100
AcDbEntity
  8
0
  6
SLD-Сплошная
 62
     7
370
    25
100
AcDbLine
 10
226.6127942336
 20
273.7884757635
 30
0.0
 11
226.6127942336
 21
274.4955825447
 31
0.0
  0
LINE
  5
2A3
330
1F
100
AcDbEntity
  8
0
  6
SLD-Сплошная
 62
     7
370
    25
100
AcDbLine
 10
226.6127942336
 20
275.2884757635
 30
0.0
 11
226.2127942336
 21
275.2884757635
 31
0.0
  0
LINE
  5
2A4
330
1F
100
AcDbEntity
  8
0
  6
SLD-Сплошная
 62
     7
370
    25
100
AcDbLine
 10
226.6127942336
 20
275.2884757635
 30
0.0
 11
226.6127942336
 21
274.4955825447
 31
0.0
  0
LINE
  5
2A5
330
1F
100
AcDbEntity
  8
0
  6
SLD-Сплошная
 62
     7
370
    25
100
AcDbLine
 10
226.2127942336
 20
274.4955825447
 30
0.0
 11
226.6127942336
 21
274.4955825447
 31
0.0
  0
LINE
  5
2A6
330
1F
100
AcDbEntity
  8
0
  6
SLD-Сплошная
 62
     7
370
    25
100
AcDbLine
 10
226.6127942336
 20
279.7884757635
 30
0.0
 11
226.2127942336
 21
279.7884757635
 31
0.0
  0
LINE
  5
2A7
330
1F
100
AcDbEntity
  8
0
  6
SLD-Сплошная
 62
     7
370
    25
100
AcDbLine
 10
226.6127942336
 20
278.9134757635
 30
0.0
 11
226.2127942336
 21
278.9134757635
 31
0.0
  0
SPLINE
  5
2A8
330
1F
100
AcDbEntity
  8
0
  6
SLD-Сплошная
 62
     7
370
    25
100
AcDbSpline
210
0.0
220
0.0
230
1.0
 70
    24
 71
     3
 72
    16
 73
    12
 74
     0
 42
0.00000001
 43
0.00000001
 40
0.0
 40
0.0
 40
0.0
 40
0.0
 40
0.2500000000000006
 40
0.2500000000000006
 40
0.5000000000000012
 40
0.5000000000000012
 40
0.7500000000000018
 40
0.7500000000000018
 40
0.8750000000000009
 40
0.8750000000000009
 40
1.0
 40
1.0
 40
1.0
 40
1.0
 10
226.6127942335612
 20
278.9134757634639
 30
0.0
 10
226.6127942335612
 20
278.9640811212135
 30
0.0
 10
226.6127942335612
 20
279.0163634704041
 30
0.0
 10
226.6127942335612
 20
279.1376569397411
 30
0.0
 10
226.6127942335612
 20
279.2043165822
 30
0.0
 10
226.6127942335612
 20
279.3499303929149
 30
0.0
 10
226.6127942335612
 20
279.4279284530913
 30
0.0
 10
226.6127942335612
 20
279.555191312307
 30
0.0
 10
226.6127942335612
 20
279.5989282559152
 30
0.0
 10
226.6127942335612
 20
279.690717097053
 30
0.0
 10
226.6127942335612
 20
279.7395123394754
 30
0.0
 10
226.6127942335612
 20
279.7884757634639
 30
0.0
  0
LINE
  5
2A9
330
1F
100
AcDbEntity
  8
0
  6
SLD-Сплошная
 62
     7
370
    25
100
AcDbLine
 10
226.6127942336
 20
278.4998139045
 30
0.0
 11
226.2127942336
 21
278.4998139045
 31
0.0
  0
LINE
  5
2AA
330
1F
100
AcDbEntity
  8
0
  6
SLD-Сплошная
 62
     7
370
    25
100
AcDbLine
 10
226.6127942336
 20
278.4998139045
 30
0.0
 11
226.6127942336
 21
278.9134757635
 31
0.0
  0
LINE
  5
2AB
330
1F
100
AcDbEntity
  8
0
  6
SLD-Сплошная
 62
     7
370
    25
100
AcDbLine
 10
226.6127942336
 20
276.2884757635
 30
0.0
 11
226.2127942336
 21
276.2884757635
 31
0.0
  0
LINE
  5
2AC
330
1F
100
AcDbEntity
  8
0
  6
SLD-Сплошная
 62
     7
370
    25
100
AcDbLine
 10
226.6127942336
 20
276.2884757635
 30
0.0
 11
226.6127942336
 21
278.4998139045
 31
0.0
  0
LINE
  5
2AD
330
1F
100
AcDbEntity
  8
0
  6
SLD-Сплошная
 62
     7
370
    25
100
AcDbLine
 10
226.6127942336
 20
276.2436039686
 30
0.0
 11
226.2127942336
 21
276.2436039686
 31
0.0
  0
LINE
  5
2AE
330
1F
100
AcDbEntity
  8
0
  6
SLD-Сплошная
 62
     7
370
    25
100
AcDbLine
 10
226.6127942336
 20
275.7884757635
 30
0.0
 11
226.2127942336
 21
275.7884757635
 31
0.0
  0
LINE
  5
2AF
330
1F
100
AcDbEntity
  8
0
  6
SLD-Сплошная
 62
     7
370
    25
100
AcDbLine
 10
226.6127942336
 20
275.7884757635
 30
0.0
 11
226.6127942336
 21
275.2884757635
 31
0.0
  0
LINE
  5
2B0
330
1F
100
AcDbEntity
  8
0
  6
SLD-Сплошная
 62
     7
370
    25
100
AcDbLine
 10
226.6127942336
 20
249.5772442475
 30
0.0
 11
226.2127942336
 21
249.5772442475
 31
0.0
  0
LINE
  5
2B1
330
1F
100
AcDbEntity
  8
0
  6
SLD-Сплошная
 62
     7
370
    25
100
AcDbLine
 10
226.6127942336
 20
249.5772442475
 30
0.0
 11
226.6127942336
 21
251.5884757635
 31
0.0
  0
LINE
  5
2B2
330
1F
100
AcDbEntity
  8
0
  6
SLD-Сплошная
 62
     7
370
    25
100
AcDbLine
 10
226.6127942336
 20
269.8650918948
 30
0.0
 11
226.2127942336
 21
269.8650918948
 31
0.0
  0
LINE
  5
2B3
330
1F
100
AcDbEntity
  8
0
  6
SLD-Сплошная
 62
     7
370
    25
100
AcDbLine
 10
226.6127942336
 20
267.9884757635
 30
0.0
 11
226.6127942336
 21
269.8650918948
 31
0.0
  0
ARC
  5
2B4
330
1F
100
AcDbEntity
  8
0
  6
SLD-Сплошная
 62
     7
370
    25
100
AcDbCircle
 10
301.2127942336
 20
259.7884757635
 30
0.0
 40
145.0674929127817
100
AcDbArc
 50
176.0472706748
 51
183.9527293252
  0
LINE
  5
2B5
330
1F
100
AcDbEntity
  8
0
  6
SLD-Сплошная
 62
     7
370
    25
100
AcDbLine
 10
156.4903788999
 20
269.7884757635
 30
0.0
 11
161.2127942336
 21
269.7884757635
 31
0.0
  0
LINE
  5
2B6
330
1F
100
AcDbEntity
  8
0
  6
SLD-Сплошная
 62
     7
370
    25
100
AcDbLine
 10
161.2127942336
 20
249.7884757635
 30
0.0
 11
161.2127942336
 21
269.7884757635
 31
0.0
  0
LINE
  5
2B7
330
1F
100
AcDbEntity
  8
0
  6
SLD-Сплошная
 62
     7
370
    25
100
AcDbLine
 10
156.4903788999
 20
249.7884757635
 30
0.0
 11
161.2127942336
 21
249.7884757635
 31
0.0
  0
SPLINE
  5
2B8
330
1F
100
AcDbEntity
  8
0
  6
SLD-Сплошная
 62
     7
370
    25
100
AcDbSpline
210
0.0
220
0.0
230
1.0
 70
     8
 71
     3
 72
    14
 73
    10
 74
     0
 42
0.00000001
 43
0.00000001
 40
0.0
 40
0.0
 40
0.0
 40
0.0
 40
0.1415918286228583
 40
0.2836122978925401
 40
0.4260573736702701
 40
0.5689229343651951
 40
0.7122047710039987
 40
0.8558985873396617
 40
1.0
 40
1.0
 40
1.0
 40
1.0
 10
156.4903788999301
 20
269.788475763464
 30
0.0
 10
156.3834388898254
 20
269.7884757050796
 30
0.0
 10
156.169235130347
 20
269.7884755881338
 30
0.0
 10
155.8607437835931
 20
269.7884750966175
 30
0.0
 10
155.5611742673307
 20
269.7884747979223
 30
0.0
 10
155.2715361363508
 20
269.7884747950176
 30
0.0
 10
154.9919605220809
 20
269.7884750907612
 30
0.0
 10
154.7216477378903
 20
269.7884755856139
 30
0.0
 10
154.5504005864478
 20
269.7884757041247
 30
0.0
 10
154.4646557444537
 20
269.788475763464
 30
0.0
  0
SPLINE
  5
2B9
330
1F
100
AcDbEntity
  8
0
  6
SLD-Сплошная
 62
     7
370
    25
100
AcDbSpline
210
0.0
220
0.0
230
1.0
 70
     8
 71
     3
 72
    15
 73
    11
 74
     0
 42
0.00000001
 43
0.00000001
 40
0.0
 40
0.0
 40
0.0
 40
0.0
 40
0.1261109372633945
 40
0.251910231020482
 40
0.3773949338188905
 40
0.5025621492530674
 40
0.6274090320468728
 40
0.7519327881182444
 40
0.8761306746261387
 40
1.0
 40
1.0
 40
1.0
 40
1.0
 10
154.4646557444537
 20
249.788475763464
 30
0.0
 10
154.5395803752935
 20
249.7884758091199
 30
0.0
 10
154.6892444843197
 20
249.7884759003187
 30
0.0
 10
154.9240477230432
 20
249.7884763209741
 30
0.0
 10
155.1659513581292
 20
249.7884766380616
 30
0.0
 10
155.4156475614272
 20
249.7884767614415
 30
0.0
 10
155.6727981525983
 20
249.788476633462
 30
0.0
 10
155.9375704922428
 20
249.7884763152413
 30
0.0
 10
156.2091358057461
 20
249.7884758982621
 30
0.0
 10
156.3967140166689
 20
249.788475808357
 30
0.0
 10
156.4903788999301
 20
249.788475763464
 30
0.0
  0
ARC
  5
2BA
330
1F
100
AcDbEntity
  8
0
  6
SLD-Сплошная
 62
     7
370
    25
100
AcDbCircle
 10
156.421297591
 20
229.1384757635
 30
0.0
 40
2.000000000000016
100
AcDbArc
 50
191.9521421768
 51
270.0
  0
LINE
  5
2BB
330
1F
100
AcDbEntity
  8
0
  6
SLD-Сплошная
 62
     7
370
    25
100
AcDbLine
 10
161.2127942336
 20
269.7884757635
 30
0.0
 11
161.2127942336
 21
292.4384757635
 31
0.0
  0
LINE
  5
2BC
330
1F
100
AcDbEntity
  8
0
  6
SLD-Сплошная
 62
     7
370
    25
100
AcDbLine
 10
161.2127942336
 20
227.1384757635
 30
0.0
 11
161.2127942336
 21
249.7884757635
 31
0.0
  0
LINE
  5
2BD
330
1F
100
AcDbEntity
  8
0
  6
SLD-Сплошная
 62
     7
370
    25
100
AcDbLine
 10
182.8302942286
 20
4.6804799266
 30
0.0
 11
184.2127942336
 21
4.6804799266
 31
0.0
  0
LINE
  5
2BE
330
1F
100
AcDbEntity
  8
0
  6
SLD-Сплошная
 62
     7
370
    25
100
AcDbLine
 10
161.2127942336
 20
4.6804799266
 30
0.0
 11
166.2127942336
 21
4.6804799266
 31
0.0
  0
LINE
  5
2BF
330
1F
100
AcDbEntity
  8
0
  6
SLD-Сплошная
 62
     7
370
    25
100
AcDbLine
 10
178.8263487071
 20
5.0804799266
 30
0.0
 11
182.8302942286
 21
5.0804799266
 31
0.0
  0
LINE
  5
2C0
330
1F
100
AcDbEntity
  8
0
  6
SLD-Сплошная
 62
     7
370
    25
100
AcDbLine
 10
166.2127942336
 20
5.0804799266
 30
0.0
 11
170.2167397551
 21
5.0804799266
 31
0.0
  0
LINE
  5
2C1
330
1F
100
AcDbEntity
  8
0
  6
SLD-Сплошная
 62
     7
370
    25
100
AcDbLine
 10
176.4782787071
 20
4.6804799266
 30
0.0
 11
178.8263487071
 21
4.6804799266
 31
0.0
  0
LINE
  5
2C2
330
1F
100
AcDbEntity
  8
0
  6
SLD-Сплошная
 62
     7
370
    25
100
AcDbLine
 10
173.3475092311
 20
4.6804799266
 30
0.0
 11
175.6955792311
 21
4.6804799266
 31
0.0
  0
LINE
  5
2C3
330
1F
100
AcDbEntity
  8
0
  6
SLD-Сплошная
 62
     7
370
    25
100
AcDbLine
 10
170.2167397551
 20
4.6804799266
 30
0.0
 11
172.5648097551
 21
4.6804799266
 31
0.0
  0
LINE
  5
2C4
330
1F
100
AcDbEntity
  8
0
  6
SLD-Сплошная
 62
     7
370
    25
100
AcDbLine
 10
223.7127942336
 20
53.4319787676
 30
0.0
 11
222.4225106949
 21
53.4319787676
 31
0.0
  0
LINE
  5
2C5
330
1F
100
AcDbEntity
  8
0
  6
SLD-Сплошная
 62
     7
370
    25
100
AcDbLine
 10
217.0030777722
 20
53.4319787676
 30
0.0
 11
215.7225106949
 21
53.4319787676
 31
0.0
  0
LINE
  5
2C6
330
1F
100
AcDbEntity
  8
0
  6
SLD-Сплошная
 62
     7
370
    25
100
AcDbLine
 10
216.2225106949
 20
21.2289810857
 30
0.0
 11
217.5030777722
 21
21.2289810857
 31
0.0
  0
LINE
  5
2C7
330
1F
100
AcDbEntity
  8
0
  6
SLD-Сплошная
 62
     7
370
    25
100
AcDbLine
 10
222.9225106949
 20
21.2289810857
 30
0.0
 11
223.7127942336
 21
21.2289810857
 31
0.0
  0
LINE
  5
2C8
330
1F
100
AcDbEntity
  8
0
  6
SLD-Сплошная
 62
     7
370
    25
100
AcDbLine
 10
215.9127942336
 20
51.8128491328
 30
0.0
 11
215.9127942336
 21
52.4340148411
 31
0.0
  0
LINE
  5
2C9
330
1F
100
AcDbEntity
  8
0
  6
SLD-Сплошная
 62
     7
370
    25
100
AcDbLine
 10
210.1127942336
 20
52.4340148411
 30
0.0
 11
210.1127942336
 21
51.8128491328
 31
0.0
  0
LINE
  5
2CA
330
1F
100
AcDbEntity
  8
0
  6
SLD-Сплошная
 62
     7
370
    25
100
AcDbLine
 10
210.6127942336
 20
22.8481107205
 30
0.0
 11
210.6127942336
 21
22.2269450122
 31
0.0
  0
LINE
  5
2CB
330
1F
100
AcDbEntity
  8
0
  6
SLD-Сплошная
 62
     7
370
    25
100
AcDbLine
 10
216.4127942336
 20
22.2269450122
 30
0.0
 11
216.4127942336
 21
22.8481107205
 31
0.0
  0
LINE
  5
2CC
330
1F
100
AcDbEntity
  8
0
  6
SLD-Сплошная
 62
     7
370
    25
100
AcDbLine
 10
217.3127942336
 20
22.8481107205
 30
0.0
 11
217.3127942336
 21
22.2269450122
 31
0.0
  0
LINE
  5
2CD
330
1F
100
AcDbEntity
  8
0
  6
SLD-Сплошная
 62
     7
370
    25
100
AcDbLine
 10
223.1127942336
 20
22.2269450122
 30
0.0
 11
223.1127942336
 21
22.8481107205
 31
0.0
  0
LINE
  5
2CE
330
1F
100
AcDbEntity
  8
0
  6
SLD-Сплошная
 62
     7
370
    25
100
AcDbLine
 10
222.6127942336
 20
51.8128491328
 30
0.0
 11
222.6127942336
 21
52.4340148411
 31
0.0
  0
LINE
  5
2CF
330
1F
100
AcDbEntity
  8
0
  6
SLD-Сплошная
 62
     7
370
    25
100
AcDbLine
 10
216.8127942336
 20
52.4340148411
 30
0.0
 11
216.8127942336
 21
51.8128491328
 31
0.0
  0
LINE
  5
2D0
330
1F
100
AcDbEntity
  8
0
  6
SLD-Сплошная
 62
     7
370
    25
100
AcDbLine
 10
179.3704783175
 20
32.4855450284
 30
0.0
 11
179.3704783175
 21
42.2514897801
 31
0.0
  0
LINE
  5
2D1
330
1F
100
AcDbEntity
  8
0
  6
SLD-Сплошная
 62
     7
370
    25
100
AcDbLine
 10
179.9127942336
 20
27.3304799266
 30
0.0
 11
179.9127942336
 21
47.3304799266
 31
0.0
  0
ARC
  5
2D2
330
1F
100
AcDbEntity
  8
0
  6
SLD-Сплошная
 62
     7
370
    25
100
AcDbCircle
 10
301.2127942336
 20
37.3304799266
 30
0.0
 40
150.0000000000005
100
AcDbArc
 50
168.0478578232
 51
191.9521421768
  0
ARC
  5
2D3
330
1F
100
AcDbEntity
  8
0
  6
SLD-Сплошная
 62
     7
370
    25
100
AcDbCircle
 10
156.421297591
 20
6.6804799266
 30
0.0
 40
2.000000000000013
100
AcDbArc
 50
191.9521421768
 51
270.0
  0
LINE
  5
2D4
330
1F
100
AcDbEntity
  8
0
  6
SLD-Сплошная
 62
     7
370
    25
100
AcDbLine
 10
161.2127942336
 20
69.9804799266
 30
0.0
 11
156.421297591
 21
69.9804799266
 31
0.0
  0
LINE
  5
2D5
330
1F
100
AcDbEntity
  8
0
  6
SLD-Сплошная
 62
     7
370
    25
100
AcDbLine
 10
156.421297591
 20
4.6804799266
 30
0.0
 11
161.2127942336
 21
4.6804799266
 31
0.0
  0
LINE
  5
2D6
330
1F
100
AcDbEntity
  8
0
  6
SLD-Сплошная
 62
     7
370
    25
100
AcDbLine
 10
168.7127942336
 20
47.3304799266
 30
0.0
 11
168.7127942336
 21
51.6304799266
 31
0.0
  0
LINE
  5
2D7
330
1F
100
AcDbEntity
  8
0
  6
SLD-Сплошная
 62
     7
370
    25
100
AcDbLine
 10
172.1047216848
 20
47.3304799266
 30
0.0
 11
175.3208667823
 21
47.3304799266
 31
0.0
  0
LINE
  5
2D8
330
1F
100
AcDbEntity
  8
0
  6
SLD-Сплошная
 62
     7
370
    25
100
AcDbLine
 10
175.8258855423
 20
51.6304799266
 30
0.0
 11
168.7127942336
 21
51.6304799266
 31
0.0
  0
LINE
  5
2D9
330
1F
100
AcDbEntity
  8
0
  6
SLD-Сплошная
 62
     7
370
    25
100
AcDbLine
 10
172.1047216848
 20
27.3304799266
 30
0.0
 11
175.3208667823
 21
27.3304799266
 31
0.0
  0
LINE
  5
2DA
330
1F
100
AcDbEntity
  8
0
  6
SLD-Сплошная
 62
     7
370
    25
100
AcDbLine
 10
175.8258855423
 20
23.0304799266
 30
0.0
 11
168.7127942336
 21
23.0304799266
 31
0.0
  0
LINE
  5
2DB
330
1F
100
AcDbEntity
  8
0
  6
SLD-Сплошная
 62
     7
370
    25
100
AcDbLine
 10
168.7127942336
 20
27.3304799266
 30
0.0
 11
168.7127942336
 21
23.0304799266
 31
0.0
  0
LINE
  5
2DC
330
1F
100
AcDbEntity
  8
0
  6
SLD-Сплошная
 62
     7
370
    25
100
AcDbLine
 10
189.2127942336
 20
47.3304799266
 30
0.0
 11
189.2127942336
 21
27.3304799266
 31
0.0
  0
LINE
  5
2DD
330
1F
100
AcDbEntity
  8
0
  6
SLD-Сплошная
 62
     7
370
    25
100
AcDbLine
 10
199.2942084747
 20
51.6304799266
 30
0.0
 11
199.2942084747
 21
23.0304799266
 31
0.0
  0
LINE
  5
2DE
330
1F
100
AcDbEntity
  8
0
  6
SLD-Сплошная
 62
     7
370
    25
100
AcDbLine
 10
199.2942084747
 20
23.0304799266
 30
0.0
 11
175.8258855423
 21
23.0304799266
 31
0.0
  0
LINE
  5
2DF
330
1F
100
AcDbEntity
  8
0
  6
SLD-Сплошная
 62
     7
370
    25
100
AcDbLine
 10
189.2127942336
 20
27.3304799266
 30
0.0
 11
179.1484647719
 21
27.3304799266
 31
0.0
  0
LINE
  5
2E0
330
1F
100
AcDbEntity
  8
0
  6
SLD-Сплошная
 62
     7
370
    25
100
AcDbLine
 10
179.1484647719
 20
47.3304799266
 30
0.0
 11
189.2127942336
 21
47.3304799266
 31
0.0
  0
LINE
  5
2E1
330
1F
100
AcDbEntity
  8
0
  6
SLD-Сплошная
 62
     7
370
    25
100
AcDbLine
 10
199.2942084747
 20
51.6304799266
 30
0.0
 11
175.8258855423
 21
51.6304799266
 31
0.0
  0
LINE
  5
2E2
330
1F
100
AcDbEntity
  8
0
  6
SLD-Сплошная
 62
     7
370
    25
100
AcDbLine
 10
207.6336480867
 20
74.8304799266
 30
0.0
 11
199.9062414764
 21
74.8304799266
 31
0.0
  0
LWPOLYLINE
  5
2E3
330
1F
100
AcDbEntity
  8
0
  6
SLD-Сплошная
 62
     7
370
    25
100
AcDbPolyline
 90
        9
 70
   128
 43
0.0
 10
208.9277433122
 20
69.8304799266
 10
208.9028776353
 20
70.8059315367
 10
208.8292361787
 20
71.7438970885
 10
208.7096489421
 20
72.6083310917
 10
208.5487115962
 20
73.3660138326
 10
208.3526088727
 20
73.9878279882
 10
208.1288768894
 20
74.4498775892
 10
207.886113541
 20
74.7344063287
 10
207.6336480867
 20
74.8304799266
  0
LWPOLYLINE
  5
2E4
330
1F
100
AcDbEntity
  8
0
  6
SLD-Сплошная
 62
     7
370
    25
100
AcDbPolyline
 90
        9
 70
   128
 43
0.0
 10
201.2003367019
 20
69.8304799266
 10
201.175471025
 20
70.8059315367
 10
201.1018295684
 20
71.7438970885
 10
200.9822423318
 20
72.6083310917
 10
200.8213049858
 20
73.3660138326
 10
200.6252022624
 20
73.9878279882
 10
200.4014702791
 20
74.4498775892
 10
200.1587069307
 20
74.7344063287
 10
199.9062414764
 20
74.8304799266
  0
LWPOLYLINE
  5
2E5
330
1F
100
AcDbEntity
  8
0
  6
SLD-Сплошная
 62
     7
370
    25
100
AcDbPolyline
 90
       12
 70
   128
 43
0.0
 10
198.6121462509
 20
64.0804799266
 10
198.7762111914
 20
64.171620736
 10
198.9269845661
 20
64.4376594778
 10
199.052251613
 20
64.8570432753
 10
199.1418639408
 20
65.3957961474
 10
199.1885616918
 20
66.0102715405
 10
199.1885616918
 20
66.6506883128
 10
199.1418639408
 20
67.2651637059
 10
199.052251613
 20
67.803916578
 10
198.9269845661
 20
68.2233003755
 10
198.7762111914
 20
68.4893391173
 10
198.6121462509
 20
68.5804799266
  0
LWPOLYLINE
  5
2E6
330
1F
100
AcDbEntity
  8
0
  6
SLD-Сплошная
 62
     7
370
    25
100
AcDbPolyline
 90
       12
 70
   128
 43
0.0
 10
198.6121462509
 20
68.5804799266
 10
198.4480813104
 20
68.4893391173
 10
198.2973079356
 20
68.2233003755
 10
198.1720408887
 20
67.803916578
 10
198.0824285609
 20
67.2651637059
 10
198.03573081
 20
66.6506883128
 10
198.03573081
 20
66.0102715405
 10
198.0824285609
 20
65.3957961474
 10
198.1720408887
 20
64.8570432753
 10
198.2973079356
 20
64.4376594778
 10
198.4480813104
 20
64.171620736
 10
198.6121462509
 20
64.0804799266
  0
SPLINE
  5
2E7
330
1F
100
AcDbEntity
  8
0
  6
SLD-Сплошная
 62
     7
370
    25
100
AcDbSpline
210
0.0
220
0.0
230
1.0
 70
     8
 71
     3
 72
    22
 73
    18
 74
     0
 42
0.00000001
 43
0.00000001
 40
0.0
 40
0.0
 40
0.0
 40
0.0
 40
0.125
 40
0.125
 40
0.25
 40
0.25
 40
0.375
 40
0.375
 40
0.5
 40
0.5
 40
0.625
 40
0.625
 40
0.75
 40
0.75
 40
0.875
 40
0.875
 40
1.0
 40
1.0
 40
1.0
 40
1.0
 10
190.2005272850436
 20
69.98047992664947
 30
0.0
 10
190.5869973282314
 20
69.98047992664947
 30
0.0
 10
190.980898256506
 20
69.88453420228157
 30
0.0
 10
191.7731719694384
 20
69.48325649952397
 30
0.0
 10
192.1715156815779
 20
69.17783149682401
 30
0.0
 10
192.9606648307858
 20
68.35066631712634
 30
0.0
 10
193.3514307935448
 20
67.82888166116064
 30
0.0
 10
194.1128700907817
 20
66.5750244059526
 30
0.0
 10
194.4835006498531
 20
65.84297277777111
 30
0.0
 10
195.1928349567428
 20
64.18796991821978
 30
0.0
 10
195.5315015607346
 20
63.26510534999061
 30
0.0
 10
196.1670278137171
 20
61.25959398612586
 30
0.0
 10
196.463863676437
 20
60.17708151963859
 30
0.0
 10
197.0087436322136
 20
57.89171997952317
 30
0.0
 10
197.2567811505704
 20
56.6890228253766
 30
0.0
 10
197.7004407936337
 20
54.20664860474577
 30
0.0
 10
197.8960725931211
 20
52.92710982093659
 30
0.0
 10
198.065338186309
 20
51.63047992664946
 30
0.0
  0
SPLINE
  5
2E8
330
1F
100
AcDbEntity
  8
0
  6
SLD-Сплошная
 62
     7
370
    25
100
AcDbSpline
210
0.0
220
0.0
230
1.0
 70
     8
 71
     3
 72
    22
 73
    18
 74
     0
 42
0.00000001
 43
0.00000001
 40
0.0
 40
0.0
 40
0.0
 40
0.0
 40
0.125
 40
0.125
 40
0.25
 40
0.25
 40
0.375
 40
0.375
 40
0.5
 40
0.5
 40
0.625
 40
0.625
 40
0.75
 40
0.75
 40
0.875
 40
0.875
 40
1.0
 40
1.0
 40
1.0
 40
1.0
 10
198.065338186309
 20
23.03047992664947
 30
0.0
 10
197.8960725931211
 20
21.73385003236233
 30
0.0
 10
197.7004407936337
 20
20.45431124855318
 30
0.0
 10
197.2567811505704
 20
17.97193702792232
 30
0.0
 10
197.0087436322136
 20
16.76923987377576
 30
0.0
 10
196.463863676437
 20
14.48387833366034
 30
0.0
 10
196.1670278137171
 20
13.40136586717308
 30
0.0
 10
195.5315015607346
 20
11.39585450330834
 30
0.0
 10
195.1928349567428
 20
10.47298993507916
 30
0.0
 10
194.4835006498531
 20
8.817987075527823
 30
0.0
 10
194.1128700907817
 20
8.08593544734632
 30
0.0
 10
193.3514307935448
 20
6.83207819213828
 30
0.0
 10
192.9606648307858
 20
6.31029353617257
 30
0.0
 10
192.1715156815779
 20
5.483128356474909
 30
0.0
 10
191.7731719694384
 20
5.17770335377496
 30
0.0
 10
190.980898256506
 20
4.776425651017345
 30
0.0
 10
190.5869973282314
 20
4.680479926649459
 30
0.0
 10
190.2005272850436
 20
4.680479926649453
 30
0.0
  0
LWPOLYLINE
  5
2E9
330
1F
100
AcDbEntity
  8
0
  6
SLD-Сплошная
 62
     7
370
    25
100
AcDbPolyline
 90
       12
 70
   128
 43
0.0
 10
198.6121462509
 20
6.0804799266
 10
198.7762111914
 20
6.171620736
 10
198.9269845661
 20
6.4376594778
 10
199.052251613
 20
6.8570432753
 10
199.1418639408
 20
7.3957961474
 10
199.1885616918
 20
8.0102715405
 10
199.1885616918
 20
8.6506883128
 10
199.1418639408
 20
9.2651637059
 10
199.052251613
 20
9.803916578
 10
198.9269845661
 20
10.2233003755
 10
198.7762111914
 20
10.4893391173
 10
198.6121462509
 20
10.5804799266
  0
LWPOLYLINE
  5
2EA
330
1F
100
AcDbEntity
  8
0
  6
SLD-Сплошная
 62
     7
370
    25
100
AcDbPolyline
 90
       12
 70
   128
 43
0.0
 10
198.6121462509
 20
10.5804799266
 10
198.4480813104
 20
10.4893391173
 10
198.2973079356
 20
10.2233003755
 10
198.1720408887
 20
9.803916578
 10
198.0824285609
 20
9.2651637059
 10
198.03573081
 20
8.6506883128
 10
198.03573081
 20
8.0102715405
 10
198.0824285609
 20
7.3957961474
 10
198.1720408887
 20
6.8570432753
 10
198.2973079356
 20
6.4376594778
 10
198.4480813104
 20
6.171620736
 10
198.6121462509
 20
6.0804799266
  0
LINE
  5
2EB
330
1F
100
AcDbEntity
  8
0
  6
SLD-Сплошная
 62
     7
370
    25
100
AcDbLine
 10
180.4948130937
 20
-0.1695200734
 30
0.0
 11
199.9062414764
 21
-0.1695200734
 31
0.0
  0
LWPOLYLINE
  5
2EC
330
1F
100
AcDbEntity
  8
0
  6
SLD-Сплошная
 62
     7
370
    25
100
AcDbPolyline
 90
        9
 70
   128
 43
0.0
 10
179.2007178682
 20
4.8304799266
 10
179.2255835451
 20
3.8550283166
 10
179.2992250017
 20
2.9170627648
 10
179.4188122383
 20
2.0526287616
 10
179.5797495842
 20
1.2949460207
 10
179.7758523077
 20
0.6731318651
 10
179.999584291
 20
0.2110822641
 10
180.2423476394
 20
-0.0734464754
 10
180.4948130937
 20
-0.1695200734
  0
LINE
  5
2ED
330
1F
100
AcDbEntity
  8
0
  6
SLD-Сплошная
 62
     7
370
    25
100
AcDbLine
 10
179.2007178682
 20
5.0804799266
 30
0.0
 11
179.2007178682
 21
4.8304799266
 31
0.0
  0
LWPOLYLINE
  5
2EE
330
1F
100
AcDbEntity
  8
0
  6
SLD-Сплошная
 62
     7
370
    25
100
AcDbPolyline
 90
        9
 70
   128
 43
0.0
 10
180.4948130937
 20
74.8304799266
 10
180.2423476394
 20
74.7344063287
 10
179.999584291
 20
74.4498775892
 10
179.7758523077
 20
73.9878279882
 10
179.5797495842
 20
73.3660138326
 10
179.4188122383
 20
72.6083310917
 10
179.2992250017
 20
71.7438970885
 10
179.2255835451
 20
70.8059315367
 10
179.2013003421
 20
69.9804799266
  0
LINE
  5
2EF
330
1F
100
AcDbEntity
  8
0
  6
SLD-Сплошная
 62
     7
370
    25
100
AcDbLine
 10
199.9062414764
 20
74.8304799266
 30
0.0
 11
180.4948130937
 21
74.8304799266
 31
0.0
  0
LINE
  5
2F0
330
1F
100
AcDbEntity
  8
0
  6
SLD-Сплошная
 62
     7
370
    25
100
AcDbLine
 10
201.2003367019
 20
4.8304799266
 30
0.0
 11
201.2003367019
 21
69.8304799266
 31
0.0
  0
LWPOLYLINE
  5
2F1
330
1F
100
AcDbEntity
  8
0
  6
SLD-Сплошная
 62
     7
370
    25
100
AcDbPolyline
 90
        9
 70
   128
 43
0.0
 10
199.9062414764
 20
-0.1695200734
 10
200.1587069307
 20
-0.0734464754
 10
200.4014702791
 20
0.2110822641
 10
200.6252022624
 20
0.6731318651
 10
200.8213049858
 20
1.2949460207
 10
200.9822423318
 20
2.0526287616
 10
201.1018295684
 20
2.9170627648
 10
201.175471025
 20
3.8550283166
 10
201.2003367019
 20
4.8304799266
  0
LINE
  5
2F2
330
1F
100
AcDbEntity
  8
0
  6
SLD-Сплошная
 62
     7
370
    25
100
AcDbLine
 10
208.9277433122
 20
4.8304799266
 30
0.0
 11
208.9277433122
 21
69.8304799266
 31
0.0
  0
LWPOLYLINE
  5
2F3
330
1F
100
AcDbEntity
  8
0
  6
SLD-Сплошная
 62
     7
370
    25
100
AcDbPolyline
 90
        9
 70
   128
 43
0.0
 10
207.6336480867
 20
-0.1695200734
 10
207.886113541
 20
-0.0734464754
 10
208.1288768894
 20
0.2110822641
 10
208.3526088727
 20
0.6731318651
 10
208.5487115962
 20
1.2949460207
 10
208.7096489421
 20
2.0526287616
 10
208.8292361787
 20
2.9170627648
 10
208.9028776353
 20
3.8550283166
 10
208.9277433122
 20
4.8304799266
  0
LINE
  5
2F4
330
1F
100
AcDbEntity
  8
0
  6
SLD-Сплошная
 62
     7
370
    25
100
AcDbLine
 10
207.6336480867
 20
-0.1695200734
 30
0.0
 11
199.9062414764
 21
-0.1695200734
 31
0.0
  0
LINE
  5
2F5
330
1F
100
AcDbEntity
  8
0
  6
SLD-Сплошная
 62
     7
370
    25
100
AcDbLine
 10
182.8302942286
 20
4.6804799266
 30
0.0
 11
182.8302942286
 21
7.6070092026
 31
0.0
  0
LINE
  5
2F6
330
1F
100
AcDbEntity
  8
0
  6
SLD-Сплошная
 62
     7
370
    25
100
AcDbLine
 10
182.8302942286
 20
7.6070092026
 30
0.0
 11
166.2127942336
 21
7.6070092026
 31
0.0
  0
LINE
  5
2F7
330
1F
100
AcDbEntity
  8
0
  6
SLD-Сплошная
 62
     7
370
    25
100
AcDbLine
 10
166.2127942336
 20
4.6804799266
 30
0.0
 11
166.2127942336
 21
7.6070092026
 31
0.0
  0
LINE
  5
2F8
330
1F
100
AcDbEntity
  8
0
  6
SLD-Сплошная
 62
     7
370
    25
100
AcDbLine
 10
161.2127942336
 20
4.6804799266
 30
0.0
 11
161.2127942336
 21
27.3304799266
 31
0.0
  0
LINE
  5
2F9
330
1F
100
AcDbEntity
  8
0
  6
SLD-Сплошная
 62
     7
370
    25
100
AcDbLine
 10
161.2127942336
 20
47.3304799266
 30
0.0
 11
161.2127942336
 21
69.9804799266
 31
0.0
  0
LINE
  5
2FA
330
1F
100
AcDbEntity
  8
0
  6
SLD-Сплошная
 62
     7
370
    25
100
AcDbLine
 10
190.200527285
 20
69.9804799266
 30
0.0
 11
161.2127942336
 21
69.9804799266
 31
0.0
  0
LINE
  5
2FB
330
1F
100
AcDbEntity
  8
0
  6
SLD-Сплошная
 62
     7
370
    25
100
AcDbLine
 10
190.200527285
 20
4.6804799266
 30
0.0
 11
184.2127942336
 21
4.6804799266
 31
0.0
  0
LINE
  5
2FC
330
1F
100
AcDbEntity
  8
0
  6
SLD-Сплошная
 62
     7
370
    25
100
AcDbLine
 10
208.9277433122
 20
11.8304799266
 30
0.0
 11
226.2127942336
 21
11.8304799266
 31
0.0
  0
LINE
  5
2FD
330
1F
100
AcDbEntity
  8
0
  6
SLD-Сплошная
 62
     7
370
    25
100
AcDbLine
 10
208.9277433122
 20
16.3742415522
 30
0.0
 11
223.7127942336
 21
16.3742415522
 31
0.0
  0
LINE
  5
2FE
330
1F
100
AcDbEntity
  8
0
  6
SLD-Сплошная
 62
     7
370
    25
100
AcDbLine
 10
223.7127942336
 20
16.3742415522
 30
0.0
 11
223.7127942336
 21
25.0923253338
 31
0.0
  0
LINE
  5
2FF
330
1F
100
AcDbEntity
  8
0
  6
SLD-Сплошная
 62
     7
370
    25
100
AcDbLine
 10
208.9277433122
 20
25.0923253338
 30
0.0
 11
223.7127942336
 21
25.0923253338
 31
0.0
  0
LINE
  5
300
330
1F
100
AcDbEntity
  8
0
  6
SLD-Сплошная
 62
     7
370
    25
100
AcDbLine
 10
208.9277433122
 20
26.2923253338
 30
0.0
 11
223.7127942336
 21
26.2923253338
 31
0.0
  0
LINE
  5
301
330
1F
100
AcDbEntity
  8
0
  6
SLD-Сплошная
 62
     7
370
    25
100
AcDbLine
 10
223.7127942336
 20
26.2923253338
 30
0.0
 11
223.7127942336
 21
32.7923253338
 31
0.0
  0
LINE
  5
302
330
1F
100
AcDbEntity
  8
0
  6
SLD-Сплошная
 62
     7
370
    25
100
AcDbLine
 10
208.9277433122
 20
32.7923253338
 30
0.0
 11
223.7127942336
 21
32.7923253338
 31
0.0
  0
LINE
  5
303
330
1F
100
AcDbEntity
  8
0
  6
SLD-Сплошная
 62
     7
370
    25
100
AcDbLine
 10
208.9277433122
 20
41.8686345195
 30
0.0
 11
223.7127942336
 21
41.8686345195
 31
0.0
  0
LINE
  5
304
330
1F
100
AcDbEntity
  8
0
  6
SLD-Сплошная
 62
     7
370
    25
100
AcDbLine
 10
223.7127942336
 20
41.8686345195
 30
0.0
 11
223.7127942336
 21
48.3686345195
 31
0.0
  0
LINE
  5
305
330
1F
100
AcDbEntity
  8
0
  6
SLD-Сплошная
 62
     7
370
    25
100
AcDbLine
 10
208.9277433122
 20
48.3686345195
 30
0.0
 11
223.7127942336
 21
48.3686345195
 31
0.0
  0
LINE
  5
306
330
1F
100
AcDbEntity
  8
0
  6
SLD-Сплошная
 62
     7
370
    25
100
AcDbLine
 10
208.9277433122
 20
49.5686345195
 30
0.0
 11
223.7127942336
 21
49.5686345195
 31
0.0
  0
LINE
  5
307
330
1F
100
AcDbEntity
  8
0
  6
SLD-Сплошная
 62
     7
370
    25
100
AcDbLine
 10
223.7127942336
 20
49.5686345195
 30
0.0
 11
223.7127942336
 21
58.2867183011
 31
0.0
  0
LINE
  5
308
330
1F
100
AcDbEntity
  8
0
  6
SLD-Сплошная
 62
     7
370
    25
100
AcDbLine
 10
208.9277433122
 20
58.2867183011
 30
0.0
 11
223.7127942336
 21
58.2867183011
 31
0.0
  0
LINE
  5
309
330
1F
100
AcDbEntity
  8
0
  6
SLD-Сплошная
 62
     7
370
    25
100
AcDbLine
 10
208.9277433122
 20
62.8304799266
 30
0.0
 11
226.2127942336
 21
62.8304799266
 31
0.0
  0
LINE
  5
30A
330
1F
100
AcDbEntity
  8
0
  6
SLD-Сплошная
 62
     7
370
    25
100
AcDbLine
 10
226.2127942336
 20
11.8304799266
 30
0.0
 11
226.2127942336
 21
62.8304799266
 31
0.0
  0
LINE
  5
30B
330
1F
100
AcDbEntity
  8
0
  6
SLD-Сплошная
 62
     7
370
    25
100
AcDbLine
 10
226.6127942336
 20
27.2538637953
 30
0.0
 11
226.2127942336
 21
27.2538637953
 31
0.0
  0
LINE
  5
30C
330
1F
100
AcDbEntity
  8
0
  6
SLD-Сплошная
 62
     7
370
    25
100
AcDbLine
 10
226.6127942336
 20
27.7474535389
 30
0.0
 11
226.2127942336
 21
27.7474535389
 31
0.0
  0
LINE
  5
30D
330
1F
100
AcDbEntity
  8
0
  6
SLD-Сплошная
 62
     7
370
    25
100
AcDbLine
 10
226.6127942336
 20
27.2538637953
 30
0.0
 11
226.6127942336
 21
27.7474535389
 31
0.0
  0
LINE
  5
30E
330
1F
100
AcDbEntity
  8
0
  6
SLD-Сплошная
 62
     7
370
    25
100
AcDbLine
 10
226.6127942336
 20
31.8307868722
 30
0.0
 11
226.2127942336
 21
31.8307868722
 31
0.0
  0
SPLINE
  5
30F
330
1F
100
AcDbEntity
  8
0
  6
SLD-Сплошная
 62
     7
370
    25
100
AcDbSpline
210
0.0
220
0.0
230
1.0
 70
    24
 71
     3
 72
    18
 73
    14
 74
     0
 42
0.00000001
 43
0.00000001
 40
0.0
 40
0.0
 40
0.0
 40
0.0
 40
0.125
 40
0.125
 40
0.25
 40
0.25
 40
0.5
 40
0.5
 40
0.75
 40
0.75
 40
0.875
 40
0.875
 40
1.0
 40
1.0
 40
1.0
 40
1.0
 10
226.6127942335612
 20
30.8351939235179
 30
0.0
 10
226.6127942335612
 20
30.89722607830012
 30
0.0
 10
226.6127942335612
 20
30.95925777827838
 30
0.0
 10
226.6127942335612
 20
31.08180405221085
 30
0.0
 10
226.6127942335612
 20
31.1423826781908
 30
0.0
 10
226.6127942335612
 20
31.31898546243441
 30
0.0
 10
226.6127942335612
 20
31.43000780874299
 30
0.0
 10
226.6127942335613
 20
31.62098573911314
 30
0.0
 10
226.6127942335612
 20
31.69738526380343
 30
0.0
 10
226.6127942335612
 20
31.77594061734218
 30
0.0
 10
226.6127942335612
 20
31.79713682189482
 30
0.0
 10
226.6127942335612
 20
31.82453694013462
 30
0.0
 10
226.6127942335612
 20
31.82838032866984
 30
0.0
 10
226.6127942335612
 20
31.83078687223584
 30
0.0
  0
LINE
  5
310
330
1F
100
AcDbEntity
  8
0
  6
SLD-Сплошная
 62
     7
370
    25
100
AcDbLine
 10
226.6127942336
 20
30.8351939235
 30
0.0
 11
226.2127942336
 21
30.8351939235
 31
0.0
  0
LINE
  5
311
330
1F
100
AcDbEntity
  8
0
  6
SLD-Сплошная
 62
     7
370
    25
100
AcDbLine
 10
226.6127942336
 20
29.811556103
 30
0.0
 11
226.2127942336
 21
29.811556103
 31
0.0
  0
SPLINE
  5
312
330
1F
100
AcDbEntity
  8
0
  6
SLD-Сплошная
 62
     7
370
    25
100
AcDbSpline
210
0.0
220
0.0
230
1.0
 70
    24
 71
     3
 72
    18
 73
    14
 74
     0
 42
0.00000001
 43
0.00000001
 40
0.0
 40
0.0
 40
0.0
 40
0.0
 40
0.1249999999999997
 40
0.1249999999999997
 40
0.2499999999999994
 40
0.2499999999999994
 40
0.4999999999999989
 40
0.4999999999999989
 40
0.7499999999999983
 40
0.7499999999999983
 40
0.8749999999999991
 40
0.8749999999999991
 40
1.0
 40
1.0
 40
1.0
 40
1.0
 10
226.6127942335612
 20
29.81155610300507
 30
0.0
 10
226.6127942335612
 20
29.82390663333025
 30
0.0
 10
226.6127942335612
 20
29.83705339460892
 30
0.0
 10
226.6127942335612
 20
29.87396612716176
 30
0.0
 10
226.6127942335612
 20
29.89684231845977
 30
0.0
 10
226.6127942335612
 20
29.98002346995501
 30
0.0
 10
226.6127942335612
 20
30.05465692672847
 30
0.0
 10
226.6127942335613
 20
30.24070791061999
 30
0.0
 10
226.6127942335612
 20
30.35002545262988
 30
0.0
 10
226.6127942335612
 20
30.52658157334383
 30
0.0
 10
226.6127942335612
 20
30.58746272740694
 30
0.0
 10
226.6127942335613
 20
30.71060759981752
 30
0.0
 10
226.6127942335612
 20
30.77289932461486
 30
0.0
 10
226.6127942335612
 20
30.8351939235179
 30
0.0
  0
LINE
  5
313
330
1F
100
AcDbEntity
  8
0
  6
SLD-Сплошная
 62
     7
370
    25
100
AcDbLine
 10
226.6127942336
 20
43.3237627247
 30
0.0
 11
226.2127942336
 21
43.3237627247
 31
0.0
  0
LINE
  5
314
330
1F
100
AcDbEntity
  8
0
  6
SLD-Сплошная
 62
     7
370
    25
100
AcDbLine
 10
226.6127942336
 20
42.8301729811
 30
0.0
 11
226.2127942336
 21
42.8301729811
 31
0.0
  0
LINE
  5
315
330
1F
100
AcDbEntity
  8
0
  6
SLD-Сплошная
 62
     7
370
    25
100
AcDbLine
 10
226.6127942336
 20
42.8301729811
 30
0.0
 11
226.6127942336
 21
43.3237627247
 31
0.0
  0
LINE
  5
316
330
1F
100
AcDbEntity
  8
0
  6
SLD-Сплошная
 62
     7
370
    25
100
AcDbLine
 10
226.6127942336
 20
47.4968396477
 30
0.0
 11
226.2127942336
 21
47.4968396477
 31
0.0
  0
SPLINE
  5
317
330
1F
100
AcDbEntity
  8
0
  6
SLD-Сплошная
 62
     7
370
    25
100
AcDbSpline
210
0.0
220
0.0
230
1.0
 70
    24
 71
     3
 72
    18
 73
    14
 74
     0
 42
0.00000001
 43
0.00000001
 40
0.0
 40
0.0
 40
0.0
 40
0.0
 40
0.1249999999999993
 40
0.1249999999999993
 40
0.2499999999999986
 40
0.2499999999999986
 40
0.4999999999999971
 40
0.4999999999999971
 40
0.7499999999999957
 40
0.7499999999999957
 40
0.8749999999999978
 40
0.8749999999999978
 40
1.0
 40
1.0
 40
1.0
 40
1.0
 10
226.6127942335612
 20
46.41991657080709
 30
0.0
 10
226.6127942335612
 20
46.48764214807584
 30
0.0
 10
226.6127942335612
 20
46.55538688960878
 30
0.0
 10
226.6127942335612
 20
46.6896229137526
 30
0.0
 10
226.6127942335612
 20
46.7561696826589
 30
0.0
 10
226.6127942335612
 20
46.95065841034611
 30
0.0
 10
226.6127942335612
 20
47.07306008033481
 30
0.0
 10
226.6127942335612
 20
47.27702937868711
 30
0.0
 10
226.6127942335612
 20
47.36155748397024
 30
0.0
 10
226.6127942335612
 20
47.44440025900748
 30
0.0
 10
226.6127942335612
 20
47.46439614502533
 30
0.0
 10
226.6127942335613
 20
47.49089795883658
 30
0.0
 10
226.6127942335612
 20
47.49557855617895
 30
0.0
 10
226.6127942335612
 20
47.49683964773015
 30
0.0
  0
LINE
  5
318
330
1F
100
AcDbEntity
  8
0
  6
SLD-Сплошная
 62
     7
370
    25
100
AcDbLine
 10
226.6127942336
 20
46.4199165708
 30
0.0
 11
226.2127942336
 21
46.4199165708
 31
0.0
  0
LINE
  5
319
330
1F
100
AcDbEntity
  8
0
  6
SLD-Сплошная
 62
     7
370
    25
100
AcDbLine
 10
226.6127942336
 20
45.298121699
 30
0.0
 11
226.2127942336
 21
45.298121699
 31
0.0
  0
SPLINE
  5
31A
330
1F
100
AcDbEntity
  8
0
  6
SLD-Сплошная
 62
     7
370
    25
100
AcDbSpline
210
0.0
220
0.0
230
1.0
 70
    24
 71
     3
 72
    18
 73
    14
 74
     0
 42
0.00000001
 43
0.00000001
 40
0.0
 40
0.0
 40
0.0
 40
0.0
 40
0.1250000000000019
 40
0.1250000000000019
 40
0.2500000000000039
 40
0.2500000000000039
 40
0.500000000000002
 40
0.500000000000002
 40
0.7500000000000001
 40
0.7500000000000001
 40
0.875
 40
0.875
 40
1.0
 40
1.0
 40
1.0
 40
1.0
 10
226.6127942335612
 20
45.29812169901221
 30
0.0
 10
226.6127942335612
 20
45.30624047039503
 30
0.0
 10
226.6127942335613
 20
45.31513039102845
 30
0.0
 10
226.6127942335612
 20
45.34693274665189
 30
0.0
 10
226.6127942335612
 20
45.3685294199849
 30
0.0
 10
226.6127942335613
 20
45.45089616693507
 30
0.0
 10
226.6127942335613
 20
45.53418611525785
 30
0.0
 10
226.6127942335612
 20
45.74648005228004
 30
0.0
 10
226.6127942335612
 20
45.87318133345067
 30
0.0
 10
226.6127942335612
 20
46.07384120953707
 30
0.0
 10
226.6127942335613
 20
46.14241120126606
 30
0.0
 10
226.6127942335612
 20
46.28061833685449
 30
0.0
 10
226.6127942335612
 20
46.35028340391133
 30
0.0
 10
226.6127942335612
 20
46.41991657080709
 30
0.0
  0
LINE
  5
31B
330
1F
100
AcDbEntity
  8
0
  6
SLD-Сплошная
 62
     7
370
    25
100
AcDbLine
 10
210.9627942336
 20
32.7923253338
 30
0.0
 11
210.9627942336
 21
31.5935444835
 31
0.0
  0
LINE
  5
31C
330
1F
100
AcDbEntity
  8
0
  6
SLD-Сплошная
 62
     7
370
    25
100
AcDbLine
 10
210.9627942336
 20
27.4911061841
 30
0.0
 11
210.9627942336
 21
26.2923253338
 31
0.0
  0
LINE
  5
31D
330
1F
100
AcDbEntity
  8
0
  6
SLD-Сплошная
 62
     7
370
    25
100
AcDbLine
 10
210.9627942336
 20
48.3686345195
 30
0.0
 11
210.9627942336
 21
47.1698536692
 31
0.0
  0
LINE
  5
31E
330
1F
100
AcDbEntity
  8
0
  6
SLD-Сплошная
 62
     7
370
    25
100
AcDbLine
 10
210.9627942336
 20
43.0674153698
 30
0.0
 11
210.9627942336
 21
41.8686345195
 31
0.0
  0
LINE
  5
31F
330
1F
100
AcDbEntity
  8
0
  6
SLD-Сплошная
 62
     7
370
    25
100
AcDbLine
 10
208.9277433122
 20
23.2073825316
 30
0.0
 11
223.7127942336
 21
23.2073825316
 31
0.0
  0
LINE
  5
320
330
1F
100
AcDbEntity
  8
0
  6
SLD-Сплошная
 62
     7
370
    25
100
AcDbLine
 10
208.9277433122
 20
51.4535773217
 30
0.0
 11
223.7127942336
 21
51.4535773217
 31
0.0
  0
LINE
  5
321
330
1F
100
AcDbEntity
  8
0
  6
SLD-Сплошная
 62
     7
370
    25
100
AcDbLine
 10
226.6127942336
 20
32.0102740517
 30
0.0
 11
226.2127942336
 21
32.0102740517
 31
0.0
  0
SPLINE
  5
322
330
1F
100
AcDbEntity
  8
0
  6
SLD-Сплошная
 62
     7
370
    25
100
AcDbSpline
210
0.0
220
0.0
230
1.0
 70
    24
 71
     3
 72
    10
 73
     6
 74
     0
 42
0.00000001
 43
0.00000001
 40
0.0
 40
0.0
 40
0.0
 40
0.0
 40
0.1271280118661673
 40
0.5631512583223932
 40
1.0
 40
1.0
 40
1.0
 40
1.0
 10
226.6127942335612
 20
31.83078687223584
 30
0.0
 10
226.6127942335612
 20
31.84892260551635
 30
0.0
 10
226.6127942335613
 20
31.92926021850653
 30
0.0
 10
226.6127942335612
 20
31.99206034418917
 30
0.0
 10
226.6127942335612
 20
32.00419898927928
 30
0.0
 10
226.6127942335612
 20
32.01027405172301
 30
0.0
  0
LINE
  5
323
330
1F
100
AcDbEntity
  8
0
  6
SLD-Сплошная
 62
     7
370
    25
100
AcDbLine
 10
226.6127942336
 20
29.7666843081
 30
0.0
 11
226.2127942336
 21
29.7666843081
 31
0.0
  0
LINE
  5
324
330
1F
100
AcDbEntity
  8
0
  6
SLD-Сплошная
 62
     7
370
    25
100
AcDbLine
 10
226.6127942336
 20
47.5417114426
 30
0.0
 11
226.2127942336
 21
47.5417114426
 31
0.0
  0
LINE
  5
325
330
1F
100
AcDbEntity
  8
0
  6
SLD-Сплошная
 62
     7
370
    25
100
AcDbLine
 10
226.6127942336
 20
29.4077099492
 30
0.0
 11
226.2127942336
 21
29.4077099492
 31
0.0
  0
LINE
  5
326
330
1F
100
AcDbEntity
  8
0
  6
SLD-Сплошная
 62
     7
370
    25
100
AcDbLine
 10
226.6127942336
 20
27.7474535389
 30
0.0
 11
226.6127942336
 21
29.4077099492
 31
0.0
  0
LINE
  5
327
330
1F
100
AcDbEntity
  8
0
  6
SLD-Сплошная
 62
     7
370
    25
100
AcDbLine
 10
226.6127942336
 20
44.9840191349
 30
0.0
 11
226.2127942336
 21
44.9840191349
 31
0.0
  0
LINE
  5
328
330
1F
100
AcDbEntity
  8
0
  6
SLD-Сплошная
 62
     7
370
    25
100
AcDbLine
 10
226.6127942336
 20
43.3237627247
 30
0.0
 11
226.6127942336
 21
44.9840191349
 31
0.0
  0
LINE
  5
329
330
1F
100
AcDbEntity
  8
0
  6
SLD-Сплошная
 62
     7
370
    25
100
AcDbLine
 10
226.6127942336
 20
45.2532499041
 30
0.0
 11
226.2127942336
 21
45.2532499041
 31
0.0
  0
LINE
  5
32A
330
1F
100
AcDbEntity
  8
0
  6
SLD-Сплошная
 62
     7
370
    25
100
AcDbLine
 10
211.4627942336
 20
20.2843527024
 30
0.0
 11
211.719516318
 21
20.2843527024
 31
0.0
  0
LINE
  5
32B
330
1F
100
AcDbEntity
  8
0
  6
SLD-Сплошная
 62
     7
370
    25
100
AcDbLine
 10
215.6021477625
 20
20.2843527024
 30
0.0
 11
218.419516318
 21
20.2843527024
 31
0.0
  0
LINE
  5
32C
330
1F
100
AcDbEntity
  8
0
  6
SLD-Сплошная
 62
     7
370
    25
100
AcDbLine
 10
222.3021477625
 20
20.2843527024
 30
0.0
 11
223.7127942336
 21
20.2843527024
 31
0.0
  0
LINE
  5
32D
330
1F
100
AcDbEntity
  8
0
  6
SLD-Сплошная
 62
     7
370
    25
100
AcDbLine
 10
211.4627942336
 20
20.2689840072
 30
0.0
 11
208.9277433122
 21
20.2689840072
 31
0.0
  0
LINE
  5
32E
330
1F
100
AcDbEntity
  8
0
  6
SLD-Сплошная
 62
     7
370
    25
100
AcDbLine
 10
208.9277433122
 20
54.3919758461
 30
0.0
 11
210.9388733587
 21
54.3919758461
 31
0.0
  0
LINE
  5
32F
330
1F
100
AcDbEntity
  8
0
  6
SLD-Сплошная
 62
     7
370
    25
100
AcDbLine
 10
214.8060721491
 20
54.3766071509
 30
0.0
 11
217.6234407046
 21
54.3766071509
 31
0.0
  0
LINE
  5
330
330
1F
100
AcDbEntity
  8
0
  6
SLD-Сплошная
 62
     7
370
    25
100
AcDbLine
 10
221.5060721491
 20
54.3766071509
 30
0.0
 11
223.7127942336
 21
54.3766071509
 31
0.0
  0
LINE
  5
331
330
1F
100
AcDbEntity
  8
0
  6
SLD-Сплошная
 62
     7
370
    25
100
AcDbLine
 10
226.6127942336
 20
21.3304799266
 30
0.0
 11
226.2127942336
 21
21.3304799266
 31
0.0
  0
LINE
  5
332
330
1F
100
AcDbEntity
  8
0
  6
SLD-Сплошная
 62
     7
370
    25
100
AcDbLine
 10
226.6127942336
 20
24.3304799266
 30
0.0
 11
226.6127942336
 21
21.3304799266
 31
0.0
  0
LINE
  5
333
330
1F
100
AcDbEntity
  8
0
  6
SLD-Сплошная
 62
     7
370
    25
100
AcDbLine
 10
226.6127942336
 20
24.3304799266
 30
0.0
 11
226.2127942336
 21
24.3304799266
 31
0.0
  0
SPLINE
  5
334
330
1F
100
AcDbEntity
  8
0
  6
SLD-Сплошная
 62
     7
370
    25
100
AcDbSpline
210
0.0
220
0.0
230
1.0
 70
     8
 71
     3
 72
     8
 73
     4
 74
     0
 42
0.00000001
 43
0.00000001
 40
0.0
 40
0.0
 40
0.0
 40
0.0
 40
1.0
 40
1.0
 40
1.0
 40
1.0
 10
178.8263487070602
 20
6.937355938433014
 30
0.0
 10
177.3913179315604
 20
6.535682374112759
 30
0.0
 10
175.9565750065778
 20
6.19737393732589
 30
0.0
 10
174.5215442310621
 20
5.924402974133311
 30
0.0
  0
SPLINE
  5
335
330
1F
100
AcDbEntity
  8
0
  6
SLD-Сплошная
 62
     7
370
    25
100
AcDbSpline
210
0.0
220
0.0
230
1.0
 70
     8
 71
     3
 72
     8
 73
     4
 74
     0
 42
0.00000001
 43
0.00000001
 40
0.0
 40
0.0
 40
0.0
 40
0.0
 40
1.0
 40
1.0
 40
1.0
 40
1.0
 10
174.5215442310621
 20
5.924402974133318
 30
0.0
 10
173.0865134552724
 20
6.197373937377796
 30
0.0
 10
171.6517705308644
 20
6.535682374027934
 30
0.0
 10
170.2167397550604
 20
6.937355938433014
 30
0.0
  0
LINE
  5
336
330
1F
100
AcDbEntity
  8
0
  6
SLD-Сплошная
 62
     7
370
    25
100
AcDbLine
 10
171.6748992009
 20
5.37100163
 30
0.0
 11
170.2167397551
 21
5.37100163
 31
0.0
  0
LINE
  5
337
330
1F
100
AcDbEntity
  8
0
  6
SLD-Сплошная
 62
     7
370
    25
100
AcDbLine
 10
178.8263487071
 20
5.37100163
 30
0.0
 11
177.3292726013
 21
5.37100163
 31
0.0
  0
LINE
  5
338
330
1F
100
AcDbEntity
  8
0
  6
SLD-Сплошная
 62
     7
370
    25
100
AcDbLine
 10
226.6127942336
 20
20.8753517215
 30
0.0
 11
226.2127942336
 21
20.8753517215
 31
0.0
  0
SPLINE
  5
339
330
1F
100
AcDbEntity
  8
0
  6
SLD-Сплошная
 62
     7
370
    25
100
AcDbSpline
210
0.0
220
0.0
230
1.0
 70
    24
 71
     3
 72
    18
 73
    14
 74
     0
 42
0.00000001
 43
0.00000001
 40
0.0
 40
0.0
 40
0.0
 40
0.0
 40
0.1249999999999999
 40
0.1249999999999999
 40
0.2499999999999998
 40
0.2499999999999998
 40
0.4999999999999996
 40
0.4999999999999996
 40
0.7499999999999993
 40
0.7499999999999993
 40
0.8749999999999997
 40
0.8749999999999997
 40
1.0
 40
1.0
 40
1.0
 40
1.0
 10
226.6127942335612
 20
19.81174995870091
 30
0.0
 10
226.6127942335612
 20
19.88397780951642
 30
0.0
 10
226.6127942335612
 20
19.95617678330471
 30
0.0
 10
226.6127942335612
 20
20.09822801703062
 30
0.0
 10
226.6127942335613
 20
20.16798282590073
 30
0.0
 10
226.6127942335612
 20
20.36793330602483
 30
0.0
 10
226.6127942335612
 20
20.48845492624055
 30
0.0
 10
226.6127942335612
 20
20.68569703916915
 30
0.0
 10
226.6127942335612
 20
20.76202964890336
 30
0.0
 10
226.6127942335612
 20
20.8330872426208
 30
0.0
 10
226.6127942335612
 20
20.84962565766202
 30
0.0
 10
226.6127942335612
 20
20.87072421754056
 30
0.0
 10
226.6127942335612
 20
20.87364190770993
 30
0.0
 10
226.6127942335612
 20
20.8753517215214
 30
0.0
  0
LINE
  5
33A
330
1F
100
AcDbEntity
  8
0
  6
SLD-Сплошная
 62
     7
370
    25
100
AcDbLine
 10
226.6127942336
 20
19.8117499587
 30
0.0
 11
226.2127942336
 21
19.8117499587
 31
0.0
  0
LINE
  5
33B
330
1F
100
AcDbEntity
  8
0
  6
SLD-Сплошная
 62
     7
370
    25
100
AcDbLine
 10
226.6127942336
 20
18.9108084523
 30
0.0
 11
226.2127942336
 21
18.9108084523
 31
0.0
  0
SPLINE
  5
33C
330
1F
100
AcDbEntity
  8
0
  6
SLD-Сплошная
 62
     7
370
    25
100
AcDbSpline
210
0.0
220
0.0
230
1.0
 70
    24
 71
     3
 72
    14
 73
    10
 74
     0
 42
0.00000001
 43
0.00000001
 40
0.0
 40
0.0
 40
0.0
 40
0.0
 40
0.25
 40
0.25
 40
0.5
 40
0.5
 40
0.75
 40
0.75
 40
1.0
 40
1.0
 40
1.0
 40
1.0
 10
226.6127942335612
 20
18.91080845229065
 30
0.0
 10
226.6127942335612
 20
18.94292180611133
 30
0.0
 10
226.6127942335612
 20
18.98460157463319
 30
0.0
 10
226.6127942335612
 20
19.09572875567763
 30
0.0
 10
226.6127942335613
 20
19.16604570891221
 30
0.0
 10
226.6127942335612
 20
19.32824482743125
 30
0.0
 10
226.6127942335612
 20
19.4198598018546
 30
0.0
 10
226.6127942335612
 20
19.61157918726412
 30
0.0
 10
226.6127942335612
 20
19.71185044038941
 30
0.0
 10
226.6127942335612
 20
19.81174995870091
 30
0.0
  0
LINE
  5
33D
330
1F
100
AcDbEntity
  8
0
  6
SLD-Сплошная
 62
     7
370
    25
100
AcDbLine
 10
226.6127942336
 20
18.2244102151
 30
0.0
 11
226.2127942336
 21
18.2244102151
 31
0.0
  0
SPLINE
  5
33E
330
1F
100
AcDbEntity
  8
0
  6
SLD-Сплошная
 62
     7
370
    25
100
AcDbSpline
210
0.0
220
0.0
230
1.0
 70
    24
 71
     3
 72
    16
 73
    12
 74
     0
 42
0.00000001
 43
0.00000001
 40
0.0
 40
0.0
 40
0.0
 40
0.0
 40
0.125000000000004
 40
0.125000000000004
 40
0.250000000000008
 40
0.250000000000008
 40
0.5000000000000053
 40
0.5000000000000053
 40
0.7500000000000027
 40
0.7500000000000027
 40
1.0
 40
1.0
 40
1.0
 40
1.0
 10
226.6127942335612
 20
18.22441021511116
 30
0.0
 10
226.6127942335612
 20
18.26293698910323
 30
0.0
 10
226.6127942335612
 20
18.30146376331425
 30
0.0
 10
226.6127942335612
 20
18.37764969733399
 30
0.0
 10
226.6127942335612
 20
18.41530882884647
 30
0.0
 10
226.6127942335612
 20
18.52535704068963
 30
0.0
 10
226.6127942335613
 20
18.59487111323229
 30
0.0
 10
226.6127942335612
 20
18.71570260338532
 30
0.0
 10
226.6127942335612
 20
18.76692142748142
 30
0.0
 10
226.6127942335613
 20
18.85137715238168
 30
0.0
 10
226.6127942335612
 20
18.88202756688617
 30
0.0
 10
226.6127942335612
 20
18.91080845229065
 30
0.0
  0
LINE
  5
33F
330
1F
100
AcDbEntity
  8
0
  6
SLD-Сплошная
 62
     7
370
    25
100
AcDbLine
 10
226.6127942336
 20
17.3304799266
 30
0.0
 11
226.2127942336
 21
17.3304799266
 31
0.0
  0
SPLINE
  5
340
330
1F
100
AcDbEntity
  8
0
  6
SLD-Сплошная
 62
     7
370
    25
100
AcDbSpline
210
0.0
220
0.0
230
1.0
 70
    24
 71
     3
 72
    18
 73
    14
 74
     0
 42
0.00000001
 43
0.00000001
 40
0.0
 40
0.0
 40
0.0
 40
0.0
 40
0.124999999999997
 40
0.124999999999997
 40
0.2499999999999939
 40
0.2499999999999939
 40
0.4999999999999933
 40
0.4999999999999933
 40
0.7499999999999927
 40
0.7499999999999927
 40
0.8749999999999963
 40
0.8749999999999963
 40
1.0
 40
1.0
 40
1.0
 40
1.0
 10
226.6127942335612
 20
17.33047992664961
 30
0.0
 10
226.6127942335612
 20
17.3318840867595
 30
0.0
 10
226.6127942335612
 20
17.33419278074252
 30
0.0
 10
226.6127942335612
 20
17.35123922644194
 30
0.0
 10
226.6127942335612
 20
17.36462390289646
 30
0.0
 10
226.6127942335612
 20
17.42173300493292
 30
0.0
 10
226.6127942335612
 20
17.48290177916839
 30
0.0
 10
226.6127942335612
 20
17.6477528554263
 30
0.0
 10
226.6127942335612
 20
17.74795738630979
 30
0.0
 10
226.6127942335613
 20
17.91775033503363
 30
0.0
 10
226.6127942335612
 20
17.97764214278259
 30
0.0
 10
226.6127942335612
 20
18.09961812209913
 30
0.0
 10
226.6127942335612
 20
18.16208929824305
 30
0.0
 10
226.6127942335612
 20
18.22441021511116
 30
0.0
  0
SPLINE
  5
341
330
1F
100
AcDbEntity
  8
0
  6
SLD-Сплошная
 62
     7
370
    25
100
AcDbSpline
210
0.0
220
0.0
230
1.0
 70
     8
 71
     3
 72
     8
 73
     4
 74
     0
 42
0.00000001
 43
0.00000001
 40
0.0
 40
0.0
 40
0.0
 40
0.0
 40
1.0
 40
1.0
 40
1.0
 40
1.0
 10
174.5215442310621
 20
5.513791388283853
 30
0.0
 10
173.086752097027
 20
5.783194705008786
 30
0.0
 10
171.6520443646773
 20
6.117023452338739
 30
0.0
 10
170.2167397550604
 20
6.513244720305965
 30
0.0
  0
LINE
  5
342
330
1F
100
AcDbEntity
  8
0
  6
SLD-Сплошная
 62
     7
370
    25
100
AcDbLine
 10
174.5215442311
 20
5.9244029741
 30
0.0
 11
174.5215442311
 21
5.5137913883
 31
0.0
  0
LINE
  5
343
330
1F
100
AcDbEntity
  8
0
  6
SLD-Сплошная
 62
     7
370
    25
100
AcDbLine
 10
170.2167397551
 20
6.9373559384
 30
0.0
 11
170.2167397551
 21
6.5132447203
 31
0.0
  0
SPLINE
  5
344
330
1F
100
AcDbEntity
  8
0
  6
SLD-Сплошная
 62
     7
370
    25
100
AcDbSpline
210
0.0
220
0.0
230
1.0
 70
     8
 71
     3
 72
     8
 73
     4
 74
     0
 42
0.00000001
 43
0.00000001
 40
0.0
 40
0.0
 40
0.0
 40
0.0
 40
1.0
 40
1.0
 40
1.0
 40
1.0
 10
178.8263487070602
 20
6.513244720305952
 30
0.0
 10
177.3910440072733
 20
6.117023427446623
 30
0.0
 10
175.956336442513
 20
5.78319471954495
 30
0.0
 10
174.5215442310621
 20
5.513791388283846
 30
0.0
  0
LINE
  5
345
330
1F
100
AcDbEntity
  8
0
  6
SLD-Сплошная
 62
     7
370
    25
100
AcDbLine
 10
178.8263487071
 20
6.9373559384
 30
0.0
 11
178.8263487071
 21
6.5132447203
 31
0.0
  0
LINE
  5
346
330
1F
100
AcDbEntity
  8
0
  6
SLD-Сплошная
 62
     7
370
    25
100
AcDbLine
 10
170.2167397551
 20
4.7193217463
 30
0.0
 11
170.2167397551
 21
4.9674106502
 31
0.0
  0
LINE
  5
347
330
1F
100
AcDbEntity
  8
0
  6
SLD-Сплошная
 62
     7
370
    25
100
AcDbLine
 10
174.4116248612
 20
4.9674106502
 30
0.0
 11
170.2167397551
 21
4.9674106502
 31
0.0
  0
LINE
  5
348
330
1F
100
AcDbEntity
  8
0
  6
SLD-Сплошная
 62
     7
370
    25
100
AcDbLine
 10
174.4116248612
 20
4.9674106502
 30
0.0
 11
174.4116248612
 21
4.9797063717
 31
0.0
  0
SPLINE
  5
349
330
1F
100
AcDbEntity
  8
0
  6
SLD-Сплошная
 62
     7
370
    25
100
AcDbSpline
210
0.0
220
0.0
230
1.0
 70
     8
 71
     3
 72
     8
 73
     4
 74
     0
 42
0.00000001
 43
0.00000001
 40
0.0
 40
0.0
 40
0.0
 40
0.0
 40
1.0
 40
1.0
 40
1.0
 40
1.0
 10
170.2167397550604
 20
5.639515853387081
 30
0.0
 10
171.6152913612929
 20
5.358107576080156
 30
0.0
 10
173.0133814363476
 20
5.137748072722846
 30
0.0
 10
174.4116248612008
 20
4.979706371675718
 30
0.0
  0
SPLINE
  5
34A
330
1F
100
AcDbEntity
  8
0
  6
SLD-Сплошная
 62
     7
370
    25
100
AcDbSpline
210
0.0
220
0.0
230
1.0
 70
     8
 71
     3
 72
     8
 73
     4
 74
     0
 42
0.00000001
 43
0.00000001
 40
0.0
 40
0.0
 40
0.0
 40
0.0
 40
1.0
 40
1.0
 40
1.0
 40
1.0
 10
174.6314636009189
 20
4.979706371675947
 30
0.0
 10
176.0297069826005
 20
5.137748067843381
 30
0.0
 10
177.4277971537762
 20
5.358107586734315
 30
0.0
 10
178.8263487070602
 20
5.639515853387081
 30
0.0
  0
LINE
  5
34B
330
1F
100
AcDbEntity
  8
0
  6
SLD-Сплошная
 62
     7
370
    25
100
AcDbLine
 10
174.6314636009
 20
4.9674106502
 30
0.0
 11
174.6314636009
 21
4.9797063717
 31
0.0
  0
LINE
  5
34C
330
1F
100
AcDbEntity
  8
0
  6
SLD-Сплошная
 62
     7
370
    25
100
AcDbLine
 10
178.8263487071
 20
4.9674106502
 30
0.0
 11
174.6314636009
 21
4.9674106502
 31
0.0
  0
LINE
  5
34D
330
1F
100
AcDbEntity
  8
0
  6
SLD-Сплошная
 62
     7
370
    25
100
AcDbLine
 10
178.8263487071
 20
4.7193217463
 30
0.0
 11
178.8263487071
 21
4.9674106502
 31
0.0
  0
LINE
  5
34E
330
1F
100
AcDbEntity
  8
0
  6
SLD-Сплошная
 62
     7
370
    25
100
AcDbLine
 10
170.2167397551
 20
4.7193217463
 30
0.0
 11
178.8263487071
 21
4.7193217463
 31
0.0
  0
LINE
  5
34F
330
1F
100
AcDbEntity
  8
0
  6
SLD-Сплошная
 62
     7
370
    25
100
AcDbLine
 10
178.8263487071
 20
5.6395158534
 30
0.0
 11
178.8263487071
 21
6.5132447203
 31
0.0
  0
LINE
  5
350
330
1F
100
AcDbEntity
  8
0
  6
SLD-Сплошная
 62
     7
370
    25
100
AcDbLine
 10
170.2167397551
 20
5.6395158534
 30
0.0
 11
170.2167397551
 21
6.5132447203
 31
0.0
  0
LINE
  5
351
330
1F
100
AcDbEntity
  8
0
  6
SLD-Сплошная
 62
     7
370
    25
100
AcDbLine
 10
178.8263487071
 20
5.37100163
 30
0.0
 11
178.8263487071
 21
4.9674106502
 31
0.0
  0
LINE
  5
352
330
1F
100
AcDbEntity
  8
0
  6
SLD-Сплошная
 62
     7
370
    25
100
AcDbLine
 10
170.2167397551
 20
5.37100163
 30
0.0
 11
170.2167397551
 21
4.9674106502
 31
0.0
  0
LINE
  5
353
330
1F
100
AcDbEntity
  8
0
  6
SLD-Сплошная
 62
     7
370
    25
100
AcDbLine
 10
226.6127942336
 20
24.3304799266
 30
0.0
 11
226.6127942336
 21
25.7886004244
 31
0.0
  0
LINE
  5
354
330
1F
100
AcDbEntity
  8
0
  6
SLD-Сплошная
 62
     7
370
    25
100
AcDbLine
 10
226.6127942336
 20
25.7886004244
 30
0.0
 11
226.2127942336
 21
25.7886004244
 31
0.0
  0
LINE
  5
355
330
1F
100
AcDbEntity
  8
0
  6
SLD-Сплошная
 62
     7
370
    25
100
AcDbLine
 10
226.6127942336
 20
26.282190168
 30
0.0
 11
226.2127942336
 21
26.282190168
 31
0.0
  0
LINE
  5
356
330
1F
100
AcDbEntity
  8
0
  6
SLD-Сплошная
 62
     7
370
    25
100
AcDbLine
 10
226.6127942336
 20
25.7886004244
 30
0.0
 11
226.6127942336
 21
26.282190168
 31
0.0
  0
LINE
  5
357
330
1F
100
AcDbEntity
  8
0
  6
SLD-Сплошная
 62
     7
370
    25
100
AcDbLine
 10
226.6127942336
 20
48.2441543007
 30
0.0
 11
226.2127942336
 21
48.2441543007
 31
0.0
  0
LINE
  5
358
330
1F
100
AcDbEntity
  8
0
  6
SLD-Сплошная
 62
     7
370
    25
100
AcDbLine
 10
226.6127942336
 20
47.8851799417
 30
0.0
 11
226.2127942336
 21
47.8851799417
 31
0.0
  0
LINE
  5
359
330
1F
100
AcDbEntity
  8
0
  6
SLD-Сплошная
 62
     7
370
    25
100
AcDbLine
 10
226.6127942336
 20
47.8851799417
 30
0.0
 11
226.6127942336
 21
48.2441543007
 31
0.0
  0
LINE
  5
35A
330
1F
100
AcDbEntity
  8
0
  6
SLD-Сплошная
 62
     7
370
    25
100
AcDbLine
 10
226.6127942336
 20
51.1608209674
 30
0.0
 11
226.2127942336
 21
51.1608209674
 31
0.0
  0
LINE
  5
35B
330
1F
100
AcDbEntity
  8
0
  6
SLD-Сплошная
 62
     7
370
    25
100
AcDbLine
 10
226.6127942336
 20
50.9294507751
 30
0.0
 11
226.6127942336
 21
51.1608209674
 31
0.0
  0
LINE
  5
35C
330
1F
100
AcDbEntity
  8
0
  6
SLD-Сплошная
 62
     7
370
    25
100
AcDbLine
 10
226.6127942336
 20
50.9294507751
 30
0.0
 11
226.2127942336
 21
50.9294507751
 31
0.0
  0
LINE
  5
35D
330
1F
100
AcDbEntity
  8
0
  6
SLD-Сплошная
 62
     7
370
    25
100
AcDbLine
 10
226.6127942336
 20
50.1287696853
 30
0.0
 11
226.2127942336
 21
50.1287696853
 31
0.0
  0
SPLINE
  5
35E
330
1F
100
AcDbEntity
  8
0
  6
SLD-Сплошная
 62
     7
370
    25
100
AcDbSpline
210
0.0
220
0.0
230
1.0
 70
    24
 71
     3
 72
    16
 73
    12
 74
     0
 42
0.00000001
 43
0.00000001
 40
0.0
 40
0.0
 40
0.0
 40
0.0
 40
0.2499999999999994
 40
0.2499999999999994
 40
0.4999999999999988
 40
0.4999999999999988
 40
0.7499999999999982
 40
0.7499999999999982
 40
0.8749999999999991
 40
0.8749999999999991
 40
1.0
 40
1.0
 40
1.0
 40
1.0
 10
226.6127942335612
 20
50.1287696853245
 30
0.0
 10
226.6127942335612
 20
50.21405534309638
 30
0.0
 10
226.6127942335612
 20
50.29830070759766
 30
0.0
 10
226.6127942335612
 20
50.45509971433356
 30
0.0
 10
226.6127942335612
 20
50.52879907006758
 30
0.0
 10
226.6127942335612
 20
50.6652837563263
 30
0.0
 10
226.6127942335612
 20
50.72903717265779
 30
0.0
 10
226.6127942335613
 20
50.81450693201076
 30
0.0
 10
226.6127942335612
 20
50.84120287738293
 30
0.0
 10
226.6127942335612
 20
50.88885363506449
 30
0.0
 10
226.6127942335612
 20
50.90921037770148
 30
0.0
 10
226.6127942335612
 20
50.9294507750681
 30
0.0
  0
LINE
  5
35F
330
1F
100
AcDbEntity
  8
0
  6
SLD-Сплошная
 62
     7
370
    25
100
AcDbLine
 10
211.4627942336
 20
20.5044385053
 30
0.0
 11
211.4627942336
 21
20.2689840072
 31
0.0
  0
LINE
  5
360
330
1F
100
AcDbEntity
  8
0
  6
SLD-Сплошная
 62
     7
370
    25
100
AcDbLine
 10
175.6955792311
 20
4.690528644
 30
0.0
 11
173.3475092311
 21
4.690528644
 31
0.0
  0
LINE
  5
361
330
1F
100
AcDbEntity
  8
0
  6
SLD-Сплошная
 62
     7
370
    25
100
AcDbLine
 10
175.6955792311
 20
4.6804799266
 30
0.0
 11
175.6955792311
 21
4.690528644
 31
0.0
  0
LINE
  5
362
330
1F
100
AcDbEntity
  8
0
  6
SLD-Сплошная
 62
     7
370
    25
100
AcDbLine
 10
176.4782787071
 20
4.6804799266
 30
0.0
 11
176.4782787071
 21
4.690528644
 31
0.0
  0
LINE
  5
363
330
1F
100
AcDbEntity
  8
0
  6
SLD-Сплошная
 62
     7
370
    25
100
AcDbLine
 10
178.8263487071
 20
4.690528644
 30
0.0
 11
176.4782787071
 21
4.690528644
 31
0.0
  0
LINE
  5
364
330
1F
100
AcDbEntity
  8
0
  6
SLD-Сплошная
 62
     7
370
    25
100
AcDbLine
 10
178.8263487071
 20
4.6804799266
 30
0.0
 11
178.8263487071
 21
4.690528644
 31
0.0
  0
LINE
  5
365
330
1F
100
AcDbEntity
  8
0
  6
SLD-Сплошная
 62
     7
370
    25
100
AcDbLine
 10
173.3475092311
 20
4.6804799266
 30
0.0
 11
173.3475092311
 21
4.690528644
 31
0.0
  0
LINE
  5
366
330
1F
100
AcDbEntity
  8
0
  6
SLD-Сплошная
 62
     7
370
    25
100
AcDbLine
 10
172.5648097551
 20
4.690528644
 30
0.0
 11
170.2167397551
 21
4.690528644
 31
0.0
  0
LINE
  5
367
330
1F
100
AcDbEntity
  8
0
  6
SLD-Сплошная
 62
     7
370
    25
100
AcDbLine
 10
172.5648097551
 20
4.6804799266
 30
0.0
 11
172.5648097551
 21
4.690528644
 31
0.0
  0
LINE
  5
368
330
1F
100
AcDbEntity
  8
0
  6
SLD-Сплошная
 62
     7
370
    25
100
AcDbLine
 10
170.2167397551
 20
4.6804799266
 30
0.0
 11
170.2167397551
 21
4.690528644
 31
0.0
  0
LINE
  5
369
330
1F
100
AcDbEntity
  8
0
  6
SLD-Сплошная
 62
     7
370
    25
100
AcDbLine
 10
175.6955792311
 20
4.690528644
 30
0.0
 11
175.6955792311
 21
4.7193217463
 31
0.0
  0
LINE
  5
36A
330
1F
100
AcDbEntity
  8
0
  6
SLD-Сплошная
 62
     7
370
    25
100
AcDbLine
 10
173.3475092311
 20
4.690528644
 30
0.0
 11
173.3475092311
 21
4.7193217463
 31
0.0
  0
LINE
  5
36B
330
1F
100
AcDbEntity
  8
0
  6
SLD-Сплошная
 62
     7
370
    25
100
AcDbLine
 10
172.5648097551
 20
4.7193217463
 30
0.0
 11
172.5648097551
 21
4.690528644
 31
0.0
  0
LINE
  5
36C
330
1F
100
AcDbEntity
  8
0
  6
SLD-Сплошная
 62
     7
370
    25
100
AcDbLine
 10
170.2167397551
 20
4.7193217463
 30
0.0
 11
170.2167397551
 21
4.690528644
 31
0.0
  0
LINE
  5
36D
330
1F
100
AcDbEntity
  8
0
  6
SLD-Сплошная
 62
     7
370
    25
100
AcDbLine
 10
176.4782787071
 20
4.690528644
 30
0.0
 11
176.4782787071
 21
4.7193217463
 31
0.0
  0
LINE
  5
36E
330
1F
100
AcDbEntity
  8
0
  6
SLD-Сплошная
 62
     7
370
    25
100
AcDbLine
 10
178.8263487071
 20
4.690528644
 30
0.0
 11
178.8263487071
 21
4.7193217463
 31
0.0
  0
LINE
  5
36F
330
1F
100
AcDbEntity
  8
0
  6
SLD-Сплошная
 62
     7
370
    25
100
AcDbLine
 10
226.6127942336
 20
49.5903081469
 30
0.0
 11
226.2127942336
 21
49.5903081469
 31
0.0
  0
LINE
  5
370
330
1F
100
AcDbEntity
  8
0
  6
SLD-Сплошная
 62
     7
370
    25
100
AcDbLine
 10
226.6127942336
 20
48.2441543007
 30
0.0
 11
226.6127942336
 21
49.5903081469
 31
0.0
  0
LINE
  5
371
330
1F
100
AcDbEntity
  8
0
  6
SLD-Сплошная
 62
     7
370
    25
100
AcDbLine
 10
240.2127942336
 20
34.0804799266
 30
0.0
 11
226.2127942336
 21
34.0804799266
 31
0.0
  0
LINE
  5
372
330
1F
100
AcDbEntity
  8
0
  6
SLD-Сплошная
 62
     7
370
    25
100
AcDbLine
 10
240.2127942336
 20
40.5804799266
 30
0.0
 11
240.2127942336
 21
34.0804799266
 31
0.0
  0
LINE
  5
373
330
1F
100
AcDbEntity
  8
0
  6
SLD-Сплошная
 62
     7
370
    25
100
AcDbLine
 10
240.2127942336
 20
40.5804799266
 30
0.0
 11
226.2127942336
 21
40.5804799266
 31
0.0
  0
LINE
  5
374
330
1F
100
AcDbEntity
  8
0
  6
SLD-Сплошная
 62
     7
370
    25
100
AcDbLine
 10
242.7127942336
 20
41.7804799266
 30
0.0
 11
226.2127942336
 21
41.7804799266
 31
0.0
  0
LINE
  5
375
330
1F
100
AcDbEntity
  8
0
  6
SLD-Сплошная
 62
     7
370
    25
100
AcDbLine
 10
242.7127942336
 20
32.8804799266
 30
0.0
 11
226.2127942336
 21
32.8804799266
 31
0.0
  0
LINE
  5
376
330
1F
100
AcDbEntity
  8
0
  6
SLD-Сплошная
 62
     7
370
    25
100
AcDbLine
 10
242.7127942336
 20
41.7804799266
 30
0.0
 11
242.7127942336
 21
32.8804799266
 31
0.0
  0
LINE
  5
377
330
1F
100
AcDbEntity
  8
0
  6
SLD-Сплошная
 62
     7
370
    25
100
AcDbLine
 10
243.1127942336
 20
40.1804799266
 30
0.0
 11
242.7127942336
 21
40.1804799266
 31
0.0
  0
LINE
  5
378
330
1F
100
AcDbEntity
  8
0
  6
SLD-Сплошная
 62
     7
370
    25
100
AcDbLine
 10
243.1127942336
 20
34.4804799266
 30
0.0
 11
242.7127942336
 21
34.4804799266
 31
0.0
  0
LINE
  5
379
330
1F
100
AcDbEntity
  8
0
  6
SLD-Сплошная
 62
     7
370
    25
100
AcDbLine
 10
243.1127942336
 20
40.1804799266
 30
0.0
 11
243.1127942336
 21
34.4804799266
 31
0.0
  0
LINE
  5
37A
330
1F
100
AcDbEntity
  8
0
  6
SLD-Сплошная
 62
     7
370
    25
100
AcDbLine
 10
227.5127942336
 20
40.5804799266
 30
0.0
 11
227.5127942336
 21
39.4304799266
 31
0.0
  0
LINE
  5
37B
330
1F
100
AcDbEntity
  8
0
  6
SLD-Сплошная
 62
     7
370
    25
100
AcDbLine
 10
227.5127942336
 20
35.2304799266
 30
0.0
 11
227.5127942336
 21
34.0804799266
 31
0.0
  0
LINE
  5
37C
330
1F
100
AcDbEntity
  8
0
  6
SLD-Сплошная
 62
     7
370
    25
100
AcDbLine
 10
242.7127942336
 20
29.1304799266
 30
0.0
 11
226.6127942336
 21
29.1304799266
 31
0.0
  0
LINE
  5
37D
330
1F
100
AcDbEntity
  8
0
  6
SLD-Сплошная
 62
     7
370
    25
100
AcDbLine
 10
242.7127942336
 20
32.8804799266
 30
0.0
 11
242.7127942336
 21
29.1304799266
 31
0.0
  0
LINE
  5
37E
330
1F
100
AcDbEntity
  8
0
  6
SLD-Сплошная
 62
     7
370
    25
100
AcDbLine
 10
242.7127942336
 20
45.5304799266
 30
0.0
 11
226.6127942336
 21
45.5304799266
 31
0.0
  0
LINE
  5
37F
330
1F
100
AcDbEntity
  8
0
  6
SLD-Сплошная
 62
     7
370
    25
100
AcDbLine
 10
242.7127942336
 20
45.5304799266
 30
0.0
 11
242.7127942336
 21
41.7804799266
 31
0.0
  0
ARC
  5
380
330
1F
100
AcDbEntity
  8
0
  6
SLD-Сплошная
 62
     7
370
    25
100
AcDbCircle
 10
219.7127942336
 20
29.5423253338
 30
0.0
 40
2.900000000000039
100
AcDbArc
 50
54.9281918423
 51
215.0718081577
  0
LINE
  5
381
330
1F
100
AcDbEntity
  8
0
  6
SLD-Сплошная
 62
     7
370
    25
100
AcDbLine
 10
221.3791418306
 20
31.915779712
 30
0.0
 11
217.3393398553
 21
27.8759777367
 31
0.0
  0
ARC
  5
382
330
1F
100
AcDbEntity
  8
0
  6
SLD-Сплошная
 62
     7
370
    25
100
AcDbCircle
 10
219.7127942336
 20
29.5423253338
 30
0.0
 40
2.900000000000002
100
AcDbArc
 50
234.9281918423
 51
35.0718081577
  0
LINE
  5
383
330
1F
100
AcDbEntity
  8
0
  6
SLD-Сплошная
 62
     7
370
    25
100
AcDbLine
 10
218.0464466365
 20
27.1688709555
 30
0.0
 11
222.0862486118
 21
31.2086729309
 31
0.0
  0
ARC
  5
384
330
1F
100
AcDbEntity
  8
0
  6
SLD-Сплошная
 62
     7
370
    25
100
AcDbCircle
 10
219.7127942336
 20
29.5423253338
 30
0.0
 40
2.900000000000019
100
AcDbArc
 50
225.0
 51
234.9281918423
  0
ARC
  5
385
330
1F
100
AcDbEntity
  8
0
  6
SLD-Сплошная
 62
     7
370
    25
100
AcDbCircle
 10
219.7127942336
 20
29.5423253338
 30
0.0
 40
2.900000000000002
100
AcDbArc
 50
35.0718081577
 51
45.0
  0
ARC
  5
386
330
1F
100
AcDbEntity
  8
0
  6
SLD-Сплошная
 62
     7
370
    25
100
AcDbCircle
 10
219.7127942336
 20
29.5423253338
 30
0.0
 40
2.900000000000002
100
AcDbArc
 50
45.0
 51
54.9281918423
  0
ARC
  5
387
330
1F
100
AcDbEntity
  8
0
  6
SLD-Сплошная
 62
     7
370
    25
100
AcDbCircle
 10
219.7127942336
 20
29.5423253338
 30
0.0
 40
2.900000000000039
100
AcDbArc
 50
215.0718081577
 51
225.0
  0
ARC
  5
388
330
1F
100
AcDbEntity
  8
0
  6
SLD-Сплошная
 62
     7
370
    25
100
AcDbCircle
 10
213.1898108579
 20
52.4348803386
 30
0.0
 40
2.722547176117145
100
AcDbArc
 50
338.8730478099
 51
36.2195850814
  0
LINE
  5
389
330
1F
100
AcDbEntity
  8
0
  6
SLD-Сплошная
 62
     7
370
    25
100
AcDbLine
 10
212.7048774046
 20
51.4535773217
 30
0.0
 11
215.3862486118
 21
54.0435830207
 31
0.0
  0
ARC
  5
38A
330
1F
100
AcDbEntity
  8
0
  6
SLD-Сплошная
 62
     7
370
    25
100
AcDbCircle
 10
213.0929875891
 20
52.1155690065
 30
0.0
 40
2.836480945907126
100
AcDbArc
 50
39.8320691527
 51
45.9991272948
  0
LINE
  5
38B
330
1F
100
AcDbEntity
  8
0
  6
SLD-Сплошная
 62
     7
370
    25
100
AcDbLine
 10
215.8834391435
 20
51.4152937275
 30
0.0
 11
215.9127942336
 21
51.8128491328
 31
0.0
  0
ARC
  5
38C
330
1F
100
AcDbEntity
  8
0
  6
SLD-Сплошная
 62
     7
370
    25
100
AcDbCircle
 10
213.0073953504
 20
52.3941406811
 30
0.0
 40
2.869683399700727
100
AcDbArc
 50
54.3695983621
 51
199.1327868269
  0
LINE
  5
38D
330
1F
100
AcDbEntity
  8
0
  6
SLD-Сплошная
 62
     7
370
    25
100
AcDbLine
 10
214.6791418306
 20
54.7265957225
 30
0.0
 11
211.2906638422
 21
51.4535773217
 31
0.0
  0
ARC
  5
38E
330
1F
100
AcDbEntity
  8
0
  6
SLD-Сплошная
 62
     7
370
    25
100
AcDbCircle
 10
213.064275514
 20
52.0852271191
 30
0.0
 40
2.878252181219851
100
AcDbArc
 50
46.0075704938
 51
55.8710051883
  0
LINE
  5
38F
330
1F
100
AcDbEntity
  8
0
  6
SLD-Сплошная
 62
     7
370
    25
100
AcDbLine
 10
214.6791418306
 20
54.4677766774
 30
0.0
 11
214.6791418306
 21
54.7265957225
 31
0.0
  0
LINE
  5
390
330
1F
100
AcDbEntity
  8
0
  6
SLD-Сплошная
 62
     7
370
    25
100
AcDbLine
 10
210.1127942336
 20
51.8128491328
 30
0.0
 11
210.1421493237
 21
51.4152937275
 31
0.0
  0
LINE
  5
391
330
1F
100
AcDbEntity
  8
0
  6
SLD-Сплошная
 62
     7
370
    25
100
AcDbLine
 10
214.6791418306
 20
54.4677766774
 30
0.0
 11
211.5586130347
 21
51.4535773217
 31
0.0
  0
ARC
  5
392
330
1F
100
AcDbEntity
  8
0
  6
SLD-Сплошная
 62
     7
370
    25
100
AcDbCircle
 10
213.3357776093
 20
22.2260795147
 30
0.0
 40
2.722547176117487
100
AcDbArc
 50
158.8730478099
 51
216.2195850814
  0
ARC
  5
393
330
1F
100
AcDbEntity
  8
0
  6
SLD-Сплошная
 62
     7
370
    25
100
AcDbCircle
 10
213.432600878
 20
22.5453908468
 30
0.0
 40
2.836480945904212
100
AcDbArc
 50
219.8320691527
 51
225.9991272948
  0
LINE
  5
394
330
1F
100
AcDbEntity
  8
0
  6
SLD-Сплошная
 62
     7
370
    25
100
AcDbLine
 10
210.6421493237
 20
23.2456661258
 30
0.0
 11
210.6127942336
 21
22.8481107205
 31
0.0
  0
LINE
  5
395
330
1F
100
AcDbEntity
  8
0
  6
SLD-Сплошная
 62
     7
370
    25
100
AcDbLine
 10
213.8207110625
 20
23.2073825316
 30
0.0
 11
211.1393398553
 21
20.6173768326
 31
0.0
  0
ARC
  5
396
330
1F
100
AcDbEntity
  8
0
  6
SLD-Сплошная
 62
     7
370
    25
100
AcDbCircle
 10
213.4613129531
 20
22.5757327342
 30
0.0
 40
2.878252181211202
100
AcDbArc
 50
226.0075704938
 51
235.8710051883
  0
LINE
  5
397
330
1F
100
AcDbEntity
  8
0
  6
SLD-Сплошная
 62
     7
370
    25
100
AcDbLine
 10
211.8464466365
 20
20.1931831759
 30
0.0
 11
211.8464466365
 21
19.9343641308
 31
0.0
  0
ARC
  5
398
330
1F
100
AcDbEntity
  8
0
  6
SLD-Сплошная
 62
     7
370
    25
100
AcDbCircle
 10
213.5181931167
 20
22.2668191722
 30
0.0
 40
2.869683399700701
100
AcDbArc
 50
234.3695983621
 51
19.1327868269
  0
LINE
  5
399
330
1F
100
AcDbEntity
  8
0
  6
SLD-Сплошная
 62
     7
370
    25
100
AcDbLine
 10
216.4127942336
 20
22.8481107205
 30
0.0
 11
216.3834391435
 21
23.2456661258
 31
0.0
  0
LINE
  5
39A
330
1F
100
AcDbEntity
  8
0
  6
SLD-Сплошная
 62
     7
370
    25
100
AcDbLine
 10
211.8464466365
 20
19.9343641308
 30
0.0
 11
215.2349246249
 21
23.2073825316
 31
0.0
  0
LINE
  5
39B
330
1F
100
AcDbEntity
  8
0
  6
SLD-Сплошная
 62
     7
370
    25
100
AcDbLine
 10
211.8464466365
 20
20.1931831759
 30
0.0
 11
214.9669754325
 21
23.2073825316
 31
0.0
  0
ARC
  5
39C
330
1F
100
AcDbEntity
  8
0
  6
SLD-Сплошная
 62
     7
370
    25
100
AcDbCircle
 10
220.0357776093
 20
22.2260795147
 30
0.0
 40
2.72254717611775
100
AcDbArc
 50
158.8730478099
 51
216.2195850814
  0
ARC
  5
39D
330
1F
100
AcDbEntity
  8
0
  6
SLD-Сплошная
 62
     7
370
    25
100
AcDbCircle
 10
220.132600878
 20
22.5453908468
 30
0.0
 40
2.836480945901837
100
AcDbArc
 50
219.8320691527
 51
225.9991272948
  0
LINE
  5
39E
330
1F
100
AcDbEntity
  8
0
  6
SLD-Сплошная
 62
     7
370
    25
100
AcDbLine
 10
217.3421493237
 20
23.2456661258
 30
0.0
 11
217.3127942336
 21
22.8481107205
 31
0.0
  0
LINE
  5
39F
330
1F
100
AcDbEntity
  8
0
  6
SLD-Сплошная
 62
     7
370
    25
100
AcDbLine
 10
220.5207110625
 20
23.2073825316
 30
0.0
 11
217.8393398553
 21
20.6173768326
 31
0.0
  0
ARC
  5
3A0
330
1F
100
AcDbEntity
  8
0
  6
SLD-Сплошная
 62
     7
370
    25
100
AcDbCircle
 10
220.1613129531
 20
22.5757327342
 30
0.0
 40
2.878252181213363
100
AcDbArc
 50
226.0075704938
 51
235.8710051883
  0
LINE
  5
3A1
330
1F
100
AcDbEntity
  8
0
  6
SLD-Сплошная
 62
     7
370
    25
100
AcDbLine
 10
218.5464466365
 20
20.1931831759
 30
0.0
 11
218.5464466365
 21
19.9343641308
 31
0.0
  0
ARC
  5
3A2
330
1F
100
AcDbEntity
  8
0
  6
SLD-Сплошная
 62
     7
370
    25
100
AcDbCircle
 10
220.2181931167
 20
22.2668191722
 30
0.0
 40
2.869683399700697
100
AcDbArc
 50
234.3695983621
 51
19.1327868269
  0
LINE
  5
3A3
330
1F
100
AcDbEntity
  8
0
  6
SLD-Сплошная
 62
     7
370
    25
100
AcDbLine
 10
223.1127942336
 20
22.8481107205
 30
0.0
 11
223.0834391435
 21
23.2456661258
 31
0.0
  0
LINE
  5
3A4
330
1F
100
AcDbEntity
  8
0
  6
SLD-Сплошная
 62
     7
370
    25
100
AcDbLine
 10
218.5464466365
 20
19.9343641308
 30
0.0
 11
221.9349246249
 21
23.2073825316
 31
0.0
  0
LINE
  5
3A5
330
1F
100
AcDbEntity
  8
0
  6
SLD-Сплошная
 62
     7
370
    25
100
AcDbLine
 10
218.5464466365
 20
20.1931831759
 30
0.0
 11
221.6669754325
 21
23.2073825316
 31
0.0
  0
LINE
  5
3A6
330
1F
100
AcDbEntity
  8
0
  6
SLD-Сплошная
 62
     7
370
    25
100
AcDbLine
 10
221.3791418306
 20
47.4920888978
 30
0.0
 11
217.3393398553
 21
43.4522869224
 31
0.0
  0
ARC
  5
3A7
330
1F
100
AcDbEntity
  8
0
  6
SLD-Сплошная
 62
     7
370
    25
100
AcDbCircle
 10
219.7127942336
 20
45.1186345195
 30
0.0
 40
2.900000000000043
100
AcDbArc
 50
54.9281918423
 51
215.0718081577
  0
ARC
  5
3A8
330
1F
100
AcDbEntity
  8
0
  6
SLD-Сплошная
 62
     7
370
    25
100
AcDbCircle
 10
219.7127942336
 20
45.1186345195
 30
0.0
 40
2.900000000000007
100
AcDbArc
 50
234.9281918423
 51
35.0718081577
  0
LINE
  5
3A9
330
1F
100
AcDbEntity
  8
0
  6
SLD-Сплошная
 62
     7
370
    25
100
AcDbLine
 10
218.0464466365
 20
42.7451801413
 30
0.0
 11
222.0862486118
 21
46.7849821166
 31
0.0
  0
ARC
  5
3AA
330
1F
100
AcDbEntity
  8
0
  6
SLD-Сплошная
 62
     7
370
    25
100
AcDbCircle
 10
219.7127942336
 20
45.1186345195
 30
0.0
 40
2.900000000000019
100
AcDbArc
 50
225.0
 51
234.9281918423
  0
ARC
  5
3AB
330
1F
100
AcDbEntity
  8
0
  6
SLD-Сплошная
 62
     7
370
    25
100
AcDbCircle
 10
219.7127942336
 20
45.1186345195
 30
0.0
 40
2.899999999999988
100
AcDbArc
 50
35.0718081577
 51
45.0
  0
ARC
  5
3AC
330
1F
100
AcDbEntity
  8
0
  6
SLD-Сплошная
 62
     7
370
    25
100
AcDbCircle
 10
219.7127942336
 20
45.1186345195
 30
0.0
 40
2.89999999999998
100
AcDbArc
 50
45.0
 51
54.9281918423
  0
ARC
  5
3AD
330
1F
100
AcDbEntity
  8
0
  6
SLD-Сплошная
 62
     7
370
    25
100
AcDbCircle
 10
219.7127942336
 20
45.1186345195
 30
0.0
 40
2.900000000000043
100
AcDbArc
 50
215.0718081577
 51
225.0
  0
ARC
  5
3AE
330
1F
100
AcDbEntity
  8
0
  6
SLD-Сплошная
 62
     7
370
    25
100
AcDbCircle
 10
219.8898108579
 20
52.4348803386
 30
0.0
 40
2.722547176117569
100
AcDbArc
 50
338.8730478099
 51
36.2195850814
  0
ARC
  5
3AF
330
1F
100
AcDbEntity
  8
0
  6
SLD-Сплошная
 62
     7
370
    25
100
AcDbCircle
 10
219.7929875891
 20
52.1155690065
 30
0.0
 40
2.836480945906109
100
AcDbArc
 50
39.8320691527
 51
45.9991272948
  0
LINE
  5
3B0
330
1F
100
AcDbEntity
  8
0
  6
SLD-Сплошная
 62
     7
370
    25
100
AcDbLine
 10
222.5834391435
 20
51.4152937275
 30
0.0
 11
222.6127942336
 21
51.8128491328
 31
0.0
  0
LINE
  5
3B1
330
1F
100
AcDbEntity
  8
0
  6
SLD-Сплошная
 62
     7
370
    25
100
AcDbLine
 10
219.4048774046
 20
51.4535773217
 30
0.0
 11
222.0862486118
 21
54.0435830207
 31
0.0
  0
ARC
  5
3B2
330
1F
100
AcDbEntity
  8
0
  6
SLD-Сплошная
 62
     7
370
    25
100
AcDbCircle
 10
219.7073953504
 20
52.3941406811
 30
0.0
 40
2.86968339970073
100
AcDbArc
 50
54.3695983621
 51
199.1327868269
  0
LINE
  5
3B3
330
1F
100
AcDbEntity
  8
0
  6
SLD-Сплошная
 62
     7
370
    25
100
AcDbLine
 10
221.3791418306
 20
54.7265957225
 30
0.0
 11
217.9906638422
 21
51.4535773217
 31
0.0
  0
ARC
  5
3B4
330
1F
100
AcDbEntity
  8
0
  6
SLD-Сплошная
 62
     7
370
    25
100
AcDbCircle
 10
219.764275514
 20
52.0852271191
 30
0.0
 40
2.878252181214588
100
AcDbArc
 50
46.0075704938
 51
55.8710051883
  0
LINE
  5
3B5
330
1F
100
AcDbEntity
  8
0
  6
SLD-Сплошная
 62
     7
370
    25
100
AcDbLine
 10
221.3791418306
 20
54.4677766774
 30
0.0
 11
221.3791418306
 21
54.7265957225
 31
0.0
  0
LINE
  5
3B6
330
1F
100
AcDbEntity
  8
0
  6
SLD-Сплошная
 62
     7
370
    25
100
AcDbLine
 10
216.8127942336
 20
51.8128491328
 30
0.0
 11
216.8421493237
 21
51.4152937275
 31
0.0
  0
LINE
  5
3B7
330
1F
100
AcDbEntity
  8
0
  6
SLD-Сплошная
 62
     7
370
    25
100
AcDbLine
 10
221.3791418306
 20
54.4677766774
 30
0.0
 11
218.2586130347
 21
51.4535773217
 31
0.0
  0
ARC
  5
3B8
330
1F
100
AcDbEntity
  8
0
  6
SLD-Сплошная
 62
     7
370
    25
100
AcDbCircle
 10
213.0127942336
 20
29.5423253338
 30
0.0
 40
2.900000000000011
100
AcDbArc
 50
54.9281918423
 51
215.0718081577
  0
LINE
  5
3B9
330
1F
100
AcDbEntity
  8
0
  6
SLD-Сплошная
 62
     7
370
    25
100
AcDbLine
 10
214.6791418306
 20
31.915779712
 30
0.0
 11
210.6393398553
 21
27.8759777367
 31
0.0
  0
ARC
  5
3BA
330
1F
100
AcDbEntity
  8
0
  6
SLD-Сплошная
 62
     7
370
    25
100
AcDbCircle
 10
213.0127942336
 20
29.5423253338
 30
0.0
 40
2.899999999999996
100
AcDbArc
 50
234.9281918423
 51
35.0718081577
  0
LINE
  5
3BB
330
1F
100
AcDbEntity
  8
0
  6
SLD-Сплошная
 62
     7
370
    25
100
AcDbLine
 10
211.3464466365
 20
27.1688709555
 30
0.0
 11
215.3862486118
 21
31.2086729309
 31
0.0
  0
ARC
  5
3BC
330
1F
100
AcDbEntity
  8
0
  6
SLD-Сплошная
 62
     7
370
    25
100
AcDbCircle
 10
213.0127942336
 20
29.5423253338
 30
0.0
 40
2.899999999999999
100
AcDbArc
 50
225.0
 51
234.9281918423
  0
ARC
  5
3BD
330
1F
100
AcDbEntity
  8
0
  6
SLD-Сплошная
 62
     7
370
    25
100
AcDbCircle
 10
213.0127942336
 20
29.5423253338
 30
0.0
 40
2.900000000000022
100
AcDbArc
 50
35.0718081577
 51
45.0
  0
ARC
  5
3BE
330
1F
100
AcDbEntity
  8
0
  6
SLD-Сплошная
 62
     7
370
    25
100
AcDbCircle
 10
213.0127942336
 20
29.5423253338
 30
0.0
 40
2.900000000000022
100
AcDbArc
 50
45.0
 51
54.9281918423
  0
ARC
  5
3BF
330
1F
100
AcDbEntity
  8
0
  6
SLD-Сплошная
 62
     7
370
    25
100
AcDbCircle
 10
213.0127942336
 20
29.5423253338
 30
0.0
 40
2.900000000000011
100
AcDbArc
 50
215.0718081577
 51
225.0
  0
ARC
  5
3C0
330
1F
100
AcDbEntity
  8
0
  6
SLD-Сплошная
 62
     7
370
    25
100
AcDbCircle
 10
213.0127942336
 20
45.1186345195
 30
0.0
 40
2.900000000000015
100
AcDbArc
 50
54.9281918423
 51
215.0718081577
  0
LINE
  5
3C1
330
1F
100
AcDbEntity
  8
0
  6
SLD-Сплошная
 62
     7
370
    25
100
AcDbLine
 10
214.6791418306
 20
47.4920888978
 30
0.0
 11
210.6393398553
 21
43.4522869224
 31
0.0
  0
ARC
  5
3C2
330
1F
100
AcDbEntity
  8
0
  6
SLD-Сплошная
 62
     7
370
    25
100
AcDbCircle
 10
213.0127942336
 20
45.1186345195
 30
0.0
 40
2.900000000000007
100
AcDbArc
 50
234.9281918423
 51
35.0718081577
  0
LINE
  5
3C3
330
1F
100
AcDbEntity
  8
0
  6
SLD-Сплошная
 62
     7
370
    25
100
AcDbLine
 10
211.3464466365
 20
42.7451801413
 30
0.0
 11
215.3862486118
 21
46.7849821166
 31
0.0
  0
ARC
  5
3C4
330
1F
100
AcDbEntity
  8
0
  6
SLD-Сплошная
 62
     7
370
    25
100
AcDbCircle
 10
213.0127942336
 20
45.1186345195
 30
0.0
 40
2.900000000000007
100
AcDbArc
 50
225.0
 51
234.9281918423
  0
ARC
  5
3C5
330
1F
100
AcDbEntity
  8
0
  6
SLD-Сплошная
 62
     7
370
    25
100
AcDbCircle
 10
213.0127942336
 20
45.1186345195
 30
0.0
 40
2.899999999999992
100
AcDbArc
 50
35.0718081577
 51
45.0
  0
ARC
  5
3C6
330
1F
100
AcDbEntity
  8
0
  6
SLD-Сплошная
 62
     7
370
    25
100
AcDbCircle
 10
213.0127942336
 20
45.1186345195
 30
0.0
 40
2.900000000000014
100
AcDbArc
 50
45.0
 51
54.9281918423
  0
ARC
  5
3C7
330
1F
100
AcDbEntity
  8
0
  6
SLD-Сплошная
 62
     7
370
    25
100
AcDbCircle
 10
213.0127942336
 20
45.1186345195
 30
0.0
 40
2.900000000000015
100
AcDbArc
 50
215.0718081577
 51
225.0
  0
LINE
  5
3C8
330
1F
100
AcDbEntity
  8
0
  6
SLD-Сплошная
 62
     7
370
    25
100
AcDbLine
 10
231.1791418306
 20
39.7039343049
 30
0.0
 11
227.1393398553
 21
35.6641323296
 31
0.0
  0
ARC
  5
3C9
330
1F
100
AcDbEntity
  8
0
  6
SLD-Сплошная
 62
     7
370
    25
100
AcDbCircle
 10
229.5127942336
 20
37.3304799266
 30
0.0
 40
2.900000000000007
100
AcDbArc
 50
54.9281918423
 51
215.0718081577
  0
LINE
  5
3CA
330
1F
100
AcDbEntity
  8
0
  6
SLD-Сплошная
 62
     7
370
    25
100
AcDbLine
 10
227.8464466365
 20
34.9570255484
 30
0.0
 11
231.8862486118
 21
38.9968275237
 31
0.0
  0
ARC
  5
3CB
330
1F
100
AcDbEntity
  8
0
  6
SLD-Сплошная
 62
     7
370
    25
100
AcDbCircle
 10
229.5127942336
 20
37.3304799266
 30
0.0
 40
2.900000000000024
100
AcDbArc
 50
234.9281918423
 51
35.0718081577
  0
ARC
  5
3CC
330
1F
100
AcDbEntity
  8
0
  6
SLD-Сплошная
 62
     7
370
    25
100
AcDbCircle
 10
229.5127942336
 20
37.3304799266
 30
0.0
 40
2.900000000000024
100
AcDbArc
 50
225.0
 51
234.9281918423
  0
ARC
  5
3CD
330
1F
100
AcDbEntity
  8
0
  6
SLD-Сплошная
 62
     7
370
    25
100
AcDbCircle
 10
229.5127942336
 20
37.3304799266
 30
0.0
 40
2.900000000000015
100
AcDbArc
 50
35.0718081577
 51
45.0
  0
ARC
  5
3CE
330
1F
100
AcDbEntity
  8
0
  6
SLD-Сплошная
 62
     7
370
    25
100
AcDbCircle
 10
229.5127942336
 20
37.3304799266
 30
0.0
 40
2.900000000000007
100
AcDbArc
 50
45.0
 51
54.9281918423
  0
ARC
  5
3CF
330
1F
100
AcDbEntity
  8
0
  6
SLD-Сплошная
 62
     7
370
    25
100
AcDbCircle
 10
229.5127942336
 20
37.3304799266
 30
0.0
 40
2.900000000000019
100
AcDbArc
 50
215.0718081577
 51
225.0
  0
LINE
  5
3D0
330
1F
100
AcDbEntity
  8
0
  6
SLD-Сплошная
 62
     7
370
    25
100
AcDbLine
 10
234.5464466365
 20
34.9570255484
 30
0.0
 11
238.5862486118
 21
38.9968275237
 31
0.0
  0
ARC
  5
3D1
330
1F
100
AcDbEntity
  8
0
  6
SLD-Сплошная
 62
     7
370
    25
100
AcDbCircle
 10
236.2127942336
 20
37.3304799266
 30
0.0
 40
2.900000000000014
100
AcDbArc
 50
234.9281918423
 51
35.0718081577
  0
LINE
  5
3D2
330
1F
100
AcDbEntity
  8
0
  6
SLD-Сплошная
 62
     7
370
    25
100
AcDbLine
 10
237.8791418306
 20
39.7039343049
 30
0.0
 11
233.8393398553
 21
35.6641323296
 31
0.0
  0
ARC
  5
3D3
330
1F
100
AcDbEntity
  8
0
  6
SLD-Сплошная
 62
     7
370
    25
100
AcDbCircle
 10
236.2127942336
 20
37.3304799266
 30
0.0
 40
2.900000000000002
100
AcDbArc
 50
54.9281918423
 51
215.0718081577
  0
ARC
  5
3D4
330
1F
100
AcDbEntity
  8
0
  6
SLD-Сплошная
 62
     7
370
    25
100
AcDbCircle
 10
236.2127942336
 20
37.3304799266
 30
0.0
 40
2.900000000000019
100
AcDbArc
 50
45.0
 51
54.9281918423
  0
ARC
  5
3D5
330
1F
100
AcDbEntity
  8
0
  6
SLD-Сплошная
 62
     7
370
    25
100
AcDbCircle
 10
236.2127942336
 20
37.3304799266
 30
0.0
 40
2.900000000000004
100
AcDbArc
 50
215.0718081577
 51
225.0
  0
ARC
  5
3D6
330
1F
100
AcDbEntity
  8
0
  6
SLD-Сплошная
 62
     7
370
    25
100
AcDbCircle
 10
236.2127942336
 20
37.3304799266
 30
0.0
 40
2.900000000000014
100
AcDbArc
 50
225.0
 51
234.9281918423
  0
ARC
  5
3D7
330
1F
100
AcDbEntity
  8
0
  6
SLD-Сплошная
 62
     7
370
    25
100
AcDbCircle
 10
236.2127942336
 20
37.3304799266
 30
0.0
 40
2.900000000000019
100
AcDbArc
 50
35.0718081577
 51
45.0
  0
LINE
  5
3D8
330
1F
100
AcDbEntity
  8
0
  6
SLD-Сплошная
 62
     7
370
    25
100
AcDbLine
 10
179.2939216463
 20
42.3304799266
 30
0.0
 11
177.3591198146
 21
42.3304799266
 31
0.0
  0
SPLINE
  5
3D9
330
1F
100
AcDbEntity
  8
0
  6
SLD-Сплошная
 62
     7
370
    25
100
AcDbSpline
210
0.0
220
0.0
230
1.0
 70
     8
 71
     3
 72
     8
 73
     4
 74
     0
 42
0.00000001
 43
0.00000001
 40
0.0
 40
0.0
 40
0.0
 40
0.0
 40
1.0
 40
1.0
 40
1.0
 40
1.0
 10
179.2939216462617
 20
42.33047992664946
 30
0.0
 10
179.3168008495273
 20
42.33047992664946
 30
0.0
 10
179.3405279112555
 20
42.3020272852844
 30
0.0
 10
179.3597926512849
 20
42.25148978013449
 30
0.0
  0
SPLINE
  5
3DA
330
1F
100
AcDbEntity
  8
0
  6
SLD-Сплошная
 62
     7
370
    25
100
AcDbSpline
210
0.0
220
0.0
230
1.0
 70
     8
 71
     3
 72
    10
 73
     6
 74
     0
 42
0.00000001
 43
0.00000001
 40
0.0
 40
0.0
 40
0.0
 40
0.0
 40
0.5
 40
0.5
 40
1.0
 40
1.0
 40
1.0
 40
1.0
 10
179.2210118953599
 20
41.83047992664946
 30
0.0
 10
179.2780442387802
 20
41.91045850314323
 30
0.0
 10
179.3244706612941
 20
41.99566270409073
 30
0.0
 10
179.373753456487
 20
42.1451686081708
 30
0.0
 10
179.37623908041
 20
42.20834559571595
 30
0.0
 10
179.3597926512849
 20
42.25148978013449
 30
0.0
  0
SPLINE
  5
3DB
330
1F
100
AcDbEntity
  8
0
  6
SLD-Сплошная
 62
     7
370
    25
100
AcDbSpline
210
0.0
220
0.0
230
1.0
 70
     8
 71
     3
 72
    10
 73
     6
 74
     0
 42
0.00000001
 43
0.00000001
 40
0.0
 40
0.0
 40
0.0
 40
0.0
 40
0.5
 40
0.5
 40
1.0
 40
1.0
 40
1.0
 40
1.0
 10
179.3597926512849
 20
32.41835862361501
 30
0.0
 10
179.37623908041
 20
32.46150280803356
 30
0.0
 10
179.373753456487
 20
32.5246797955787
 30
0.0
 10
179.3244706612942
 20
32.67418569965878
 30
0.0
 10
179.2780442387802
 20
32.75938990060628
 30
0.0
 10
179.2210118953599
 20
32.83936847710005
 30
0.0
  0
SPLINE
  5
3DC
330
1F
100
AcDbEntity
  8
0
  6
SLD-Сплошная
 62
     7
370
    25
100
AcDbSpline
210
0.0
220
0.0
230
1.0
 70
     8
 71
     3
 72
     8
 73
     4
 74
     0
 42
0.00000001
 43
0.00000001
 40
0.0
 40
0.0
 40
0.0
 40
0.0
 40
1.0
 40
1.0
 40
1.0
 40
1.0
 10
179.3597926512849
 20
32.41835862361501
 30
0.0
 10
179.3405279112555
 20
32.36782111846511
 30
0.0
 10
179.3168008495272
 20
32.33936847710005
 30
0.0
 10
179.2939216462617
 20
32.33936847710004
 30
0.0
  0
LINE
  5
3DD
330
1F
100
AcDbEntity
  8
0
  6
SLD-Сплошная
 62
     7
370
    25
100
AcDbLine
 10
177.3591198146
 20
32.3393684771
 30
0.0
 11
179.2939216463
 21
32.3393684771
 31
0.0
  0
SPLINE
  5
3DE
330
1F
100
AcDbEntity
  8
0
  6
SLD-Сплошная
 62
     7
370
    25
100
AcDbSpline
210
0.0
220
0.0
230
1.0
 70
    24
 71
     3
 72
    10
 73
     6
 74
     0
 42
0.00000001
 43
0.00000001
 40
0.0
 40
0.0
 40
0.0
 40
0.0
 40
0.5
 40
0.5
 40
1.0
 40
1.0
 40
1.0
 40
1.0
 10
172.8121507082275
 20
32.33936847710004
 30
0.0
 10
173.8506104562755
 20
32.33936847710004
 30
0.0
 10
174.7738322816134
 20
32.33936847710005
 30
0.0
 10
176.3091154933194
 20
32.33936847710005
 30
0.0
 10
176.9206750661331
 20
32.33936847710004
 30
0.0
 10
177.3591198146071
 20
32.33936847710004
 30
0.0
  0
SPLINE
  5
3DF
330
1F
100
AcDbEntity
  8
0
  6
SLD-Сплошная
 62
     7
370
    25
100
AcDbSpline
210
0.0
220
0.0
230
1.0
 70
     8
 71
     3
 72
    18
 73
    14
 74
     0
 42
0.00000001
 43
0.00000001
 40
0.0
 40
0.0
 40
0.0
 40
0.0
 40
0.0429057850278969
 40
0.0885884636523398
 40
0.1380588050625056
 40
0.1920840782984459
 40
0.2512311228404869
 40
0.3605168849394133
 40
0.5010755150913313
 40
0.6259070120880017
 40
0.7508235257458532
 40
0.8876625009932885
 40
1.0
 40
1.0
 40
1.0
 40
1.0
 10
171.9367686903999
 20
32.83936847710004
 30
0.0
 10
171.9377107999962
 20
32.82348388819835
 30
0.0
 10
171.9396559932067
 20
32.79068664825427
 30
0.0
 10
171.9548850356445
 20
32.74169534617149
 30
0.0
 10
171.979151023056
 20
32.69250263537091
 30
0.0
 10
172.0135488495547
 20
32.6438404867944
 30
0.0
 10
172.0689172850912
 20
32.58469630215505
 30
0.0
 10
172.1579212743725
 20
32.51636718175725
 30
0.0
 10
172.2773067021607
 20
32.4514752558612
 30
0.0
 10
172.4094010694984
 20
32.40080928515493
 30
0.0
 10
172.5451472288915
 20
32.36496932967179
 30
0.0
 10
172.6800156848314
 20
32.34321389467689
 30
0.0
 10
172.7710908345921
 20
32.34056340903953
 30
0.0
 10
172.8121507082275
 20
32.33936847710004
 30
0.0
  0
SPLINE
  5
3E0
330
1F
100
AcDbEntity
  8
0
  6
SLD-Сплошная
 62
     7
370
    25
100
AcDbSpline
210
0.0
220
0.0
230
1.0
 70
     8
 71
     3
 72
    18
 73
    14
 74
     0
 42
0.00000001
 43
0.00000001
 40
0.0
 40
0.0
 40
0.0
 40
0.0
 40
0.0721070069161441
 40
0.1550347867513871
 40
0.2488767801117235
 40
0.3735779060553781
 40
0.4986033983858117
 40
0.6237722732866031
 40
0.7487971200663546
 40
0.8154324663527361
 40
0.8742689186619557
 40
0.9394120759899794
 40
1.0
 40
1.0
 40
1.0
 40
1.0
 10
172.8121507082276
 20
42.33047992664945
 30
0.0
 10
172.7857884712657
 20
42.32998719069402
 30
0.0
 10
172.7291079354835
 20
42.32892777612335
 30
0.0
 10
172.6387156393378
 20
42.31971618181697
 30
0.0
 10
172.5304973917552
 20
42.30116959102453
 30
0.0
 10
172.409826352249
 20
42.26914965375991
 30
0.0
 10
172.282924047185
 20
42.22046627988793
 30
0.0
 10
172.1628763232551
 20
42.15695020484151
 30
0.0
 10
172.0707547981267
 20
42.08759942004298
 30
0.0
 10
172.00858190971
 20
42.0207030013342
 30
0.0
 10
171.9697637360497
 20
41.96280404334518
 30
0.0
 10
171.9423524661542
 20
41.89954088020931
 30
0.0
 10
171.9385844438731
 20
41.85293743064121
 30
0.0
 10
171.9367686903999
 20
41.83047992664945
 30
0.0
  0
SPLINE
  5
3E1
330
1F
100
AcDbEntity
  8
0
  6
SLD-Сплошная
 62
     7
370
    25
100
AcDbSpline
210
0.0
220
0.0
230
1.0
 70
    24
 71
     3
 72
    10
 73
     6
 74
     0
 42
0.00000001
 43
0.00000001
 40
0.0
 40
0.0
 40
0.0
 40
0.0
 40
0.5
 40
0.5
 40
1.0
 40
1.0
 40
1.0
 40
1.0
 10
177.3591198146071
 20
42.33047992664946
 30
0.0
 10
176.9206750661331
 20
42.33047992664946
 30
0.0
 10
176.3091154933194
 20
42.33047992664946
 30
0.0
 10
174.7738322816134
 20
42.33047992664945
 30
0.0
 10
173.8506104562754
 20
42.33047992664945
 30
0.0
 10
172.8121507082275
 20
42.33047992664945
 30
0.0
  0
LINE
  5
3E2
330
1F
100
AcDbEntity
  8
0
  6
SLD-Сплошная
 62
     7
370
    25
100
AcDbLine
 10
171.9367686904
 20
32.8393684771
 30
0.0
 11
171.9367686904
 21
41.8304799266
 31
0.0
  0
LINE
  5
3E3
330
1F
100
AcDbEntity
  8
0
  6
SLD-Сплошная
 62
     7
370
    25
100
AcDbLine
 10
170.4716928174
 20
42.3304799266
 30
0.0
 11
170.4716928174
 21
32.3393684771
 31
0.0
  0
LINE
  5
3E4
330
1F
100
AcDbEntity
  8
0
  6
SLD-Сплошная
 62
     7
370
    25
100
AcDbLine
 10
170.4716928174
 20
32.3393684771
 30
0.0
 11
172.8121507082
 21
32.3393684771
 31
0.0
  0
LINE
  5
3E5
330
1F
100
AcDbEntity
  8
0
  6
SLD-Сплошная
 62
     7
370
    25
100
AcDbLine
 10
172.8121507082
 20
42.3304799266
 30
0.0
 11
170.4716928174
 21
42.3304799266
 31
0.0
  0
LINE
  5
3E6
330
1F
100
AcDbEntity
  8
0
  6
SLD-Сплошная
 62
     7
370
    25
100
AcDbLine
 10
169.3487280618
 20
32.3393684771
 30
0.0
 11
169.3487280618
 21
27.3304799266
 31
0.0
  0
LINE
  5
3E7
330
1F
100
AcDbEntity
  8
0
  6
SLD-Сплошная
 62
     7
370
    25
100
AcDbLine
 10
169.3487280618
 20
27.3304799266
 30
0.0
 11
154.8093192065
 21
27.3304799266
 31
0.0
  0
LINE
  5
3E8
330
1F
100
AcDbEntity
  8
0
  6
SLD-Сплошная
 62
     7
370
    25
100
AcDbLine
 10
154.8093192065
 20
27.3304799266
 30
0.0
 11
154.8093192065
 21
47.3304799266
 31
0.0
  0
LINE
  5
3E9
330
1F
100
AcDbEntity
  8
0
  6
SLD-Сплошная
 62
     7
370
    25
100
AcDbLine
 10
154.8093192065
 20
47.3304799266
 30
0.0
 11
169.3487280618
 21
47.3304799266
 31
0.0
  0
LINE
  5
3EA
330
1F
100
AcDbEntity
  8
0
  6
SLD-Сплошная
 62
     7
370
    25
100
AcDbLine
 10
169.3487280618
 20
47.3304799266
 30
0.0
 11
169.3487280618
 21
42.3304799266
 31
0.0
  0
LINE
  5
3EB
330
1F
100
AcDbEntity
  8
0
  6
SLD-Сплошная
 62
     7
370
    25
100
AcDbLine
 10
169.3487280618
 20
32.3393684771
 30
0.0
 11
170.4716928174
 21
32.3393684771
 31
0.0
  0
LINE
  5
3EC
330
1F
100
AcDbEntity
  8
0
  6
SLD-Сплошная
 62
     7
370
    25
100
AcDbLine
 10
170.4716928174
 20
42.3304799266
 30
0.0
 11
169.3487280618
 21
42.3304799266
 31
0.0
  0
LINE
  5
3ED
330
1F
100
AcDbEntity
  8
0
  6
SLD-Сплошная
 62
     7
370
    25
100
AcDbLine
 10
177.71603009
 20
47.3304799266
 30
0.0
 11
177.71603009
 21
42.3304799266
 31
0.0
  0
LINE
  5
3EE
330
1F
100
AcDbEntity
  8
0
  6
SLD-Сплошная
 62
     7
370
    25
100
AcDbLine
 10
169.3487280618
 20
47.3304799266
 30
0.0
 11
172.1047216848
 21
47.3304799266
 31
0.0
  0
LINE
  5
3EF
330
1F
100
AcDbEntity
  8
0
  6
SLD-Сплошная
 62
     7
370
    25
100
AcDbLine
 10
175.3208667823
 20
47.3304799266
 30
0.0
 11
177.71603009
 21
47.3304799266
 31
0.0
  0
LINE
  5
3F0
330
1F
100
AcDbEntity
  8
0
  6
SLD-Сплошная
 62
     7
370
    25
100
AcDbLine
 10
179.1484647719
 20
27.3304799266
 30
0.0
 11
177.71603009
 21
27.3304799266
 31
0.0
  0
LINE
  5
3F1
330
1F
100
AcDbEntity
  8
0
  6
SLD-Сплошная
 62
     7
370
    25
100
AcDbLine
 10
177.71603009
 20
32.3393684771
 30
0.0
 11
177.71603009
 21
27.3304799266
 31
0.0
  0
LINE
  5
3F2
330
1F
100
AcDbEntity
  8
0
  6
SLD-Сплошная
 62
     7
370
    25
100
AcDbLine
 10
177.71603009
 20
47.3304799266
 30
0.0
 11
179.1484647719
 21
47.3304799266
 31
0.0
  0
LINE
  5
3F3
330
1F
100
AcDbEntity
  8
0
  6
SLD-Сплошная
 62
     7
370
    25
100
AcDbLine
 10
177.71603009
 20
27.3304799266
 30
0.0
 11
175.3208667823
 21
27.3304799266
 31
0.0
  0
LINE
  5
3F4
330
1F
100
AcDbEntity
  8
0
  6
SLD-Сплошная
 62
     7
370
    25
100
AcDbLine
 10
172.1047216848
 20
27.3304799266
 30
0.0
 11
169.3487280618
 21
27.3304799266
 31
0.0
  0
SPLINE
  5
3F5
330
1F
100
AcDbEntity
  8
0
  6
SLD-Сплошная
 62
     7
370
    25
100
AcDbSpline
210
0.0
220
0.0
230
1.0
 70
    24
 71
     3
 72
     8
 73
     4
 74
     0
 42
0.00000001
 43
0.00000001
 40
0.0
 40
0.0
 40
0.0
 40
0.0
 40
1.0
 40
1.0
 40
1.0
 40
1.0
 10
154.8093192064978
 20
27.33047992664944
 30
0.0
 10
154.6912610136611
 20
27.33047992664944
 30
0.0
 10
154.5763694633558
 20
27.33047992664943
 30
0.0
 10
154.4646557444538
 20
27.33047992664944
 30
0.0
  0
SPLINE
  5
3F6
330
1F
100
AcDbEntity
  8
0
  6
SLD-Сплошная
 62
     7
370
    25
100
AcDbSpline
210
0.0
220
0.0
230
1.0
 70
    24
 71
     3
 72
     8
 73
     4
 74
     0
 42
0.00000001
 43
0.00000001
 40
0.0
 40
0.0
 40
0.0
 40
0.0
 40
1.0
 40
1.0
 40
1.0
 40
1.0
 10
154.4646557444538
 20
47.33047992664942
 30
0.0
 10
154.5763694633558
 20
47.33047992664942
 30
0.0
 10
154.6912610136611
 20
47.3304799266494
 30
0.0
 10
154.8093192064978
 20
47.33047992664942
 30
0.0
  0
ARC
  5
3F7
330
1F
100
AcDbEntity
  8
0
  6
SLD-Сплошная
 62
     7
370
    25
100
AcDbCircle
 10
156.421297591
 20
67.9804799266
 30
0.0
 40
2.000000000000016
100
AcDbArc
 50
90.0
 51
168.0478578232
  0
ENDSEC
  0
SECTION
  2
OBJECTS
  0
DICTIONARY
  5
C
330
0
100
AcDbDictionary
281
     1
  3
ACAD_GROUP
350
D
  3
ACAD_LAYOUT
350
1A
  3
ACAD_MLINESTYLE
350
17
  3
ACAD_PLOTSETTINGS
350
19
  3
ACAD_PLOTSTYLENAME
350
E
  3
ACAD_SCALELIST
350
47
  3
DWGPROPS
350
3F8
  0
DICTIONARY
  5
D
102
{ACAD_REACTORS
330
C
102
}
330
C
100
AcDbDictionary
281
     1
  0
DICTIONARY
  5
1A
102
{ACAD_REACTORS
330
C
102
}
330
C
100
AcDbDictionary
281
     1
  3
Layout1
350
1E
  3
Layout2
350
26
  3
Model
350
22
  0
DICTIONARY
  5
17
102
{ACAD_REACTORS
330
C
102
}
330
C
100
AcDbDictionary
281
     1
  3
Standard
350
18
  0
DICTIONARY
  5
19
102
{ACAD_REACTORS
330
C
102
}
330
C
100
AcDbDictionary
281
     1
  0
ACDBDICTIONARYWDFLT
  5
E
102
{ACAD_REACTORS
330
C
102
}
330
C
100
AcDbDictionary
281
     1
  3
Normal
350
F
100
AcDbDictionaryWithDefault
340
F
  0
DICTIONARY
  5
47
102
{ACAD_REACTORS
330
C
102
}
330
C
100
AcDbDictionary
281
     1
  3
A0
350
48
  3
A1
350
49
  3
A2
350
4A
  3
A3
350
4B
  3
A4
350
4C
  3
A5
350
4D
  3
A6
350
4E
  3
A7
350
4F
  3
A8
350
50
  3
A9
350
51
  3
B0
350
52
  3
B1
350
53
  3
B2
350
54
  3
B3
350
55
  3
B4
350
56
  3
B5
350
57
  3
B6
350
58
  0
XRECORD
  5
3F8
102
{ACAD_REACTORS
330
C
102
}
330
C
100
AcDbXrecord
280
     1
  1
DWGPROPS COOKIE
  2

  3

  4

  6

  7

  8
inyankin
  9

300
=
301
=
302
=
303
=
304
=
305
=
306
=
307
=
308
=
309
=
 40
0.0
 41
2460936.340181644
 42
2460936.340182188
  1

 90
        0
  0
LAYOUT
  5
1E
102
{ACAD_REACTORS
330
1A
102
}
330
1A
100
AcDbPlotSettings
  1

  2
none_device
  4

  6

 40
0.0
 41
0.0
 42
0.0
 43
0.0
 44
0.0
 45
0.0
 46
0.0
 47
0.0
 48
0.0
 49
0.0
140
0.0
141
0.0
142
1.0
143
1.0
 70
   688
 72
     1
 73
     0
 74
     5
  7

 75
    16
147
1.0
148
0.0
149
0.0
100
AcDbLayout
  1
Layout1
 70
     1
 71
     1
 10
0.0
 20
0.0
 11
420.0
 21
297.0
 12
0.0
 22
0.0
 32
0.0
 14
1.0000000000E+20
 24
1.0000000000E+20
 34
1.0000000000E+20
 15
-1.0000000000E+20
 25
-1.0000000000E+20
 35
-1.0000000000E+20
146
0.0
 13
0.0
 23
0.0
 33
0.0
 16
1.0
 26
0.0
 36
0.0
 17
0.0
 27
1.0
 37
0.0
 76
     0
330
1B
  0
LAYOUT
  5
26
102
{ACAD_REACTORS
330
1A
102
}
330
1A
100
AcDbPlotSettings
  1

  2
none_device
  4

  6

 40
0.0
 41
0.0
 42
0.0
 43
0.0
 44
0.0
 45
0.0
 46
0.0
 47
0.0
 48
0.0
 49
0.0
140
0.0
141
0.0
142
1.0
143
1.0
 70
   688
 72
     1
 73
     0
 74
     5
  7

 75
    16
147
1.0
148
0.0
149
0.0
100
AcDbLayout
  1
Layout2
 70
     1
 71
     2
 10
0.0
 20
0.0
 11
0.0
 21
0.0
 12
0.0
 22
0.0
 32
0.0
 14
0.0
 24
0.0
 34
0.0
 15
0.0
 25
0.0
 35
0.0
146
0.0
 13
0.0
 23
0.0
 33
0.0
 16
1.0
 26
0.0
 36
0.0
 17
0.0
 27
1.0
 37
0.0
 76
     0
330
23
  0
LAYOUT
  5
22
102
{ACAD_REACTORS
330
1A
102
}
330
1A
100
AcDbPlotSettings
  1

  2
none_device
  4
Letter_(8.50_x_11.00_Inches)
  6

 40
6.35
 41
6.35
 42
6.35000508
 43
6.35000508
 44
215.9
 45
279.4
 46
0.0
 47
0.0
 48
0.0
 49
0.0
140
0.0
141
0.0
142
1.0
143
1.0
 70
  1712
 72
     1
 73
     0
 74
     0
  7

 75
     0
147
1.0
148
0.0
149
0.0
100
AcDbLayout
  1
Model
 70
     1
 71
     0
 10
0.0
 20
0.0
 11
431.8
 21
279.4
 12
0.0
 22
0.0
 32
0.0
 14
0.0
 24
0.0
 34
0.0
 15
431.8
 25
279.4
 35
0.0
146
0.0
 13
0.0
 23
0.0
 33
0.0
 16
1.0
 26
0.0
 36
0.0
 17
0.0
 27
1.0
 37
0.0
 76
     0
330
1F
331
29
  0
MLINESTYLE
  5
18
102
{ACAD_REACTORS
330
17
102
}
330
17
100
AcDbMlineStyle
  2
Standard
 70
     0
  3

 62
   256
 51
90.0
 52
90.0
 71
     2
 49
0.5
 62
   256
  6
BYLAYER
 49
-0.5
 62
   256
  6
BYLAYER
  0
ACDBPLACEHOLDER
  5
F
102
{ACAD_REACTORS
330
E
102
}
330
E
  0
SCALE
  5
48
102
{ACAD_REACTORS
330
47
102
}
330
47
100
AcDbScale
 70
     0
300
1:1
140
1.0
141
1.0
290
     1
  0
SCALE
  5
49
102
{ACAD_REACTORS
330
47
102
}
330
47
100
AcDbScale
 70
     0
300
1:2
140
1.0
141
2.0
290
     0
  0
SCALE
  5
4A
102
{ACAD_REACTORS
330
47
102
}
330
47
100
AcDbScale
 70
     0
300
1:4
140
1.0
141
4.0
290
     0
  0
SCALE
  5
4B
102
{ACAD_REACTORS
330
47
102
}
330
47
100
AcDbScale
 70
     0
300
1:5
140
1.0
141
5.0
290
     0
  0
SCALE
  5
4C
102
{ACAD_REACTORS
330
47
102
}
330
47
100
AcDbScale
 70
     0
300
1:8
140
1.0
141
8.0
290
     0
  0
SCALE
  5
4D
102
{ACAD_REACTORS
330
47
102
}
330
47
100
AcDbScale
 70
     0
300
1:10
140
1.0
141
10.0
290
     0
  0
SCALE
  5
4E
102
{ACAD_REACTORS
330
47
102
}
330
47
100
AcDbScale
 70
     0
300
1:16
140
1.0
141
16.0
290
     0
  0
SCALE
  5
4F
102
{ACAD_REACTORS
330
47
102
}
330
47
100
AcDbScale
 70
     0
300
1:20
140
1.0
141
20.0
290
     0
  0
SCALE
  5
50
102
{ACAD_REACTORS
330
47
102
}
330
47
100
AcDbScale
 70
     0
300
1:30
140
1.0
141
30.0
290
     0
  0
SCALE
  5
51
102
{ACAD_REACTORS
330
47
102
}
330
47
100
AcDbScale
 70
     0
300
1:40
140
1.0
141
40.0
290
     0
  0
SCALE
  5
52
102
{ACAD_REACTORS
330
47
102
}
330
47
100
AcDbScale
 70
     0
300
1:50
140
1.0
141
50.0
290
     0
  0
SCALE
  5
53
102
{ACAD_REACTORS
330
47
102
}
330
47
100
AcDbScale
 70
     0
300
1:100
140
1.0
141
100.0
290
     0
  0
SCALE
  5
54
102
{ACAD_REACTORS
330
47
102
}
330
47
100
AcDbScale
 70
     0
300
2:1
140
2.0
141
1.0
290
     0
  0
SCALE
  5
55
102
{ACAD_REACTORS
330
47
102
}
330
47
100
AcDbScale
 70
     0
300
4:1
140
4.0
141
1.0
290
     0
  0
SCALE
  5
56
102
{ACAD_REACTORS
330
47
102
}
330
47
100
AcDbScale
 70
     0
300
8:1
140
8.0
141
1.0
290
     0
  0
SCALE
  5
57
102
{ACAD_REACTORS
330
47
102
}
330
47
100
AcDbScale
 70
     0
300
10:1
140
10.0
141
1.0
290
     0
  0
SCALE
  5
58
102
{ACAD_REACTORS
330
47
102
}
330
47
100
AcDbScale
 70
     0
300
100:1
140
100.0
141
1.0
290
     0
  0
ENDSEC
  0
EOF
