  0
SECTION
  2
HEADER
  9
$ACADVER
  1
AC1015
  9
$ACADMAINTVER
 70
     6
  9
$DWGCODEPAGE
  3
ANSI_1251
  9
$INSBASE
 10
0.0
 20
0.0
 30
0.0
  9
$EXTMIN
 10
0.0
 20
0.0
 30
0.0
  9
$EXTMAX
 10
2000.0
 20
2000.0
 30
0.0
  9
$LIMMIN
 10
0.0
 20
0.0
  9
$LIMMAX
 10
2000.0
 20
2000.0
  9
$ORTHOMODE
 70
     0
  9
$REGENMODE
 70
     1
  9
$FILLMODE
 70
     1
  9
$QTEXTMODE
 70
     0
  9
$MIRRTEXT
 70
     1
  9
$LTSCALE
 40
1.0
  9
$ATTMODE
 70
     1
  9
$TEXTSIZE
 40
5.0
  9
$TRACEWID
 40
1.0
  9
$TEXTSTYLE
  7
Standard
  9
$CLAYER
  8
0
  9
$CELTYPE
  6
ByLayer
  9
$CECOLOR
 62
   256
  9
$CELTSCALE
 40
1.0
  9
$DISPSILH
 70
     0
  9
$DIMSCALE
 40
1.0
  9
$DIMASZ
 40
5.0
  9
$DIMEXO
 40
0.0
  9
$DIMDLI
 40
3.75
  9
$DIMRND
 40
0.0
  9
$DIMDLE
 40
0.0
  9
$DIMEXE
 40
1.0
  9
$DIMTP
 40
0.0
  9
$DIMTM
 40
0.0
  9
$DIMTXT
 40
3.5
  9
$DIMCEN
 40
2.5
  9
$DIMTSZ
 40
0.0
  9
$DIMTOL
 70
     0
  9
$DIMLIM
 70
     0
  9
$DIMTIH
 70
     1
  9
$DIMTOH
 70
     1
  9
$DIMSE1
 70
     0
  9
$DIMSE2
 70
     0
  9
$DIMTAD
 70
     1
  9
$DIMZIN
 70
     0
  9
$DIMBLK
  1

  9
$DIMASO
 70
     1
  9
$DIMSHO
 70
     1
  9
$DIMPOST
  1

  9
$DIMAPOST
  1

  9
$DIMALT
 70
     0
  9
$DIMALTD
 70
     3
  9
$DIMALTF
 40
0.0393700787
  9
$DIMLFAC
 40
1.0
  9
$DIMTOFL
 70
     1
  9
$DIMTVP
 40
0.0
  9
$DIMTIX
 70
     0
  9
$DIMSOXD
 70
     0
  9
$DIMSAH
 70
     0
  9
$DIMBLK1
  1

  9
$DIMBLK2
  1

  9
$DIMSTYLE
  2
ISO-25
  9
$DIMCLRD
 70
     0
  9
$DIMCLRE
 70
     0
  9
$DIMCLRT
 70
     0
  9
$DIMTFAC
 40
1.0
  9
$DIMGAP
 40
1.5
  9
$DIMJUST
 70
     0
  9
$DIMSD1
 70
     0
  9
$DIMSD2
 70
     0
  9
$DIMTOLJ
 70
     0
  9
$DIMTZIN
 70
     0
  9
$DIMALTZ
 70
     0
  9
$DIMALTTZ
 70
     0
  9
$DIMUPT
 70
     0
  9
$DIMDEC
 70
     1
  9
$DIMTDEC
 70
     1
  9
$DIMALTU
 70
     2
  9
$DIMALTTD
 70
     3
  9
$DIMTXSTY
  7
Standard
  9
$DIMAUNIT
 70
     0
  9
$DIMADEC
 70
     2
  9
$DIMALTRND
 40
0.0
  9
$DIMAZIN
 70
     0
  9
$DIMDSEP
 70
    44
  9
$DIMATFIT
 70
     3
  9
$DIMFRAC
 70
     0
  9
$DIMLDRBLK
  1

  9
$DIMLUNIT
 70
     2
  9
$DIMLWD
 70
    -2
  9
$DIMLWE
 70
    -2
  9
$DIMTMOVE
 70
     0
  9
$LUNITS
 70
     2
  9
$LUPREC
 70
     1
  9
$SKETCHINC
 40
1.0
  9
$FILLETRAD
 40
0.0
  9
$AUNITS
 70
     0
  9
$AUPREC
 70
     2
  9
$MENU
  1
.
  9
$ELEVATION
 40
0.0
  9
$PELEVATION
 40
0.0
  9
$THICKNESS
 40
0.0
  9
$LIMCHECK
 70
     0
  9
$CHAMFERA
 40
0.0
  9
$CHAMFERB
 40
0.0
  9
$CHAMFERC
 40
0.0
  9
$CHAMFERD
 40
0.0
  9
$SKPOLY
 70
     0
  9
$TDCREATE
 40
2460213.627519884
  9
$TDUCREATE
 40
2460213.502519884
  9
$TDUPDATE
 40
2460213.627520451
  9
$TDUUPDATE
 40
2460213.502520451
  9
$TDINDWG
 40
0.0000000116
  9
$TDUSRTIMER
 40
0.0000000116
  9
$USRTIMER
 70
     1
  9
$ANGBASE
 50
0.0
  9
$ANGDIR
 70
     0
  9
$PDMODE
 70
     0
  9
$PDSIZE
 40
-1.0
  9
$PLINEWID
 40
0.0
  9
$SPLFRAME
 70
     0
  9
$SPLINETYPE
 70
     6
  9
$SPLINESEGS
 70
     8
  9
$HANDSEED
  5
489
  9
$SURFTAB1
 70
     6
  9
$SURFTAB2
 70
     6
  9
$SURFTYPE
 70
     6
  9
$SURFU
 70
     6
  9
$SURFV
 70
     6
  9
$UCSBASE
  2

  9
$UCSNAME
  2

  9
$UCSORG
 10
0.0
 20
0.0
 30
0.0
  9
$UCSXDIR
 10
1.0
 20
0.0
 30
0.0
  9
$UCSYDIR
 10
0.0
 20
1.0
 30
0.0
  9
$UCSORTHOREF
  2

  9
$UCSORTHOVIEW
 70
     0
  9
$UCSORGTOP
 10
0.0
 20
0.0
 30
0.0
  9
$UCSORGBOTTOM
 10
0.0
 20
0.0
 30
0.0
  9
$UCSORGLEFT
 10
0.0
 20
0.0
 30
0.0
  9
$UCSORGRIGHT
 10
0.0
 20
0.0
 30
0.0
  9
$UCSORGFRONT
 10
0.0
 20
0.0
 30
0.0
  9
$UCSORGBACK
 10
0.0
 20
0.0
 30
0.0
  9
$PUCSBASE
  2

  9
$PUCSNAME
  2

  9
$PUCSORG
 10
0.0
 20
0.0
 30
0.0
  9
$PUCSXDIR
 10
1.0
 20
0.0
 30
0.0
  9
$PUCSYDIR
 10
0.0
 20
1.0
 30
0.0
  9
$PUCSORTHOREF
  2

  9
$PUCSORTHOVIEW
 70
     0
  9
$PUCSORGTOP
 10
0.0
 20
0.0
 30
0.0
  9
$PUCSORGBOTTOM
 10
0.0
 20
0.0
 30
0.0
  9
$PUCSORGLEFT
 10
0.0
 20
0.0
 30
0.0
  9
$PUCSORGRIGHT
 10
0.0
 20
0.0
 30
0.0
  9
$PUCSORGFRONT
 10
0.0
 20
0.0
 30
0.0
  9
$PUCSORGBACK
 10
0.0
 20
0.0
 30
0.0
  9
$USERI1
 70
     0
  9
$USERI2
 70
     0
  9
$USERI3
 70
     0
  9
$USERI4
 70
     0
  9
$USERI5
 70
     0
  9
$USERR1
 40
0.0
  9
$USERR2
 40
0.0
  9
$USERR3
 40
0.0
  9
$USERR4
 40
0.0
  9
$USERR5
 40
0.0
  9
$WORLDVIEW
 70
     1
  9
$SHADEDGE
 70
     3
  9
$SHADEDIF
 70
    70
  9
$TILEMODE
 70
     1
  9
$MAXACTVP
 70
    64
  9
$PINSBASE
 10
0.0
 20
0.0
 30
0.0
  9
$PLIMCHECK
 70
     0
  9
$PEXTMIN
 10
1.0000000000E+20
 20
1.0000000000E+20
 30
1.0000000000E+20
  9
$PEXTMAX
 10
-1.0000000000E+20
 20
-1.0000000000E+20
 30
-1.0000000000E+20
  9
$PLIMMIN
 10
0.0
 20
0.0
  9
$PLIMMAX
 10
420.0
 20
297.0
  9
$UNITMODE
 70
     0
  9
$VISRETAIN
 70
     1
  9
$PLINEGEN
 70
     0
  9
$PSLTSCALE
 70
     1
  9
$TREEDEPTH
 70
  3020
  9
$CMLSTYLE
  2
Standard
  9
$CMLJUST
 70
     0
  9
$CMLSCALE
 40
20.0
  9
$PROXYGRAPHICS
 70
     1
  9
$MEASUREMENT
 70
     1
  9
$CELWEIGHT
370
    -1
  9
$ENDCAPS
280
     0
  9
$JOINSTYLE
280
     0
  9
$LWDISPLAY
290
     1
  9
$INSUNITS
 70
     4
  9
$HYPERLINKBASE
  1

  9
$STYLESHEET
  1

  9
$XEDIT
290
     1
  9
$CEPSNTYPE
380
     0
  9
$PSTYLEMODE
290
     1
  9
$FINGERPRINTGUID
  2
{8496e755-abc0-4570-945a-b82314144b29}
  9
$VERSIONGUID
  2
{FAEB1C32-E019-11D5-929B-00C0DF256EC4}
  9
$EXTNAMES
290
     1
  9
$PSVPSCALE
 40
0.0
  9
$OLESTARTUP
290
     0
  0
ENDSEC
  0
SECTION
  2
CLASSES
  0
CLASS
  1
ACDBDICTIONARYWDFLT
  2
AcDbDictionaryWithDefault
  3
ObjectDBX Classes
 90
        0
280
     0
281
     0
  0
CLASS
  1
VISUALSTYLE
  2
AcDbVisualStyle
  3
ObjectDBX Classes
 90
     4095
280
     0
281
     0
  0
CLASS
  1
MATERIAL
  2
AcDbMaterial
  3
ObjectDBX Classes
 90
     1153
280
     0
281
     0
  0
CLASS
  1
SCALE
  2
AcDbScale
  3
ObjectDBX Classes
 90
     1153
280
     0
281
     0
  0
CLASS
  1
TABLESTYLE
  2
AcDbTableStyle
  3
ObjectDBX Classes
 90
     4095
280
     0
281
     0
  0
CLASS
  1
MLEADERSTYLE
  2
AcDbMLeaderStyle
  3
ACDB_MLEADERSTYLE_CLASS
 90
     4095
280
     0
281
     0
  0
CLASS
  1
SUN
  2
AcDbSun
  3
SCENEOE
 90
     1153
280
     0
281
     0
  0
CLASS
  1
ACDBPLACEHOLDER
  2
AcDbPlaceHolder
  3
ObjectDBX Classes
 90
        0
280
     0
281
     0
  0
CLASS
  1
LAYOUT
  2
AcDbLayout
  3
ObjectDBX Classes
 90
        0
280
     0
281
     0
  0
ENDSEC
  0
SECTION
  2
TABLES
  0
TABLE
  2
VPORT
  5
8
330
0
100
AcDbSymbolTable
 70
     1
  0
VPORT
  5
29
330
8
100
AcDbSymbolTableRecord
100
AcDbViewportTableRecord
  2
*Active
 70
     0
 10
0.0
 20
0.0
 11
1.0
 21
1.0
 12
1000.0
 22
1000.0
 13
0.0
 23
0.0
 14
10.0
 24
10.0
 15
10.0
 25
10.0
 16
0.0
 26
0.0
 36
1.0
 17
0.0
 27
0.0
 37
0.0
 40
2000.0
 41
1.0
 42
50.0
 43
0.0
 44
0.0
 50
0.0
 51
0.0
 71
     0
 72
  2000
 73
     1
 74
     3
 75
     0
 76
     0
 77
     0
 78
     0
281
     0
 65
     1
110
0.0
120
0.0
130
0.0
111
1.0
121
0.0
131
0.0
112
0.0
122
1.0
132
0.0
 79
     0
146
0.0
  0
ENDTAB
  0
TABLE
  2
LTYPE
  5
5
330
0
100
AcDbSymbolTable
 70
     8
  0
LTYPE
  5
14
330
5
100
AcDbSymbolTableRecord
100
AcDbLinetypeTableRecord
  2
ByBlock
 70
     0
  3

 72
    65
 73
     0
 40
0.0
  0
LTYPE
  5
15
330
5
100
AcDbSymbolTableRecord
100
AcDbLinetypeTableRecord
  2
ByLayer
 70
     0
  3

 72
    65
 73
     0
 40
0.0
  0
LTYPE
  5
16
330
5
100
AcDbSymbolTableRecord
100
AcDbLinetypeTableRecord
  2
Continuous
 70
     0
  3
Solid line
 72
    65
 73
     0
 40
0.0
  0
LTYPE
  5
5E
330
5
100
AcDbSymbolTableRecord
100
AcDbLinetypeTableRecord
  2
SLD-Сплошная
 70
     0
  3
SolidWorks Line Style
 72
    65
 73
     0
 40
0.0
  0
LTYPE
  5
5F
330
5
100
AcDbSymbolTableRecord
100
AcDbLinetypeTableRecord
  2
SLD-Штриховая
 70
     0
  3
SolidWorks Line Style
 72
    65
 73
     2
 40
1.905
 49
1.27
 74
     0
 49
-0.635
 74
     0
  0
LTYPE
  5
60
330
5
100
AcDbSymbolTableRecord
100
AcDbLinetypeTableRecord
  2
SLD-Штрихпункт.-с-двумя-точками
 70
     0
  3
SolidWorks Line Style
 72
    65
 73
     6
 40
12.7
 49
6.35
 74
     0
 49
-1.27
 74
     0
 49
1.27
 74
     0
 49
-1.27
 74
     0
 49
1.27
 74
     0
 49
-1.27
 74
     0
  0
LTYPE
  5
61
330
5
100
AcDbSymbolTableRecord
100
AcDbLinetypeTableRecord
  2
SLD-Штрихпункт.-утолщ.
 70
     0
  3
SolidWorks Line Style
 72
    65
 73
     4
 40
10.16
 49
6.35
 74
     0
 49
-1.27
 74
     0
 49
1.27
 74
     0
 49
-1.27
 74
     0
  0
LTYPE
  5
62
330
5
100
AcDbSymbolTableRecord
100
AcDbLinetypeTableRecord
  2
SLD-Осевая
 70
     0
  3
SolidWorks Line Style
 72
    65
 73
     4
 40
19.05
 49
15.24
 74
     0
 49
-1.27
 74
     0
 49
1.27
 74
     0
 49
-1.27
 74
     0
  0
LTYPE
  5
63
330
5
100
AcDbSymbolTableRecord
100
AcDbLinetypeTableRecord
  2
SLD-Сшитая
 70
     0
  3
SolidWorks Line Style
 72
    65
 73
     2
 40
0.635
 49
0.0
 74
     0
 49
-0.635
 74
     0
  0
LTYPE
  5
64
330
5
100
AcDbSymbolTableRecord
100
AcDbLinetypeTableRecord
  2
SLD-Тонкая-Толстая
 70
     0
  3
SolidWorks Line Style
 72
    65
 73
     2
 40
5.080508
 49
0.000508
 74
     0
 49
-5.08
 74
     0
  0
ENDTAB
  0
TABLE
  2
LAYER
  5
2
330
0
100
AcDbSymbolTable
 70
     3
  0
LAYER
  5
10
330
2
100
AcDbSymbolTableRecord
100
AcDbLayerTableRecord
  2
0
 70
     0
 62
     7
  6
Continuous
370
    -3
390
F
  0
LAYER
  5
65
330
2
100
AcDbSymbolTableRecord
100
AcDbLayerTableRecord
  2
1
 70
     0
 62
     7
  6
SLD-Сплошная
370
    -1
390
F
  0
LAYER
  5
66
330
2
100
AcDbSymbolTableRecord
100
AcDbLayerTableRecord
  2
2
 70
     0
 62
     7
  6
SLD-Сплошная
370
    -3
390
F
  0
ENDTAB
  0
TABLE
  2
STYLE
  5
3
330
0
100
AcDbSymbolTable
 70
     1
  0
STYLE
  5
11
330
3
100
AcDbSymbolTableRecord
100
AcDbTextStyleTableRecord
  2
Standard
 70
     0
 40
0.0
 41
1.0
 50
0.0
 71
     0
 42
5.0
  3
txt
  4

  0
ENDTAB
  0
TABLE
  2
VIEW
  5
6
330
0
100
AcDbSymbolTable
 70
     0
  0
ENDTAB
  0
TABLE
  2
UCS
  5
7
330
0
100
AcDbSymbolTable
 70
     0
  0
ENDTAB
  0
TABLE
  2
APPID
  5
9
330
0
100
AcDbSymbolTable
 70
     1
  0
APPID
  5
12
330
9
100
AcDbSymbolTableRecord
100
AcDbRegAppTableRecord
  2
ACAD
 70
     0
  0
ENDTAB
  0
TABLE
  2
DIMSTYLE
  5
A
330
0
100
AcDbSymbolTable
 70
     1
100
AcDbDimStyleTable
  0
DIMSTYLE
105
27
330
A
100
AcDbSymbolTableRecord
100
AcDbDimStyleTableRecord
  2
ISO-25
 70
     0
 41
2.5
 42
0.625
 43
3.75
 44
1.25
 73
     0
 74
     0
 77
     1
 78
     8
140
2.5
141
2.5
143
0.0393700787
147
0.625
171
     3
172
     1
178
     0
271
     2
272
     2
274
     3
278
    44
283
     0
284
     8
340
11
  0
ENDTAB
  0
TABLE
  2
BLOCK_RECORD
  5
1
330
0
100
AcDbSymbolTable
 70
     1
  0
BLOCK_RECORD
  5
1F
330
1
100
AcDbSymbolTableRecord
100
AcDbBlockTableRecord
  2
*Model_Space
340
22
  0
BLOCK_RECORD
  5
1B
330
1
100
AcDbSymbolTableRecord
100
AcDbBlockTableRecord
  2
*Paper_Space
340
1E
  0
BLOCK_RECORD
  5
23
330
1
100
AcDbSymbolTableRecord
100
AcDbBlockTableRecord
  2
*Paper_Space0
340
26
  0
ENDTAB
  0
ENDSEC
  0
SECTION
  2
BLOCKS
  0
BLOCK
  5
20
330
1F
100
AcDbEntity
  8
0
100
AcDbBlockBegin
  2
*Model_Space
 70
     0
 10
0.0
 20
0.0
 30
0.0
  3
*Model_Space
  1

  0
ENDBLK
  5
21
330
1F
100
AcDbEntity
  8
0
100
AcDbBlockEnd
  0
BLOCK
  5
1C
330
1B
100
AcDbEntity
 67
     1
  8
0
100
AcDbBlockBegin
  2
*Paper_Space
 70
     0
 10
0.0
 20
0.0
 30
0.0
  3
*Paper_Space
  1

  0
ENDBLK
  5
1D
330
1B
100
AcDbEntity
 67
     1
  8
0
100
AcDbBlockEnd
  0
BLOCK
  5
24
330
23
100
AcDbEntity
  8
0
100
AcDbBlockBegin
  2
*Paper_Space0
 70
     0
 10
0.0
 20
0.0
 30
0.0
  3
*Paper_Space0
  1

  0
ENDBLK
  5
25
330
23
100
AcDbEntity
  8
0
100
AcDbBlockEnd
  0
ENDSEC
  0
SECTION
  2
ENTITIES
  0
ARC
  5
67
330
1F
100
AcDbEntity
  8
1
  6
SLD-Сплошная
100
AcDbCircle
 10
919.6054271659
 20
417.0234668679
 30
0.0
 40
1.000000000000114
100
AcDbArc
 50
180.0
 51
257.5813184942
  0
ARC
  5
68
330
1F
100
AcDbEntity
  8
1
  6
SLD-Сплошная
100
AcDbCircle
 10
934.2054271659
 20
417.0234668679
 30
0.0
 40
1.000000000000087
100
AcDbArc
 50
282.4186815058
 51
0.0
  0
LINE
  5
69
330
1F
100
AcDbEntity
  8
1
  6
SLD-Сплошная
100
AcDbLine
 10
918.6054271659
 20
418.2292289255
 30
0.0
 11
918.6054271659
 21
417.0234668679
 31
0.0
  0
LINE
  5
6A
330
1F
100
AcDbEntity
  8
1
  6
SLD-Сплошная
100
AcDbLine
 10
935.2054271659
 20
417.0234668679
 30
0.0
 11
935.2054271659
 21
418.2292289255
 31
0.0
  0
ARC
  5
6B
330
1F
100
AcDbEntity
  8
1
  6
SLD-Сплошная
100
AcDbCircle
 10
926.9054271659
 20
450.1742289255
 30
0.0
 40
34.94499999999999
100
AcDbArc
 50
270.0104111827
 51
282.4186815058
  0
ARC
  5
6C
330
1F
100
AcDbEntity
  8
1
  6
SLD-Сплошная
100
AcDbCircle
 10
926.9054271659
 20
450.1742289255
 30
0.0
 40
34.94500000000001
100
AcDbArc
 50
257.5813184942
 51
270.0104111827
  0
LINE
  5
6D
330
1F
100
AcDbEntity
  8
1
  6
SLD-Сплошная
100
AcDbLine
 10
899.3971010539
 20
417.7292289255
 30
0.0
 11
888.9054271659
 21
417.7292289255
 31
0.0
  0
ARC
  5
6E
330
1F
100
AcDbEntity
  8
1
  6
SLD-Сплошная
100
AcDbCircle
 10
899.3971010539
 20
420.1292289255
 30
0.0
 40
2.400000000000019
100
AcDbArc
 50
270.0
 51
307.6584620064
  0
LINE
  5
6F
330
1F
100
AcDbEntity
  8
1
  6
SLD-Сплошная
100
AcDbLine
 10
888.9054271659
 20
417.7292289255
 30
0.0
 11
694.9054271659
 21
417.7292289255
 31
0.0
  0
LINE
  5
70
330
1F
100
AcDbEntity
  8
1
  6
SLD-Сплошная
100
AcDbLine
 10
694.9054271659
 20
417.7292289255
 30
0.0
 11
684.413753278
 21
417.7292289255
 31
0.0
  0
ARC
  5
71
330
1F
100
AcDbEntity
  8
1
  6
SLD-Сплошная
100
AcDbCircle
 10
684.413753278
 20
420.1292289255
 30
0.0
 40
2.39999999999995
100
AcDbArc
 50
232.3415379936
 51
270.0
  0
LINE
  5
72
330
1F
100
AcDbEntity
  8
1
  6
SLD-Сплошная
100
AcDbLine
 10
939.9054271659
 20
420.2999396036
 30
0.0
 11
939.105427166
 21
421.0999396036
 31
0.0
  0
LINE
  5
73
330
1F
100
AcDbEntity
  8
1
  6
SLD-Сплошная
100
AcDbLine
 10
939.9054271659
 20
916.1585182474
 30
0.0
 11
939.1054271659
 21
915.3585182474
 31
0.0
  0
LINE
  5
74
330
1F
100
AcDbEntity
  8
1
  6
SLD-Сплошная
100
AcDbLine
 10
644.6175592004
 20
421.012071638
 30
0.0
 11
643.9054271659
 21
420.2999396036
 31
0.0
  0
LINE
  5
75
330
1F
100
AcDbEntity
  8
1
  6
SLD-Сплошная
100
AcDbLine
 10
644.6175592004
 20
915.446386213
 30
0.0
 11
643.9054271659
 21
916.1585182474
 31
0.0
  0
LINE
  5
76
330
1F
100
AcDbEntity
  8
1
  6
SLD-Сплошная
100
AcDbLine
 10
643.976137844
 20
916.2292289255
 30
0.0
 11
644.7589805565
 21
915.446386213
 31
0.0
  0
LINE
  5
77
330
1F
100
AcDbEntity
  8
1
  6
SLD-Сплошная
100
AcDbLine
 10
939.0518737754
 20
915.446386213
 30
0.0
 11
939.8347164879
 21
916.2292289255
 31
0.0
  0
LINE
  5
78
330
1F
100
AcDbEntity
  8
1
  6
SLD-Сплошная
100
AcDbLine
 10
643.976137844
 20
420.2292289255
 30
0.0
 11
644.7589805565
 21
421.012071638
 31
0.0
  0
LINE
  5
79
330
1F
100
AcDbEntity
  8
1
  6
SLD-Сплошная
100
AcDbLine
 10
939.0518737753
 20
421.012071638
 30
0.0
 11
939.8347164879
 21
420.2292289255
 31
0.0
  0
ELLIPSE
  5
7A
330
1F
100
AcDbEntity
  8
1
  6
SLD-Сплошная
100
AcDbEllipse
 10
939.905427166
 20
420.2292289255
 30
0.0
 11
0.0
 21
2.0
 31
0.0
210
0.0
220
0.0
230
1.0
 40
0.035355339
 41
1.570796326794897
 42
3.141592653538341
  0
LINE
  5
7B
330
1F
100
AcDbEntity
  8
1
  6
SLD-Сплошная
100
AcDbLine
 10
645.0054271659
 20
418.2292289255
 30
0.0
 11
939.9054271659
 21
418.2292289255
 31
0.0
  0
LINE
  5
7C
330
1F
100
AcDbEntity
  8
1
  6
SLD-Сплошная
100
AcDbLine
 10
643.9054271659
 20
418.2292289255
 30
0.0
 11
645.0054271659
 21
418.2292289255
 31
0.0
  0
ELLIPSE
  5
7D
330
1F
100
AcDbEntity
  8
1
  6
SLD-Сплошная
100
AcDbEllipse
 10
643.905427166
 20
420.2292289255
 30
0.0
 11
0.0
 21
2.0
 31
0.0
210
0.0
220
0.0
230
1.0
 40
0.035355339
 41
3.14159265351744
 42
4.712388980384604
  0
ELLIPSE
  5
7E
330
1F
100
AcDbEntity
  8
1
  6
SLD-Сплошная
100
AcDbEllipse
 10
643.9054271659
 20
420.2292289255
 30
0.0
 11
2.0
 21
5.684341886080801E-14
 31
0.0
210
0.0
220
0.0
230
1.0
 40
0.035355339
 41
1.570796326794953
 42
3.14159265364164
  0
ELLIPSE
  5
7F
330
1F
100
AcDbEntity
  8
1
  6
SLD-Сплошная
100
AcDbEllipse
 10
643.9054271659
 20
420.2292289255
 30
0.0
 11
1.0
 21
0.0
 31
0.0
210
0.0
220
0.0
230
1.0
 40
0.0707106781
 41
1.570796326794897
 42
3.141592653641441
  0
LINE
  5
80
330
1F
100
AcDbEntity
  8
1
  6
SLD-Сплошная
100
AcDbLine
 10
642.9054271659
 20
420.2292289255
 30
0.0
 11
641.9054271659
 21
420.2292289255
 31
0.0
  0
ELLIPSE
  5
81
330
1F
100
AcDbEntity
  8
1
  6
SLD-Сплошная
100
AcDbEllipse
 10
643.9054271659
 20
916.2292289255
 30
0.0
 11
1.0
 21
0.0
 31
0.0
210
0.0
220
0.0
230
1.0
 40
0.0707106781
 41
3.14159265353995
 42
4.712388980384691
  0
ELLIPSE
  5
82
330
1F
100
AcDbEntity
  8
1
  6
SLD-Сплошная
100
AcDbEllipse
 10
643.9054271659
 20
916.2292289255
 30
0.0
 11
2.0
 21
-1.136868377216160E-13
 31
0.0
210
0.0
220
0.0
230
1.0
 40
0.035355339
 41
3.141592653541557
 42
4.712388980384635
  0
LINE
  5
83
330
1F
100
AcDbEntity
  8
1
  6
SLD-Сплошная
100
AcDbLine
 10
642.9054271659
 20
916.2292289255
 30
0.0
 11
641.9054271659
 21
916.2292289255
 31
0.0
  0
LINE
  5
84
330
1F
100
AcDbEntity
  8
1
  6
SLD-Сплошная
100
AcDbLine
 10
941.9054271659
 20
916.2292289255
 30
0.0
 11
941.9054271659
 21
420.2292289255
 31
0.0
  0
ELLIPSE
  5
85
330
1F
100
AcDbEntity
  8
1
  6
SLD-Сплошная
100
AcDbEllipse
 10
939.9054271659
 20
420.2292289255
 30
0.0
 11
2.0
 21
0.0
 31
0.0
210
0.0
220
0.0
230
1.0
 40
0.035355339
 41
0.0
 42
1.57079632679484
  0
ELLIPSE
  5
86
330
1F
100
AcDbEntity
  8
1
  6
SLD-Сплошная
100
AcDbEllipse
 10
939.9054271659
 20
916.2292289255
 30
0.0
 11
2.0
 21
0.0
 31
0.0
210
0.0
220
0.0
230
1.0
 40
0.035355339
 41
4.712388980384747
 42
6.283185307179586
  0
ELLIPSE
  5
87
330
1F
100
AcDbEntity
  8
1
  6
SLD-Сплошная
100
AcDbEllipse
 10
939.905427166
 20
420.2292289255
 30
0.0
 11
0.0
 21
1.0
 31
0.0
210
0.0
220
0.0
230
1.0
 40
0.0707106781
 41
1.570796326794897
 42
3.141592653538343
  0
LINE
  5
88
330
1F
100
AcDbEntity
  8
1
  6
SLD-Сплошная
100
AcDbLine
 10
939.9054271659
 20
419.2292289255
 30
0.0
 11
939.9054271659
 21
418.2292289255
 31
0.0
  0
LINE
  5
89
330
1F
100
AcDbEntity
  8
1
  6
SLD-Сплошная
100
AcDbLine
 10
643.9054271659
 20
918.2292289255
 30
0.0
 11
939.9054271659
 21
918.2292289255
 31
0.0
  0
ELLIPSE
  5
8A
330
1F
100
AcDbEntity
  8
1
  6
SLD-Сплошная
100
AcDbEllipse
 10
939.905427166
 20
916.2292289255
 30
0.0
 11
0.0
 21
2.0
 31
0.0
210
0.0
220
0.0
230
1.0
 40
0.035355339
 41
0.0
 42
1.57079632679484
  0
ELLIPSE
  5
8B
330
1F
100
AcDbEntity
  8
1
  6
SLD-Сплошная
100
AcDbEllipse
 10
643.905427166
 20
916.2292289255
 30
0.0
 11
0.0
 21
2.0
 31
0.0
210
0.0
220
0.0
230
1.0
 40
0.035355339
 41
4.712388980384803
 42
6.283185307179586
  0
LINE
  5
8C
330
1F
100
AcDbEntity
  8
1
  6
SLD-Сплошная
100
AcDbLine
 10
941.9054271659
 20
420.2292289255
 30
0.0
 11
940.9054271659
 21
420.2292289255
 31
0.0
  0
ELLIPSE
  5
8D
330
1F
100
AcDbEntity
  8
1
  6
SLD-Сплошная
100
AcDbEllipse
 10
939.9054271659
 20
420.2292289255
 30
0.0
 11
1.0
 21
0.0
 31
0.0
210
0.0
220
0.0
230
1.0
 40
0.0707106781
 41
0.0
 42
1.570796326794783
  0
LINE
  5
8E
330
1F
100
AcDbEntity
  8
1
  6
SLD-Сплошная
100
AcDbLine
 10
643.9054271659
 20
418.2292289255
 30
0.0
 11
643.9054271659
 21
418.5588996167
 31
0.0
  0
LINE
  5
8F
330
1F
100
AcDbEntity
  8
1
  6
SLD-Сплошная
100
AcDbLine
 10
643.9054271659
 20
418.5588996167
 30
0.0
 11
643.9054271659
 21
419.2292289255
 31
0.0
  0
ELLIPSE
  5
90
330
1F
100
AcDbEntity
  8
1
  6
SLD-Сплошная
100
AcDbEllipse
 10
643.905427166
 20
420.2292289255
 30
0.0
 11
0.0
 21
1.0
 31
0.0
210
0.0
220
0.0
230
1.0
 40
0.070710678
 41
3.141592653517442
 42
4.712388980384634
  0
LINE
  5
91
330
1F
100
AcDbEntity
  8
1
  6
SLD-Сплошная
100
AcDbLine
 10
641.9054271659
 20
420.2292289255
 30
0.0
 11
641.9054271659
 21
916.2292289255
 31
0.0
  0
ELLIPSE
  5
92
330
1F
100
AcDbEntity
  8
1
  6
SLD-Сплошная
100
AcDbEllipse
 10
939.905427166
 20
916.2292289255
 30
0.0
 11
0.0
 21
1.0
 31
0.0
210
0.0
220
0.0
230
1.0
 40
0.0707106781
 41
0.0
 42
1.570796326794897
  0
LINE
  5
93
330
1F
100
AcDbEntity
  8
1
  6
SLD-Сплошная
100
AcDbLine
 10
939.9054271659
 20
917.2292289255
 30
0.0
 11
939.9054271659
 21
918.2292289255
 31
0.0
  0
ELLIPSE
  5
94
330
1F
100
AcDbEntity
  8
1
  6
SLD-Сплошная
100
AcDbEllipse
 10
939.9054271659
 20
916.2292289255
 30
0.0
 11
1.0
 21
0.0
 31
0.0
210
0.0
220
0.0
230
1.0
 40
0.0707106781
 41
4.712388980384804
 42
6.283185307179586
  0
LINE
  5
95
330
1F
100
AcDbEntity
  8
1
  6
SLD-Сплошная
100
AcDbLine
 10
941.9054271659
 20
916.2292289255
 30
0.0
 11
940.9054271659
 21
916.2292289255
 31
0.0
  0
ELLIPSE
  5
96
330
1F
100
AcDbEntity
  8
1
  6
SLD-Сплошная
100
AcDbEllipse
 10
643.905427166
 20
916.2292289255
 30
0.0
 11
0.0
 21
1.0
 31
0.0
210
0.0
220
0.0
230
1.0
 40
0.070710678
 41
4.712388980384691
 42
6.283185307179586
  0
LINE
  5
97
330
1F
100
AcDbEntity
  8
1
  6
SLD-Сплошная
100
AcDbLine
 10
643.9054271659
 20
918.2292289255
 30
0.0
 11
643.9054271659
 21
917.2292289255
 31
0.0
  0
LINE
  5
98
330
1F
100
AcDbEntity
  8
1
  6
SLD-Сплошная
100
AcDbLine
 10
644.0054271659
 20
420.2585182475
 30
0.0
 11
644.0054271659
 21
420.3999396036
 31
0.0
  0
LINE
  5
99
330
1F
100
AcDbEntity
  8
1
  6
SLD-Сплошная
100
AcDbLine
 10
643.0054271659
 20
420.2292289255
 30
0.0
 11
643.0054271659
 21
420.2600509955
 31
0.0
  0
ARC
  5
9A
330
1F
100
AcDbEntity
  8
1
  6
SLD-Сплошная
100
AcDbCircle
 10
645.0054271659
 20
420.2292289255
 30
0.0
 40
2.0
100
AcDbArc
 50
180.0
 51
236.6329870308
  0
ARC
  5
9B
330
1F
100
AcDbEntity
  8
1
  6
SLD-Сплошная
100
AcDbCircle
 10
643.9054271659
 20
916.2292289255
 30
0.0
 40
1.000000000004093
100
AcDbArc
 50
90.0
 51
180.0
  0
ARC
  5
9C
330
1F
100
AcDbEntity
  8
1
  6
SLD-Сплошная
100
AcDbCircle
 10
643.9054271659
 20
916.2292289255
 30
0.0
 40
2.000000000004093
100
AcDbArc
 50
90.0
 51
180.0
  0
ARC
  5
9D
330
1F
100
AcDbEntity
  8
1
  6
SLD-Сплошная
100
AcDbCircle
 10
939.9054271659
 20
420.2292289255
 30
0.0
 40
2.0
100
AcDbArc
 50
270.0
 51
0.0
  0
ARC
  5
9E
330
1F
100
AcDbEntity
  8
1
  6
SLD-Сплошная
100
AcDbCircle
 10
939.9054271659
 20
420.2292289255
 30
0.0
 40
1.0
100
AcDbArc
 50
270.0
 51
0.0
  0
ARC
  5
9F
330
1F
100
AcDbEntity
  8
1
  6
SLD-Сплошная
100
AcDbCircle
 10
939.9054271659
 20
916.2292289255
 30
0.0
 40
1.0
100
AcDbArc
 50
0.0
 51
90.0
  0
ARC
  5
A0
330
1F
100
AcDbEntity
  8
1
  6
SLD-Сплошная
100
AcDbCircle
 10
939.9054271659
 20
916.2292289255
 30
0.0
 40
2.0
100
AcDbArc
 50
0.0
 51
90.0
  0
LINE
  5
A1
330
1F
100
AcDbEntity
  8
1
  6
SLD-Сплошная
100
AcDbLine
 10
940.9054271659
 20
420.2292289255
 30
0.0
 11
939.976137844
 21
420.2292289255
 31
0.0
  0
LINE
  5
A2
330
1F
100
AcDbEntity
  8
1
  6
SLD-Сплошная
100
AcDbLine
 10
940.9054271659
 20
916.2292289255
 30
0.0
 11
939.976137844
 21
916.2292289255
 31
0.0
  0
LINE
  5
A3
330
1F
100
AcDbEntity
  8
1
  6
SLD-Сплошная
100
AcDbLine
 10
643.0054271659
 20
420.2292289255
 30
0.0
 11
642.9054271659
 21
420.2292289255
 31
0.0
  0
LINE
  5
A4
330
1F
100
AcDbEntity
  8
1
  6
SLD-Сплошная
100
AcDbLine
 10
643.8347164879
 20
916.2292289255
 30
0.0
 11
642.9054271659
 21
916.2292289255
 31
0.0
  0
LINE
  5
A5
330
1F
100
AcDbEntity
  8
1
  6
SLD-Сплошная
100
AcDbLine
 10
939.9054271659
 20
420.1585182475
 30
0.0
 11
939.9054271659
 21
419.2292289255
 31
0.0
  0
LINE
  5
A6
330
1F
100
AcDbEntity
  8
1
  6
SLD-Сплошная
100
AcDbLine
 10
643.9054271659
 20
917.2292289255
 30
0.0
 11
643.9054271659
 21
916.2999396036
 31
0.0
  0
LINE
  5
A7
330
1F
100
AcDbEntity
  8
1
  6
SLD-Сплошная
100
AcDbLine
 10
939.9054271659
 20
916.2999396035
 30
0.0
 11
939.9054271659
 21
917.2292289255
 31
0.0
  0
LINE
  5
A8
330
1F
100
AcDbEntity
  8
1
  6
SLD-Сплошная
100
AcDbLine
 10
646.8054271659
 20
914.0292289255
 30
0.0
 11
645.3882698784
 21
916.7292289255
 31
0.0
  0
LINE
  5
A9
330
1F
100
AcDbEntity
  8
1
  6
SLD-Сплошная
100
AcDbLine
 10
645.3882698784
 20
916.7292289255
 30
0.0
 11
937.8225844534
 21
916.7292289255
 31
0.0
  0
LINE
  5
AA
330
1F
100
AcDbEntity
  8
1
  6
SLD-Сплошная
100
AcDbLine
 10
936.4054271659
 20
914.0292289256
 30
0.0
 11
937.8225844534
 21
916.7292289255
 31
0.0
  0
LINE
  5
AB
330
1F
100
AcDbEntity
  8
1
  6
SLD-Сплошная
100
AcDbLine
 10
644.1054271659
 20
915.446386213
 30
0.0
 11
646.8054271659
 21
914.0292289255
 31
0.0
  0
LINE
  5
AC
330
1F
100
AcDbEntity
  8
1
  6
SLD-Сплошная
100
AcDbLine
 10
644.1054271659
 20
421.012071638
 30
0.0
 11
646.8054271659
 21
422.4292289255
 31
0.0
  0
LINE
  5
AD
330
1F
100
AcDbEntity
  8
1
  6
SLD-Сплошная
100
AcDbLine
 10
644.1054271659
 20
915.446386213
 30
0.0
 11
644.1054271659
 21
421.012071638
 31
0.0
  0
CIRCLE
  5
AE
330
1F
100
AcDbEntity
  8
1
  6
SLD-Сплошная
100
AcDbCircle
 10
879.105427166
 20
459.7292289255
 30
0.0
 40
0.5
  0
CIRCLE
  5
AF
330
1F
100
AcDbEntity
  8
1
  6
SLD-Сплошная
100
AcDbCircle
 10
879.1054271659
 20
876.7292289255
 30
0.0
 40
0.4999999999998863
  0
CIRCLE
  5
B0
330
1F
100
AcDbEntity
  8
1
  6
SLD-Сплошная
100
AcDbCircle
 10
699.1054271659
 20
856.7292289255
 30
0.0
 40
0.5
  0
CIRCLE
  5
B1
330
1F
100
AcDbEntity
  8
1
  6
SLD-Сплошная
100
AcDbCircle
 10
699.1054271659
 20
479.7292289255
 30
0.0
 40
0.5
  0
LINE
  5
B2
330
1F
100
AcDbEntity
  8
1
  6
SLD-Сплошная
100
AcDbLine
 10
644.1054271659
 20
915.446386213
 30
0.0
 11
645.1054271659
 21
915.446386213
 31
0.0
  0
LINE
  5
B3
330
1F
100
AcDbEntity
  8
1
  6
SLD-Сплошная
100
AcDbLine
 10
645.1054271659
 20
915.446386213
 30
0.0
 11
646.8054271659
 21
914.0292289255
 31
0.0
  0
LINE
  5
B4
330
1F
100
AcDbEntity
  8
1
  6
SLD-Сплошная
100
AcDbLine
 10
646.8054271659
 20
914.0292289255
 30
0.0
 11
645.3882698784
 21
915.7292289255
 31
0.0
  0
LINE
  5
B5
330
1F
100
AcDbEntity
  8
1
  6
SLD-Сплошная
100
AcDbLine
 10
645.3882698784
 20
916.7292289255
 30
0.0
 11
645.3882698784
 21
915.7292289255
 31
0.0
  0
LINE
  5
B6
330
1F
100
AcDbEntity
  8
1
  6
SLD-Сплошная
100
AcDbLine
 10
645.3882698785
 20
419.7292289255
 30
0.0
 11
937.8225844534
 21
419.7292289255
 31
0.0
  0
LINE
  5
B7
330
1F
100
AcDbEntity
  8
1
  6
SLD-Сплошная
100
AcDbLine
 10
646.8054271659
 20
422.4292289255
 30
0.0
 11
645.3882698785
 21
419.7292289255
 31
0.0
  0
LINE
  5
B8
330
1F
100
AcDbEntity
  8
1
  6
SLD-Сплошная
100
AcDbLine
 10
936.405427166
 20
422.4292289255
 30
0.0
 11
937.8225844534
 21
419.7292289255
 31
0.0
  0
LINE
  5
B9
330
1F
100
AcDbEntity
  8
1
  6
SLD-Сплошная
100
AcDbLine
 10
645.1054271659
 20
421.012071638
 30
0.0
 11
646.8054271659
 21
422.4292289255
 31
0.0
  0
LINE
  5
BA
330
1F
100
AcDbEntity
  8
1
  6
SLD-Сплошная
100
AcDbLine
 10
644.1054271659
 20
421.012071638
 30
0.0
 11
645.1054271659
 21
421.012071638
 31
0.0
  0
LINE
  5
BB
330
1F
100
AcDbEntity
  8
1
  6
SLD-Сплошная
100
AcDbLine
 10
646.805427166
 20
422.4292289255
 30
0.0
 11
645.3882698785
 21
420.7292289255
 31
0.0
  0
LINE
  5
BC
330
1F
100
AcDbEntity
  8
1
  6
SLD-Сплошная
100
AcDbLine
 10
645.3882698785
 20
419.7292289255
 30
0.0
 11
645.3882698785
 21
420.7292289255
 31
0.0
  0
LINE
  5
BD
330
1F
100
AcDbEntity
  8
1
  6
SLD-Сплошная
100
AcDbLine
 10
938.1054271659
 20
915.446386213
 30
0.0
 11
936.4054271659
 21
914.0292289255
 31
0.0
  0
LINE
  5
BE
330
1F
100
AcDbEntity
  8
1
  6
SLD-Сплошная
100
AcDbLine
 10
939.1054271659
 20
915.446386213
 30
0.0
 11
938.1054271659
 21
915.446386213
 31
0.0
  0
LINE
  5
BF
330
1F
100
AcDbEntity
  8
1
  6
SLD-Сплошная
100
AcDbLine
 10
939.1054271659
 20
915.446386213
 30
0.0
 11
936.4054271659
 21
914.0292289255
 31
0.0
  0
LINE
  5
C0
330
1F
100
AcDbEntity
  8
1
  6
SLD-Сплошная
100
AcDbLine
 10
939.1054271659
 20
915.446386213
 30
0.0
 11
939.105427166
 21
421.012071638
 31
0.0
  0
LINE
  5
C1
330
1F
100
AcDbEntity
  8
1
  6
SLD-Сплошная
100
AcDbLine
 10
939.105427166
 20
421.012071638
 30
0.0
 11
936.405427166
 21
422.4292289255
 31
0.0
  0
LINE
  5
C2
330
1F
100
AcDbEntity
  8
1
  6
SLD-Сплошная
100
AcDbLine
 10
936.4054271659
 20
914.0292289255
 30
0.0
 11
937.8225844534
 21
915.7292289255
 31
0.0
  0
LINE
  5
C3
330
1F
100
AcDbEntity
  8
1
  6
SLD-Сплошная
100
AcDbLine
 10
937.8225844534
 20
916.7292289255
 30
0.0
 11
937.8225844534
 21
915.7292289255
 31
0.0
  0
LINE
  5
C4
330
1F
100
AcDbEntity
  8
1
  6
SLD-Сплошная
100
AcDbLine
 10
939.105427166
 20
421.012071638
 30
0.0
 11
938.105427166
 21
421.012071638
 31
0.0
  0
LINE
  5
C5
330
1F
100
AcDbEntity
  8
1
  6
SLD-Сплошная
100
AcDbLine
 10
938.105427166
 20
421.012071638
 30
0.0
 11
936.405427166
 21
422.4292289255
 31
0.0
  0
LINE
  5
C6
330
1F
100
AcDbEntity
  8
1
  6
SLD-Сплошная
100
AcDbLine
 10
936.4054271659
 20
422.4292289255
 30
0.0
 11
937.8225844534
 21
420.7292289255
 31
0.0
  0
LINE
  5
C7
330
1F
100
AcDbEntity
  8
1
  6
SLD-Сплошная
100
AcDbLine
 10
937.8225844534
 20
419.7292289255
 30
0.0
 11
937.8225844534
 21
420.7292289255
 31
0.0
  0
CIRCLE
  5
C8
330
1F
100
AcDbEntity
  8
1
  6
SLD-Сплошная
100
AcDbCircle
 10
699.1054271659
 20
668.2292289255
 30
0.0
 40
14.0
  0
CIRCLE
  5
C9
330
1F
100
AcDbEntity
  8
1
  6
SLD-Сплошная
100
AcDbCircle
 10
699.1054271659
 20
668.2292289255
 30
0.0
 40
11.0
  0
CIRCLE
  5
CA
330
1F
100
AcDbEntity
  8
1
  6
SLD-Сплошная
100
AcDbCircle
 10
699.1054271659
 20
668.2292289255
 30
0.0
 40
8.0
  0
ARC
  5
CB
330
1F
100
AcDbEntity
  8
1
  6
SLD-Сплошная
100
AcDbCircle
 10
700.9921785119
 20
664.9612797331
 30
0.0
 40
1.0
100
AcDbArc
 50
240.0
 51
0.0
  0
LINE
  5
CC
330
1F
100
AcDbEntity
  8
1
  6
SLD-Сплошная
100
AcDbLine
 10
694.831924474
 20
667.3632035217
 30
0.0
 11
700.4921785119
 21
664.0952543293
 31
0.0
  0
ARC
  5
CD
330
1F
100
AcDbEntity
  8
1
  6
SLD-Сплошная
100
AcDbCircle
 10
695.331924474
 20
668.2292289255
 30
0.0
 40
1.000000000000082
100
AcDbArc
 50
120.0
 51
240.0
  0
LINE
  5
CE
330
1F
100
AcDbEntity
  8
1
  6
SLD-Сплошная
100
AcDbLine
 10
700.4921785119
 20
672.3632035217
 30
0.0
 11
694.831924474
 21
669.0952543293
 31
0.0
  0
ARC
  5
CF
330
1F
100
AcDbEntity
  8
1
  6
SLD-Сплошная
100
AcDbCircle
 10
700.9921785119
 20
671.497178118
 30
0.0
 40
1.000000000000114
100
AcDbArc
 50
0.0
 51
120.0
  0
LINE
  5
D0
330
1F
100
AcDbEntity
  8
1
  6
SLD-Сплошная
100
AcDbLine
 10
701.9921785119
 20
664.9612797331
 30
0.0
 11
701.9921785119
 21
671.497178118
 31
0.0
  0
LINE
  5
D1
330
1F
100
AcDbEntity
  8
1
  6
SLD-Сплошная
100
AcDbLine
 10
1618.033579969
 20
1067.1678717442
 30
0.0
 11
1618.0335799689
 21
1472.1721144396
 31
0.0
  0
LINE
  5
D2
330
1F
100
AcDbEntity
  8
1
  6
SLD-Сплошная
100
AcDbLine
 10
1617.1370317753
 20
1473.7248641616
 30
0.0
 11
1407.8334245441
 21
1594.5532647114
 31
0.0
  0
LINE
  5
D3
330
1F
100
AcDbEntity
  8
1
  6
SLD-Сплошная
100
AcDbLine
 10
1284.7289267172
 20
1523.5649984438
 30
0.0
 11
1284.7289267172
 21
1517.2371638512
 31
0.0
  0
LINE
  5
D4
330
1F
100
AcDbEntity
  8
1
  6
SLD-Сплошная
100
AcDbLine
 10
1405.5836073957
 20
1594.5285106862
 30
0.0
 11
1285.7290079846
 21
1525.3379232092
 31
0.0
  0
LINE
  5
D5
330
1F
100
AcDbEntity
  8
1
  6
SLD-Сплошная
100
AcDbLine
 10
1497.0324526811
 20
996.0410845146
 30
0.0
 11
1616.8870520922
 21
1065.2316719915
 31
0.0
  0
LINE
  5
D6
330
1F
100
AcDbEntity
  8
1
  6
SLD-Сплошная
100
AcDbLine
 10
1488.5972525742
 20
999.7561402904
 30
0.0
 11
1494.99726275
 21
996.0614930587
 31
0.0
  0
LINE
  5
D7
330
1F
100
AcDbEntity
  8
1
  6
SLD-Сплошная
100
AcDbLine
 10
1488.5972525742
 20
995.0222498337
 30
0.0
 11
1488.5972525742
 21
1398.7521700121
 31
0.0
  0
LINE
  5
D8
330
1F
100
AcDbEntity
  8
1
  6
SLD-Сплошная
100
AcDbLine
 10
1487.9093506925
 20
1399.943601754
 30
0.0
 11
1281.1234929156
 21
1519.3185364816
 31
0.0
  0
LINE
  5
D9
330
1F
100
AcDbEntity
  8
1
  6
SLD-Сплошная
100
AcDbLine
 10
1268.1190241405
 20
1511.0755013804
 30
0.0
 11
1268.1190241405
 21
1108.0275573285
 31
0.0
  0
LINE
  5
DA
330
1F
100
AcDbEntity
  8
1
  6
SLD-Сплошная
100
AcDbLine
 10
1268.7604976281
 20
1106.9165528486
 30
0.0
 11
1474.9558939064
 21
987.8824842885
 31
0.0
  0
LINE
  5
DB
330
1F
100
AcDbEntity
  8
1
  6
SLD-Сплошная
100
AcDbLine
 10
1295.2849187695
 20
1292.4069590062
 30
0.0
 11
1295.2849187695
 21
1289.9577346707
 31
0.0
  0
LINE
  5
DC
330
1F
100
AcDbEntity
  8
1
  6
SLD-Сплошная
100
AcDbLine
 10
1303.0618291905
 20
1276.4862710346
 30
0.0
 11
1305.1828047598
 21
1275.261459833
 31
0.0
  0
LINE
  5
DD
330
1F
100
AcDbEntity
  8
1
  6
SLD-Сплошная
100
AcDbLine
 10
1298.8920893589
 20
1299.2249903527
 30
0.0
 11
1298.1849825777
 21
1298.8167862968
 31
0.0
  0
LINE
  5
DE
330
1F
100
AcDbEntity
  8
1
  6
SLD-Сплошная
100
AcDbLine
 10
1312.1838448346
 20
1274.5674181501
 30
0.0
 11
1312.8909516158
 21
1274.975622206
 31
0.0
  0
LINE
  5
DF
330
1F
100
AcDbEntity
  8
1
  6
SLD-Сплошная
100
AcDbLine
 10
1307.0185077436
 20
1282.3874599224
 30
0.0
 11
1308.6423541705
 21
1283.3248865109
 31
0.0
  0
LINE
  5
E0
330
1F
100
AcDbEntity
  8
1
  6
SLD-Сплошная
100
AcDbLine
 10
1303.7132412724
 20
1290.0781999238
 30
0.0
 11
1302.0161849976
 21
1289.0985101896
 31
0.0
  0
LINE
  5
E1
330
1F
100
AcDbEntity
  8
1
  6
SLD-Сплошная
100
AcDbLine
 10
1491.3755984316
 20
1045.0335332277
 30
0.0
 11
1492.7898119939
 21
1045.8499413395
 31
0.0
  0
LINE
  5
E2
330
1F
100
AcDbEntity
  8
1
  6
SLD-Сплошная
100
AcDbLine
 10
1489.139958878
 20
1328.9790290013
 30
0.0
 11
1489.4228015905
 21
1329.1423106237
 31
0.0
  0
LINE
  5
E3
330
1F
100
AcDbEntity
  8
1
  6
SLD-Сплошная
100
AcDbLine
 10
1490.3756796989
 20
1331.2483967335
 30
0.0
 11
1490.3756796989
 21
1331.3300375446
 31
0.0
  0
LINE
  5
E4
330
1F
100
AcDbEntity
  8
1
  6
SLD-Сплошная
100
AcDbLine
 10
1488.7864054875
 20
1067.4818671699
 30
0.0
 11
1489.0692481999
 21
1067.6451487923
 31
0.0
  0
LINE
  5
E5
330
1F
100
AcDbEntity
  8
1
  6
SLD-Сплошная
100
AcDbLine
 10
1490.0221263083
 20
1069.751234902
 30
0.0
 11
1490.0221263083
 21
1071.074581677
 31
0.0
  0
LINE
  5
E6
330
1F
100
AcDbEntity
  8
1
  6
SLD-Сплошная
100
AcDbLine
 10
1490.0221263083
 20
1070.6200390637
 30
0.0
 11
1490.077126281
 21
1070.6517898721
 31
0.0
  0
LINE
  5
E7
330
1F
100
AcDbEntity
  8
1
  6
SLD-Сплошная
100
AcDbLine
 10
1491.7291518221
 20
1306.5306950591
 30
0.0
 11
1492.7898119939
 21
1307.143001143
 31
0.0
  0
ELLIPSE
  5
E8
330
1F
100
AcDbEntity
  8
1
  6
SLD-Сплошная
100
AcDbEllipse
 10
1496.0325339484
 20
997.7731822393
 30
0.0
 11
1.999729017871914
 21
-0.05915489561516552
 31
0.0
210
0.0
220
0.0
230
1.0
 40
0.5565381198
 41
3.943452537655118
 42
5.514248864452581
  0
ELLIPSE
  5
E9
330
1F
100
AcDbEntity
  8
1
  6
SLD-Сплошная
100
AcDbEllipse
 10
1496.0325339484
 20
1402.7774249347
 30
0.0
 11
1.999640479968775
 21
0.06348472508148008
 31
0.0
210
0.0
220
0.0
230
1.0
 40
0.5973141191
 41
3.908029519492961
 42
5.478825846285567
  0
ELLIPSE
  5
EA
330
1F
100
AcDbEntity
  8
1
  6
SLD-Сплошная
100
AcDbEllipse
 10
1496.0325339484
 20
1402.7774249347
 30
0.0
 11
0.9991743340483482
 21
0.0659062173986058
 31
0.0
210
0.0
220
0.0
230
0.9999999999999999
 40
0.616454653
 41
3.886351437141314
 42
5.457147763933884
  0
LINE
  5
EB
330
1F
100
AcDbEntity
  8
1
  6
SLD-Сплошная
100
AcDbLine
 10
1497.4467475108
 20
1401.9610168228
 30
0.0
 11
1496.7396407296
 21
1402.3692208787
 31
0.0
  0
LINE
  5
EC
330
1F
100
AcDbEntity
  8
1
  6
SLD-Сплошная
100
AcDbLine
 10
1495.3254271672
 20
1402.3114827243
 30
0.0
 11
1494.618320386
 21
1401.9032786683
 31
0.0
  0
ELLIPSE
  5
ED
330
1F
100
AcDbEntity
  8
1
  6
SLD-Сплошная
100
AcDbEllipse
 10
1496.0325339484
 20
1402.7774249347
 30
0.0
 11
1.054720450884815
 21
1.700046099216252
 31
0.0
210
0.0
220
0.0
230
1.0
 40
0.5974079498
 41
0.804281400158803
 42
2.37507772695009
  0
ELLIPSE
  5
EE
330
1F
100
AcDbEntity
  8
1
  6
SLD-Сплошная
100
AcDbEllipse
 10
1286.7289267172
 20
1523.6058254844
 30
0.0
 11
0.9485527510983049
 21
1.761437681442203
 31
0.0
210
0.0
220
0.0
230
1.0
 40
0.5566319546
 41
0.7688525864971266
 42
2.339648913286555
  0
ARC
  5
EF
330
1F
100
AcDbEntity
  8
1
  6
SLD-Сплошная
100
AcDbCircle
 10
1614.2309147192
 20
1471.0118825953
 30
0.0
 40
3.073609615136042
100
AcDbArc
 50
2.6054784855
 51
57.3945216601
  0
ARC
  5
F0
330
1F
100
AcDbEntity
  8
1
  6
SLD-Сплошная
100
AcDbCircle
 10
1494.3763153081
 20
1401.8212951183
 30
0.0
 40
3.073609615145489
100
AcDbArc
 50
2.6054784857
 51
57.39452166
  0
ARC
  5
F1
330
1F
100
AcDbEntity
  8
1
  6
SLD-Сплошная
100
AcDbCircle
 10
1495.2044246282
 20
1402.2993600265
 30
0.0
 40
1.536804807571114
100
AcDbArc
 50
2.6054784856
 51
57.39452166
  0
LINE
  5
F2
330
1F
100
AcDbEntity
  8
1
  6
SLD-Сплошная
100
AcDbLine
 10
1496.0325339484
 20
1403.5939657465
 30
0.0
 11
1496.0325339484
 21
1404.4105065584
 31
0.0
  0
ELLIPSE
  5
F3
330
1F
100
AcDbEntity
  8
1
  6
SLD-Сплошная
100
AcDbEllipse
 10
1496.0325339484
 20
1402.7774249347
 30
0.0
 11
0.5566258153230591
 21
0.8323823098310184
 31
0.0
210
0.0
220
0.0
230
0.9999999999999997
 40
0.6165484624
 41
0.825963457034427
 42
2.396759783821971
  0
LINE
  5
F4
330
1F
100
AcDbEntity
  8
1
  6
SLD-Сплошная
100
AcDbLine
 10
1495.2754271673
 20
1402.3980852643
 30
0.0
 11
1494.5683203861
 21
1401.9898812084
 31
0.0
  0
LWPOLYLINE
  5
F5
330
1F
100
AcDbEntity
  8
1
  6
SLD-Сплошная
100
AcDbPolyline
 90
       17
 70
   128
 43
0.0
 10
1559.6721442552
 20
1063.4990114934
 10
1559.5368452302
 20
1063.451982763
 10
1559.4221442552
 20
1063.4742691987
 10
1559.345503514
 20
1063.5624778929
 10
1559.3185908646
 20
1063.7031798714
 10
1559.345503514
 20
1063.8749545335
 10
1559.4221442552
 20
1064.0516507439
 10
1559.5368452302
 20
1064.2063681065
 10
1559.6721442552
 20
1064.3155523053
 10
1559.8074432802
 20
1064.3625810357
 10
1559.9221442552
 20
1064.3402946
 10
1559.9987849964
 20
1064.2520859058
 10
1560.0256976458
 20
1064.1113839273
 10
1559.9987849964
 20
1063.9396092652
 10
1559.9221442552
 20
1063.7629130548
 10
1559.8074432802
 20
1063.6081956922
 10
1559.6721442552
 20
1063.4990114934
  0
LWPOLYLINE
  5
F6
330
1F
100
AcDbEntity
  8
1
  6
SLD-Сплошная
100
AcDbPolyline
 90
       17
 70
   128
 43
0.0
 10
1524.3168051959
 20
1051.2542168167
 10
1524.1815061708
 20
1051.2071880863
 10
1524.0668051959
 20
1051.229474522
 10
1523.9901644547
 20
1051.3176832162
 10
1523.9632518053
 20
1051.4583851947
 10
1523.9901644547
 20
1051.6301598568
 10
1524.0668051959
 20
1051.8068560672
 10
1524.1815061708
 20
1051.9615734298
 10
1524.3168051959
 20
1052.0707576286
 10
1524.4521042209
 20
1052.117786359
 10
1524.5668051959
 20
1052.0954999233
 10
1524.6434459371
 20
1052.0072912291
 10
1524.6703585865
 20
1051.8665892506
 10
1524.6434459371
 20
1051.6948145885
 10
1524.5668051959
 20
1051.5181183781
 10
1524.4521042209
 20
1051.3634010155
 10
1524.3168051959
 20
1051.2542168167
  0
LWPOLYLINE
  5
F7
330
1F
100
AcDbEntity
  8
1
  6
SLD-Сплошная
100
AcDbPolyline
 90
       17
 70
   128
 43
0.0
 10
1524.3168051959
 20
1378.6870823829
 10
1524.4521042209
 20
1378.7341111133
 10
1524.5668051959
 20
1378.7118246776
 10
1524.6434459371
 20
1378.6236159834
 10
1524.6703585865
 20
1378.4829140049
 10
1524.6434459371
 20
1378.3111393428
 10
1524.5668051959
 20
1378.1344431324
 10
1524.4521042209
 20
1377.9797257698
 10
1524.3168051959
 20
1377.870541571
 10
1524.1815061708
 20
1377.8235128406
 10
1524.0668051959
 20
1377.8457992763
 10
1523.9901644547
 20
1377.9340079705
 10
1523.9632518053
 20
1378.074709949
 10
1523.9901644547
 20
1378.2464846111
 10
1524.0668051959
 20
1378.4231808215
 10
1524.1815061708
 20
1378.5778981841
 10
1524.3168051959
 20
1378.6870823829
  0
LINE
  5
F8
330
1F
100
AcDbEntity
  8
1
  6
SLD-Сплошная
100
AcDbLine
 10
1490.0221263083
 20
1070.5302269172
 30
0.0
 11
1490.1010404083
 21
1070.7167541673
 31
0.0
  0
LINE
  5
F9
330
1F
100
AcDbEntity
  8
1
  6
SLD-Сплошная
100
AcDbLine
 10
1494.618320386
 20
997.014512282
 30
0.0
 11
1488.5972525742
 21
1007.4433076173
 31
0.0
  0
LINE
  5
FA
330
1F
100
AcDbEntity
  8
1
  6
SLD-Сплошная
100
AcDbLine
 10
1494.618320386
 20
1401.9032786683
 30
0.0
 11
1488.5972525742
 21
1398.4262602558
 31
0.0
  0
LINE
  5
FB
330
1F
100
AcDbEntity
  8
1
  6
SLD-Сплошная
100
AcDbLine
 10
1488.5972525742
 20
1398.5417365648
 30
0.0
 11
1494.5683203861
 21
1401.9898812084
 31
0.0
  0
LINE
  5
FC
330
1F
100
AcDbEntity
  8
1
  6
SLD-Сплошная
100
AcDbLine
 10
1285.3647131548
 20
1522.760552987
 30
0.0
 11
1290.4656909074
 21
1513.925400377
 31
0.0
  0
LINE
  5
FD
330
1F
100
AcDbEntity
  8
1
  6
SLD-Сплошная
100
AcDbLine
 10
1488.5972525742
 20
1398.5416038647
 30
0.0
 11
1495.2754271673
 21
1402.3980852643
 31
0.0
  0
LINE
  5
FE
330
1F
100
AcDbEntity
  8
1
  6
SLD-Сплошная
100
AcDbLine
 10
1488.9209395711
 20
1398.7283791657
 30
0.0
 11
1488.9208131642
 21
1398.7284521389
 31
0.0
  0
LINE
  5
FF
330
1F
100
AcDbEntity
  8
1
  6
SLD-Сплошная
100
AcDbLine
 10
1488.2138327899
 20
1398.3201751098
 30
0.0
 11
1488.9209395711
 21
1398.7283791657
 31
0.0
  0
LINE
  5
100
330
1F
100
AcDbEntity
  8
1
  6
SLD-Сплошная
100
AcDbLine
 10
1488.5972525742
 20
1398.5414578947
 30
0.0
 11
1488.9209395711
 21
1398.7283791657
 31
0.0
  0
LINE
  5
101
330
1F
100
AcDbEntity
  8
1
  6
SLD-Сплошная
100
AcDbLine
 10
1480.4261847623
 20
1394.6398196009
 30
0.0
 11
1475.8960211398
 21
1392.0246118079
 31
0.0
  0
ELLIPSE
  5
102
330
1F
100
AcDbEntity
  8
1
  6
SLD-Сплошная
100
AcDbEllipse
 10
1481.8403983247
 20
1394.6399523009
 30
0.0
 11
1.580529840019154
 21
0.1927335649925226
 31
0.0
210
0.0
220
0.0
230
1.0
 40
0.2276700627
 41
2.329626123028949
 42
2.65018954557303
  0
ELLIPSE
  5
103
330
1F
100
AcDbEntity
  8
1
  6
SLD-Сплошная
100
AcDbEllipse
 10
1615.5335799689
 20
1471.7061058792
 30
0.0
 11
2.493080340725555
 21
0.9065865826362369
 31
0.0
210
0.0
220
0.0
230
1.0
 40
0.2050299685
 41
0.320669963911601
 42
0.7109785221994857
  0
ARC
  5
104
330
1F
100
AcDbEntity
  8
1
  6
SLD-Сплошная
100
AcDbCircle
 10
1616.799477634
 20
1067.2804109718
 30
0.0
 40
1.239223002912549
100
AcDbArc
 50
293.8903166265
 51
354.7895424156
  0
LWPOLYLINE
  5
105
330
1F
100
AcDbEntity
  8
1
  6
SLD-Сплошная
100
AcDbPolyline
 90
        9
 70
   128
 43
0.0
 10
1617.3013469219
 20
1471.1516042998
 10
1617.5420437183
 20
1471.3127361447
 10
1617.7390870391
 20
1471.4925463698
 10
1617.8881941951
 20
1471.6871268432
 10
1617.9861243783
 20
1471.8922484051
 10
1618.0307490996
 20
1472.1034527878
 10
1618.0210984516
 20
1472.316149515
 10
1617.9573821888
 20
1472.5257156745
 10
1617.8409851686
 20
1472.7275963964
  0
LWPOLYLINE
  5
106
330
1F
100
AcDbEntity
  8
1
  6
SLD-Сплошная
100
AcDbPolyline
 90
        3
 70
   128
 43
0.0
 10
1617.01842121
 20
1472.2949105907
 10
1616.9878613008
 20
1472.3842751805
 10
1616.9180230888
 20
1472.5054036137
  0
LINE
  5
107
330
1F
100
AcDbEntity
  8
1
  6
SLD-Сплошная
100
AcDbLine
 10
1617.8409851686
 20
1472.7275963964
 30
0.0
 11
1616.9180230888
 21
1472.5054036137
 31
0.0
  0
LINE
  5
108
330
1F
100
AcDbEntity
  8
1
  6
SLD-Сплошная
100
AcDbLine
 10
1617.521949575
 20
1473.2801822524
 30
0.0
 11
1616.8680230888
 21
1472.5920061537
 31
0.0
  0
LWPOLYLINE
  5
109
330
1F
100
AcDbEntity
  8
1
  6
SLD-Сплошная
100
AcDbPolyline
 90
        3
 70
   128
 43
0.0
 10
1616.8680230888
 20
1472.5920061537
 10
1616.7980305272
 20
1472.7130717243
 10
1616.7359929763
 20
1472.7841543119
  0
LWPOLYLINE
  5
10A
330
1F
100
AcDbEntity
  8
1
  6
SLD-Сплошная
100
AcDbPolyline
 90
        9
 70
   128
 43
0.0
 10
1617.521949575
 20
1473.2801822524
 10
1617.4052953057
 20
1473.4819582033
 10
1617.2556441523
 20
1473.6419552484
 10
1617.0762487466
 20
1473.7566958903
 10
1616.8710082044
 20
1473.8236862689
 10
1616.6443833796
 20
1473.8414703644
 10
1616.401299908
 20
1473.8096616439
 10
1616.1470411504
 20
1473.7289514621
 10
1615.8871333595
 20
1473.6010940354
  0
ELLIPSE
  5
10B
330
1F
100
AcDbEntity
  8
1
  6
SLD-Сплошная
100
AcDbEllipse
 10
1615.483579969
 20
1471.7927084192
 30
0.0
 11
2.031629674499754
 21
1.705837126210554
 31
0.0
210
0.0
220
0.0
230
0.9999999999999999
 40
0.2051618287
 41
5.572177975264638
 42
5.962486533518559
  0
ARC
  5
10C
330
1F
100
AcDbEntity
  8
1
  6
SLD-Сплошная
100
AcDbCircle
 10
1407.313760569
 20
1593.4281517945
 30
0.0
 40
1.239326318114171
100
AcDbArc
 50
65.2088626953
 51
126.1015957338
  0
ELLIPSE
  5
10D
330
1F
100
AcDbEntity
  8
1
  6
SLD-Сплошная
100
AcDbEllipse
 10
1615.483579969
 20
1471.7927084192
 30
0.0
 11
1.499999998601424
 21
0.8660723227114888
 31
0.0
210
0.0
220
0.0
230
1.0
 40
0.0000703729
 41
5.497746512147061
 42
5.888055070201503
  0
LINE
  5
10E
330
1F
100
AcDbEntity
  8
1
  6
SLD-Сплошная
100
AcDbLine
 10
1617.3013469219
 20
1472.7266160189
 30
0.0
 11
1616.918248118
 21
1472.5054577869
 31
0.0
  0
LINE
  5
10F
330
1F
100
AcDbEntity
  8
1
  6
SLD-Сплошная
100
AcDbLine
 10
1617.251346922
 20
1472.813218559
 30
0.0
 11
1616.861935607
 21
1472.5884161919
 31
0.0
  0
LINE
  5
110
330
1F
100
AcDbEntity
  8
1
  6
SLD-Сплошная
100
AcDbLine
 10
1616.8619680369
 20
1472.58836184
 30
0.0
 11
1617.251346922
 21
1472.813218559
 31
0.0
  0
LINE
  5
111
330
1F
100
AcDbEntity
  8
1
  6
SLD-Сплошная
100
AcDbLine
 10
1290.3656909075
 20
1513.9831291482
 30
0.0
 11
1285.3147131548
 21
1522.7316792181
 31
0.0
  0
LINE
  5
112
330
1F
100
AcDbEntity
  8
1
  6
SLD-Сплошная
100
AcDbLine
 10
1285.364717218
 20
1522.7605459493
 30
0.0
 11
1285.3147131548
 21
1522.7316792181
 31
0.0
  0
ELLIPSE
  5
113
330
1F
100
AcDbEntity
  8
1
  6
SLD-Сплошная
100
AcDbEllipse
 10
1286.7289267172
 20
1523.6058254844
 30
0.0
 11
1.99964047996923
 21
0.06348472506988401
 31
0.0
210
0.0
220
0.0
230
1.0
 40
0.5973141191
 41
2.337233192698668
 42
3.908029519493756
  0
LINE
  5
114
330
1F
100
AcDbEntity
  8
1
  6
SLD-Сплошная
100
AcDbLine
 10
1285.7642036685
 20
1524.162748246
 30
0.0
 11
1285.3147131548
 21
1524.4222335962
 31
0.0
  0
ARC
  5
115
330
1F
100
AcDbEntity
  8
1
  6
SLD-Сплошная
100
AcDbCircle
 10
1405.9976860186
 20
1593.6117319269
 30
0.0
 40
1.005954471803838
100
AcDbArc
 50
54.3824225248
 51
114.3071190461
  0
ARC
  5
116
330
1F
100
AcDbEntity
  8
1
  6
SLD-Сплошная
100
AcDbCircle
 10
1286.1768618897
 20
1524.56208799
 30
0.0
 40
0.873418394859192
100
AcDbArc
 50
50.7967147646
 51
189.2140369903
  0
LINE
  5
117
330
1F
100
AcDbEntity
  8
1
  6
SLD-Сплошная
100
AcDbLine
 10
1488.5972525742
 20
1007.3278313083
 30
0.0
 11
1494.5683203861
 21
996.9856385131
 31
0.0
  0
LINE
  5
118
330
1F
100
AcDbEntity
  8
1
  6
SLD-Сплошная
100
AcDbLine
 10
1494.6183285131
 20
997.0145075903
 30
0.0
 11
1494.5683203861
 21
996.9856385131
 31
0.0
  0
ARC
  5
119
330
1F
100
AcDbEntity
  8
1
  6
SLD-Сплошная
100
AcDbCircle
 10
1496.5845987759
 20
996.8169197337
 30
0.0
 40
0.8734183948568082
100
AcDbArc
 50
230.7967147643
 51
9.2140369905
  0
LINE
  5
11A
330
1F
100
AcDbEntity
  8
1
  6
SLD-Сплошная
100
AcDbLine
 10
1496.0325339484
 20
996.6594338557
 30
0.0
 11
1496.0325339484
 21
996.1401006156
 31
0.0
  0
ARC
  5
11B
330
1F
100
AcDbEntity
  8
1
  6
SLD-Сплошная
100
AcDbCircle
 10
1616.3213431356
 20
1066.0391881214
 30
0.0
 40
0.9859558426176807
100
AcDbArc
 50
305.0133322764
 51
6.298848117
  0
ELLIPSE
  5
11C
330
1F
100
AcDbEntity
  8
1
  6
SLD-Сплошная
100
AcDbEllipse
 10
1496.0325339484
 20
997.7731822393
 30
0.0
 11
1.054720450884815
 21
1.700046099215911
 31
0.0
210
0.0
220
0.0
230
1.0
 40
0.5974079498
 41
2.375077726950405
 42
3.945874053745534
  0
ELLIPSE
  5
11D
330
1F
100
AcDbEntity
  8
1
  6
SLD-Сплошная
100
AcDbEllipse
 10
1475.5971479721
 20
1392.0413663241
 30
0.0
 11
2.691140751009016
 21
0.8754882017485672
 31
0.0
210
0.0
220
0.0
230
1.0
 40
0.2496252376
 41
3.845959967500342
 42
5.416756294295131
  0
ELLIPSE
  5
11E
330
1F
100
AcDbEntity
  8
1
  6
SLD-Сплошная
100
AcDbEllipse
 10
1475.5971479721
 20
990.629903201
 30
0.0
 11
2.346496907419124
 21
-1.88693355148655
 31
0.0
210
0.0
220
0.0
230
1.0
 40
0.7078398481
 41
4.444461987435131
 42
6.01525831422992
  0
ELLIPSE
  5
11F
330
1F
100
AcDbEntity
  8
1
  6
SLD-Сплошная
100
AcDbEllipse
 10
1475.5971479721
 20
1392.0413663241
 30
0.0
 11
1.698791117367364
 21
0.8238102184850504
 31
0.0
210
0.0
220
0.0
230
0.9999999999999998
 40
0.0778085159
 41
3.889276317740528
 42
5.460072644557566
  0
LINE
  5
120
330
1F
100
AcDbEntity
  8
1
  6
SLD-Сплошная
100
AcDbLine
 10
1473.6879596629
 20
1390.9392153731
 30
0.0
 11
1474.3950664441
 21
1391.347419429
 31
0.0
  0
ELLIPSE
  5
121
330
1F
100
AcDbEntity
  8
1
  6
SLD-Сплошная
100
AcDbEllipse
 10
1475.5971479721
 20
1392.0413663241
 30
0.0
 11
1.562801634044717
 21
1.05935063919469
 31
0.0
210
0.0
220
0.0
230
1.0
 40
0.0779476132
 41
0.8230997739016513
 42
2.393896100717756
  0
ELLIPSE
  5
122
330
1F
100
AcDbEntity
  8
1
  6
SLD-Сплошная
100
AcDbEllipse
 10
1475.5971479721
 20
1392.0413663241
 30
0.0
 11
2.103726216610312
 21
1.892910169514835
 31
0.0
210
0.0
220
0.0
230
1.0
 40
0.2497537726
 41
0.8663954412297098
 42
2.437191768038373
  0
ELLIPSE
  5
123
330
1F
100
AcDbEntity
  8
1
  6
SLD-Сплошная
100
AcDbEllipse
 10
1270.8190241405
 20
1510.257260916
 30
0.0
 11
-0.4612130827019882
 21
2.975579473089056
 31
0.0
210
0.0
220
0.0
230
1.0
 40
0.7078581484
 41
0.2677802285176483
 42
1.838576555302764
  0
LINE
  5
124
330
1F
100
AcDbEntity
  8
1
  6
SLD-Сплошная
100
AcDbLine
 10
1488.2897146944
 20
994.5956973406
 30
0.0
 11
1477.5063362813
 21
988.3705854879
 31
0.0
  0
LINE
  5
125
330
1F
100
AcDbEntity
  8
1
  6
SLD-Сплошная
100
AcDbLine
 10
1488.2897146944
 20
1398.3214939879
 30
0.0
 11
1477.5063362813
 21
1392.0963821352
 31
0.0
  0
LINE
  5
126
330
1F
100
AcDbEntity
  8
1
  6
SLD-Сплошная
100
AcDbLine
 10
1487.5826079132
 20
1398.7296980438
 30
0.0
 11
1476.7992295001
 21
1392.5045861912
 31
0.0
  0
LINE
  5
127
330
1F
100
AcDbEntity
  8
1
  6
SLD-Сплошная
100
AcDbLine
 10
1488.2897146944
 20
1398.3214939879
 30
0.0
 11
1487.5826079132
 21
1398.7296980438
 31
0.0
  0
LINE
  5
128
330
1F
100
AcDbEntity
  8
1
  6
SLD-Сплошная
100
AcDbLine
 10
1269.8169426125
 20
1513.0404104607
 30
0.0
 11
1280.6003210256
 21
1519.2655223133
 31
0.0
  0
LINE
  5
129
330
1F
100
AcDbEntity
  8
1
  6
SLD-Сплошная
100
AcDbLine
 10
1476.5992295001
 20
1393.6675371636
 30
0.0
 11
1487.3826079132
 21
1399.8926490162
 31
0.0
  0
LINE
  5
12A
330
1F
100
AcDbEntity
  8
1
  6
SLD-Сплошная
100
AcDbLine
 10
1476.5992295001
 20
1392.8509963517
 30
0.0
 11
1487.3826079132
 21
1399.0761082043
 31
0.0
  0
LINE
  5
12B
330
1F
100
AcDbEntity
  8
1
  6
SLD-Сплошная
100
AcDbLine
 10
1487.3826079132
 20
1399.8926490162
 30
0.0
 11
1487.3826079132
 21
1399.0761082043
 31
0.0
  0
LWPOLYLINE
  5
12C
330
1F
100
AcDbEntity
  8
1
  6
SLD-Сплошная
100
AcDbPolyline
 90
       17
 70
   128
 43
0.0
 10
1432.8171877104
 20
1043.5789189651
 10
1432.8441003597
 20
1043.7196209436
 10
1432.9207411009
 20
1043.8078296377
 10
1433.0354420759
 20
1043.8301160735
 10
1433.1707411009
 20
1043.7830873431
 10
1433.306040126
 20
1043.6739031443
 10
1433.4207411009
 20
1043.5191857817
 10
1433.4973818422
 20
1043.3424895712
 10
1433.5242944915
 20
1043.1707149092
 10
1433.4973818422
 20
1043.0300129307
 10
1433.4207411009
 20
1042.9418042365
 10
1433.306040126
 20
1042.9195178007
 10
1433.1707411009
 20
1042.9665465312
 10
1433.0354420759
 20
1043.0757307299
 10
1432.9207411009
 20
1043.2304480925
 10
1432.8441003597
 20
1043.407144303
 10
1432.8171877104
 20
1043.5789189651
  0
LWPOLYLINE
  5
12D
330
1F
100
AcDbEntity
  8
1
  6
SLD-Сплошная
100
AcDbPolyline
 90
       17
 70
   128
 43
0.0
 10
1433.5242944915
 20
1383.6682334655
 10
1433.4973818421
 20
1383.527531487
 10
1433.4207411009
 20
1383.4393227929
 10
1433.306040126
 20
1383.4170363571
 10
1433.1707411009
 20
1383.4640650875
 10
1433.0354420759
 20
1383.5732492863
 10
1432.9207411009
 20
1383.7279666489
 10
1432.8441003597
 20
1383.9046628594
 10
1432.8171877103
 20
1384.0764375214
 10
1432.8441003597
 20
1384.2171394999
 10
1432.9207411009
 20
1384.3053481941
 10
1433.0354420759
 20
1384.3276346299
 10
1433.1707411009
 20
1384.2806058994
 10
1433.306040126
 20
1384.1714217007
 10
1433.4207411009
 20
1384.0167043381
 10
1433.4973818421
 20
1383.8400081276
 10
1433.5242944915
 20
1383.6682334655
  0
LWPOLYLINE
  5
12E
330
1F
100
AcDbEntity
  8
1
  6
SLD-Сплошная
100
AcDbPolyline
 90
       17
 70
   128
 43
0.0
 10
1305.5379670967
 20
1441.2223513478
 10
1305.5648797461
 20
1441.3630533263
 10
1305.6415204873
 20
1441.4512620204
 10
1305.7562214623
 20
1441.4735484562
 10
1305.8915204873
 20
1441.4265197258
 10
1306.0268195124
 20
1441.317335527
 10
1306.1415204873
 20
1441.1626181644
 10
1306.2181612285
 20
1440.9859219539
 10
1306.2450738779
 20
1440.8141472919
 10
1306.2181612285
 20
1440.6734453134
 10
1306.1415204873
 20
1440.5852366192
 10
1306.0268195124
 20
1440.5629501834
 10
1305.8915204873
 20
1440.6099789139
 10
1305.7562214623
 20
1440.7191631127
 10
1305.6415204873
 20
1440.8738804752
 10
1305.5648797461
 20
1441.0505766857
 10
1305.5379670967
 20
1441.2223513478
  0
LWPOLYLINE
  5
12F
330
1F
100
AcDbEntity
  8
1
  6
SLD-Сплошная
100
AcDbPolyline
 90
       17
 70
   128
 43
0.0
 10
1306.2450738779
 20
1132.9782612109
 10
1306.2181612286
 20
1132.8375592324
 10
1306.1415204873
 20
1132.7493505383
 10
1306.0268195124
 20
1132.7270641025
 10
1305.8915204873
 20
1132.7740928329
 10
1305.7562214623
 20
1132.8832770317
 10
1305.6415204873
 20
1133.0379943943
 10
1305.5648797461
 20
1133.2146906048
 10
1305.5379670968
 20
1133.3864652668
 10
1305.5648797461
 20
1133.5271672453
 10
1305.6415204873
 20
1133.6153759395
 10
1305.7562214623
 20
1133.6376623753
 10
1305.8915204873
 20
1133.5906336448
 10
1306.0268195124
 20
1133.4814494461
 10
1306.1415204873
 20
1133.3267320835
 10
1306.2181612286
 20
1133.150035873
 10
1306.2450738779
 20
1132.9782612109
  0
LINE
  5
130
330
1F
100
AcDbEntity
  8
1
  6
SLD-Сплошная
100
AcDbLine
 10
1476.555882288
 20
1392.8258265687
 30
0.0
 11
1476.5992927035
 21
1392.8508868682
 31
0.0
  0
SPLINE
  5
131
330
1F
100
AcDbEntity
  8
1
  6
SLD-Сплошная
100
AcDbSpline
210
0.0
220
0.0
230
1.0
 70
     8
 71
     3
 72
     9
 73
     5
 74
     0
 42
0.00000001
 43
0.00000001
 40
0.0
 40
0.0
 40
0.0
 40
0.0
 40
0.4999999999999984
 40
0.9999999999999999
 40
0.9999999999999999
 40
0.9999999999999999
 40
0.9999999999999999
 10
1488.289714694448
 20
994.5956973405813
 30
0.0
 10
1488.377892232247
 20
994.6617066857862
 30
0.0
 10
1488.554247307847
 20
994.7937253761955
 30
0.0
 10
1488.582917485417
 20
994.9610585384569
 30
0.0
 10
1488.597252574202
 20
995.0447251195874
 30
0.0
  0
SPLINE
  5
132
330
1F
100
AcDbEntity
  8
1
  6
SLD-Сплошная
100
AcDbSpline
210
0.0
220
0.0
230
1.0
 70
     8
 71
     3
 72
    11
 73
     7
 74
     0
 42
0.00000001
 43
0.00000001
 40
0.0
 40
0.0
 40
0.0
 40
0.0
 40
0.249999999999989
 40
0.5000000000000013
 40
0.7500000000000001
 40
1.0
 40
1.0
 40
1.0
 40
1.0
 10
1488.289714694414
 20
1399.137895464706
 30
0.0
 10
1488.375844362387
 20
1399.078690626268
 30
0.0
 10
1488.548103698333
 20
1398.96028094939
 30
0.0
 10
1488.621827012086
 20
1398.729694726297
 30
0.0
 10
1488.548103698333
 20
1398.499108503203
 30
0.0
 10
1488.375844362387
 20
1398.380698826326
 30
0.0
 10
1488.289714694414
 20
1398.321493987887
 30
0.0
  0
SPLINE
  5
133
330
1F
100
AcDbEntity
  8
1
  6
SLD-Сплошная
100
AcDbSpline
210
0.0
220
0.0
230
1.0
 70
     8
 71
     3
 72
    12
 73
     8
 74
     0
 42
0.00000001
 43
0.00000001
 40
0.0
 40
0.0
 40
0.0
 40
0.0
 40
0.0768349934730521
 40
0.165346417167685
 40
0.3824629150570533
 40
0.6595554638280128
 40
1.0
 40
1.0
 40
1.0
 40
1.0
 10
1486.804790453923
 20
1398.280527612226
 30
0.0
 10
1486.841845459719
 20
1398.305724859385
 30
0.0
 10
1486.921586631934
 20
1398.359948519097
 30
0.0
 10
1487.125656731107
 20
1398.502375298093
 30
0.0
 10
1487.453354946195
 20
1398.712408205262
 30
0.0
 10
1487.912161366674
 20
1398.957190938776
 30
0.0
 10
1488.155540964241
 20
1399.073677250955
 30
0.0
 10
1488.289714694414
 20
1399.137895464706
 30
0.0
  0
SPLINE
  5
134
330
1F
100
AcDbEntity
  8
1
  6
SLD-Сплошная
100
AcDbSpline
210
0.0
220
0.0
230
1.0
 70
     8
 71
     3
 72
    11
 73
     7
 74
     0
 42
0.00000001
 43
0.00000001
 40
0.0
 40
0.0
 40
0.0
 40
0.0
 40
0.2499999999995677
 40
0.5000000000000343
 40
0.7500000000003086
 40
0.9999999999999999
 40
0.9999999999999999
 40
0.9999999999999999
 40
0.9999999999999999
 10
1487.582607913228
 20
1398.729691408795
 30
0.0
 10
1487.586709325988
 20
1398.730112372091
 30
0.0
 10
1487.59491215151
 20
1398.730954298683
 30
0.0
 10
1487.598422785498
 20
1398.729694726297
 30
0.0
 10
1487.59491215151
 20
1398.72843515391
 30
0.0
 10
1487.586709325988
 20
1398.729277080502
 30
0.0
 10
1487.582607913228
 20
1398.729698043798
 30
0.0
  0
LINE
  5
135
330
1F
100
AcDbEntity
  8
1
  6
SLD-Сплошная
100
AcDbLine
 10
1487.5826079132
 20
1398.7296914088
 30
0.0
 11
1488.2897146944
 21
1399.1378954647
 31
0.0
  0
SPLINE
  5
136
330
1F
100
AcDbEntity
  8
1
  6
SLD-Сплошная
100
AcDbSpline
210
0.0
220
0.0
230
1.0
 70
     8
 71
     3
 72
    13
 73
     9
 74
     0
 42
0.00000001
 43
0.00000001
 40
0.0
 40
0.0
 40
0.0
 40
0.0
 40
0.322086339104684
 40
0.4996033953887088
 40
0.6100900277580562
 40
0.7293891021667522
 40
0.8589773926243482
 40
1.0
 40
1.0
 40
1.0
 40
1.0
 10
1488.089714694382
 20
1399.484305625222
 30
0.0
 10
1487.971107426112
 20
1399.410934360297
 30
0.0
 10
1487.7871300674
 20
1399.297124711672
 30
0.0
 10
1487.475556235232
 20
1399.134068683683
 30
0.0
 10
1487.259716662229
 20
1398.992884992791
 30
0.0
 10
1487.060878752848
 20
1398.861494157637
 30
0.0
 10
1486.838017916276
 20
1398.726069315847
 30
0.0
 10
1486.684692464861
 20
1398.66089950934
 30
0.0
 10
1486.60479045386
 20
1398.626937772731
 30
0.0
  0
SPLINE
  5
137
330
1F
100
AcDbEntity
  8
1
  6
SLD-Сплошная
100
AcDbSpline
210
0.0
220
0.0
230
1.0
 70
     8
 71
     3
 72
    11
 73
     7
 74
     0
 42
0.00000001
 43
0.00000001
 40
0.0
 40
0.0
 40
0.0
 40
0.0
 40
0.2499999999999993
 40
0.5000000000000046
 40
0.7500000000000061
 40
1.0
 40
1.0
 40
1.0
 40
1.0
 10
1487.382607913195
 20
1399.8926490162
 30
0.0
 10
1487.476951676316
 20
1399.937626624547
 30
0.0
 10
1487.665639202556
 20
1400.027581841241
 30
0.0
 10
1487.902217462625
 20
1399.976095023881
 30
0.0
 10
1488.06507240894
 20
1399.796915681771
 30
0.0
 10
1488.081500599235
 20
1399.588508977406
 30
0.0
 10
1488.089714694382
 20
1399.484305625222
 30
0.0
  0
SPLINE
  5
138
330
1F
100
AcDbEntity
  8
1
  6
SLD-Сплошная
100
AcDbSpline
210
0.0
220
0.0
230
1.0
 70
     8
 71
     3
 72
     9
 73
     5
 74
     0
 42
0.00000001
 43
0.00000001
 40
0.0
 40
0.0
 40
0.0
 40
0.0
 40
0.4999489266172263
 40
1.0
 40
1.0
 40
1.0
 40
1.0
 10
1281.142947685999
 20
1519.307286633359
 30
0.0
 10
1281.063331282606
 20
1519.336710891864
 30
0.0
 10
1280.904082209042
 20
1519.395565420672
 30
0.0
 10
1280.701581648324
 20
1519.308872967576
 30
0.0
 10
1280.600321025577
 20
1519.26552231335
 30
0.0
  0
LINE
  5
139
330
1F
100
AcDbEntity
  8
1
  6
SLD-Сплошная
100
AcDbLine
 10
1487.3826079132
 20
1399.0761015693
 30
0.0
 11
1488.0897146944
 21
1399.4843056252
 31
0.0
  0
SPLINE
  5
13A
330
1F
100
AcDbEntity
  8
1
  6
SLD-Сплошная
100
AcDbSpline
210
0.0
220
0.0
230
1.0
 70
     8
 71
     3
 72
    11
 73
     7
 74
     0
 42
0.00000001
 43
0.00000001
 40
0.0
 40
0.0
 40
0.0
 40
0.0
 40
0.2500000000000251
 40
0.4999999999998825
 40
0.7500000000000676
 40
0.9999999999999999
 40
0.9999999999999999
 40
0.9999999999999999
 40
0.9999999999999999
 10
1487.382607913195
 20
1399.076108204314
 30
0.0
 10
1487.384294494054
 20
1399.079869852553
 30
0.0
 10
1487.38766765577
 20
1399.08739314903
 30
0.0
 10
1487.390515349331
 20
1399.089800967916
 30
0.0
 10
1487.389852408903
 20
1399.086128190386
 30
0.0
 10
1487.385022745098
 20
1399.079443776336
 30
0.0
 10
1487.382607913195
 20
1399.076101569311
 30
0.0
  0
LINE
  5
13B
330
1F
100
AcDbEntity
  8
1
  6
SLD-Сплошная
100
AcDbLine
 10
1487.5702852265
 20
1398.5460752298
 30
0.0
 11
1487.5826079132
 21
1398.7296914088
 31
0.0
  0
ELLIPSE
  5
13C
330
1F
100
AcDbEntity
  8
1
  6
SLD-Сплошная
100
AcDbEllipse
 10
1270.8190241405
 20
1510.257260916
 30
0.0
 11
2.346496907419123
 21
-1.886933551486663
 31
0.0
210
0.0
220
0.0
230
1.0
 40
0.7078398481
 41
2.873665660640176
 42
4.44446198743513
  0
ELLIPSE
  5
13D
330
1F
100
AcDbEntity
  8
1
  6
SLD-Сплошная
100
AcDbEllipse
 10
1270.8190241405
 20
1108.8457977929
 30
0.0
 11
2.691140751009016
 21
0.8754882017485672
 31
0.0
210
0.0
220
0.0
230
1.0
 40
0.2496252376
 41
3.060561804101082
 42
3.845959967500451
  0
LINE
  5
13E
330
1F
100
AcDbEntity
  8
1
  6
SLD-Сплошная
100
AcDbLine
 10
1269.7977799271
 20
1513.0291778446
 30
0.0
 11
1268.9098358313
 21
1512.5165786291
 31
0.0
  0
ELLIPSE
  5
13F
330
1F
100
AcDbEntity
  8
1
  6
SLD-Сплошная
100
AcDbEllipse
 10
1475.5971479721
 20
990.629903201
 30
0.0
 11
-0.4612130827019882
 21
2.975579473088828
 31
0.0
210
0.0
220
0.0
230
1.0
 40
0.7078581484
 41
1.838576555319441
 42
3.409372882107302
  0
ELLIPSE
  5
140
330
1F
100
AcDbEntity
  8
1
  6
SLD-Сплошная
100
AcDbEllipse
 10
1270.8190241405
 20
1108.8457977929
 30
0.0
 11
2.103726216610312
 21
1.892910169515062
 31
0.0
210
0.0
220
0.0
230
1.0
 40
0.2497537726
 41
2.437191768035847
 42
3.222671195488531
  0
LINE
  5
141
330
1F
100
AcDbEntity
  8
1
  6
SLD-Сплошная
100
AcDbLine
 10
1476.5992295001
 20
987.8467536563
 30
0.0
 11
1477.5064099905
 21
988.3704578061
 31
0.0
  0
LWPOLYLINE
  5
142
330
1F
100
AcDbEntity
  8
1
  6
SLD-Сплошная
100
AcDbPolyline
 90
       21
 70
   128
 43
0.0
 10
1305.1844137061
 20
1298.1236735898
 10
1306.7724043688
 20
1297.0589102466
 10
1308.3192669074
 20
1295.7256520209
 10
1309.7849383947
 20
1294.1584296006
 10
1311.1314587092
 20
1292.3978332232
 10
1312.3239536819
 20
1290.4894614099
 10
1313.3315383195
 20
1288.4827399883
 10
1314.1281167091
 20
1286.4296419892
 10
1314.6930578888
 20
1284.3833415724
 10
1315.0117301788
 20
1282.3968368436
 10
1315.0758801343
 20
1280.521577232
 10
1314.883846305
 20
1278.8061309764
 10
1314.4406022663
 20
1277.2949272338
 10
1313.7576278059
 20
1276.0271053874
 10
1312.8526116036
 20
1275.0355013569
 10
1311.7489931038
 20
1274.345797166
 10
1310.4753554457
 20
1273.9758557908
 10
1309.0646851758
 20
1273.9352585187
 10
1307.553517913
 20
1274.2250567976
 10
1305.9809920957
 20
1274.8377450045
 10
1305.1828047598
 20
1275.261459833
  0
LWPOLYLINE
  5
143
330
1F
100
AcDbEntity
  8
1
  6
SLD-Сплошная
100
AcDbPolyline
 90
       11
 70
   128
 43
0.0
 10
1295.2849187695
 20
1292.4069590062
 10
1295.3570972335
 20
1293.7432149285
 10
1295.6757695235
 20
1295.3617884628
 10
1296.2407107032
 20
1296.7558216775
 10
1297.0372890928
 20
1297.8892098445
 10
1298.0448737304
 20
1298.7325988058
 10
1299.2373687031
 20
1299.2641452301
 10
1300.5838890176
 20
1299.4700823444
 10
1302.0495605049
 20
1299.3450764855
 10
1303.5964230435
 20
1298.8923652395
 10
1305.1844137061
 20
1298.1236735898
  0
LWPOLYLINE
  5
144
330
1F
100
AcDbEntity
  8
1
  6
SLD-Сплошная
100
AcDbPolyline
 90
       36
 70
   128
 43
0.0
 10
1303.0630933626
 20
1294.4494389865
 10
1304.4519400651
 20
1293.5033312366
 10
1305.7961480919
 20
1292.2989449393
 10
1307.0525134909
 20
1290.8749900611
 10
1308.1806556445
 20
1289.2772336834
 10
1309.1443151356
 20
1287.5570290108
 10
1309.9125191552
 20
1285.769664837
 10
1310.4605769942
 20
1283.972588517
 10
1310.7708736226
 20
1282.2235595626
 10
1310.8334358514
 20
1280.5787932032
 10
1310.6462528792
 20
1279.0911535832
 10
1310.2153409207
 20
1277.8084546638
 10
1309.5545498407
 20
1276.7719234438
 10
1308.6851180084
 20
1276.0148748895
 10
1307.6349896781
 20
1275.5616411642
 10
1306.4379168385
 20
1275.4267895729
 10
1305.1323743956
 20
1275.6146543566
 10
1303.7603235576
 20
1276.1191973866
 10
1302.3658631675
 20
1276.9242022348
 10
1300.9938123296
 20
1278.003795383
 10
1299.6882698866
 20
1279.3232778191
 10
1298.491197047
 20
1280.840240292
 10
1297.4410687168
 20
1282.5059263796
 10
1296.5716368845
 20
1284.2667995606
 10
1295.9108458045
 20
1286.066263922
 10
1295.479933846
 20
1287.8464831986
 10
1295.2927508738
 20
1289.5502396782
 10
1295.3553131026
 20
1291.1227732256
 10
1295.665609731
 20
1292.5135413188
 10
1296.2136675699
 20
1293.6778435269
 10
1296.9818715896
 20
1294.5782582189
 10
1297.9455310807
 20
1295.1858453257
 10
1299.0736732343
 20
1295.4810764979
 10
1300.3300386333
 20
1295.4544627627
 10
1301.6742466601
 20
1295.1068595073
 10
1303.0630933626
 20
1294.4494389865
  0
LWPOLYLINE
  5
145
330
1F
100
AcDbEntity
  8
1
  6
SLD-Сплошная
100
AcDbPolyline
 90
       16
 70
   128
 43
0.0
 10
1305.8915204873
 20
1298.5318776458
 10
1307.47951115
 20
1297.4671143025
 10
1309.0263736886
 20
1296.1338560768
 10
1310.4920451759
 20
1294.5666336566
 10
1311.8385654904
 20
1292.8060372791
 10
1313.0310604631
 20
1290.8976654658
 10
1314.0386451007
 20
1288.8909440442
 10
1314.8352234902
 20
1286.8378460452
 10
1315.40016467
 20
1284.7915456283
 10
1315.71883696
 20
1282.8050408995
 10
1315.7829869155
 20
1280.9297812879
 10
1315.5909530862
 20
1279.2143350323
 10
1315.1477090474
 20
1277.7031312898
 10
1314.4647345871
 20
1276.4353094433
 10
1313.5597183848
 20
1275.4437054128
 10
1312.8909516158
 20
1274.975622206
  0
ARC
  5
146
330
1F
100
AcDbEntity
  8
1
  6
SLD-Сплошная
100
AcDbCircle
 10
1301.7816265722
 20
1292.7165193484
 30
0.0
 40
7.121068748506882
100
AcDbArc
 50
54.7499671021
 51
113.9395744688
  0
LWPOLYLINE
  5
147
330
1F
100
AcDbEntity
  8
1
  6
SLD-Сплошная
100
AcDbPolyline
 90
       30
 70
   128
 43
0.0
 10
1303.0630933626
 20
1291.9998165508
 10
1304.2791498108
 20
1291.1450799427
 10
1305.4383448111
 20
1290.0248655416
 10
1306.4864756935
 20
1288.691553328
 10
1307.3745330229
 20
1287.207487499
 10
1308.0609922257
 20
1285.6420613235
 10
1308.5137552324
 20
1284.0684723895
 10
1308.711651348
 20
1282.5602999667
 10
1308.6454271701
 20
1281.1880645213
 10
1308.3181792678
 20
1280.0159302577
 10
1307.7452093891
 20
1279.0987048713
 10
1306.9533089688
 20
1278.4792768017
 10
1305.9795063904
 20
1278.186609817
 10
1304.8693355802
 20
1278.2343887002
 10
1303.6747068914
 20
1278.6203793637
 10
1302.4514798338
 20
1279.3265333132
 10
1301.256851145
 20
1280.3198315747
 10
1300.1466803348
 20
1281.5538286256
 10
1299.1728777564
 20
1282.9708241353
 10
1298.3809773361
 20
1284.5045609686
 10
1297.8080074574
 20
1286.0833232957
 10
1297.480759555
 20
1287.6332899451
 10
1297.4145353772
 20
1289.0819861987
 10
1297.6124314928
 20
1290.3616726298
 10
1298.0651944995
 20
1291.4125125233
 10
1298.7516537022
 20
1292.1853697737
 10
1299.6397110317
 20
1292.6441064348
 10
1300.6878419141
 20
1292.7672724902
 10
1301.8470369144
 20
1292.5491088322
 10
1303.0630933626
 20
1291.9998165508
  0
LWPOLYLINE
  5
148
330
1F
100
AcDbEntity
  8
1
  6
SLD-Сплошная
100
AcDbPolyline
 90
       12
 70
   128
 43
0.0
 10
1308.4870482625
 20
1280.4812270024
 10
1307.4930835098
 20
1280.8246812656
 10
1306.2698564522
 20
1281.5308352151
 10
1305.0752277634
 20
1282.5241334766
 10
1303.9650569532
 20
1283.7581305276
 10
1302.9912543748
 20
1285.1751260372
 10
1302.1993539545
 20
1286.7088628705
 10
1301.6263840758
 20
1288.2876251977
 10
1301.2991361734
 20
1289.837591847
 10
1301.2329119956
 20
1291.2862881006
 10
1301.4308081112
 20
1292.5659745317
 10
1301.457515081
 20
1292.6580550109
  0
LINE
  5
149
330
1F
100
AcDbEntity
  8
1
  6
SLD-Сплошная
100
AcDbLine
 10
1303.8596472481
 20
1290.1233981757
 30
0.0
 11
1305.2341010129
 21
1290.2462950539
 31
0.0
  0
LINE
  5
14A
330
1F
100
AcDbEntity
  8
1
  6
SLD-Сплошная
100
AcDbLine
 10
1303.8596472481
 20
1290.1233981757
 30
0.0
 11
1303.7132412724
 21
1290.0781999238
 31
0.0
  0
LWPOLYLINE
  5
14B
330
1F
100
AcDbEntity
  8
1
  6
SLD-Сплошная
100
AcDbPolyline
 90
        9
 70
   128
 43
0.0
 10
1306.1649949867
 20
1282.7504657264
 10
1306.3355356754
 20
1282.5704419103
 10
1306.5185483773
 20
1282.4369679729
 10
1306.7015610792
 20
1282.3591399424
 10
1306.8721017679
 20
1282.3422616705
 10
1307.0185483773
 20
1282.3874833835
 10
1307.130920813
 20
1282.4917232964
 10
1307.2015610792
 20
1282.6478776315
 10
1307.2256551585
 20
1282.8453047288
  0
LINE
  5
14C
330
1F
100
AcDbEntity
  8
1
  6
SLD-Сплошная
100
AcDbLine
 10
1302.1625909733
 20
1287.7294182689
 30
0.0
 11
1306.1649949867
 21
1282.7504657264
 31
0.0
  0
LWPOLYLINE
  5
14D
330
1F
100
AcDbEntity
  8
1
  6
SLD-Сплошная
100
AcDbPolyline
 90
        9
 70
   128
 43
0.0
 10
1302.1625909733
 20
1289.1437084415
 10
1302.0161443639
 20
1289.0984867285
 10
1301.9037719282
 20
1288.9942468156
 10
1301.833131662
 20
1288.8380924805
 10
1301.8090375827
 20
1288.6406653832
 10
1301.833131662
 20
1288.415419854
 10
1301.9037719282
 20
1288.1777060037
 10
1302.0161443639
 20
1287.9437236381
 10
1302.1625909733
 20
1287.7294182689
  0
LINE
  5
14E
330
1F
100
AcDbEntity
  8
1
  6
SLD-Сплошная
100
AcDbLine
 10
1305.9025332717
 20
1289.4781156402
 30
0.0
 11
1302.1625909733
 21
1289.1437084415
 31
0.0
  0
LINE
  5
14F
330
1F
100
AcDbEntity
  8
1
  6
SLD-Сплошная
100
AcDbLine
 10
1307.2256551585
 20
1282.8453047288
 30
0.0
 11
1307.2256551585
 21
1287.4878669102
 31
0.0
  0
ARC
  5
150
330
1F
100
AcDbEntity
  8
1
  6
SLD-Сплошная
100
AcDbCircle
 10
1489.0307506111
 20
1091.8960025459
 30
0.0
 40
2.603316187513637
100
AcDbArc
 50
37.9787348638
 51
58.8941006487
  0
ARC
  5
151
330
1F
100
AcDbEntity
  8
1
  6
SLD-Сплошная
100
AcDbCircle
 10
1490.1336746209
 20
1092.3521947135
 30
0.0
 40
3.073609615143631
100
AcDbArc
 50
2.6054784856
 51
57.39452166
  0
SPLINE
  5
152
330
1F
100
AcDbEntity
  8
1
  6
SLD-Сплошная
100
AcDbSpline
210
0.0
220
0.0
230
1.0
 70
     8
 71
     3
 72
    12
 73
     8
 74
     0
 42
0.00000001
 43
0.00000001
 40
0.0
 40
0.0
 40
0.0
 40
0.0
 40
0.0038128522418986
 40
0.1589839410707333
 40
0.5234324970000654
 40
0.7821768889117955
 40
1.0
 40
1.0
 40
1.0
 40
1.0
 10
1492.49700004248
 20
1092.083712362151
 30
0.0
 10
1492.495780804365
 20
1092.08499864307
 30
0.0
 10
1492.444942411408
 20
1092.138632509994
 30
0.0
 10
1492.25928368334
 20
1092.325631435603
 30
0.0
 10
1491.905560049276
 20
1092.657275336723
 30
0.0
 10
1491.444556208997
 20
1093.087276101297
 30
0.0
 10
1491.196269880149
 20
1093.369161925868
 30
0.0
 10
1491.082786480107
 20
1093.498002534791
 30
0.0
  0
SPLINE
  5
153
330
1F
100
AcDbEntity
  8
1
  6
SLD-Сплошная
100
AcDbSpline
210
0.0
220
0.0
230
1.0
 70
     8
 71
     3
 72
    12
 73
     8
 74
     0
 42
0.00000001
 43
0.00000001
 40
0.0
 40
0.0
 40
0.0
 40
0.0
 40
0.2178231110882048
 40
0.4765675029999344
 40
0.8410160589292623
 40
0.9961871477580917
 40
1.0
 40
1.0
 40
1.0
 40
1.0
 10
1491.082786480104
 20
1044.943136723912
 30
0.0
 10
1491.196269880146
 20
1044.972552396275
 30
0.0
 10
1491.444556208994
 20
1045.036909908466
 30
0.0
 10
1491.905560049273
 20
1045.414936194903
 30
0.0
 10
1492.259283683336
 20
1045.883524579312
 30
0.0
 10
1492.444942411405
 20
1046.242608685835
 30
0.0
 10
1492.495780804362
 20
1046.354737747317
 30
0.0
 10
1492.497000042477
 20
1046.357426896551
 30
0.0
  0
LWPOLYLINE
  5
154
330
1F
100
AcDbEntity
  8
1
  6
SLD-Сплошная
100
AcDbPolyline
 90
        9
 70
   128
 43
0.0
 10
1488.5972525742
 20
1073.9609309221
 10
1488.9598169765
 20
1073.4547834906
 10
1489.584149312
 20
1072.3224087889
 10
1490.0049714595
 20
1071.1416326311
 10
1490.1910729653
 20
1070.0000277833
 10
1490.1286515323
 20
1068.9822618545
 10
1489.8223366725
 20
1068.1638178877
 10
1489.2948463578
 20
1067.6053961277
 10
1488.5972525742
 20
1067.3499447004
  0
ARC
  5
155
330
1F
100
AcDbEntity
  8
1
  6
SLD-Сплошная
100
AcDbCircle
 10
1491.0323025992
 20
1046.1692487514
 30
0.0
 40
1.227150897869873
100
AcDbArc
 50
237.6507184098
 51
272.3577620583
  0
LINE
  5
156
330
1F
100
AcDbEntity
  8
1
  6
SLD-Сплошная
100
AcDbLine
 10
1488.5972525742
 20
1046.1592134546
 30
0.0
 11
1490.3756796989
 21
1045.1325493287
 31
0.0
  0
LINE
  5
157
330
1F
100
AcDbEntity
  8
1
  6
SLD-Сплошная
100
AcDbLine
 10
1488.5972525742
 20
1095.1516621678
 30
0.0
 11
1490.3756796989
 21
1094.1249980418
 31
0.0
  0
LINE
  5
158
330
1F
100
AcDbEntity
  8
1
  6
SLD-Сплошная
100
AcDbLine
 10
1488.5972525742
 20
1096.7844783914
 30
0.0
 11
1491.7898932613
 21
1094.9414061537
 31
0.0
  0
LINE
  5
159
330
1F
100
AcDbEntity
  8
1
  6
SLD-Сплошная
100
AcDbLine
 10
1493.2041068237
 20
1046.7656309525
 30
0.0
 11
1493.2041068237
 21
1092.4919164181
 31
0.0
  0
ARC
  5
15A
330
1F
100
AcDbEntity
  8
1
  6
SLD-Сплошная
100
AcDbCircle
 10
1492.2527357117
 20
1046.6445028953
 30
0.0
 40
0.9590510929303151
100
AcDbArc
 50
304.0563508352
 51
7.2558295581
  0
LWPOLYLINE
  5
15B
330
1F
100
AcDbEntity
  8
1
  6
SLD-Сплошная
100
AcDbPolyline
 90
        9
 70
   128
 43
0.0
 10
1488.5566575582
 20
1328.7814437469
 10
1489.140145793
 20
1328.9791369226
 10
1489.694964513
 20
1329.5147007601
 10
1490.0185027986
 20
1330.3296134474
 10
1490.0845495021
 20
1331.357855605
 10
1489.8877539122
 20
1332.5161251685
 10
1489.4440592373
 20
1333.7105860264
 10
1488.7894109813
 20
1334.8444700636
 10
1488.5972525742
 20
1335.109380941
  0
LWPOLYLINE
  5
15C
330
1F
100
AcDbEntity
  8
1
  6
SLD-Сплошная
100
AcDbPolyline
 90
        8
 70
   128
 43
0.0
 10
1489.4229885055
 20
1329.1424185449
 10
1489.9778072255
 20
1329.6779823825
 10
1490.3013455111
 20
1330.4928950698
 10
1490.3673922145
 20
1331.5211372274
 10
1490.1705966247
 20
1332.6794067909
 10
1489.7269019498
 20
1333.8738676487
 10
1489.0722536938
 20
1335.007751686
 10
1488.5972525742
 20
1335.6231859612
  0
LWPOLYLINE
  5
15D
330
1F
100
AcDbEntity
  8
1
  6
SLD-Сплошная
100
AcDbPolyline
 90
        8
 70
   128
 43
0.0
 10
1488.5972525742
 20
1067.3893144021
 10
1488.7865924024
 20
1067.4819750911
 10
1489.3414111224
 20
1068.0175389287
 10
1489.6649494081
 20
1068.832451616
 10
1489.7309961115
 20
1069.8606937736
 10
1489.5342005216
 20
1071.0189633371
 10
1489.0905058467
 20
1072.213424195
 10
1488.6379423648
 20
1073.0409147671
  0
LWPOLYLINE
  5
15E
330
1F
100
AcDbEntity
  8
1
  6
SLD-Сплошная
100
AcDbPolyline
 90
        8
 70
   128
 43
0.0
 10
1489.0694351149
 20
1067.6452567135
 10
1489.6242538349
 20
1068.180820551
 10
1489.9477921205
 20
1068.9957332383
 10
1490.013838824
 20
1070.0239753959
 10
1489.8170432341
 20
1071.1822449595
 10
1489.3733485592
 20
1072.3767058173
 10
1488.7187003032
 20
1073.5105898546
 10
1488.5972525742
 20
1073.6807499903
  0
ARC
  5
15F
330
1F
100
AcDbEntity
  8
1
  6
SLD-Сплошная
100
AcDbCircle
 10
1489.3843040017
 20
1353.3931643773
 30
0.0
 40
2.603316187508566
100
AcDbArc
 50
37.9787348637
 51
58.8941006488
  0
ARC
  5
160
330
1F
100
AcDbEntity
  8
1
  6
SLD-Сплошная
100
AcDbCircle
 10
1490.1336746209
 20
1353.645254517
 30
0.0
 40
3.07360961514296
100
AcDbArc
 50
2.6054784856
 51
57.39452166
  0
SPLINE
  5
161
330
1F
100
AcDbEntity
  8
1
  6
SLD-Сплошная
100
AcDbSpline
210
0.0
220
0.0
230
1.0
 70
     8
 71
     3
 72
    12
 73
     8
 74
     0
 42
0.00000001
 43
0.00000001
 40
0.0
 40
0.0
 40
0.0
 40
0.0
 40
0.0038128522419083
 40
0.1589839410707364
 40
0.523432497000071
 40
0.7821768889117897
 40
1.0
 40
1.0
 40
1.0
 40
1.0
 10
1492.85055343307
 20
1353.580874193575
 30
0.0
 10
1492.849334194955
 20
1353.582160474494
 30
0.0
 10
1492.798495801998
 20
1353.635794341418
 30
0.0
 10
1492.612837073929
 20
1353.822793267027
 30
0.0
 10
1492.259113439866
 20
1354.154437168147
 30
0.0
 10
1491.798109599587
 20
1354.584437932721
 30
0.0
 10
1491.549823270739
 20
1354.866323757291
 30
0.0
 10
1491.436339870697
 20
1354.995164366215
 30
0.0
  0
SPLINE
  5
162
330
1F
100
AcDbEntity
  8
1
  6
SLD-Сплошная
100
AcDbSpline
210
0.0
220
0.0
230
1.0
 70
     8
 71
     3
 72
    12
 73
     8
 74
     0
 42
0.00000001
 43
0.00000001
 40
0.0
 40
0.0
 40
0.0
 40
0.0
 40
0.2178231110882009
 40
0.4765675029999264
 40
0.8410160589292643
 40
0.9961871477581015
 40
1.0
 40
1.0
 40
1.0
 40
1.0
 10
1491.4363398707
 20
1306.440298555331
 30
0.0
 10
1491.549823270743
 20
1306.469714227695
 30
0.0
 10
1491.79810959959
 20
1306.534071739886
 30
0.0
 10
1492.25911343987
 20
1306.912098026323
 30
0.0
 10
1492.612837073932
 20
1307.380686410733
 30
0.0
 10
1492.798495802001
 20
1307.739770517255
 30
0.0
 10
1492.849334194959
 20
1307.851899578736
 30
0.0
 10
1492.850553433073
 20
1307.854588727971
 30
0.0
  0
ARC
  5
163
330
1F
100
AcDbEntity
  8
1
  6
SLD-Сплошная
100
AcDbCircle
 10
1491.3858559898
 20
1307.6664105828
 30
0.0
 40
1.22715089786682
100
AcDbArc
 50
237.6507184097
 51
272.3577620584
  0
LINE
  5
164
330
1F
100
AcDbEntity
  8
1
  6
SLD-Сплошная
100
AcDbLine
 10
1488.5972525742
 20
1307.860477314
 30
0.0
 11
1490.7292330895
 21
1306.6297111601
 31
0.0
  0
LINE
  5
165
330
1F
100
AcDbEntity
  8
1
  6
SLD-Сплошная
100
AcDbLine
 10
1488.5972525742
 20
1356.8529260272
 30
0.0
 11
1490.7292330895
 21
1355.6221598733
 31
0.0
  0
LINE
  5
166
330
1F
100
AcDbEntity
  8
1
  6
SLD-Сплошная
100
AcDbLine
 10
1488.5972525742
 20
1358.0775381949
 30
0.0
 11
1491.7898932613
 21
1356.2344659571
 31
0.0
  0
LINE
  5
167
330
1F
100
AcDbEntity
  8
1
  6
SLD-Сплошная
100
AcDbLine
 10
1493.2041068237
 20
1308.0586907559
 30
0.0
 11
1493.2041068237
 21
1353.7849762215
 31
0.0
  0
ARC
  5
168
330
1F
100
AcDbEntity
  8
1
  6
SLD-Сплошная
100
AcDbCircle
 10
1492.2527357127
 20
1307.9375626984
 30
0.0
 40
0.9590510920488494
100
AcDbArc
 50
304.0563508029
 51
7.2558295905
  0
ARC
  5
169
330
1F
100
AcDbEntity
  8
1
  6
SLD-Сплошная
100
AcDbCircle
 10
1433.9219223236
 20
1043.8084646265
 30
0.0
 40
0.7516097582274512
100
AcDbArc
 50
181.9348970356
 51
238.0597264342
  0
ARC
  5
16A
330
1F
100
AcDbEntity
  8
1
  6
SLD-Сплошная
100
AcDbCircle
 10
1558.9289505438
 20
1064.3363184194
 30
0.0
 40
0.743483706945822
100
AcDbArc
 50
301.6059118635
 51
358.3996484719
  0
LINE
  5
16B
330
1F
100
AcDbEntity
  8
0
  6
SLD-Сплошная
 62
     8
370
    18
100
AcDbLine
 10
1497.4467475108
 20
1401.9610168228
 30
0.0
 11
1497.4467475108
 21
996.9567741275
 31
0.0
  0
LINE
  5
16C
330
1F
100
AcDbEntity
  8
0
  6
SLD-Сплошная
 62
     8
370
    18
100
AcDbLine
 10
1494.618320386
 20
997.014512282
 30
0.0
 11
1494.618320386
 21
1401.9032786683
 31
0.0
  0
LINE
  5
16D
330
1F
100
AcDbEntity
  8
0
  6
SLD-Сплошная
 62
     8
370
    18
100
AcDbLine
 10
1286.7289267172
 20
1525.2389071082
 30
0.0
 11
1496.0325339484
 21
1404.4105065584
 31
0.0
  0
LINE
  5
16E
330
1F
100
AcDbEntity
  8
0
  6
SLD-Сплошная
 62
     8
370
    18
100
AcDbLine
 10
1494.5683203861
 20
1401.9898812084
 30
0.0
 11
1285.3647131548
 21
1522.760552987
 31
0.0
  0
LINE
  5
16F
330
1F
100
AcDbEntity
  8
0
  6
SLD-Сплошная
 62
     8
370
    18
100
AcDbLine
 10
1615.8871333595
 20
1473.6010940354
 30
0.0
 11
1496.0325339484
 21
1404.4105065584
 31
0.0
  0
LINE
  5
170
330
1F
100
AcDbEntity
  8
0
  6
SLD-Сплошная
 62
     8
370
    18
100
AcDbLine
 10
1617.3013469219
 20
1471.1516042998
 30
0.0
 11
1497.4467475108
 21
1401.9610168228
 31
0.0
  0
LINE
  5
171
330
1F
100
AcDbEntity
  8
0
  6
SLD-Сплошная
 62
     8
370
    18
100
AcDbLine
 10
1617.3013469219
 20
1471.1516042998
 30
0.0
 11
1617.3013469219
 21
1066.1473616045
 31
0.0
  0
LINE
  5
172
330
1F
100
AcDbEntity
  8
0
  6
SLD-Сплошная
 62
     8
370
    18
100
AcDbLine
 10
1617.3013469219
 20
1066.1473616045
 30
0.0
 11
1497.4467475108
 21
996.9567741275
 31
0.0
  0
LINE
  5
173
330
1F
100
AcDbEntity
  8
0
  6
SLD-Сплошная
 62
     8
370
    18
100
AcDbLine
 10
1406.5835261283
 20
1594.4294945852
 30
0.0
 11
1286.7289267172
 21
1525.2389071082
 31
0.0
  0
LINE
  5
174
330
1F
100
AcDbEntity
  8
0
  6
SLD-Сплошная
 62
     8
370
    18
100
AcDbLine
 10
1406.5835261283
 20
1594.4294945852
 30
0.0
 11
1615.8871333595
 21
1473.6010940354
 31
0.0
  0
LINE
  5
175
330
1F
100
AcDbEntity
  8
0
  6
SLD-Сплошная
 62
     8
370
    18
100
AcDbLine
 10
1481.8764023863
 20
1395.4355757105
 30
0.0
 11
1481.4764963054
 21
1395.6664365769
 31
0.0
  0
LINE
  5
176
330
1F
100
AcDbEntity
  8
0
  6
SLD-Сплошная
 62
     8
370
    18
100
AcDbLine
 10
1480.4261847623
 20
1394.6398196009
 30
0.0
 11
1480.062167809
 21
1394.849962115
 31
0.0
  0
LINE
  5
177
330
1F
100
AcDbEntity
  8
0
  6
SLD-Сплошная
 62
     8
370
    18
100
AcDbLine
 10
1480.4261847623
 20
1394.5983828963
 30
0.0
 11
1480.4261847623
 21
1394.6398196009
 31
0.0
  0
LINE
  5
178
330
1F
100
AcDbEntity
  8
0
  6
SLD-Сплошная
 62
     8
370
    18
100
AcDbLine
 10
1285.3147131548
 20
1522.7316792181
 30
0.0
 11
1285.3147131548
 21
1516.8989965389
 31
0.0
  0
LINE
  5
179
330
1F
100
AcDbEntity
  8
0
  6
SLD-Сплошная
 62
     8
370
    18
100
AcDbLine
 10
1494.5683203861
 20
996.9856385131
 30
0.0
 11
1488.5972525742
 21
1000.4326625889
 31
0.0
  0
LINE
  5
17A
330
1F
100
AcDbEntity
  8
0
  6
SLD-Сплошная
 62
     8
370
    18
100
AcDbLine
 10
1477.5063362813
 20
1392.0963821352
 30
0.0
 11
1477.5063362813
 21
988.370585488
 31
0.0
  0
LINE
  5
17B
330
1F
100
AcDbEntity
  8
0
  6
SLD-Сплошная
 62
     8
370
    18
100
AcDbLine
 10
1473.6879596629
 20
1390.9392153731
 30
0.0
 11
1473.6879596629
 21
989.5277522501
 31
0.0
  0
LINE
  5
17C
330
1F
100
AcDbEntity
  8
0
  6
SLD-Сплошная
 62
     8
370
    18
100
AcDbLine
 10
1477.5063362813
 20
1392.0963821352
 30
0.0
 11
1476.7992295001
 21
1392.5045861911
 31
0.0
  0
LINE
  5
17D
330
1F
100
AcDbEntity
  8
0
  6
SLD-Сплошная
 62
     8
370
    18
100
AcDbLine
 10
1476.5992295001
 20
1393.6675371636
 30
0.0
 11
1476.5992295001
 21
1392.8509963517
 31
0.0
  0
LINE
  5
17E
330
1F
100
AcDbEntity
  8
0
  6
SLD-Сплошная
 62
     8
370
    18
100
AcDbLine
 10
1268.9098358313
 20
1509.155109965
 30
0.0
 11
1473.6879596629
 21
1390.9392153731
 31
0.0
  0
LINE
  5
17F
330
1F
100
AcDbEntity
  8
0
  6
SLD-Сплошная
 62
     8
370
    18
100
AcDbLine
 10
1269.8169426125
 20
1513.0404104607
 30
0.0
 11
1476.5992295001
 21
1393.6675371636
 31
0.0
  0
LINE
  5
180
330
1F
100
AcDbEntity
  8
0
  6
SLD-Сплошная
 62
     8
370
    18
100
AcDbLine
 10
1488.2897146944
 20
1398.3214939879
 30
0.0
 11
1488.2897146944
 21
994.5956973406
 31
0.0
  0
LINE
  5
181
330
1F
100
AcDbEntity
  8
0
  6
SLD-Сплошная
 62
     8
370
    18
100
AcDbLine
 10
1280.6003210256
 20
1519.2655223134
 30
0.0
 11
1487.3826079132
 21
1399.8926490162
 31
0.0
  0
LINE
  5
182
330
1F
100
AcDbEntity
  8
0
  6
SLD-Сплошная
 62
     8
370
    18
100
AcDbLine
 10
1268.9098358313
 20
1107.743646842
 30
0.0
 11
1473.6879596629
 21
989.5277522501
 31
0.0
  0
LINE
  5
183
330
1F
100
AcDbEntity
  8
0
  6
SLD-Сплошная
 62
     8
370
    18
100
AcDbLine
 10
1268.9098358313
 20
1509.155109965
 30
0.0
 11
1268.9098358313
 21
1107.743646842
 31
0.0
  0
LINE
  5
184
330
1F
100
AcDbEntity
  8
0
  6
SLD-Сплошная
 62
     8
370
    18
100
AcDbLine
 10
1268.9098358313
 20
1512.5165786291
 30
0.0
 11
1269.1454682273
 21
1512.3805509422
 31
0.0
  0
LINE
  5
185
330
1F
100
AcDbEntity
  8
0
  6
SLD-Сплошная
 62
     8
370
    18
100
AcDbLine
 10
1476.5992295001
 20
987.8467536563
 30
0.0
 11
1476.5992295001
 21
988.1190710685
 31
0.0
  0
LINE
  5
186
330
1F
100
AcDbEntity
  8
0
  6
SLD-Сплошная
 62
     8
370
    18
100
AcDbLine
 10
1307.2256551585
 20
1282.8453047288
 30
0.0
 11
1308.5955393345
 21
1283.6361220306
 31
0.0
  0
LINE
  5
187
330
1F
100
AcDbEntity
  8
0
  6
SLD-Сплошная
 62
     8
370
    18
100
AcDbLine
 10
1303.8596472481
 20
1290.1233981757
 30
0.0
 11
1302.1625909733
 21
1289.1437084415
 31
0.0
  0
LINE
  5
188
330
1F
100
AcDbEntity
  8
0
  6
SLD-Сплошная
 62
     8
370
    18
100
AcDbLine
 10
1490.3756796989
 20
1094.1249980418
 30
0.0
 11
1491.7898932613
 21
1094.9414061537
 31
0.0
  0
LINE
  5
189
330
1F
100
AcDbEntity
  8
0
  6
SLD-Сплошная
 62
     8
370
    18
100
AcDbLine
 10
1493.2041068237
 20
1092.4919164181
 30
0.0
 11
1492.4970000425
 21
1092.0837123622
 31
0.0
  0
LINE
  5
18A
330
1F
100
AcDbEntity
  8
0
  6
SLD-Сплошная
 62
     8
370
    18
100
AcDbLine
 10
1491.0827864801
 20
1093.4980025348
 30
0.0
 11
1491.0827864801
 21
1044.9431367239
 31
0.0
  0
LINE
  5
18B
330
1F
100
AcDbEntity
  8
0
  6
SLD-Сплошная
 62
     8
370
    18
100
AcDbLine
 10
1492.4970000425
 20
1092.0837123622
 30
0.0
 11
1492.4970000425
 21
1046.3574268966
 31
0.0
  0
LINE
  5
18C
330
1F
100
AcDbEntity
  8
0
  6
SLD-Сплошная
 62
     8
370
    18
100
AcDbLine
 10
1492.4970000425
 20
1046.3574268966
 30
0.0
 11
1493.2041068237
 21
1046.7656309525
 31
0.0
  0
LINE
  5
18D
330
1F
100
AcDbEntity
  8
0
  6
SLD-Сплошная
 62
     8
370
    18
100
AcDbLine
 10
1490.7292330895
 20
1355.6221598733
 30
0.0
 11
1491.7898932613
 21
1356.2344659571
 31
0.0
  0
LINE
  5
18E
330
1F
100
AcDbEntity
  8
0
  6
SLD-Сплошная
 62
     8
370
    18
100
AcDbLine
 10
1493.2041068237
 20
1353.7849762215
 30
0.0
 11
1492.8505534331
 21
1353.5808741936
 31
0.0
  0
LINE
  5
18F
330
1F
100
AcDbEntity
  8
0
  6
SLD-Сплошная
 62
     8
370
    18
100
AcDbLine
 10
1491.4363398707
 20
1354.9951643662
 30
0.0
 11
1491.4363398707
 21
1306.4402985553
 31
0.0
  0
LINE
  5
190
330
1F
100
AcDbEntity
  8
0
  6
SLD-Сплошная
 62
     8
370
    18
100
AcDbLine
 10
1492.8505534331
 20
1353.5808741936
 30
0.0
 11
1492.8505534331
 21
1307.854588728
 31
0.0
  0
LINE
  5
191
330
1F
100
AcDbEntity
  8
0
  6
SLD-Сплошная
 62
     8
370
    18
100
AcDbLine
 10
1492.8505534331
 20
1307.854588728
 30
0.0
 11
1493.2041068237
 21
1308.0586907559
 31
0.0
  0
LINE
  5
192
330
1F
100
AcDbEntity
  8
1
  6
SLD-Сплошная
100
AcDbLine
 10
645.3857448785
 20
1399.8600778225
 30
0.0
 11
937.8251094534
 21
1399.8600778225
 31
0.0
  0
LINE
  5
193
330
1F
100
AcDbEntity
  8
1
  6
SLD-Сплошная
100
AcDbLine
 10
657.9554271659
 20
1392.7600778225
 30
0.0
 11
657.9554271659
 21
1393.9254538612
 31
0.0
  0
LINE
  5
194
330
1F
100
AcDbEntity
  8
1
  6
SLD-Сплошная
100
AcDbLine
 10
647.8554271659
 20
1393.9254538612
 30
0.0
 11
647.8554271659
 21
1392.7600778225
 31
0.0
  0
ARC
  5
195
330
1F
100
AcDbEntity
  8
1
  6
SLD-Сплошная
100
AcDbCircle
 10
657.7554271659
 20
1393.9254538612
 30
0.0
 40
0.2000000000001625
100
AcDbArc
 50
0.0
 51
68.1849373759
  0
ARC
  5
196
330
1F
100
AcDbEntity
  8
1
  6
SLD-Сплошная
100
AcDbCircle
 10
648.0554271659
 20
1393.9254538612
 30
0.0
 40
0.2000000000001203
100
AcDbArc
 50
111.8150626241
 51
180.0
  0
ARC
  5
197
330
1F
100
AcDbEntity
  8
1
  6
SLD-Сплошная
100
AcDbCircle
 10
652.9054271659
 20
1381.8088278225
 30
0.0
 40
13.25125000000011
100
AcDbArc
 50
68.1849373759
 51
90.0
  0
ARC
  5
198
330
1F
100
AcDbEntity
  8
1
  6
SLD-Сплошная
100
AcDbCircle
 10
652.9054271659
 20
1381.8088278225
 30
0.0
 40
13.25125000000011
100
AcDbArc
 50
90.0
 51
111.8150626241
  0
LWPOLYLINE
  5
199
330
1F
100
AcDbEntity
  8
1
  6
SLD-Сплошная
100
AcDbPolyline
 90
        3
 70
   128
 43
0.0
 10
938.005427166
 20
1409.7200457717
 10
938.0250132294
 20
1409.7704959381
 10
938.105427166
 20
1410.0178963532
  0
LWPOLYLINE
  5
19A
330
1F
100
AcDbEntity
  8
1
  6
SLD-Сплошная
100
AcDbPolyline
 90
        3
 70
   128
 43
0.0
 10
938.105427166
 20
1411.5022592917
 10
938.0250132294
 20
1411.7496597068
 10
938.005427166
 20
1411.8001098732
  0
LINE
  5
19B
330
1F
100
AcDbEntity
  8
1
  6
SLD-Сплошная
100
AcDbLine
 10
713.1054271659
 20
1418.8600778225
 30
0.0
 11
713.1054271659
 21
1419.8600778225
 31
0.0
  0
LINE
  5
19C
330
1F
100
AcDbEntity
  8
1
  6
SLD-Сплошная
100
AcDbLine
 10
685.1054271659
 20
1419.8600778225
 30
0.0
 11
685.1054271659
 21
1418.8600778225
 31
0.0
  0
LINE
  5
19D
330
1F
100
AcDbEntity
  8
1
  6
SLD-Сплошная
100
AcDbLine
 10
713.1054271659
 20
1419.8600778225
 30
0.0
 11
710.1054271659
 21
1422.8600778225
 31
0.0
  0
LINE
  5
19E
330
1F
100
AcDbEntity
  8
1
  6
SLD-Сплошная
100
AcDbLine
 10
688.1054271659
 20
1422.8600778225
 30
0.0
 11
685.1054271659
 21
1419.8600778225
 31
0.0
  0
LINE
  5
19F
330
1F
100
AcDbEntity
  8
1
  6
SLD-Сплошная
100
AcDbLine
 10
926.3054271659
 20
1394.8600778225
 30
0.0
 11
926.4054271659
 21
1394.7600778225
 31
0.0
  0
LINE
  5
1A0
330
1F
100
AcDbEntity
  8
1
  6
SLD-Сплошная
100
AcDbLine
 10
935.4054271659
 20
1394.7600778225
 30
0.0
 11
935.5054271659
 21
1394.8600778225
 31
0.0
  0
LINE
  5
1A1
330
1F
100
AcDbEntity
  8
1
  6
SLD-Сплошная
100
AcDbLine
 10
926.3054271659
 20
1395.2600778225
 30
0.0
 11
926.3054271659
 21
1394.8600778225
 31
0.0
  0
LINE
  5
1A2
330
1F
100
AcDbEntity
  8
1
  6
SLD-Сплошная
100
AcDbLine
 10
935.5054271659
 20
1394.8600778225
 30
0.0
 11
935.5054271659
 21
1395.2600778225
 31
0.0
  0
LINE
  5
1A3
330
1F
100
AcDbEntity
  8
1
  6
SLD-Сплошная
100
AcDbLine
 10
643.0054271659
 20
1356.7600778225
 30
0.0
 11
642.9054271659
 21
1356.7600778225
 31
0.0
  0
LINE
  5
1A4
330
1F
100
AcDbEntity
  8
1
  6
SLD-Сплошная
100
AcDbLine
 10
642.9054271659
 20
1348.7600778225
 30
0.0
 11
643.0054271659
 21
1348.7600778225
 31
0.0
  0
LINE
  5
1A5
330
1F
100
AcDbEntity
  8
1
  6
SLD-Сплошная
100
AcDbLine
 10
642.9054271659
 20
1299.2100778225
 30
0.0
 11
643.0054271659
 21
1299.2100778225
 31
0.0
  0
LINE
  5
1A6
330
1F
100
AcDbEntity
  8
1
  6
SLD-Сплошная
100
AcDbLine
 10
643.0054271659
 20
1306.3100778225
 30
0.0
 11
642.9054271659
 21
1306.3100778225
 31
0.0
  0
LINE
  5
1A7
330
1F
100
AcDbEntity
  8
1
  6
SLD-Сплошная
100
AcDbLine
 10
896.9054271659
 20
1365.5100778225
 30
0.0
 11
686.9054271659
 21
1365.5100778225
 31
0.0
  0
ARC
  5
1A8
330
1F
100
AcDbEntity
  8
1
  6
SLD-Сплошная
100
AcDbCircle
 10
896.9054271659
 20
1348.0100778225
 30
0.0
 40
17.5
100
AcDbArc
 50
0.0
 51
90.0
  0
LINE
  5
1A9
330
1F
100
AcDbEntity
  8
1
  6
SLD-Сплошная
100
AcDbLine
 10
914.4054271659
 20
1263.0100778225
 30
0.0
 11
914.4054271659
 21
1348.0100778225
 31
0.0
  0
ARC
  5
1AA
330
1F
100
AcDbEntity
  8
1
  6
SLD-Сплошная
100
AcDbCircle
 10
896.9054271659
 20
1263.0100778225
 30
0.0
 40
17.5
100
AcDbArc
 50
270.0
 51
0.0
  0
LINE
  5
1AB
330
1F
100
AcDbEntity
  8
1
  6
SLD-Сплошная
100
AcDbLine
 10
686.9054271659
 20
1245.5100778225
 30
0.0
 11
896.9054271659
 21
1245.5100778225
 31
0.0
  0
ARC
  5
1AC
330
1F
100
AcDbEntity
  8
1
  6
SLD-Сплошная
100
AcDbCircle
 10
686.9054271659
 20
1263.0100778225
 30
0.0
 40
17.5
100
AcDbArc
 50
180.0
 51
270.0
  0
LINE
  5
1AD
330
1F
100
AcDbEntity
  8
1
  6
SLD-Сплошная
100
AcDbLine
 10
669.4054271659
 20
1348.0100778225
 30
0.0
 11
669.4054271659
 21
1263.0100778225
 31
0.0
  0
ARC
  5
1AE
330
1F
100
AcDbEntity
  8
1
  6
SLD-Сплошная
100
AcDbCircle
 10
686.9054271659
 20
1348.0100778225
 30
0.0
 40
17.5
100
AcDbArc
 50
90.0
 51
180.0
  0
LINE
  5
1AF
330
1F
100
AcDbEntity
  8
1
  6
SLD-Сплошная
100
AcDbLine
 10
643.9054271659
 20
1221.2600778225
 30
0.0
 11
643.0054271659
 21
1221.2600778225
 31
0.0
  0
LINE
  5
1B0
330
1F
100
AcDbEntity
  8
1
  6
SLD-Сплошная
100
AcDbLine
 10
643.0054271659
 20
1221.2600778225
 30
0.0
 11
643.0054271659
 21
1390.7600778225
 31
0.0
  0
LINE
  5
1B1
330
1F
100
AcDbEntity
  8
1
  6
SLD-Сплошная
100
AcDbLine
 10
643.0054271659
 20
1390.7600778225
 30
0.0
 11
643.9054271659
 21
1390.7600778225
 31
0.0
  0
ELLIPSE
  5
1B2
330
1F
100
AcDbEntity
  8
1
  6
SLD-Сплошная
100
AcDbEllipse
 10
644.476137844
 20
1221.2600778225
 30
0.0
 11
0.0
 21
2.499999999999773
 31
0.0
210
0.0
220
0.0
230
1.0
 40
0.6
 41
2.751284095301562
 42
3.141592653589793
  0
LINE
  5
1B3
330
1F
100
AcDbEntity
  8
1
  6
SLD-Сплошная
100
AcDbLine
 10
643.9054271659
 20
1221.2600778225
 30
0.0
 11
643.9054271659
 21
1218.9480985586
 31
0.0
  0
LINE
  5
1B4
330
1F
100
AcDbEntity
  8
1
  6
SLD-Сплошная
100
AcDbLine
 10
643.9054271659
 20
1221.2600778225
 30
0.0
 11
645.0054271659
 21
1221.2600778225
 31
0.0
  0
ELLIPSE
  5
1B5
330
1F
100
AcDbEntity
  8
1
  6
SLD-Сплошная
100
AcDbEllipse
 10
939.3347164879
 20
1221.2600778225
 30
0.0
 11
0.0
 21
2.499999999999773
 31
0.0
210
0.0
220
0.0
230
1.0
 40
0.6
 41
3.141592653589718
 42
3.531901211843773
  0
LINE
  5
1B6
330
1F
100
AcDbEntity
  8
1
  6
SLD-Сплошная
100
AcDbLine
 10
644.476137844
 20
1218.7600778225
 30
0.0
 11
939.3347164879
 21
1218.7600778225
 31
0.0
  0
LINE
  5
1B7
330
1F
100
AcDbEntity
  8
1
  6
SLD-Сплошная
100
AcDbLine
 10
939.9054271659
 20
1218.9480985586
 30
0.0
 11
939.9054271659
 21
1221.2600778225
 31
0.0
  0
LINE
  5
1B8
330
1F
100
AcDbEntity
  8
1
  6
SLD-Сплошная
100
AcDbLine
 10
941.9054271659
 20
1221.2600778225
 30
0.0
 11
941.9054271659
 21
1390.7600778225
 31
0.0
  0
LINE
  5
1B9
330
1F
100
AcDbEntity
  8
1
  6
SLD-Сплошная
100
AcDbLine
 10
939.9054271659
 20
1390.7600778225
 30
0.0
 11
941.9054271659
 21
1390.7600778225
 31
0.0
  0
LINE
  5
1BA
330
1F
100
AcDbEntity
  8
1
  6
SLD-Сплошная
100
AcDbLine
 10
939.9054271659
 20
1221.2600778225
 30
0.0
 11
941.9054271659
 21
1221.2600778225
 31
0.0
  0
LINE
  5
1BB
330
1F
100
AcDbEntity
  8
1
  6
SLD-Сплошная
100
AcDbLine
 10
939.8347164879
 20
1392.7600778225
 30
0.0
 11
643.976137844
 21
1392.7600778225
 31
0.0
  0
LINE
  5
1BC
330
1F
100
AcDbEntity
  8
1
  6
SLD-Сплошная
100
AcDbLine
 10
939.8347164879
 20
1392.7600778225
 30
0.0
 11
939.905427166
 21
1390.7600778225
 31
0.0
  0
LINE
  5
1BD
330
1F
100
AcDbEntity
  8
1
  6
SLD-Сплошная
100
AcDbLine
 10
643.9054271659
 20
1390.7600778225
 30
0.0
 11
645.0054271659
 21
1390.7600778225
 31
0.0
  0
LINE
  5
1BE
330
1F
100
AcDbEntity
  8
1
  6
SLD-Сплошная
100
AcDbLine
 10
643.905427166
 20
1390.7600778225
 30
0.0
 11
643.976137844
 21
1392.7600778225
 31
0.0
  0
ARC
  5
1BF
330
1F
100
AcDbEntity
  8
1
  6
SLD-Сплошная
100
AcDbCircle
 10
939.4054271659
 20
1221.2600778225
 30
0.0
 40
2.500000000000083
100
AcDbArc
 50
292.3630330978
 51
0.0
  0
LINE
  5
1C0
330
1F
100
AcDbEntity
  8
1
  6
SLD-Сплошная
100
AcDbLine
 10
940.3566116294
 20
1218.9480985586
 30
0.0
 11
939.976137844
 21
1219.8728902641
 31
0.0
  0
ARC
  5
1C1
330
1F
100
AcDbEntity
  8
1
  6
SLD-Сплошная
100
AcDbCircle
 10
939.4054271659
 20
1221.2600778225
 30
0.0
 40
1.500000000000068
100
AcDbArc
 50
292.3630330978
 51
0.0
  0
LINE
  5
1C2
330
1F
100
AcDbEntity
  8
1
  6
SLD-Сплошная
100
AcDbLine
 10
643.4542427025
 20
1218.9480985586
 30
0.0
 11
643.8347164879
 21
1219.8728902642
 31
0.0
  0
ARC
  5
1C3
330
1F
100
AcDbEntity
  8
1
  6
SLD-Сплошная
100
AcDbCircle
 10
644.4054271659
 20
1221.2600778225
 30
0.0
 40
2.500000000000206
100
AcDbArc
 50
180.0
 51
247.6369669017
  0
ARC
  5
1C4
330
1F
100
AcDbEntity
  8
1
  6
SLD-Сплошная
100
AcDbCircle
 10
644.4054271659
 20
1221.2600778225
 30
0.0
 40
1.500000000000341
100
AcDbArc
 50
180.0
 51
247.6369669017
  0
LINE
  5
1C5
330
1F
100
AcDbEntity
  8
1
  6
SLD-Сплошная
100
AcDbLine
 10
644.4054271659
 20
1218.7600778225
 30
0.0
 11
644.4054271659
 21
1218.7628571452
 31
0.0
  0
ARC
  5
1C6
330
1F
100
AcDbEntity
  8
1
  6
SLD-Сплошная
100
AcDbCircle
 10
644.4054271659
 20
1221.2600778225
 30
0.0
 40
2.500000000000206
100
AcDbArc
 50
247.6369669017
 51
270.0
  0
LINE
  5
1C7
330
1F
100
AcDbEntity
  8
1
  6
SLD-Сплошная
100
AcDbLine
 10
642.9054271659
 20
1390.7600778225
 30
0.0
 11
641.9054271659
 21
1390.7600778225
 31
0.0
  0
LINE
  5
1C8
330
1F
100
AcDbEntity
  8
1
  6
SLD-Сплошная
100
AcDbLine
 10
642.9054271659
 20
1221.2600778225
 30
0.0
 11
642.9054271659
 21
1390.7600778225
 31
0.0
  0
LINE
  5
1C9
330
1F
100
AcDbEntity
  8
1
  6
SLD-Сплошная
100
AcDbLine
 10
641.9054271659
 20
1221.2600778225
 30
0.0
 11
641.9054271659
 21
1390.7600778225
 31
0.0
  0
LINE
  5
1CA
330
1F
100
AcDbEntity
  8
1
  6
SLD-Сплошная
100
AcDbLine
 10
939.4054271659
 20
1218.7600778225
 30
0.0
 11
939.4054271659
 21
1218.7628571452
 31
0.0
  0
ARC
  5
1CB
330
1F
100
AcDbEntity
  8
1
  6
SLD-Сплошная
100
AcDbCircle
 10
939.4054271659
 20
1221.2600778225
 30
0.0
 40
2.500000000000083
100
AcDbArc
 50
270.0
 51
292.3630330978
  0
ARC
  5
1CC
330
1F
100
AcDbEntity
  8
1
  6
SLD-Сплошная
100
AcDbCircle
 10
643.9054271659
 20
1390.7600778225
 30
0.0
 40
2.000000000000227
100
AcDbArc
 50
90.0
 51
180.0
  0
LINE
  5
1CD
330
1F
100
AcDbEntity
  8
1
  6
SLD-Сплошная
100
AcDbLine
 10
643.9054271659
 20
1391.7600778225
 30
0.0
 11
643.9054271659
 21
1392.7600778225
 31
0.0
  0
ARC
  5
1CE
330
1F
100
AcDbEntity
  8
1
  6
SLD-Сплошная
100
AcDbCircle
 10
643.9054271659
 20
1390.7600778225
 30
0.0
 40
1.000000000000227
100
AcDbArc
 50
90.0
 51
180.0
  0
ARC
  5
1CF
330
1F
100
AcDbEntity
  8
1
  6
SLD-Сплошная
100
AcDbCircle
 10
939.9054271659
 20
1390.7600778225
 30
0.0
 40
2.000000000000227
100
AcDbArc
 50
0.0
 51
90.0
  0
LINE
  5
1D0
330
1F
100
AcDbEntity
  8
1
  6
SLD-Сплошная
100
AcDbLine
 10
939.9054271659
 20
1391.7600778225
 30
0.0
 11
939.9054271659
 21
1392.7600778225
 31
0.0
  0
ARC
  5
1D1
330
1F
100
AcDbEntity
  8
1
  6
SLD-Сплошная
100
AcDbCircle
 10
939.9054271659
 20
1390.7600778225
 30
0.0
 40
1.000000000000227
100
AcDbArc
 50
0.0
 51
90.0
  0
LINE
  5
1D2
330
1F
100
AcDbEntity
  8
1
  6
SLD-Сплошная
100
AcDbLine
 10
643.940782505
 20
1391.7600778225
 30
0.0
 11
643.9054271659
 21
1391.7600778225
 31
0.0
  0
LINE
  5
1D3
330
1F
100
AcDbEntity
  8
1
  6
SLD-Сплошная
100
AcDbLine
 10
643.976137844
 20
1392.7600778225
 30
0.0
 11
643.9054271659
 21
1392.7600778225
 31
0.0
  0
LINE
  5
1D4
330
1F
100
AcDbEntity
  8
1
  6
SLD-Сплошная
100
AcDbLine
 10
939.9054271659
 20
1392.7600778225
 30
0.0
 11
939.8347164879
 21
1392.7600778225
 31
0.0
  0
LINE
  5
1D5
330
1F
100
AcDbEntity
  8
1
  6
SLD-Сплошная
100
AcDbLine
 10
939.9054271659
 20
1391.7600778225
 30
0.0
 11
939.8700718269
 21
1391.7600778225
 31
0.0
  0
LINE
  5
1D6
330
1F
100
AcDbEntity
  8
1
  6
SLD-Сплошная
100
AcDbLine
 10
939.4054271659
 20
1218.7600778225
 30
0.0
 11
939.3347164879
 21
1218.7600778225
 31
0.0
  0
LINE
  5
1D7
330
1F
100
AcDbEntity
  8
1
  6
SLD-Сплошная
100
AcDbLine
 10
644.476137844
 20
1218.7600778225
 30
0.0
 11
644.4054271659
 21
1218.7600778225
 31
0.0
  0
ELLIPSE
  5
1D8
330
1F
100
AcDbEntity
  8
1
  6
SLD-Сплошная
100
AcDbEllipse
 10
922.8347164879
 20
1393.7600778225
 30
0.0
 11
2.000000000000114
 21
0.0
 31
0.0
210
0.0
220
0.0
230
1.0
 40
0.5
 41
3.141592653589793
 42
4.712388980384697
  0
ELLIPSE
  5
1D9
330
1F
100
AcDbEntity
  8
1
  6
SLD-Сплошная
100
AcDbEllipse
 10
660.976137844
 20
1393.7600778225
 30
0.0
 11
2.000000000000114
 21
0.0
 31
0.0
210
0.0
220
0.0
230
1.0
 40
0.5
 41
4.712388980384697
 42
6.283185307179586
  0
ARC
  5
1DA
330
1F
100
AcDbEntity
  8
1
  6
SLD-Сплошная
100
AcDbCircle
 10
660.9054271659
 20
1393.7600778225
 30
0.0
 40
1.0
100
AcDbArc
 50
270.0
 51
0.0
  0
ARC
  5
1DB
330
1F
100
AcDbEntity
  8
1
  6
SLD-Сплошная
100
AcDbCircle
 10
660.9054271659
 20
1393.7600778225
 30
0.0
 40
1.999999999999958
100
AcDbArc
 50
351.2995225116
 51
0.0
  0
ARC
  5
1DC
330
1F
100
AcDbEntity
  8
1
  6
SLD-Сплошная
100
AcDbCircle
 10
922.9054271659
 20
1393.7600778225
 30
0.0
 40
1.0
100
AcDbArc
 50
180.0
 51
270.0
  0
ARC
  5
1DD
330
1F
100
AcDbEntity
  8
1
  6
SLD-Сплошная
100
AcDbCircle
 10
922.9054271659
 20
1393.7600778225
 30
0.0
 40
2.0
100
AcDbArc
 50
180.0
 51
188.7004774916
  0
LINE
  5
1DE
330
1F
100
AcDbEntity
  8
1
  6
SLD-Сплошная
100
AcDbLine
 10
920.8347164879
 20
1393.7600778225
 30
0.0
 11
920.8347164879
 21
1399.8600778225
 31
0.0
  0
LINE
  5
1DF
330
1F
100
AcDbEntity
  8
1
  6
SLD-Сплошная
100
AcDbLine
 10
662.976137844
 20
1399.8600778225
 30
0.0
 11
662.976137844
 21
1393.7600778225
 31
0.0
  0
LINE
  5
1E0
330
1F
100
AcDbEntity
  8
1
  6
SLD-Сплошная
100
AcDbLine
 10
662.9054271659
 20
1393.7600778225
 30
0.0
 11
662.9054271659
 21
1399.8600778225
 31
0.0
  0
LINE
  5
1E1
330
1F
100
AcDbEntity
  8
1
  6
SLD-Сплошная
100
AcDbLine
 10
661.9054271659
 20
1393.7600778225
 30
0.0
 11
661.9054271659
 21
1399.8600778225
 31
0.0
  0
LINE
  5
1E2
330
1F
100
AcDbEntity
  8
1
  6
SLD-Сплошная
100
AcDbLine
 10
920.9054271659
 20
1399.8600778225
 30
0.0
 11
920.9054271659
 21
1393.7600778225
 31
0.0
  0
LINE
  5
1E3
330
1F
100
AcDbEntity
  8
1
  6
SLD-Сплошная
100
AcDbLine
 10
921.9054271659
 20
1399.8600778225
 30
0.0
 11
921.9054271659
 21
1393.7600778225
 31
0.0
  0
LINE
  5
1E4
330
1F
100
AcDbEntity
  8
1
  6
SLD-Сплошная
100
AcDbLine
 10
642.9054271659
 20
1390.7600778225
 30
0.0
 11
643.0054271659
 21
1390.7600778225
 31
0.0
  0
SPLINE
  5
1E5
330
1F
100
AcDbEntity
  8
1
  6
SLD-Сплошная
100
AcDbSpline
210
0.0
220
0.0
230
1.0
 70
     8
 71
     3
 72
    11
 73
     7
 74
     0
 42
0.00000001
 43
0.00000001
 40
0.0
 40
0.0
 40
0.0
 40
0.0
 40
0.2499999999999987
 40
0.5000000000000044
 40
0.7500000000000019
 40
0.9999999999999999
 40
0.9999999999999999
 40
0.9999999999999999
 40
0.9999999999999999
 10
937.7725844534477
 20
1399.860077822462
 30
0.0
 10
937.7767511201142
 20
1399.875860973889
 30
0.0
 10
937.7850844534477
 20
1399.907427276743
 30
0.0
 10
937.7975844534476
 20
1400.150238950521
 30
0.0
 10
937.8100844534478
 20
1400.497311134473
 30
0.0
 10
937.818417786781
 20
1400.772488926466
 30
0.0
 10
937.8225844534477
 20
1400.910077822463
 30
0.0
  0
SPLINE
  5
1E6
330
1F
100
AcDbEntity
  8
1
  6
SLD-Сплошная
100
AcDbSpline
210
0.0
220
0.0
230
1.0
 70
     8
 71
     3
 72
    11
 73
     7
 74
     0
 42
0.00000001
 43
0.00000001
 40
0.0
 40
0.0
 40
0.0
 40
0.0
 40
0.2500000000000033
 40
0.4999999999999997
 40
0.7500000000000108
 40
1.0
 40
1.0
 40
1.0
 40
1.0
 10
645.3882698784532
 20
1400.910077822463
 30
0.0
 10
645.39243654512
 20
1400.772488926466
 30
0.0
 10
645.4007698784533
 20
1400.497311134473
 30
0.0
 10
645.4132698784532
 20
1400.150238950521
 30
0.0
 10
645.4257698784533
 20
1399.907427276743
 30
0.0
 10
645.4341032117865
 20
1399.87586097389
 30
0.0
 10
645.4382698784532
 20
1399.860077822463
 30
0.0
  0
LINE
  5
1E7
330
1F
100
AcDbEntity
  8
1
  6
SLD-Сплошная
100
AcDbLine
 10
645.3882698785
 20
1416.1600778225
 30
0.0
 11
645.3882698785
 21
1400.9100778225
 31
0.0
  0
LINE
  5
1E8
330
1F
100
AcDbEntity
  8
1
  6
SLD-Сплошная
100
AcDbLine
 10
937.8225844534
 20
1416.1600778225
 30
0.0
 11
937.8225844534
 21
1400.9100778225
 31
0.0
  0
ELLIPSE
  5
1E9
330
1F
100
AcDbEntity
  8
1
  6
SLD-Сплошная
100
AcDbEllipse
 10
646.805427166
 20
1416.1600778225
 30
0.0
 11
0.0
 21
2.700000000000045
 31
0.0
210
0.0
220
0.0
230
1.0
 40
0.5248730694
 41
0.0
 42
1.570796326794897
  0
LINE
  5
1EA
330
1F
100
AcDbEntity
  8
1
  6
SLD-Сплошная
100
AcDbLine
 10
646.8054271659
 20
1418.8600778225
 30
0.0
 11
936.405427166
 21
1418.8600778225
 31
0.0
  0
ELLIPSE
  5
1EB
330
1F
100
AcDbEntity
  8
1
  6
SLD-Сплошная
100
AcDbEllipse
 10
936.4054271659
 20
1416.1600778225
 30
0.0
 11
0.0
 21
2.699999999999818
 31
0.0
210
0.0
220
0.0
230
1.0
 40
0.5248730694
 41
4.712388980384697
 42
6.283185307179586
  0
SPLINE
  5
1EC
330
1F
100
AcDbEntity
  8
1
  6
SLD-Сплошная
100
AcDbSpline
210
0.0
220
0.0
230
1.0
 70
     8
 71
     3
 72
    11
 73
     7
 74
     0
 42
0.00000001
 43
0.00000001
 40
0.0
 40
0.0
 40
0.0
 40
0.0
 40
0.2500000000000012
 40
0.4999999999999991
 40
0.7500000000000016
 40
1.0
 40
1.0
 40
1.0
 40
1.0
 10
645.1554271659331
 20
1399.860077822463
 30
0.0
 10
645.0178382699359
 20
1399.875860973889
 30
0.0
 10
644.7426604779414
 20
1399.907427276741
 30
0.0
 10
644.3955882939871
 20
1400.150238950519
 30
0.0
 10
644.1527766202067
 20
1400.497311134471
 30
0.0
 10
644.1212103173531
 20
1400.772488926466
 30
0.0
 10
644.1054271659262
 20
1400.910077822463
 30
0.0
  0
LINE
  5
1ED
330
1F
100
AcDbEntity
  8
1
  6
SLD-Сплошная
100
AcDbLine
 10
644.1054271659
 20
1400.9100778225
 30
0.0
 11
645.1054271659
 21
1400.9100778225
 31
0.0
  0
SPLINE
  5
1EE
330
1F
100
AcDbEntity
  8
1
  6
SLD-Сплошная
100
AcDbSpline
210
0.0
220
0.0
230
1.0
 70
     8
 71
     3
 72
    11
 73
     7
 74
     0
 42
0.00000001
 43
0.00000001
 40
0.0
 40
0.0
 40
0.0
 40
0.0
 40
0.2499999999996434
 40
0.5000000000000961
 40
0.7500000000003578
 40
1.0
 40
1.0
 40
1.0
 40
1.0
 10
645.1554271659265
 20
1400.860077822463
 30
0.0
 10
645.1488753137362
 20
1400.860829401102
 30
0.0
 10
645.1357716093555
 20
1400.862332558381
 30
0.0
 10
645.1192443625006
 20
1400.873895019037
 30
0.0
 10
645.1076819018444
 20
1400.890422265892
 30
0.0
 10
645.1061787445657
 20
1400.903525970273
 30
0.0
 10
645.1054271659262
 20
1400.910077822463
 30
0.0
  0
LINE
  5
1EF
330
1F
100
AcDbEntity
  8
1
  6
SLD-Сплошная
100
AcDbLine
 10
645.1554271659
 20
1400.8600778225
 30
0.0
 11
645.1554271659
 21
1399.8600778225
 31
0.0
  0
LINE
  5
1F0
330
1F
100
AcDbEntity
  8
1
  6
SLD-Сплошная
100
AcDbLine
 10
645.1054271659
 20
1400.9100778225
 30
0.0
 11
645.1054271659
 21
1416.1600778225
 31
0.0
  0
LINE
  5
1F1
330
1F
100
AcDbEntity
  8
1
  6
SLD-Сплошная
100
AcDbLine
 10
644.1054271659
 20
1400.9100778225
 30
0.0
 11
644.1054271659
 21
1416.1600778225
 31
0.0
  0
LINE
  5
1F2
330
1F
100
AcDbEntity
  8
1
  6
SLD-Сплошная
100
AcDbLine
 10
938.055427166
 20
1400.8600778225
 30
0.0
 11
938.055427166
 21
1399.8600778225
 31
0.0
  0
SPLINE
  5
1F3
330
1F
100
AcDbEntity
  8
1
  6
SLD-Сплошная
100
AcDbSpline
210
0.0
220
0.0
230
1.0
 70
     8
 71
     3
 72
    11
 73
     7
 74
     0
 42
0.00000001
 43
0.00000001
 40
0.0
 40
0.0
 40
0.0
 40
0.0
 40
0.2500000000000074
 40
0.5000000000000973
 40
0.7500000000000283
 40
1.0
 40
1.0
 40
1.0
 40
1.0
 10
938.1054271659747
 20
1400.910077822463
 30
0.0
 10
938.1046755873354
 20
1400.903525970273
 30
0.0
 10
938.1031724300566
 20
1400.890422265892
 30
0.0
 10
938.0916099694003
 20
1400.873895019037
 30
0.0
 10
938.0750827225454
 20
1400.862332558381
 30
0.0
 10
938.0619790181646
 20
1400.860829401102
 30
0.0
 10
938.0554271659744
 20
1400.860077822463
 30
0.0
  0
LINE
  5
1F4
330
1F
100
AcDbEntity
  8
1
  6
SLD-Сплошная
100
AcDbLine
 10
939.105427166
 20
1400.9100778225
 30
0.0
 11
938.105427166
 21
1400.9100778225
 31
0.0
  0
SPLINE
  5
1F5
330
1F
100
AcDbEntity
  8
1
  6
SLD-Сплошная
100
AcDbSpline
210
0.0
220
0.0
230
1.0
 70
     8
 71
     3
 72
    11
 73
     7
 74
     0
 42
0.00000001
 43
0.00000001
 40
0.0
 40
0.0
 40
0.0
 40
0.0
 40
0.2499999999999998
 40
0.5000000000000012
 40
0.7499999999999885
 40
1.0
 40
1.0
 40
1.0
 40
1.0
 10
939.1054271659747
 20
1400.910077822463
 30
0.0
 10
939.0896440145478
 20
1400.772488926465
 30
0.0
 10
939.0580777116942
 20
1400.497311134471
 30
0.0
 10
938.8152660379136
 20
1400.150238950519
 30
0.0
 10
938.4681938539594
 20
1399.90742727674
 30
0.0
 10
938.193016061965
 20
1399.875860973889
 30
0.0
 10
938.0554271659676
 20
1399.860077822462
 30
0.0
  0
LINE
  5
1F6
330
1F
100
AcDbEntity
  8
1
  6
SLD-Сплошная
100
AcDbLine
 10
939.105427166
 20
1400.9100778225
 30
0.0
 11
939.105427166
 21
1416.1600778225
 31
0.0
  0
LINE
  5
1F7
330
1F
100
AcDbEntity
  8
1
  6
SLD-Сплошная
100
AcDbLine
 10
938.105427166
 20
1400.9100778225
 30
0.0
 11
938.105427166
 21
1416.1600778225
 31
0.0
  0
ARC
  5
1F8
330
1F
100
AcDbEntity
  8
1
  6
SLD-Сплошная
100
AcDbCircle
 10
646.8054271659
 20
1416.1600778225
 30
0.0
 40
1.699999999999944
100
AcDbArc
 50
139.5408896245
 51
180.0
  0
ARC
  5
1F9
330
1F
100
AcDbEntity
  8
1
  6
SLD-Сплошная
100
AcDbCircle
 10
646.8054271659
 20
1416.1600778225
 30
0.0
 40
2.700000000000045
100
AcDbArc
 50
90.0
 51
180.0
  0
ARC
  5
1FA
330
1F
100
AcDbEntity
  8
1
  6
SLD-Сплошная
100
AcDbCircle
 10
936.405427166
 20
1416.1600778225
 30
0.0
 40
2.700000000000045
100
AcDbArc
 50
0.0
 51
90.0
  0
ARC
  5
1FB
330
1F
100
AcDbEntity
  8
1
  6
SLD-Сплошная
100
AcDbCircle
 10
936.405427166
 20
1416.1600778225
 30
0.0
 40
1.700000000000045
100
AcDbArc
 50
0.0
 51
40.4591103781
  0
LINE
  5
1FC
330
1F
100
AcDbEntity
  8
1
  6
SLD-Сплошная
100
AcDbLine
 10
645.3882698785
 20
1400.9100778225
 30
0.0
 11
645.2054271659
 21
1400.9100778225
 31
0.0
  0
LINE
  5
1FD
330
1F
100
AcDbEntity
  8
1
  6
SLD-Сплошная
100
AcDbLine
 10
645.4382698784
 20
1399.9300373917
 30
0.0
 11
645.1554271659
 21
1399.8600778225
 31
0.0
  0
SPLINE
  5
1FE
330
1F
100
AcDbEntity
  8
1
  6
SLD-Сплошная
100
AcDbSpline
210
0.0
220
0.0
230
1.0
 70
     8
 71
     3
 72
    11
 73
     7
 74
     0
 42
0.00000001
 43
0.00000001
 40
0.0
 40
0.0
 40
0.0
 40
0.0
 40
0.0090245670124502
 40
0.0782108948270819
 40
0.2706367536338372
 40
1.0
 40
1.0
 40
1.0
 40
1.0
 10
645.2054271659263
 20
1400.910077822463
 30
0.0
 10
645.2053900166304
 20
1400.908884238727
 30
0.0
 10
645.205068064379
 20
1400.898540113423
 30
0.0
 10
645.20168745356
 20
1400.892971154552
 30
0.0
 10
645.1871731359039
 20
1400.860316865161
 30
0.0
 10
645.1694503078252
 20
1400.860183414753
 30
0.0
 10
645.1554271659265
 20
1400.860077822463
 30
0.0
  0
LINE
  5
1FF
330
1F
100
AcDbEntity
  8
1
  6
SLD-Сплошная
100
AcDbLine
 10
937.8225844534
 20
1400.9100778225
 30
0.0
 11
938.005427166
 21
1400.9100778225
 31
0.0
  0
SPLINE
  5
200
330
1F
100
AcDbEntity
  8
1
  6
SLD-Сплошная
100
AcDbSpline
210
0.0
220
0.0
230
1.0
 70
     8
 71
     3
 72
    12
 73
     8
 74
     0
 42
0.00000001
 43
0.00000001
 40
0.0
 40
0.0
 40
0.0
 40
0.0
 40
0.7293340570159669
 40
0.9217522148762637
 40
0.9750066998639105
 40
0.9909757941545521
 40
1.0
 40
1.0
 40
1.0
 40
1.0
 10
938.0554271659744
 20
1400.860077822463
 30
0.0
 10
938.0415693656295
 20
1400.862799104202
 30
0.0
 10
938.0240555007025
 20
1400.866238334066
 30
0.0
 10
938.0091574794245
 20
1400.888606538981
 30
0.0
 10
938.0062634497797
 20
1400.900653195397
 30
0.0
 10
938.0055567871692
 20
1400.905412096036
 30
0.0
 10
938.0054615520446
 20
1400.908840092815
 30
0.0
 10
938.0054271659745
 20
1400.910077822463
 30
0.0
  0
LINE
  5
201
330
1F
100
AcDbEntity
  8
1
  6
SLD-Сплошная
100
AcDbLine
 10
938.055427166
 20
1399.8600778225
 30
0.0
 11
937.7725844534
 21
1399.9300373918
 31
0.0
  0
LINE
  5
202
330
1F
100
AcDbEntity
  8
1
  6
SLD-Сплошная
100
AcDbLine
 10
645.3882698785
 20
1415.7500778225
 30
0.0
 11
645.2054271659
 21
1415.7500778225
 31
0.0
  0
LINE
  5
203
330
1F
100
AcDbEntity
  8
1
  6
SLD-Сплошная
100
AcDbLine
 10
645.2054271659
 20
1400.9100778225
 30
0.0
 11
645.2054271659
 21
1415.7500778225
 31
0.0
  0
LINE
  5
204
330
1F
100
AcDbEntity
  8
1
  6
SLD-Сплошная
100
AcDbLine
 10
937.8225844534
 20
1415.7500778225
 30
0.0
 11
938.005427166
 21
1415.7500778225
 31
0.0
  0
LINE
  5
205
330
1F
100
AcDbEntity
  8
1
  6
SLD-Сплошная
100
AcDbLine
 10
938.005427166
 20
1400.9100778225
 30
0.0
 11
938.005427166
 21
1415.7500778225
 31
0.0
  0
ARC
  5
206
330
1F
100
AcDbEntity
  8
1
  6
SLD-Сплошная
100
AcDbCircle
 10
647.2154271659
 20
1415.7500778225
 30
0.0
 40
2.009999999999939
100
AcDbArc
 50
153.9069487061
 51
180.0
  0
ARC
  5
207
330
1F
100
AcDbEntity
  8
1
  6
SLD-Сплошная
100
AcDbCircle
 10
935.995427166
 20
1415.7500778225
 30
0.0
 40
2.009999999999991
100
AcDbArc
 50
0.0
 51
26.0930512956
  0
ARC
  5
208
330
1F
100
AcDbEntity
  8
1
  6
SLD-Сплошная
100
AcDbCircle
 10
774.1506951477
 20
1377.7553458042
 30
0.0
 40
26.56195549677177
100
AcDbArc
 50
223.8816987744
 51
226.1183012256
  0
ARC
  5
209
330
1F
100
AcDbEntity
  8
1
  6
SLD-Сплошная
100
AcDbCircle
 10
740.6640129299
 20
1376.5231007962
 30
0.0
 40
23.41191191621436
100
AcDbArc
 50
310.0824770913
 51
312.9865596106
  0
SPLINE
  5
20A
330
1F
100
AcDbEntity
  8
1
  6
SLD-Сплошная
100
AcDbSpline
210
0.0
220
0.0
230
1.0
 70
     8
 71
     3
 72
    12
 73
     8
 74
     0
 42
0.00000001
 43
0.00000001
 40
0.0
 40
0.0
 40
0.0
 40
0.0
 40
0.2187857887071842
 40
0.4375776469534716
 40
0.6562353658863818
 40
0.8748419359490994
 40
1.0
 40
1.0
 40
1.0
 40
1.0
 10
757.183972862075
 20
1359.396967328651
 30
0.0
 10
757.1486474652062
 20
1359.423930754723
 30
0.0
 10
757.0779956914738
 20
1359.477858354885
 30
0.0
 10
756.9440324628328
 20
1359.510454243858
 30
0.0
 10
756.8084898365528
 20
1359.501105112616
 30
0.0
 10
756.6995920322588
 20
1359.457226354534
 30
0.0
 10
756.6462883214529
 20
1359.413050796247
 30
0.0
 10
756.6268814698191
 20
1359.396967328651
 30
0.0
  0
ARC
  5
20B
330
1F
100
AcDbEntity
  8
1
  6
SLD-Сплошная
100
AcDbCircle
 10
773.1468414022
 20
1376.5231007964
 30
0.0
 40
23.41191191645521
100
AcDbArc
 50
227.0134403894
 51
229.9175229087
  0
ARC
  5
20C
330
1F
100
AcDbEntity
  8
1
  6
SLD-Сплошная
100
AcDbCircle
 10
739.6601591846
 20
1377.7553458038
 30
0.0
 40
26.56195549626589
100
AcDbArc
 50
313.8816987744
 51
316.1183012256
  0
ARC
  5
20D
330
1F
100
AcDbEntity
  8
1
  6
SLD-Сплошная
100
AcDbCircle
 10
740.8924041925
 20
1344.2686635867
 30
0.0
 40
23.41191191580745
100
AcDbArc
 50
40.0824770913
 51
42.9865596106
  0
SPLINE
  5
20E
330
1F
100
AcDbEntity
  8
1
  6
SLD-Сплошная
100
AcDbSpline
210
0.0
220
0.0
230
1.0
 70
     8
 71
     3
 72
    12
 73
     8
 74
     0
 42
0.00000001
 43
0.00000001
 40
0.0
 40
0.0
 40
0.0
 40
0.0
 40
0.2187857887071938
 40
0.4375776469534754
 40
0.6562353658863832
 40
0.8748419359490984
 40
1.0
 40
1.0
 40
1.0
 40
1.0
 10
758.0185376597593
 20
1360.788623518592
 30
0.0
 10
757.9915742336874
 20
1360.753298121723
 30
0.0
 10
757.9376466335258
 20
1360.68264634799
 30
0.0
 10
757.9050507445527
 20
1360.548683119349
 30
0.0
 10
757.9143998757947
 20
1360.413140493069
 30
0.0
 10
757.9582786338766
 20
1360.304242688775
 30
0.0
 10
758.0024541921632
 20
1360.250938977969
 30
0.0
 10
758.0185376597593
 20
1360.231532126335
 30
0.0
  0
ARC
  5
20F
330
1F
100
AcDbEntity
  8
1
  6
SLD-Сплошная
100
AcDbCircle
 10
740.8924041925
 20
1376.7514920583
 30
0.0
 40
23.41191191580745
100
AcDbArc
 50
317.0134403894
 51
319.9175229087
  0
ARC
  5
210
330
1F
100
AcDbEntity
  8
1
  6
SLD-Сплошная
100
AcDbCircle
 10
739.6601591846
 20
1343.2648098411
 30
0.0
 40
26.56195549626558
100
AcDbArc
 50
43.8816987744
 51
46.1183012256
  0
ARC
  5
211
330
1F
100
AcDbEntity
  8
1
  6
SLD-Сплошная
100
AcDbCircle
 10
773.1468414022
 20
1344.4970548485
 30
0.0
 40
23.41191191645511
100
AcDbArc
 50
130.0824770913
 51
132.9865596106
  0
SPLINE
  5
212
330
1F
100
AcDbEntity
  8
1
  6
SLD-Сплошная
100
AcDbSpline
210
0.0
220
0.0
230
1.0
 70
     8
 71
     3
 72
    12
 73
     8
 74
     0
 42
0.00000001
 43
0.00000001
 40
0.0
 40
0.0
 40
0.0
 40
0.0
 40
0.2187857887071934
 40
0.4375776469534746
 40
0.6562353658863838
 40
0.8748419359491001
 40
1.0
 40
1.0
 40
1.0
 40
1.0
 10
756.6268814698191
 20
1361.623188316276
 30
0.0
 10
756.662206866688
 20
1361.596224890204
 30
0.0
 10
756.7328586404204
 20
1361.542297290042
 30
0.0
 10
756.8668218690614
 20
1361.509701401069
 30
0.0
 10
757.0023644953415
 20
1361.519050532311
 30
0.0
 10
757.1112622996353
 20
1361.562929290393
 30
0.0
 10
757.1645660104413
 20
1361.607104848679
 30
0.0
 10
757.183972862075
 20
1361.623188316276
 30
0.0
  0
ARC
  5
213
330
1F
100
AcDbEntity
  8
1
  6
SLD-Сплошная
100
AcDbCircle
 10
740.6640129299
 20
1344.4970548487
 30
0.0
 40
23.41191191621436
100
AcDbArc
 50
47.0134403894
 51
49.9175229087
  0
ARC
  5
214
330
1F
100
AcDbEntity
  8
1
  6
SLD-Сплошная
100
AcDbCircle
 10
774.1506951477
 20
1343.2648098407
 30
0.0
 40
26.5619554967716
100
AcDbArc
 50
133.8816987744
 51
136.1183012256
  0
ARC
  5
215
330
1F
100
AcDbEntity
  8
1
  6
SLD-Сплошная
100
AcDbCircle
 10
772.9184501394
 20
1376.7514920583
 30
0.0
 40
23.41191191580754
100
AcDbArc
 50
220.0824770913
 51
222.9865596106
  0
SPLINE
  5
216
330
1F
100
AcDbEntity
  8
1
  6
SLD-Сплошная
100
AcDbSpline
210
0.0
220
0.0
230
1.0
 70
     8
 71
     3
 72
    12
 73
     8
 74
     0
 42
0.00000001
 43
0.00000001
 40
0.0
 40
0.0
 40
0.0
 40
0.0
 40
0.2187857887071891
 40
0.4375776469534711
 40
0.6562353658863814
 40
0.8748419359490992
 40
1.0
 40
1.0
 40
1.0
 40
1.0
 10
755.7923166721349
 20
1360.231532126335
 30
0.0
 10
755.8192800982068
 20
1360.266857523204
 30
0.0
 10
755.8732076983684
 20
1360.337509296937
 30
0.0
 10
755.9058035873416
 20
1360.471472525578
 30
0.0
 10
755.8964544560993
 20
1360.607015151858
 30
0.0
 10
755.8525756980175
 20
1360.715912956152
 30
0.0
 10
755.808400139731
 20
1360.769216666958
 30
0.0
 10
755.7923166721349
 20
1360.788623518592
 30
0.0
  0
ARC
  5
217
330
1F
100
AcDbEntity
  8
1
  6
SLD-Сплошная
100
AcDbCircle
 10
772.9184501394
 20
1344.2686635867
 30
0.0
 40
23.41191191580745
100
AcDbArc
 50
137.0134403894
 51
139.9175229087
  0
CIRCLE
  5
218
330
1F
100
AcDbEntity
  8
1
  6
SLD-Сплошная
100
AcDbCircle
 10
756.9054271659
 20
1360.5100778225
 30
0.0
 40
3.499999999999948
  0
ELLIPSE
  5
219
330
1F
100
AcDbEntity
  8
1
  6
SLD-Сплошная
100
AcDbEllipse
 10
755.8360403847
 20
1360.5100778225
 30
0.0
 11
0.4122489361056978
 21
0.0
 31
0.0
210
0.0
220
0.0
230
1.0
 40
0.9702875252
 41
5.512866274278217
 42
7.05350434008097
  0
ELLIPSE
  5
21A
330
1F
100
AcDbEntity
  8
1
  6
SLD-Сплошная
100
AcDbEllipse
 10
756.9054271659
 20
1361.5794646037
 30
0.0
 11
0.0
 21
-0.4122489361056978
 31
0.0
210
0.0
220
0.0
230
1.0
 40
0.9702875252
 41
5.512866274278359
 42
7.053504340080623
  0
ELLIPSE
  5
21B
330
1F
100
AcDbEntity
  8
1
  6
SLD-Сплошная
100
AcDbEllipse
 10
757.9748139472
 20
1360.5100778225
 30
0.0
 11
-0.4122489361056978
 21
0.0
 31
0.0
210
0.0
220
0.0
230
1.0
 40
0.9702875252
 41
5.512866274278409
 42
7.053504340080777
  0
ELLIPSE
  5
21C
330
1F
100
AcDbEntity
  8
1
  6
SLD-Сплошная
100
AcDbEllipse
 10
756.9054271659
 20
1359.4406910412
 30
0.0
 11
0.0
 21
0.4122489361056978
 31
0.0
210
0.0
220
0.0
230
1.0
 40
0.9702875252
 41
5.512866274278562
 42
7.053504340080623
  0
LINE
  5
21D
330
1F
100
AcDbEntity
  8
1
  6
SLD-Сплошная
100
AcDbLine
 10
755.738700977
 20
1362.4099384763
 30
0.0
 11
755.738700977
 21
1362.1717787583
 31
0.0
  0
LINE
  5
21E
330
1F
100
AcDbEntity
  8
1
  6
SLD-Сплошная
100
AcDbLine
 10
756.6268814698
 20
1361.2835982654
 30
0.0
 11
755.738700977
 21
1362.1717787583
 31
0.0
  0
LINE
  5
21F
330
1F
100
AcDbEntity
  8
1
  6
SLD-Сплошная
100
AcDbLine
 10
758.0721533549
 20
1362.4099384763
 30
0.0
 11
758.0721533549
 21
1362.1717787583
 31
0.0
  0
LINE
  5
220
330
1F
100
AcDbEntity
  8
1
  6
SLD-Сплошная
100
AcDbLine
 10
758.0721533549
 20
1362.1717787583
 30
0.0
 11
757.1839728621
 21
1361.2835982654
 31
0.0
  0
LINE
  5
221
330
1F
100
AcDbEntity
  8
1
  6
SLD-Сплошная
100
AcDbLine
 10
758.8052878198
 20
1359.3433516335
 30
0.0
 11
758.5671281017
 21
1359.3433516335
 31
0.0
  0
LINE
  5
222
330
1F
100
AcDbEntity
  8
1
  6
SLD-Сплошная
100
AcDbLine
 10
758.5671281017
 20
1359.3433516335
 30
0.0
 11
757.6789476089
 21
1360.2315321263
 31
0.0
  0
LINE
  5
223
330
1F
100
AcDbEntity
  8
1
  6
SLD-Сплошная
100
AcDbLine
 10
755.0055665121
 20
1361.6768040114
 30
0.0
 11
755.2437262302
 21
1361.6768040114
 31
0.0
  0
LINE
  5
224
330
1F
100
AcDbEntity
  8
1
  6
SLD-Сплошная
100
AcDbLine
 10
755.2437262302
 20
1361.6768040114
 30
0.0
 11
756.131906723
 21
1360.7886235186
 31
0.0
  0
LINE
  5
225
330
1F
100
AcDbEntity
  8
1
  6
SLD-Сплошная
100
AcDbLine
 10
755.0055665121
 20
1359.3433516335
 30
0.0
 11
755.2437262302
 21
1359.3433516335
 31
0.0
  0
LINE
  5
226
330
1F
100
AcDbEntity
  8
1
  6
SLD-Сплошная
100
AcDbLine
 10
756.131906723
 20
1360.2315321263
 30
0.0
 11
755.2437262302
 21
1359.3433516335
 31
0.0
  0
LINE
  5
227
330
1F
100
AcDbEntity
  8
1
  6
SLD-Сплошная
100
AcDbLine
 10
755.738700977
 20
1358.6102171687
 30
0.0
 11
755.738700977
 21
1358.8483768867
 31
0.0
  0
LINE
  5
228
330
1F
100
AcDbEntity
  8
1
  6
SLD-Сплошная
100
AcDbLine
 10
755.738700977
 20
1358.8483768867
 30
0.0
 11
756.6268814698
 21
1359.7365573795
 31
0.0
  0
LINE
  5
229
330
1F
100
AcDbEntity
  8
1
  6
SLD-Сплошная
100
AcDbLine
 10
758.8052878198
 20
1361.6768040114
 30
0.0
 11
758.5671281017
 21
1361.6768040114
 31
0.0
  0
LINE
  5
22A
330
1F
100
AcDbEntity
  8
1
  6
SLD-Сплошная
100
AcDbLine
 10
757.6789476089
 20
1360.7886235186
 30
0.0
 11
758.5671281017
 21
1361.6768040114
 31
0.0
  0
LINE
  5
22B
330
1F
100
AcDbEntity
  8
1
  6
SLD-Сплошная
100
AcDbLine
 10
758.0721533549
 20
1358.6102171687
 30
0.0
 11
758.0721533549
 21
1358.8483768867
 31
0.0
  0
LINE
  5
22C
330
1F
100
AcDbEntity
  8
1
  6
SLD-Сплошная
100
AcDbLine
 10
757.1839728621
 20
1359.7365573795
 30
0.0
 11
758.0721533549
 21
1358.8483768867
 31
0.0
  0
LINE
  5
22D
330
1F
100
AcDbEntity
  8
1
  6
SLD-Сплошная
100
AcDbLine
 10
755.2437262302
 20
1359.3433516335
 30
0.0
 11
755.738700977
 21
1358.8483768867
 31
0.0
  0
LINE
  5
22E
330
1F
100
AcDbEntity
  8
1
  6
SLD-Сплошная
100
AcDbLine
 10
758.5671281017
 20
1361.6768040114
 30
0.0
 11
758.0721533549
 21
1362.1717787583
 31
0.0
  0
LINE
  5
22F
330
1F
100
AcDbEntity
  8
1
  6
SLD-Сплошная
100
AcDbLine
 10
758.0721533549
 20
1358.8483768867
 30
0.0
 11
758.5671281017
 21
1359.3433516335
 31
0.0
  0
LINE
  5
230
330
1F
100
AcDbEntity
  8
1
  6
SLD-Сплошная
100
AcDbLine
 10
755.738700977
 20
1362.1717787583
 30
0.0
 11
755.2437262302
 21
1361.6768040114
 31
0.0
  0
CIRCLE
  5
231
330
1F
100
AcDbEntity
  8
1
  6
SLD-Сплошная
100
AcDbCircle
 10
756.9054271659
 20
1360.5100778225
 30
0.0
 40
4.99999999999996
  0
ARC
  5
232
330
1F
100
AcDbEntity
  8
1
  6
SLD-Сплошная
100
AcDbCircle
 10
657.1601591844
 20
1285.255345804
 30
0.0
 40
26.56195549646948
100
AcDbArc
 50
313.8816987744
 51
316.1183012256
  0
ARC
  5
233
330
1F
100
AcDbEntity
  8
1
  6
SLD-Сплошная
100
AcDbCircle
 10
658.3924041923
 20
1251.7686635865
 30
0.0
 40
23.41191191609384
100
AcDbArc
 50
40.0824770913
 51
42.9865596106
  0
SPLINE
  5
234
330
1F
100
AcDbEntity
  8
1
  6
SLD-Сплошная
100
AcDbSpline
210
0.0
220
0.0
230
1.0
 70
     8
 71
     3
 72
    12
 73
     8
 74
     0
 42
0.00000001
 43
0.00000001
 40
0.0
 40
0.0
 40
0.0
 40
0.0
 40
0.2187857887071959
 40
0.4375776469534642
 40
0.6562353658863838
 40
0.8748419359490848
 40
1.0
 40
1.0
 40
1.0
 40
1.0
 10
675.5185376597593
 20
1268.288623518592
 30
0.0
 10
675.4915742336873
 20
1268.253298121723
 30
0.0
 10
675.4376466335258
 20
1268.18264634799
 30
0.0
 10
675.4050507445527
 20
1268.048683119349
 30
0.0
 10
675.4143998757949
 20
1267.913140493069
 30
0.0
 10
675.4582786338766
 20
1267.804242688775
 30
0.0
 10
675.502454192163
 20
1267.750938977969
 30
0.0
 10
675.5185376597593
 20
1267.731532126335
 30
0.0
  0
ARC
  5
235
330
1F
100
AcDbEntity
  8
1
  6
SLD-Сплошная
100
AcDbCircle
 10
658.3924041924
 20
1284.2514920583
 30
0.0
 40
23.41191191589498
100
AcDbArc
 50
317.0134403894
 51
319.9175229087
  0
ARC
  5
236
330
1F
100
AcDbEntity
  8
1
  6
SLD-Сплошная
100
AcDbCircle
 10
657.1601591847
 20
1250.7648098412
 30
0.0
 40
26.56195549606488
100
AcDbArc
 50
43.8816987744
 51
46.1183012256
  0
ARC
  5
237
330
1F
100
AcDbEntity
  8
1
  6
SLD-Сплошная
100
AcDbCircle
 10
690.6468414019
 20
1251.9970548488
 30
0.0
 40
23.41191191604286
100
AcDbArc
 50
130.0824770913
 51
132.9865596106
  0
SPLINE
  5
238
330
1F
100
AcDbEntity
  8
1
  6
SLD-Сплошная
100
AcDbSpline
210
0.0
220
0.0
230
1.0
 70
     8
 71
     3
 72
    12
 73
     8
 74
     0
 42
0.00000001
 43
0.00000001
 40
0.0
 40
0.0
 40
0.0
 40
0.0
 40
0.2187857887071892
 40
0.4375776469534673
 40
0.6562353658863875
 40
0.8748419359490981
 40
1.0
 40
1.0
 40
1.0
 40
1.0
 10
674.1268814698192
 20
1269.123188316276
 30
0.0
 10
674.162206866688
 20
1269.096224890204
 30
0.0
 10
674.2328586404203
 20
1269.042297290042
 30
0.0
 10
674.3668218690615
 20
1269.009701401069
 30
0.0
 10
674.5023644953416
 20
1269.019050532311
 30
0.0
 10
674.6112622996354
 20
1269.062929290393
 30
0.0
 10
674.6645660104414
 20
1269.107104848679
 30
0.0
 10
674.683972862075
 20
1269.123188316276
 30
0.0
  0
ARC
  5
239
330
1F
100
AcDbEntity
  8
1
  6
SLD-Сплошная
100
AcDbCircle
 10
658.1640129299
 20
1251.9970548487
 30
0.0
 40
23.41191191616641
100
AcDbArc
 50
47.0134403894
 51
49.9175229087
  0
ARC
  5
23A
330
1F
100
AcDbEntity
  8
1
  6
SLD-Сплошная
100
AcDbCircle
 10
691.6506951471
 20
1250.7648098413
 30
0.0
 40
26.56195549599049
100
AcDbArc
 50
133.8816987744
 51
136.1183012256
  0
ARC
  5
23B
330
1F
100
AcDbEntity
  8
1
  6
SLD-Сплошная
100
AcDbCircle
 10
690.4184501395
 20
1284.2514920584
 30
0.0
 40
23.41191191596515
100
AcDbArc
 50
220.0824770913
 51
222.9865596106
  0
SPLINE
  5
23C
330
1F
100
AcDbEntity
  8
1
  6
SLD-Сплошная
100
AcDbSpline
210
0.0
220
0.0
230
1.0
 70
     8
 71
     3
 72
    12
 73
     8
 74
     0
 42
0.00000001
 43
0.00000001
 40
0.0
 40
0.0
 40
0.0
 40
0.0
 40
0.2187857887071862
 40
0.4375776469534613
 40
0.6562353658863785
 40
0.8748419359490861
 40
1.0
 40
1.0
 40
1.0
 40
1.0
 10
673.2923166721348
 20
1267.731532126335
 30
0.0
 10
673.3192800982068
 20
1267.766857523204
 30
0.0
 10
673.3732076983684
 20
1267.837509296937
 30
0.0
 10
673.4058035873414
 20
1267.971472525578
 30
0.0
 10
673.3964544560993
 20
1268.107015151858
 30
0.0
 10
673.3525756980175
 20
1268.215912956152
 30
0.0
 10
673.308400139731
 20
1268.269216666958
 30
0.0
 10
673.2923166721348
 20
1268.288623518592
 30
0.0
  0
ARC
  5
23D
330
1F
100
AcDbEntity
  8
1
  6
SLD-Сплошная
100
AcDbCircle
 10
690.4184501397
 20
1251.7686635864
 30
0.0
 40
23.41191191616394
100
AcDbArc
 50
137.0134403894
 51
139.9175229087
  0
ARC
  5
23E
330
1F
100
AcDbEntity
  8
1
  6
SLD-Сплошная
100
AcDbCircle
 10
691.6506951476
 20
1285.2553458041
 30
0.0
 40
26.56195549664887
100
AcDbArc
 50
223.8816987744
 51
226.1183012256
  0
ARC
  5
23F
330
1F
100
AcDbEntity
  8
1
  6
SLD-Сплошная
100
AcDbCircle
 10
658.1640129299
 20
1284.0231007962
 30
0.0
 40
23.41191191613477
100
AcDbArc
 50
310.0824770913
 51
312.9865596106
  0
SPLINE
  5
240
330
1F
100
AcDbEntity
  8
1
  6
SLD-Сплошная
100
AcDbSpline
210
0.0
220
0.0
230
1.0
 70
     8
 71
     3
 72
    12
 73
     8
 74
     0
 42
0.00000001
 43
0.00000001
 40
0.0
 40
0.0
 40
0.0
 40
0.0
 40
0.2187857887072089
 40
0.4375776469534772
 40
0.6562353658863926
 40
0.8748419359490881
 40
1.0
 40
1.0
 40
1.0
 40
1.0
 10
674.683972862075
 20
1266.896967328651
 30
0.0
 10
674.6486474652062
 20
1266.923930754723
 30
0.0
 10
674.5779956914738
 20
1266.977858354885
 30
0.0
 10
674.4440324628328
 20
1267.010454243858
 30
0.0
 10
674.3084898365527
 20
1267.001105112616
 30
0.0
 10
674.1995920322588
 20
1266.957226354534
 30
0.0
 10
674.1462883214529
 20
1266.913050796247
 30
0.0
 10
674.1268814698191
 20
1266.896967328651
 30
0.0
  0
ARC
  5
241
330
1F
100
AcDbEntity
  8
1
  6
SLD-Сплошная
100
AcDbCircle
 10
690.6468414021
 20
1284.0231007963
 30
0.0
 40
23.41191191629727
100
AcDbArc
 50
227.0134403894
 51
229.9175229087
  0
CIRCLE
  5
242
330
1F
100
AcDbEntity
  8
1
  6
SLD-Сплошная
100
AcDbCircle
 10
674.4054271659
 20
1268.0100778225
 30
0.0
 40
3.499999999999948
  0
ELLIPSE
  5
243
330
1F
100
AcDbEntity
  8
1
  6
SLD-Сплошная
100
AcDbEllipse
 10
674.4054271659
 20
1266.9406910412
 30
0.0
 11
0.0
 21
0.4122489361059252
 31
0.0
210
0.0
220
0.0
230
1.0
 40
0.9702875252
 41
5.512866274278671
 42
7.053504340080515
  0
ELLIPSE
  5
244
330
1F
100
AcDbEntity
  8
1
  6
SLD-Сплошная
100
AcDbEllipse
 10
674.4054271659
 20
1269.0794646037
 30
0.0
 11
0.0
 21
-0.4122489361056978
 31
0.0
210
0.0
220
0.0
230
1.0
 40
0.9702875252
 41
5.512866274278562
 42
7.053504340080623
  0
ELLIPSE
  5
245
330
1F
100
AcDbEntity
  8
1
  6
SLD-Сплошная
100
AcDbEllipse
 10
673.3360403847
 20
1268.0100778225
 30
0.0
 11
0.4122489361056978
 21
0.0
 31
0.0
210
0.0
220
0.0
230
1.0
 40
0.9702875252
 41
5.512866274278693
 42
7.053504340080302
  0
ELLIPSE
  5
246
330
1F
100
AcDbEntity
  8
1
  6
SLD-Сплошная
100
AcDbEllipse
 10
675.4748139472
 20
1268.0100778225
 30
0.0
 11
-0.4122489361056978
 21
0.0
 31
0.0
210
0.0
220
0.0
230
1.0
 40
0.9702875252
 41
5.512866274278409
 42
7.053504340080777
  0
LINE
  5
247
330
1F
100
AcDbEntity
  8
1
  6
SLD-Сплошная
100
AcDbLine
 10
673.238700977
 20
1266.1102171687
 30
0.0
 11
673.238700977
 21
1266.3483768867
 31
0.0
  0
LINE
  5
248
330
1F
100
AcDbEntity
  8
1
  6
SLD-Сплошная
100
AcDbLine
 10
673.238700977
 20
1266.3483768867
 30
0.0
 11
674.1268814698
 21
1267.2365573795
 31
0.0
  0
LINE
  5
249
330
1F
100
AcDbEntity
  8
1
  6
SLD-Сплошная
100
AcDbLine
 10
676.3052878198
 20
1266.8433516335
 30
0.0
 11
676.0671281017
 21
1266.8433516335
 31
0.0
  0
LINE
  5
24A
330
1F
100
AcDbEntity
  8
1
  6
SLD-Сплошная
100
AcDbLine
 10
676.0671281017
 20
1266.8433516335
 30
0.0
 11
675.1789476089
 21
1267.7315321263
 31
0.0
  0
LINE
  5
24B
330
1F
100
AcDbEntity
  8
1
  6
SLD-Сплошная
100
AcDbLine
 10
675.5721533549
 20
1266.1102171687
 30
0.0
 11
675.5721533549
 21
1266.3483768867
 31
0.0
  0
LINE
  5
24C
330
1F
100
AcDbEntity
  8
1
  6
SLD-Сплошная
100
AcDbLine
 10
674.6839728621
 20
1267.2365573795
 30
0.0
 11
675.5721533549
 21
1266.3483768867
 31
0.0
  0
LINE
  5
24D
330
1F
100
AcDbEntity
  8
1
  6
SLD-Сплошная
100
AcDbLine
 10
672.5055665121
 20
1266.8433516335
 30
0.0
 11
672.7437262302
 21
1266.8433516335
 31
0.0
  0
LINE
  5
24E
330
1F
100
AcDbEntity
  8
1
  6
SLD-Сплошная
100
AcDbLine
 10
673.631906723
 20
1267.7315321263
 30
0.0
 11
672.7437262302
 21
1266.8433516335
 31
0.0
  0
LINE
  5
24F
330
1F
100
AcDbEntity
  8
1
  6
SLD-Сплошная
100
AcDbLine
 10
672.5055665121
 20
1269.1768040114
 30
0.0
 11
672.7437262302
 21
1269.1768040114
 31
0.0
  0
LINE
  5
250
330
1F
100
AcDbEntity
  8
1
  6
SLD-Сплошная
100
AcDbLine
 10
672.7437262302
 20
1269.1768040114
 30
0.0
 11
673.631906723
 21
1268.2886235186
 31
0.0
  0
LINE
  5
251
330
1F
100
AcDbEntity
  8
1
  6
SLD-Сплошная
100
AcDbLine
 10
675.5721533549
 20
1269.9099384763
 30
0.0
 11
675.5721533549
 21
1269.6717787583
 31
0.0
  0
LINE
  5
252
330
1F
100
AcDbEntity
  8
1
  6
SLD-Сплошная
100
AcDbLine
 10
675.5721533549
 20
1269.6717787583
 30
0.0
 11
674.6839728621
 21
1268.7835982654
 31
0.0
  0
LINE
  5
253
330
1F
100
AcDbEntity
  8
1
  6
SLD-Сплошная
100
AcDbLine
 10
673.238700977
 20
1269.9099384763
 30
0.0
 11
673.238700977
 21
1269.6717787583
 31
0.0
  0
LINE
  5
254
330
1F
100
AcDbEntity
  8
1
  6
SLD-Сплошная
100
AcDbLine
 10
674.1268814698
 20
1268.7835982654
 30
0.0
 11
673.238700977
 21
1269.6717787583
 31
0.0
  0
LINE
  5
255
330
1F
100
AcDbEntity
  8
1
  6
SLD-Сплошная
100
AcDbLine
 10
676.3052878198
 20
1269.1768040114
 30
0.0
 11
676.0671281017
 21
1269.1768040114
 31
0.0
  0
LINE
  5
256
330
1F
100
AcDbEntity
  8
1
  6
SLD-Сплошная
100
AcDbLine
 10
675.1789476089
 20
1268.2886235186
 30
0.0
 11
676.0671281017
 21
1269.1768040114
 31
0.0
  0
LINE
  5
257
330
1F
100
AcDbEntity
  8
1
  6
SLD-Сплошная
100
AcDbLine
 10
675.5721533549
 20
1266.3483768867
 30
0.0
 11
676.0671281017
 21
1266.8433516335
 31
0.0
  0
LINE
  5
258
330
1F
100
AcDbEntity
  8
1
  6
SLD-Сплошная
100
AcDbLine
 10
672.7437262302
 20
1266.8433516335
 30
0.0
 11
673.238700977
 21
1266.3483768867
 31
0.0
  0
LINE
  5
259
330
1F
100
AcDbEntity
  8
1
  6
SLD-Сплошная
100
AcDbLine
 10
673.238700977
 20
1269.6717787583
 30
0.0
 11
672.7437262302
 21
1269.1768040114
 31
0.0
  0
LINE
  5
25A
330
1F
100
AcDbEntity
  8
1
  6
SLD-Сплошная
100
AcDbLine
 10
676.0671281017
 20
1269.1768040114
 30
0.0
 11
675.5721533549
 21
1269.6717787583
 31
0.0
  0
CIRCLE
  5
25B
330
1F
100
AcDbEntity
  8
1
  6
SLD-Сплошная
100
AcDbCircle
 10
674.4054271659
 20
1268.0100778225
 30
0.0
 40
5.000000000000121
  0
ARC
  5
25C
330
1F
100
AcDbEntity
  8
1
  6
SLD-Сплошная
100
AcDbCircle
 10
809.6601591851
 20
1267.7553458033
 30
0.0
 40
26.56195549555418
100
AcDbArc
 50
313.8816987744
 51
316.1183012256
  0
ARC
  5
25D
330
1F
100
AcDbEntity
  8
1
  6
SLD-Сплошная
100
AcDbCircle
 10
810.8924041922
 20
1234.2686635864
 30
0.0
 40
23.41191191616288
100
AcDbArc
 50
40.0824770913
 51
42.9865596106
  0
SPLINE
  5
25E
330
1F
100
AcDbEntity
  8
1
  6
SLD-Сплошная
100
AcDbSpline
210
0.0
220
0.0
230
1.0
 70
     8
 71
     3
 72
    12
 73
     8
 74
     0
 42
0.00000001
 43
0.00000001
 40
0.0
 40
0.0
 40
0.0
 40
0.0
 40
0.2187857887071764
 40
0.4375776469534903
 40
0.6562353658863638
 40
0.8748419359491098
 40
1.0
 40
1.0
 40
1.0
 40
1.0
 10
828.0185376597593
 20
1250.788623518592
 30
0.0
 10
827.9915742336873
 20
1250.753298121722
 30
0.0
 10
827.9376466335258
 20
1250.68264634799
 30
0.0
 10
827.9050507445527
 20
1250.548683119349
 30
0.0
 10
827.9143998757949
 20
1250.413140493069
 30
0.0
 10
827.9582786338766
 20
1250.304242688775
 30
0.0
 10
828.0024541921631
 20
1250.250938977969
 30
0.0
 10
828.0185376597593
 20
1250.231532126335
 30
0.0
  0
ARC
  5
25F
330
1F
100
AcDbEntity
  8
1
  6
SLD-Сплошная
100
AcDbCircle
 10
810.8924041924
 20
1266.7514920583
 30
0.0
 40
23.41191191587157
100
AcDbArc
 50
317.0134403894
 51
319.9175229087
  0
ARC
  5
260
330
1F
100
AcDbEntity
  8
1
  6
SLD-Сплошная
100
AcDbCircle
 10
809.6601591847
 20
1233.2648098412
 30
0.0
 40
26.5619554960791
100
AcDbArc
 50
43.8816987744
 51
46.1183012256
  0
ARC
  5
261
330
1F
100
AcDbEntity
  8
1
  6
SLD-Сплошная
100
AcDbCircle
 10
843.1468414022
 20
1234.4970548485
 30
0.0
 40
23.41191191647782
100
AcDbArc
 50
130.0824770913
 51
132.9865596106
  0
SPLINE
  5
262
330
1F
100
AcDbEntity
  8
1
  6
SLD-Сплошная
100
AcDbSpline
210
0.0
220
0.0
230
1.0
 70
     8
 71
     3
 72
    12
 73
     8
 74
     0
 42
0.00000001
 43
0.00000001
 40
0.0
 40
0.0
 40
0.0
 40
0.0
 40
0.2187857887071906
 40
0.4375776469534783
 40
0.6562353658863918
 40
0.8748419359490996
 40
1.0
 40
1.0
 40
1.0
 40
1.0
 10
826.626881469819
 20
1251.623188316276
 30
0.0
 10
826.662206866688
 20
1251.596224890204
 30
0.0
 10
826.7328586404203
 20
1251.542297290042
 30
0.0
 10
826.8668218690615
 20
1251.509701401069
 30
0.0
 10
827.0023644953415
 20
1251.519050532311
 30
0.0
 10
827.1112622996354
 20
1251.562929290393
 30
0.0
 10
827.1645660104411
 20
1251.607104848679
 30
0.0
 10
827.1839728620752
 20
1251.623188316276
 30
0.0
  0
ARC
  5
263
330
1F
100
AcDbEntity
  8
1
  6
SLD-Сплошная
100
AcDbCircle
 10
810.6640129297
 20
1234.4970548485
 30
0.0
 40
23.41191191647885
100
AcDbArc
 50
47.0134403894
 51
49.9175229087
  0
ARC
  5
264
330
1F
100
AcDbEntity
  8
1
  6
SLD-Сплошная
100
AcDbCircle
 10
844.1506951467
 20
1233.2648098417
 30
0.0
 40
26.56195549542856
100
AcDbArc
 50
133.8816987744
 51
136.1183012256
  0
ARC
  5
265
330
1F
100
AcDbEntity
  8
1
  6
SLD-Сплошная
100
AcDbCircle
 10
842.9184501395
 20
1266.7514920584
 30
0.0
 40
23.41191191596102
100
AcDbArc
 50
220.0824770913
 51
222.9865596106
  0
SPLINE
  5
266
330
1F
100
AcDbEntity
  8
1
  6
SLD-Сплошная
100
AcDbSpline
210
0.0
220
0.0
230
1.0
 70
     8
 71
     3
 72
    12
 73
     8
 74
     0
 42
0.00000001
 43
0.00000001
 40
0.0
 40
0.0
 40
0.0
 40
0.0
 40
0.2187857887072029
 40
0.4375776469534793
 40
0.6562353658864007
 40
0.8748419359491082
 40
1.0
 40
1.0
 40
1.0
 40
1.0
 10
825.7923166721348
 20
1250.231532126335
 30
0.0
 10
825.8192800982068
 20
1250.266857523204
 30
0.0
 10
825.8732076983683
 20
1250.337509296937
 30
0.0
 10
825.9058035873414
 20
1250.471472525578
 30
0.0
 10
825.8964544560994
 20
1250.607015151858
 30
0.0
 10
825.8525756980175
 20
1250.715912956152
 30
0.0
 10
825.808400139731
 20
1250.769216666958
 30
0.0
 10
825.7923166721348
 20
1250.788623518592
 30
0.0
  0
ARC
  5
267
330
1F
100
AcDbEntity
  8
1
  6
SLD-Сплошная
100
AcDbCircle
 10
842.9184501397
 20
1234.2686635864
 30
0.0
 40
23.41191191616386
100
AcDbArc
 50
137.0134403894
 51
139.9175229087
  0
ARC
  5
268
330
1F
100
AcDbEntity
  8
1
  6
SLD-Сплошная
100
AcDbCircle
 10
844.1506951468
 20
1267.7553458033
 30
0.0
 40
26.56195549555692
100
AcDbArc
 50
223.8816987744
 51
226.1183012256
  0
ARC
  5
269
330
1F
100
AcDbEntity
  8
1
  6
SLD-Сплошная
100
AcDbCircle
 10
810.6640129299
 20
1266.5231007962
 30
0.0
 40
23.41191191614502
100
AcDbArc
 50
310.0824770913
 51
312.9865596106
  0
SPLINE
  5
26A
330
1F
100
AcDbEntity
  8
1
  6
SLD-Сплошная
100
AcDbSpline
210
0.0
220
0.0
230
1.0
 70
     8
 71
     3
 72
    12
 73
     8
 74
     0
 42
0.00000001
 43
0.00000001
 40
0.0
 40
0.0
 40
0.0
 40
0.0
 40
0.218785788707213
 40
0.4375776469534767
 40
0.6562353658863805
 40
0.8748419359490962
 40
1.0
 40
1.0
 40
1.0
 40
1.0
 10
827.1839728620752
 20
1249.396967328651
 30
0.0
 10
827.1486474652061
 20
1249.423930754723
 30
0.0
 10
827.0779956914738
 20
1249.477858354885
 30
0.0
 10
826.9440324628328
 20
1249.510454243858
 30
0.0
 10
826.8084898365528
 20
1249.501105112616
 30
0.0
 10
826.6995920322588
 20
1249.457226354534
 30
0.0
 10
826.646288321453
 20
1249.413050796247
 30
0.0
 10
826.626881469819
 20
1249.396967328651
 30
0.0
  0
ARC
  5
26B
330
1F
100
AcDbEntity
  8
1
  6
SLD-Сплошная
100
AcDbCircle
 10
843.146841402
 20
1266.5231007962
 30
0.0
 40
23.41191191614406
100
AcDbArc
 50
227.0134403894
 51
229.9175229087
  0
CIRCLE
  5
26C
330
1F
100
AcDbEntity
  8
1
  6
SLD-Сплошная
100
AcDbCircle
 10
826.9054271659
 20
1250.5100778225
 30
0.0
 40
3.500000000000189
  0
ELLIPSE
  5
26D
330
1F
100
AcDbEntity
  8
1
  6
SLD-Сплошная
100
AcDbEllipse
 10
827.9748139472
 20
1250.5100778225
 30
0.0
 11
-0.4122489361056978
 21
0.0
 31
0.0
210
0.0
220
0.0
230
1.0
 40
0.9702875252
 41
5.512866274278409
 42
7.053504340080777
  0
ELLIPSE
  5
26E
330
1F
100
AcDbEntity
  8
1
  6
SLD-Сплошная
100
AcDbEllipse
 10
826.9054271659
 20
1249.4406910412
 30
0.0
 11
0.0
 21
0.4122489361054704
 31
0.0
210
0.0
220
0.0
230
1.0
 40
0.9702875252
 41
5.51286627427843
 42
7.053504340080348
  0
ELLIPSE
  5
26F
330
1F
100
AcDbEntity
  8
1
  6
SLD-Сплошная
100
AcDbEllipse
 10
826.9054271659
 20
1251.5794646037
 30
0.0
 11
0.0
 21
-0.4122489361054704
 31
0.0
210
0.0
220
0.0
230
1.0
 40
0.9702875252
 41
5.512866274278696
 42
7.053504340080899
  0
ELLIPSE
  5
270
330
1F
100
AcDbEntity
  8
1
  6
SLD-Сплошная
100
AcDbEllipse
 10
825.8360403847
 20
1250.5100778225
 30
0.0
 11
0.4122489361055841
 21
0.0
 31
0.0
210
0.0
220
0.0
230
1.0
 40
0.9702875252
 41
5.512866274278639
 42
7.053504340080548
  0
LINE
  5
271
330
1F
100
AcDbEntity
  8
1
  6
SLD-Сплошная
100
AcDbLine
 10
828.0721533549
 20
1252.4099384763
 30
0.0
 11
828.0721533549
 21
1252.1717787583
 31
0.0
  0
LINE
  5
272
330
1F
100
AcDbEntity
  8
1
  6
SLD-Сплошная
100
AcDbLine
 10
828.0721533549
 20
1252.1717787583
 30
0.0
 11
827.1839728621
 21
1251.2835982654
 31
0.0
  0
LINE
  5
273
330
1F
100
AcDbEntity
  8
1
  6
SLD-Сплошная
100
AcDbLine
 10
828.8052878198
 20
1249.3433516335
 30
0.0
 11
828.5671281017
 21
1249.3433516335
 31
0.0
  0
LINE
  5
274
330
1F
100
AcDbEntity
  8
1
  6
SLD-Сплошная
100
AcDbLine
 10
828.5671281017
 20
1249.3433516335
 30
0.0
 11
827.6789476089
 21
1250.2315321263
 31
0.0
  0
LINE
  5
275
330
1F
100
AcDbEntity
  8
1
  6
SLD-Сплошная
100
AcDbLine
 10
828.0721533549
 20
1248.6102171687
 30
0.0
 11
828.0721533549
 21
1248.8483768867
 31
0.0
  0
LINE
  5
276
330
1F
100
AcDbEntity
  8
1
  6
SLD-Сплошная
100
AcDbLine
 10
827.1839728621
 20
1249.7365573795
 30
0.0
 11
828.0721533549
 21
1248.8483768867
 31
0.0
  0
LINE
  5
277
330
1F
100
AcDbEntity
  8
1
  6
SLD-Сплошная
100
AcDbLine
 10
825.738700977
 20
1248.6102171687
 30
0.0
 11
825.738700977
 21
1248.8483768867
 31
0.0
  0
LINE
  5
278
330
1F
100
AcDbEntity
  8
1
  6
SLD-Сплошная
100
AcDbLine
 10
825.738700977
 20
1248.8483768867
 30
0.0
 11
826.6268814698
 21
1249.7365573795
 31
0.0
  0
LINE
  5
279
330
1F
100
AcDbEntity
  8
1
  6
SLD-Сплошная
100
AcDbLine
 10
825.738700977
 20
1252.4099384763
 30
0.0
 11
825.738700977
 21
1252.1717787583
 31
0.0
  0
LINE
  5
27A
330
1F
100
AcDbEntity
  8
1
  6
SLD-Сплошная
100
AcDbLine
 10
826.6268814698
 20
1251.2835982654
 30
0.0
 11
825.738700977
 21
1252.1717787583
 31
0.0
  0
LINE
  5
27B
330
1F
100
AcDbEntity
  8
1
  6
SLD-Сплошная
100
AcDbLine
 10
825.0055665121
 20
1251.6768040114
 30
0.0
 11
825.2437262302
 21
1251.6768040114
 31
0.0
  0
LINE
  5
27C
330
1F
100
AcDbEntity
  8
1
  6
SLD-Сплошная
100
AcDbLine
 10
825.2437262302
 20
1251.6768040114
 30
0.0
 11
826.131906723
 21
1250.7886235186
 31
0.0
  0
LINE
  5
27D
330
1F
100
AcDbEntity
  8
1
  6
SLD-Сплошная
100
AcDbLine
 10
828.8052878198
 20
1251.6768040114
 30
0.0
 11
828.5671281017
 21
1251.6768040114
 31
0.0
  0
LINE
  5
27E
330
1F
100
AcDbEntity
  8
1
  6
SLD-Сплошная
100
AcDbLine
 10
827.6789476089
 20
1250.7886235186
 30
0.0
 11
828.5671281017
 21
1251.6768040114
 31
0.0
  0
LINE
  5
27F
330
1F
100
AcDbEntity
  8
1
  6
SLD-Сплошная
100
AcDbLine
 10
825.0055665121
 20
1249.3433516335
 30
0.0
 11
825.2437262302
 21
1249.3433516335
 31
0.0
  0
LINE
  5
280
330
1F
100
AcDbEntity
  8
1
  6
SLD-Сплошная
100
AcDbLine
 10
826.131906723
 20
1250.2315321263
 30
0.0
 11
825.2437262302
 21
1249.3433516335
 31
0.0
  0
LINE
  5
281
330
1F
100
AcDbEntity
  8
1
  6
SLD-Сплошная
100
AcDbLine
 10
825.738700977
 20
1252.1717787583
 30
0.0
 11
825.2437262302
 21
1251.6768040114
 31
0.0
  0
LINE
  5
282
330
1F
100
AcDbEntity
  8
1
  6
SLD-Сплошная
100
AcDbLine
 10
828.0721533549
 20
1248.8483768867
 30
0.0
 11
828.5671281017
 21
1249.3433516335
 31
0.0
  0
LINE
  5
283
330
1F
100
AcDbEntity
  8
1
  6
SLD-Сплошная
100
AcDbLine
 10
825.2437262302
 20
1249.3433516335
 30
0.0
 11
825.738700977
 21
1248.8483768867
 31
0.0
  0
LINE
  5
284
330
1F
100
AcDbEntity
  8
1
  6
SLD-Сплошная
100
AcDbLine
 10
828.5671281017
 20
1251.6768040114
 30
0.0
 11
828.0721533549
 21
1252.1717787583
 31
0.0
  0
CIRCLE
  5
285
330
1F
100
AcDbEntity
  8
1
  6
SLD-Сплошная
100
AcDbCircle
 10
826.9054271659
 20
1250.5100778225
 30
0.0
 40
4.99999999999996
  0
ARC
  5
286
330
1F
100
AcDbEntity
  8
1
  6
SLD-Сплошная
100
AcDbCircle
 10
709.1506951478
 20
1377.7553458043
 30
0.0
 40
26.56195549691925
100
AcDbArc
 50
223.8816987745
 51
226.1183012256
  0
ARC
  5
287
330
1F
100
AcDbEntity
  8
1
  6
SLD-Сплошная
100
AcDbCircle
 10
675.66401293
 20
1376.5231007961
 30
0.0
 40
23.41191191606745
100
AcDbArc
 50
310.0824770913
 51
312.9865596106
  0
SPLINE
  5
288
330
1F
100
AcDbEntity
  8
1
  6
SLD-Сплошная
100
AcDbSpline
210
0.0
220
0.0
230
1.0
 70
     8
 71
     3
 72
    12
 73
     8
 74
     0
 42
0.00000001
 43
0.00000001
 40
0.0
 40
0.0
 40
0.0
 40
0.0
 40
0.2187857887072033
 40
0.4375776469534801
 40
0.6562353658863794
 40
0.874841935949108
 40
1.0
 40
1.0
 40
1.0
 40
1.0
 10
692.1839728620752
 20
1359.396967328651
 30
0.0
 10
692.1486474652062
 20
1359.423930754723
 30
0.0
 10
692.0779956914738
 20
1359.477858354885
 30
0.0
 10
691.9440324628328
 20
1359.510454243858
 30
0.0
 10
691.8084898365528
 20
1359.501105112616
 30
0.0
 10
691.6995920322588
 20
1359.457226354534
 30
0.0
 10
691.646288321453
 20
1359.413050796247
 30
0.0
 10
691.6268814698191
 20
1359.396967328651
 30
0.0
  0
ARC
  5
289
330
1F
100
AcDbEntity
  8
1
  6
SLD-Сплошная
100
AcDbCircle
 10
708.1468414019
 20
1376.5231007961
 30
0.0
 40
23.41191191606751
100
AcDbArc
 50
227.0134403894
 51
229.9175229087
  0
ARC
  5
28A
330
1F
100
AcDbEntity
  8
1
  6
SLD-Сплошная
100
AcDbCircle
 10
674.6601591842
 20
1377.7553458042
 30
0.0
 40
26.56195549684454
100
AcDbArc
 50
313.8816987744
 51
316.1183012256
  0
ARC
  5
28B
330
1F
100
AcDbEntity
  8
1
  6
SLD-Сплошная
100
AcDbCircle
 10
675.8924041921
 20
1344.2686635864
 30
0.0
 40
23.41191191628833
100
AcDbArc
 50
40.0824770913
 51
42.9865596106
  0
SPLINE
  5
28C
330
1F
100
AcDbEntity
  8
1
  6
SLD-Сплошная
100
AcDbSpline
210
0.0
220
0.0
230
1.0
 70
     8
 71
     3
 72
    12
 73
     8
 74
     0
 42
0.00000001
 43
0.00000001
 40
0.0
 40
0.0
 40
0.0
 40
0.0
 40
0.2187857887071986
 40
0.4375776469534816
 40
0.6562353658863895
 40
0.8748419359490992
 40
1.0
 40
1.0
 40
1.0
 40
1.0
 10
693.0185376597594
 20
1360.788623518592
 30
0.0
 10
692.9915742336873
 20
1360.753298121723
 30
0.0
 10
692.9376466335258
 20
1360.68264634799
 30
0.0
 10
692.9050507445527
 20
1360.548683119349
 30
0.0
 10
692.9143998757949
 20
1360.413140493069
 30
0.0
 10
692.9582786338766
 20
1360.304242688775
 30
0.0
 10
693.0024541921631
 20
1360.250938977969
 30
0.0
 10
693.0185376597594
 20
1360.231532126335
 30
0.0
  0
ARC
  5
28D
330
1F
100
AcDbEntity
  8
1
  6
SLD-Сплошная
100
AcDbCircle
 10
675.8924041921
 20
1376.7514920586
 30
0.0
 40
23.41191191628818
100
AcDbArc
 50
317.0134403894
 51
319.9175229087
  0
ARC
  5
28E
330
1F
100
AcDbEntity
  8
1
  6
SLD-Сплошная
100
AcDbCircle
 10
674.6601591842
 20
1343.2648098407
 30
0.0
 40
26.5619554968447
100
AcDbArc
 50
43.8816987744
 51
46.1183012256
  0
ARC
  5
28F
330
1F
100
AcDbEntity
  8
1
  6
SLD-Сплошная
100
AcDbCircle
 10
708.1468414019
 20
1344.4970548488
 30
0.0
 40
23.41191191606769
100
AcDbArc
 50
130.0824770913
 51
132.9865596106
  0
SPLINE
  5
290
330
1F
100
AcDbEntity
  8
1
  6
SLD-Сплошная
100
AcDbSpline
210
0.0
220
0.0
230
1.0
 70
     8
 71
     3
 72
    12
 73
     8
 74
     0
 42
0.00000001
 43
0.00000001
 40
0.0
 40
0.0
 40
0.0
 40
0.0
 40
0.218785788707212
 40
0.4375776469534823
 40
0.6562353658864029
 40
0.874841935949109
 40
1.0
 40
1.0
 40
1.0
 40
1.0
 10
691.6268814698191
 20
1361.623188316276
 30
0.0
 10
691.662206866688
 20
1361.596224890204
 30
0.0
 10
691.7328586404204
 20
1361.542297290042
 30
0.0
 10
691.8668218690615
 20
1361.509701401069
 30
0.0
 10
692.0023644953415
 20
1361.519050532311
 30
0.0
 10
692.1112622996354
 20
1361.562929290393
 30
0.0
 10
692.1645660104413
 20
1361.607104848679
 30
0.0
 10
692.1839728620752
 20
1361.623188316276
 30
0.0
  0
ARC
  5
291
330
1F
100
AcDbEntity
  8
1
  6
SLD-Сплошная
100
AcDbCircle
 10
675.66401293
 20
1344.4970548488
 30
0.0
 40
23.41191191606754
100
AcDbArc
 50
47.0134403894
 51
49.9175229087
  0
ARC
  5
292
330
1F
100
AcDbEntity
  8
1
  6
SLD-Сплошная
100
AcDbCircle
 10
709.1506951478
 20
1343.2648098406
 30
0.0
 40
26.56195549691893
100
AcDbArc
 50
133.8816987744
 51
136.1183012255
  0
ARC
  5
293
330
1F
100
AcDbEntity
  8
1
  6
SLD-Сплошная
100
AcDbCircle
 10
707.9184501398
 20
1376.7514920586
 30
0.0
 40
23.41191191633801
100
AcDbArc
 50
220.0824770913
 51
222.9865596106
  0
SPLINE
  5
294
330
1F
100
AcDbEntity
  8
1
  6
SLD-Сплошная
100
AcDbSpline
210
0.0
220
0.0
230
1.0
 70
     8
 71
     3
 72
    12
 73
     8
 74
     0
 42
0.00000001
 43
0.00000001
 40
0.0
 40
0.0
 40
0.0
 40
0.0
 40
0.2187857887071924
 40
0.4375776469534745
 40
0.6562353658863835
 40
0.8748419359490942
 40
1.0
 40
1.0
 40
1.0
 40
1.0
 10
690.7923166721348
 20
1360.231532126335
 30
0.0
 10
690.819280098207
 20
1360.266857523204
 30
0.0
 10
690.8732076983683
 20
1360.337509296937
 30
0.0
 10
690.9058035873416
 20
1360.471472525578
 30
0.0
 10
690.8964544560994
 20
1360.607015151858
 30
0.0
 10
690.8525756980176
 20
1360.715912956152
 30
0.0
 10
690.8084001397311
 20
1360.769216666958
 30
0.0
 10
690.7923166721348
 20
1360.788623518592
 30
0.0
  0
ARC
  5
295
330
1F
100
AcDbEntity
  8
1
  6
SLD-Сплошная
100
AcDbCircle
 10
707.9184501398
 20
1344.2686635863
 30
0.0
 40
23.41191191633801
100
AcDbArc
 50
137.0134403894
 51
139.9175229087
  0
CIRCLE
  5
296
330
1F
100
AcDbEntity
  8
1
  6
SLD-Сплошная
100
AcDbCircle
 10
691.9054271659
 20
1360.5100778225
 30
0.0
 40
3.499999999999948
  0
ELLIPSE
  5
297
330
1F
100
AcDbEntity
  8
1
  6
SLD-Сплошная
100
AcDbEllipse
 10
690.8360403847
 20
1360.5100778225
 30
0.0
 11
0.4122489361056978
 21
0.0
 31
0.0
210
0.0
220
0.0
230
1.0
 40
0.9702875252
 41
5.512866274278409
 42
7.053504340080777
  0
ELLIPSE
  5
298
330
1F
100
AcDbEntity
  8
1
  6
SLD-Сплошная
100
AcDbEllipse
 10
692.9748139472
 20
1360.5100778225
 30
0.0
 11
-0.4122489361056978
 21
0.0
 31
0.0
210
0.0
220
0.0
230
1.0
 40
0.9702875252
 41
5.512866274278409
 42
7.053504340080777
  0
ELLIPSE
  5
299
330
1F
100
AcDbEntity
  8
1
  6
SLD-Сплошная
100
AcDbEllipse
 10
691.9054271659
 20
1361.5794646037
 30
0.0
 11
0.0
 21
-0.4122489361056978
 31
0.0
210
0.0
220
0.0
230
1.0
 40
0.9702875252
 41
5.51286627427842
 42
7.053504340081174
  0
ELLIPSE
  5
29A
330
1F
100
AcDbEntity
  8
1
  6
SLD-Сплошная
100
AcDbEllipse
 10
691.9054271659
 20
1359.4406910412
 30
0.0
 11
0.0
 21
0.4122489361056978
 31
0.0
210
0.0
220
0.0
230
1.0
 40
0.9702875252
 41
5.512866274278296
 42
7.053504340080481
  0
LINE
  5
29B
330
1F
100
AcDbEntity
  8
1
  6
SLD-Сплошная
100
AcDbLine
 10
690.738700977
 20
1362.4099384763
 30
0.0
 11
690.738700977
 21
1362.1717787583
 31
0.0
  0
LINE
  5
29C
330
1F
100
AcDbEntity
  8
1
  6
SLD-Сплошная
100
AcDbLine
 10
691.6268814698
 20
1361.2835982654
 30
0.0
 11
690.738700977
 21
1362.1717787583
 31
0.0
  0
LINE
  5
29D
330
1F
100
AcDbEntity
  8
1
  6
SLD-Сплошная
100
AcDbLine
 10
693.0721533549
 20
1362.4099384763
 30
0.0
 11
693.0721533549
 21
1362.1717787583
 31
0.0
  0
LINE
  5
29E
330
1F
100
AcDbEntity
  8
1
  6
SLD-Сплошная
100
AcDbLine
 10
693.0721533549
 20
1362.1717787583
 30
0.0
 11
692.1839728621
 21
1361.2835982654
 31
0.0
  0
LINE
  5
29F
330
1F
100
AcDbEntity
  8
1
  6
SLD-Сплошная
100
AcDbLine
 10
693.8052878198
 20
1361.6768040114
 30
0.0
 11
693.5671281017
 21
1361.6768040114
 31
0.0
  0
LINE
  5
2A0
330
1F
100
AcDbEntity
  8
1
  6
SLD-Сплошная
100
AcDbLine
 10
692.6789476089
 20
1360.7886235186
 30
0.0
 11
693.5671281017
 21
1361.6768040114
 31
0.0
  0
LINE
  5
2A1
330
1F
100
AcDbEntity
  8
1
  6
SLD-Сплошная
100
AcDbLine
 10
690.0055665121
 20
1361.6768040114
 30
0.0
 11
690.2437262302
 21
1361.6768040114
 31
0.0
  0
LINE
  5
2A2
330
1F
100
AcDbEntity
  8
1
  6
SLD-Сплошная
100
AcDbLine
 10
690.2437262302
 20
1361.6768040114
 30
0.0
 11
691.131906723
 21
1360.7886235186
 31
0.0
  0
LINE
  5
2A3
330
1F
100
AcDbEntity
  8
1
  6
SLD-Сплошная
100
AcDbLine
 10
693.0721533549
 20
1358.6102171687
 30
0.0
 11
693.0721533549
 21
1358.8483768867
 31
0.0
  0
LINE
  5
2A4
330
1F
100
AcDbEntity
  8
1
  6
SLD-Сплошная
100
AcDbLine
 10
692.1839728621
 20
1359.7365573795
 30
0.0
 11
693.0721533549
 21
1358.8483768867
 31
0.0
  0
LINE
  5
2A5
330
1F
100
AcDbEntity
  8
1
  6
SLD-Сплошная
100
AcDbLine
 10
690.738700977
 20
1358.6102171687
 30
0.0
 11
690.738700977
 21
1358.8483768867
 31
0.0
  0
LINE
  5
2A6
330
1F
100
AcDbEntity
  8
1
  6
SLD-Сплошная
100
AcDbLine
 10
690.738700977
 20
1358.8483768867
 30
0.0
 11
691.6268814698
 21
1359.7365573795
 31
0.0
  0
LINE
  5
2A7
330
1F
100
AcDbEntity
  8
1
  6
SLD-Сплошная
100
AcDbLine
 10
693.8052878198
 20
1359.3433516335
 30
0.0
 11
693.5671281017
 21
1359.3433516335
 31
0.0
  0
LINE
  5
2A8
330
1F
100
AcDbEntity
  8
1
  6
SLD-Сплошная
100
AcDbLine
 10
693.5671281017
 20
1359.3433516335
 30
0.0
 11
692.6789476089
 21
1360.2315321263
 31
0.0
  0
LINE
  5
2A9
330
1F
100
AcDbEntity
  8
1
  6
SLD-Сплошная
100
AcDbLine
 10
690.0055665121
 20
1359.3433516335
 30
0.0
 11
690.2437262302
 21
1359.3433516335
 31
0.0
  0
LINE
  5
2AA
330
1F
100
AcDbEntity
  8
1
  6
SLD-Сплошная
100
AcDbLine
 10
691.131906723
 20
1360.2315321263
 30
0.0
 11
690.2437262302
 21
1359.3433516335
 31
0.0
  0
LINE
  5
2AB
330
1F
100
AcDbEntity
  8
1
  6
SLD-Сплошная
100
AcDbLine
 10
693.0721533549
 20
1358.8483768867
 30
0.0
 11
693.5671281017
 21
1359.3433516335
 31
0.0
  0
LINE
  5
2AC
330
1F
100
AcDbEntity
  8
1
  6
SLD-Сплошная
100
AcDbLine
 10
693.5671281017
 20
1361.6768040114
 30
0.0
 11
693.0721533549
 21
1362.1717787583
 31
0.0
  0
LINE
  5
2AD
330
1F
100
AcDbEntity
  8
1
  6
SLD-Сплошная
100
AcDbLine
 10
690.738700977
 20
1362.1717787583
 30
0.0
 11
690.2437262302
 21
1361.6768040114
 31
0.0
  0
LINE
  5
2AE
330
1F
100
AcDbEntity
  8
1
  6
SLD-Сплошная
100
AcDbLine
 10
690.2437262302
 20
1359.3433516335
 30
0.0
 11
690.738700977
 21
1358.8483768867
 31
0.0
  0
CIRCLE
  5
2AF
330
1F
100
AcDbEntity
  8
1
  6
SLD-Сплошная
100
AcDbCircle
 10
691.9054271659
 20
1360.5100778225
 30
0.0
 40
4.999999999999799
  0
ARC
  5
2B0
330
1F
100
AcDbEntity
  8
1
  6
SLD-Сплошная
100
AcDbCircle
 10
739.6601591853
 20
1267.7553458031
 30
0.0
 40
26.56195549523929
100
AcDbArc
 50
313.8816987744
 51
316.1183012256
  0
ARC
  5
2B1
330
1F
100
AcDbEntity
  8
1
  6
SLD-Сплошная
100
AcDbCircle
 10
740.8924041923
 20
1234.2686635865
 30
0.0
 40
23.41191191600655
100
AcDbArc
 50
40.0824770913
 51
42.9865596106
  0
SPLINE
  5
2B2
330
1F
100
AcDbEntity
  8
1
  6
SLD-Сплошная
100
AcDbSpline
210
0.0
220
0.0
230
1.0
 70
     8
 71
     3
 72
    12
 73
     8
 74
     0
 42
0.00000001
 43
0.00000001
 40
0.0
 40
0.0
 40
0.0
 40
0.0
 40
0.2187857887071764
 40
0.4375776469534903
 40
0.6562353658863638
 40
0.8748419359491098
 40
1.0
 40
1.0
 40
1.0
 40
1.0
 10
758.0185376597593
 20
1250.788623518592
 30
0.0
 10
757.9915742336874
 20
1250.753298121722
 30
0.0
 10
757.9376466335258
 20
1250.68264634799
 30
0.0
 10
757.9050507445527
 20
1250.548683119349
 30
0.0
 10
757.9143998757947
 20
1250.413140493069
 30
0.0
 10
757.9582786338766
 20
1250.304242688775
 30
0.0
 10
758.0024541921632
 20
1250.250938977969
 30
0.0
 10
758.0185376597593
 20
1250.231532126335
 30
0.0
  0
ARC
  5
2B3
330
1F
100
AcDbEntity
  8
1
  6
SLD-Сплошная
100
AcDbCircle
 10
740.8924041926
 20
1266.7514920582
 30
0.0
 40
23.41191191571508
100
AcDbArc
 50
317.0134403894
 51
319.9175229087
  0
ARC
  5
2B4
330
1F
100
AcDbEntity
  8
1
  6
SLD-Сплошная
100
AcDbCircle
 10
739.6601591849
 20
1233.2648098414
 30
0.0
 40
26.5619554957638
100
AcDbArc
 50
43.8816987744
 51
46.1183012256
  0
ARC
  5
2B5
330
1F
100
AcDbEntity
  8
1
  6
SLD-Сплошная
100
AcDbCircle
 10
773.1468414024
 20
1234.4970548482
 30
0.0
 40
23.41191191686548
100
AcDbArc
 50
130.0824770914
 51
132.9865596105
  0
SPLINE
  5
2B6
330
1F
100
AcDbEntity
  8
1
  6
SLD-Сплошная
100
AcDbSpline
210
0.0
220
0.0
230
1.0
 70
     8
 71
     3
 72
    12
 73
     8
 74
     0
 42
0.00000001
 43
0.00000001
 40
0.0
 40
0.0
 40
0.0
 40
0.0
 40
0.2187857887071906
 40
0.4375776469534783
 40
0.6562353658863918
 40
0.8748419359490996
 40
1.0
 40
1.0
 40
1.0
 40
1.0
 10
756.6268814698191
 20
1251.623188316276
 30
0.0
 10
756.662206866688
 20
1251.596224890204
 30
0.0
 10
756.7328586404204
 20
1251.542297290042
 30
0.0
 10
756.8668218690614
 20
1251.509701401069
 30
0.0
 10
757.0023644953415
 20
1251.519050532311
 30
0.0
 10
757.1112622996354
 20
1251.562929290393
 30
0.0
 10
757.1645660104414
 20
1251.607104848679
 30
0.0
 10
757.183972862075
 20
1251.623188316276
 30
0.0
  0
ARC
  5
2B7
330
1F
100
AcDbEntity
  8
1
  6
SLD-Сплошная
100
AcDbCircle
 10
740.6640129296
 20
1234.4970548484
 30
0.0
 40
23.41191191662439
100
AcDbArc
 50
47.0134403895
 51
49.9175229087
  0
ARC
  5
2B8
330
1F
100
AcDbEntity
  8
1
  6
SLD-Сплошная
100
AcDbCircle
 10
774.1506951469
 20
1233.2648098416
 30
0.0
 40
26.56195549561664
100
AcDbArc
 50
133.8816987744
 51
136.1183012256
  0
ARC
  5
2B9
330
1F
100
AcDbEntity
  8
1
  6
SLD-Сплошная
100
AcDbCircle
 10
772.9184501393
 20
1266.7514920582
 30
0.0
 40
23.41191191571517
100
AcDbArc
 50
220.0824770913
 51
222.9865596106
  0
SPLINE
  5
2BA
330
1F
100
AcDbEntity
  8
1
  6
SLD-Сплошная
100
AcDbSpline
210
0.0
220
0.0
230
1.0
 70
     8
 71
     3
 72
    12
 73
     8
 74
     0
 42
0.00000001
 43
0.00000001
 40
0.0
 40
0.0
 40
0.0
 40
0.0
 40
0.2187857887072029
 40
0.4375776469534793
 40
0.6562353658864007
 40
0.8748419359491082
 40
1.0
 40
1.0
 40
1.0
 40
1.0
 10
755.7923166721349
 20
1250.231532126335
 30
0.0
 10
755.8192800982068
 20
1250.266857523204
 30
0.0
 10
755.8732076983684
 20
1250.337509296937
 30
0.0
 10
755.9058035873416
 20
1250.471472525578
 30
0.0
 10
755.8964544560994
 20
1250.607015151858
 30
0.0
 10
755.8525756980175
 20
1250.715912956152
 30
0.0
 10
755.808400139731
 20
1250.769216666958
 30
0.0
 10
755.7923166721349
 20
1250.788623518592
 30
0.0
  0
ARC
  5
2BB
330
1F
100
AcDbEntity
  8
1
  6
SLD-Сплошная
100
AcDbCircle
 10
772.9184501396
 20
1234.2686635865
 30
0.0
 40
23.41191191600655
100
AcDbArc
 50
137.0134403894
 51
139.9175229087
  0
ARC
  5
2BC
330
1F
100
AcDbEntity
  8
1
  6
SLD-Сплошная
100
AcDbCircle
 10
774.1506951469
 20
1267.7553458035
 30
0.0
 40
26.56195549574523
100
AcDbArc
 50
223.8816987744
 51
226.1183012256
  0
ARC
  5
2BD
330
1F
100
AcDbEntity
  8
1
  6
SLD-Сплошная
100
AcDbCircle
 10
740.6640129298
 20
1266.5231007963
 30
0.0
 40
23.41191191629063
100
AcDbArc
 50
310.0824770913
 51
312.9865596106
  0
SPLINE
  5
2BE
330
1F
100
AcDbEntity
  8
1
  6
SLD-Сплошная
100
AcDbSpline
210
0.0
220
0.0
230
1.0
 70
     8
 71
     3
 72
    12
 73
     8
 74
     0
 42
0.00000001
 43
0.00000001
 40
0.0
 40
0.0
 40
0.0
 40
0.0
 40
0.218785788707213
 40
0.4375776469534767
 40
0.6562353658863805
 40
0.8748419359490962
 40
1.0
 40
1.0
 40
1.0
 40
1.0
 10
757.183972862075
 20
1249.396967328651
 30
0.0
 10
757.1486474652062
 20
1249.423930754723
 30
0.0
 10
757.0779956914738
 20
1249.477858354885
 30
0.0
 10
756.9440324628328
 20
1249.510454243858
 30
0.0
 10
756.8084898365527
 20
1249.501105112616
 30
0.0
 10
756.6995920322588
 20
1249.457226354534
 30
0.0
 10
756.6462883214529
 20
1249.413050796247
 30
0.0
 10
756.6268814698191
 20
1249.396967328651
 30
0.0
  0
ARC
  5
2BF
330
1F
100
AcDbEntity
  8
1
  6
SLD-Сплошная
100
AcDbCircle
 10
773.1468414022
 20
1266.5231007964
 30
0.0
 40
23.41191191645321
100
AcDbArc
 50
227.0134403894
 51
229.9175229087
  0
CIRCLE
  5
2C0
330
1F
100
AcDbEntity
  8
1
  6
SLD-Сплошная
100
AcDbCircle
 10
756.9054271659
 20
1250.5100778225
 30
0.0
 40
3.500000000000109
  0
ELLIPSE
  5
2C1
330
1F
100
AcDbEntity
  8
1
  6
SLD-Сплошная
100
AcDbEllipse
 10
757.9748139472
 20
1250.5100778225
 30
0.0
 11
-0.4122489361056978
 21
0.0
 31
0.0
210
0.0
220
0.0
230
1.0
 40
0.9702875252
 41
5.512866274278409
 42
7.053504340080777
  0
ELLIPSE
  5
2C2
330
1F
100
AcDbEntity
  8
1
  6
SLD-Сплошная
100
AcDbEllipse
 10
755.8360403847
 20
1250.5100778225
 30
0.0
 11
0.4122489361056978
 21
0.0
 31
0.0
210
0.0
220
0.0
230
1.0
 40
0.9702875252
 41
5.512866274278501
 42
7.053504340080686
  0
ELLIPSE
  5
2C3
330
1F
100
AcDbEntity
  8
1
  6
SLD-Сплошная
100
AcDbEllipse
 10
756.9054271659
 20
1251.5794646037
 30
0.0
 11
0.0
 21
-0.4122489361054704
 31
0.0
210
0.0
220
0.0
230
1.0
 40
0.9702875252
 41
5.512866274278838
 42
7.053504340080348
  0
ELLIPSE
  5
2C4
330
1F
100
AcDbEntity
  8
1
  6
SLD-Сплошная
100
AcDbEllipse
 10
756.9054271659
 20
1249.4406910412
 30
0.0
 11
0.0
 21
0.4122489361054704
 31
0.0
210
0.0
220
0.0
230
1.0
 40
0.9702875252
 41
5.512866274278838
 42
7.053504340080348
  0
LINE
  5
2C5
330
1F
100
AcDbEntity
  8
1
  6
SLD-Сплошная
100
AcDbLine
 10
755.0055665121
 20
1251.6768040114
 30
0.0
 11
755.2437262302
 21
1251.6768040114
 31
0.0
  0
LINE
  5
2C6
330
1F
100
AcDbEntity
  8
1
  6
SLD-Сплошная
100
AcDbLine
 10
755.2437262302
 20
1251.6768040114
 30
0.0
 11
756.131906723
 21
1250.7886235186
 31
0.0
  0
LINE
  5
2C7
330
1F
100
AcDbEntity
  8
1
  6
SLD-Сплошная
100
AcDbLine
 10
755.0055665121
 20
1249.3433516335
 30
0.0
 11
755.2437262302
 21
1249.3433516335
 31
0.0
  0
LINE
  5
2C8
330
1F
100
AcDbEntity
  8
1
  6
SLD-Сплошная
100
AcDbLine
 10
756.131906723
 20
1250.2315321263
 30
0.0
 11
755.2437262302
 21
1249.3433516335
 31
0.0
  0
LINE
  5
2C9
330
1F
100
AcDbEntity
  8
1
  6
SLD-Сплошная
100
AcDbLine
 10
755.738700977
 20
1248.6102171687
 30
0.0
 11
755.738700977
 21
1248.8483768867
 31
0.0
  0
LINE
  5
2CA
330
1F
100
AcDbEntity
  8
1
  6
SLD-Сплошная
100
AcDbLine
 10
755.738700977
 20
1248.8483768867
 30
0.0
 11
756.6268814698
 21
1249.7365573795
 31
0.0
  0
LINE
  5
2CB
330
1F
100
AcDbEntity
  8
1
  6
SLD-Сплошная
100
AcDbLine
 10
758.0721533549
 20
1252.4099384763
 30
0.0
 11
758.0721533549
 21
1252.1717787583
 31
0.0
  0
LINE
  5
2CC
330
1F
100
AcDbEntity
  8
1
  6
SLD-Сплошная
100
AcDbLine
 10
758.0721533549
 20
1252.1717787583
 30
0.0
 11
757.1839728621
 21
1251.2835982654
 31
0.0
  0
LINE
  5
2CD
330
1F
100
AcDbEntity
  8
1
  6
SLD-Сплошная
100
AcDbLine
 10
758.8052878198
 20
1249.3433516335
 30
0.0
 11
758.5671281017
 21
1249.3433516335
 31
0.0
  0
LINE
  5
2CE
330
1F
100
AcDbEntity
  8
1
  6
SLD-Сплошная
100
AcDbLine
 10
758.5671281017
 20
1249.3433516335
 30
0.0
 11
757.6789476089
 21
1250.2315321263
 31
0.0
  0
LINE
  5
2CF
330
1F
100
AcDbEntity
  8
1
  6
SLD-Сплошная
100
AcDbLine
 10
755.738700977
 20
1252.4099384763
 30
0.0
 11
755.738700977
 21
1252.1717787583
 31
0.0
  0
LINE
  5
2D0
330
1F
100
AcDbEntity
  8
1
  6
SLD-Сплошная
100
AcDbLine
 10
756.6268814698
 20
1251.2835982654
 30
0.0
 11
755.738700977
 21
1252.1717787583
 31
0.0
  0
LINE
  5
2D1
330
1F
100
AcDbEntity
  8
1
  6
SLD-Сплошная
100
AcDbLine
 10
758.0721533549
 20
1248.6102171687
 30
0.0
 11
758.0721533549
 21
1248.8483768867
 31
0.0
  0
LINE
  5
2D2
330
1F
100
AcDbEntity
  8
1
  6
SLD-Сплошная
100
AcDbLine
 10
757.1839728621
 20
1249.7365573795
 30
0.0
 11
758.0721533549
 21
1248.8483768867
 31
0.0
  0
LINE
  5
2D3
330
1F
100
AcDbEntity
  8
1
  6
SLD-Сплошная
100
AcDbLine
 10
758.8052878198
 20
1251.6768040114
 30
0.0
 11
758.5671281017
 21
1251.6768040114
 31
0.0
  0
LINE
  5
2D4
330
1F
100
AcDbEntity
  8
1
  6
SLD-Сплошная
100
AcDbLine
 10
757.6789476089
 20
1250.7886235186
 30
0.0
 11
758.5671281017
 21
1251.6768040114
 31
0.0
  0
LINE
  5
2D5
330
1F
100
AcDbEntity
  8
1
  6
SLD-Сплошная
100
AcDbLine
 10
755.2437262302
 20
1249.3433516335
 30
0.0
 11
755.738700977
 21
1248.8483768867
 31
0.0
  0
LINE
  5
2D6
330
1F
100
AcDbEntity
  8
1
  6
SLD-Сплошная
100
AcDbLine
 10
758.0721533549
 20
1248.8483768867
 30
0.0
 11
758.5671281017
 21
1249.3433516335
 31
0.0
  0
LINE
  5
2D7
330
1F
100
AcDbEntity
  8
1
  6
SLD-Сплошная
100
AcDbLine
 10
758.5671281017
 20
1251.6768040114
 30
0.0
 11
758.0721533549
 21
1252.1717787583
 31
0.0
  0
LINE
  5
2D8
330
1F
100
AcDbEntity
  8
1
  6
SLD-Сплошная
100
AcDbLine
 10
755.738700977
 20
1252.1717787583
 30
0.0
 11
755.2437262302
 21
1251.6768040114
 31
0.0
  0
CIRCLE
  5
2D9
330
1F
100
AcDbEntity
  8
1
  6
SLD-Сплошная
100
AcDbCircle
 10
756.9054271659
 20
1250.5100778225
 30
0.0
 40
4.99999999999996
  0
ARC
  5
2DA
330
1F
100
AcDbEntity
  8
1
  6
SLD-Сплошная
100
AcDbCircle
 10
691.6506951467
 20
1360.2553458032
 30
0.0
 40
26.56195549536302
100
AcDbArc
 50
223.8816987744
 51
226.1183012256
  0
ARC
  5
2DB
330
1F
100
AcDbEntity
  8
1
  6
SLD-Сплошная
100
AcDbCircle
 10
658.1640129297
 20
1359.0231007964
 30
0.0
 40
23.41191191649939
100
AcDbArc
 50
310.0824770913
 51
312.9865596105
  0
SPLINE
  5
2DC
330
1F
100
AcDbEntity
  8
1
  6
SLD-Сплошная
100
AcDbSpline
210
0.0
220
0.0
230
1.0
 70
     8
 71
     3
 72
    12
 73
     8
 74
     0
 42
0.00000001
 43
0.00000001
 40
0.0
 40
0.0
 40
0.0
 40
0.0
 40
0.2187857887072033
 40
0.4375776469534801
 40
0.6562353658863794
 40
0.874841935949108
 40
1.0
 40
1.0
 40
1.0
 40
1.0
 10
674.683972862075
 20
1341.896967328651
 30
0.0
 10
674.6486474652062
 20
1341.923930754723
 30
0.0
 10
674.5779956914737
 20
1341.977858354885
 30
0.0
 10
674.4440324628328
 20
1342.010454243858
 30
0.0
 10
674.3084898365528
 20
1342.001105112616
 30
0.0
 10
674.1995920322588
 20
1341.957226354534
 30
0.0
 10
674.1462883214529
 20
1341.913050796247
 30
0.0
 10
674.1268814698192
 20
1341.896967328651
 30
0.0
  0
ARC
  5
2DD
330
1F
100
AcDbEntity
  8
1
  6
SLD-Сплошная
100
AcDbCircle
 10
690.6468414022
 20
1359.0231007965
 30
0.0
 40
23.4119119165318
100
AcDbArc
 50
227.0134403895
 51
229.9175229087
  0
ARC
  5
2DE
330
1F
100
AcDbEntity
  8
1
  6
SLD-Сплошная
100
AcDbCircle
 10
657.1601591852
 20
1360.2553458032
 30
0.0
 40
26.56195549543732
100
AcDbArc
 50
313.8816987744
 51
316.1183012256
  0
ARC
  5
2DF
330
1F
100
AcDbEntity
  8
1
  6
SLD-Сплошная
100
AcDbCircle
 10
658.392404192
 20
1326.7686635862
 30
0.0
 40
23.41191191651609
100
AcDbArc
 50
40.0824770913
 51
42.9865596106
  0
SPLINE
  5
2E0
330
1F
100
AcDbEntity
  8
1
  6
SLD-Сплошная
100
AcDbSpline
210
0.0
220
0.0
230
1.0
 70
     8
 71
     3
 72
    12
 73
     8
 74
     0
 42
0.00000001
 43
0.00000001
 40
0.0
 40
0.0
 40
0.0
 40
0.0
 40
0.2187857887071941
 40
0.4375776469534771
 40
0.6562353658863852
 40
0.8748419359490948
 40
1.0
 40
1.0
 40
1.0
 40
1.0
 10
675.5185376597593
 20
1343.288623518592
 30
0.0
 10
675.4915742336873
 20
1343.253298121723
 30
0.0
 10
675.4376466335258
 20
1343.18264634799
 30
0.0
 10
675.4050507445527
 20
1343.048683119349
 30
0.0
 10
675.4143998757947
 20
1342.913140493069
 30
0.0
 10
675.4582786338766
 20
1342.804242688775
 30
0.0
 10
675.502454192163
 20
1342.750938977969
 30
0.0
 10
675.5185376597593
 20
1342.731532126336
 30
0.0
  0
ARC
  5
2E1
330
1F
100
AcDbEntity
  8
1
  6
SLD-Сплошная
100
AcDbCircle
 10
658.3924041923
 20
1359.2514920584
 30
0.0
 40
23.4119119160038
100
AcDbArc
 50
317.0134403894
 51
319.9175229087
  0
ARC
  5
2E2
330
1F
100
AcDbEntity
  8
1
  6
SLD-Сплошная
100
AcDbCircle
 10
657.1601591852
 20
1325.7648098417
 30
0.0
 40
26.56195549543732
100
AcDbArc
 50
43.8816987744
 51
46.1183012256
  0
ARC
  5
2E3
330
1F
100
AcDbEntity
  8
1
  6
SLD-Сплошная
100
AcDbCircle
 10
690.6468414021
 20
1326.9970548486
 30
0.0
 40
23.41191191637677
100
AcDbArc
 50
130.0824770913
 51
132.9865596106
  0
SPLINE
  5
2E4
330
1F
100
AcDbEntity
  8
1
  6
SLD-Сплошная
100
AcDbSpline
210
0.0
220
0.0
230
1.0
 70
     8
 71
     3
 72
    12
 73
     8
 74
     0
 42
0.00000001
 43
0.00000001
 40
0.0
 40
0.0
 40
0.0
 40
0.0
 40
0.2187857887072094
 40
0.4375776469534816
 40
0.6562353658864022
 40
0.8748419359491086
 40
1.0
 40
1.0
 40
1.0
 40
1.0
 10
674.1268814698191
 20
1344.123188316276
 30
0.0
 10
674.162206866688
 20
1344.096224890204
 30
0.0
 10
674.2328586404203
 20
1344.042297290042
 30
0.0
 10
674.3668218690614
 20
1344.009701401069
 30
0.0
 10
674.5023644953415
 20
1344.019050532311
 30
0.0
 10
674.6112622996354
 20
1344.062929290393
 30
0.0
 10
674.6645660104413
 20
1344.107104848679
 30
0.0
 10
674.683972862075
 20
1344.123188316276
 30
0.0
  0
ARC
  5
2E5
330
1F
100
AcDbEntity
  8
1
  6
SLD-Сплошная
100
AcDbCircle
 10
658.1640129299
 20
1326.9970548487
 30
0.0
 40
23.41191191621436
100
AcDbArc
 50
47.0134403894
 51
49.9175229087
  0
ARC
  5
2E6
330
1F
100
AcDbEntity
  8
1
  6
SLD-Сплошная
100
AcDbCircle
 10
691.6506951469
 20
1325.7648098416
 30
0.0
 40
26.56195549561656
100
AcDbArc
 50
133.8816987744
 51
136.1183012256
  0
ARC
  5
2E7
330
1F
100
AcDbEntity
  8
1
  6
SLD-Сплошная
100
AcDbCircle
 10
690.4184501396
 20
1359.2514920584
 30
0.0
 40
23.41191191607358
100
AcDbArc
 50
220.0824770913
 51
222.9865596106
  0
SPLINE
  5
2E8
330
1F
100
AcDbEntity
  8
1
  6
SLD-Сплошная
100
AcDbSpline
210
0.0
220
0.0
230
1.0
 70
     8
 71
     3
 72
    12
 73
     8
 74
     0
 42
0.00000001
 43
0.00000001
 40
0.0
 40
0.0
 40
0.0
 40
0.0
 40
0.2187857887071875
 40
0.4375776469534749
 40
0.6562353658863838
 40
0.8748419359490942
 40
1.0
 40
1.0
 40
1.0
 40
1.0
 10
673.2923166721348
 20
1342.731532126336
 30
0.0
 10
673.3192800982068
 20
1342.766857523204
 30
0.0
 10
673.3732076983684
 20
1342.837509296937
 30
0.0
 10
673.4058035873414
 20
1342.971472525578
 30
0.0
 10
673.3964544560993
 20
1343.107015151858
 30
0.0
 10
673.3525756980175
 20
1343.215912956152
 30
0.0
 10
673.308400139731
 20
1343.269216666958
 30
0.0
 10
673.2923166721348
 20
1343.288623518592
 30
0.0
  0
ARC
  5
2E9
330
1F
100
AcDbEntity
  8
1
  6
SLD-Сплошная
100
AcDbCircle
 10
690.41845014
 20
1326.7686635862
 30
0.0
 40
23.41191191658581
100
AcDbArc
 50
137.0134403895
 51
139.9175229087
  0
CIRCLE
  5
2EA
330
1F
100
AcDbEntity
  8
1
  6
SLD-Сплошная
100
AcDbCircle
 10
674.4054271659
 20
1343.0100778225
 30
0.0
 40
3.499999999999948
  0
ELLIPSE
  5
2EB
330
1F
100
AcDbEntity
  8
1
  6
SLD-Сплошная
100
AcDbEllipse
 10
674.4054271659
 20
1341.9406910412
 30
0.0
 11
0.0
 21
0.4122489361054704
 31
0.0
210
0.0
220
0.0
230
1.0
 40
0.9702875252
 41
5.512866274279222
 42
7.053504340079964
  0
ELLIPSE
  5
2EC
330
1F
100
AcDbEntity
  8
1
  6
SLD-Сплошная
100
AcDbEllipse
 10
675.4748139472
 20
1343.0100778225
 30
0.0
 11
-0.4122489361056978
 21
0.0
 31
0.0
210
0.0
220
0.0
230
1.0
 40
0.9702875252
 41
5.512866274278693
 42
7.053504340080086
  0
ELLIPSE
  5
2ED
330
1F
100
AcDbEntity
  8
1
  6
SLD-Сплошная
100
AcDbEllipse
 10
674.4054271659
 20
1344.0794646037
 30
0.0
 11
0.0
 21
-0.4122489361056978
 31
0.0
210
0.0
220
0.0
230
1.0
 40
0.9702875252
 41
5.512866274278562
 42
7.053504340080623
  0
ELLIPSE
  5
2EE
330
1F
100
AcDbEntity
  8
1
  6
SLD-Сплошная
100
AcDbEllipse
 10
673.3360403847
 20
1343.0100778225
 30
0.0
 11
0.4122489361056978
 21
0.0
 31
0.0
210
0.0
220
0.0
230
1.0
 40
0.9702875252
 41
5.512866274279101
 42
7.053504340080494
  0
LINE
  5
2EF
330
1F
100
AcDbEntity
  8
1
  6
SLD-Сплошная
100
AcDbLine
 10
675.5721533549
 20
1344.9099384763
 30
0.0
 11
675.5721533549
 21
1344.6717787583
 31
0.0
  0
LINE
  5
2F0
330
1F
100
AcDbEntity
  8
1
  6
SLD-Сплошная
100
AcDbLine
 10
675.5721533549
 20
1344.6717787583
 30
0.0
 11
674.6839728621
 21
1343.7835982654
 31
0.0
  0
LINE
  5
2F1
330
1F
100
AcDbEntity
  8
1
  6
SLD-Сплошная
100
AcDbLine
 10
672.5055665121
 20
1341.8433516335
 30
0.0
 11
672.7437262302
 21
1341.8433516335
 31
0.0
  0
LINE
  5
2F2
330
1F
100
AcDbEntity
  8
1
  6
SLD-Сплошная
100
AcDbLine
 10
673.631906723
 20
1342.7315321263
 30
0.0
 11
672.7437262302
 21
1341.8433516335
 31
0.0
  0
LINE
  5
2F3
330
1F
100
AcDbEntity
  8
1
  6
SLD-Сплошная
100
AcDbLine
 10
673.238700977
 20
1341.1102171687
 30
0.0
 11
673.238700977
 21
1341.3483768867
 31
0.0
  0
LINE
  5
2F4
330
1F
100
AcDbEntity
  8
1
  6
SLD-Сплошная
100
AcDbLine
 10
673.238700977
 20
1341.3483768867
 30
0.0
 11
674.1268814698
 21
1342.2365573795
 31
0.0
  0
LINE
  5
2F5
330
1F
100
AcDbEntity
  8
1
  6
SLD-Сплошная
100
AcDbLine
 10
676.3052878198
 20
1344.1768040114
 30
0.0
 11
676.0671281017
 21
1344.1768040114
 31
0.0
  0
LINE
  5
2F6
330
1F
100
AcDbEntity
  8
1
  6
SLD-Сплошная
100
AcDbLine
 10
675.1789476089
 20
1343.2886235186
 30
0.0
 11
676.0671281017
 21
1344.1768040114
 31
0.0
  0
LINE
  5
2F7
330
1F
100
AcDbEntity
  8
1
  6
SLD-Сплошная
100
AcDbLine
 10
672.5055665121
 20
1344.1768040114
 30
0.0
 11
672.7437262302
 21
1344.1768040114
 31
0.0
  0
LINE
  5
2F8
330
1F
100
AcDbEntity
  8
1
  6
SLD-Сплошная
100
AcDbLine
 10
672.7437262302
 20
1344.1768040114
 30
0.0
 11
673.631906723
 21
1343.2886235186
 31
0.0
  0
LINE
  5
2F9
330
1F
100
AcDbEntity
  8
1
  6
SLD-Сплошная
100
AcDbLine
 10
675.5721533549
 20
1341.1102171687
 30
0.0
 11
675.5721533549
 21
1341.3483768867
 31
0.0
  0
LINE
  5
2FA
330
1F
100
AcDbEntity
  8
1
  6
SLD-Сплошная
100
AcDbLine
 10
674.6839728621
 20
1342.2365573795
 30
0.0
 11
675.5721533549
 21
1341.3483768867
 31
0.0
  0
LINE
  5
2FB
330
1F
100
AcDbEntity
  8
1
  6
SLD-Сплошная
100
AcDbLine
 10
676.3052878198
 20
1341.8433516335
 30
0.0
 11
676.0671281017
 21
1341.8433516335
 31
0.0
  0
LINE
  5
2FC
330
1F
100
AcDbEntity
  8
1
  6
SLD-Сплошная
100
AcDbLine
 10
676.0671281017
 20
1341.8433516335
 30
0.0
 11
675.1789476089
 21
1342.7315321263
 31
0.0
  0
LINE
  5
2FD
330
1F
100
AcDbEntity
  8
1
  6
SLD-Сплошная
100
AcDbLine
 10
673.238700977
 20
1344.9099384763
 30
0.0
 11
673.238700977
 21
1344.6717787583
 31
0.0
  0
LINE
  5
2FE
330
1F
100
AcDbEntity
  8
1
  6
SLD-Сплошная
100
AcDbLine
 10
674.1268814698
 20
1343.7835982654
 30
0.0
 11
673.238700977
 21
1344.6717787583
 31
0.0
  0
LINE
  5
2FF
330
1F
100
AcDbEntity
  8
1
  6
SLD-Сплошная
100
AcDbLine
 10
675.5721533549
 20
1341.3483768867
 30
0.0
 11
676.0671281017
 21
1341.8433516335
 31
0.0
  0
LINE
  5
300
330
1F
100
AcDbEntity
  8
1
  6
SLD-Сплошная
100
AcDbLine
 10
676.0671281017
 20
1344.1768040114
 30
0.0
 11
675.5721533549
 21
1344.6717787583
 31
0.0
  0
LINE
  5
301
330
1F
100
AcDbEntity
  8
1
  6
SLD-Сплошная
100
AcDbLine
 10
672.7437262302
 20
1341.8433516335
 30
0.0
 11
673.238700977
 21
1341.3483768867
 31
0.0
  0
LINE
  5
302
330
1F
100
AcDbEntity
  8
1
  6
SLD-Сплошная
100
AcDbLine
 10
673.238700977
 20
1344.6717787583
 30
0.0
 11
672.7437262302
 21
1344.1768040114
 31
0.0
  0
CIRCLE
  5
303
330
1F
100
AcDbEntity
  8
1
  6
SLD-Сплошная
100
AcDbCircle
 10
674.4054271659
 20
1343.0100778225
 30
0.0
 40
4.99999999999996
  0
ARC
  5
304
330
1F
100
AcDbEntity
  8
1
  6
SLD-Сплошная
100
AcDbCircle
 10
926.6506951473
 20
1360.2553458038
 30
0.0
 40
26.56195549625978
100
AcDbArc
 50
223.8816987744
 51
226.1183012256
  0
ARC
  5
305
330
1F
100
AcDbEntity
  8
1
  6
SLD-Сплошная
100
AcDbCircle
 10
893.1640129299
 20
1359.0231007962
 30
0.0
 40
23.41191191618919
100
AcDbArc
 50
310.0824770913
 51
312.9865596106
  0
SPLINE
  5
306
330
1F
100
AcDbEntity
  8
1
  6
SLD-Сплошная
100
AcDbSpline
210
0.0
220
0.0
230
1.0
 70
     8
 71
     3
 72
    12
 73
     8
 74
     0
 42
0.00000001
 43
0.00000001
 40
0.0
 40
0.0
 40
0.0
 40
0.0
 40
0.2187857887072033
 40
0.4375776469534801
 40
0.6562353658863794
 40
0.874841935949108
 40
1.0
 40
1.0
 40
1.0
 40
1.0
 10
909.6839728620752
 20
1341.896967328651
 30
0.0
 10
909.6486474652062
 20
1341.923930754723
 30
0.0
 10
909.5779956914738
 20
1341.977858354885
 30
0.0
 10
909.4440324628326
 20
1342.010454243858
 30
0.0
 10
909.3084898365528
 20
1342.001105112616
 30
0.0
 10
909.1995920322588
 20
1341.957226354534
 30
0.0
 10
909.146288321453
 20
1341.913050796247
 30
0.0
 10
909.1268814698191
 20
1341.896967328651
 30
0.0
  0
ARC
  5
307
330
1F
100
AcDbEntity
  8
1
  6
SLD-Сплошная
100
AcDbCircle
 10
925.6468414019
 20
1359.0231007961
 30
0.0
 40
23.41191191604462
100
AcDbArc
 50
227.0134403894
 51
229.9175229087
  0
ARC
  5
308
330
1F
100
AcDbEntity
  8
1
  6
SLD-Сплошная
100
AcDbCircle
 10
892.1601591844
 20
1360.255345804
 30
0.0
 40
26.56195549652088
100
AcDbArc
 50
313.8816987744
 51
316.1183012256
  0
ARC
  5
309
330
1F
100
AcDbEntity
  8
1
  6
SLD-Сплошная
100
AcDbCircle
 10
893.392404192
 20
1326.7686635863
 30
0.0
 40
23.41191191641763
100
AcDbArc
 50
40.0824770913
 51
42.9865596106
  0
SPLINE
  5
30A
330
1F
100
AcDbEntity
  8
1
  6
SLD-Сплошная
100
AcDbSpline
210
0.0
220
0.0
230
1.0
 70
     8
 71
     3
 72
    12
 73
     8
 74
     0
 42
0.00000001
 43
0.00000001
 40
0.0
 40
0.0
 40
0.0
 40
0.0
 40
0.2187857887071941
 40
0.4375776469534771
 40
0.6562353658863852
 40
0.8748419359490948
 40
1.0
 40
1.0
 40
1.0
 40
1.0
 10
910.5185376597593
 20
1343.288623518592
 30
0.0
 10
910.4915742336873
 20
1343.253298121723
 30
0.0
 10
910.4376466335258
 20
1343.18264634799
 30
0.0
 10
910.4050507445527
 20
1343.048683119349
 30
0.0
 10
910.4143998757949
 20
1342.913140493069
 30
0.0
 10
910.4582786338765
 20
1342.804242688775
 30
0.0
 10
910.5024541921631
 20
1342.750938977969
 30
0.0
 10
910.5185376597593
 20
1342.731532126335
 30
0.0
  0
ARC
  5
30B
330
1F
100
AcDbEntity
  8
1
  6
SLD-Сплошная
100
AcDbCircle
 10
893.3924041922
 20
1359.2514920585
 30
0.0
 40
23.41191191623993
100
AcDbArc
 50
317.0134403894
 51
319.9175229087
  0
ARC
  5
30C
330
1F
100
AcDbEntity
  8
1
  6
SLD-Сплошная
100
AcDbCircle
 10
892.1601591848
 20
1325.7648098413
 30
0.0
 40
26.56195549601621
100
AcDbArc
 50
43.8816987744
 51
46.1183012256
  0
ARC
  5
30D
330
1F
100
AcDbEntity
  8
1
  6
SLD-Сплошная
100
AcDbCircle
 10
925.6468414018
 20
1326.9970548489
 30
0.0
 40
23.41191191596785
100
AcDbArc
 50
130.0824770913
 51
132.9865596106
  0
SPLINE
  5
30E
330
1F
100
AcDbEntity
  8
1
  6
SLD-Сплошная
100
AcDbSpline
210
0.0
220
0.0
230
1.0
 70
     8
 71
     3
 72
    12
 73
     8
 74
     0
 42
0.00000001
 43
0.00000001
 40
0.0
 40
0.0
 40
0.0
 40
0.0
 40
0.2187857887072094
 40
0.4375776469534816
 40
0.6562353658864022
 40
0.8748419359491086
 40
1.0
 40
1.0
 40
1.0
 40
1.0
 10
909.1268814698191
 20
1344.123188316276
 30
0.0
 10
909.162206866688
 20
1344.096224890204
 30
0.0
 10
909.2328586404203
 20
1344.042297290042
 30
0.0
 10
909.3668218690615
 20
1344.009701401069
 30
0.0
 10
909.5023644953415
 20
1344.019050532311
 30
0.0
 10
909.6112622996353
 20
1344.062929290393
 30
0.0
 10
909.6645660104413
 20
1344.107104848679
 30
0.0
 10
909.6839728620752
 20
1344.123188316276
 30
0.0
  0
ARC
  5
30F
330
1F
100
AcDbEntity
  8
1
  6
SLD-Сплошная
100
AcDbCircle
 10
893.1640129299
 20
1326.9970548487
 30
0.0
 40
23.41191191621443
100
AcDbArc
 50
47.0134403894
 51
49.9175229087
  0
ARC
  5
310
330
1F
100
AcDbEntity
  8
1
  6
SLD-Сплошная
100
AcDbCircle
 10
926.6506951467
 20
1325.7648098417
 30
0.0
 40
26.56195549542856
100
AcDbArc
 50
133.8816987744
 51
136.1183012256
  0
ARC
  5
311
330
1F
100
AcDbEntity
  8
1
  6
SLD-Сплошная
100
AcDbCircle
 10
925.4184501396
 20
1359.2514920584
 30
0.0
 40
23.41191191607358
100
AcDbArc
 50
220.0824770913
 51
222.9865596106
  0
SPLINE
  5
312
330
1F
100
AcDbEntity
  8
1
  6
SLD-Сплошная
100
AcDbSpline
210
0.0
220
0.0
230
1.0
 70
     8
 71
     3
 72
    12
 73
     8
 74
     0
 42
0.00000001
 43
0.00000001
 40
0.0
 40
0.0
 40
0.0
 40
0.0
 40
0.2187857887071875
 40
0.4375776469534749
 40
0.6562353658863838
 40
0.8748419359490942
 40
1.0
 40
1.0
 40
1.0
 40
1.0
 10
908.2923166721348
 20
1342.731532126335
 30
0.0
 10
908.3192800982068
 20
1342.766857523204
 30
0.0
 10
908.3732076983683
 20
1342.837509296937
 30
0.0
 10
908.4058035873414
 20
1342.971472525578
 30
0.0
 10
908.3964544560994
 20
1343.107015151858
 30
0.0
 10
908.3525756980175
 20
1343.215912956152
 30
0.0
 10
908.308400139731
 20
1343.269216666958
 30
0.0
 10
908.2923166721348
 20
1343.288623518592
 30
0.0
  0
ARC
  5
313
330
1F
100
AcDbEntity
  8
1
  6
SLD-Сплошная
100
AcDbCircle
 10
925.4184501397
 20
1326.7686635864
 30
0.0
 40
23.41191191616401
100
AcDbArc
 50
137.0134403894
 51
139.9175229087
  0
CIRCLE
  5
314
330
1F
100
AcDbEntity
  8
1
  6
SLD-Сплошная
100
AcDbCircle
 10
909.4054271659
 20
1343.0100778225
 30
0.0
 40
3.499999999999948
  0
ELLIPSE
  5
315
330
1F
100
AcDbEntity
  8
1
  6
SLD-Сплошная
100
AcDbEllipse
 10
908.3360403847
 20
1343.0100778225
 30
0.0
 11
0.4122489361055841
 21
0.0
 31
0.0
210
0.0
220
0.0
230
1.0
 40
0.9702875252
 41
5.512866274278639
 42
7.053504340080548
  0
ELLIPSE
  5
316
330
1F
100
AcDbEntity
  8
1
  6
SLD-Сплошная
100
AcDbEllipse
 10
910.4748139472
 20
1343.0100778225
 30
0.0
 11
-0.4122489361055841
 21
0.0
 31
0.0
210
0.0
220
0.0
230
1.0
 40
0.9702875252
 41
5.512866274278355
 42
7.053504340080424
  0
ELLIPSE
  5
317
330
1F
100
AcDbEntity
  8
1
  6
SLD-Сплошная
100
AcDbEllipse
 10
909.4054271659
 20
1341.9406910412
 30
0.0
 11
0.0
 21
0.4122489361054704
 31
0.0
210
0.0
220
0.0
230
1.0
 40
0.9702875252
 41
5.512866274278492
 42
7.053504340080694
  0
ELLIPSE
  5
318
330
1F
100
AcDbEntity
  8
1
  6
SLD-Сплошная
100
AcDbEllipse
 10
909.4054271659
 20
1344.0794646037
 30
0.0
 11
0.0
 21
-0.4122489361054704
 31
0.0
210
0.0
220
0.0
230
1.0
 40
0.9702875252
 41
5.512866274278251
 42
7.053504340080936
  0
LINE
  5
319
330
1F
100
AcDbEntity
  8
1
  6
SLD-Сплошная
100
AcDbLine
 10
908.238700977
 20
1341.1102171687
 30
0.0
 11
908.238700977
 21
1341.3483768867
 31
0.0
  0
LINE
  5
31A
330
1F
100
AcDbEntity
  8
1
  6
SLD-Сплошная
100
AcDbLine
 10
908.238700977
 20
1341.3483768867
 30
0.0
 11
909.1268814698
 21
1342.2365573795
 31
0.0
  0
LINE
  5
31B
330
1F
100
AcDbEntity
  8
1
  6
SLD-Сплошная
100
AcDbLine
 10
908.238700977
 20
1344.9099384763
 30
0.0
 11
908.238700977
 21
1344.6717787583
 31
0.0
  0
LINE
  5
31C
330
1F
100
AcDbEntity
  8
1
  6
SLD-Сплошная
100
AcDbLine
 10
909.1268814698
 20
1343.7835982654
 30
0.0
 11
908.238700977
 21
1344.6717787583
 31
0.0
  0
LINE
  5
31D
330
1F
100
AcDbEntity
  8
1
  6
SLD-Сплошная
100
AcDbLine
 10
911.3052878198
 20
1344.1768040114
 30
0.0
 11
911.0671281017
 21
1344.1768040114
 31
0.0
  0
LINE
  5
31E
330
1F
100
AcDbEntity
  8
1
  6
SLD-Сплошная
100
AcDbLine
 10
910.1789476089
 20
1343.2886235186
 30
0.0
 11
911.0671281017
 21
1344.1768040114
 31
0.0
  0
LINE
  5
31F
330
1F
100
AcDbEntity
  8
1
  6
SLD-Сплошная
100
AcDbLine
 10
911.3052878198
 20
1341.8433516335
 30
0.0
 11
911.0671281017
 21
1341.8433516335
 31
0.0
  0
LINE
  5
320
330
1F
100
AcDbEntity
  8
1
  6
SLD-Сплошная
100
AcDbLine
 10
911.0671281017
 20
1341.8433516335
 30
0.0
 11
910.1789476089
 21
1342.7315321263
 31
0.0
  0
LINE
  5
321
330
1F
100
AcDbEntity
  8
1
  6
SLD-Сплошная
100
AcDbLine
 10
907.5055665121
 20
1344.1768040114
 30
0.0
 11
907.7437262302
 21
1344.1768040114
 31
0.0
  0
LINE
  5
322
330
1F
100
AcDbEntity
  8
1
  6
SLD-Сплошная
100
AcDbLine
 10
907.7437262302
 20
1344.1768040114
 30
0.0
 11
908.631906723
 21
1343.2886235186
 31
0.0
  0
LINE
  5
323
330
1F
100
AcDbEntity
  8
1
  6
SLD-Сплошная
100
AcDbLine
 10
910.5721533549
 20
1344.9099384763
 30
0.0
 11
910.5721533549
 21
1344.6717787583
 31
0.0
  0
LINE
  5
324
330
1F
100
AcDbEntity
  8
1
  6
SLD-Сплошная
100
AcDbLine
 10
910.5721533549
 20
1344.6717787583
 30
0.0
 11
909.6839728621
 21
1343.7835982654
 31
0.0
  0
LINE
  5
325
330
1F
100
AcDbEntity
  8
1
  6
SLD-Сплошная
100
AcDbLine
 10
910.5721533549
 20
1341.1102171687
 30
0.0
 11
910.5721533549
 21
1341.3483768867
 31
0.0
  0
LINE
  5
326
330
1F
100
AcDbEntity
  8
1
  6
SLD-Сплошная
100
AcDbLine
 10
909.6839728621
 20
1342.2365573795
 30
0.0
 11
910.5721533549
 21
1341.3483768867
 31
0.0
  0
LINE
  5
327
330
1F
100
AcDbEntity
  8
1
  6
SLD-Сплошная
100
AcDbLine
 10
907.5055665121
 20
1341.8433516335
 30
0.0
 11
907.7437262302
 21
1341.8433516335
 31
0.0
  0
LINE
  5
328
330
1F
100
AcDbEntity
  8
1
  6
SLD-Сплошная
100
AcDbLine
 10
908.631906723
 20
1342.7315321263
 30
0.0
 11
907.7437262302
 21
1341.8433516335
 31
0.0
  0
LINE
  5
329
330
1F
100
AcDbEntity
  8
1
  6
SLD-Сплошная
100
AcDbLine
 10
910.5721533549
 20
1341.3483768867
 30
0.0
 11
911.0671281017
 21
1341.8433516335
 31
0.0
  0
LINE
  5
32A
330
1F
100
AcDbEntity
  8
1
  6
SLD-Сплошная
100
AcDbLine
 10
911.0671281017
 20
1344.1768040114
 30
0.0
 11
910.5721533549
 21
1344.6717787583
 31
0.0
  0
LINE
  5
32B
330
1F
100
AcDbEntity
  8
1
  6
SLD-Сплошная
100
AcDbLine
 10
908.238700977
 20
1344.6717787583
 30
0.0
 11
907.7437262302
 21
1344.1768040114
 31
0.0
  0
LINE
  5
32C
330
1F
100
AcDbEntity
  8
1
  6
SLD-Сплошная
100
AcDbLine
 10
907.7437262302
 20
1341.8433516335
 30
0.0
 11
908.238700977
 21
1341.3483768867
 31
0.0
  0
CIRCLE
  5
32D
330
1F
100
AcDbEntity
  8
1
  6
SLD-Сплошная
100
AcDbCircle
 10
909.4054271659
 20
1343.0100778225
 30
0.0
 40
4.99999999999996
  0
ARC
  5
32E
330
1F
100
AcDbEntity
  8
1
  6
SLD-Сплошная
100
AcDbCircle
 10
674.6601591849
 20
1267.7553458035
 30
0.0
 40
26.56195549581817
100
AcDbArc
 50
313.8816987744
 51
316.1183012256
  0
ARC
  5
32F
330
1F
100
AcDbEntity
  8
1
  6
SLD-Сплошная
100
AcDbCircle
 10
675.892404192
 20
1234.2686635862
 30
0.0
 40
23.41191191648734
100
AcDbArc
 50
40.0824770913
 51
42.9865596106
  0
SPLINE
  5
330
330
1F
100
AcDbEntity
  8
1
  6
SLD-Сплошная
100
AcDbSpline
210
0.0
220
0.0
230
1.0
 70
     8
 71
     3
 72
    12
 73
     8
 74
     0
 42
0.00000001
 43
0.00000001
 40
0.0
 40
0.0
 40
0.0
 40
0.0
 40
0.2187857887072151
 40
0.437577646953484
 40
0.656235365886359
 40
0.8748419359491022
 40
1.0
 40
1.0
 40
1.0
 40
1.0
 10
693.0185376597594
 20
1250.788623518592
 30
0.0
 10
692.9915742336873
 20
1250.753298121722
 30
0.0
 10
692.9376466335259
 20
1250.68264634799
 30
0.0
 10
692.9050507445527
 20
1250.548683119349
 30
0.0
 10
692.9143998757949
 20
1250.413140493069
 30
0.0
 10
692.9582786338766
 20
1250.304242688775
 30
0.0
 10
693.0024541921631
 20
1250.250938977969
 30
0.0
 10
693.0185376597594
 20
1250.231532126335
 30
0.0
  0
ARC
  5
331
330
1F
100
AcDbEntity
  8
1
  6
SLD-Сплошная
100
AcDbCircle
 10
675.8924041922
 20
1266.7514920585
 30
0.0
 40
23.41191191619587
100
AcDbArc
 50
317.0134403894
 51
319.9175229087
  0
ARC
  5
332
330
1F
100
AcDbEntity
  8
1
  6
SLD-Сплошная
100
AcDbCircle
 10
674.6601591849
 20
1233.2648098414
 30
0.0
 40
26.56195549581544
100
AcDbArc
 50
43.8816987744
 51
46.1183012256
  0
ARC
  5
333
330
1F
100
AcDbEntity
  8
1
  6
SLD-Сплошная
100
AcDbCircle
 10
708.146841402
 20
1234.4970548487
 30
0.0
 40
23.41191191614371
100
AcDbArc
 50
130.0824770913
 51
132.9865596106
  0
SPLINE
  5
334
330
1F
100
AcDbEntity
  8
1
  6
SLD-Сплошная
100
AcDbSpline
210
0.0
220
0.0
230
1.0
 70
     8
 71
     3
 72
    12
 73
     8
 74
     0
 42
0.00000001
 43
0.00000001
 40
0.0
 40
0.0
 40
0.0
 40
0.0
 40
0.2187857887071817
 40
0.4375776469534588
 40
0.6562353658863838
 40
0.8748419359490818
 40
1.0
 40
1.0
 40
1.0
 40
1.0
 10
691.6268814698191
 20
1251.623188316276
 30
0.0
 10
691.662206866688
 20
1251.596224890204
 30
0.0
 10
691.7328586404204
 20
1251.542297290042
 30
0.0
 10
691.8668218690615
 20
1251.509701401069
 30
0.0
 10
692.0023644953415
 20
1251.519050532311
 30
0.0
 10
692.1112622996354
 20
1251.562929290393
 30
0.0
 10
692.1645660104413
 20
1251.607104848679
 30
0.0
 10
692.1839728620752
 20
1251.623188316276
 30
0.0
  0
ARC
  5
335
330
1F
100
AcDbEntity
  8
1
  6
SLD-Сплошная
100
AcDbCircle
 10
675.6640129297
 20
1234.4970548485
 30
0.0
 40
23.41191191647782
100
AcDbArc
 50
47.0134403894
 51
49.9175229087
  0
ARC
  5
336
330
1F
100
AcDbEntity
  8
1
  6
SLD-Сплошная
100
AcDbCircle
 10
709.1506951472
 20
1233.2648098412
 30
0.0
 40
26.56195549613553
100
AcDbArc
 50
133.8816987744
 51
136.1183012256
  0
ARC
  5
337
330
1F
100
AcDbEntity
  8
1
  6
SLD-Сплошная
100
AcDbCircle
 10
707.9184501397
 20
1266.7514920585
 30
0.0
 40
23.41191191624558
100
AcDbArc
 50
220.0824770913
 51
222.9865596106
  0
SPLINE
  5
338
330
1F
100
AcDbEntity
  8
1
  6
SLD-Сплошная
100
AcDbSpline
210
0.0
220
0.0
230
1.0
 70
     8
 71
     3
 72
    12
 73
     8
 74
     0
 42
0.00000001
 43
0.00000001
 40
0.0
 40
0.0
 40
0.0
 40
0.0
 40
0.2187857887072047
 40
0.4375776469534796
 40
0.6562353658863966
 40
0.874841935949104
 40
1.0
 40
1.0
 40
1.0
 40
1.0
 10
690.7923166721348
 20
1250.231532126335
 30
0.0
 10
690.819280098207
 20
1250.266857523204
 30
0.0
 10
690.8732076983684
 20
1250.337509296937
 30
0.0
 10
690.9058035873414
 20
1250.471472525578
 30
0.0
 10
690.8964544560994
 20
1250.607015151858
 30
0.0
 10
690.8525756980175
 20
1250.715912956152
 30
0.0
 10
690.8084001397311
 20
1250.769216666958
 30
0.0
 10
690.7923166721348
 20
1250.788623518592
 30
0.0
  0
ARC
  5
339
330
1F
100
AcDbEntity
  8
1
  6
SLD-Сплошная
100
AcDbCircle
 10
707.91845014
 20
1234.2686635862
 30
0.0
 40
23.41191191653696
100
AcDbArc
 50
137.0134403894
 51
139.9175229087
  0
ARC
  5
33A
330
1F
100
AcDbEntity
  8
1
  6
SLD-Сплошная
100
AcDbCircle
 10
709.150695147
 20
1267.7553458036
 30
0.0
 40
26.56195549589232
100
AcDbArc
 50
223.8816987744
 51
226.1183012256
  0
ARC
  5
33B
330
1F
100
AcDbEntity
  8
1
  6
SLD-Сплошная
100
AcDbCircle
 10
675.6640129299
 20
1266.5231007962
 30
0.0
 40
23.41191191614431
100
AcDbArc
 50
310.0824770913
 51
312.9865596106
  0
SPLINE
  5
33C
330
1F
100
AcDbEntity
  8
1
  6
SLD-Сплошная
100
AcDbSpline
210
0.0
220
0.0
230
1.0
 70
     8
 71
     3
 72
    12
 73
     8
 74
     0
 42
0.00000001
 43
0.00000001
 40
0.0
 40
0.0
 40
0.0
 40
0.0
 40
0.2187857887072182
 40
0.4375776469534778
 40
0.6562353658863888
 40
0.8748419359490899
 40
1.0
 40
1.0
 40
1.0
 40
1.0
 10
692.1839728620752
 20
1249.396967328651
 30
0.0
 10
692.1486474652062
 20
1249.423930754723
 30
0.0
 10
692.0779956914738
 20
1249.477858354885
 30
0.0
 10
691.9440324628328
 20
1249.510454243858
 30
0.0
 10
691.8084898365528
 20
1249.501105112616
 30
0.0
 10
691.6995920322588
 20
1249.457226354534
 30
0.0
 10
691.646288321453
 20
1249.413050796247
 30
0.0
 10
691.6268814698191
 20
1249.396967328651
 30
0.0
  0
ARC
  5
33D
330
1F
100
AcDbEntity
  8
1
  6
SLD-Сплошная
100
AcDbCircle
 10
708.146841402
 20
1266.5231007962
 30
0.0
 40
23.41191191614406
100
AcDbArc
 50
227.0134403894
 51
229.9175229087
  0
CIRCLE
  5
33E
330
1F
100
AcDbEntity
  8
1
  6
SLD-Сплошная
100
AcDbCircle
 10
691.9054271659
 20
1250.5100778225
 30
0.0
 40
3.50000000000027
  0
ELLIPSE
  5
33F
330
1F
100
AcDbEntity
  8
1
  6
SLD-Сплошная
100
AcDbEllipse
 10
692.9748139472
 20
1250.5100778225
 30
0.0
 11
-0.4122489361056978
 21
0.0
 31
0.0
210
0.0
220
0.0
230
1.0
 40
0.9702875252
 41
5.512866274278409
 42
7.053504340080777
  0
ELLIPSE
  5
340
330
1F
100
AcDbEntity
  8
1
  6
SLD-Сплошная
100
AcDbEllipse
 10
691.9054271659
 20
1249.4406910412
 30
0.0
 11
0.0
 21
0.4122489361054704
 31
0.0
210
0.0
220
0.0
230
1.0
 40
0.9702875252
 41
5.512866274278572
 42
7.053504340080206
  0
ELLIPSE
  5
341
330
1F
100
AcDbEntity
  8
1
  6
SLD-Сплошная
100
AcDbEllipse
 10
690.8360403847
 20
1250.5100778225
 30
0.0
 11
0.4122489361056978
 21
0.0
 31
0.0
210
0.0
220
0.0
230
1.0
 40
0.9702875252
 41
5.512866274278693
 42
7.053504340080494
  0
ELLIPSE
  5
342
330
1F
100
AcDbEntity
  8
1
  6
SLD-Сплошная
100
AcDbEllipse
 10
691.9054271659
 20
1251.5794646037
 30
0.0
 11
0.0
 21
-0.4122489361054704
 31
0.0
210
0.0
220
0.0
230
1.0
 40
0.9702875252
 41
5.512866274278696
 42
7.053504340080899
  0
LINE
  5
343
330
1F
100
AcDbEntity
  8
1
  6
SLD-Сплошная
100
AcDbLine
 10
693.8052878198
 20
1251.6768040114
 30
0.0
 11
693.5671281017
 21
1251.6768040114
 31
0.0
  0
LINE
  5
344
330
1F
100
AcDbEntity
  8
1
  6
SLD-Сплошная
100
AcDbLine
 10
692.6789476089
 20
1250.7886235186
 30
0.0
 11
693.5671281017
 21
1251.6768040114
 31
0.0
  0
LINE
  5
345
330
1F
100
AcDbEntity
  8
1
  6
SLD-Сплошная
100
AcDbLine
 10
690.738700977
 20
1248.6102171687
 30
0.0
 11
690.738700977
 21
1248.8483768867
 31
0.0
  0
LINE
  5
346
330
1F
100
AcDbEntity
  8
1
  6
SLD-Сплошная
100
AcDbLine
 10
690.738700977
 20
1248.8483768867
 30
0.0
 11
691.6268814698
 21
1249.7365573795
 31
0.0
  0
LINE
  5
347
330
1F
100
AcDbEntity
  8
1
  6
SLD-Сплошная
100
AcDbLine
 10
693.8052878198
 20
1249.3433516335
 30
0.0
 11
693.5671281017
 21
1249.3433516335
 31
0.0
  0
LINE
  5
348
330
1F
100
AcDbEntity
  8
1
  6
SLD-Сплошная
100
AcDbLine
 10
693.5671281017
 20
1249.3433516335
 30
0.0
 11
692.6789476089
 21
1250.2315321263
 31
0.0
  0
LINE
  5
349
330
1F
100
AcDbEntity
  8
1
  6
SLD-Сплошная
100
AcDbLine
 10
690.0055665121
 20
1251.6768040114
 30
0.0
 11
690.2437262302
 21
1251.6768040114
 31
0.0
  0
LINE
  5
34A
330
1F
100
AcDbEntity
  8
1
  6
SLD-Сплошная
100
AcDbLine
 10
690.2437262302
 20
1251.6768040114
 30
0.0
 11
691.131906723
 21
1250.7886235186
 31
0.0
  0
LINE
  5
34B
330
1F
100
AcDbEntity
  8
1
  6
SLD-Сплошная
100
AcDbLine
 10
690.738700977
 20
1252.4099384763
 30
0.0
 11
690.738700977
 21
1252.1717787583
 31
0.0
  0
LINE
  5
34C
330
1F
100
AcDbEntity
  8
1
  6
SLD-Сплошная
100
AcDbLine
 10
691.6268814698
 20
1251.2835982654
 30
0.0
 11
690.738700977
 21
1252.1717787583
 31
0.0
  0
LINE
  5
34D
330
1F
100
AcDbEntity
  8
1
  6
SLD-Сплошная
100
AcDbLine
 10
693.0721533549
 20
1252.4099384763
 30
0.0
 11
693.0721533549
 21
1252.1717787583
 31
0.0
  0
LINE
  5
34E
330
1F
100
AcDbEntity
  8
1
  6
SLD-Сплошная
100
AcDbLine
 10
693.0721533549
 20
1252.1717787583
 30
0.0
 11
692.1839728621
 21
1251.2835982654
 31
0.0
  0
LINE
  5
34F
330
1F
100
AcDbEntity
  8
1
  6
SLD-Сплошная
100
AcDbLine
 10
693.0721533549
 20
1248.6102171687
 30
0.0
 11
693.0721533549
 21
1248.8483768867
 31
0.0
  0
LINE
  5
350
330
1F
100
AcDbEntity
  8
1
  6
SLD-Сплошная
100
AcDbLine
 10
692.1839728621
 20
1249.7365573795
 30
0.0
 11
693.0721533549
 21
1248.8483768867
 31
0.0
  0
LINE
  5
351
330
1F
100
AcDbEntity
  8
1
  6
SLD-Сплошная
100
AcDbLine
 10
690.0055665121
 20
1249.3433516335
 30
0.0
 11
690.2437262302
 21
1249.3433516335
 31
0.0
  0
LINE
  5
352
330
1F
100
AcDbEntity
  8
1
  6
SLD-Сплошная
100
AcDbLine
 10
691.131906723
 20
1250.2315321263
 30
0.0
 11
690.2437262302
 21
1249.3433516335
 31
0.0
  0
LINE
  5
353
330
1F
100
AcDbEntity
  8
1
  6
SLD-Сплошная
100
AcDbLine
 10
690.738700977
 20
1252.1717787583
 30
0.0
 11
690.2437262302
 21
1251.6768040114
 31
0.0
  0
LINE
  5
354
330
1F
100
AcDbEntity
  8
1
  6
SLD-Сплошная
100
AcDbLine
 10
693.0721533549
 20
1248.8483768867
 30
0.0
 11
693.5671281017
 21
1249.3433516335
 31
0.0
  0
LINE
  5
355
330
1F
100
AcDbEntity
  8
1
  6
SLD-Сплошная
100
AcDbLine
 10
690.2437262302
 20
1249.3433516335
 30
0.0
 11
690.738700977
 21
1248.8483768867
 31
0.0
  0
LINE
  5
356
330
1F
100
AcDbEntity
  8
1
  6
SLD-Сплошная
100
AcDbLine
 10
693.5671281017
 20
1251.6768040114
 30
0.0
 11
693.0721533549
 21
1252.1717787583
 31
0.0
  0
CIRCLE
  5
357
330
1F
100
AcDbEntity
  8
1
  6
SLD-Сплошная
100
AcDbCircle
 10
691.9054271659
 20
1250.5100778225
 30
0.0
 40
4.99999999999996
  0
ARC
  5
358
330
1F
100
AcDbEntity
  8
1
  6
SLD-Сплошная
100
AcDbCircle
 10
892.1601591839
 20
1285.2553458045
 30
0.0
 40
26.56195549717126
100
AcDbArc
 50
313.8816987745
 51
316.1183012255
  0
ARC
  5
359
330
1F
100
AcDbEntity
  8
1
  6
SLD-Сплошная
100
AcDbCircle
 10
893.392404192
 20
1251.7686635863
 30
0.0
 40
23.41191191641755
100
AcDbArc
 50
40.0824770913
 51
42.9865596106
  0
SPLINE
  5
35A
330
1F
100
AcDbEntity
  8
1
  6
SLD-Сплошная
100
AcDbSpline
210
0.0
220
0.0
230
1.0
 70
     8
 71
     3
 72
    12
 73
     8
 74
     0
 42
0.00000001
 43
0.00000001
 40
0.0
 40
0.0
 40
0.0
 40
0.0
 40
0.2187857887071959
 40
0.4375776469534642
 40
0.6562353658863838
 40
0.8748419359490848
 40
1.0
 40
1.0
 40
1.0
 40
1.0
 10
910.5185376597593
 20
1268.288623518592
 30
0.0
 10
910.4915742336872
 20
1268.253298121723
 30
0.0
 10
910.4376466335258
 20
1268.18264634799
 30
0.0
 10
910.4050507445527
 20
1268.048683119349
 30
0.0
 10
910.4143998757947
 20
1267.913140493069
 30
0.0
 10
910.4582786338766
 20
1267.804242688775
 30
0.0
 10
910.5024541921631
 20
1267.750938977969
 30
0.0
 10
910.5185376597593
 20
1267.731532126335
 30
0.0
  0
ARC
  5
35B
330
1F
100
AcDbEntity
  8
1
  6
SLD-Сплошная
100
AcDbCircle
 10
893.3924041922
 20
1284.2514920585
 30
0.0
 40
23.41191191621869
100
AcDbArc
 50
317.0134403894
 51
319.9175229087
  0
ARC
  5
35C
330
1F
100
AcDbEntity
  8
1
  6
SLD-Сплошная
100
AcDbCircle
 10
892.1601591839
 20
1250.7648098405
 30
0.0
 40
26.56195549717142
100
AcDbArc
 50
43.8816987745
 51
46.1183012255
  0
ARC
  5
35D
330
1F
100
AcDbEntity
  8
1
  6
SLD-Сплошная
100
AcDbCircle
 10
925.6468414018
 20
1251.9970548489
 30
0.0
 40
23.41191191596802
100
AcDbArc
 50
130.0824770913
 51
132.9865596106
  0
SPLINE
  5
35E
330
1F
100
AcDbEntity
  8
1
  6
SLD-Сплошная
100
AcDbSpline
210
0.0
220
0.0
230
1.0
 70
     8
 71
     3
 72
    12
 73
     8
 74
     0
 42
0.00000001
 43
0.00000001
 40
0.0
 40
0.0
 40
0.0
 40
0.0
 40
0.2187857887071892
 40
0.4375776469534673
 40
0.6562353658863875
 40
0.8748419359490981
 40
1.0
 40
1.0
 40
1.0
 40
1.0
 10
909.1268814698191
 20
1269.123188316276
 30
0.0
 10
909.162206866688
 20
1269.096224890204
 30
0.0
 10
909.2328586404203
 20
1269.042297290042
 30
0.0
 10
909.3668218690614
 20
1269.009701401069
 30
0.0
 10
909.5023644953413
 20
1269.019050532311
 30
0.0
 10
909.6112622996353
 20
1269.062929290393
 30
0.0
 10
909.6645660104413
 20
1269.107104848679
 30
0.0
 10
909.6839728620752
 20
1269.123188316276
 30
0.0
  0
ARC
  5
35F
330
1F
100
AcDbEntity
  8
1
  6
SLD-Сплошная
100
AcDbCircle
 10
893.1640129299
 20
1251.9970548487
 30
0.0
 40
23.41191191621443
100
AcDbArc
 50
47.0134403894
 51
49.9175229087
  0
ARC
  5
360
330
1F
100
AcDbEntity
  8
1
  6
SLD-Сплошная
100
AcDbCircle
 10
926.6506951473
 20
1250.7648098411
 30
0.0
 40
26.56195549630206
100
AcDbArc
 50
133.8816987744
 51
136.1183012256
  0
ARC
  5
361
330
1F
100
AcDbEntity
  8
1
  6
SLD-Сплошная
100
AcDbCircle
 10
925.4184501395
 20
1284.2514920584
 30
0.0
 40
23.41191191596515
100
AcDbArc
 50
220.0824770913
 51
222.9865596106
  0
SPLINE
  5
362
330
1F
100
AcDbEntity
  8
1
  6
SLD-Сплошная
100
AcDbSpline
210
0.0
220
0.0
230
1.0
 70
     8
 71
     3
 72
    12
 73
     8
 74
     0
 42
0.00000001
 43
0.00000001
 40
0.0
 40
0.0
 40
0.0
 40
0.0
 40
0.2187857887071862
 40
0.4375776469534613
 40
0.6562353658863785
 40
0.8748419359490861
 40
1.0
 40
1.0
 40
1.0
 40
1.0
 10
908.2923166721348
 20
1267.731532126335
 30
0.0
 10
908.3192800982068
 20
1267.766857523204
 30
0.0
 10
908.3732076983683
 20
1267.837509296937
 30
0.0
 10
908.4058035873414
 20
1267.971472525578
 30
0.0
 10
908.3964544560994
 20
1268.107015151858
 30
0.0
 10
908.3525756980175
 20
1268.215912956152
 30
0.0
 10
908.308400139731
 20
1268.269216666958
 30
0.0
 10
908.2923166721348
 20
1268.288623518592
 30
0.0
  0
ARC
  5
363
330
1F
100
AcDbEntity
  8
1
  6
SLD-Сплошная
100
AcDbCircle
 10
925.4184501397
 20
1251.7686635864
 30
0.0
 40
23.41191191616386
100
AcDbArc
 50
137.0134403894
 51
139.9175229087
  0
ARC
  5
364
330
1F
100
AcDbEntity
  8
1
  6
SLD-Сплошная
100
AcDbCircle
 10
926.6506951475
 20
1285.2553458041
 30
0.0
 40
26.56195549658369
100
AcDbArc
 50
223.8816987744
 51
226.1183012256
  0
ARC
  5
365
330
1F
100
AcDbEntity
  8
1
  6
SLD-Сплошная
100
AcDbCircle
 10
893.16401293
 20
1284.0231007961
 30
0.0
 40
23.41191191597588
100
AcDbArc
 50
310.0824770913
 51
312.9865596106
  0
SPLINE
  5
366
330
1F
100
AcDbEntity
  8
1
  6
SLD-Сплошная
100
AcDbSpline
210
0.0
220
0.0
230
1.0
 70
     8
 71
     3
 72
    12
 73
     8
 74
     0
 42
0.00000001
 43
0.00000001
 40
0.0
 40
0.0
 40
0.0
 40
0.0
 40
0.2187857887071943
 40
0.4375776469534667
 40
0.6562353658863862
 40
0.8748419359490858
 40
1.0
 40
1.0
 40
1.0
 40
1.0
 10
909.683972862075
 20
1266.896967328651
 30
0.0
 10
909.6486474652062
 20
1266.923930754723
 30
0.0
 10
909.5779956914737
 20
1266.977858354885
 30
0.0
 10
909.4440324628328
 20
1267.010454243858
 30
0.0
 10
909.3084898365527
 20
1267.001105112616
 30
0.0
 10
909.1995920322588
 20
1266.957226354534
 30
0.0
 10
909.146288321453
 20
1266.913050796247
 30
0.0
 10
909.1268814698191
 20
1266.896967328651
 30
0.0
  0
ARC
  5
367
330
1F
100
AcDbEntity
  8
1
  6
SLD-Сплошная
100
AcDbCircle
 10
925.6468414018
 20
1284.023100796
 30
0.0
 40
23.41191191587637
100
AcDbArc
 50
227.0134403894
 51
229.9175229087
  0
CIRCLE
  5
368
330
1F
100
AcDbEntity
  8
1
  6
SLD-Сплошная
100
AcDbCircle
 10
909.4054271659
 20
1268.0100778225
 30
0.0
 40
3.499999999999948
  0
ELLIPSE
  5
369
330
1F
100
AcDbEntity
  8
1
  6
SLD-Сплошная
100
AcDbEllipse
 10
909.4054271659
 20
1266.9406910412
 30
0.0
 11
0.0
 21
0.4122489361056978
 31
0.0
210
0.0
220
0.0
230
1.0
 40
0.9702875252
 41
5.512866274278217
 42
7.05350434008097
  0
ELLIPSE
  5
36A
330
1F
100
AcDbEntity
  8
1
  6
SLD-Сплошная
100
AcDbEllipse
 10
908.3360403847
 20
1268.0100778225
 30
0.0
 11
0.4122489361055841
 21
0.0
 31
0.0
210
0.0
220
0.0
230
1.0
 40
0.9702875252
 41
5.512866274278639
 42
7.053504340080548
  0
ELLIPSE
  5
36B
330
1F
100
AcDbEntity
  8
1
  6
SLD-Сплошная
100
AcDbEllipse
 10
910.4748139472
 20
1268.0100778225
 30
0.0
 11
-0.4122489361055841
 21
0.0
 31
0.0
210
0.0
220
0.0
230
1.0
 40
0.9702875252
 41
5.512866274278355
 42
7.053504340080831
  0
ELLIPSE
  5
36C
330
1F
100
AcDbEntity
  8
1
  6
SLD-Сплошная
100
AcDbEllipse
 10
909.4054271659
 20
1269.0794646037
 30
0.0
 11
0.0
 21
-0.4122489361056978
 31
0.0
210
0.0
220
0.0
230
1.0
 40
0.9702875252
 41
5.512866274278359
 42
7.053504340080828
  0
LINE
  5
36D
330
1F
100
AcDbEntity
  8
1
  6
SLD-Сплошная
100
AcDbLine
 10
911.3052878198
 20
1266.8433516335
 30
0.0
 11
911.0671281017
 21
1266.8433516335
 31
0.0
  0
LINE
  5
36E
330
1F
100
AcDbEntity
  8
1
  6
SLD-Сплошная
100
AcDbLine
 10
911.0671281017
 20
1266.8433516335
 30
0.0
 11
910.1789476089
 21
1267.7315321263
 31
0.0
  0
LINE
  5
36F
330
1F
100
AcDbEntity
  8
1
  6
SLD-Сплошная
100
AcDbLine
 10
907.5055665121
 20
1266.8433516335
 30
0.0
 11
907.7437262302
 21
1266.8433516335
 31
0.0
  0
LINE
  5
370
330
1F
100
AcDbEntity
  8
1
  6
SLD-Сплошная
100
AcDbLine
 10
908.631906723
 20
1267.7315321263
 30
0.0
 11
907.7437262302
 21
1266.8433516335
 31
0.0
  0
LINE
  5
371
330
1F
100
AcDbEntity
  8
1
  6
SLD-Сплошная
100
AcDbLine
 10
910.5721533549
 20
1266.1102171687
 30
0.0
 11
910.5721533549
 21
1266.3483768867
 31
0.0
  0
LINE
  5
372
330
1F
100
AcDbEntity
  8
1
  6
SLD-Сплошная
100
AcDbLine
 10
909.6839728621
 20
1267.2365573795
 30
0.0
 11
910.5721533549
 21
1266.3483768867
 31
0.0
  0
LINE
  5
373
330
1F
100
AcDbEntity
  8
1
  6
SLD-Сплошная
100
AcDbLine
 10
908.238700977
 20
1266.1102171687
 30
0.0
 11
908.238700977
 21
1266.3483768867
 31
0.0
  0
LINE
  5
374
330
1F
100
AcDbEntity
  8
1
  6
SLD-Сплошная
100
AcDbLine
 10
908.238700977
 20
1266.3483768867
 30
0.0
 11
909.1268814698
 21
1267.2365573795
 31
0.0
  0
LINE
  5
375
330
1F
100
AcDbEntity
  8
1
  6
SLD-Сплошная
100
AcDbLine
 10
911.3052878198
 20
1269.1768040114
 30
0.0
 11
911.0671281017
 21
1269.1768040114
 31
0.0
  0
LINE
  5
376
330
1F
100
AcDbEntity
  8
1
  6
SLD-Сплошная
100
AcDbLine
 10
910.1789476089
 20
1268.2886235186
 30
0.0
 11
911.0671281017
 21
1269.1768040114
 31
0.0
  0
LINE
  5
377
330
1F
100
AcDbEntity
  8
1
  6
SLD-Сплошная
100
AcDbLine
 10
907.5055665121
 20
1269.1768040114
 30
0.0
 11
907.7437262302
 21
1269.1768040114
 31
0.0
  0
LINE
  5
378
330
1F
100
AcDbEntity
  8
1
  6
SLD-Сплошная
100
AcDbLine
 10
907.7437262302
 20
1269.1768040114
 30
0.0
 11
908.631906723
 21
1268.2886235186
 31
0.0
  0
LINE
  5
379
330
1F
100
AcDbEntity
  8
1
  6
SLD-Сплошная
100
AcDbLine
 10
910.5721533549
 20
1269.9099384763
 30
0.0
 11
910.5721533549
 21
1269.6717787583
 31
0.0
  0
LINE
  5
37A
330
1F
100
AcDbEntity
  8
1
  6
SLD-Сплошная
100
AcDbLine
 10
910.5721533549
 20
1269.6717787583
 30
0.0
 11
909.6839728621
 21
1268.7835982654
 31
0.0
  0
LINE
  5
37B
330
1F
100
AcDbEntity
  8
1
  6
SLD-Сплошная
100
AcDbLine
 10
908.238700977
 20
1269.9099384763
 30
0.0
 11
908.238700977
 21
1269.6717787583
 31
0.0
  0
LINE
  5
37C
330
1F
100
AcDbEntity
  8
1
  6
SLD-Сплошная
100
AcDbLine
 10
909.1268814698
 20
1268.7835982654
 30
0.0
 11
908.238700977
 21
1269.6717787583
 31
0.0
  0
LINE
  5
37D
330
1F
100
AcDbEntity
  8
1
  6
SLD-Сплошная
100
AcDbLine
 10
907.7437262302
 20
1266.8433516335
 30
0.0
 11
908.238700977
 21
1266.3483768867
 31
0.0
  0
LINE
  5
37E
330
1F
100
AcDbEntity
  8
1
  6
SLD-Сплошная
100
AcDbLine
 10
910.5721533549
 20
1266.3483768867
 30
0.0
 11
911.0671281017
 21
1266.8433516335
 31
0.0
  0
LINE
  5
37F
330
1F
100
AcDbEntity
  8
1
  6
SLD-Сплошная
100
AcDbLine
 10
908.238700977
 20
1269.6717787583
 30
0.0
 11
907.7437262302
 21
1269.1768040114
 31
0.0
  0
LINE
  5
380
330
1F
100
AcDbEntity
  8
1
  6
SLD-Сплошная
100
AcDbLine
 10
911.0671281017
 20
1269.1768040114
 30
0.0
 11
910.5721533549
 21
1269.6717787583
 31
0.0
  0
CIRCLE
  5
381
330
1F
100
AcDbEntity
  8
1
  6
SLD-Сплошная
100
AcDbCircle
 10
909.4054271659
 20
1268.0100778225
 30
0.0
 40
4.999999999999879
  0
ARC
  5
382
330
1F
100
AcDbEntity
  8
1
  6
SLD-Сплошная
100
AcDbCircle
 10
874.6601591855
 20
1267.7553458029
 30
0.0
 40
26.56195549498405
100
AcDbArc
 50
313.8816987744
 51
316.1183012256
  0
ARC
  5
383
330
1F
100
AcDbEntity
  8
1
  6
SLD-Сплошная
100
AcDbCircle
 10
875.892404192
 20
1234.2686635863
 30
0.0
 40
23.41191191640497
100
AcDbArc
 50
40.0824770913
 51
42.9865596106
  0
SPLINE
  5
384
330
1F
100
AcDbEntity
  8
1
  6
SLD-Сплошная
100
AcDbSpline
210
0.0
220
0.0
230
1.0
 70
     8
 71
     3
 72
    12
 73
     8
 74
     0
 42
0.00000001
 43
0.00000001
 40
0.0
 40
0.0
 40
0.0
 40
0.0
 40
0.2187857887071764
 40
0.4375776469534876
 40
0.6562353658863611
 40
0.874841935949103
 40
0.9999999999999999
 40
0.9999999999999999
 40
0.9999999999999999
 40
0.9999999999999999
 10
893.0185376597593
 20
1250.788623518592
 30
0.0
 10
892.9915742336873
 20
1250.753298121722
 30
0.0
 10
892.9376466335257
 20
1250.68264634799
 30
0.0
 10
892.9050507445527
 20
1250.548683119349
 30
0.0
 10
892.9143998757949
 20
1250.413140493069
 30
0.0
 10
892.9582786338766
 20
1250.304242688775
 30
0.0
 10
893.0024541921631
 20
1250.250938977969
 30
0.0
 10
893.0185376597593
 20
1250.231532126335
 30
0.0
  0
ARC
  5
385
330
1F
100
AcDbEntity
  8
1
  6
SLD-Сплошная
100
AcDbCircle
 10
875.8924041923
 20
1266.7514920584
 30
0.0
 40
23.41191191603198
100
AcDbArc
 50
317.0134403894
 51
319.9175229087
  0
ARC
  5
386
330
1F
100
AcDbEntity
  8
1
  6
SLD-Сплошная
100
AcDbCircle
 10
874.6601591852
 20
1233.2648098417
 30
0.0
 40
26.56195549536309
100
AcDbArc
 50
43.8816987744
 51
46.1183012256
  0
ARC
  5
387
330
1F
100
AcDbEntity
  8
1
  6
SLD-Сплошная
100
AcDbCircle
 10
908.1468414024
 20
1234.4970548482
 30
0.0
 40
23.41191191686153
100
AcDbArc
 50
130.0824770914
 51
132.9865596105
  0
SPLINE
  5
388
330
1F
100
AcDbEntity
  8
1
  6
SLD-Сплошная
100
AcDbSpline
210
0.0
220
0.0
230
1.0
 70
     8
 71
     3
 72
    12
 73
     8
 74
     0
 42
0.00000001
 43
0.00000001
 40
0.0
 40
0.0
 40
0.0
 40
0.0
 40
0.2187857887071817
 40
0.4375776469534588
 40
0.6562353658863838
 40
0.8748419359490818
 40
1.0
 40
1.0
 40
1.0
 40
1.0
 10
891.6268814698191
 20
1251.623188316276
 30
0.0
 10
891.6622068666879
 20
1251.596224890204
 30
0.0
 10
891.7328586404204
 20
1251.542297290042
 30
0.0
 10
891.8668218690614
 20
1251.509701401069
 30
0.0
 10
892.0023644953415
 20
1251.519050532311
 30
0.0
 10
892.1112622996354
 20
1251.562929290393
 30
0.0
 10
892.1645660104413
 20
1251.607104848679
 30
0.0
 10
892.183972862075
 20
1251.623188316276
 30
0.0
  0
ARC
  5
389
330
1F
100
AcDbEntity
  8
1
  6
SLD-Сплошная
100
AcDbCircle
 10
875.6640129297
 20
1234.4970548484
 30
0.0
 40
23.4119119165759
100
AcDbArc
 50
47.0134403895
 51
49.9175229087
  0
ARC
  5
38A
330
1F
100
AcDbEntity
  8
1
  6
SLD-Сплошная
100
AcDbCircle
 10
909.1506951465
 20
1233.264809842
 30
0.0
 40
26.5619554950496
100
AcDbArc
 50
133.8816987744
 51
136.1183012256
  0
ARC
  5
38B
330
1F
100
AcDbEntity
  8
1
  6
SLD-Сплошная
100
AcDbCircle
 10
907.9184501395
 20
1266.7514920584
 30
0.0
 40
23.41191191595563
100
AcDbArc
 50
220.0824770913
 51
222.9865596106
  0
SPLINE
  5
38C
330
1F
100
AcDbEntity
  8
1
  6
SLD-Сплошная
100
AcDbSpline
210
0.0
220
0.0
230
1.0
 70
     8
 71
     3
 72
    12
 73
     8
 74
     0
 42
0.00000001
 43
0.00000001
 40
0.0
 40
0.0
 40
0.0
 40
0.0
 40
0.2187857887072047
 40
0.4375776469534796
 40
0.6562353658863966
 40
0.874841935949104
 40
1.0
 40
1.0
 40
1.0
 40
1.0
 10
890.7923166721348
 20
1250.231532126335
 30
0.0
 10
890.8192800982068
 20
1250.266857523204
 30
0.0
 10
890.8732076983683
 20
1250.337509296937
 30
0.0
 10
890.9058035873416
 20
1250.471472525578
 30
0.0
 10
890.8964544560994
 20
1250.607015151858
 30
0.0
 10
890.8525756980175
 20
1250.715912956152
 30
0.0
 10
890.808400139731
 20
1250.769216666958
 30
0.0
 10
890.7923166721348
 20
1250.788623518592
 30
0.0
  0
ARC
  5
38D
330
1F
100
AcDbEntity
  8
1
  6
SLD-Сплошная
100
AcDbCircle
 10
907.9184501397
 20
1234.2686635864
 30
0.0
 40
23.41191191617188
100
AcDbArc
 50
137.0134403894
 51
139.9175229087
  0
ARC
  5
38E
330
1F
100
AcDbEntity
  8
1
  6
SLD-Сплошная
100
AcDbCircle
 10
909.1506951465
 20
1267.755345803
 30
0.0
 40
26.56195549504976
100
AcDbArc
 50
223.8816987744
 51
226.1183012256
  0
ARC
  5
38F
330
1F
100
AcDbEntity
  8
1
  6
SLD-Сплошная
100
AcDbCircle
 10
875.6640129298
 20
1266.5231007963
 30
0.0
 40
23.41191191633968
100
AcDbArc
 50
310.0824770913
 51
312.9865596106
  0
SPLINE
  5
390
330
1F
100
AcDbEntity
  8
1
  6
SLD-Сплошная
100
AcDbSpline
210
0.0
220
0.0
230
1.0
 70
     8
 71
     3
 72
    12
 73
     8
 74
     0
 42
0.00000001
 43
0.00000001
 40
0.0
 40
0.0
 40
0.0
 40
0.0
 40
0.2187857887072182
 40
0.4375776469534778
 40
0.6562353658863888
 40
0.8748419359490899
 40
1.0
 40
1.0
 40
1.0
 40
1.0
 10
892.183972862075
 20
1249.396967328651
 30
0.0
 10
892.1486474652062
 20
1249.423930754723
 30
0.0
 10
892.0779956914737
 20
1249.477858354885
 30
0.0
 10
891.9440324628328
 20
1249.510454243858
 30
0.0
 10
891.8084898365528
 20
1249.501105112616
 30
0.0
 10
891.6995920322588
 20
1249.457226354534
 30
0.0
 10
891.6462883214529
 20
1249.413050796247
 30
0.0
 10
891.6268814698191
 20
1249.396967328651
 30
0.0
  0
ARC
  5
391
330
1F
100
AcDbEntity
  8
1
  6
SLD-Сплошная
100
AcDbCircle
 10
908.1468414022
 20
1266.5231007965
 30
0.0
 40
23.41191191652589
100
AcDbArc
 50
227.0134403895
 51
229.9175229087
  0
CIRCLE
  5
392
330
1F
100
AcDbEntity
  8
1
  6
SLD-Сплошная
100
AcDbCircle
 10
891.9054271659
 20
1250.5100778225
 30
0.0
 40
3.500000000000109
  0
ELLIPSE
  5
393
330
1F
100
AcDbEntity
  8
1
  6
SLD-Сплошная
100
AcDbEllipse
 10
892.9748139472
 20
1250.5100778225
 30
0.0
 11
-0.4122489361055841
 21
0.0
 31
0.0
210
0.0
220
0.0
230
1.0
 40
0.9702875252
 41
5.512866274278639
 42
7.053504340080548
  0
ELLIPSE
  5
394
330
1F
100
AcDbEntity
  8
1
  6
SLD-Сплошная
100
AcDbEllipse
 10
890.8360403847
 20
1250.5100778225
 30
0.0
 11
0.4122489361056978
 21
0.0
 31
0.0
210
0.0
220
0.0
230
1.0
 40
0.9702875252
 41
5.512866274278501
 42
7.053504340080686
  0
ELLIPSE
  5
395
330
1F
100
AcDbEntity
  8
1
  6
SLD-Сплошная
100
AcDbEllipse
 10
891.9054271659
 20
1251.5794646037
 30
0.0
 11
0.0
 21
-0.4122489361056978
 31
0.0
210
0.0
220
0.0
230
1.0
 40
0.9702875252
 41
5.512866274278884
 42
7.053504340080098
  0
ELLIPSE
  5
396
330
1F
100
AcDbEntity
  8
1
  6
SLD-Сплошная
100
AcDbEllipse
 10
891.9054271659
 20
1249.4406910412
 30
0.0
 11
0.0
 21
0.4122489361054704
 31
0.0
210
0.0
220
0.0
230
1.0
 40
0.9702875252
 41
5.512866274279222
 42
7.053504340080169
  0
LINE
  5
397
330
1F
100
AcDbEntity
  8
1
  6
SLD-Сплошная
100
AcDbLine
 10
893.0721533549
 20
1248.6102171687
 30
0.0
 11
893.0721533549
 21
1248.8483768867
 31
0.0
  0
LINE
  5
398
330
1F
100
AcDbEntity
  8
1
  6
SLD-Сплошная
100
AcDbLine
 10
892.1839728621
 20
1249.7365573795
 30
0.0
 11
893.0721533549
 21
1248.8483768867
 31
0.0
  0
LINE
  5
399
330
1F
100
AcDbEntity
  8
1
  6
SLD-Сплошная
100
AcDbLine
 10
893.0721533549
 20
1252.4099384763
 30
0.0
 11
893.0721533549
 21
1252.1717787583
 31
0.0
  0
LINE
  5
39A
330
1F
100
AcDbEntity
  8
1
  6
SLD-Сплошная
100
AcDbLine
 10
893.0721533549
 20
1252.1717787583
 30
0.0
 11
892.1839728621
 21
1251.2835982654
 31
0.0
  0
LINE
  5
39B
330
1F
100
AcDbEntity
  8
1
  6
SLD-Сплошная
100
AcDbLine
 10
890.0055665121
 20
1249.3433516335
 30
0.0
 11
890.2437262302
 21
1249.3433516335
 31
0.0
  0
LINE
  5
39C
330
1F
100
AcDbEntity
  8
1
  6
SLD-Сплошная
100
AcDbLine
 10
891.131906723
 20
1250.2315321263
 30
0.0
 11
890.2437262302
 21
1249.3433516335
 31
0.0
  0
LINE
  5
39D
330
1F
100
AcDbEntity
  8
1
  6
SLD-Сплошная
100
AcDbLine
 10
890.738700977
 20
1252.4099384763
 30
0.0
 11
890.738700977
 21
1252.1717787583
 31
0.0
  0
LINE
  5
39E
330
1F
100
AcDbEntity
  8
1
  6
SLD-Сплошная
100
AcDbLine
 10
891.6268814698
 20
1251.2835982654
 30
0.0
 11
890.738700977
 21
1252.1717787583
 31
0.0
  0
LINE
  5
39F
330
1F
100
AcDbEntity
  8
1
  6
SLD-Сплошная
100
AcDbLine
 10
890.0055665121
 20
1251.6768040114
 30
0.0
 11
890.2437262302
 21
1251.6768040114
 31
0.0
  0
LINE
  5
3A0
330
1F
100
AcDbEntity
  8
1
  6
SLD-Сплошная
100
AcDbLine
 10
890.2437262302
 20
1251.6768040114
 30
0.0
 11
891.131906723
 21
1250.7886235186
 31
0.0
  0
LINE
  5
3A1
330
1F
100
AcDbEntity
  8
1
  6
SLD-Сплошная
100
AcDbLine
 10
893.8052878198
 20
1249.3433516335
 30
0.0
 11
893.5671281017
 21
1249.3433516335
 31
0.0
  0
LINE
  5
3A2
330
1F
100
AcDbEntity
  8
1
  6
SLD-Сплошная
100
AcDbLine
 10
893.5671281017
 20
1249.3433516335
 30
0.0
 11
892.6789476089
 21
1250.2315321263
 31
0.0
  0
LINE
  5
3A3
330
1F
100
AcDbEntity
  8
1
  6
SLD-Сплошная
100
AcDbLine
 10
890.738700977
 20
1248.6102171687
 30
0.0
 11
890.738700977
 21
1248.8483768867
 31
0.0
  0
LINE
  5
3A4
330
1F
100
AcDbEntity
  8
1
  6
SLD-Сплошная
100
AcDbLine
 10
890.738700977
 20
1248.8483768867
 30
0.0
 11
891.6268814698
 21
1249.7365573795
 31
0.0
  0
LINE
  5
3A5
330
1F
100
AcDbEntity
  8
1
  6
SLD-Сплошная
100
AcDbLine
 10
893.8052878198
 20
1251.6768040114
 30
0.0
 11
893.5671281017
 21
1251.6768040114
 31
0.0
  0
LINE
  5
3A6
330
1F
100
AcDbEntity
  8
1
  6
SLD-Сплошная
100
AcDbLine
 10
892.6789476089
 20
1250.7886235186
 30
0.0
 11
893.5671281017
 21
1251.6768040114
 31
0.0
  0
LINE
  5
3A7
330
1F
100
AcDbEntity
  8
1
  6
SLD-Сплошная
100
AcDbLine
 10
890.738700977
 20
1252.1717787583
 30
0.0
 11
890.2437262302
 21
1251.6768040114
 31
0.0
  0
LINE
  5
3A8
330
1F
100
AcDbEntity
  8
1
  6
SLD-Сплошная
100
AcDbLine
 10
890.2437262302
 20
1249.3433516335
 30
0.0
 11
890.738700977
 21
1248.8483768867
 31
0.0
  0
LINE
  5
3A9
330
1F
100
AcDbEntity
  8
1
  6
SLD-Сплошная
100
AcDbLine
 10
893.0721533549
 20
1248.8483768867
 30
0.0
 11
893.5671281017
 21
1249.3433516335
 31
0.0
  0
LINE
  5
3AA
330
1F
100
AcDbEntity
  8
1
  6
SLD-Сплошная
100
AcDbLine
 10
893.5671281017
 20
1251.6768040114
 30
0.0
 11
893.0721533549
 21
1252.1717787583
 31
0.0
  0
CIRCLE
  5
3AB
330
1F
100
AcDbEntity
  8
1
  6
SLD-Сплошная
100
AcDbCircle
 10
891.9054271659
 20
1250.5100778225
 30
0.0
 40
4.99999999999996
  0
ARC
  5
3AC
330
1F
100
AcDbEntity
  8
1
  6
SLD-Сплошная
100
AcDbCircle
 10
844.1506951475
 20
1377.7553458041
 30
0.0
 40
26.56195549658377
100
AcDbArc
 50
223.8816987744
 51
226.1183012256
  0
ARC
  5
3AD
330
1F
100
AcDbEntity
  8
1
  6
SLD-Сплошная
100
AcDbCircle
 10
810.66401293
 20
1376.5231007961
 30
0.0
 40
23.41191191606875
100
AcDbArc
 50
310.0824770913
 51
312.9865596106
  0
SPLINE
  5
3AE
330
1F
100
AcDbEntity
  8
1
  6
SLD-Сплошная
100
AcDbSpline
210
0.0
220
0.0
230
1.0
 70
     8
 71
     3
 72
    12
 73
     8
 74
     0
 42
0.00000001
 43
0.00000001
 40
0.0
 40
0.0
 40
0.0
 40
0.0
 40
0.2187857887071842
 40
0.4375776469534716
 40
0.6562353658863818
 40
0.8748419359490994
 40
1.0
 40
1.0
 40
1.0
 40
1.0
 10
827.1839728620752
 20
1359.396967328651
 30
0.0
 10
827.1486474652061
 20
1359.423930754723
 30
0.0
 10
827.0779956914738
 20
1359.477858354885
 30
0.0
 10
826.9440324628328
 20
1359.510454243858
 30
0.0
 10
826.8084898365527
 20
1359.501105112616
 30
0.0
 10
826.6995920322587
 20
1359.457226354534
 30
0.0
 10
826.646288321453
 20
1359.413050796247
 30
0.0
 10
826.626881469819
 20
1359.396967328651
 30
0.0
  0
ARC
  5
3AF
330
1F
100
AcDbEntity
  8
1
  6
SLD-Сплошная
100
AcDbCircle
 10
843.1468414019
 20
1376.5231007961
 30
0.0
 40
23.41191191606751
100
AcDbArc
 50
227.0134403894
 51
229.9175229087
  0
ARC
  5
3B0
330
1F
100
AcDbEntity
  8
1
  6
SLD-Сплошная
100
AcDbCircle
 10
809.6601591844
 20
1377.7553458041
 30
0.0
 40
26.56195549658088
100
AcDbArc
 50
313.8816987744
 51
316.1183012256
  0
ARC
  5
3B1
330
1F
100
AcDbEntity
  8
1
  6
SLD-Сплошная
100
AcDbCircle
 10
810.8924041924
 20
1344.2686635866
 30
0.0
 40
23.41191191596418
100
AcDbArc
 50
40.0824770913
 51
42.9865596106
  0
SPLINE
  5
3B2
330
1F
100
AcDbEntity
  8
1
  6
SLD-Сплошная
100
AcDbSpline
210
0.0
220
0.0
230
1.0
 70
     8
 71
     3
 72
    12
 73
     8
 74
     0
 42
0.00000001
 43
0.00000001
 40
0.0
 40
0.0
 40
0.0
 40
0.0
 40
0.2187857887071938
 40
0.4375776469534754
 40
0.6562353658863832
 40
0.8748419359490984
 40
1.0
 40
1.0
 40
1.0
 40
1.0
 10
828.0185376597593
 20
1360.788623518592
 30
0.0
 10
827.9915742336873
 20
1360.753298121723
 30
0.0
 10
827.9376466335258
 20
1360.68264634799
 30
0.0
 10
827.9050507445527
 20
1360.548683119349
 30
0.0
 10
827.9143998757947
 20
1360.413140493069
 30
0.0
 10
827.9582786338766
 20
1360.304242688775
 30
0.0
 10
828.0024541921631
 20
1360.250938977969
 30
0.0
 10
828.0185376597593
 20
1360.231532126335
 30
0.0
  0
ARC
  5
3B3
330
1F
100
AcDbEntity
  8
1
  6
SLD-Сплошная
100
AcDbCircle
 10
810.8924041924
 20
1376.7514920584
 30
0.0
 40
23.41191191596434
100
AcDbArc
 50
317.0134403894
 51
319.9175229087
  0
ARC
  5
3B4
330
1F
100
AcDbEntity
  8
1
  6
SLD-Сплошная
100
AcDbCircle
 10
809.6601591843
 20
1343.2648098408
 30
0.0
 40
26.5619554967233
100
AcDbArc
 50
43.8816987744
 51
46.1183012256
  0
ARC
  5
3B5
330
1F
100
AcDbEntity
  8
1
  6
SLD-Сплошная
100
AcDbCircle
 10
843.1468414018
 20
1344.4970548489
 30
0.0
 40
23.4119119159681
100
AcDbArc
 50
130.0824770913
 51
132.9865596106
  0
SPLINE
  5
3B6
330
1F
100
AcDbEntity
  8
1
  6
SLD-Сплошная
100
AcDbSpline
210
0.0
220
0.0
230
1.0
 70
     8
 71
     3
 72
    12
 73
     8
 74
     0
 42
0.00000001
 43
0.00000001
 40
0.0
 40
0.0
 40
0.0
 40
0.0
 40
0.2187857887071934
 40
0.4375776469534746
 40
0.6562353658863838
 40
0.8748419359491001
 40
1.0
 40
1.0
 40
1.0
 40
1.0
 10
826.626881469819
 20
1361.623188316276
 30
0.0
 10
826.662206866688
 20
1361.596224890204
 30
0.0
 10
826.7328586404203
 20
1361.542297290042
 30
0.0
 10
826.8668218690614
 20
1361.509701401069
 30
0.0
 10
827.0023644953413
 20
1361.519050532311
 30
0.0
 10
827.1112622996354
 20
1361.562929290393
 30
0.0
 10
827.1645660104411
 20
1361.607104848679
 30
0.0
 10
827.1839728620752
 20
1361.623188316276
 30
0.0
  0
ARC
  5
3B7
330
1F
100
AcDbEntity
  8
1
  6
SLD-Сплошная
100
AcDbCircle
 10
810.66401293
 20
1344.4970548488
 30
0.0
 40
23.41191191606875
100
AcDbArc
 50
47.0134403894
 51
49.9175229087
  0
ARC
  5
3B8
330
1F
100
AcDbEntity
  8
1
  6
SLD-Сплошная
100
AcDbCircle
 10
844.1506951475
 20
1343.2648098409
 30
0.0
 40
26.5619554965836
100
AcDbArc
 50
133.8816987744
 51
136.1183012256
  0
ARC
  5
3B9
330
1F
100
AcDbEntity
  8
1
  6
SLD-Сплошная
100
AcDbCircle
 10
842.9184501395
 20
1376.7514920584
 30
0.0
 40
23.41191191596515
100
AcDbArc
 50
220.0824770913
 51
222.9865596106
  0
SPLINE
  5
3BA
330
1F
100
AcDbEntity
  8
1
  6
SLD-Сплошная
100
AcDbSpline
210
0.0
220
0.0
230
1.0
 70
     8
 71
     3
 72
    12
 73
     8
 74
     0
 42
0.00000001
 43
0.00000001
 40
0.0
 40
0.0
 40
0.0
 40
0.0
 40
0.2187857887071891
 40
0.4375776469534711
 40
0.6562353658863814
 40
0.8748419359490992
 40
1.0
 40
1.0
 40
1.0
 40
1.0
 10
825.7923166721348
 20
1360.231532126335
 30
0.0
 10
825.8192800982068
 20
1360.266857523204
 30
0.0
 10
825.8732076983683
 20
1360.337509296937
 30
0.0
 10
825.9058035873414
 20
1360.471472525578
 30
0.0
 10
825.8964544560994
 20
1360.607015151858
 30
0.0
 10
825.8525756980175
 20
1360.715912956152
 30
0.0
 10
825.808400139731
 20
1360.769216666958
 30
0.0
 10
825.7923166721348
 20
1360.788623518592
 30
0.0
  0
ARC
  5
3BB
330
1F
100
AcDbEntity
  8
1
  6
SLD-Сплошная
100
AcDbCircle
 10
842.9184501395
 20
1344.2686635866
 30
0.0
 40
23.41191191596499
100
AcDbArc
 50
137.0134403894
 51
139.9175229087
  0
CIRCLE
  5
3BC
330
1F
100
AcDbEntity
  8
1
  6
SLD-Сплошная
100
AcDbCircle
 10
826.9054271659
 20
1360.5100778225
 30
0.0
 40
3.499999999999948
  0
ELLIPSE
  5
3BD
330
1F
100
AcDbEntity
  8
1
  6
SLD-Сплошная
100
AcDbEllipse
 10
825.8360403847
 20
1360.5100778225
 30
0.0
 11
0.4122489361055841
 21
0.0
 31
0.0
210
0.0
220
0.0
230
1.0
 40
0.9702875252
 41
5.512866274278355
 42
7.053504340080831
  0
ELLIPSE
  5
3BE
330
1F
100
AcDbEntity
  8
1
  6
SLD-Сплошная
100
AcDbEllipse
 10
826.9054271659
 20
1361.5794646037
 30
0.0
 11
0.0
 21
-0.4122489361056978
 31
0.0
210
0.0
220
0.0
230
1.0
 40
0.9702875252
 41
5.512866274278217
 42
7.053504340081174
  0
ELLIPSE
  5
3BF
330
1F
100
AcDbEntity
  8
1
  6
SLD-Сплошная
100
AcDbEllipse
 10
827.9748139472
 20
1360.5100778225
 30
0.0
 11
-0.4122489361055841
 21
0.0
 31
0.0
210
0.0
220
0.0
230
1.0
 40
0.9702875252
 41
5.512866274278355
 42
7.053504340080831
  0
ELLIPSE
  5
3C0
330
1F
100
AcDbEntity
  8
1
  6
SLD-Сплошная
100
AcDbEllipse
 10
826.9054271659
 20
1359.4406910412
 30
0.0
 11
0.0
 21
0.4122489361056978
 31
0.0
210
0.0
220
0.0
230
1.0
 40
0.9702875252
 41
5.512866274278154
 42
7.053504340080828
  0
LINE
  5
3C1
330
1F
100
AcDbEntity
  8
1
  6
SLD-Сплошная
100
AcDbLine
 10
828.8052878198
 20
1359.3433516335
 30
0.0
 11
828.5671281017
 21
1359.3433516335
 31
0.0
  0
LINE
  5
3C2
330
1F
100
AcDbEntity
  8
1
  6
SLD-Сплошная
100
AcDbLine
 10
828.5671281017
 20
1359.3433516335
 30
0.0
 11
827.6789476089
 21
1360.2315321263
 31
0.0
  0
LINE
  5
3C3
330
1F
100
AcDbEntity
  8
1
  6
SLD-Сплошная
100
AcDbLine
 10
825.738700977
 20
1358.6102171687
 30
0.0
 11
825.738700977
 21
1358.8483768867
 31
0.0
  0
LINE
  5
3C4
330
1F
100
AcDbEntity
  8
1
  6
SLD-Сплошная
100
AcDbLine
 10
825.738700977
 20
1358.8483768867
 30
0.0
 11
826.6268814698
 21
1359.7365573795
 31
0.0
  0
LINE
  5
3C5
330
1F
100
AcDbEntity
  8
1
  6
SLD-Сплошная
100
AcDbLine
 10
828.0721533549
 20
1362.4099384763
 30
0.0
 11
828.0721533549
 21
1362.1717787583
 31
0.0
  0
LINE
  5
3C6
330
1F
100
AcDbEntity
  8
1
  6
SLD-Сплошная
100
AcDbLine
 10
828.0721533549
 20
1362.1717787583
 30
0.0
 11
827.1839728621
 21
1361.2835982654
 31
0.0
  0
LINE
  5
3C7
330
1F
100
AcDbEntity
  8
1
  6
SLD-Сплошная
100
AcDbLine
 10
825.0055665121
 20
1359.3433516335
 30
0.0
 11
825.2437262302
 21
1359.3433516335
 31
0.0
  0
LINE
  5
3C8
330
1F
100
AcDbEntity
  8
1
  6
SLD-Сплошная
100
AcDbLine
 10
826.131906723
 20
1360.2315321263
 30
0.0
 11
825.2437262302
 21
1359.3433516335
 31
0.0
  0
LINE
  5
3C9
330
1F
100
AcDbEntity
  8
1
  6
SLD-Сплошная
100
AcDbLine
 10
825.0055665121
 20
1361.6768040114
 30
0.0
 11
825.2437262302
 21
1361.6768040114
 31
0.0
  0
LINE
  5
3CA
330
1F
100
AcDbEntity
  8
1
  6
SLD-Сплошная
100
AcDbLine
 10
825.2437262302
 20
1361.6768040114
 30
0.0
 11
826.131906723
 21
1360.7886235186
 31
0.0
  0
LINE
  5
3CB
330
1F
100
AcDbEntity
  8
1
  6
SLD-Сплошная
100
AcDbLine
 10
828.0721533549
 20
1358.6102171687
 30
0.0
 11
828.0721533549
 21
1358.8483768867
 31
0.0
  0
LINE
  5
3CC
330
1F
100
AcDbEntity
  8
1
  6
SLD-Сплошная
100
AcDbLine
 10
827.1839728621
 20
1359.7365573795
 30
0.0
 11
828.0721533549
 21
1358.8483768867
 31
0.0
  0
LINE
  5
3CD
330
1F
100
AcDbEntity
  8
1
  6
SLD-Сплошная
100
AcDbLine
 10
828.8052878198
 20
1361.6768040114
 30
0.0
 11
828.5671281017
 21
1361.6768040114
 31
0.0
  0
LINE
  5
3CE
330
1F
100
AcDbEntity
  8
1
  6
SLD-Сплошная
100
AcDbLine
 10
827.6789476089
 20
1360.7886235186
 30
0.0
 11
828.5671281017
 21
1361.6768040114
 31
0.0
  0
LINE
  5
3CF
330
1F
100
AcDbEntity
  8
1
  6
SLD-Сплошная
100
AcDbLine
 10
825.738700977
 20
1362.4099384763
 30
0.0
 11
825.738700977
 21
1362.1717787583
 31
0.0
  0
LINE
  5
3D0
330
1F
100
AcDbEntity
  8
1
  6
SLD-Сплошная
100
AcDbLine
 10
826.6268814698
 20
1361.2835982654
 30
0.0
 11
825.738700977
 21
1362.1717787583
 31
0.0
  0
LINE
  5
3D1
330
1F
100
AcDbEntity
  8
1
  6
SLD-Сплошная
100
AcDbLine
 10
825.2437262302
 20
1359.3433516335
 30
0.0
 11
825.738700977
 21
1358.8483768867
 31
0.0
  0
LINE
  5
3D2
330
1F
100
AcDbEntity
  8
1
  6
SLD-Сплошная
100
AcDbLine
 10
828.0721533549
 20
1358.8483768867
 30
0.0
 11
828.5671281017
 21
1359.3433516335
 31
0.0
  0
LINE
  5
3D3
330
1F
100
AcDbEntity
  8
1
  6
SLD-Сплошная
100
AcDbLine
 10
828.5671281017
 20
1361.6768040114
 30
0.0
 11
828.0721533549
 21
1362.1717787583
 31
0.0
  0
LINE
  5
3D4
330
1F
100
AcDbEntity
  8
1
  6
SLD-Сплошная
100
AcDbLine
 10
825.738700977
 20
1362.1717787583
 30
0.0
 11
825.2437262302
 21
1361.6768040114
 31
0.0
  0
CIRCLE
  5
3D5
330
1F
100
AcDbEntity
  8
1
  6
SLD-Сплошная
100
AcDbCircle
 10
826.9054271659
 20
1360.5100778225
 30
0.0
 40
4.999999999999879
  0
ARC
  5
3D6
330
1F
100
AcDbEntity
  8
1
  6
SLD-Сплошная
100
AcDbCircle
 10
909.1506951475
 20
1377.7553458041
 30
0.0
 40
26.56195549658377
100
AcDbArc
 50
223.8816987744
 51
226.1183012256
  0
ARC
  5
3D7
330
1F
100
AcDbEntity
  8
1
  6
SLD-Сплошная
100
AcDbCircle
 10
875.66401293
 20
1376.5231007961
 30
0.0
 40
23.41191191602798
100
AcDbArc
 50
310.0824770913
 51
312.9865596106
  0
SPLINE
  5
3D8
330
1F
100
AcDbEntity
  8
1
  6
SLD-Сплошная
100
AcDbSpline
210
0.0
220
0.0
230
1.0
 70
     8
 71
     3
 72
    12
 73
     8
 74
     0
 42
0.00000001
 43
0.00000001
 40
0.0
 40
0.0
 40
0.0
 40
0.0
 40
0.2187857887072033
 40
0.4375776469534801
 40
0.6562353658863794
 40
0.874841935949108
 40
1.0
 40
1.0
 40
1.0
 40
1.0
 10
892.183972862075
 20
1359.396967328651
 30
0.0
 10
892.1486474652062
 20
1359.423930754723
 30
0.0
 10
892.0779956914737
 20
1359.477858354885
 30
0.0
 10
891.9440324628328
 20
1359.510454243858
 30
0.0
 10
891.8084898365528
 20
1359.501105112616
 30
0.0
 10
891.6995920322588
 20
1359.457226354534
 30
0.0
 10
891.6462883214529
 20
1359.413050796247
 30
0.0
 10
891.6268814698191
 20
1359.396967328651
 30
0.0
  0
ARC
  5
3D9
330
1F
100
AcDbEntity
  8
1
  6
SLD-Сплошная
100
AcDbCircle
 10
908.1468414021
 20
1376.5231007963
 30
0.0
 40
23.4119119163137
100
AcDbArc
 50
227.0134403894
 51
229.9175229087
  0
ARC
  5
3DA
330
1F
100
AcDbEntity
  8
1
  6
SLD-Сплошная
100
AcDbCircle
 10
874.6601591844
 20
1377.755345804
 30
0.0
 40
26.56195549651814
100
AcDbArc
 50
313.8816987744
 51
316.1183012256
  0
ARC
  5
3DB
330
1F
100
AcDbEntity
  8
1
  6
SLD-Сплошная
100
AcDbCircle
 10
875.8924041924
 20
1344.2686635866
 30
0.0
 40
23.41191191592322
100
AcDbArc
 50
40.0824770913
 51
42.9865596106
  0
SPLINE
  5
3DC
330
1F
100
AcDbEntity
  8
1
  6
SLD-Сплошная
100
AcDbSpline
210
0.0
220
0.0
230
1.0
 70
     8
 71
     3
 72
    12
 73
     8
 74
     0
 42
0.00000001
 43
0.00000001
 40
0.0
 40
0.0
 40
0.0
 40
0.0
 40
0.2187857887071986
 40
0.4375776469534816
 40
0.6562353658863895
 40
0.8748419359490992
 40
1.0
 40
1.0
 40
1.0
 40
1.0
 10
893.0185376597593
 20
1360.788623518592
 30
0.0
 10
892.9915742336874
 20
1360.753298121723
 30
0.0
 10
892.9376466335258
 20
1360.68264634799
 30
0.0
 10
892.9050507445526
 20
1360.548683119349
 30
0.0
 10
892.9143998757949
 20
1360.413140493069
 30
0.0
 10
892.9582786338766
 20
1360.304242688775
 30
0.0
 10
893.0024541921631
 20
1360.250938977969
 30
0.0
 10
893.0185376597593
 20
1360.231532126335
 30
0.0
  0
ARC
  5
3DD
330
1F
100
AcDbEntity
  8
1
  6
SLD-Сплошная
100
AcDbCircle
 10
875.8924041924
 20
1376.7514920583
 30
0.0
 40
23.41191191592322
100
AcDbArc
 50
317.0134403894
 51
319.9175229087
  0
ARC
  5
3DE
330
1F
100
AcDbEntity
  8
1
  6
SLD-Сплошная
100
AcDbCircle
 10
874.6601591844
 20
1343.2648098409
 30
0.0
 40
26.56195549651814
100
AcDbArc
 50
43.8816987744
 51
46.1183012256
  0
ARC
  5
3DF
330
1F
100
AcDbEntity
  8
1
  6
SLD-Сплошная
100
AcDbCircle
 10
908.1468414021
 20
1344.4970548486
 30
0.0
 40
23.41191191631354
100
AcDbArc
 50
130.0824770913
 51
132.9865596106
  0
SPLINE
  5
3E0
330
1F
100
AcDbEntity
  8
1
  6
SLD-Сплошная
100
AcDbSpline
210
0.0
220
0.0
230
1.0
 70
     8
 71
     3
 72
    12
 73
     8
 74
     0
 42
0.00000001
 43
0.00000001
 40
0.0
 40
0.0
 40
0.0
 40
0.0
 40
0.218785788707212
 40
0.4375776469534823
 40
0.6562353658864029
 40
0.874841935949109
 40
1.0
 40
1.0
 40
1.0
 40
1.0
 10
891.6268814698191
 20
1361.623188316276
 30
0.0
 10
891.6622068666879
 20
1361.596224890204
 30
0.0
 10
891.7328586404204
 20
1361.542297290042
 30
0.0
 10
891.8668218690614
 20
1361.509701401069
 30
0.0
 10
892.0023644953415
 20
1361.519050532311
 30
0.0
 10
892.1112622996353
 20
1361.562929290393
 30
0.0
 10
892.1645660104413
 20
1361.607104848679
 30
0.0
 10
892.183972862075
 20
1361.623188316276
 30
0.0
  0
ARC
  5
3E1
330
1F
100
AcDbEntity
  8
1
  6
SLD-Сплошная
100
AcDbCircle
 10
875.66401293
 20
1344.4970548488
 30
0.0
 40
23.41191191602773
100
AcDbArc
 50
47.0134403894
 51
49.9175229087
  0
ARC
  5
3E2
330
1F
100
AcDbEntity
  8
1
  6
SLD-Сплошная
100
AcDbCircle
 10
909.1506951475
 20
1343.2648098409
 30
0.0
 40
26.56195549658361
100
AcDbArc
 50
133.8816987744
 51
136.1183012256
  0
ARC
  5
3E3
330
1F
100
AcDbEntity
  8
1
  6
SLD-Сплошная
100
AcDbCircle
 10
907.9184501394
 20
1376.7514920583
 30
0.0
 40
23.41191191584696
100
AcDbArc
 50
220.0824770913
 51
222.9865596106
  0
SPLINE
  5
3E4
330
1F
100
AcDbEntity
  8
1
  6
SLD-Сплошная
100
AcDbSpline
210
0.0
220
0.0
230
1.0
 70
     8
 71
     3
 72
    12
 73
     8
 74
     0
 42
0.00000001
 43
0.00000001
 40
0.0
 40
0.0
 40
0.0
 40
0.0
 40
0.2187857887071924
 40
0.4375776469534745
 40
0.6562353658863835
 40
0.8748419359490942
 40
1.0
 40
1.0
 40
1.0
 40
1.0
 10
890.7923166721348
 20
1360.231532126335
 30
0.0
 10
890.8192800982068
 20
1360.266857523204
 30
0.0
 10
890.8732076983683
 20
1360.337509296937
 30
0.0
 10
890.9058035873416
 20
1360.471472525578
 30
0.0
 10
890.8964544560994
 20
1360.607015151858
 30
0.0
 10
890.8525756980175
 20
1360.715912956152
 30
0.0
 10
890.808400139731
 20
1360.769216666958
 30
0.0
 10
890.7923166721348
 20
1360.788623518592
 30
0.0
  0
ARC
  5
3E5
330
1F
100
AcDbEntity
  8
1
  6
SLD-Сплошная
100
AcDbCircle
 10
907.9184501394
 20
1344.2686635866
 30
0.0
 40
23.41191191584696
100
AcDbArc
 50
137.0134403894
 51
139.9175229087
  0
CIRCLE
  5
3E6
330
1F
100
AcDbEntity
  8
1
  6
SLD-Сплошная
100
AcDbCircle
 10
891.9054271659
 20
1360.5100778225
 30
0.0
 40
3.500000000000028
  0
ELLIPSE
  5
3E7
330
1F
100
AcDbEntity
  8
1
  6
SLD-Сплошная
100
AcDbEllipse
 10
890.8360403847
 20
1360.5100778225
 30
0.0
 11
0.4122489361056978
 21
0.0
 31
0.0
210
0.0
220
0.0
230
1.0
 40
0.9702875252
 41
5.512866274278217
 42
7.05350434008097
  0
ELLIPSE
  5
3E8
330
1F
100
AcDbEntity
  8
1
  6
SLD-Сплошная
100
AcDbEllipse
 10
891.9054271659
 20
1361.5794646037
 30
0.0
 11
0.0
 21
-0.4122489361056978
 31
0.0
210
0.0
220
0.0
230
1.0
 40
0.9702875252
 41
5.512866274278501
 42
7.053504340080481
  0
ELLIPSE
  5
3E9
330
1F
100
AcDbEntity
  8
1
  6
SLD-Сплошная
100
AcDbEllipse
 10
891.9054271659
 20
1359.4406910412
 30
0.0
 11
0.0
 21
0.4122489361056978
 31
0.0
210
0.0
220
0.0
230
1.0
 40
0.9702875252
 41
5.512866274278562
 42
7.053504340080828
  0
ELLIPSE
  5
3EA
330
1F
100
AcDbEntity
  8
1
  6
SLD-Сплошная
100
AcDbEllipse
 10
892.9748139472
 20
1360.5100778225
 30
0.0
 11
-0.4122489361055841
 21
0.0
 31
0.0
210
0.0
220
0.0
230
1.0
 40
0.9702875252
 41
5.512866274278355
 42
7.053504340080831
  0
LINE
  5
3EB
330
1F
100
AcDbEntity
  8
1
  6
SLD-Сплошная
100
AcDbLine
 10
893.0721533549
 20
1362.4099384763
 30
0.0
 11
893.0721533549
 21
1362.1717787583
 31
0.0
  0
LINE
  5
3EC
330
1F
100
AcDbEntity
  8
1
  6
SLD-Сплошная
100
AcDbLine
 10
893.0721533549
 20
1362.1717787583
 30
0.0
 11
892.1839728621
 21
1361.2835982654
 31
0.0
  0
LINE
  5
3ED
330
1F
100
AcDbEntity
  8
1
  6
SLD-Сплошная
100
AcDbLine
 10
890.738700977
 20
1358.6102171687
 30
0.0
 11
890.738700977
 21
1358.8483768867
 31
0.0
  0
LINE
  5
3EE
330
1F
100
AcDbEntity
  8
1
  6
SLD-Сплошная
100
AcDbLine
 10
890.738700977
 20
1358.8483768867
 30
0.0
 11
891.6268814698
 21
1359.7365573795
 31
0.0
  0
LINE
  5
3EF
330
1F
100
AcDbEntity
  8
1
  6
SLD-Сплошная
100
AcDbLine
 10
890.738700977
 20
1362.4099384763
 30
0.0
 11
890.738700977
 21
1362.1717787583
 31
0.0
  0
LINE
  5
3F0
330
1F
100
AcDbEntity
  8
1
  6
SLD-Сплошная
100
AcDbLine
 10
891.6268814698
 20
1361.2835982654
 30
0.0
 11
890.738700977
 21
1362.1717787583
 31
0.0
  0
LINE
  5
3F1
330
1F
100
AcDbEntity
  8
1
  6
SLD-Сплошная
100
AcDbLine
 10
893.8052878198
 20
1361.6768040114
 30
0.0
 11
893.5671281017
 21
1361.6768040114
 31
0.0
  0
LINE
  5
3F2
330
1F
100
AcDbEntity
  8
1
  6
SLD-Сплошная
100
AcDbLine
 10
892.6789476089
 20
1360.7886235186
 30
0.0
 11
893.5671281017
 21
1361.6768040114
 31
0.0
  0
LINE
  5
3F3
330
1F
100
AcDbEntity
  8
1
  6
SLD-Сплошная
100
AcDbLine
 10
893.8052878198
 20
1359.3433516335
 30
0.0
 11
893.5671281017
 21
1359.3433516335
 31
0.0
  0
LINE
  5
3F4
330
1F
100
AcDbEntity
  8
1
  6
SLD-Сплошная
100
AcDbLine
 10
893.5671281017
 20
1359.3433516335
 30
0.0
 11
892.6789476089
 21
1360.2315321263
 31
0.0
  0
LINE
  5
3F5
330
1F
100
AcDbEntity
  8
1
  6
SLD-Сплошная
100
AcDbLine
 10
893.0721533549
 20
1358.6102171687
 30
0.0
 11
893.0721533549
 21
1358.8483768867
 31
0.0
  0
LINE
  5
3F6
330
1F
100
AcDbEntity
  8
1
  6
SLD-Сплошная
100
AcDbLine
 10
892.1839728621
 20
1359.7365573795
 30
0.0
 11
893.0721533549
 21
1358.8483768867
 31
0.0
  0
LINE
  5
3F7
330
1F
100
AcDbEntity
  8
1
  6
SLD-Сплошная
100
AcDbLine
 10
890.0055665121
 20
1359.3433516335
 30
0.0
 11
890.2437262302
 21
1359.3433516335
 31
0.0
  0
LINE
  5
3F8
330
1F
100
AcDbEntity
  8
1
  6
SLD-Сплошная
100
AcDbLine
 10
891.131906723
 20
1360.2315321263
 30
0.0
 11
890.2437262302
 21
1359.3433516335
 31
0.0
  0
LINE
  5
3F9
330
1F
100
AcDbEntity
  8
1
  6
SLD-Сплошная
100
AcDbLine
 10
890.0055665121
 20
1361.6768040114
 30
0.0
 11
890.2437262302
 21
1361.6768040114
 31
0.0
  0
LINE
  5
3FA
330
1F
100
AcDbEntity
  8
1
  6
SLD-Сплошная
100
AcDbLine
 10
890.2437262302
 20
1361.6768040114
 30
0.0
 11
891.131906723
 21
1360.7886235186
 31
0.0
  0
LINE
  5
3FB
330
1F
100
AcDbEntity
  8
1
  6
SLD-Сплошная
100
AcDbLine
 10
893.5671281017
 20
1361.6768040114
 30
0.0
 11
893.0721533549
 21
1362.1717787583
 31
0.0
  0
LINE
  5
3FC
330
1F
100
AcDbEntity
  8
1
  6
SLD-Сплошная
100
AcDbLine
 10
890.2437262302
 20
1359.3433516335
 30
0.0
 11
890.738700977
 21
1358.8483768867
 31
0.0
  0
LINE
  5
3FD
330
1F
100
AcDbEntity
  8
1
  6
SLD-Сплошная
100
AcDbLine
 10
893.0721533549
 20
1358.8483768867
 30
0.0
 11
893.5671281017
 21
1359.3433516335
 31
0.0
  0
LINE
  5
3FE
330
1F
100
AcDbEntity
  8
1
  6
SLD-Сплошная
100
AcDbLine
 10
890.738700977
 20
1362.1717787583
 30
0.0
 11
890.2437262302
 21
1361.6768040114
 31
0.0
  0
CIRCLE
  5
3FF
330
1F
100
AcDbEntity
  8
1
  6
SLD-Сплошная
100
AcDbCircle
 10
891.9054271659
 20
1360.5100778225
 30
0.0
 40
4.99999999999996
  0
CIRCLE
  5
400
330
1F
100
AcDbEntity
  8
1
  6
SLD-Сплошная
100
AcDbCircle
 10
926.9054271659
 20
1377.7600778225
 30
0.0
 40
8.299999999999955
  0
LINE
  5
401
330
1F
100
AcDbEntity
  8
1
  6
SLD-Сплошная
100
AcDbLine
 10
713.1054271659
 20
1419.8600778225
 30
0.0
 11
685.1054271659
 21
1419.8600778225
 31
0.0
  0
LINE
  5
402
330
1F
100
AcDbEntity
  8
1
  6
SLD-Сплошная
100
AcDbLine
 10
710.1054271659
 20
1422.8600778225
 30
0.0
 11
688.1054271659
 21
1422.8600778225
 31
0.0
  0
LINE
  5
403
330
1F
100
AcDbEntity
  8
1
  6
SLD-Сплошная
100
AcDbLine
 10
937.9054271659
 20
1393.7600778225
 30
0.0
 11
937.9054271659
 21
1392.7600778225
 31
0.0
  0
LINE
  5
404
330
1F
100
AcDbEntity
  8
1
  6
SLD-Сплошная
100
AcDbLine
 10
935.9054271659
 20
1394.7600778225
 30
0.0
 11
936.9054271659
 21
1394.7600778225
 31
0.0
  0
SPLINE
  5
405
330
1F
100
AcDbEntity
  8
1
  6
SLD-Сплошная
100
AcDbSpline
210
0.0
220
0.0
230
1.0
 70
     8
 71
     3
 72
    12
 73
     8
 74
     0
 42
0.00000001
 43
0.00000001
 40
0.0
 40
0.0
 40
0.0
 40
0.0
 40
0.2178231110882048
 40
0.4765675029999344
 40
0.8410160589292623
 40
0.9961871477580917
 40
1.0
 40
1.0
 40
1.0
 40
1.0
 10
936.9054271659314
 20
1394.760077822463
 30
0.0
 10
937.0465637359649
 20
1394.740724629053
 30
0.0
 10
937.355351460219
 20
1394.698382459699
 30
0.0
 10
937.7131615885794
 20
1394.40423470483
 30
0.0
 10
937.879411854603
 20
1394.07024421023
 30
0.0
 10
937.9053007594198
 20
1393.833572023839
 30
0.0
 10
937.9054242053735
 20
1393.761799124983
 30
0.0
 10
937.9054271659315
 20
1393.760077822463
 30
0.0
  0
LINE
  5
406
330
1F
100
AcDbEntity
  8
1
  6
SLD-Сплошная
100
AcDbLine
 10
925.4054271659
 20
1394.7600778225
 30
0.0
 11
935.9054271659
 21
1394.7600778225
 31
0.0
  0
ARC
  5
407
330
1F
100
AcDbEntity
  8
1
  6
SLD-Сплошная
100
AcDbCircle
 10
925.4054271659
 20
1395.7600778225
 30
0.0
 40
1.0
100
AcDbArc
 50
180.0
 51
270.0
  0
ARC
  5
408
330
1F
100
AcDbEntity
  8
1
  6
SLD-Сплошная
100
AcDbCircle
 10
925.4054271659
 20
1395.7600778225
 30
0.0
 40
3.0
100
AcDbArc
 50
180.0
 51
270.0
  0
LINE
  5
409
330
1F
100
AcDbEntity
  8
1
  6
SLD-Сплошная
100
AcDbLine
 10
922.4054271659
 20
1399.8600778225
 30
0.0
 11
922.4054271659
 21
1395.7600778225
 31
0.0
  0
LINE
  5
40A
330
1F
100
AcDbEntity
  8
1
  6
SLD-Сплошная
100
AcDbLine
 10
924.4054271659
 20
1399.8600778225
 30
0.0
 11
924.4054271659
 21
1395.7600778225
 31
0.0
  0
LINE
  5
40B
330
1F
100
AcDbEntity
  8
1
  6
SLD-Сплошная
100
AcDbLine
 10
934.1581183594
 20
1394.8600778225
 30
0.0
 11
935.5054271659
 21
1394.8600778225
 31
0.0
  0
LINE
  5
40C
330
1F
100
AcDbEntity
  8
1
  6
SLD-Сплошная
100
AcDbLine
 10
926.3054271659
 20
1394.8600778225
 30
0.0
 11
934.1581183594
 21
1394.8600778225
 31
0.0
  0
LINE
  5
40D
330
1F
100
AcDbEntity
  8
1
  6
SLD-Сплошная
100
AcDbLine
 10
934.1581183594
 20
1395.2600778225
 30
0.0
 11
935.5054271659
 21
1395.2600778225
 31
0.0
  0
LINE
  5
40E
330
1F
100
AcDbEntity
  8
1
  6
SLD-Сплошная
100
AcDbLine
 10
926.3054271659
 20
1395.2600778225
 30
0.0
 11
934.1581183594
 21
1395.2600778225
 31
0.0
  0
ARC
  5
40F
330
1F
100
AcDbEntity
  8
1
  6
SLD-Сплошная
100
AcDbCircle
 10
924.9054271659
 20
1395.2600778225
 30
0.0
 40
2.5
100
AcDbArc
 50
180.0
 51
270.0
  0
LINE
  5
410
330
1F
100
AcDbEntity
  8
1
  6
SLD-Сплошная
100
AcDbLine
 10
922.4054271659
 20
1395.7600778225
 30
0.0
 11
922.4054271659
 21
1395.2600778225
 31
0.0
  0
LINE
  5
411
330
1F
100
AcDbEntity
  8
1
  6
SLD-Сплошная
100
AcDbLine
 10
1478.7853296565
 20
915.448911213
 30
0.0
 11
1478.7853296565
 21
421.009546638
 31
0.0
  0
ARC
  5
412
330
1F
100
AcDbEntity
  8
1
  6
SLD-Сплошная
100
AcDbCircle
 10
1472.8507056952
 20
503.3792289255
 30
0.0
 40
0.1999999999999886
100
AcDbArc
 50
270.0
 51
338.1849373759
  0
ARC
  5
413
330
1F
100
AcDbEntity
  8
1
  6
SLD-Сплошная
100
AcDbCircle
 10
1472.8507056952
 20
513.0792289255
 30
0.0
 40
0.1999999999999318
100
AcDbArc
 50
21.8150626241
 51
90.0
  0
LINE
  5
414
330
1F
100
AcDbEntity
  8
1
  6
SLD-Сплошная
100
AcDbLine
 10
1471.6853296565
 20
503.1792289255
 30
0.0
 11
1472.8507056952
 21
503.1792289255
 31
0.0
  0
LINE
  5
415
330
1F
100
AcDbEntity
  8
1
  6
SLD-Сплошная
100
AcDbLine
 10
1472.8507056952
 20
513.2792289255
 30
0.0
 11
1471.6853296565
 21
513.2792289255
 31
0.0
  0
ARC
  5
416
330
1F
100
AcDbEntity
  8
1
  6
SLD-Сплошная
100
AcDbCircle
 10
1460.7340796565
 20
508.2292289255
 30
0.0
 40
13.25125000000003
100
AcDbArc
 50
338.1849373759
 51
0.0
  0
ARC
  5
417
330
1F
100
AcDbEntity
  8
1
  6
SLD-Сплошная
100
AcDbCircle
 10
1460.7340796565
 20
508.2292289255
 30
0.0
 40
13.25125000000003
100
AcDbArc
 50
0.0
 51
21.8150626241
  0
ARC
  5
418
330
1F
100
AcDbEntity
  8
1
  6
SLD-Сплошная
100
AcDbCircle
 10
1472.8507056952
 20
823.3792289255
 30
0.0
 40
0.2000000000000455
100
AcDbArc
 50
270.0
 51
338.1849373759
  0
ARC
  5
419
330
1F
100
AcDbEntity
  8
1
  6
SLD-Сплошная
100
AcDbCircle
 10
1472.8507056952
 20
833.0792289255
 30
0.0
 40
0.2000000000000455
100
AcDbArc
 50
21.8150626241
 51
90.0
  0
LINE
  5
41A
330
1F
100
AcDbEntity
  8
1
  6
SLD-Сплошная
100
AcDbLine
 10
1471.6853296565
 20
823.1792289255
 30
0.0
 11
1472.8507056952
 21
823.1792289255
 31
0.0
  0
LINE
  5
41B
330
1F
100
AcDbEntity
  8
1
  6
SLD-Сплошная
100
AcDbLine
 10
1472.8507056952
 20
833.2792289255
 30
0.0
 11
1471.6853296565
 21
833.2792289255
 31
0.0
  0
ARC
  5
41C
330
1F
100
AcDbEntity
  8
1
  6
SLD-Сплошная
100
AcDbCircle
 10
1460.7340796565
 20
828.2292289255
 30
0.0
 40
13.25125000000003
100
AcDbArc
 50
338.1849373759
 51
0.0
  0
ARC
  5
41D
330
1F
100
AcDbEntity
  8
1
  6
SLD-Сплошная
100
AcDbCircle
 10
1460.7340796565
 20
828.2292289255
 30
0.0
 40
13.25125000000003
100
AcDbArc
 50
0.0
 51
21.8150626241
  0
ARC
  5
41E
330
1F
100
AcDbEntity
  8
1
  6
SLD-Сплошная
100
AcDbCircle
 10
1449.3853296565
 20
417.0234668679
 30
0.0
 40
1.000000000000227
100
AcDbArc
 50
180.0
 51
257.5813184942
  0
ARC
  5
41F
330
1F
100
AcDbEntity
  8
1
  6
SLD-Сплошная
100
AcDbCircle
 10
1463.9853296565
 20
417.0234668679
 30
0.0
 40
1.000000000000227
100
AcDbArc
 50
282.4186815058
 51
0.0
  0
LINE
  5
420
330
1F
100
AcDbEntity
  8
1
  6
SLD-Сплошная
100
AcDbLine
 10
1448.3853296565
 20
418.2292289255
 30
0.0
 11
1448.3853296565
 21
417.0234668679
 31
0.0
  0
LINE
  5
421
330
1F
100
AcDbEntity
  8
1
  6
SLD-Сплошная
100
AcDbLine
 10
1464.9853296565
 20
417.0234668679
 30
0.0
 11
1464.9853296565
 21
418.2292289255
 31
0.0
  0
ARC
  5
422
330
1F
100
AcDbEntity
  8
1
  6
SLD-Сплошная
100
AcDbCircle
 10
1456.6853296565
 20
450.1742289255
 30
0.0
 40
34.94500000000001
100
AcDbArc
 50
270.0104111827
 51
282.4186815058
  0
ARC
  5
423
330
1F
100
AcDbEntity
  8
1
  6
SLD-Сплошная
100
AcDbCircle
 10
1456.6853296565
 20
450.1742289255
 30
0.0
 40
34.94500000000001
100
AcDbArc
 50
257.5813184942
 51
270.0104111827
  0
LINE
  5
424
330
1F
100
AcDbEntity
  8
1
  6
SLD-Сплошная
100
AcDbLine
 10
1497.7853296565
 20
654.2292289255
 30
0.0
 11
1498.7853296565
 21
654.2292289255
 31
0.0
  0
LINE
  5
425
330
1F
100
AcDbEntity
  8
1
  6
SLD-Сплошная
100
AcDbLine
 10
1498.7853296565
 20
682.2292289255
 30
0.0
 11
1497.7853296565
 21
682.2292289255
 31
0.0
  0
LINE
  5
426
330
1F
100
AcDbEntity
  8
1
  6
SLD-Сплошная
100
AcDbLine
 10
1498.7853296565
 20
654.2292289255
 30
0.0
 11
1501.7853296565
 21
657.2292289255
 31
0.0
  0
LINE
  5
427
330
1F
100
AcDbEntity
  8
1
  6
SLD-Сплошная
100
AcDbLine
 10
1501.7853296565
 20
679.2292289255
 30
0.0
 11
1498.7853296565
 21
682.2292289255
 31
0.0
  0
LINE
  5
428
330
1F
100
AcDbEntity
  8
1
  6
SLD-Сплошная
100
AcDbLine
 10
1349.9353296565
 20
417.7292289255
 30
0.0
 11
1339.4436557686
 21
417.7292289255
 31
0.0
  0
ARC
  5
429
330
1F
100
AcDbEntity
  8
1
  6
SLD-Сплошная
100
AcDbCircle
 10
1339.4436557686
 20
420.1292289255
 30
0.0
 40
2.400000000000048
100
AcDbArc
 50
232.3415379937
 51
270.0
  0
LINE
  5
42A
330
1F
100
AcDbEntity
  8
1
  6
SLD-Сплошная
100
AcDbLine
 10
1418.9353296565
 20
417.7292289255
 30
0.0
 11
1349.9353296565
 21
417.7292289255
 31
0.0
  0
LINE
  5
42B
330
1F
100
AcDbEntity
  8
1
  6
SLD-Сплошная
100
AcDbLine
 10
1429.4270035444
 20
417.7292289255
 30
0.0
 11
1418.9353296565
 21
417.7292289255
 31
0.0
  0
ARC
  5
42C
330
1F
100
AcDbEntity
  8
1
  6
SLD-Сплошная
100
AcDbCircle
 10
1429.4270035444
 20
420.1292289255
 30
0.0
 40
2.39999999999999
100
AcDbArc
 50
270.0
 51
307.6584620062
  0
LINE
  5
42D
330
1F
100
AcDbEntity
  8
1
  6
SLD-Сплошная
100
AcDbLine
 10
1300.1853296565
 20
420.2292289255
 30
0.0
 11
1469.6853296565
 21
420.2292289255
 31
0.0
  0
CIRCLE
  5
42E
330
1F
100
AcDbEntity
  8
1
  6
SLD-Сплошная
100
AcDbCircle
 10
1431.6853296565
 20
468.2292289255
 30
0.0
 40
0.5
  0
CIRCLE
  5
42F
330
1F
100
AcDbEntity
  8
1
  6
SLD-Сплошная
100
AcDbCircle
 10
1431.6853296565
 20
868.2292289255
 30
0.0
 40
0.5
  0
CIRCLE
  5
430
330
1F
100
AcDbEntity
  8
1
  6
SLD-Сплошная
100
AcDbCircle
 10
1381.6853296565
 20
878.2292289255
 30
0.0
 40
0.4999999999998863
  0
ELLIPSE
  5
431
330
1F
100
AcDbEntity
  8
1
  6
SLD-Сплошная
100
AcDbEllipse
 10
1300.1853296565
 20
915.6585182474
 30
0.0
 11
2.5
 21
0.0
 31
0.0
210
0.0
220
0.0
230
1.0
 40
0.6
 41
2.751284095291421
 42
3.141592653589793
  0
LINE
  5
432
330
1F
100
AcDbEntity
  8
1
  6
SLD-Сплошная
100
AcDbLine
 10
1297.8733503927
 20
420.2292289255
 30
0.0
 11
1300.1853296565
 21
420.2292289255
 31
0.0
  0
ELLIPSE
  5
433
330
1F
100
AcDbEntity
  8
1
  6
SLD-Сплошная
100
AcDbEllipse
 10
1300.1853296565
 20
420.7999396036
 30
0.0
 11
2.5
 21
0.0
 31
0.0
210
0.0
220
0.0
230
1.0
 40
0.6
 41
3.141592653589793
 42
3.531901211888222
  0
LINE
  5
434
330
1F
100
AcDbEntity
  8
1
  6
SLD-Сплошная
100
AcDbLine
 10
1297.6853296565
 20
420.7999396036
 30
0.0
 11
1297.6853296565
 21
915.6585182474
 31
0.0
  0
LINE
  5
435
330
1F
100
AcDbEntity
  8
1
  6
SLD-Сплошная
100
AcDbLine
 10
1297.8733503927
 20
916.2292289255
 30
0.0
 11
1300.1853296565
 21
916.2292289255
 31
0.0
  0
LINE
  5
436
330
1F
100
AcDbEntity
  8
1
  6
SLD-Сплошная
100
AcDbLine
 10
1300.1853296565
 20
918.2292289255
 30
0.0
 11
1469.6853296565
 21
918.2292289255
 31
0.0
  0
LINE
  5
437
330
1F
100
AcDbEntity
  8
1
  6
SLD-Сплошная
100
AcDbLine
 10
1469.6853296565
 20
916.2292289255
 30
0.0
 11
1469.6853296565
 21
918.2292289255
 31
0.0
  0
LINE
  5
438
330
1F
100
AcDbEntity
  8
1
  6
SLD-Сплошная
100
AcDbLine
 10
1300.1853296565
 20
916.2292289255
 30
0.0
 11
1300.1853296565
 21
918.2292289255
 31
0.0
  0
LINE
  5
439
330
1F
100
AcDbEntity
  8
1
  6
SLD-Сплошная
100
AcDbLine
 10
1471.6853296565
 20
420.2999396036
 30
0.0
 11
1469.6853296565
 21
420.2292289255
 31
0.0
  0
LINE
  5
43A
330
1F
100
AcDbEntity
  8
1
  6
SLD-Сплошная
100
AcDbLine
 10
1471.6853296565
 20
916.1585182474
 30
0.0
 11
1469.6853296565
 21
916.2292289255
 31
0.0
  0
LINE
  5
43B
330
1F
100
AcDbEntity
  8
1
  6
SLD-Сплошная
100
AcDbLine
 10
1471.6853296565
 20
916.1585182474
 30
0.0
 11
1471.6853296565
 21
420.2999396036
 31
0.0
  0
LINE
  5
43C
330
1F
100
AcDbEntity
  8
1
  6
SLD-Сплошная
100
AcDbLine
 10
1469.6853296565
 20
420.2292289255
 30
0.0
 11
1469.6853296565
 21
418.5588996167
 31
0.0
  0
LINE
  5
43D
330
1F
100
AcDbEntity
  8
1
  6
SLD-Сплошная
100
AcDbLine
 10
1469.6853296565
 20
418.2292289255
 30
0.0
 11
1300.1853296565
 21
418.2292289255
 31
0.0
  0
LINE
  5
43E
330
1F
100
AcDbEntity
  8
1
  6
SLD-Сплошная
100
AcDbLine
 10
1300.1853296565
 20
418.5588996167
 30
0.0
 11
1300.1853296565
 21
420.2292289255
 31
0.0
  0
LINE
  5
43F
330
1F
100
AcDbEntity
  8
1
  6
SLD-Сплошная
100
AcDbLine
 10
1300.1853296565
 20
418.5588996167
 30
0.0
 11
1300.1853296565
 21
418.2292289255
 31
0.0
  0
ARC
  5
440
330
1F
100
AcDbEntity
  8
1
  6
SLD-Сплошная
100
AcDbCircle
 10
1300.1853296565
 20
420.7292289255
 30
0.0
 40
2.5
100
AcDbArc
 50
202.3630330978
 51
270.0
  0
LINE
  5
441
330
1F
100
AcDbEntity
  8
1
  6
SLD-Сплошная
100
AcDbLine
 10
1297.8733503927
 20
419.7780444621
 30
0.0
 11
1298.7981420982
 21
420.1585182475
 31
0.0
  0
ARC
  5
442
330
1F
100
AcDbEntity
  8
1
  6
SLD-Сплошная
100
AcDbCircle
 10
1300.1853296565
 20
420.7292289255
 30
0.0
 40
1.500000000000068
100
AcDbArc
 50
202.3630330978
 51
270.0
  0
ARC
  5
443
330
1F
100
AcDbEntity
  8
1
  6
SLD-Сплошная
100
AcDbCircle
 10
1300.1853296565
 20
915.7292289255
 30
0.0
 40
1.500000000000068
100
AcDbArc
 50
90.0
 51
157.6369669022
  0
LINE
  5
444
330
1F
100
AcDbEntity
  8
1
  6
SLD-Сплошная
100
AcDbLine
 10
1297.8733503927
 20
916.680413389
 30
0.0
 11
1298.7981420982
 21
916.2999396036
 31
0.0
  0
ARC
  5
445
330
1F
100
AcDbEntity
  8
1
  6
SLD-Сплошная
100
AcDbCircle
 10
1300.1853296565
 20
915.7292289255
 30
0.0
 40
2.5
100
AcDbArc
 50
90.0
 51
157.6369669022
  0
LINE
  5
446
330
1F
100
AcDbEntity
  8
1
  6
SLD-Сплошная
100
AcDbLine
 10
1297.6853296565
 20
915.7292289255
 30
0.0
 11
1297.6881089792
 21
915.7292289255
 31
0.0
  0
ARC
  5
447
330
1F
100
AcDbEntity
  8
1
  6
SLD-Сплошная
100
AcDbCircle
 10
1300.1853296565
 20
915.7292289255
 30
0.0
 40
2.5
100
AcDbArc
 50
157.6369669022
 51
180.0
  0
LINE
  5
448
330
1F
100
AcDbEntity
  8
1
  6
SLD-Сплошная
100
AcDbLine
 10
1297.6853296565
 20
420.7292289255
 30
0.0
 11
1297.6881089792
 21
420.7292289255
 31
0.0
  0
ARC
  5
449
330
1F
100
AcDbEntity
  8
1
  6
SLD-Сплошная
100
AcDbCircle
 10
1300.1853296565
 20
420.7292289255
 30
0.0
 40
2.5
100
AcDbArc
 50
180.0
 51
202.3630330978
  0
ARC
  5
44A
330
1F
100
AcDbEntity
  8
1
  6
SLD-Сплошная
100
AcDbCircle
 10
1469.6853296565
 20
420.2292289255
 30
0.0
 40
2.0
100
AcDbArc
 50
270.0
 51
360.0
  0
LINE
  5
44B
330
1F
100
AcDbEntity
  8
1
  6
SLD-Сплошная
100
AcDbLine
 10
1470.6853296565
 20
420.2292289255
 30
0.0
 11
1471.6853296565
 21
420.2292289255
 31
0.0
  0
LINE
  5
44C
330
1F
100
AcDbEntity
  8
1
  6
SLD-Сплошная
100
AcDbLine
 10
1469.6853296565
 20
418.2292289255
 30
0.0
 11
1469.6853296565
 21
418.5588996167
 31
0.0
  0
ARC
  5
44D
330
1F
100
AcDbEntity
  8
1
  6
SLD-Сплошная
100
AcDbCircle
 10
1469.6853296565
 20
420.2292289255
 30
0.0
 40
1.0
100
AcDbArc
 50
270.0
 51
0.0
  0
LINE
  5
44E
330
1F
100
AcDbEntity
  8
1
  6
SLD-Сплошная
100
AcDbLine
 10
1470.6853296565
 20
916.2292289255
 30
0.0
 11
1471.6853296565
 21
916.2292289255
 31
0.0
  0
ARC
  5
44F
330
1F
100
AcDbEntity
  8
1
  6
SLD-Сплошная
100
AcDbCircle
 10
1469.6853296565
 20
916.2292289255
 30
0.0
 40
1.0
100
AcDbArc
 50
0.0
 51
90.0
  0
ARC
  5
450
330
1F
100
AcDbEntity
  8
1
  6
SLD-Сплошная
100
AcDbCircle
 10
1469.6853296565
 20
916.2292289255
 30
0.0
 40
2.0
100
AcDbArc
 50
0.0
 51
90.0
  0
LINE
  5
451
330
1F
100
AcDbEntity
  8
1
  6
SLD-Сплошная
100
AcDbLine
 10
1471.6853296565
 20
420.2292289255
 30
0.0
 11
1471.6853296565
 21
420.2999396036
 31
0.0
  0
LINE
  5
452
330
1F
100
AcDbEntity
  8
1
  6
SLD-Сплошная
100
AcDbLine
 10
1470.6853296565
 20
420.2292289255
 30
0.0
 11
1470.6853296565
 21
420.2645842646
 31
0.0
  0
LINE
  5
453
330
1F
100
AcDbEntity
  8
1
  6
SLD-Сплошная
100
AcDbLine
 10
1470.6853296565
 20
916.2292289255
 30
0.0
 11
1470.6853296565
 21
916.1938735865
 31
0.0
  0
LINE
  5
454
330
1F
100
AcDbEntity
  8
1
  6
SLD-Сплошная
100
AcDbLine
 10
1471.6853296565
 20
916.2292289255
 30
0.0
 11
1471.6853296565
 21
916.1585182474
 31
0.0
  0
LINE
  5
455
330
1F
100
AcDbEntity
  8
1
  6
SLD-Сплошная
100
AcDbLine
 10
1297.6853296565
 20
915.7292289255
 30
0.0
 11
1297.6853296565
 21
915.6585182475
 31
0.0
  0
LINE
  5
456
330
1F
100
AcDbEntity
  8
1
  6
SLD-Сплошная
100
AcDbLine
 10
1297.6853296565
 20
420.7292289255
 30
0.0
 11
1297.6853296565
 21
420.7999396036
 31
0.0
  0
ELLIPSE
  5
457
330
1F
100
AcDbEntity
  8
1
  6
SLD-Сплошная
100
AcDbEllipse
 10
1472.6853296565
 20
899.1585182474
 30
0.0
 11
0.0
 21
1.999999999999886
 31
0.0
210
0.0
220
0.0
230
1.0
 40
0.5
 41
1.570796326794897
 42
3.141592653589793
  0
ELLIPSE
  5
458
330
1F
100
AcDbEntity
  8
1
  6
SLD-Сплошная
100
AcDbEllipse
 10
1472.6853296565
 20
437.2999396036
 30
0.0
 11
0.0
 21
1.999999999999886
 31
0.0
210
0.0
220
0.0
230
1.0
 40
0.5
 41
0.0
 42
1.570796326794897
  0
ARC
  5
459
330
1F
100
AcDbEntity
  8
1
  6
SLD-Сплошная
100
AcDbCircle
 10
1472.6853296565
 20
899.2292289255
 30
0.0
 40
2.000000000000114
100
AcDbArc
 50
261.299522507
 51
270.0
  0
ARC
  5
45A
330
1F
100
AcDbEntity
  8
1
  6
SLD-Сплошная
100
AcDbCircle
 10
1472.6853296565
 20
899.2292289255
 30
0.0
 40
1.000000000000114
100
AcDbArc
 50
180.0
 51
270.0
  0
ARC
  5
45B
330
1F
100
AcDbEntity
  8
1
  6
SLD-Сплошная
100
AcDbCircle
 10
1472.6853296565
 20
437.2292289255
 30
0.0
 40
2.000000000000057
100
AcDbArc
 50
90.0
 51
98.700477493
  0
ARC
  5
45C
330
1F
100
AcDbEntity
  8
1
  6
SLD-Сплошная
100
AcDbCircle
 10
1472.6853296565
 20
437.2292289255
 30
0.0
 40
1.000000000000057
100
AcDbArc
 50
90.0
 51
180.0
  0
LINE
  5
45D
330
1F
100
AcDbEntity
  8
1
  6
SLD-Сплошная
100
AcDbLine
 10
1472.6853296565
 20
897.1585182475
 30
0.0
 11
1478.7853296565
 21
897.1585182475
 31
0.0
  0
LINE
  5
45E
330
1F
100
AcDbEntity
  8
1
  6
SLD-Сплошная
100
AcDbLine
 10
1472.6853296565
 20
439.2999396035
 30
0.0
 11
1478.7853296565
 21
439.2999396036
 31
0.0
  0
LINE
  5
45F
330
1F
100
AcDbEntity
  8
1
  6
SLD-Сплошная
100
AcDbLine
 10
1478.7853296565
 20
438.2292289255
 30
0.0
 11
1472.6853296565
 21
438.2292289255
 31
0.0
  0
LINE
  5
460
330
1F
100
AcDbEntity
  8
1
  6
SLD-Сплошная
100
AcDbLine
 10
1478.7853296565
 20
439.2292289255
 30
0.0
 11
1472.6853296565
 21
439.2292289255
 31
0.0
  0
LINE
  5
461
330
1F
100
AcDbEntity
  8
1
  6
SLD-Сплошная
100
AcDbLine
 10
1478.7853296565
 20
897.2292289255
 30
0.0
 11
1472.6853296565
 21
897.2292289255
 31
0.0
  0
LINE
  5
462
330
1F
100
AcDbEntity
  8
1
  6
SLD-Сплошная
100
AcDbLine
 10
1478.7853296565
 20
898.2292289255
 30
0.0
 11
1472.6853296565
 21
898.2292289255
 31
0.0
  0
LINE
  5
463
330
1F
100
AcDbEntity
  8
1
  6
SLD-Сплошная
100
AcDbLine
 10
1479.8353296565
 20
421.012071638
 30
0.0
 11
1495.0853296565
 21
421.012071638
 31
0.0
  0
LINE
  5
464
330
1F
100
AcDbEntity
  8
1
  6
SLD-Сплошная
100
AcDbLine
 10
1479.8353296565
 20
915.446386213
 30
0.0
 11
1495.0853296565
 21
915.446386213
 31
0.0
  0
SPLINE
  5
465
330
1F
100
AcDbEntity
  8
1
  6
SLD-Сплошная
100
AcDbSpline
210
0.0
220
0.0
230
1.0
 70
     8
 71
     3
 72
    11
 73
     7
 74
     0
 42
0.00000001
 43
0.00000001
 40
0.0
 40
0.0
 40
0.0
 40
0.0
 40
0.250000000000004
 40
0.5000000000000024
 40
0.750000000000005
 40
1.0
 40
1.0
 40
1.0
 40
1.0
 10
1479.835329656517
 20
915.446386213038
 30
0.0
 10
1479.69774076052
 20
915.4422195463712
 30
0.0
 10
1479.422562968527
 20
915.4338862130379
 30
0.0
 10
1479.075490784576
 20
915.421386213038
 30
0.0
 10
1478.832679110797
 20
915.408886213038
 30
0.0
 10
1478.801112807944
 20
915.4005528797047
 30
0.0
 10
1478.785329656517
 20
915.3963862130381
 30
0.0
  0
SPLINE
  5
466
330
1F
100
AcDbEntity
  8
1
  6
SLD-Сплошная
100
AcDbSpline
210
0.0
220
0.0
230
1.0
 70
     8
 71
     3
 72
    11
 73
     7
 74
     0
 42
0.00000001
 43
0.00000001
 40
0.0
 40
0.0
 40
0.0
 40
0.0
 40
0.2500000000000012
 40
0.4999999999999991
 40
0.7500000000000016
 40
1.0
 40
1.0
 40
1.0
 40
1.0
 10
1478.785329656517
 20
421.0620716379872
 30
0.0
 10
1478.801112807943
 20
421.0579049713206
 30
0.0
 10
1478.832679110795
 20
421.0495716379872
 30
0.0
 10
1479.075490784573
 20
421.037071637987
 30
0.0
 10
1479.422562968526
 20
421.024571637987
 30
0.0
 10
1479.69774076052
 20
421.0162383046537
 30
0.0
 10
1479.835329656517
 20
421.012071637987
 30
0.0
  0
ELLIPSE
  5
467
330
1F
100
AcDbEntity
  8
1
  6
SLD-Сплошная
100
AcDbEllipse
 10
1495.0853296565
 20
914.0292289255
 30
0.0
 11
2.700000000000273
 21
0.0
 31
0.0
210
0.0
220
0.0
230
1.0
 40
0.5248730694
 41
0.0
 42
1.570796326794897
  0
LINE
  5
468
330
1F
100
AcDbEntity
  8
1
  6
SLD-Сплошная
100
AcDbLine
 10
1497.7853296565
 20
914.0292289255
 30
0.0
 11
1497.7853296565
 21
422.4292289255
 31
0.0
  0
ELLIPSE
  5
469
330
1F
100
AcDbEntity
  8
1
  6
SLD-Сплошная
100
AcDbEllipse
 10
1495.0853296565
 20
422.4292289255
 30
0.0
 11
2.700000000000045
 21
0.0
 31
0.0
210
0.0
220
0.0
230
1.0
 40
0.5248730694
 41
4.712388980384697
 42
6.283185307179586
  0
LINE
  5
46A
330
1F
100
AcDbEntity
  8
1
  6
SLD-Сплошная
100
AcDbLine
 10
1479.7853296565
 20
915.6792289255
 30
0.0
 11
1478.7853296565
 21
915.6792289255
 31
0.0
  0
SPLINE
  5
46B
330
1F
100
AcDbEntity
  8
1
  6
SLD-Сплошная
100
AcDbSpline
210
0.0
220
0.0
230
1.0
 70
     8
 71
     3
 72
    11
 73
     7
 74
     0
 42
0.00000001
 43
0.00000001
 40
0.0
 40
0.0
 40
0.0
 40
0.0
 40
0.2499999999999968
 40
0.4999999999999997
 40
0.7499999999999989
 40
1.0
 40
1.0
 40
1.0
 40
1.0
 10
1478.785329656517
 20
915.6792289255122
 30
0.0
 10
1478.801112807944
 20
915.8168178215088
 30
0.0
 10
1478.832679110797
 20
916.0919956135018
 30
0.0
 10
1479.075490784576
 20
916.4390677974536
 30
0.0
 10
1479.422562968527
 20
916.6818794712323
 30
0.0
 10
1479.69774076052
 20
916.7134457740857
 30
0.0
 10
1479.835329656517
 20
916.7292289255123
 30
0.0
  0
LINE
  5
46C
330
1F
100
AcDbEntity
  8
1
  6
SLD-Сплошная
100
AcDbLine
 10
1479.8353296565
 20
916.7292289255
 30
0.0
 11
1479.8353296565
 21
915.7292289255
 31
0.0
  0
SPLINE
  5
46D
330
1F
100
AcDbEntity
  8
1
  6
SLD-Сплошная
100
AcDbSpline
210
0.0
220
0.0
230
1.0
 70
     8
 71
     3
 72
    11
 73
     7
 74
     0
 42
0.00000001
 43
0.00000001
 40
0.0
 40
0.0
 40
0.0
 40
0.0
 40
0.2500000000000523
 40
0.5000000000000343
 40
0.750000000000147
 40
1.0
 40
1.0
 40
1.0
 40
1.0
 10
1479.785329656517
 20
915.6792289255123
 30
0.0
 10
1479.786081235156
 20
915.6857807777027
 30
0.0
 10
1479.787584392435
 20
915.6988844820833
 30
0.0
 10
1479.799146853091
 20
915.7154117289381
 30
0.0
 10
1479.815674099946
 20
915.7269741895942
 30
0.0
 10
1479.828777804327
 20
915.728477346873
 30
0.0
 10
1479.835329656517
 20
915.7292289255123
 30
0.0
  0
LINE
  5
46E
330
1F
100
AcDbEntity
  8
1
  6
SLD-Сплошная
100
AcDbLine
 10
1495.0853296565
 20
916.7292289255
 30
0.0
 11
1479.8353296565
 21
916.7292289255
 31
0.0
  0
LINE
  5
46F
330
1F
100
AcDbEntity
  8
1
  6
SLD-Сплошная
100
AcDbLine
 10
1495.0853296565
 20
915.7292289255
 30
0.0
 11
1479.8353296565
 21
915.7292289255
 31
0.0
  0
LINE
  5
470
330
1F
100
AcDbEntity
  8
1
  6
SLD-Сплошная
100
AcDbLine
 10
1479.8353296565
 20
419.7292289255
 30
0.0
 11
1479.8353296565
 21
420.7292289255
 31
0.0
  0
LINE
  5
471
330
1F
100
AcDbEntity
  8
1
  6
SLD-Сплошная
100
AcDbLine
 10
1479.7853296565
 20
420.7792289255
 30
0.0
 11
1478.7853296565
 21
420.7792289255
 31
0.0
  0
SPLINE
  5
472
330
1F
100
AcDbEntity
  8
1
  6
SLD-Сплошная
100
AcDbSpline
210
0.0
220
0.0
230
1.0
 70
     8
 71
     3
 72
    11
 73
     7
 74
     0
 42
0.00000001
 43
0.00000001
 40
0.0
 40
0.0
 40
0.0
 40
0.0
 40
0.2499999999999847
 40
0.4999999999999633
 40
0.750000000000108
 40
1.0
 40
1.0
 40
1.0
 40
1.0
 10
1479.835329656517
 20
420.7292289255122
 30
0.0
 10
1479.828777804327
 20
420.7299805041516
 30
0.0
 10
1479.815674099946
 20
420.7314836614304
 30
0.0
 10
1479.799146853091
 20
420.7430461220865
 30
0.0
 10
1479.787584392435
 20
420.7595733689414
 30
0.0
 10
1479.786081235156
 20
420.7726770733219
 30
0.0
 10
1479.785329656517
 20
420.7792289255123
 30
0.0
  0
SPLINE
  5
473
330
1F
100
AcDbEntity
  8
1
  6
SLD-Сплошная
100
AcDbSpline
210
0.0
220
0.0
230
1.0
 70
     8
 71
     3
 72
    11
 73
     7
 74
     0
 42
0.00000001
 43
0.00000001
 40
0.0
 40
0.0
 40
0.0
 40
0.0
 40
0.2500000000000033
 40
0.4999999999999997
 40
0.7500000000000108
 40
1.0
 40
1.0
 40
1.0
 40
1.0
 10
1479.835329656517
 20
419.7292289255122
 30
0.0
 10
1479.69774076052
 20
419.7450120769389
 30
0.0
 10
1479.422562968527
 20
419.7765783797924
 30
0.0
 10
1479.075490784576
 20
420.0193900535708
 30
0.0
 10
1478.832679110797
 20
420.3664622375226
 30
0.0
 10
1478.801112807944
 20
420.6416400295158
 30
0.0
 10
1478.785329656517
 20
420.7792289255123
 30
0.0
  0
LINE
  5
474
330
1F
100
AcDbEntity
  8
1
  6
SLD-Сплошная
100
AcDbLine
 10
1495.0853296565
 20
420.7292289255
 30
0.0
 11
1479.8353296565
 21
420.7292289255
 31
0.0
  0
LINE
  5
475
330
1F
100
AcDbEntity
  8
1
  6
SLD-Сплошная
100
AcDbLine
 10
1495.0853296565
 20
419.7292289255
 30
0.0
 11
1479.8353296565
 21
419.7292289255
 31
0.0
  0
ARC
  5
476
330
1F
100
AcDbEntity
  8
1
  6
SLD-Сплошная
100
AcDbCircle
 10
1495.0853296565
 20
914.0292289255
 30
0.0
 40
2.700000000000273
100
AcDbArc
 50
0.0000000002
 51
90.0
  0
ARC
  5
477
330
1F
100
AcDbEntity
  8
1
  6
SLD-Сплошная
100
AcDbCircle
 10
1495.0853296565
 20
914.0292289255
 30
0.0
 40
1.700000000000088
100
AcDbArc
 50
49.5408896286
 51
90.0
  0
ARC
  5
478
330
1F
100
AcDbEntity
  8
1
  6
SLD-Сплошная
100
AcDbCircle
 10
1495.0853296565
 20
422.4292289255
 30
0.0
 40
1.700000000000242
100
AcDbArc
 50
270.0
 51
310.4591103721
  0
ARC
  5
479
330
1F
100
AcDbEntity
  8
1
  6
SLD-Сплошная
100
AcDbCircle
 10
1495.0853296565
 20
422.4292289255
 30
0.0
 40
2.700000000000273
100
AcDbArc
 50
270.0
 51
359.9999999998
  0
LINE
  5
47A
330
1F
100
AcDbEntity
  8
1
  6
SLD-Сплошная
100
AcDbLine
 10
1479.8353296565
 20
915.446386213
 30
0.0
 11
1479.8353296565
 21
915.6292289255
 31
0.0
  0
SPLINE
  5
47B
330
1F
100
AcDbEntity
  8
1
  6
SLD-Сплошная
100
AcDbSpline
210
0.0
220
0.0
230
1.0
 70
     8
 71
     3
 72
    10
 73
     6
 74
     0
 42
0.00000001
 43
0.00000001
 40
0.0
 40
0.0
 40
0.0
 40
0.0
 40
0.3585486610876751
 40
0.5969690046660333
 40
1.0
 40
1.0
 40
1.0
 40
1.0
 10
1479.835329656519
 20
915.6292289255124
 30
0.0
 10
1479.819903463987
 20
915.6351459685045
 30
0.0
 10
1479.79421947796
 20
915.6449976055312
 30
0.0
 10
1479.788327904074
 20
915.6618976277396
 30
0.0
 10
1479.786486580533
 20
915.6725413541071
 30
0.0
 10
1479.785329656517
 20
915.6792289255123
 30
0.0
  0
LINE
  5
47C
330
1F
100
AcDbEntity
  8
1
  6
SLD-Сплошная
100
AcDbLine
 10
1478.8535062072
 20
915.35506107
 30
0.0
 11
1478.7853296565
 21
915.6792289255
 31
0.0
  0
LINE
  5
47D
330
1F
100
AcDbEntity
  8
1
  6
SLD-Сплошная
100
AcDbLine
 10
1479.8353296565
 20
421.012071638
 30
0.0
 11
1479.8353296565
 21
420.8292289255
 31
0.0
  0
SPLINE
  5
47E
330
1F
100
AcDbEntity
  8
1
  6
SLD-Сплошная
100
AcDbSpline
210
0.0
220
0.0
230
1.0
 70
     8
 71
     3
 72
    10
 73
     6
 74
     0
 42
0.00000001
 43
0.00000001
 40
0.0
 40
0.0
 40
0.0
 40
0.0
 40
0.4215647019856947
 40
0.6406677011946821
 40
1.0
 40
1.0
 40
1.0
 40
1.0
 10
1479.785329656517
 20
420.7792289255123
 30
0.0
 10
1479.786669696444
 20
420.7864836745212
 30
0.0
 10
1479.788706205419
 20
420.7975089888997
 30
0.0
 10
1479.794828210451
 20
420.813598806525
 30
0.0
 10
1479.81981037672
 20
420.8232398013356
 30
0.0
 10
1479.835329656517
 20
420.8292289255124
 30
0.0
  0
LINE
  5
47F
330
1F
100
AcDbEntity
  8
1
  6
SLD-Сплошная
100
AcDbLine
 10
1478.7853296565
 20
420.7792289255
 30
0.0
 11
1478.8421952697
 21
421.0314702876
 31
0.0
  0
LINE
  5
480
330
1F
100
AcDbEntity
  8
1
  6
SLD-Сплошная
100
AcDbLine
 10
1494.6753296565
 20
915.6292289255
 30
0.0
 11
1479.8353296565
 21
915.6292289255
 31
0.0
  0
LINE
  5
481
330
1F
100
AcDbEntity
  8
1
  6
SLD-Сплошная
100
AcDbLine
 10
1494.6753296565
 20
915.4463862131
 30
0.0
 11
1494.6753296565
 21
915.6292289255
 31
0.0
  0
LINE
  5
482
330
1F
100
AcDbEntity
  8
1
  6
SLD-Сплошная
100
AcDbLine
 10
1494.6753296565
 20
420.8292289255
 30
0.0
 11
1479.8353296565
 21
420.8292289255
 31
0.0
  0
LINE
  5
483
330
1F
100
AcDbEntity
  8
1
  6
SLD-Сплошная
100
AcDbLine
 10
1494.6753296565
 20
421.012071638
 30
0.0
 11
1494.6753296565
 21
420.8292289255
 31
0.0
  0
ARC
  5
484
330
1F
100
AcDbEntity
  8
1
  6
SLD-Сплошная
100
AcDbCircle
 10
1494.6753296565
 20
913.6192289255
 30
0.0
 40
2.010000000000068
100
AcDbArc
 50
63.9069487136
 51
90.0
  0
ARC
  5
485
330
1F
100
AcDbEntity
  8
1
  6
SLD-Сплошная
100
AcDbCircle
 10
1494.6753296565
 20
422.8392289255
 30
0.0
 40
2.010000000000009
100
AcDbArc
 50
270.0
 51
296.0930512855
  0
LINE
  5
486
330
1F
100
AcDbEntity
  8
1
  6
SLD-Сплошная
100
AcDbLine
 10
1498.7853296565
 20
654.2292289255
 30
0.0
 11
1498.7853296565
 21
682.2292289255
 31
0.0
  0
LINE
  5
487
330
1F
100
AcDbEntity
  8
1
  6
SLD-Сплошная
100
AcDbLine
 10
1501.7853296565
 20
657.2292289255
 30
0.0
 11
1501.7853296565
 21
679.2292289255
 31
0.0
  0
ENDSEC
  0
SECTION
  2
OBJECTS
  0
DICTIONARY
  5
C
330
0
100
AcDbDictionary
281
     1
  3
ACAD_GROUP
350
D
  3
ACAD_LAYOUT
350
1A
  3
ACAD_MLINESTYLE
350
17
  3
ACAD_PLOTSETTINGS
350
19
  3
ACAD_PLOTSTYLENAME
350
E
  3
ACAD_SCALELIST
350
47
  3
DWGPROPS
350
488
  0
DICTIONARY
  5
D
102
{ACAD_REACTORS
330
C
102
}
330
C
100
AcDbDictionary
281
     1
  0
DICTIONARY
  5
1A
102
{ACAD_REACTORS
330
C
102
}
330
C
100
AcDbDictionary
281
     1
  3
Layout1
350
1E
  3
Layout2
350
26
  3
Model
350
22
  0
DICTIONARY
  5
17
102
{ACAD_REACTORS
330
C
102
}
330
C
100
AcDbDictionary
281
     1
  3
Standard
350
18
  0
DICTIONARY
  5
19
102
{ACAD_REACTORS
330
C
102
}
330
C
100
AcDbDictionary
281
     1
  0
ACDBDICTIONARYWDFLT
  5
E
102
{ACAD_REACTORS
330
C
102
}
330
C
100
AcDbDictionary
281
     1
  3
Normal
350
F
100
AcDbDictionaryWithDefault
340
F
  0
DICTIONARY
  5
47
102
{ACAD_REACTORS
330
C
102
}
330
C
100
AcDbDictionary
281
     1
  3
A0
350
48
  3
A1
350
49
  3
A2
350
4A
  3
A3
350
4B
  3
A4
350
4C
  3
A5
350
4D
  3
A6
350
4E
  3
A7
350
4F
  3
A8
350
50
  3
A9
350
51
  3
B0
350
52
  3
B1
350
53
  3
B2
350
54
  3
B3
350
55
  3
B4
350
56
  3
B5
350
57
  3
B6
350
58
  0
XRECORD
  5
488
102
{ACAD_REACTORS
330
C
102
}
330
C
100
AcDbXrecord
280
     1
  1
DWGPROPS COOKIE
  2

  3

  4

  6

  7

  8
ignatieved
  9

300
=
301
=
302
=
303
=
304
=
305
=
306
=
307
=
308
=
309
=
 40
0.0
 41
2460213.502519884
 42
2460213.502520451
  1

 90
        0
  0
LAYOUT
  5
1E
102
{ACAD_REACTORS
330
1A
102
}
330
1A
100
AcDbPlotSettings
  1

  2
none_device
  4

  6

 40
0.0
 41
0.0
 42
0.0
 43
0.0
 44
0.0
 45
0.0
 46
0.0
 47
0.0
 48
0.0
 49
0.0
140
0.0
141
0.0
142
1.0
143
1.0
 70
   688
 72
     1
 73
     0
 74
     5
  7

 75
    16
147
1.0
148
0.0
149
0.0
100
AcDbLayout
  1
Layout1
 70
     1
 71
     1
 10
0.0
 20
0.0
 11
420.0
 21
297.0
 12
0.0
 22
0.0
 32
0.0
 14
1.0000000000E+20
 24
1.0000000000E+20
 34
1.0000000000E+20
 15
-1.0000000000E+20
 25
-1.0000000000E+20
 35
-1.0000000000E+20
146
0.0
 13
0.0
 23
0.0
 33
0.0
 16
1.0
 26
0.0
 36
0.0
 17
0.0
 27
1.0
 37
0.0
 76
     0
330
1B
  0
LAYOUT
  5
26
102
{ACAD_REACTORS
330
1A
102
}
330
1A
100
AcDbPlotSettings
  1

  2
none_device
  4

  6

 40
0.0
 41
0.0
 42
0.0
 43
0.0
 44
0.0
 45
0.0
 46
0.0
 47
0.0
 48
0.0
 49
0.0
140
0.0
141
0.0
142
1.0
143
1.0
 70
   688
 72
     1
 73
     0
 74
     5
  7

 75
    16
147
1.0
148
0.0
149
0.0
100
AcDbLayout
  1
Layout2
 70
     1
 71
     2
 10
0.0
 20
0.0
 11
0.0
 21
0.0
 12
0.0
 22
0.0
 32
0.0
 14
0.0
 24
0.0
 34
0.0
 15
0.0
 25
0.0
 35
0.0
146
0.0
 13
0.0
 23
0.0
 33
0.0
 16
1.0
 26
0.0
 36
0.0
 17
0.0
 27
1.0
 37
0.0
 76
     0
330
23
  0
LAYOUT
  5
22
102
{ACAD_REACTORS
330
1A
102
}
330
1A
100
AcDbPlotSettings
  1

  2
none_device
  4
Letter_(8.50_x_11.00_Inches)
  6

 40
6.35
 41
6.35
 42
6.35000508
 43
6.35000508
 44
215.9
 45
279.4
 46
0.0
 47
0.0
 48
0.0
 49
0.0
140
0.0
141
0.0
142
1.0
143
1.0
 70
  1712
 72
     1
 73
     0
 74
     0
  7

 75
     0
147
1.0
148
0.0
149
0.0
100
AcDbLayout
  1
Model
 70
     1
 71
     0
 10
0.0
 20
0.0
 11
2000.0
 21
2000.0
 12
0.0
 22
0.0
 32
0.0
 14
0.0
 24
0.0
 34
0.0
 15
2000.0
 25
2000.0
 35
0.0
146
0.0
 13
0.0
 23
0.0
 33
0.0
 16
1.0
 26
0.0
 36
0.0
 17
0.0
 27
1.0
 37
0.0
 76
     0
330
1F
331
29
  0
MLINESTYLE
  5
18
102
{ACAD_REACTORS
330
17
102
}
330
17
100
AcDbMlineStyle
  2
Standard
 70
     0
  3

 62
   256
 51
90.0
 52
90.0
 71
     2
 49
0.5
 62
   256
  6
BYLAYER
 49
-0.5
 62
   256
  6
BYLAYER
  0
ACDBPLACEHOLDER
  5
F
102
{ACAD_REACTORS
330
E
102
}
330
E
  0
SCALE
  5
48
102
{ACAD_REACTORS
330
47
102
}
330
47
100
AcDbScale
 70
     0
300
1:1
140
1.0
141
1.0
290
     1
  0
SCALE
  5
49
102
{ACAD_REACTORS
330
47
102
}
330
47
100
AcDbScale
 70
     0
300
1:2
140
1.0
141
2.0
290
     0
  0
SCALE
  5
4A
102
{ACAD_REACTORS
330
47
102
}
330
47
100
AcDbScale
 70
     0
300
1:4
140
1.0
141
4.0
290
     0
  0
SCALE
  5
4B
102
{ACAD_REACTORS
330
47
102
}
330
47
100
AcDbScale
 70
     0
300
1:5
140
1.0
141
5.0
290
     0
  0
SCALE
  5
4C
102
{ACAD_REACTORS
330
47
102
}
330
47
100
AcDbScale
 70
     0
300
1:8
140
1.0
141
8.0
290
     0
  0
SCALE
  5
4D
102
{ACAD_REACTORS
330
47
102
}
330
47
100
AcDbScale
 70
     0
300
1:10
140
1.0
141
10.0
290
     0
  0
SCALE
  5
4E
102
{ACAD_REACTORS
330
47
102
}
330
47
100
AcDbScale
 70
     0
300
1:16
140
1.0
141
16.0
290
     0
  0
SCALE
  5
4F
102
{ACAD_REACTORS
330
47
102
}
330
47
100
AcDbScale
 70
     0
300
1:20
140
1.0
141
20.0
290
     0
  0
SCALE
  5
50
102
{ACAD_REACTORS
330
47
102
}
330
47
100
AcDbScale
 70
     0
300
1:30
140
1.0
141
30.0
290
     0
  0
SCALE
  5
51
102
{ACAD_REACTORS
330
47
102
}
330
47
100
AcDbScale
 70
     0
300
1:40
140
1.0
141
40.0
290
     0
  0
SCALE
  5
52
102
{ACAD_REACTORS
330
47
102
}
330
47
100
AcDbScale
 70
     0
300
1:50
140
1.0
141
50.0
290
     0
  0
SCALE
  5
53
102
{ACAD_REACTORS
330
47
102
}
330
47
100
AcDbScale
 70
     0
300
1:100
140
1.0
141
100.0
290
     0
  0
SCALE
  5
54
102
{ACAD_REACTORS
330
47
102
}
330
47
100
AcDbScale
 70
     0
300
2:1
140
2.0
141
1.0
290
     0
  0
SCALE
  5
55
102
{ACAD_REACTORS
330
47
102
}
330
47
100
AcDbScale
 70
     0
300
4:1
140
4.0
141
1.0
290
     0
  0
SCALE
  5
56
102
{ACAD_REACTORS
330
47
102
}
330
47
100
AcDbScale
 70
     0
300
8:1
140
8.0
141
1.0
290
     0
  0
SCALE
  5
57
102
{ACAD_REACTORS
330
47
102
}
330
47
100
AcDbScale
 70
     0
300
10:1
140
10.0
141
1.0
290
     0
  0
SCALE
  5
58
102
{ACAD_REACTORS
330
47
102
}
330
47
100
AcDbScale
 70
     0
300
100:1
140
100.0
141
1.0
290
     0
  0
ENDSEC
  0
EOF
