ISO-10303-21;
HEADER;
FILE_DESCRIPTION (( 'STEP AP203' ),
    '1' );
FILE_NAME ('ITK DATAROW Ïàíåëü ìîä. êðûøè ïîëèêîðá. 300x1200.STEP',
    '2024-12-18T10:10:54',
    ( '' ),
    ( '' ),
    'SwSTEP 2.0',
    'SolidWorks 2022',
    '' );
FILE_SCHEMA (( 'CONFIG_CONTROL_DESIGN' ));
ENDSEC;

DATA;
#1 = DATE_TIME_ROLE ( 'classification_date' ) ;
#2 = ADVANCED_FACE ( 'NONE', ( #190 ), #9, .T. ) ;
#3 = SECURITY_CLASSIFICATION ( '', '', #19 ) ;
#4 = PERSON_AND_ORGANIZATION ( #58, #39 ) ;
#5 = APPROVAL_ROLE ( '' ) ;
#6 = DESIGN_CONTEXT ( 'detailed design', #189, 'design' ) ;
#7 = ORIENTED_EDGE ( 'NONE', *, *, #200, .F. ) ;
#8 = LINE ( 'NONE', #63, #145 ) ;
#9 = PLANE ( 'NONE',  #154 ) ;
#10 = LINE ( 'NONE', #212, #223 ) ;
#11 = EDGE_CURVE ( 'NONE', #117, #27, #8, .T. ) ;
#12 = AXIS2_PLACEMENT_3D ( 'NONE', #179, #15, #74 ) ;
#13 = FACE_OUTER_BOUND ( 'NONE', #98, .T. ) ;
#14 = DIRECTION ( 'NONE',  ( 0.000000000000000000, -0.000000000000000000, 1.000000000000000000 ) ) ;
#15 = DIRECTION ( 'NONE',  ( -5.635649871193688153E-16, -1.000000000000000000, 0.000000000000000000 ) ) ;
#16 =( NAMED_UNIT ( * ) SI_UNIT ( $, .STERADIAN. ) SOLID_ANGLE_UNIT ( ) );
#17 = CARTESIAN_POINT ( 'NONE',  ( -98.50000000000000000, 625.0000000000000000, 4.000000000000000000 ) ) ;
#18 = LOCAL_TIME ( 13, 10, 53.00000000000000000, #128 ) ;
#19 = SECURITY_CLASSIFICATION_LEVEL ( 'unclassified' ) ;
#20 = APPROVAL ( #56, 'UNSPECIFIED' ) ;
#21 = EDGE_CURVE ( 'NONE', #66, #133, #195, .T. ) ;
#22 = APPROVAL_DATE_TIME ( #185, #112 ) ;
#23 = CALENDAR_DATE ( 2024, 18, 12 ) ;
#24 = VECTOR ( 'NONE', #150, 1000.000000000000000 ) ;
#25 = CALENDAR_DATE ( 2024, 18, 12 ) ;
#26 = DIRECTION ( 'NONE',  ( 0.000000000000000000, 1.000000000000000000, 0.000000000000000000 ) ) ;
#27 = VERTEX_POINT ( 'NONE', #226 ) ;
#28 = ORIENTED_EDGE ( 'NONE', *, *, #30, .T. ) ;
#29 = EDGE_CURVE ( 'NONE', #133, #43, #99, .T. ) ;
#30 = EDGE_CURVE ( 'NONE', #139, #66, #155, .T. ) ;
#31 = DIRECTION ( 'NONE',  ( -0.000000000000000000, -0.000000000000000000, -1.000000000000000000 ) ) ;
#32 = ORIENTED_EDGE ( 'NONE', *, *, #29, .F. ) ;
#33 = DIRECTION ( 'NONE',  ( -1.000000000000000000, 0.000000000000000000, 0.000000000000000000 ) ) ;
#34 = PLANE ( 'NONE',  #211 ) ;
#35 = CARTESIAN_POINT ( 'NONE',  ( 98.50000000000000000, -625.0000000000000000, 4.000000000000000000 ) ) ;
#36 = DIRECTION ( 'NONE',  ( 0.000000000000000000, -0.000000000000000000, 1.000000000000000000 ) ) ;
#37 = PERSON_AND_ORGANIZATION ( #58, #39 ) ;
#38 = PERSON_AND_ORGANIZATION_ROLE ( 'design_supplier' ) ;
#39 = ORGANIZATION ( 'UNSPECIFIED', 'UNSPECIFIED', '' ) ;
#40 = UNCERTAINTY_MEASURE_WITH_UNIT (LENGTH_MEASURE( 1.000000000000000082E-05 ), #201, 'distance_accuracy_value', 'NONE');
#41 = ORIENTED_EDGE ( 'NONE', *, *, #62, .T. ) ;
#42 = PRODUCT_DEFINITION ( 'UNKNOWN', '', #175, #6 ) ;
#43 = VERTEX_POINT ( 'NONE', #80 ) ;
#44 = LOCAL_TIME ( 13, 10, 53.00000000000000000, #146 ) ;
#45 = ORIENTED_EDGE ( 'NONE', *, *, #30, .F. ) ;
#46 = ORIENTED_EDGE ( 'NONE', *, *, #200, .T. ) ;
#47 = CARTESIAN_POINT ( 'NONE',  ( 98.50000000000000000, 624.9999999999998863, 4.000000000000000000 ) ) ;
#48 =( NAMED_UNIT ( * ) PLANE_ANGLE_UNIT ( ) SI_UNIT ( $, .RADIAN. ) );
#49 = LINE ( 'NONE', #17, #115 ) ;
#50 = AXIS2_PLACEMENT_3D ( 'NONE', #86, #36, #140 ) ;
#51 = PLANE ( 'NONE',  #50 ) ;
#52 = DATE_TIME_ROLE ( 'creation_date' ) ;
#53 = APPROVAL_DATE_TIME ( #237, #20 ) ;
#54 = PERSON_AND_ORGANIZATION ( #58, #39 ) ;
#55 = VECTOR ( 'NONE', #102, 1000.000000000000000 ) ;
#56 = APPROVAL_STATUS ( 'not_yet_approved' ) ;
#57 = SHAPE_DEFINITION_REPRESENTATION ( #148, #101 ) ;
#58 = PERSON ( 'UNSPECIFIED', 'UNSPECIFIED', 'UNSPECIFIED', ('UNSPECIFIED'), ('UNSPECIFIED'), ('UNSPECIFIED') ) ;
#59 = ORIENTED_EDGE ( 'NONE', *, *, #130, .T. ) ;
#60 = PRODUCT_RELATED_PRODUCT_CATEGORY ( 'detail', '', ( #116 ) ) ;
#61 = ORIENTED_EDGE ( 'NONE', *, *, #216, .F. ) ;
#62 = EDGE_CURVE ( 'NONE', #83, #27, #10, .T. ) ;
#63 = CARTESIAN_POINT ( 'NONE',  ( -98.50000000000000000, -625.0000000000000000, 4.000000000000000000 ) ) ;
#64 = VECTOR ( 'NONE', #82, 1000.000000000000000 ) ;
#65 = ORIENTED_EDGE ( 'NONE', *, *, #21, .T. ) ;
#66 = VERTEX_POINT ( 'NONE', #176 ) ;
#67 = CARTESIAN_POINT ( 'NONE',  ( 98.50000000000000000, -625.0000000000000000, 4.000000000000000000 ) ) ;
#68 = VECTOR ( 'NONE', #234, 1000.000000000000000 ) ;
#69 = DIRECTION ( 'NONE',  ( 0.000000000000000000, 0.000000000000000000, 1.000000000000000000 ) ) ;
#70 = CC_DESIGN_PERSON_AND_ORGANIZATION_ASSIGNMENT ( #4, #184, ( #175 ) ) ;
#71 = FACE_OUTER_BOUND ( 'NONE', #95, .T. ) ;
#72 = ADVANCED_FACE ( 'NONE', ( #13 ), #157, .T. ) ;
#73 = CARTESIAN_POINT ( 'NONE',  ( 98.50000000000000000, -625.0000000000000000, 4.000000000000000000 ) ) ;
#74 = DIRECTION ( 'NONE',  ( 1.000000000000000000, -5.635649871193688153E-16, 0.000000000000000000 ) ) ;
#75 = DATE_AND_TIME ( #164, #123 ) ;
#76 = VECTOR ( 'NONE', #31, 1000.000000000000000 ) ;
#77 = PERSON_AND_ORGANIZATION ( #58, #39 ) ;
#78 = EDGE_LOOP ( 'NONE', ( #120, #193, #149, #59 ) ) ;
#79 = CC_DESIGN_PERSON_AND_ORGANIZATION_ASSIGNMENT ( #37, #219, ( #42 ) ) ;
#80 = CARTESIAN_POINT ( 'NONE',  ( -98.50000000000000000, 625.0000000000000000, 0.000000000000000000 ) ) ;
#81 = DIRECTION ( 'NONE',  ( -1.000000000000000000, 0.000000000000000000, 0.000000000000000000 ) ) ;
#82 = DIRECTION ( 'NONE',  ( -1.000000000000000000, 5.635649871193688153E-16, 0.000000000000000000 ) ) ;
#83 = VERTEX_POINT ( 'NONE', #47 ) ;
#84 = LINE ( 'NONE', #35, #187 ) ;
#85 = APPROVAL_PERSON_ORGANIZATION ( #110, #112, #188 ) ;
#86 = CARTESIAN_POINT ( 'NONE',  ( 0.000000000000000000, 0.000000000000000000, 0.000000000000000000 ) ) ;
#87 = CARTESIAN_POINT ( 'NONE',  ( 98.50000000000000000, 624.9999999999998863, 4.000000000000000000 ) ) ;
#88 = APPLICATION_PROTOCOL_DEFINITION ( 'international standard', 'config_control_design', 1994, #119 ) ;
#89 = COORDINATED_UNIVERSAL_TIME_OFFSET ( 3, 0, .AHEAD. ) ;
#90 = PERSON_AND_ORGANIZATION_ROLE ( 'classification_officer' ) ;
#91 = AXIS2_PLACEMENT_3D ( 'NONE', #166, #111, #113 ) ;
#92 = EDGE_CURVE ( 'NONE', #83, #133, #160, .T. ) ;
#93 = CARTESIAN_POINT ( 'NONE',  ( 98.50000000000000000, 624.9999999999998863, 0.000000000000000000 ) ) ;
#94 = VECTOR ( 'NONE', #127, 1000.000000000000000 ) ;
#95 = EDGE_LOOP ( 'NONE', ( #61, #45, #46, #213 ) ) ;
#96 = MANIFOLD_SOLID_BREP ( 'Áîáûøêà-Âûòÿíóòü1', #236 ) ;
#97 = ORIENTED_EDGE ( 'NONE', *, *, #144, .F. ) ;
#98 = EDGE_LOOP ( 'NONE', ( #191, #41, #228, #7 ) ) ;
#99 = LINE ( 'NONE', #93, #64 ) ;
#100 = CC_DESIGN_APPROVAL ( #20, ( #42 ) ) ;
#101 = ADVANCED_BREP_SHAPE_REPRESENTATION ( 'ITK DATAROW \X2\041f0430043d0435043b044c\X0\ \X2\043c043e0434\X0\. \X2\043a0440044b04480438\X0\ \X2\043f043e043b0438043a043e04400431\X0\. 300x1200', ( #96, #91 ), #124 ) ;
#102 = DIRECTION ( 'NONE',  ( -1.000000000000000000, 0.000000000000000000, 0.000000000000000000 ) ) ;
#103 = PLANE ( 'NONE',  #12 ) ;
#104 = ADVANCED_FACE ( 'NONE', ( #71 ), #34, .T. ) ;
#105 = DIRECTION ( 'NONE',  ( -0.000000000000000000, -0.000000000000000000, -1.000000000000000000 ) ) ;
#106 = APPROVAL_PERSON_ORGANIZATION ( #208, #20, #165 ) ;
#107 = DIRECTION ( 'NONE',  ( 1.000000000000000000, 0.000000000000000000, -0.000000000000000000 ) ) ;
#108 = DIRECTION ( 'NONE',  ( -1.000000000000000000, 0.000000000000000000, 0.000000000000000000 ) ) ;
#109 = DATE_AND_TIME ( #114, #180 ) ;
#110 = PERSON_AND_ORGANIZATION ( #58, #39 ) ;
#111 = DIRECTION ( 'NONE',  ( 0.000000000000000000, 0.000000000000000000, 1.000000000000000000 ) ) ;
#112 = APPROVAL ( #129, 'UNSPECIFIED' ) ;
#113 = DIRECTION ( 'NONE',  ( 1.000000000000000000, 0.000000000000000000, 0.000000000000000000 ) ) ;
#114 = CALENDAR_DATE ( 2024, 18, 12 ) ;
#115 = VECTOR ( 'NONE', #105, 1000.000000000000000 ) ;
#116 = PRODUCT ( 'ITK DATAROW \X2\041f0430043d0435043b044c\X0\ \X2\043c043e0434\X0\. \X2\043a0440044b04480438\X0\ \X2\043f043e043b0438043a043e04400431\X0\. 300x1200', 'ITK DATAROW \X2\041f0430043d0435043b044c\X0\ \X2\043c043e0434\X0\. \X2\043a0440044b04480438\X0\ \X2\043f043e043b0438043a043e04400431\X0\. 300x1200', '', ( #132 ) ) ;
#117 = VERTEX_POINT ( 'NONE', #198 ) ;
#118 = CARTESIAN_POINT ( 'NONE',  ( 98.50000000000000000, -625.0000000000000000, 0.000000000000000000 ) ) ;
#119 = APPLICATION_CONTEXT ( 'configuration controlled 3d designs of mechanical parts and assemblies' ) ;
#120 = ORIENTED_EDGE ( 'NONE', *, *, #137, .F. ) ;
#121 = DIRECTION ( 'NONE',  ( -1.000000000000000000, 5.635649871193688153E-16, 0.000000000000000000 ) ) ;
#122 = DIRECTION ( 'NONE',  ( 0.000000000000000000, -0.000000000000000000, -1.000000000000000000 ) ) ;
#123 = LOCAL_TIME ( 13, 10, 53.00000000000000000, #89 ) ;
#124 =( GEOMETRIC_REPRESENTATION_CONTEXT ( 3 ) GLOBAL_UNCERTAINTY_ASSIGNED_CONTEXT ( ( #40 ) ) GLOBAL_UNIT_ASSIGNED_CONTEXT ( ( #201, #48, #16 ) ) REPRESENTATION_CONTEXT ( 'NONE', 'WORKASPACE' ) );
#125 = LINE ( 'NONE', #183, #192 ) ;
#126 = FACE_OUTER_BOUND ( 'NONE', #173, .T. ) ;
#127 = DIRECTION ( 'NONE',  ( -0.000000000000000000, -0.000000000000000000, -1.000000000000000000 ) ) ;
#128 = COORDINATED_UNIVERSAL_TIME_OFFSET ( 3, 0, .AHEAD. ) ;
#129 = APPROVAL_STATUS ( 'not_yet_approved' ) ;
#130 = EDGE_CURVE ( 'NONE', #27, #43, #49, .T. ) ;
#131 = CALENDAR_DATE ( 2024, 18, 12 ) ;
#132 = MECHANICAL_CONTEXT ( 'NONE', #119, 'mechanical' ) ;
#133 = VERTEX_POINT ( 'NONE', #162 ) ;
#134 = VERTEX_POINT ( 'NONE', #196 ) ;
#135 = CC_DESIGN_SECURITY_CLASSIFICATION ( #3, ( #175 ) ) ;
#136 = CARTESIAN_POINT ( 'NONE',  ( 98.50000000000000000, -625.0000000000000000, 4.000000000000000000 ) ) ;
#137 = EDGE_CURVE ( 'NONE', #134, #43, #233, .T. ) ;
#138 = ORIENTED_EDGE ( 'NONE', *, *, #62, .F. ) ;
#139 = VERTEX_POINT ( 'NONE', #67 ) ;
#140 = DIRECTION ( 'NONE',  ( 1.000000000000000000, 0.000000000000000000, -0.000000000000000000 ) ) ;
#141 = CARTESIAN_POINT ( 'NONE',  ( 98.50000000000000000, -625.0000000000000000, 4.000000000000000000 ) ) ;
#142 = FACE_OUTER_BOUND ( 'NONE', #210, .T. ) ;
#143 = PERSON_AND_ORGANIZATION_ROLE ( 'design_owner' ) ;
#144 = EDGE_CURVE ( 'NONE', #139, #83, #84, .T. ) ;
#145 = VECTOR ( 'NONE', #26, 1000.000000000000000 ) ;
#146 = COORDINATED_UNIVERSAL_TIME_OFFSET ( 3, 0, .AHEAD. ) ;
#147 = APPLICATION_PROTOCOL_DEFINITION ( 'international standard', 'config_control_design', 1994, #189 ) ;
#148 = PRODUCT_DEFINITION_SHAPE ( 'NONE', 'NONE',  #42 ) ;
#149 = ORIENTED_EDGE ( 'NONE', *, *, #11, .T. ) ;
#150 = DIRECTION ( 'NONE',  ( 0.000000000000000000, 1.000000000000000000, 0.000000000000000000 ) ) ;
#151 = APPROVAL ( #205, 'UNSPECIFIED' ) ;
#152 = DIRECTION ( 'NONE',  ( 0.000000000000000000, 0.000000000000000000, 1.000000000000000000 ) ) ;
#153 = ADVANCED_FACE ( 'NONE', ( #215 ), #103, .F. ) ;
#154 = AXIS2_PLACEMENT_3D ( 'NONE', #170, #81, #152 ) ;
#155 = LINE ( 'NONE', #136, #76 ) ;
#156 = ORIENTED_EDGE ( 'NONE', *, *, #92, .F. ) ;
#157 = PLANE ( 'NONE',  #218 ) ;
#158 = DIRECTION ( 'NONE',  ( 0.000000000000000000, -1.000000000000000000, 0.000000000000000000 ) ) ;
#159 = VECTOR ( 'NONE', #202, 1000.000000000000000 ) ;
#160 = LINE ( 'NONE', #87, #94 ) ;
#161 = PLANE ( 'NONE',  #227 ) ;
#162 = CARTESIAN_POINT ( 'NONE',  ( 98.50000000000000000, 624.9999999999998863, 0.000000000000000000 ) ) ;
#163 = CC_DESIGN_APPROVAL ( #112, ( #175 ) ) ;
#164 = CALENDAR_DATE ( 2024, 18, 12 ) ;
#165 = APPROVAL_ROLE ( '' ) ;
#166 = CARTESIAN_POINT ( 'NONE',  ( 0.000000000000000000, 0.000000000000000000, 0.000000000000000000 ) ) ;
#167 = LOCAL_TIME ( 13, 10, 53.00000000000000000, #203 ) ;
#168 = COORDINATED_UNIVERSAL_TIME_OFFSET ( 3, 0, .AHEAD. ) ;
#169 = ORIENTED_EDGE ( 'NONE', *, *, #21, .F. ) ;
#170 = CARTESIAN_POINT ( 'NONE',  ( -98.50000000000000000, -625.0000000000000000, 4.000000000000000000 ) ) ;
#171 = CC_DESIGN_PERSON_AND_ORGANIZATION_ASSIGNMENT ( #221, #38, ( #175 ) ) ;
#172 = ADVANCED_FACE ( 'NONE', ( #126 ), #51, .F. ) ;
#173 = EDGE_LOOP ( 'NONE', ( #169, #224, #229, #32 ) ) ;
#174 = ORIENTED_EDGE ( 'NONE', *, *, #29, .T. ) ;
#175 = PRODUCT_DEFINITION_FORMATION_WITH_SPECIFIED_SOURCE ( 'ANY', '', #116, .NOT_KNOWN. ) ;
#176 = CARTESIAN_POINT ( 'NONE',  ( 98.50000000000000000, -625.0000000000000000, 0.000000000000000000 ) ) ;
#177 = LINE ( 'NONE', #178, #68 ) ;
#178 = CARTESIAN_POINT ( 'NONE',  ( -98.50000000000000000, -625.0000000000000000, 4.000000000000000000 ) ) ;
#179 = CARTESIAN_POINT ( 'NONE',  ( 98.50000000000000000, 624.9999999999998863, 4.000000000000000000 ) ) ;
#180 = LOCAL_TIME ( 13, 10, 53.00000000000000000, #168 ) ;
#181 = CC_DESIGN_PERSON_AND_ORGANIZATION_ASSIGNMENT ( #222, #143, ( #116 ) ) ;
#182 = ADVANCED_FACE ( 'NONE', ( #142 ), #161, .F. ) ;
#183 = CARTESIAN_POINT ( 'NONE',  ( 98.50000000000000000, -625.0000000000000000, 0.000000000000000000 ) ) ;
#184 = PERSON_AND_ORGANIZATION_ROLE ( 'creator' ) ;
#185 = DATE_AND_TIME ( #23, #18 ) ;
#186 = DATE_AND_TIME ( #131, #44 ) ;
#187 = VECTOR ( 'NONE', #232, 1000.000000000000000 ) ;
#188 = APPROVAL_ROLE ( '' ) ;
#189 = APPLICATION_CONTEXT ( 'configuration controlled 3d designs of mechanical parts and assemblies' ) ;
#190 = FACE_OUTER_BOUND ( 'NONE', #78, .T. ) ;
#191 = ORIENTED_EDGE ( 'NONE', *, *, #144, .T. ) ;
#192 = VECTOR ( 'NONE', #108, 1000.000000000000000 ) ;
#193 = ORIENTED_EDGE ( 'NONE', *, *, #207, .F. ) ;
#194 = ORIENTED_EDGE ( 'NONE', *, *, #130, .F. ) ;
#195 = LINE ( 'NONE', #118, #24 ) ;
#196 = CARTESIAN_POINT ( 'NONE',  ( -98.50000000000000000, -625.0000000000000000, 0.000000000000000000 ) ) ;
#197 = LINE ( 'NONE', #141, #55 ) ;
#198 = CARTESIAN_POINT ( 'NONE',  ( -98.50000000000000000, -625.0000000000000000, 4.000000000000000000 ) ) ;
#199 = CC_DESIGN_DATE_AND_TIME_ASSIGNMENT ( #75, #1, ( #3 ) ) ;
#200 = EDGE_CURVE ( 'NONE', #139, #117, #197, .T. ) ;
#201 =( LENGTH_UNIT ( ) NAMED_UNIT ( * ) SI_UNIT ( .MILLI., .METRE. ) );
#202 = DIRECTION ( 'NONE',  ( 0.000000000000000000, 1.000000000000000000, 0.000000000000000000 ) ) ;
#203 = COORDINATED_UNIVERSAL_TIME_OFFSET ( 3, 0, .AHEAD. ) ;
#204 = CC_DESIGN_APPROVAL ( #151, ( #3 ) ) ;
#205 = APPROVAL_STATUS ( 'not_yet_approved' ) ;
#206 = APPROVAL_DATE_TIME ( #186, #151 ) ;
#207 = EDGE_CURVE ( 'NONE', #117, #134, #177, .T. ) ;
#208 = PERSON_AND_ORGANIZATION ( #58, #39 ) ;
#209 = APPROVAL_PERSON_ORGANIZATION ( #54, #151, #5 ) ;
#210 = EDGE_LOOP ( 'NONE', ( #65, #156, #97, #28 ) ) ;
#211 = AXIS2_PLACEMENT_3D ( 'NONE', #73, #158, #122 ) ;
#212 = CARTESIAN_POINT ( 'NONE',  ( 98.50000000000000000, 624.9999999999998863, 4.000000000000000000 ) ) ;
#213 = ORIENTED_EDGE ( 'NONE', *, *, #207, .T. ) ;
#214 = EDGE_LOOP ( 'NONE', ( #174, #194, #138, #225 ) ) ;
#215 = FACE_OUTER_BOUND ( 'NONE', #214, .T. ) ;
#216 = EDGE_CURVE ( 'NONE', #66, #134, #125, .T. ) ;
#217 = CARTESIAN_POINT ( 'NONE',  ( 0.000000000000000000, 0.000000000000000000, 4.000000000000000000 ) ) ;
#218 = AXIS2_PLACEMENT_3D ( 'NONE', #217, #14, #107 ) ;
#219 = PERSON_AND_ORGANIZATION_ROLE ( 'creator' ) ;
#220 = CC_DESIGN_PERSON_AND_ORGANIZATION_ASSIGNMENT ( #77, #90, ( #3 ) ) ;
#221 = PERSON_AND_ORGANIZATION ( #58, #39 ) ;
#222 = PERSON_AND_ORGANIZATION ( #58, #39 ) ;
#223 = VECTOR ( 'NONE', #121, 1000.000000000000000 ) ;
#224 = ORIENTED_EDGE ( 'NONE', *, *, #216, .T. ) ;
#225 = ORIENTED_EDGE ( 'NONE', *, *, #92, .T. ) ;
#226 = CARTESIAN_POINT ( 'NONE',  ( -98.50000000000000000, 625.0000000000000000, 4.000000000000000000 ) ) ;
#227 = AXIS2_PLACEMENT_3D ( 'NONE', #230, #33, #69 ) ;
#228 = ORIENTED_EDGE ( 'NONE', *, *, #11, .F. ) ;
#229 = ORIENTED_EDGE ( 'NONE', *, *, #137, .T. ) ;
#230 = CARTESIAN_POINT ( 'NONE',  ( 98.50000000000000000, -625.0000000000000000, 4.000000000000000000 ) ) ;
#231 = CC_DESIGN_DATE_AND_TIME_ASSIGNMENT ( #109, #52, ( #42 ) ) ;
#232 = DIRECTION ( 'NONE',  ( 0.000000000000000000, 1.000000000000000000, 0.000000000000000000 ) ) ;
#233 = LINE ( 'NONE', #235, #159 ) ;
#234 = DIRECTION ( 'NONE',  ( -0.000000000000000000, -0.000000000000000000, -1.000000000000000000 ) ) ;
#235 = CARTESIAN_POINT ( 'NONE',  ( -98.50000000000000000, -625.0000000000000000, 0.000000000000000000 ) ) ;
#236 = CLOSED_SHELL ( 'NONE', ( #182, #153, #2, #104, #72, #172 ) ) ;
#237 = DATE_AND_TIME ( #25, #167 ) ;
ENDSEC;
END-ISO-10303-21;
