  0
SECTION
  2
HEADER
  9
$ACADVER
  1
AC1015
  9
$ACADMAINTVER
 70
     6
  9
$DWGCODEPAGE
  3
ANSI_1251
  9
$INSBASE
 10
0.0
 20
0.0
 30
0.0
  9
$EXTMIN
 10
0.0
 20
0.0
 30
0.0
  9
$EXTMAX
 10
420.0
 20
297.0
 30
0.0
  9
$LIMMIN
 10
0.0
 20
0.0
  9
$LIMMAX
 10
420.0
 20
297.0
  9
$ORTHOMODE
 70
     0
  9
$REGENMODE
 70
     1
  9
$FILLMODE
 70
     1
  9
$QTEXTMODE
 70
     0
  9
$MIRRTEXT
 70
     1
  9
$LTSCALE
 40
1.0
  9
$ATTMODE
 70
     1
  9
$TEXTSIZE
 40
5.0
  9
$TRACEWID
 40
1.0
  9
$TEXTSTYLE
  7
Standard
  9
$CLAYER
  8
0
  9
$CELTYPE
  6
ByLayer
  9
$CECOLOR
 62
   256
  9
$CELTSCALE
 40
1.0
  9
$DISPSILH
 70
     0
  9
$DIMSCALE
 40
1.0
  9
$DIMASZ
 40
5.0
  9
$DIMEXO
 40
0.0
  9
$DIMDLI
 40
3.75
  9
$DIMRND
 40
0.0
  9
$DIMDLE
 40
0.0
  9
$DIMEXE
 40
1.0
  9
$DIMTP
 40
0.0
  9
$DIMTM
 40
0.0
  9
$DIMTXT
 40
3.5
  9
$DIMCEN
 40
2.5
  9
$DIMTSZ
 40
0.0
  9
$DIMTOL
 70
     0
  9
$DIMLIM
 70
     0
  9
$DIMTIH
 70
     1
  9
$DIMTOH
 70
     1
  9
$DIMSE1
 70
     0
  9
$DIMSE2
 70
     0
  9
$DIMTAD
 70
     1
  9
$DIMZIN
 70
     0
  9
$DIMBLK
  1

  9
$DIMASO
 70
     1
  9
$DIMSHO
 70
     1
  9
$DIMPOST
  1

  9
$DIMAPOST
  1

  9
$DIMALT
 70
     0
  9
$DIMALTD
 70
     3
  9
$DIMALTF
 40
0.0393700787
  9
$DIMLFAC
 40
1.0
  9
$DIMTOFL
 70
     1
  9
$DIMTVP
 40
0.0
  9
$DIMTIX
 70
     0
  9
$DIMSOXD
 70
     0
  9
$DIMSAH
 70
     0
  9
$DIMBLK1
  1

  9
$DIMBLK2
  1

  9
$DIMSTYLE
  2
ISO-25
  9
$DIMCLRD
 70
     0
  9
$DIMCLRE
 70
     0
  9
$DIMCLRT
 70
     0
  9
$DIMTFAC
 40
1.0
  9
$DIMGAP
 40
1.5
  9
$DIMJUST
 70
     0
  9
$DIMSD1
 70
     0
  9
$DIMSD2
 70
     0
  9
$DIMTOLJ
 70
     0
  9
$DIMTZIN
 70
     0
  9
$DIMALTZ
 70
     0
  9
$DIMALTTZ
 70
     0
  9
$DIMUPT
 70
     0
  9
$DIMDEC
 70
     1
  9
$DIMTDEC
 70
     1
  9
$DIMALTU
 70
     2
  9
$DIMALTTD
 70
     3
  9
$DIMTXSTY
  7
Standard
  9
$DIMAUNIT
 70
     0
  9
$DIMADEC
 70
     2
  9
$DIMALTRND
 40
0.0
  9
$DIMAZIN
 70
     0
  9
$DIMDSEP
 70
    44
  9
$DIMATFIT
 70
     3
  9
$DIMFRAC
 70
     0
  9
$DIMLDRBLK
  1

  9
$DIMLUNIT
 70
     2
  9
$DIMLWD
 70
    -2
  9
$DIMLWE
 70
    -2
  9
$DIMTMOVE
 70
     0
  9
$LUNITS
 70
     2
  9
$LUPREC
 70
     1
  9
$SKETCHINC
 40
1.0
  9
$FILLETRAD
 40
0.0
  9
$AUNITS
 70
     0
  9
$AUPREC
 70
     2
  9
$MENU
  1
.
  9
$ELEVATION
 40
0.0
  9
$PELEVATION
 40
0.0
  9
$THICKNESS
 40
0.0
  9
$LIMCHECK
 70
     0
  9
$CHAMFERA
 40
0.0
  9
$CHAMFERB
 40
0.0
  9
$CHAMFERC
 40
0.0
  9
$CHAMFERD
 40
0.0
  9
$SKPOLY
 70
     0
  9
$TDCREATE
 40
2460670.701731215
  9
$TDUCREATE
 40
2460670.576731215
  9
$TDUPDATE
 40
2460670.701731991
  9
$TDUUPDATE
 40
2460670.576731991
  9
$TDINDWG
 40
0.0000000116
  9
$TDUSRTIMER
 40
0.0000000116
  9
$USRTIMER
 70
     1
  9
$ANGBASE
 50
0.0
  9
$ANGDIR
 70
     0
  9
$PDMODE
 70
     0
  9
$PDSIZE
 40
-1.0
  9
$PLINEWID
 40
0.0
  9
$SPLFRAME
 70
     0
  9
$SPLINETYPE
 70
     6
  9
$SPLINESEGS
 70
     8
  9
$HANDSEED
  5
261
  9
$SURFTAB1
 70
     6
  9
$SURFTAB2
 70
     6
  9
$SURFTYPE
 70
     6
  9
$SURFU
 70
     6
  9
$SURFV
 70
     6
  9
$UCSBASE
  2

  9
$UCSNAME
  2

  9
$UCSORG
 10
0.0
 20
0.0
 30
0.0
  9
$UCSXDIR
 10
1.0
 20
0.0
 30
0.0
  9
$UCSYDIR
 10
0.0
 20
1.0
 30
0.0
  9
$UCSORTHOREF
  2

  9
$UCSORTHOVIEW
 70
     0
  9
$UCSORGTOP
 10
0.0
 20
0.0
 30
0.0
  9
$UCSORGBOTTOM
 10
0.0
 20
0.0
 30
0.0
  9
$UCSORGLEFT
 10
0.0
 20
0.0
 30
0.0
  9
$UCSORGRIGHT
 10
0.0
 20
0.0
 30
0.0
  9
$UCSORGFRONT
 10
0.0
 20
0.0
 30
0.0
  9
$UCSORGBACK
 10
0.0
 20
0.0
 30
0.0
  9
$PUCSBASE
  2

  9
$PUCSNAME
  2

  9
$PUCSORG
 10
0.0
 20
0.0
 30
0.0
  9
$PUCSXDIR
 10
1.0
 20
0.0
 30
0.0
  9
$PUCSYDIR
 10
0.0
 20
1.0
 30
0.0
  9
$PUCSORTHOREF
  2

  9
$PUCSORTHOVIEW
 70
     0
  9
$PUCSORGTOP
 10
0.0
 20
0.0
 30
0.0
  9
$PUCSORGBOTTOM
 10
0.0
 20
0.0
 30
0.0
  9
$PUCSORGLEFT
 10
0.0
 20
0.0
 30
0.0
  9
$PUCSORGRIGHT
 10
0.0
 20
0.0
 30
0.0
  9
$PUCSORGFRONT
 10
0.0
 20
0.0
 30
0.0
  9
$PUCSORGBACK
 10
0.0
 20
0.0
 30
0.0
  9
$USERI1
 70
     0
  9
$USERI2
 70
     0
  9
$USERI3
 70
     0
  9
$USERI4
 70
     0
  9
$USERI5
 70
     0
  9
$USERR1
 40
0.0
  9
$USERR2
 40
0.0
  9
$USERR3
 40
0.0
  9
$USERR4
 40
0.0
  9
$USERR5
 40
0.0
  9
$WORLDVIEW
 70
     1
  9
$SHADEDGE
 70
     3
  9
$SHADEDIF
 70
    70
  9
$TILEMODE
 70
     1
  9
$MAXACTVP
 70
    64
  9
$PINSBASE
 10
0.0
 20
0.0
 30
0.0
  9
$PLIMCHECK
 70
     0
  9
$PEXTMIN
 10
1.0000000000E+20
 20
1.0000000000E+20
 30
1.0000000000E+20
  9
$PEXTMAX
 10
-1.0000000000E+20
 20
-1.0000000000E+20
 30
-1.0000000000E+20
  9
$PLIMMIN
 10
0.0
 20
0.0
  9
$PLIMMAX
 10
420.0
 20
297.0
  9
$UNITMODE
 70
     0
  9
$VISRETAIN
 70
     1
  9
$PLINEGEN
 70
     0
  9
$PSLTSCALE
 70
     1
  9
$TREEDEPTH
 70
  3020
  9
$CMLSTYLE
  2
Standard
  9
$CMLJUST
 70
     0
  9
$CMLSCALE
 40
20.0
  9
$PROXYGRAPHICS
 70
     1
  9
$MEASUREMENT
 70
     1
  9
$CELWEIGHT
370
    -1
  9
$ENDCAPS
280
     0
  9
$JOINSTYLE
280
     0
  9
$LWDISPLAY
290
     1
  9
$INSUNITS
 70
     4
  9
$HYPERLINKBASE
  1

  9
$STYLESHEET
  1

  9
$XEDIT
290
     1
  9
$CEPSNTYPE
380
     0
  9
$PSTYLEMODE
290
     1
  9
$FINGERPRINTGUID
  2
{f5026ca3-0b12-44df-819c-2734f5f2c2a9}
  9
$VERSIONGUID
  2
{FAEB1C32-E019-11D5-929B-00C0DF256EC4}
  9
$EXTNAMES
290
     1
  9
$PSVPSCALE
 40
0.0
  9
$OLESTARTUP
290
     0
  0
ENDSEC
  0
SECTION
  2
CLASSES
  0
CLASS
  1
ACDBDICTIONARYWDFLT
  2
AcDbDictionaryWithDefault
  3
ObjectDBX Classes
 90
        0
280
     0
281
     0
  0
CLASS
  1
VISUALSTYLE
  2
AcDbVisualStyle
  3
ObjectDBX Classes
 90
     4095
280
     0
281
     0
  0
CLASS
  1
MATERIAL
  2
AcDbMaterial
  3
ObjectDBX Classes
 90
     1153
280
     0
281
     0
  0
CLASS
  1
SCALE
  2
AcDbScale
  3
ObjectDBX Classes
 90
     1153
280
     0
281
     0
  0
CLASS
  1
TABLESTYLE
  2
AcDbTableStyle
  3
ObjectDBX Classes
 90
     4095
280
     0
281
     0
  0
CLASS
  1
MLEADERSTYLE
  2
AcDbMLeaderStyle
  3
ACDB_MLEADERSTYLE_CLASS
 90
     4095
280
     0
281
     0
  0
CLASS
  1
SUN
  2
AcDbSun
  3
SCENEOE
 90
     1153
280
     0
281
     0
  0
CLASS
  1
ACDBPLACEHOLDER
  2
AcDbPlaceHolder
  3
ObjectDBX Classes
 90
        0
280
     0
281
     0
  0
CLASS
  1
LAYOUT
  2
AcDbLayout
  3
ObjectDBX Classes
 90
        0
280
     0
281
     0
  0
ENDSEC
  0
SECTION
  2
TABLES
  0
TABLE
  2
VPORT
  5
8
330
0
100
AcDbSymbolTable
 70
     1
  0
VPORT
  5
29
330
8
100
AcDbSymbolTableRecord
100
AcDbViewportTableRecord
  2
*Active
 70
     0
 10
0.0
 20
0.0
 11
1.0
 21
1.0
 12
210.0
 22
148.5
 13
0.0
 23
0.0
 14
10.0
 24
10.0
 15
10.0
 25
10.0
 16
0.0
 26
0.0
 36
1.0
 17
0.0
 27
0.0
 37
0.0
 40
297.0
 41
1.4141414141
 42
50.0
 43
0.0
 44
0.0
 50
0.0
 51
0.0
 71
     0
 72
  2000
 73
     1
 74
     3
 75
     0
 76
     0
 77
     0
 78
     0
281
     0
 65
     1
110
0.0
120
0.0
130
0.0
111
1.0
121
0.0
131
0.0
112
0.0
122
1.0
132
0.0
 79
     0
146
0.0
  0
ENDTAB
  0
TABLE
  2
LTYPE
  5
5
330
0
100
AcDbSymbolTable
 70
     6
  0
LTYPE
  5
14
330
5
100
AcDbSymbolTableRecord
100
AcDbLinetypeTableRecord
  2
ByBlock
 70
     0
  3

 72
    65
 73
     0
 40
0.0
  0
LTYPE
  5
15
330
5
100
AcDbSymbolTableRecord
100
AcDbLinetypeTableRecord
  2
ByLayer
 70
     0
  3

 72
    65
 73
     0
 40
0.0
  0
LTYPE
  5
16
330
5
100
AcDbSymbolTableRecord
100
AcDbLinetypeTableRecord
  2
Continuous
 70
     0
  3
Solid line
 72
    65
 73
     0
 40
0.0
  0
LTYPE
  5
5E
330
5
100
AcDbSymbolTableRecord
100
AcDbLinetypeTableRecord
  2
HIDDEN
 70
     0
  3
Hidden __ __ __ __ __ __ __ __ __ __ __ __ __ __
 72
    65
 73
     2
 40
1.905
 49
1.27
 74
     0
 49
-0.635
 74
     0
  0
LTYPE
  5
5F
330
5
100
AcDbSymbolTableRecord
100
AcDbLinetypeTableRecord
  2
PHANTOM
 70
     0
  3
Phantom ______  __  __  ______  __  __  ______
 72
    65
 73
     6
 40
12.7
 49
6.35
 74
     0
 49
-1.27
 74
     0
 49
1.27
 74
     0
 49
-1.27
 74
     0
 49
1.27
 74
     0
 49
-1.27
 74
     0
  0
LTYPE
  5
60
330
5
100
AcDbSymbolTableRecord
100
AcDbLinetypeTableRecord
  2
CENTER
 70
     0
  3
Center ____ _ ____ _ ____ _ ____ _ ____ _ ____
 72
    65
 73
     4
 40
10.16
 49
6.35
 74
     0
 49
-1.27
 74
     0
 49
1.27
 74
     0
 49
-1.27
 74
     0
  0
LTYPE
  5
61
330
5
100
AcDbSymbolTableRecord
100
AcDbLinetypeTableRecord
  2
CENTERX2
 70
     0
  3
Center (2x) ________  __  ________  __  _____
 72
    65
 73
     4
 40
20.32
 49
12.7
 74
     0
 49
-2.54
 74
     0
 49
2.54
 74
     0
 49
-2.54
 74
     0
  0
LTYPE
  5
62
330
5
100
AcDbSymbolTableRecord
100
AcDbLinetypeTableRecord
  2
DOT2
 70
     0
  3
Dot (.5x) ........................................
 72
    65
 73
     2
 40
0.635
 49
0.0
 74
     0
 49
-0.635
 74
     0
  0
ENDTAB
  0
TABLE
  2
LAYER
  5
2
330
0
100
AcDbSymbolTable
 70
     3
  0
LAYER
  5
10
330
2
100
AcDbSymbolTableRecord
100
AcDbLayerTableRecord
  2
0
 70
     0
 62
     7
  6
Continuous
370
    -3
390
F
  0
LAYER
  5
63
330
2
100
AcDbSymbolTableRecord
100
AcDbLayerTableRecord
  2
ВОДЯНОЙ_ЗНАК
 70
     0
 62
    11
  6
Continuous
370
    -3
390
F
  0
LAYER
  5
64
330
2
100
AcDbSymbolTableRecord
100
AcDbLayerTableRecord
  2
ОСНОВНОЙ
 70
     0
 62
     7
  6
Continuous
370
    -3
390
F
  0
ENDTAB
  0
TABLE
  2
STYLE
  5
3
330
0
100
AcDbSymbolTable
 70
     1
  0
STYLE
  5
11
330
3
100
AcDbSymbolTableRecord
100
AcDbTextStyleTableRecord
  2
Standard
 70
     0
 40
0.0
 41
1.0
 50
0.0
 71
     0
 42
5.0
  3
txt
  4

  0
ENDTAB
  0
TABLE
  2
VIEW
  5
6
330
0
100
AcDbSymbolTable
 70
     0
  0
ENDTAB
  0
TABLE
  2
UCS
  5
7
330
0
100
AcDbSymbolTable
 70
     0
  0
ENDTAB
  0
TABLE
  2
APPID
  5
9
330
0
100
AcDbSymbolTable
 70
     1
  0
APPID
  5
12
330
9
100
AcDbSymbolTableRecord
100
AcDbRegAppTableRecord
  2
ACAD
 70
     0
  0
ENDTAB
  0
TABLE
  2
DIMSTYLE
  5
A
330
0
100
AcDbSymbolTable
 70
     1
100
AcDbDimStyleTable
  0
DIMSTYLE
105
27
330
A
100
AcDbSymbolTableRecord
100
AcDbDimStyleTableRecord
  2
ISO-25
 70
     0
 41
2.5
 42
0.625
 43
3.75
 44
1.25
 73
     0
 74
     0
 77
     1
 78
     8
140
2.5
141
2.5
143
0.0393700787
147
0.625
171
     3
172
     1
178
     0
271
     2
272
     2
274
     3
278
    44
283
     0
284
     8
340
11
  0
ENDTAB
  0
TABLE
  2
BLOCK_RECORD
  5
1
330
0
100
AcDbSymbolTable
 70
     1
  0
BLOCK_RECORD
  5
1F
330
1
100
AcDbSymbolTableRecord
100
AcDbBlockTableRecord
  2
*Model_Space
340
22
  0
BLOCK_RECORD
  5
1B
330
1
100
AcDbSymbolTableRecord
100
AcDbBlockTableRecord
  2
*Paper_Space
340
1E
  0
BLOCK_RECORD
  5
23
330
1
100
AcDbSymbolTableRecord
100
AcDbBlockTableRecord
  2
*Paper_Space0
340
26
  0
ENDTAB
  0
ENDSEC
  0
SECTION
  2
BLOCKS
  0
BLOCK
  5
20
330
1F
100
AcDbEntity
  8
0
100
AcDbBlockBegin
  2
*Model_Space
 70
     0
 10
0.0
 20
0.0
 30
0.0
  3
*Model_Space
  1

  0
ENDBLK
  5
21
330
1F
100
AcDbEntity
  8
0
100
AcDbBlockEnd
  0
BLOCK
  5
1C
330
1B
100
AcDbEntity
 67
     1
  8
0
100
AcDbBlockBegin
  2
*Paper_Space
 70
     0
 10
0.0
 20
0.0
 30
0.0
  3
*Paper_Space
  1

  0
ENDBLK
  5
1D
330
1B
100
AcDbEntity
 67
     1
  8
0
100
AcDbBlockEnd
  0
BLOCK
  5
24
330
23
100
AcDbEntity
  8
0
100
AcDbBlockBegin
  2
*Paper_Space0
 70
     0
 10
0.0
 20
0.0
 30
0.0
  3
*Paper_Space0
  1

  0
ENDBLK
  5
25
330
23
100
AcDbEntity
  8
0
100
AcDbBlockEnd
  0
ENDSEC
  0
SECTION
  2
ENTITIES
  0
ARC
  5
65
330
1F
100
AcDbEntity
  8
0
  6
Continuous
 62
     7
100
AcDbCircle
 10
1498.920046149
 20
158.9505787165
 30
0.0
 40
1.5
100
AcDbArc
 50
90.0
 51
152.4879973761
  0
ARC
  5
66
330
1F
100
AcDbEntity
  8
0
  6
Continuous
 62
     7
100
AcDbCircle
 10
1498.920046149
 20
150.1505787165
 30
0.0
 40
1.5
100
AcDbArc
 50
207.5120026239
 51
270.0
  0
LINE
  5
67
330
1F
100
AcDbEntity
  8
0
  6
Continuous
 62
     7
100
AcDbLine
 10
1501.7600387581
 20
160.4505787165
 30
0.0
 11
1498.920046149
 21
160.4505787165
 31
0.0
  0
LINE
  5
68
330
1F
100
AcDbEntity
  8
0
  6
Continuous
 62
     7
100
AcDbLine
 10
1498.920046149
 20
148.6505787165
 30
0.0
 11
1501.7600387581
 21
148.6505787165
 31
0.0
  0
LINE
  5
69
330
1F
100
AcDbEntity
  8
0
  6
Continuous
 62
     7
100
AcDbLine
 10
1497.5896750228
 20
159.6434803447
 30
0.0
 11
1496.9296676318
 21
158.3762661541
 31
0.0
  0
LINE
  5
6A
330
1F
100
AcDbEntity
  8
0
  6
Continuous
 62
     7
100
AcDbLine
 10
1496.9296676318
 20
150.7248912789
 30
0.0
 11
1497.5896750228
 21
149.4576770882
 31
0.0
  0
ARC
  5
6B
330
1F
100
AcDbEntity
  8
0
  6
Continuous
 62
     7
100
AcDbCircle
 10
1498.2600387581
 20
157.6833645258
 30
0.0
 40
1.500000000000121
100
AcDbArc
 50
152.4879973762
 51
180.0
  0
ARC
  5
6C
330
1F
100
AcDbEntity
  8
0
  6
Continuous
 62
     7
100
AcDbCircle
 10
1498.2600387581
 20
151.4177929071
 30
0.0
 40
1.500000000000227
100
AcDbArc
 50
180.0
 51
207.5120026238
  0
LINE
  5
6D
330
1F
100
AcDbEntity
  8
0
  6
Continuous
 62
     7
100
AcDbLine
 10
1503.2600387581
 20
151.5505787165
 30
0.0
 11
1510.4600387581
 21
151.5505787165
 31
0.0
  0
LINE
  5
6E
330
1F
100
AcDbEntity
  8
0
  6
Continuous
 62
     7
100
AcDbLine
 10
1510.4600387581
 20
157.5505787165
 30
0.0
 11
1503.2600387581
 21
157.5505787165
 31
0.0
  0
LINE
  5
6F
330
1F
100
AcDbEntity
  8
0
  6
Continuous
 62
     7
100
AcDbLine
 10
1510.4600387581
 20
151.5505787165
 30
0.0
 11
1510.9600387581
 21
152.0505787165
 31
0.0
  0
LINE
  5
70
330
1F
100
AcDbEntity
  8
0
  6
Continuous
 62
     7
100
AcDbLine
 10
1510.9600387581
 20
157.0505787165
 30
0.0
 11
1510.4600387581
 21
157.5505787165
 31
0.0
  0
ARC
  5
71
330
1F
100
AcDbEntity
  8
0
  6
Continuous
 62
     7
100
AcDbCircle
 10
600.6000313671
 20
150.1505787164
 30
0.0
 40
1.50000000000002
100
AcDbArc
 50
270.0
 51
332.4879973762
  0
ARC
  5
72
330
1F
100
AcDbEntity
  8
0
  6
Continuous
 62
     7
100
AcDbCircle
 10
600.6000313671
 20
158.9505787164
 30
0.0
 40
1.500000000000046
100
AcDbArc
 50
27.5120026239
 51
90.0
  0
LINE
  5
73
330
1F
100
AcDbEntity
  8
0
  6
Continuous
 62
     7
100
AcDbLine
 10
597.7600387581
 20
148.6505787164
 30
0.0
 11
600.6000313671
 21
148.6505787164
 31
0.0
  0
LINE
  5
74
330
1F
100
AcDbEntity
  8
0
  6
Continuous
 62
     7
100
AcDbLine
 10
600.6000313671
 20
160.4505787164
 30
0.0
 11
597.7600387581
 21
160.4505787164
 31
0.0
  0
LINE
  5
75
330
1F
100
AcDbEntity
  8
0
  6
Continuous
 62
     7
100
AcDbLine
 10
601.9304024934
 20
149.4576770882
 30
0.0
 11
602.5904098843
 21
150.7248912788
 31
0.0
  0
LINE
  5
76
330
1F
100
AcDbEntity
  8
0
  6
Continuous
 62
     7
100
AcDbLine
 10
602.5904098843
 20
158.376266154
 30
0.0
 11
601.9304024934
 21
159.6434803447
 31
0.0
  0
ARC
  5
77
330
1F
100
AcDbEntity
  8
0
  6
Continuous
 62
     7
100
AcDbCircle
 10
601.2600387581
 20
151.4177929071
 30
0.0
 40
1.500000000000114
100
AcDbArc
 50
332.4879973761
 51
0.0
  0
ARC
  5
78
330
1F
100
AcDbEntity
  8
0
  6
Continuous
 62
     7
100
AcDbCircle
 10
601.2600387581
 20
157.6833645258
 30
0.0
 40
1.500000000000033
100
AcDbArc
 50
0.0
 51
27.5120026239
  0
LINE
  5
79
330
1F
100
AcDbEntity
  8
0
  6
Continuous
 62
     7
100
AcDbLine
 10
596.2600387581
 20
157.5505787164
 30
0.0
 11
589.0600387581
 21
157.5505787164
 31
0.0
  0
LINE
  5
7A
330
1F
100
AcDbEntity
  8
0
  6
Continuous
 62
     7
100
AcDbLine
 10
589.0600387581
 20
151.5505787164
 30
0.0
 11
596.2600387581
 21
151.5505787164
 31
0.0
  0
LINE
  5
7B
330
1F
100
AcDbEntity
  8
0
  6
Continuous
 62
     7
100
AcDbLine
 10
589.0600387581
 20
157.5505787164
 30
0.0
 11
588.5600387581
 21
157.0505787164
 31
0.0
  0
LINE
  5
7C
330
1F
100
AcDbEntity
  8
0
  6
Continuous
 62
     7
100
AcDbLine
 10
588.5600387581
 20
152.0505787164
 30
0.0
 11
589.0600387581
 21
151.5505787164
 31
0.0
  0
LINE
  5
7D
330
1F
100
AcDbEntity
  8
0
  6
Continuous
 62
     7
100
AcDbLine
 10
1503.2600387581
 20
130.0505787165
 30
0.0
 11
1503.2600387581
 21
137.1005787165
 31
0.0
  0
LINE
  5
7E
330
1F
100
AcDbEntity
  8
0
  6
Continuous
 62
     7
100
AcDbLine
 10
596.2600387581
 20
130.0505787164
 30
0.0
 11
1503.2600387581
 21
130.0505787165
 31
0.0
  0
LINE
  5
7F
330
1F
100
AcDbEntity
  8
0
  6
Continuous
 62
     7
100
AcDbLine
 10
596.2600387581
 20
137.1005787164
 30
0.0
 11
596.2600387581
 21
130.0505787164
 31
0.0
  0
LINE
  5
80
330
1F
100
AcDbEntity
  8
0
  6
Continuous
 62
     7
100
AcDbLine
 10
1503.2600387581
 20
137.1005787165
 30
0.0
 11
596.2600387581
 21
137.1005787164
 31
0.0
  0
LINE
  5
81
330
1F
100
AcDbEntity
  8
0
  6
Continuous
 62
     7
100
AcDbLine
 10
1500.7600387581
 20
141.5505787165
 30
0.0
 11
598.7600387581
 21
141.5505787164
 31
0.0
  0
LINE
  5
82
330
1F
100
AcDbEntity
  8
0
  6
Continuous
 62
     7
100
AcDbLine
 10
1500.7600387581
 20
139.0505787165
 30
0.0
 11
1500.7600387581
 21
141.5505787165
 31
0.0
  0
LINE
  5
83
330
1F
100
AcDbEntity
  8
0
  6
Continuous
 62
     7
100
AcDbLine
 10
1500.7600387581
 20
139.0505787165
 30
0.0
 11
1503.2600387581
 21
139.0505787165
 31
0.0
  0
LINE
  5
84
330
1F
100
AcDbEntity
  8
0
  6
Continuous
 62
     7
100
AcDbLine
 10
596.2600387581
 20
139.0505787164
 30
0.0
 11
598.7600387581
 21
139.0505787164
 31
0.0
  0
LINE
  5
85
330
1F
100
AcDbEntity
  8
0
  6
Continuous
 62
     7
100
AcDbLine
 10
598.7600387581
 20
139.0505787164
 30
0.0
 11
598.7600387581
 21
141.5505787164
 31
0.0
  0
LINE
  5
86
330
1F
100
AcDbEntity
  8
0
  6
Continuous
 62
     7
100
AcDbLine
 10
1503.2600387581
 20
139.0505787165
 30
0.0
 11
1503.2600387581
 21
137.1005787165
 31
0.0
  0
LINE
  5
87
330
1F
100
AcDbEntity
  8
0
  6
Continuous
 62
     7
100
AcDbLine
 10
596.2600387581
 20
137.1005787164
 30
0.0
 11
596.2600387581
 21
139.0505787164
 31
0.0
  0
LINE
  5
88
330
1F
100
AcDbEntity
  8
0
  6
Continuous
 62
     7
100
AcDbLine
 10
596.2600387581
 20
142.5505787164
 30
0.0
 11
596.2600387581
 21
140.0505787164
 31
0.0
  0
LINE
  5
89
330
1F
100
AcDbEntity
  8
0
  6
Continuous
 62
     7
100
AcDbLine
 10
597.7600387581
 20
142.5505787164
 30
0.0
 11
596.2600387581
 21
142.5505787164
 31
0.0
  0
LINE
  5
8A
330
1F
100
AcDbEntity
  8
0
  6
Continuous
 62
     7
100
AcDbLine
 10
597.7600387581
 20
142.5505787164
 30
0.0
 11
597.7600387581
 21
141.5505787164
 31
0.0
  0
LINE
  5
8B
330
1F
100
AcDbEntity
  8
0
  6
Continuous
 62
     7
100
AcDbLine
 10
598.7600387581
 20
140.0505787164
 30
0.0
 11
596.2600387581
 21
140.0505787164
 31
0.0
  0
LINE
  5
8C
330
1F
100
AcDbEntity
  8
0
  6
Continuous
 62
     7
100
AcDbLine
 10
598.7600387581
 20
141.5505787164
 30
0.0
 11
597.7600387581
 21
141.5505787164
 31
0.0
  0
LINE
  5
8D
330
1F
100
AcDbEntity
  8
0
  6
Continuous
 62
     7
100
AcDbLine
 10
596.2600387581
 20
158.5505787164
 30
0.0
 11
597.7600387581
 21
158.5505787164
 31
0.0
  0
LINE
  5
8E
330
1F
100
AcDbEntity
  8
0
  6
Continuous
 62
     7
100
AcDbLine
 10
596.2600387581
 20
158.5505787164
 30
0.0
 11
596.2600387581
 21
161.5505787164
 31
0.0
  0
LINE
  5
8F
330
1F
100
AcDbEntity
  8
0
  6
Continuous
 62
     7
100
AcDbLine
 10
596.2600387581
 20
161.5505787164
 30
0.0
 11
597.7600387581
 21
161.5505787164
 31
0.0
  0
LINE
  5
90
330
1F
100
AcDbEntity
  8
0
  6
Continuous
 62
     7
100
AcDbLine
 10
597.7600387581
 20
158.5505787164
 30
0.0
 11
597.7600387581
 21
161.5505787164
 31
0.0
  0
LINE
  5
91
330
1F
100
AcDbEntity
  8
0
  6
Continuous
 62
     7
100
AcDbLine
 10
596.2600387581
 20
142.5505787164
 30
0.0
 11
596.2600387581
 21
158.5505787164
 31
0.0
  0
LINE
  5
92
330
1F
100
AcDbEntity
  8
0
  6
Continuous
 62
     7
100
AcDbLine
 10
597.7600387581
 20
142.5505787164
 30
0.0
 11
597.7600387581
 21
158.5505787164
 31
0.0
  0
LINE
  5
93
330
1F
100
AcDbEntity
  8
0
  6
Continuous
 62
     7
100
AcDbLine
 10
1503.2600387581
 20
142.5505787165
 30
0.0
 11
1503.2600387581
 21
140.0505787165
 31
0.0
  0
LINE
  5
94
330
1F
100
AcDbEntity
  8
0
  6
Continuous
 62
     7
100
AcDbLine
 10
1501.7600387581
 20
142.5505787165
 30
0.0
 11
1501.7600387581
 21
141.5505787165
 31
0.0
  0
LINE
  5
95
330
1F
100
AcDbEntity
  8
0
  6
Continuous
 62
     7
100
AcDbLine
 10
1501.7600387581
 20
142.5505787165
 30
0.0
 11
1503.2600387581
 21
142.5505787165
 31
0.0
  0
LINE
  5
96
330
1F
100
AcDbEntity
  8
0
  6
Continuous
 62
     7
100
AcDbLine
 10
1500.7600387581
 20
140.0505787165
 30
0.0
 11
1503.2600387581
 21
140.0505787165
 31
0.0
  0
LINE
  5
97
330
1F
100
AcDbEntity
  8
0
  6
Continuous
 62
     7
100
AcDbLine
 10
1500.7600387581
 20
141.5505787165
 30
0.0
 11
1501.7600387581
 21
141.5505787165
 31
0.0
  0
LINE
  5
98
330
1F
100
AcDbEntity
  8
0
  6
Continuous
 62
     7
100
AcDbLine
 10
1503.2600387581
 20
161.5505787165
 30
0.0
 11
1501.7600387581
 21
161.5505787165
 31
0.0
  0
LINE
  5
99
330
1F
100
AcDbEntity
  8
0
  6
Continuous
 62
     7
100
AcDbLine
 10
1503.2600387581
 20
161.5505787165
 30
0.0
 11
1503.2600387581
 21
158.5505787165
 31
0.0
  0
LINE
  5
9A
330
1F
100
AcDbEntity
  8
0
  6
Continuous
 62
     7
100
AcDbLine
 10
1503.2600387581
 20
158.5505787165
 30
0.0
 11
1501.7600387581
 21
158.5505787165
 31
0.0
  0
LINE
  5
9B
330
1F
100
AcDbEntity
  8
0
  6
Continuous
 62
     7
100
AcDbLine
 10
1501.7600387581
 20
161.5505787165
 30
0.0
 11
1501.7600387581
 21
158.5505787165
 31
0.0
  0
LINE
  5
9C
330
1F
100
AcDbEntity
  8
0
  6
Continuous
 62
     7
100
AcDbLine
 10
1501.7600387581
 20
158.5505787165
 30
0.0
 11
1501.7600387581
 21
142.5505787165
 31
0.0
  0
LINE
  5
9D
330
1F
100
AcDbEntity
  8
0
  6
Continuous
 62
     7
100
AcDbLine
 10
1503.2600387581
 20
158.5505787165
 30
0.0
 11
1503.2600387581
 21
142.5505787165
 31
0.0
  0
LINE
  5
9E
330
1F
100
AcDbEntity
  8
0
  6
Continuous
 62
     7
100
AcDbLine
 10
552.2600387581
 20
124.5505787164
 30
0.0
 11
552.2600387581
 21
136.5505787164
 31
0.0
  0
LINE
  5
9F
330
1F
100
AcDbEntity
  8
0
  6
Continuous
 62
     7
100
AcDbLine
 10
577.2600387581
 20
136.5505787164
 30
0.0
 11
552.2600387581
 21
136.5505787164
 31
0.0
  0
ARC
  5
A0
330
1F
100
AcDbEntity
  8
0
  6
Continuous
 62
     7
100
AcDbCircle
 10
577.2600387581
 20
133.5505787164
 30
0.0
 40
3.0
100
AcDbArc
 50
0.0
 51
90.0
  0
LINE
  5
A1
330
1F
100
AcDbEntity
  8
0
  6
Continuous
 62
     7
100
AcDbLine
 10
580.2600387581
 20
133.5505787164
 30
0.0
 11
580.2600387581
 21
132.0505787164
 31
0.0
  0
ARC
  5
A2
330
1F
100
AcDbEntity
  8
0
  6
Continuous
 62
     7
100
AcDbCircle
 10
583.2600387581
 20
132.0505787164
 30
0.0
 40
3.0
100
AcDbArc
 50
180.0
 51
270.0
  0
LINE
  5
A3
330
1F
100
AcDbEntity
  8
0
  6
Continuous
 62
     7
100
AcDbLine
 10
583.2600387581
 20
129.0505787164
 30
0.0
 11
595.2600387581
 21
129.0505787164
 31
0.0
  0
ARC
  5
A4
330
1F
100
AcDbEntity
  8
0
  6
Continuous
 62
     7
100
AcDbCircle
 10
595.2600387581
 20
132.0505787164
 30
0.0
 40
3.0
100
AcDbArc
 50
270.0
 51
318.1896851042
  0
ARC
  5
A5
330
1F
100
AcDbEntity
  8
0
  6
Continuous
 62
     7
100
AcDbCircle
 10
1504.2600387581
 20
132.0505787165
 30
0.0
 40
3.000000000000056
100
AcDbArc
 50
221.8103148958
 51
270.0
  0
LINE
  5
A6
330
1F
100
AcDbEntity
  8
0
  6
Continuous
 62
     7
100
AcDbLine
 10
1504.2600387581
 20
129.0505787165
 30
0.0
 11
1516.2600387581
 21
129.0505787165
 31
0.0
  0
ARC
  5
A7
330
1F
100
AcDbEntity
  8
0
  6
Continuous
 62
     7
100
AcDbCircle
 10
1516.2600387581
 20
132.0505787165
 30
0.0
 40
3.0
100
AcDbArc
 50
270.0
 51
0.0
  0
LINE
  5
A8
330
1F
100
AcDbEntity
  8
0
  6
Continuous
 62
     7
100
AcDbLine
 10
1519.2600387581
 20
132.0505787165
 30
0.0
 11
1519.2600387581
 21
133.5505787165
 31
0.0
  0
ARC
  5
A9
330
1F
100
AcDbEntity
  8
0
  6
Continuous
 62
     7
100
AcDbCircle
 10
1522.2600387581
 20
133.5505787165
 30
0.0
 40
3.000000000000227
100
AcDbArc
 50
90.0
 51
180.0
  0
LINE
  5
AA
330
1F
100
AcDbEntity
  8
0
  6
Continuous
 62
     7
100
AcDbLine
 10
1547.2600387581
 20
136.5505787165
 30
0.0
 11
1522.2600387581
 21
136.5505787165
 31
0.0
  0
LINE
  5
AB
330
1F
100
AcDbEntity
  8
0
  6
Continuous
 62
     7
100
AcDbLine
 10
1547.2600387581
 20
124.5505787165
 30
0.0
 11
1547.2600387581
 21
136.5505787165
 31
0.0
  0
LINE
  5
AC
330
1F
100
AcDbEntity
  8
0
  6
Continuous
 62
     7
100
AcDbLine
 10
552.2600387581
 20
124.5505787164
 30
0.0
 11
1547.2600387581
 21
124.5505787165
 31
0.0
  0
LINE
  5
AD
330
1F
100
AcDbEntity
  8
0
  6
Continuous
 62
     7
100
AcDbLine
 10
597.7600387581
 20
161.5505787164
 30
0.0
 11
1501.7600387581
 21
161.5505787165
 31
0.0
  0
LINE
  5
AE
330
1F
100
AcDbEntity
  8
0
  6
Continuous
 62
     7
100
AcDbLine
 10
1503.0100387581
 20
162.1505787165
 30
0.0
 11
1503.0100387581
 21
161.5505787165
 31
0.0
  0
LINE
  5
AF
330
1F
100
AcDbEntity
  8
0
  6
Continuous
 62
     7
100
AcDbLine
 10
596.5100387581
 20
161.5505787164
 30
0.0
 11
596.5100387581
 21
162.1505787164
 31
0.0
  0
LINE
  5
B0
330
1F
100
AcDbEntity
  8
0
  6
Continuous
 62
     7
100
AcDbLine
 10
596.5100387581
 20
162.1505787164
 30
0.0
 11
1503.0100387581
 21
162.1505787165
 31
0.0
  0
LINE
  5
B1
330
1F
100
AcDbEntity
  8
0
  6
Continuous
 62
     7
100
AcDbLine
 10
577.2600387581
 20
136.5505787164
 30
0.0
 11
596.2600387581
 21
136.5505787164
 31
0.0
  0
LINE
  5
B2
330
1F
100
AcDbEntity
  8
0
  6
Continuous
 62
     7
100
AcDbLine
 10
1503.2600387581
 20
136.5505787165
 30
0.0
 11
1522.2600387581
 21
136.5505787165
 31
0.0
  0
LINE
  5
B3
330
1F
100
AcDbEntity
  8
0
  6
Continuous
 62
     7
100
AcDbLine
 10
1496.7600387581
 20
157.6833645258
 30
0.0
 11
1496.7600387581
 21
151.4177929071
 31
0.0
  0
LINE
  5
B4
330
1F
100
AcDbEntity
  8
0
  6
Continuous
 62
     7
100
AcDbLine
 10
1510.4600387581
 20
157.5505787165
 30
0.0
 11
1510.4600387581
 21
151.5505787165
 31
0.0
  0
LINE
  5
B5
330
1F
100
AcDbEntity
  8
0
  6
Continuous
 62
     7
100
AcDbLine
 10
1510.9600387581
 20
157.0505787165
 30
0.0
 11
1510.9600387581
 21
152.0505787165
 31
0.0
  0
LINE
  5
B6
330
1F
100
AcDbEntity
  8
0
  6
Continuous
 62
     7
100
AcDbLine
 10
602.7600387581
 20
151.4177929071
 30
0.0
 11
602.7600387581
 21
157.6833645258
 31
0.0
  0
LINE
  5
B7
330
1F
100
AcDbEntity
  8
0
  6
Continuous
 62
     7
100
AcDbLine
 10
589.0600387581
 20
151.5505787164
 30
0.0
 11
589.0600387581
 21
157.5505787164
 31
0.0
  0
LINE
  5
B8
330
1F
100
AcDbEntity
  8
0
  6
Continuous
 62
     7
100
AcDbLine
 10
588.5600387581
 20
152.0505787164
 30
0.0
 11
588.5600387581
 21
157.0505787164
 31
0.0
  0
ARC
  5
B9
330
1F
100
AcDbEntity
  8
0
  6
Continuous
 62
     7
100
AcDbCircle
 10
1462.2600387581
 20
161.4547802724
 30
0.0
 40
4.154201555956305
100
AcDbArc
 50
254.0367205383
 51
285.9632794618
  0
ARC
  5
BA
330
1F
100
AcDbEntity
  8
0
  6
Continuous
 62
     7
100
AcDbCircle
 10
1461.0350387581
 20
157.1723409557
 30
0.0
 40
0.3000000000004768
100
AcDbArc
 50
74.0367205383
 51
165.9632794618
  0
ARC
  5
BB
330
1F
100
AcDbEntity
  8
0
  6
Continuous
 62
     7
100
AcDbCircle
 10
1456.7138375197
 20
158.2526794944
 30
0.0
 40
4.154201555956397
100
AcDbArc
 50
314.0367205383
 51
345.9632794618
  0
ARC
  5
BC
330
1F
100
AcDbEntity
  8
0
  6
Continuous
 62
     7
100
AcDbCircle
 10
1459.8100387581
 20
155.0505787165
 30
0.0
 40
0.3000000000005744
100
AcDbArc
 50
134.0367205383
 51
225.9632794618
  0
ARC
  5
BD
330
1F
100
AcDbEntity
  8
0
  6
Continuous
 62
     7
100
AcDbCircle
 10
1456.7138375197
 20
151.8484779385
 30
0.0
 40
4.154201555956307
100
AcDbArc
 50
14.0367205383
 51
45.9632794617
  0
ARC
  5
BE
330
1F
100
AcDbEntity
  8
0
  6
Continuous
 62
     7
100
AcDbCircle
 10
1461.0350387581
 20
152.9288164772
 30
0.0
 40
0.3000000000007181
100
AcDbArc
 50
194.0367205383
 51
285.9632794617
  0
ARC
  5
BF
330
1F
100
AcDbEntity
  8
0
  6
Continuous
 62
     7
100
AcDbCircle
 10
1462.2600387581
 20
148.6463771605
 30
0.0
 40
4.154201555956223
100
AcDbArc
 50
74.0367205383
 51
105.9632794618
  0
ARC
  5
C0
330
1F
100
AcDbEntity
  8
0
  6
Continuous
 62
     7
100
AcDbCircle
 10
1463.4850387581
 20
152.9288164772
 30
0.0
 40
0.3000000000007043
100
AcDbArc
 50
254.0367205383
 51
345.9632794618
  0
ARC
  5
C1
330
1F
100
AcDbEntity
  8
0
  6
Continuous
 62
     7
100
AcDbCircle
 10
1467.8062399965
 20
151.8484779385
 30
0.0
 40
4.154201555956218
100
AcDbArc
 50
134.0367205383
 51
165.9632794618
  0
ARC
  5
C2
330
1F
100
AcDbEntity
  8
0
  6
Continuous
 62
     7
100
AcDbCircle
 10
1464.7100387581
 20
155.0505787165
 30
0.0
 40
0.2999999999998497
100
AcDbArc
 50
314.0367205383
 51
45.9632794617
  0
ARC
  5
C3
330
1F
100
AcDbEntity
  8
0
  6
Continuous
 62
     7
100
AcDbCircle
 10
1467.8062399965
 20
158.2526794944
 30
0.0
 40
4.154201555956369
100
AcDbArc
 50
194.0367205382
 51
225.9632794617
  0
ARC
  5
C4
330
1F
100
AcDbEntity
  8
0
  6
Continuous
 62
     7
100
AcDbCircle
 10
1463.4850387581
 20
157.1723409557
 30
0.0
 40
0.3000000000004837
100
AcDbArc
 50
14.0367205383
 51
105.9632794617
  0
CIRCLE
  5
C5
330
1F
100
AcDbEntity
  8
0
  6
Continuous
 62
     7
100
AcDbCircle
 10
1462.2600387581
 20
155.0505787165
 30
0.0
 40
3.13278580934363
  0
CIRCLE
  5
C6
330
1F
100
AcDbEntity
  8
0
  6
Continuous
 62
     7
100
AcDbCircle
 10
1462.2600387581
 20
155.0505787165
 30
0.0
 40
3.825687437599072
  0
CIRCLE
  5
C7
330
1F
100
AcDbEntity
  8
0
  6
Continuous
 62
     7
100
AcDbCircle
 10
1462.2600387581
 20
155.0505787165
 30
0.0
 40
5.092901628255447
  0
CIRCLE
  5
C8
330
1F
100
AcDbEntity
  8
0
  6
Continuous
 62
     7
100
AcDbCircle
 10
1462.2600387581
 20
155.0505787165
 30
0.0
 40
5.899999999999977
  0
CIRCLE
  5
C9
330
1F
100
AcDbEntity
  8
0
  6
Continuous
 62
     7
100
AcDbCircle
 10
637.2600387581
 20
155.0505787164
 30
0.0
 40
3.82568743759909
  0
CIRCLE
  5
CA
330
1F
100
AcDbEntity
  8
0
  6
Continuous
 62
     7
100
AcDbCircle
 10
637.2600387581
 20
155.0505787164
 30
0.0
 40
3.132785809343659
  0
ARC
  5
CB
330
1F
100
AcDbEntity
  8
0
  6
Continuous
 62
     7
100
AcDbCircle
 10
636.5632765419
 20
148.6843930466
 30
0.0
 40
4.154201555956261
100
AcDbArc
 50
67.7907092989
 51
99.7172682224
  0
ARC
  5
CC
330
1F
100
AcDbEntity
  8
0
  6
Continuous
 62
     7
100
AcDbCircle
 10
638.2469242629
 20
152.8081342912
 30
0.0
 40
0.3000000000005011
100
AcDbArc
 50
247.7907092989
 51
339.7172682224
  0
ARC
  5
CD
330
1F
100
AcDbEntity
  8
0
  6
Continuous
 62
     7
100
AcDbCircle
 10
639.6954953493
 20
154.7840244216
 30
0.0
 40
0.3000000000005518
100
AcDbArc
 50
307.7907092989
 51
39.7172682224
  0
ARC
  5
CE
330
1F
100
AcDbEntity
  8
0
  6
Continuous
 62
     7
100
AcDbCircle
 10
638.7086098445
 20
157.0264688469
 30
0.0
 40
0.3000000000005852
100
AcDbArc
 50
7.7907092989
 51
99.7172682224
  0
ARC
  5
CF
330
1F
100
AcDbEntity
  8
0
  6
Continuous
 62
     7
100
AcDbCircle
 10
632.0951413509
 20
158.837085331
 30
0.0
 40
4.154201555956272
100
AcDbArc
 50
307.7907092989
 51
339.7172682224
  0
ARC
  5
D0
330
1F
100
AcDbEntity
  8
0
  6
Continuous
 62
     7
100
AcDbCircle
 10
634.8245821668
 20
155.3171330113
 30
0.0
 40
0.2999999999998751
100
AcDbArc
 50
127.790709299
 51
219.7172682224
  0
ARC
  5
D1
330
1F
100
AcDbEntity
  8
0
  6
Continuous
 62
     7
100
AcDbCircle
 10
631.3983791346
 20
152.4708996611
 30
0.0
 40
4.154201555956329
100
AcDbArc
 50
7.7907092989
 51
39.7172682224
  0
ARC
  5
D2
330
1F
100
AcDbEntity
  8
0
  6
Continuous
 62
     7
100
AcDbCircle
 10
635.8114676716
 20
153.074688586
 30
0.0
 40
0.3000000000005334
100
AcDbArc
 50
187.7907092989
 51
279.7172682224
  0
ARC
  5
D3
330
1F
100
AcDbEntity
  8
0
  6
Continuous
 62
     7
100
AcDbCircle
 10
636.2731532533
 20
157.2930231417
 30
0.0
 40
0.3000000000005544
100
AcDbArc
 50
67.7907092989
 51
159.7172682224
  0
ARC
  5
D4
330
1F
100
AcDbEntity
  8
0
  6
Continuous
 62
     7
100
AcDbCircle
 10
637.9568009743
 20
161.4167643863
 30
0.0
 40
4.154201555956249
100
AcDbArc
 50
247.7907092989
 51
279.7172682224
  0
ARC
  5
D5
330
1F
100
AcDbEntity
  8
0
  6
Continuous
 62
     7
100
AcDbCircle
 10
643.1216983815
 20
157.6302577717
 30
0.0
 40
4.154201555956422
100
AcDbArc
 50
187.7907092989
 51
219.7172682224
  0
ARC
  5
D6
330
1F
100
AcDbEntity
  8
0
  6
Continuous
 62
     7
100
AcDbCircle
 10
642.4249361653
 20
151.2640721019
 30
0.0
 40
4.154201555956314
100
AcDbArc
 50
127.7907092989
 51
159.7172682224
  0
CIRCLE
  5
D7
330
1F
100
AcDbEntity
  8
0
  6
Continuous
 62
     7
100
AcDbCircle
 10
637.2600387581
 20
155.0505787164
 30
0.0
 40
5.092901628255423
  0
CIRCLE
  5
D8
330
1F
100
AcDbEntity
  8
0
  6
Continuous
 62
     7
100
AcDbCircle
 10
637.2600387581
 20
155.0505787164
 30
0.0
 40
5.899999999999967
  0
CIRCLE
  5
D9
330
1F
100
AcDbEntity
  8
0
  6
Continuous
 62
     7
100
AcDbCircle
 10
912.2600387581
 20
155.0505787164
 30
0.0
 40
3.82568743759911
  0
CIRCLE
  5
DA
330
1F
100
AcDbEntity
  8
0
  6
Continuous
 62
     7
100
AcDbCircle
 10
912.2600387581
 20
155.0505787164
 30
0.0
 40
3.132785809343642
  0
ARC
  5
DB
330
1F
100
AcDbEntity
  8
0
  6
Continuous
 62
     7
100
AcDbCircle
 10
912.0941645196
 20
148.6485256624
 30
0.0
 40
4.15420155595624
100
AcDbArc
 50
72.5525453992
 51
104.4791043227
  0
ARC
  5
DC
330
1F
100
AcDbEntity
  8
0
  6
Continuous
 62
     7
100
AcDbCircle
 10
913.4296723541
 20
152.8977997563
 30
0.0
 40
0.3000000000006026
100
AcDbArc
 50
252.5525453992
 51
344.4791043227
  0
ARC
  5
DD
330
1F
100
AcDbEntity
  8
0
  6
Continuous
 62
     7
100
AcDbCircle
 10
917.72144222
 20
151.7059008851
 30
0.0
 40
4.154201555956386
100
AcDbArc
 50
132.5525453992
 51
164.4791043227
  0
ARC
  5
DE
330
1F
100
AcDbEntity
  8
0
  6
Continuous
 62
     7
100
AcDbCircle
 10
914.7092168243
 20
154.9871216437
 30
0.0
 40
0.3000000000005662
100
AcDbArc
 50
312.5525453992
 51
44.4791043227
  0
ARC
  5
DF
330
1F
100
AcDbEntity
  8
0
  6
Continuous
 62
     7
100
AcDbCircle
 10
917.8873164585
 20
158.1079539391
 30
0.0
 40
4.154201555956289
100
AcDbArc
 50
192.5525453992
 51
224.4791043227
  0
ARC
  5
E0
330
1F
100
AcDbEntity
  8
0
  6
Continuous
 62
     7
100
AcDbCircle
 10
913.5395832282
 20
157.1399006038
 30
0.0
 40
0.3000000000006767
100
AcDbArc
 50
12.5525453992
 51
104.4791043227
  0
ARC
  5
E1
330
1F
100
AcDbEntity
  8
0
  6
Continuous
 62
     7
100
AcDbCircle
 10
912.4259129965
 20
161.4526317705
 30
0.0
 40
4.154201555956275
100
AcDbArc
 50
252.5525453992
 51
284.4791043227
  0
ARC
  5
E2
330
1F
100
AcDbEntity
  8
0
  6
Continuous
 62
     7
100
AcDbCircle
 10
911.0904051621
 20
157.2033576765
 30
0.0
 40
0.3000000000005874
100
AcDbArc
 50
72.5525453993
 51
164.4791043227
  0
ARC
  5
E3
330
1F
100
AcDbEntity
  8
0
  6
Continuous
 62
     7
100
AcDbCircle
 10
906.7986352962
 20
158.3952565478
 30
0.0
 40
4.154201555956232
100
AcDbArc
 50
312.5525453992
 51
344.4791043227
  0
ARC
  5
E4
330
1F
100
AcDbEntity
  8
0
  6
Continuous
 62
     7
100
AcDbCircle
 10
909.8108606919
 20
155.1140357892
 30
0.0
 40
0.2999999999999047
100
AcDbArc
 50
132.5525453992
 51
224.4791043227
  0
ARC
  5
E5
330
1F
100
AcDbEntity
  8
0
  6
Continuous
 62
     7
100
AcDbCircle
 10
906.6327610577
 20
151.9932034938
 30
0.0
 40
4.154201555956427
100
AcDbArc
 50
12.5525453992
 51
44.4791043227
  0
ARC
  5
E6
330
1F
100
AcDbEntity
  8
0
  6
Continuous
 62
     7
100
AcDbCircle
 10
910.9804942879
 20
152.9612568291
 30
0.0
 40
0.3000000000005595
100
AcDbArc
 50
192.5525453992
 51
284.4791043227
  0
CIRCLE
  5
E7
330
1F
100
AcDbEntity
  8
0
  6
Continuous
 62
     7
100
AcDbCircle
 10
912.2600387581
 20
155.0505787164
 30
0.0
 40
5.092901628255436
  0
CIRCLE
  5
E8
330
1F
100
AcDbEntity
  8
0
  6
Continuous
 62
     7
100
AcDbCircle
 10
912.2600387581
 20
155.0505787164
 30
0.0
 40
5.9
  0
CIRCLE
  5
E9
330
1F
100
AcDbEntity
  8
0
  6
Continuous
 62
     7
100
AcDbCircle
 10
1187.2600387581
 20
155.0505787164
 30
0.0
 40
3.825687437599094
  0
CIRCLE
  5
EA
330
1F
100
AcDbEntity
  8
0
  6
Continuous
 62
     7
100
AcDbCircle
 10
1187.2600387581
 20
155.0505787164
 30
0.0
 40
3.132785809343591
  0
ARC
  5
EB
330
1F
100
AcDbEntity
  8
0
  6
Continuous
 62
     7
100
AcDbCircle
 10
1192.1457579992
 20
150.9101022866
 30
0.0
 40
4.154201555956408
100
AcDbArc
 50
123.7566090619
 51
155.6831679854
  0
ARC
  5
EC
330
1F
100
AcDbEntity
  8
0
  6
Continuous
 62
     7
100
AcDbCircle
 10
1189.6707090172
 20
154.6133500555
 30
0.0
 40
0.3000000000005205
100
AcDbArc
 50
303.7566090619
 51
35.6831679854
  0
ARC
  5
ED
330
1F
100
AcDbEntity
  8
0
  6
Continuous
 62
     7
100
AcDbCircle
 10
1193.2886561507
 20
157.2114974801
 30
0.0
 40
4.154201555956382
100
AcDbArc
 50
183.7566090619
 51
215.6831679854
  0
ARC
  5
EE
330
1F
100
AcDbEntity
  8
0
  6
Continuous
 62
     7
100
AcDbCircle
 10
1184.849368499
 20
155.4878073774
 30
0.0
 40
0.3000000000004969
100
AcDbArc
 50
123.7566090619
 51
215.6831679854
  0
ARC
  5
EF
330
1F
100
AcDbEntity
  8
0
  6
Continuous
 62
     7
100
AcDbCircle
 10
1182.374319517
 20
159.1910551463
 30
0.0
 40
4.154201555956345
100
AcDbArc
 50
303.7566090619
 51
335.6831679854
  0
ARC
  5
F0
330
1F
100
AcDbEntity
  8
0
  6
Continuous
 62
     7
100
AcDbCircle
 10
1186.4333547562
 20
157.3568947315
 30
0.0
 40
0.3000000000005825
100
AcDbArc
 50
63.7566090619
 51
155.6831679854
  0
ARC
  5
F1
330
1F
100
AcDbEntity
  8
0
  6
Continuous
 62
     7
100
AcDbCircle
 10
1188.8440250153
 20
156.9196660705
 30
0.0
 40
0.3000000000005394
100
AcDbArc
 50
3.7566090619
 51
95.6831679854
  0
ARC
  5
F2
330
1F
100
AcDbEntity
  8
0
  6
Continuous
 62
     7
100
AcDbCircle
 10
1185.6760525009
 20
153.1814913624
 30
0.0
 40
0.2999999999998911
100
AcDbArc
 50
183.7566090619
 51
275.6831679854
  0
ARC
  5
F3
330
1F
100
AcDbEntity
  8
0
  6
Continuous
 62
     7
100
AcDbCircle
 10
1188.4029369095
 20
161.35197391
 30
0.0
 40
4.15420155595628
100
AcDbArc
 50
243.7566090619
 51
275.6831679854
  0
ARC
  5
F4
330
1F
100
AcDbEntity
  8
0
  6
Continuous
 62
     7
100
AcDbCircle
 10
1186.1171406066
 20
148.7491835229
 30
0.0
 40
4.154201555956365
100
AcDbArc
 50
63.7566090619
 51
95.6831679854
  0
ARC
  5
F5
330
1F
100
AcDbEntity
  8
0
  6
Continuous
 62
     7
100
AcDbCircle
 10
1188.0867227599
 20
152.7442627014
 30
0.0
 40
0.300000000000632
100
AcDbArc
 50
243.7566090619
 51
335.6831679854
  0
ARC
  5
F6
330
1F
100
AcDbEntity
  8
0
  6
Continuous
 62
     7
100
AcDbCircle
 10
1181.2314213655
 20
152.8896599528
 30
0.0
 40
4.154201555956299
100
AcDbArc
 50
3.7566090619
 51
35.6831679854
  0
CIRCLE
  5
F7
330
1F
100
AcDbEntity
  8
0
  6
Continuous
 62
     7
100
AcDbCircle
 10
1187.2600387581
 20
155.0505787164
 30
0.0
 40
5.092901628255395
  0
CIRCLE
  5
F8
330
1F
100
AcDbEntity
  8
0
  6
Continuous
 62
     7
100
AcDbCircle
 10
1187.2600387581
 20
155.0505787164
 30
0.0
 40
5.900000000000142
  0
LINE
  5
F9
330
1F
100
AcDbEntity
  8
0
  6
Continuous
 62
     7
100
AcDbLine
 10
1498.920046149
 20
160.4505787165
 30
0.0
 11
1498.920046149
 21
148.6505787165
 31
0.0
  0
LINE
  5
FA
330
1F
100
AcDbEntity
  8
0
  6
Continuous
 62
     7
100
AcDbLine
 10
1497.5896750228
 20
159.6434803447
 30
0.0
 11
1497.5896750228
 21
149.4576770882
 31
0.0
  0
LINE
  5
FB
330
1F
100
AcDbEntity
  8
0
  6
Continuous
 62
     7
100
AcDbLine
 10
1496.9296676318
 20
158.3762661541
 30
0.0
 11
1496.9296676318
 21
150.7248912789
 31
0.0
  0
LINE
  5
FC
330
1F
100
AcDbEntity
  8
0
  6
Continuous
 62
     7
100
AcDbLine
 10
600.6000313671
 20
148.6505787164
 30
0.0
 11
600.6000313671
 21
160.4505787164
 31
0.0
  0
LINE
  5
FD
330
1F
100
AcDbEntity
  8
0
  6
Continuous
 62
     7
100
AcDbLine
 10
601.9304024934
 20
149.4576770882
 30
0.0
 11
601.9304024934
 21
159.6434803447
 31
0.0
  0
LINE
  5
FE
330
1F
100
AcDbEntity
  8
0
  6
Continuous
 62
     7
100
AcDbLine
 10
602.5904098843
 20
150.7248912788
 30
0.0
 11
602.5904098843
 21
158.376266154
 31
0.0
  0
LINE
  5
FF
330
1F
100
AcDbEntity
  8
0
  6
Continuous
 62
     7
100
AcDbLine
 10
492.2001540219
 20
152.0505787165
 30
0.0
 11
498.0001540219
 21
152.0505787165
 31
0.0
  0
LINE
  5
100
330
1F
100
AcDbEntity
  8
0
  6
Continuous
 62
     7
100
AcDbLine
 10
498.0001540219
 20
158.0505787165
 30
0.0
 11
492.2001540219
 21
158.0505787165
 31
0.0
  0
LINE
  5
101
330
1F
100
AcDbEntity
  8
0
  6
Continuous
 62
     7
100
AcDbLine
 10
498.0001540219
 20
152.0505787165
 30
0.0
 11
498.5001540219
 21
152.5505787165
 31
0.0
  0
LINE
  5
102
330
1F
100
AcDbEntity
  8
0
  6
Continuous
 62
     7
100
AcDbLine
 10
498.5001540219
 20
157.5505787165
 30
0.0
 11
498.0001540219
 21
158.0505787165
 31
0.0
  0
LINE
  5
103
330
1F
100
AcDbEntity
  8
0
  6
Continuous
 62
     7
100
AcDbLine
 10
522.8001540219
 20
136.5505787165
 30
0.0
 11
479.8001540219
 21
136.5505787165
 31
0.0
  0
LINE
  5
104
330
1F
100
AcDbEntity
  8
0
  6
Continuous
 62
     7
100
AcDbLine
 10
522.8001540219
 20
124.5505787165
 30
0.0
 11
522.8001540219
 21
136.5505787165
 31
0.0
  0
LINE
  5
105
330
1F
100
AcDbEntity
  8
0
  6
Continuous
 62
     7
100
AcDbLine
 10
479.8001540219
 20
124.5505787165
 30
0.0
 11
479.8001540219
 21
136.5505787165
 31
0.0
  0
LINE
  5
106
330
1F
100
AcDbEntity
  8
0
  6
Continuous
 62
     7
100
AcDbLine
 10
479.8001540219
 20
124.5505787165
 30
0.0
 11
522.8001540219
 21
124.5505787165
 31
0.0
  0
LINE
  5
107
330
1F
100
AcDbEntity
  8
0
  6
Continuous
 62
     7
100
AcDbLine
 10
464.3001540219
 20
137.1005787165
 30
0.0
 11
462.7001540219
 21
137.1005787165
 31
0.0
  0
LINE
  5
108
330
1F
100
AcDbEntity
  8
0
  6
Continuous
 62
     7
100
AcDbLine
 10
464.3001540219
 20
139.0505787165
 30
0.0
 11
464.3001540219
 21
137.1005787165
 31
0.0
  0
LINE
  5
109
330
1F
100
AcDbEntity
  8
0
  6
Continuous
 62
     7
100
AcDbLine
 10
464.3001540219
 20
139.0505787165
 30
0.0
 11
465.8001540219
 21
139.0505787165
 31
0.0
  0
LINE
  5
10A
330
1F
100
AcDbEntity
  8
0
  6
Continuous
 62
     7
100
AcDbLine
 10
465.8001540219
 20
139.0505787165
 30
0.0
 11
465.8001540219
 21
130.0505787165
 31
0.0
  0
LINE
  5
10B
330
1F
100
AcDbEntity
  8
0
  6
Continuous
 62
     7
100
AcDbLine
 10
462.7001540219
 20
130.0505787165
 30
0.0
 11
465.8001540219
 21
130.0505787165
 31
0.0
  0
LINE
  5
10C
330
1F
100
AcDbEntity
  8
0
  6
Continuous
 62
     7
100
AcDbLine
 10
462.7001540219
 20
130.0505787165
 30
0.0
 11
462.7001540219
 21
137.1005787165
 31
0.0
  0
LINE
  5
10D
330
1F
100
AcDbEntity
  8
0
  6
Continuous
 62
     7
100
AcDbLine
 10
466.8001540219
 20
158.5505787165
 30
0.0
 11
466.8001540219
 21
142.5505787165
 31
0.0
  0
LINE
  5
10E
330
1F
100
AcDbEntity
  8
0
  6
Continuous
 62
     7
100
AcDbLine
 10
469.8001540219
 20
161.5505787165
 30
0.0
 11
466.8001540219
 21
158.5505787165
 31
0.0
  0
LINE
  5
10F
330
1F
100
AcDbEntity
  8
0
  6
Continuous
 62
     7
100
AcDbLine
 10
490.8001540219
 20
161.5505787165
 30
0.0
 11
469.8001540219
 21
161.5505787165
 31
0.0
  0
LINE
  5
110
330
1F
100
AcDbEntity
  8
0
  6
Continuous
 62
     7
100
AcDbLine
 10
490.8001540219
 20
140.0505787165
 30
0.0
 11
490.8001540219
 21
161.5505787165
 31
0.0
  0
LINE
  5
111
330
1F
100
AcDbEntity
  8
0
  6
Continuous
 62
     7
100
AcDbLine
 10
466.8001540219
 20
140.0505787165
 30
0.0
 11
490.8001540219
 21
140.0505787165
 31
0.0
  0
LINE
  5
112
330
1F
100
AcDbEntity
  8
0
  6
Continuous
 62
     7
100
AcDbLine
 10
466.8001540219
 20
142.5505787165
 30
0.0
 11
466.8001540219
 21
140.0505787165
 31
0.0
  0
LINE
  5
113
330
1F
100
AcDbEntity
  8
0
  6
Continuous
 62
     7
100
AcDbLine
 10
490.8001540219
 20
162.1505787165
 30
0.0
 11
490.8001540219
 21
161.5505787165
 31
0.0
  0
LINE
  5
114
330
1F
100
AcDbEntity
  8
0
  6
Continuous
 62
     7
100
AcDbLine
 10
490.8001540219
 20
162.1505787165
 30
0.0
 11
492.2001540219
 21
162.1505787165
 31
0.0
  0
LINE
  5
115
330
1F
100
AcDbEntity
  8
0
  6
Continuous
 62
     7
100
AcDbLine
 10
490.8001540219
 20
143.5505787165
 30
0.0
 11
492.2001540219
 21
143.5505787165
 31
0.0
  0
LINE
  5
116
330
1F
100
AcDbEntity
  8
0
  6
Continuous
 62
     7
100
AcDbLine
 10
492.2001540219
 20
162.1505787165
 30
0.0
 11
492.2001540219
 21
143.5505787165
 31
0.0
  0
LINE
  5
117
330
1F
100
AcDbEntity
  8
0
  6
Continuous
 62
     7
100
AcDbLine
 10
466.8001540219
 20
141.5505787165
 30
0.0
 11
464.3001540219
 21
141.5505787165
 31
0.0
  0
LINE
  5
118
330
1F
100
AcDbEntity
  8
0
  6
Continuous
 62
     7
100
AcDbLine
 10
466.8001540219
 20
140.0505787165
 30
0.0
 11
465.8001540219
 21
140.0505787165
 31
0.0
  0
LINE
  5
119
330
1F
100
AcDbEntity
  8
0
  6
Continuous
 62
     7
100
AcDbLine
 10
464.3001540219
 20
139.0505787165
 30
0.0
 11
464.3001540219
 21
141.5505787165
 31
0.0
  0
LINE
  5
11A
330
1F
100
AcDbEntity
  8
0
  6
Continuous
 62
     7
100
AcDbLine
 10
465.8001540219
 20
139.0505787165
 30
0.0
 11
465.8001540219
 21
140.0505787165
 31
0.0
  0
LINE
  5
11B
330
1F
100
AcDbEntity
  8
0
  6
Continuous
 62
     7
100
AcDbLine
 10
481.2001540219
 20
137.6505787165
 30
0.0
 11
479.8001540219
 21
137.6505787165
 31
0.0
  0
LINE
  5
11C
330
1F
100
AcDbEntity
  8
0
  6
Continuous
 62
     7
100
AcDbLine
 10
482.2001540219
 20
138.6505787165
 30
0.0
 11
482.2001540219
 21
140.0505787165
 31
0.0
  0
LINE
  5
11D
330
1F
100
AcDbEntity
  8
0
  6
Continuous
 62
     7
100
AcDbLine
 10
482.2001540219
 20
138.6505787165
 30
0.0
 11
481.2001540219
 21
138.6505787165
 31
0.0
  0
LINE
  5
11E
330
1F
100
AcDbEntity
  8
0
  6
Continuous
 62
     7
100
AcDbLine
 10
481.2001540219
 20
137.6505787165
 30
0.0
 11
481.2001540219
 21
138.6505787165
 31
0.0
  0
LINE
  5
11F
330
1F
100
AcDbEntity
  8
0
  6
Continuous
 62
     7
100
AcDbLine
 10
479.8001540219
 20
137.6505787165
 30
0.0
 11
479.8001540219
 21
140.0505787165
 31
0.0
  0
LINE
  5
120
330
1F
100
AcDbEntity
  8
0
  6
Continuous
 62
     7
100
AcDbLine
 10
489.8001540219
 20
140.0505787165
 30
0.0
 11
489.8001540219
 21
138.6505787165
 31
0.0
  0
LINE
  5
121
330
1F
100
AcDbEntity
  8
0
  6
Continuous
 62
     7
100
AcDbLine
 10
489.8001540219
 20
138.6505787165
 30
0.0
 11
482.2001540219
 21
138.6505787165
 31
0.0
  0
LINE
  5
122
330
1F
100
AcDbEntity
  8
0
  6
Continuous
 62
     7
100
AcDbLine
 10
481.2001540219
 20
137.6505787165
 30
0.0
 11
481.2001540219
 21
136.5505787165
 31
0.0
  0
LINE
  5
123
330
1F
100
AcDbEntity
  8
0
  6
Continuous
 62
     7
100
AcDbLine
 10
479.8001540219
 20
137.6505787165
 30
0.0
 11
479.8001540219
 21
136.5505787165
 31
0.0
  0
LINE
  5
124
330
1F
100
AcDbEntity
  8
0
  6
Continuous
 62
     7
100
AcDbLine
 10
490.8001540219
 20
141.0505787165
 30
0.0
 11
492.2001540219
 21
141.0505787165
 31
0.0
  0
LINE
  5
125
330
1F
100
AcDbEntity
  8
0
  6
Continuous
 62
     7
100
AcDbLine
 10
489.8001540219
 20
138.6505787165
 30
0.0
 11
492.2001540219
 21
138.6505787165
 31
0.0
  0
LINE
  5
126
330
1F
100
AcDbEntity
  8
0
  6
Continuous
 62
     7
100
AcDbLine
 10
492.2001540219
 20
141.0505787165
 30
0.0
 11
492.2001540219
 21
138.6505787165
 31
0.0
  0
LINE
  5
127
330
1F
100
AcDbEntity
  8
0
  6
Continuous
 62
     7
100
AcDbLine
 10
492.2001540219
 20
143.5505787165
 30
0.0
 11
492.2001540219
 21
141.0505787165
 31
0.0
  0
CIRCLE
  5
128
330
1F
100
AcDbEntity
  8
0
  6
Continuous
 62
     7
100
AcDbCircle
 10
477.8001540219
 20
154.5505787165
 30
0.0
 40
2.499999999999991
  0
CIRCLE
  5
129
330
1F
100
AcDbEntity
  8
0
  6
Continuous
 62
     7
100
AcDbCircle
 10
477.8001540219
 20
154.5505787165
 30
0.0
 40
3.000000000000004
  0
LINE
  5
12A
330
1F
100
AcDbEntity
  8
0
  6
Continuous
 62
     7
100
AcDbLine
 10
498.0001540219
 20
158.0505787165
 30
0.0
 11
498.0001540219
 21
152.0505787165
 31
0.0
  0
LINE
  5
12B
330
1F
100
AcDbEntity
  8
0
  6
Continuous
 62
     7
100
AcDbLine
 10
498.5001540219
 20
157.5505787165
 30
0.0
 11
498.5001540219
 21
152.5505787165
 31
0.0
  0
LINE
  5
12C
330
1F
100
AcDbEntity
  8
0
  6
Continuous
 62
     7
100
AcDbLine
 10
1510.4600387581
 20
252.5920495783
 30
0.0
 11
1503.2600387581
 21
252.5920495783
 31
0.0
  0
LINE
  5
12D
330
1F
100
AcDbEntity
  8
0
  6
Continuous
 62
     7
100
AcDbLine
 10
1510.9600387581
 20
252.0920495783
 30
0.0
 11
1510.4600387581
 21
252.5920495783
 31
0.0
  0
LINE
  5
12E
330
1F
100
AcDbEntity
  8
0
  6
Continuous
 62
     7
100
AcDbLine
 10
589.0600387581
 20
252.5920495783
 30
0.0
 11
588.5600387581
 21
252.0920495783
 31
0.0
  0
LINE
  5
12F
330
1F
100
AcDbEntity
  8
0
  6
Continuous
 62
     7
100
AcDbLine
 10
596.2600387581
 20
252.5920495783
 30
0.0
 11
589.0600387581
 21
252.5920495783
 31
0.0
  0
LINE
  5
130
330
1F
100
AcDbEntity
  8
0
  6
Continuous
 62
     7
100
AcDbLine
 10
1547.2600387581
 20
204.5920495783
 30
0.0
 11
552.2600387581
 21
204.5920495783
 31
0.0
  0
LINE
  5
131
330
1F
100
AcDbEntity
  8
0
  6
Continuous
 62
     7
100
AcDbLine
 10
552.2600387581
 20
204.5920495783
 30
0.0
 11
552.2600387581
 21
247.5920495783
 31
0.0
  0
LINE
  5
132
330
1F
100
AcDbEntity
  8
0
  6
Continuous
 62
     7
100
AcDbLine
 10
552.2600387581
 20
247.5920495783
 30
0.0
 11
1547.2600387581
 21
247.5920495783
 31
0.0
  0
LINE
  5
133
330
1F
100
AcDbEntity
  8
0
  6
Continuous
 62
     7
100
AcDbLine
 10
1547.2600387581
 20
247.5920495783
 30
0.0
 11
1547.2600387581
 21
204.5920495783
 31
0.0
  0
LINE
  5
134
330
1F
100
AcDbEntity
  8
0
  6
Continuous
 62
     7
100
AcDbLine
 10
596.2600387581
 20
261.5920495783
 30
0.0
 11
1503.2600387581
 21
261.5920495783
 31
0.0
  0
LINE
  5
135
330
1F
100
AcDbEntity
  8
0
  6
Continuous
 62
     7
100
AcDbLine
 10
596.2600387581
 20
264.6920495783
 30
0.0
 11
596.2600387581
 21
261.5920495783
 31
0.0
  0
LINE
  5
136
330
1F
100
AcDbEntity
  8
0
  6
Continuous
 62
     7
100
AcDbLine
 10
596.2600387581
 20
264.6920495783
 30
0.0
 11
1503.2600387581
 21
264.6920495783
 31
0.0
  0
LINE
  5
137
330
1F
100
AcDbEntity
  8
0
  6
Continuous
 62
     7
100
AcDbLine
 10
1503.2600387581
 20
264.6920495783
 30
0.0
 11
1503.2600387581
 21
261.5920495783
 31
0.0
  0
LINE
  5
138
330
1F
100
AcDbEntity
  8
0
  6
Continuous
 62
     7
100
AcDbLine
 10
596.2600387581
 20
260.5920495783
 30
0.0
 11
596.2600387581
 21
247.5920495783
 31
0.0
  0
LINE
  5
139
330
1F
100
AcDbEntity
  8
0
  6
Continuous
 62
     7
100
AcDbLine
 10
598.7600387581
 20
260.5920495783
 30
0.0
 11
596.2600387581
 21
260.5920495783
 31
0.0
  0
LINE
  5
13A
330
1F
100
AcDbEntity
  8
0
  6
Continuous
 62
     7
100
AcDbLine
 10
1500.7600387581
 20
260.5920495783
 30
0.0
 11
1503.2600387581
 21
260.5920495783
 31
0.0
  0
LINE
  5
13B
330
1F
100
AcDbEntity
  8
0
  6
Continuous
 62
     7
100
AcDbLine
 10
1503.2600387581
 20
260.5920495783
 30
0.0
 11
1503.2600387581
 21
247.5920495783
 31
0.0
  0
LINE
  5
13C
330
1F
100
AcDbEntity
  8
0
  6
Continuous
 62
     7
100
AcDbLine
 10
1500.7600387581
 20
260.5920495783
 30
0.0
 11
1500.7600387581
 21
261.5920495783
 31
0.0
  0
LINE
  5
13D
330
1F
100
AcDbEntity
  8
0
  6
Continuous
 62
     7
100
AcDbLine
 10
598.7600387581
 20
260.5920495783
 30
0.0
 11
598.7600387581
 21
261.5920495783
 31
0.0
  0
LINE
  5
13E
330
1F
100
AcDbEntity
  8
0
  6
Continuous
 62
     7
100
AcDbLine
 10
1510.4600387581
 20
252.5920495783
 30
0.0
 11
1510.4600387581
 21
247.5920495783
 31
0.0
  0
LINE
  5
13F
330
1F
100
AcDbEntity
  8
0
  6
Continuous
 62
     7
100
AcDbLine
 10
1510.9600387581
 20
252.0920495783
 30
0.0
 11
1510.9600387581
 21
247.5920495783
 31
0.0
  0
LINE
  5
140
330
1F
100
AcDbEntity
  8
0
  6
Continuous
 62
     7
100
AcDbLine
 10
589.0600387581
 20
247.5920495783
 30
0.0
 11
589.0600387581
 21
252.5920495783
 31
0.0
  0
LINE
  5
141
330
1F
100
AcDbEntity
  8
0
  6
Continuous
 62
     7
100
AcDbLine
 10
588.5600387581
 20
247.5920495783
 30
0.0
 11
588.5600387581
 21
252.0920495783
 31
0.0
  0
LINE
  5
142
330
1F
100
AcDbEntity
  8
0
  6
Continuous
 62
     7
100
AcDbLine
 10
1501.7600387581
 20
35.3597027441
 30
0.0
 11
1498.920046149
 21
35.3597027441
 31
0.0
  0
LINE
  5
143
330
1F
100
AcDbEntity
  8
0
  6
Continuous
 62
     7
100
AcDbLine
 10
1498.920046149
 20
23.5597027441
 30
0.0
 11
1501.7600387581
 21
23.5597027441
 31
0.0
  0
ARC
  5
144
330
1F
100
AcDbEntity
  8
0
  6
Continuous
 62
     7
100
AcDbCircle
 10
1498.920046149
 20
33.8597027441
 30
0.0
 40
1.500000000000111
100
AcDbArc
 50
90.0
 51
152.4879973762
  0
ARC
  5
145
330
1F
100
AcDbEntity
  8
0
  6
Continuous
 62
     7
100
AcDbCircle
 10
1498.920046149
 20
25.0597027441
 30
0.0
 40
1.500000000000109
100
AcDbArc
 50
207.5120026238
 51
270.0
  0
LINE
  5
146
330
1F
100
AcDbEntity
  8
0
  6
Continuous
 62
     7
100
AcDbLine
 10
1497.5896750228
 20
34.5526043723
 30
0.0
 11
1496.9296676318
 21
33.2853901817
 31
0.0
  0
LINE
  5
147
330
1F
100
AcDbEntity
  8
0
  6
Continuous
 62
     7
100
AcDbLine
 10
1496.9296676318
 20
25.6340153065
 30
0.0
 11
1497.5896750228
 21
24.3668011158
 31
0.0
  0
ARC
  5
148
330
1F
100
AcDbEntity
  8
0
  6
Continuous
 62
     7
100
AcDbCircle
 10
1498.2600387581
 20
32.5924885534
 30
0.0
 40
1.500000000000227
100
AcDbArc
 50
152.4879973762
 51
180.0
  0
ARC
  5
149
330
1F
100
AcDbEntity
  8
0
  6
Continuous
 62
     7
100
AcDbCircle
 10
1498.2600387581
 20
26.3269169347
 30
0.0
 40
1.500000000000227
100
AcDbArc
 50
180.0
 51
207.5120026238
  0
LINE
  5
14A
330
1F
100
AcDbEntity
  8
0
  6
Continuous
 62
     7
100
AcDbLine
 10
1503.2600387581
 20
26.4597027441
 30
0.0
 11
1510.4600387581
 21
26.4597027441
 31
0.0
  0
LINE
  5
14B
330
1F
100
AcDbEntity
  8
0
  6
Continuous
 62
     7
100
AcDbLine
 10
1510.4600387581
 20
32.4597027441
 30
0.0
 11
1503.2600387581
 21
32.4597027441
 31
0.0
  0
LINE
  5
14C
330
1F
100
AcDbEntity
  8
0
  6
Continuous
 62
     7
100
AcDbLine
 10
1510.4600387581
 20
26.4597027441
 30
0.0
 11
1510.9600387581
 21
26.9597027441
 31
0.0
  0
LINE
  5
14D
330
1F
100
AcDbEntity
  8
0
  6
Continuous
 62
     7
100
AcDbLine
 10
1510.9600387581
 20
31.9597027441
 30
0.0
 11
1510.4600387581
 21
32.4597027441
 31
0.0
  0
ARC
  5
14E
330
1F
100
AcDbEntity
  8
0
  6
Continuous
 62
     7
100
AcDbCircle
 10
600.6000313671
 20
25.0597027441
 30
0.0
 40
1.500000000000035
100
AcDbArc
 50
270.0
 51
332.4879973761
  0
ARC
  5
14F
330
1F
100
AcDbEntity
  8
0
  6
Continuous
 62
     7
100
AcDbCircle
 10
600.6000313671
 20
33.8597027441
 30
0.0
 40
1.500000000000033
100
AcDbArc
 50
27.5120026239
 51
90.0
  0
LINE
  5
150
330
1F
100
AcDbEntity
  8
0
  6
Continuous
 62
     7
100
AcDbLine
 10
597.7600387581
 20
23.5597027441
 30
0.0
 11
600.6000313671
 21
23.5597027441
 31
0.0
  0
LINE
  5
151
330
1F
100
AcDbEntity
  8
0
  6
Continuous
 62
     7
100
AcDbLine
 10
600.6000313671
 20
35.3597027441
 30
0.0
 11
597.7600387581
 21
35.3597027441
 31
0.0
  0
LINE
  5
152
330
1F
100
AcDbEntity
  8
0
  6
Continuous
 62
     7
100
AcDbLine
 10
601.9304024934
 20
24.3668011158
 30
0.0
 11
602.5904098843
 21
25.6340153065
 31
0.0
  0
LINE
  5
153
330
1F
100
AcDbEntity
  8
0
  6
Continuous
 62
     7
100
AcDbLine
 10
602.5904098843
 20
33.2853901817
 30
0.0
 11
601.9304024934
 21
34.5526043723
 31
0.0
  0
ARC
  5
154
330
1F
100
AcDbEntity
  8
0
  6
Continuous
 62
     7
100
AcDbCircle
 10
601.2600387581
 20
26.3269169347
 30
0.0
 40
1.500000000000114
100
AcDbArc
 50
332.4879973761
 51
0.0
  0
ARC
  5
155
330
1F
100
AcDbEntity
  8
0
  6
Continuous
 62
     7
100
AcDbCircle
 10
601.2600387581
 20
32.5924885534
 30
0.0
 40
1.500000000000114
100
AcDbArc
 50
0.0
 51
27.5120026239
  0
LINE
  5
156
330
1F
100
AcDbEntity
  8
0
  6
Continuous
 62
     7
100
AcDbLine
 10
596.2600387581
 20
32.4597027441
 30
0.0
 11
589.0600387581
 21
32.4597027441
 31
0.0
  0
LINE
  5
157
330
1F
100
AcDbEntity
  8
0
  6
Continuous
 62
     7
100
AcDbLine
 10
589.0600387581
 20
26.4597027441
 30
0.0
 11
596.2600387581
 21
26.4597027441
 31
0.0
  0
LINE
  5
158
330
1F
100
AcDbEntity
  8
0
  6
Continuous
 62
     7
100
AcDbLine
 10
589.0600387581
 20
32.4597027441
 30
0.0
 11
588.5600387581
 21
31.9597027441
 31
0.0
  0
LINE
  5
159
330
1F
100
AcDbEntity
  8
0
  6
Continuous
 62
     7
100
AcDbLine
 10
588.5600387581
 20
26.9597027441
 30
0.0
 11
589.0600387581
 21
26.4597027441
 31
0.0
  0
ARC
  5
15A
330
1F
100
AcDbEntity
  8
0
  6
Continuous
 62
     7
100
AcDbCircle
 10
1457.8600387581
 20
38.1197101351
 30
0.0
 40
1.5
100
AcDbArc
 50
180.0
 51
242.4879973762
  0
ARC
  5
15B
330
1F
100
AcDbEntity
  8
0
  6
Continuous
 62
     7
100
AcDbCircle
 10
1466.6600387581
 20
38.1197101351
 30
0.0
 40
1.5
100
AcDbArc
 50
297.5120026239
 51
0.0
  0
LINE
  5
15C
330
1F
100
AcDbEntity
  8
0
  6
Continuous
 62
     7
100
AcDbLine
 10
1456.3600387581
 20
40.9597027441
 30
0.0
 11
1456.3600387581
 21
38.1197101351
 31
0.0
  0
LINE
  5
15D
330
1F
100
AcDbEntity
  8
0
  6
Continuous
 62
     7
100
AcDbLine
 10
1468.1600387581
 20
38.1197101351
 30
0.0
 11
1468.1600387581
 21
40.9597027441
 31
0.0
  0
LINE
  5
15E
330
1F
100
AcDbEntity
  8
0
  6
Continuous
 62
     7
100
AcDbLine
 10
1457.1671371298
 20
36.7893390088
 30
0.0
 11
1458.4343513205
 21
36.1293316178
 31
0.0
  0
LINE
  5
15F
330
1F
100
AcDbEntity
  8
0
  6
Continuous
 62
     7
100
AcDbLine
 10
1466.0857261957
 20
36.1293316178
 30
0.0
 11
1467.3529403863
 21
36.7893390088
 31
0.0
  0
ARC
  5
160
330
1F
100
AcDbEntity
  8
0
  6
Continuous
 62
     7
100
AcDbCircle
 10
1459.1272529487
 20
37.4597027441
 30
0.0
 40
1.5
100
AcDbArc
 50
242.4879973762
 51
270.0
  0
ARC
  5
161
330
1F
100
AcDbEntity
  8
0
  6
Continuous
 62
     7
100
AcDbCircle
 10
1465.3928245674
 20
37.4597027441
 30
0.0
 40
1.5
100
AcDbArc
 50
270.0
 51
297.5120026238
  0
LINE
  5
162
330
1F
100
AcDbEntity
  8
0
  6
Continuous
 62
     7
100
AcDbLine
 10
1465.2600387581
 20
49.6597027441
 30
0.0
 11
1464.7600387581
 21
50.1597027441
 31
0.0
  0
LINE
  5
163
330
1F
100
AcDbEntity
  8
0
  6
Continuous
 62
     7
100
AcDbLine
 10
1459.7600387581
 20
50.1597027441
 30
0.0
 11
1459.2600387581
 21
49.6597027441
 31
0.0
  0
LINE
  5
164
330
1F
100
AcDbEntity
  8
0
  6
Continuous
 62
     7
100
AcDbLine
 10
1465.2600387581
 20
43.8597027441
 30
0.0
 11
1465.2600387581
 21
49.6597027441
 31
0.0
  0
LINE
  5
165
330
1F
100
AcDbEntity
  8
0
  6
Continuous
 62
     7
100
AcDbLine
 10
1459.2600387581
 20
49.6597027441
 30
0.0
 11
1459.2600387581
 21
43.8597027441
 31
0.0
  0
LINE
  5
166
330
1F
100
AcDbEntity
  8
0
  6
Continuous
 62
     7
100
AcDbLine
 10
631.3600387581
 20
40.9597027441
 30
0.0
 11
631.3600387581
 21
38.1197101351
 31
0.0
  0
LINE
  5
167
330
1F
100
AcDbEntity
  8
0
  6
Continuous
 62
     7
100
AcDbLine
 10
643.1600387581
 20
38.1197101351
 30
0.0
 11
643.1600387581
 21
40.9597027441
 31
0.0
  0
ARC
  5
168
330
1F
100
AcDbEntity
  8
0
  6
Continuous
 62
     7
100
AcDbCircle
 10
632.8600387581
 20
38.1197101351
 30
0.0
 40
1.500000000000019
100
AcDbArc
 50
180.0
 51
242.4879973762
  0
ARC
  5
169
330
1F
100
AcDbEntity
  8
0
  6
Continuous
 62
     7
100
AcDbCircle
 10
641.6600387581
 20
38.1197101351
 30
0.0
 40
1.500000000000019
100
AcDbArc
 50
297.5120026239
 51
0.0
  0
LINE
  5
16A
330
1F
100
AcDbEntity
  8
0
  6
Continuous
 62
     7
100
AcDbLine
 10
632.1671371298
 20
36.7893390088
 30
0.0
 11
633.4343513205
 21
36.1293316178
 31
0.0
  0
LINE
  5
16B
330
1F
100
AcDbEntity
  8
0
  6
Continuous
 62
     7
100
AcDbLine
 10
641.0857261957
 20
36.1293316178
 30
0.0
 11
642.3529403863
 21
36.7893390088
 31
0.0
  0
ARC
  5
16C
330
1F
100
AcDbEntity
  8
0
  6
Continuous
 62
     7
100
AcDbCircle
 10
634.1272529487
 20
37.4597027441
 30
0.0
 40
1.5
100
AcDbArc
 50
242.4879973762
 51
270.0
  0
ARC
  5
16D
330
1F
100
AcDbEntity
  8
0
  6
Continuous
 62
     7
100
AcDbCircle
 10
640.3928245674
 20
37.4597027441
 30
0.0
 40
1.5
100
AcDbArc
 50
270.0
 51
297.5120026239
  0
LINE
  5
16E
330
1F
100
AcDbEntity
  8
0
  6
Continuous
 62
     7
100
AcDbLine
 10
640.2600387581
 20
43.8597027441
 30
0.0
 11
640.2600387581
 21
49.6597027441
 31
0.0
  0
LINE
  5
16F
330
1F
100
AcDbEntity
  8
0
  6
Continuous
 62
     7
100
AcDbLine
 10
634.2600387581
 20
49.6597027441
 30
0.0
 11
634.2600387581
 21
43.8597027441
 31
0.0
  0
LINE
  5
170
330
1F
100
AcDbEntity
  8
0
  6
Continuous
 62
     7
100
AcDbLine
 10
640.2600387581
 20
49.6597027441
 30
0.0
 11
639.7600387581
 21
50.1597027441
 31
0.0
  0
LINE
  5
171
330
1F
100
AcDbEntity
  8
0
  6
Continuous
 62
     7
100
AcDbLine
 10
634.7600387581
 20
50.1597027441
 30
0.0
 11
634.2600387581
 21
49.6597027441
 31
0.0
  0
ARC
  5
172
330
1F
100
AcDbEntity
  8
0
  6
Continuous
 62
     7
100
AcDbCircle
 10
907.8600387581
 20
38.1197101351
 30
0.0
 40
1.5
100
AcDbArc
 50
180.0
 51
242.4879973762
  0
ARC
  5
173
330
1F
100
AcDbEntity
  8
0
  6
Continuous
 62
     7
100
AcDbCircle
 10
916.6600387581
 20
38.1197101351
 30
0.0
 40
1.5
100
AcDbArc
 50
297.5120026239
 51
0.0
  0
LINE
  5
174
330
1F
100
AcDbEntity
  8
0
  6
Continuous
 62
     7
100
AcDbLine
 10
906.3600387581
 20
40.9597027441
 30
0.0
 11
906.3600387581
 21
38.1197101351
 31
0.0
  0
LINE
  5
175
330
1F
100
AcDbEntity
  8
0
  6
Continuous
 62
     7
100
AcDbLine
 10
918.1600387581
 20
38.1197101351
 30
0.0
 11
918.1600387581
 21
40.9597027441
 31
0.0
  0
LINE
  5
176
330
1F
100
AcDbEntity
  8
0
  6
Continuous
 62
     7
100
AcDbLine
 10
907.1671371298
 20
36.7893390088
 30
0.0
 11
908.4343513205
 21
36.1293316178
 31
0.0
  0
LINE
  5
177
330
1F
100
AcDbEntity
  8
0
  6
Continuous
 62
     7
100
AcDbLine
 10
916.0857261957
 20
36.1293316178
 30
0.0
 11
917.3529403863
 21
36.7893390088
 31
0.0
  0
ARC
  5
178
330
1F
100
AcDbEntity
  8
0
  6
Continuous
 62
     7
100
AcDbCircle
 10
909.1272529487
 20
37.4597027441
 30
0.0
 40
1.500000000000021
100
AcDbArc
 50
242.4879973761
 51
270.0
  0
ARC
  5
179
330
1F
100
AcDbEntity
  8
0
  6
Continuous
 62
     7
100
AcDbCircle
 10
915.3928245674
 20
37.4597027441
 30
0.0
 40
1.500000000000021
100
AcDbArc
 50
270.0
 51
297.5120026239
  0
LINE
  5
17A
330
1F
100
AcDbEntity
  8
0
  6
Continuous
 62
     7
100
AcDbLine
 10
915.2600387581
 20
49.6597027441
 30
0.0
 11
914.7600387581
 21
50.1597027441
 31
0.0
  0
LINE
  5
17B
330
1F
100
AcDbEntity
  8
0
  6
Continuous
 62
     7
100
AcDbLine
 10
909.7600387581
 20
50.1597027441
 30
0.0
 11
909.2600387581
 21
49.6597027441
 31
0.0
  0
LINE
  5
17C
330
1F
100
AcDbEntity
  8
0
  6
Continuous
 62
     7
100
AcDbLine
 10
915.2600387581
 20
43.8597027441
 30
0.0
 11
915.2600387581
 21
49.6597027441
 31
0.0
  0
LINE
  5
17D
330
1F
100
AcDbEntity
  8
0
  6
Continuous
 62
     7
100
AcDbLine
 10
909.2600387581
 20
49.6597027441
 30
0.0
 11
909.2600387581
 21
43.8597027441
 31
0.0
  0
LINE
  5
17E
330
1F
100
AcDbEntity
  8
0
  6
Continuous
 62
     7
100
AcDbLine
 10
1181.3600387581
 20
40.9597027441
 30
0.0
 11
1181.3600387581
 21
38.1197101351
 31
0.0
  0
LINE
  5
17F
330
1F
100
AcDbEntity
  8
0
  6
Continuous
 62
     7
100
AcDbLine
 10
1193.1600387581
 20
38.1197101351
 30
0.0
 11
1193.1600387581
 21
40.9597027441
 31
0.0
  0
ARC
  5
180
330
1F
100
AcDbEntity
  8
0
  6
Continuous
 62
     7
100
AcDbCircle
 10
1182.8600387581
 20
38.1197101351
 30
0.0
 40
1.5
100
AcDbArc
 50
180.0
 51
242.4879973762
  0
ARC
  5
181
330
1F
100
AcDbEntity
  8
0
  6
Continuous
 62
     7
100
AcDbCircle
 10
1191.6600387581
 20
38.1197101351
 30
0.0
 40
1.500000000000227
100
AcDbArc
 50
297.5120026239
 51
0.0
  0
LINE
  5
182
330
1F
100
AcDbEntity
  8
0
  6
Continuous
 62
     7
100
AcDbLine
 10
1182.1671371298
 20
36.7893390088
 30
0.0
 11
1183.4343513205
 21
36.1293316178
 31
0.0
  0
LINE
  5
183
330
1F
100
AcDbEntity
  8
0
  6
Continuous
 62
     7
100
AcDbLine
 10
1191.0857261957
 20
36.1293316178
 30
0.0
 11
1192.3529403863
 21
36.7893390088
 31
0.0
  0
ARC
  5
184
330
1F
100
AcDbEntity
  8
0
  6
Continuous
 62
     7
100
AcDbCircle
 10
1184.1272529487
 20
37.4597027441
 30
0.0
 40
1.500000000000074
100
AcDbArc
 50
242.4879973761
 51
270.0
  0
ARC
  5
185
330
1F
100
AcDbEntity
  8
0
  6
Continuous
 62
     7
100
AcDbCircle
 10
1190.3928245674
 20
37.4597027441
 30
0.0
 40
1.500000000000074
100
AcDbArc
 50
270.0
 51
297.5120026239
  0
LINE
  5
186
330
1F
100
AcDbEntity
  8
0
  6
Continuous
 62
     7
100
AcDbLine
 10
1190.2600387581
 20
43.8597027441
 30
0.0
 11
1190.2600387581
 21
49.6597027441
 31
0.0
  0
LINE
  5
187
330
1F
100
AcDbEntity
  8
0
  6
Continuous
 62
     7
100
AcDbLine
 10
1184.2600387581
 20
49.6597027441
 30
0.0
 11
1184.2600387581
 21
43.8597027441
 31
0.0
  0
LINE
  5
188
330
1F
100
AcDbEntity
  8
0
  6
Continuous
 62
     7
100
AcDbLine
 10
1190.2600387581
 20
49.6597027441
 30
0.0
 11
1189.7600387581
 21
50.1597027441
 31
0.0
  0
LINE
  5
189
330
1F
100
AcDbEntity
  8
0
  6
Continuous
 62
     7
100
AcDbLine
 10
1184.7600387581
 20
50.1597027441
 30
0.0
 11
1184.2600387581
 21
49.6597027441
 31
0.0
  0
LINE
  5
18A
330
1F
100
AcDbEntity
  8
0
  6
Continuous
 62
     7
100
AcDbLine
 10
596.5100387581
 20
42.4597027441
 30
0.0
 11
596.5100387581
 21
43.8597027441
 31
0.0
  0
LINE
  5
18B
330
1F
100
AcDbEntity
  8
0
  6
Continuous
 62
     7
100
AcDbLine
 10
596.5100387581
 20
43.8597027441
 30
0.0
 11
1503.0100387581
 21
43.8597027441
 31
0.0
  0
LINE
  5
18C
330
1F
100
AcDbEntity
  8
0
  6
Continuous
 62
     7
100
AcDbLine
 10
1503.0100387581
 20
42.4597027441
 30
0.0
 11
1503.0100387581
 21
43.8597027441
 31
0.0
  0
LINE
  5
18D
330
1F
100
AcDbEntity
  8
0
  6
Continuous
 62
     7
100
AcDbLine
 10
596.5100387581
 20
42.4597027441
 30
0.0
 11
1503.0100387581
 21
42.4597027441
 31
0.0
  0
LINE
  5
18E
330
1F
100
AcDbEntity
  8
0
  6
Continuous
 62
     7
100
AcDbLine
 10
1503.2600387581
 20
21.4597027441
 30
0.0
 11
1501.7600387581
 21
21.4597027441
 31
0.0
  0
LINE
  5
18F
330
1F
100
AcDbEntity
  8
0
  6
Continuous
 62
     7
100
AcDbLine
 10
1501.7600387581
 20
40.9597027441
 30
0.0
 11
1501.7600387581
 21
21.4597027441
 31
0.0
  0
LINE
  5
190
330
1F
100
AcDbEntity
  8
0
  6
Continuous
 62
     7
100
AcDbLine
 10
597.7600387581
 20
21.4597027441
 30
0.0
 11
597.7600387581
 21
40.9597027441
 31
0.0
  0
LINE
  5
191
330
1F
100
AcDbEntity
  8
0
  6
Continuous
 62
     7
100
AcDbLine
 10
596.2600387581
 20
21.4597027441
 30
0.0
 11
597.7600387581
 21
21.4597027441
 31
0.0
  0
LINE
  5
192
330
1F
100
AcDbEntity
  8
0
  6
Continuous
 62
     7
100
AcDbLine
 10
596.2600387581
 20
21.4597027441
 30
0.0
 11
596.2600387581
 21
42.4597027441
 31
0.0
  0
LINE
  5
193
330
1F
100
AcDbEntity
  8
0
  6
Continuous
 62
     7
100
AcDbLine
 10
596.2600387581
 20
42.4597027441
 30
0.0
 11
596.5100387581
 21
42.4597027441
 31
0.0
  0
LINE
  5
194
330
1F
100
AcDbEntity
  8
0
  6
Continuous
 62
     7
100
AcDbLine
 10
1503.0100387581
 20
42.4597027441
 30
0.0
 11
1503.2600387581
 21
42.4597027441
 31
0.0
  0
LINE
  5
195
330
1F
100
AcDbEntity
  8
0
  6
Continuous
 62
     7
100
AcDbLine
 10
1503.2600387581
 20
42.4597027441
 30
0.0
 11
1503.2600387581
 21
21.4597027441
 31
0.0
  0
LINE
  5
196
330
1F
100
AcDbEntity
  8
0
  6
Continuous
 62
     7
100
AcDbLine
 10
597.7600387581
 20
40.9597027441
 30
0.0
 11
1501.7600387581
 21
40.9597027441
 31
0.0
  0
LINE
  5
197
330
1F
100
AcDbEntity
  8
0
  6
Continuous
 62
     7
100
AcDbLine
 10
1503.2600387581
 20
18.4597027441
 30
0.0
 11
1501.7600387581
 21
18.4597027441
 31
0.0
  0
LINE
  5
198
330
1F
100
AcDbEntity
  8
0
  6
Continuous
 62
     7
100
AcDbLine
 10
1501.7600387581
 20
21.4597027441
 30
0.0
 11
1501.7600387581
 21
18.4597027441
 31
0.0
  0
LINE
  5
199
330
1F
100
AcDbEntity
  8
0
  6
Continuous
 62
     7
100
AcDbLine
 10
1503.2600387581
 20
21.4597027441
 30
0.0
 11
1503.2600387581
 21
18.4597027441
 31
0.0
  0
LINE
  5
19A
330
1F
100
AcDbEntity
  8
0
  6
Continuous
 62
     7
100
AcDbLine
 10
596.2600387581
 20
18.4597027441
 30
0.0
 11
597.7600387581
 21
18.4597027441
 31
0.0
  0
LINE
  5
19B
330
1F
100
AcDbEntity
  8
0
  6
Continuous
 62
     7
100
AcDbLine
 10
596.2600387581
 20
18.4597027441
 30
0.0
 11
596.2600387581
 21
21.4597027441
 31
0.0
  0
LINE
  5
19C
330
1F
100
AcDbEntity
  8
0
  6
Continuous
 62
     7
100
AcDbLine
 10
597.7600387581
 20
18.4597027441
 30
0.0
 11
597.7600387581
 21
21.4597027441
 31
0.0
  0
LINE
  5
19D
330
1F
100
AcDbEntity
  8
0
  6
Continuous
 62
     7
100
AcDbLine
 10
1500.7600387581
 20
18.4597027441
 30
0.0
 11
1500.7600387581
 21
15.9597027441
 31
0.0
  0
LINE
  5
19E
330
1F
100
AcDbEntity
  8
0
  6
Continuous
 62
     7
100
AcDbLine
 10
1500.7600387581
 20
15.9597027441
 30
0.0
 11
598.7600387581
 21
15.9597027441
 31
0.0
  0
LINE
  5
19F
330
1F
100
AcDbEntity
  8
0
  6
Continuous
 62
     7
100
AcDbLine
 10
598.7600387581
 20
18.4597027441
 30
0.0
 11
598.7600387581
 21
15.9597027441
 31
0.0
  0
LINE
  5
1A0
330
1F
100
AcDbEntity
  8
0
  6
Continuous
 62
     7
100
AcDbLine
 10
598.7600387581
 20
18.4597027441
 30
0.0
 11
597.7600387581
 21
18.4597027441
 31
0.0
  0
LINE
  5
1A1
330
1F
100
AcDbEntity
  8
0
  6
Continuous
 62
     7
100
AcDbLine
 10
1500.7600387581
 20
18.4597027441
 30
0.0
 11
1501.7600387581
 21
18.4597027441
 31
0.0
  0
LINE
  5
1A2
330
1F
100
AcDbEntity
  8
0
  6
Continuous
 62
     7
100
AcDbLine
 10
1503.2600387581
 20
15.9597027441
 30
0.0
 11
1503.2600387581
 21
17.4597027441
 31
0.0
  0
LINE
  5
1A3
330
1F
100
AcDbEntity
  8
0
  6
Continuous
 62
     7
100
AcDbLine
 10
1500.7600387581
 20
17.4597027441
 30
0.0
 11
1503.2600387581
 21
17.4597027441
 31
0.0
  0
LINE
  5
1A4
330
1F
100
AcDbEntity
  8
0
  6
Continuous
 62
     7
100
AcDbLine
 10
1500.7600387581
 20
15.9597027441
 30
0.0
 11
1503.2600387581
 21
15.9597027441
 31
0.0
  0
LINE
  5
1A5
330
1F
100
AcDbEntity
  8
0
  6
Continuous
 62
     7
100
AcDbLine
 10
596.2600387581
 20
15.9597027441
 30
0.0
 11
596.2600387581
 21
17.4597027441
 31
0.0
  0
LINE
  5
1A6
330
1F
100
AcDbEntity
  8
0
  6
Continuous
 62
     7
100
AcDbLine
 10
596.2600387581
 20
17.4597027441
 30
0.0
 11
598.7600387581
 21
17.4597027441
 31
0.0
  0
LINE
  5
1A7
330
1F
100
AcDbEntity
  8
0
  6
Continuous
 62
     7
100
AcDbLine
 10
596.2600387581
 20
15.9597027441
 30
0.0
 11
598.7600387581
 21
15.9597027441
 31
0.0
  0
LINE
  5
1A8
330
1F
100
AcDbEntity
  8
0
  6
Continuous
 62
     7
100
AcDbLine
 10
1503.2600387581
 20
14.3597027441
 30
0.0
 11
596.2600387581
 21
14.3597027441
 31
0.0
  0
LINE
  5
1A9
330
1F
100
AcDbEntity
  8
0
  6
Continuous
 62
     7
100
AcDbLine
 10
596.2600387581
 20
15.9597027441
 30
0.0
 11
596.2600387581
 21
14.3597027441
 31
0.0
  0
LINE
  5
1AA
330
1F
100
AcDbEntity
  8
0
  6
Continuous
 62
     7
100
AcDbLine
 10
1503.2600387581
 20
15.9597027441
 30
0.0
 11
1503.2600387581
 21
14.3597027441
 31
0.0
  0
LINE
  5
1AB
330
1F
100
AcDbEntity
  8
0
  6
Continuous
 62
     7
100
AcDbLine
 10
1547.2600387581
 20
74.4597027441
 30
0.0
 11
1547.2600387581
 21
31.4597027441
 31
0.0
  0
LINE
  5
1AC
330
1F
100
AcDbEntity
  8
0
  6
Continuous
 62
     7
100
AcDbLine
 10
1522.2600387581
 20
32.8597027441
 30
0.0
 11
1522.2600387581
 21
31.4597027441
 31
0.0
  0
LINE
  5
1AD
330
1F
100
AcDbEntity
  8
0
  6
Continuous
 62
     7
100
AcDbLine
 10
1545.8600387581
 20
73.0597027441
 30
0.0
 11
1545.8600387581
 21
32.8597027441
 31
0.0
  0
LINE
  5
1AE
330
1F
100
AcDbEntity
  8
0
  6
Continuous
 62
     7
100
AcDbLine
 10
553.6600387581
 20
32.8597027441
 30
0.0
 11
553.6600387581
 21
73.0597027441
 31
0.0
  0
LINE
  5
1AF
330
1F
100
AcDbEntity
  8
0
  6
Continuous
 62
     7
100
AcDbLine
 10
577.2600387581
 20
31.4597027441
 30
0.0
 11
577.2600387581
 21
32.8597027441
 31
0.0
  0
LINE
  5
1B0
330
1F
100
AcDbEntity
  8
0
  6
Continuous
 62
     7
100
AcDbLine
 10
552.2600387581
 20
31.4597027441
 30
0.0
 11
552.2600387581
 21
74.4597027441
 31
0.0
  0
LINE
  5
1B1
330
1F
100
AcDbEntity
  8
0
  6
Continuous
 62
     7
100
AcDbLine
 10
553.6600387581
 20
73.0597027441
 30
0.0
 11
1545.8600387581
 21
73.0597027441
 31
0.0
  0
LINE
  5
1B2
330
1F
100
AcDbEntity
  8
0
  6
Continuous
 62
     7
100
AcDbLine
 10
552.2600387581
 20
74.4597027441
 30
0.0
 11
1547.2600387581
 21
74.4597027441
 31
0.0
  0
LINE
  5
1B3
330
1F
100
AcDbEntity
  8
0
  6
Continuous
 62
     7
100
AcDbLine
 10
1545.8600387581
 20
32.8597027441
 30
0.0
 11
1522.2600387581
 21
32.8597027441
 31
0.0
  0
LINE
  5
1B4
330
1F
100
AcDbEntity
  8
0
  6
Continuous
 62
     7
100
AcDbLine
 10
577.2600387581
 20
32.8597027441
 30
0.0
 11
553.6600387581
 21
32.8597027441
 31
0.0
  0
LINE
  5
1B5
330
1F
100
AcDbEntity
  8
0
  6
Continuous
 62
     7
100
AcDbLine
 10
577.2600387581
 20
31.4597027441
 30
0.0
 11
552.2600387581
 21
31.4597027441
 31
0.0
  0
LINE
  5
1B6
330
1F
100
AcDbEntity
  8
0
  6
Continuous
 62
     7
100
AcDbLine
 10
1547.2600387581
 20
31.4597027441
 30
0.0
 11
1522.2600387581
 21
31.4597027441
 31
0.0
  0
LINE
  5
1B7
330
1F
100
AcDbEntity
  8
0
  6
Continuous
 62
     7
100
AcDbLine
 10
1519.2600387581
 20
31.4597027441
 30
0.0
 11
1519.2600387581
 21
32.8597027441
 31
0.0
  0
LINE
  5
1B8
330
1F
100
AcDbEntity
  8
0
  6
Continuous
 62
     7
100
AcDbLine
 10
1519.2600387581
 20
32.8597027441
 30
0.0
 11
1522.2600387581
 21
32.8597027441
 31
0.0
  0
LINE
  5
1B9
330
1F
100
AcDbEntity
  8
0
  6
Continuous
 62
     7
100
AcDbLine
 10
1522.2600387581
 20
31.4597027441
 30
0.0
 11
1519.2600387581
 21
31.4597027441
 31
0.0
  0
LINE
  5
1BA
330
1F
100
AcDbEntity
  8
0
  6
Continuous
 62
     7
100
AcDbLine
 10
580.2600387581
 20
32.8597027441
 30
0.0
 11
580.2600387581
 21
31.4597027441
 31
0.0
  0
LINE
  5
1BB
330
1F
100
AcDbEntity
  8
0
  6
Continuous
 62
     7
100
AcDbLine
 10
577.2600387581
 20
32.8597027441
 30
0.0
 11
580.2600387581
 21
32.8597027441
 31
0.0
  0
LINE
  5
1BC
330
1F
100
AcDbEntity
  8
0
  6
Continuous
 62
     7
100
AcDbLine
 10
580.2600387581
 20
31.4597027441
 30
0.0
 11
577.2600387581
 21
31.4597027441
 31
0.0
  0
LINE
  5
1BD
330
1F
100
AcDbEntity
  8
0
  6
Continuous
 62
     7
100
AcDbLine
 10
1516.2600387581
 20
31.4597027441
 30
0.0
 11
1516.2600387581
 21
32.8597027441
 31
0.0
  0
LINE
  5
1BE
330
1F
100
AcDbEntity
  8
0
  6
Continuous
 62
     7
100
AcDbLine
 10
1516.2600387581
 20
32.8597027441
 30
0.0
 11
1519.2600387581
 21
32.8597027441
 31
0.0
  0
LINE
  5
1BF
330
1F
100
AcDbEntity
  8
0
  6
Continuous
 62
     7
100
AcDbLine
 10
1519.2600387581
 20
31.4597027441
 30
0.0
 11
1516.2600387581
 21
31.4597027441
 31
0.0
  0
LINE
  5
1C0
330
1F
100
AcDbEntity
  8
0
  6
Continuous
 62
     7
100
AcDbLine
 10
1503.2600387581
 20
32.8597027441
 30
0.0
 11
1504.2600387581
 21
32.8597027441
 31
0.0
  0
LINE
  5
1C1
330
1F
100
AcDbEntity
  8
0
  6
Continuous
 62
     7
100
AcDbLine
 10
595.2600387581
 20
32.8597027441
 30
0.0
 11
596.2600387581
 21
32.8597027441
 31
0.0
  0
LINE
  5
1C2
330
1F
100
AcDbEntity
  8
0
  6
Continuous
 62
     7
100
AcDbLine
 10
583.2600387581
 20
32.8597027441
 30
0.0
 11
583.2600387581
 21
31.4597027441
 31
0.0
  0
LINE
  5
1C3
330
1F
100
AcDbEntity
  8
0
  6
Continuous
 62
     7
100
AcDbLine
 10
580.2600387581
 20
32.8597027441
 30
0.0
 11
583.2600387581
 21
32.8597027441
 31
0.0
  0
LINE
  5
1C4
330
1F
100
AcDbEntity
  8
0
  6
Continuous
 62
     7
100
AcDbLine
 10
583.2600387581
 20
31.4597027441
 30
0.0
 11
580.2600387581
 21
31.4597027441
 31
0.0
  0
LINE
  5
1C5
330
1F
100
AcDbEntity
  8
0
  6
Continuous
 62
     7
100
AcDbLine
 10
1504.2600387581
 20
32.8597027441
 30
0.0
 11
1516.2600387581
 21
32.8597027441
 31
0.0
  0
LINE
  5
1C6
330
1F
100
AcDbEntity
  8
0
  6
Continuous
 62
     7
100
AcDbLine
 10
1510.9600387581
 20
31.4597027441
 30
0.0
 11
1516.2600387581
 21
31.4597027441
 31
0.0
  0
LINE
  5
1C7
330
1F
100
AcDbEntity
  8
0
  6
Continuous
 62
     7
100
AcDbLine
 10
583.2600387581
 20
32.8597027441
 30
0.0
 11
595.2600387581
 21
32.8597027441
 31
0.0
  0
LINE
  5
1C8
330
1F
100
AcDbEntity
  8
0
  6
Continuous
 62
     7
100
AcDbLine
 10
583.2600387581
 20
31.4597027441
 30
0.0
 11
588.5600387581
 21
31.4597027441
 31
0.0
  0
LINE
  5
1C9
330
1F
100
AcDbEntity
  8
0
  6
Continuous
 62
     7
100
AcDbLine
 10
1496.7600387581
 20
28.8479186076
 30
0.0
 11
1496.7600387581
 21
26.3269169347
 31
0.0
  0
LINE
  5
1CA
330
1F
100
AcDbEntity
  8
0
  6
Continuous
 62
     7
100
AcDbLine
 10
1496.7600387581
 20
32.5924885534
 30
0.0
 11
1496.7600387581
 21
28.8479186076
 31
0.0
  0
LINE
  5
1CB
330
1F
100
AcDbEntity
  8
0
  6
Continuous
 62
     7
100
AcDbLine
 10
1510.4600387581
 20
28.8738496021
 30
0.0
 11
1510.4600387581
 21
26.4597027441
 31
0.0
  0
LINE
  5
1CC
330
1F
100
AcDbEntity
  8
0
  6
Continuous
 62
     7
100
AcDbLine
 10
1510.4600387581
 20
32.4597027441
 30
0.0
 11
1510.4600387581
 21
28.8738496021
 31
0.0
  0
LINE
  5
1CD
330
1F
100
AcDbEntity
  8
0
  6
Continuous
 62
     7
100
AcDbLine
 10
1510.9600387581
 20
28.9714917925
 30
0.0
 11
1510.9600387581
 21
26.9597027441
 31
0.0
  0
LINE
  5
1CE
330
1F
100
AcDbEntity
  8
0
  6
Continuous
 62
     7
100
AcDbLine
 10
1510.9600387581
 20
31.9597027441
 30
0.0
 11
1510.9600387581
 21
28.9714917925
 31
0.0
  0
LINE
  5
1CF
330
1F
100
AcDbEntity
  8
0
  6
Continuous
 62
     7
100
AcDbLine
 10
602.7600387581
 20
26.3269169347
 30
0.0
 11
602.7600387581
 21
32.5924885534
 31
0.0
  0
LINE
  5
1D0
330
1F
100
AcDbEntity
  8
0
  6
Continuous
 62
     7
100
AcDbLine
 10
589.0600387581
 20
26.4597027441
 30
0.0
 11
589.0600387581
 21
32.4597027441
 31
0.0
  0
LINE
  5
1D1
330
1F
100
AcDbEntity
  8
0
  6
Continuous
 62
     7
100
AcDbLine
 10
588.5600387581
 20
26.9597027441
 30
0.0
 11
588.5600387581
 21
31.9597027441
 31
0.0
  0
LINE
  5
1D2
330
1F
100
AcDbEntity
  8
0
  6
Continuous
 62
     7
100
AcDbLine
 10
1462.2600387581
 20
35.9597027441
 30
0.0
 11
1465.3928245674
 21
35.9597027441
 31
0.0
  0
LINE
  5
1D3
330
1F
100
AcDbEntity
  8
0
  6
Continuous
 62
     7
100
AcDbLine
 10
1459.1272529487
 20
35.9597027441
 30
0.0
 11
1462.2600387581
 21
35.9597027441
 31
0.0
  0
LINE
  5
1D4
330
1F
100
AcDbEntity
  8
0
  6
Continuous
 62
     7
100
AcDbLine
 10
1462.2600387581
 20
49.6597027441
 30
0.0
 11
1465.2600387581
 21
49.6597027441
 31
0.0
  0
LINE
  5
1D5
330
1F
100
AcDbEntity
  8
0
  6
Continuous
 62
     7
100
AcDbLine
 10
1459.2600387581
 20
49.6597027441
 30
0.0
 11
1462.2600387581
 21
49.6597027441
 31
0.0
  0
LINE
  5
1D6
330
1F
100
AcDbEntity
  8
0
  6
Continuous
 62
     7
100
AcDbLine
 10
1462.2600387581
 20
50.1597027441
 30
0.0
 11
1464.7600387581
 21
50.1597027441
 31
0.0
  0
LINE
  5
1D7
330
1F
100
AcDbEntity
  8
0
  6
Continuous
 62
     7
100
AcDbLine
 10
1459.7600387581
 20
50.1597027441
 30
0.0
 11
1462.2600387581
 21
50.1597027441
 31
0.0
  0
LINE
  5
1D8
330
1F
100
AcDbEntity
  8
0
  6
Continuous
 62
     7
100
AcDbLine
 10
634.1272529487
 20
35.9597027441
 30
0.0
 11
640.3928245674
 21
35.9597027441
 31
0.0
  0
LINE
  5
1D9
330
1F
100
AcDbEntity
  8
0
  6
Continuous
 62
     7
100
AcDbLine
 10
634.2600387581
 20
49.6597027441
 30
0.0
 11
640.2600387581
 21
49.6597027441
 31
0.0
  0
LINE
  5
1DA
330
1F
100
AcDbEntity
  8
0
  6
Continuous
 62
     7
100
AcDbLine
 10
634.7600387581
 20
50.1597027441
 30
0.0
 11
639.7600387581
 21
50.1597027441
 31
0.0
  0
LINE
  5
1DB
330
1F
100
AcDbEntity
  8
0
  6
Continuous
 62
     7
100
AcDbLine
 10
909.1272529487
 20
35.9597027441
 30
0.0
 11
915.3928245674
 21
35.9597027441
 31
0.0
  0
LINE
  5
1DC
330
1F
100
AcDbEntity
  8
0
  6
Continuous
 62
     7
100
AcDbLine
 10
909.2600387581
 20
49.6597027441
 30
0.0
 11
915.2600387581
 21
49.6597027441
 31
0.0
  0
LINE
  5
1DD
330
1F
100
AcDbEntity
  8
0
  6
Continuous
 62
     7
100
AcDbLine
 10
909.7600387581
 20
50.1597027441
 30
0.0
 11
914.7600387581
 21
50.1597027441
 31
0.0
  0
LINE
  5
1DE
330
1F
100
AcDbEntity
  8
0
  6
Continuous
 62
     7
100
AcDbLine
 10
1184.1272529487
 20
35.9597027441
 30
0.0
 11
1190.3928245674
 21
35.9597027441
 31
0.0
  0
LINE
  5
1DF
330
1F
100
AcDbEntity
  8
0
  6
Continuous
 62
     7
100
AcDbLine
 10
1184.2600387581
 20
49.6597027441
 30
0.0
 11
1190.2600387581
 21
49.6597027441
 31
0.0
  0
LINE
  5
1E0
330
1F
100
AcDbEntity
  8
0
  6
Continuous
 62
     7
100
AcDbLine
 10
1184.7600387581
 20
50.1597027441
 30
0.0
 11
1189.7600387581
 21
50.1597027441
 31
0.0
  0
LINE
  5
1E1
330
1F
100
AcDbEntity
  8
0
  6
Continuous
 62
     7
100
AcDbLine
 10
1504.2600387581
 20
32.8597027441
 30
0.0
 11
1504.2600387581
 21
32.4597027441
 31
0.0
  0
LINE
  5
1E2
330
1F
100
AcDbEntity
  8
0
  6
Continuous
 62
     7
100
AcDbLine
 10
595.2600387581
 20
32.4597027441
 30
0.0
 11
595.2600387581
 21
32.8597027441
 31
0.0
  0
LINE
  5
1E3
330
1F
100
AcDbEntity
  8
0
  6
Continuous
 62
     7
100
AcDbLine
 10
1498.920046149
 20
28.3075248982
 30
0.0
 11
1498.920046149
 21
23.5597027441
 31
0.0
  0
LINE
  5
1E4
330
1F
100
AcDbEntity
  8
0
  6
Continuous
 62
     7
100
AcDbLine
 10
1498.920046149
 20
35.3597027441
 30
0.0
 11
1498.920046149
 21
28.3075248982
 31
0.0
  0
LINE
  5
1E5
330
1F
100
AcDbEntity
  8
0
  6
Continuous
 62
     7
100
AcDbLine
 10
1497.5896750228
 20
28.4651386039
 30
0.0
 11
1497.5896750228
 21
24.3668011158
 31
0.0
  0
LINE
  5
1E6
330
1F
100
AcDbEntity
  8
0
  6
Continuous
 62
     7
100
AcDbLine
 10
1497.5896750228
 20
34.5526043723
 30
0.0
 11
1497.5896750228
 21
28.4651386039
 31
0.0
  0
LINE
  5
1E7
330
1F
100
AcDbEntity
  8
0
  6
Continuous
 62
     7
100
AcDbLine
 10
1496.9296676318
 20
28.7126057423
 30
0.0
 11
1496.9296676318
 21
25.6340153065
 31
0.0
  0
LINE
  5
1E8
330
1F
100
AcDbEntity
  8
0
  6
Continuous
 62
     7
100
AcDbLine
 10
1496.9296676318
 20
33.2853901817
 30
0.0
 11
1496.9296676318
 21
28.7126057423
 31
0.0
  0
LINE
  5
1E9
330
1F
100
AcDbEntity
  8
0
  6
Continuous
 62
     7
100
AcDbLine
 10
600.6000313671
 20
23.5597027441
 30
0.0
 11
600.6000313671
 21
35.3597027441
 31
0.0
  0
LINE
  5
1EA
330
1F
100
AcDbEntity
  8
0
  6
Continuous
 62
     7
100
AcDbLine
 10
601.9304024934
 20
24.3668011158
 30
0.0
 11
601.9304024934
 21
34.5526043723
 31
0.0
  0
LINE
  5
1EB
330
1F
100
AcDbEntity
  8
0
  6
Continuous
 62
     7
100
AcDbLine
 10
602.5904098843
 20
25.6340153065
 30
0.0
 11
602.5904098843
 21
33.2853901817
 31
0.0
  0
LINE
  5
1EC
330
1F
100
AcDbEntity
  8
0
  6
Continuous
 62
     7
100
AcDbLine
 10
1462.2600387581
 20
38.1197101351
 30
0.0
 11
1468.1600387581
 21
38.1197101351
 31
0.0
  0
LINE
  5
1ED
330
1F
100
AcDbEntity
  8
0
  6
Continuous
 62
     7
100
AcDbLine
 10
1456.3600387581
 20
38.1197101351
 30
0.0
 11
1462.2600387581
 21
38.1197101351
 31
0.0
  0
LINE
  5
1EE
330
1F
100
AcDbEntity
  8
0
  6
Continuous
 62
     7
100
AcDbLine
 10
1462.2600387581
 20
36.7893390088
 30
0.0
 11
1467.3529403863
 21
36.7893390088
 31
0.0
  0
LINE
  5
1EF
330
1F
100
AcDbEntity
  8
0
  6
Continuous
 62
     7
100
AcDbLine
 10
1457.1671371298
 20
36.7893390088
 30
0.0
 11
1462.2600387581
 21
36.7893390088
 31
0.0
  0
LINE
  5
1F0
330
1F
100
AcDbEntity
  8
0
  6
Continuous
 62
     7
100
AcDbLine
 10
1462.2600387581
 20
36.1293316178
 30
0.0
 11
1466.0857261957
 21
36.1293316178
 31
0.0
  0
LINE
  5
1F1
330
1F
100
AcDbEntity
  8
0
  6
Continuous
 62
     7
100
AcDbLine
 10
1458.4343513205
 20
36.1293316178
 30
0.0
 11
1462.2600387581
 21
36.1293316178
 31
0.0
  0
LINE
  5
1F2
330
1F
100
AcDbEntity
  8
0
  6
Continuous
 62
     7
100
AcDbLine
 10
631.3600387581
 20
38.1197101351
 30
0.0
 11
643.1600387581
 21
38.1197101351
 31
0.0
  0
LINE
  5
1F3
330
1F
100
AcDbEntity
  8
0
  6
Continuous
 62
     7
100
AcDbLine
 10
632.1671371298
 20
36.7893390088
 30
0.0
 11
642.3529403863
 21
36.7893390088
 31
0.0
  0
LINE
  5
1F4
330
1F
100
AcDbEntity
  8
0
  6
Continuous
 62
     7
100
AcDbLine
 10
633.4343513205
 20
36.1293316178
 30
0.0
 11
641.0857261957
 21
36.1293316178
 31
0.0
  0
LINE
  5
1F5
330
1F
100
AcDbEntity
  8
0
  6
Continuous
 62
     7
100
AcDbLine
 10
906.3600387581
 20
38.1197101351
 30
0.0
 11
918.1600387581
 21
38.1197101351
 31
0.0
  0
LINE
  5
1F6
330
1F
100
AcDbEntity
  8
0
  6
Continuous
 62
     7
100
AcDbLine
 10
907.1671371298
 20
36.7893390088
 30
0.0
 11
917.3529403863
 21
36.7893390088
 31
0.0
  0
LINE
  5
1F7
330
1F
100
AcDbEntity
  8
0
  6
Continuous
 62
     7
100
AcDbLine
 10
908.4343513205
 20
36.1293316178
 30
0.0
 11
916.0857261957
 21
36.1293316178
 31
0.0
  0
LINE
  5
1F8
330
1F
100
AcDbEntity
  8
0
  6
Continuous
 62
     7
100
AcDbLine
 10
1181.3600387581
 20
38.1197101351
 30
0.0
 11
1193.1600387581
 21
38.1197101351
 31
0.0
  0
LINE
  5
1F9
330
1F
100
AcDbEntity
  8
0
  6
Continuous
 62
     7
100
AcDbLine
 10
1182.1671371298
 20
36.7893390088
 30
0.0
 11
1192.3529403863
 21
36.7893390088
 31
0.0
  0
LINE
  5
1FA
330
1F
100
AcDbEntity
  8
0
  6
Continuous
 62
     7
100
AcDbLine
 10
1183.4343513205
 20
36.1293316178
 30
0.0
 11
1191.0857261957
 21
36.1293316178
 31
0.0
  0
LINE
  5
1FB
330
1F
100
AcDbEntity
  8
0
  6
Continuous
 62
     7
100
AcDbLine
 10
1615.4690627699
 20
158.0505787164
 30
0.0
 11
1609.6690627699
 21
158.0505787164
 31
0.0
  0
LINE
  5
1FC
330
1F
100
AcDbEntity
  8
0
  6
Continuous
 62
     7
100
AcDbLine
 10
1609.6690627699
 20
152.0505787164
 30
0.0
 11
1615.4690627699
 21
152.0505787164
 31
0.0
  0
LINE
  5
1FD
330
1F
100
AcDbEntity
  8
0
  6
Continuous
 62
     7
100
AcDbLine
 10
1609.6690627699
 20
158.0505787164
 30
0.0
 11
1609.1690627699
 21
157.5505787164
 31
0.0
  0
LINE
  5
1FE
330
1F
100
AcDbEntity
  8
0
  6
Continuous
 62
     7
100
AcDbLine
 10
1609.1690627699
 20
152.5505787164
 30
0.0
 11
1609.6690627699
 21
152.0505787164
 31
0.0
  0
LINE
  5
1FF
330
1F
100
AcDbEntity
  8
0
  6
Continuous
 62
     7
100
AcDbLine
 10
1627.8690627699
 20
124.5505787164
 30
0.0
 11
1627.8690627699
 21
136.5505787164
 31
0.0
  0
LINE
  5
200
330
1F
100
AcDbEntity
  8
0
  6
Continuous
 62
     7
100
AcDbLine
 10
1584.8690627699
 20
124.5505787164
 30
0.0
 11
1627.8690627699
 21
124.5505787164
 31
0.0
  0
LINE
  5
201
330
1F
100
AcDbEntity
  8
0
  6
Continuous
 62
     7
100
AcDbLine
 10
1584.8690627699
 20
124.5505787164
 30
0.0
 11
1584.8690627699
 21
136.5505787164
 31
0.0
  0
LINE
  5
202
330
1F
100
AcDbEntity
  8
0
  6
Continuous
 62
     7
100
AcDbLine
 10
1627.8690627699
 20
136.5505787164
 30
0.0
 11
1584.8690627699
 21
136.5505787164
 31
0.0
  0
LINE
  5
203
330
1F
100
AcDbEntity
  8
0
  6
Continuous
 62
     7
100
AcDbLine
 10
1640.8690627699
 20
142.5505787164
 30
0.0
 11
1640.8690627699
 21
158.5505787164
 31
0.0
  0
LINE
  5
204
330
1F
100
AcDbEntity
  8
0
  6
Continuous
 62
     7
100
AcDbLine
 10
1640.8690627699
 20
142.5505787164
 30
0.0
 11
1640.8690627699
 21
140.0505787164
 31
0.0
  0
LINE
  5
205
330
1F
100
AcDbEntity
  8
0
  6
Continuous
 62
     7
100
AcDbLine
 10
1640.8690627699
 20
140.0505787164
 30
0.0
 11
1616.8690627699
 21
140.0505787164
 31
0.0
  0
LINE
  5
206
330
1F
100
AcDbEntity
  8
0
  6
Continuous
 62
     7
100
AcDbLine
 10
1637.8690627699
 20
161.5505787164
 30
0.0
 11
1616.8690627699
 21
161.5505787164
 31
0.0
  0
LINE
  5
207
330
1F
100
AcDbEntity
  8
0
  6
Continuous
 62
     7
100
AcDbLine
 10
1640.8690627699
 20
158.5505787164
 30
0.0
 11
1637.8690627699
 21
161.5505787164
 31
0.0
  0
LINE
  5
208
330
1F
100
AcDbEntity
  8
0
  6
Continuous
 62
     7
100
AcDbLine
 10
1616.8690627699
 20
161.5505787164
 30
0.0
 11
1616.8690627699
 21
140.0505787164
 31
0.0
  0
LINE
  5
209
330
1F
100
AcDbEntity
  8
0
  6
Continuous
 62
     7
100
AcDbLine
 10
1643.3690627699
 20
137.1005787164
 30
0.0
 11
1644.9690627699
 21
137.1005787164
 31
0.0
  0
LINE
  5
20A
330
1F
100
AcDbEntity
  8
0
  6
Continuous
 62
     7
100
AcDbLine
 10
1644.9690627699
 20
137.1005787164
 30
0.0
 11
1644.9690627699
 21
130.0505787164
 31
0.0
  0
LINE
  5
20B
330
1F
100
AcDbEntity
  8
0
  6
Continuous
 62
     7
100
AcDbLine
 10
1644.9690627699
 20
130.0505787164
 30
0.0
 11
1641.8690627699
 21
130.0505787164
 31
0.0
  0
LINE
  5
20C
330
1F
100
AcDbEntity
  8
0
  6
Continuous
 62
     7
100
AcDbLine
 10
1643.3690627699
 20
139.0505787164
 30
0.0
 11
1641.8690627699
 21
139.0505787164
 31
0.0
  0
LINE
  5
20D
330
1F
100
AcDbEntity
  8
0
  6
Continuous
 62
     7
100
AcDbLine
 10
1641.8690627699
 20
130.0505787164
 30
0.0
 11
1641.8690627699
 21
139.0505787164
 31
0.0
  0
LINE
  5
20E
330
1F
100
AcDbEntity
  8
0
  6
Continuous
 62
     7
100
AcDbLine
 10
1643.3690627699
 20
137.1005787164
 30
0.0
 11
1643.3690627699
 21
139.0505787164
 31
0.0
  0
LINE
  5
20F
330
1F
100
AcDbEntity
  8
0
  6
Continuous
 62
     7
100
AcDbLine
 10
1616.8690627699
 20
162.1505787164
 30
0.0
 11
1615.4690627699
 21
162.1505787164
 31
0.0
  0
LINE
  5
210
330
1F
100
AcDbEntity
  8
0
  6
Continuous
 62
     7
100
AcDbLine
 10
1616.8690627699
 20
161.5505787164
 30
0.0
 11
1616.8690627699
 21
162.1505787164
 31
0.0
  0
LINE
  5
211
330
1F
100
AcDbEntity
  8
0
  6
Continuous
 62
     7
100
AcDbLine
 10
1616.8690627699
 20
143.5505787164
 30
0.0
 11
1615.4690627699
 21
143.5505787164
 31
0.0
  0
LINE
  5
212
330
1F
100
AcDbEntity
  8
0
  6
Continuous
 62
     7
100
AcDbLine
 10
1615.4690627699
 20
143.5505787164
 30
0.0
 11
1615.4690627699
 21
162.1505787164
 31
0.0
  0
LINE
  5
213
330
1F
100
AcDbEntity
  8
0
  6
Continuous
 62
     7
100
AcDbLine
 10
1640.8690627699
 20
141.5505787164
 30
0.0
 11
1643.3690627699
 21
141.5505787164
 31
0.0
  0
LINE
  5
214
330
1F
100
AcDbEntity
  8
0
  6
Continuous
 62
     7
100
AcDbLine
 10
1641.8690627699
 20
139.0505787164
 30
0.0
 11
1641.8690627699
 21
140.0505787164
 31
0.0
  0
LINE
  5
215
330
1F
100
AcDbEntity
  8
0
  6
Continuous
 62
     7
100
AcDbLine
 10
1643.3690627699
 20
139.0505787164
 30
0.0
 11
1643.3690627699
 21
141.5505787164
 31
0.0
  0
LINE
  5
216
330
1F
100
AcDbEntity
  8
0
  6
Continuous
 62
     7
100
AcDbLine
 10
1640.8690627699
 20
140.0505787164
 30
0.0
 11
1641.8690627699
 21
140.0505787164
 31
0.0
  0
LINE
  5
217
330
1F
100
AcDbEntity
  8
0
  6
Continuous
 62
     7
100
AcDbLine
 10
1616.8690627699
 20
141.0505787164
 30
0.0
 11
1615.4690627699
 21
141.0505787164
 31
0.0
  0
LINE
  5
218
330
1F
100
AcDbEntity
  8
0
  6
Continuous
 62
     7
100
AcDbLine
 10
1615.4690627699
 20
141.0505787164
 30
0.0
 11
1615.4690627699
 21
143.5505787164
 31
0.0
  0
LINE
  5
219
330
1F
100
AcDbEntity
  8
0
  6
Continuous
 62
     7
100
AcDbLine
 10
1617.8690627699
 20
140.0505787164
 30
0.0
 11
1617.8690627699
 21
138.6505787164
 31
0.0
  0
LINE
  5
21A
330
1F
100
AcDbEntity
  8
0
  6
Continuous
 62
     7
100
AcDbLine
 10
1625.4690627699
 20
138.6505787164
 30
0.0
 11
1625.4690627699
 21
140.0505787164
 31
0.0
  0
LINE
  5
21B
330
1F
100
AcDbEntity
  8
0
  6
Continuous
 62
     7
100
AcDbLine
 10
1625.4690627699
 20
138.6505787164
 30
0.0
 11
1617.8690627699
 21
138.6505787164
 31
0.0
  0
LINE
  5
21C
330
1F
100
AcDbEntity
  8
0
  6
Continuous
 62
     7
100
AcDbLine
 10
1617.8690627699
 20
138.6505787164
 30
0.0
 11
1615.4690627699
 21
138.6505787164
 31
0.0
  0
LINE
  5
21D
330
1F
100
AcDbEntity
  8
0
  6
Continuous
 62
     7
100
AcDbLine
 10
1615.4690627699
 20
141.0505787164
 30
0.0
 11
1615.4690627699
 21
138.6505787164
 31
0.0
  0
LINE
  5
21E
330
1F
100
AcDbEntity
  8
0
  6
Continuous
 62
     7
100
AcDbLine
 10
1626.4690627699
 20
137.6505787164
 30
0.0
 11
1627.8690627699
 21
137.6505787164
 31
0.0
  0
LINE
  5
21F
330
1F
100
AcDbEntity
  8
0
  6
Continuous
 62
     7
100
AcDbLine
 10
1625.4690627699
 20
138.6505787164
 30
0.0
 11
1626.4690627699
 21
138.6505787164
 31
0.0
  0
LINE
  5
220
330
1F
100
AcDbEntity
  8
0
  6
Continuous
 62
     7
100
AcDbLine
 10
1626.4690627699
 20
137.6505787164
 30
0.0
 11
1626.4690627699
 21
138.6505787164
 31
0.0
  0
LINE
  5
221
330
1F
100
AcDbEntity
  8
0
  6
Continuous
 62
     7
100
AcDbLine
 10
1627.8690627699
 20
137.6505787164
 30
0.0
 11
1627.8690627699
 21
140.0505787164
 31
0.0
  0
LINE
  5
222
330
1F
100
AcDbEntity
  8
0
  6
Continuous
 62
     7
100
AcDbLine
 10
1626.4690627699
 20
137.6505787164
 30
0.0
 11
1626.4690627699
 21
136.5505787164
 31
0.0
  0
LINE
  5
223
330
1F
100
AcDbEntity
  8
0
  6
Continuous
 62
     7
100
AcDbLine
 10
1627.8690627699
 20
137.6505787164
 30
0.0
 11
1627.8690627699
 21
136.5505787164
 31
0.0
  0
CIRCLE
  5
224
330
1F
100
AcDbEntity
  8
0
  6
Continuous
 62
     7
100
AcDbCircle
 10
1629.8690627699
 20
154.5505787164
 30
0.0
 40
2.499999999999848
  0
CIRCLE
  5
225
330
1F
100
AcDbEntity
  8
0
  6
Continuous
 62
     7
100
AcDbCircle
 10
1629.8690627699
 20
154.5505787164
 30
0.0
 40
3.000000000000003
  0
LINE
  5
226
330
1F
100
AcDbEntity
  8
0
  6
Continuous
 62
     7
100
AcDbLine
 10
1609.6690627699
 20
152.0505787164
 30
0.0
 11
1609.6690627699
 21
158.0505787164
 31
0.0
  0
LINE
  5
227
330
1F
100
AcDbEntity
  8
0
  6
Continuous
 62
     7
100
AcDbLine
 10
1609.1690627699
 20
152.5505787164
 30
0.0
 11
1609.1690627699
 21
157.5505787164
 31
0.0
  0
LINE
  5
228
330
1F
100
AcDbEntity
  8
0
  6
Continuous
 62
     7
100
AcDbLine
 10
1750.7805741719
 20
157.5505787165
 30
0.0
 11
1743.5805741719
 21
157.5505787165
 31
0.0
  0
LINE
  5
229
330
1F
100
AcDbEntity
  8
0
  6
Continuous
 62
     7
100
AcDbLine
 10
1743.5805741719
 20
151.5505787165
 30
0.0
 11
1750.7805741719
 21
151.5505787165
 31
0.0
  0
LINE
  5
22A
330
1F
100
AcDbEntity
  8
0
  6
Continuous
 62
     7
100
AcDbLine
 10
1743.5805741719
 20
157.5505787165
 30
0.0
 11
1743.0805741719
 21
157.0505787165
 31
0.0
  0
LINE
  5
22B
330
1F
100
AcDbEntity
  8
0
  6
Continuous
 62
     7
100
AcDbLine
 10
1743.0805741719
 20
152.0505787165
 30
0.0
 11
1743.5805741719
 21
151.5505787165
 31
0.0
  0
LINE
  5
22C
330
1F
100
AcDbEntity
  8
0
  6
Continuous
 62
     7
100
AcDbLine
 10
2657.7805741719
 20
151.5505787164
 30
0.0
 11
2664.9805741719
 21
151.5505787164
 31
0.0
  0
LINE
  5
22D
330
1F
100
AcDbEntity
  8
0
  6
Continuous
 62
     7
100
AcDbLine
 10
2664.9805741719
 20
157.5505787164
 30
0.0
 11
2657.7805741719
 21
157.5505787164
 31
0.0
  0
LINE
  5
22E
330
1F
100
AcDbEntity
  8
0
  6
Continuous
 62
     7
100
AcDbLine
 10
2664.9805741719
 20
151.5505787164
 30
0.0
 11
2665.4805741719
 21
152.0505787164
 31
0.0
  0
LINE
  5
22F
330
1F
100
AcDbEntity
  8
0
  6
Continuous
 62
     7
100
AcDbLine
 10
2665.4805741719
 20
157.0505787164
 30
0.0
 11
2664.9805741719
 21
157.5505787164
 31
0.0
  0
LINE
  5
230
330
1F
100
AcDbEntity
  8
0
  6
Continuous
 62
     7
100
AcDbLine
 10
1706.7805741719
 20
124.5505787165
 30
0.0
 11
1706.7805741719
 21
136.5505787165
 31
0.0
  0
LINE
  5
231
330
1F
100
AcDbEntity
  8
0
  6
Continuous
 62
     7
100
AcDbLine
 10
2701.7805741719
 20
136.5505787164
 30
0.0
 11
1706.7805741719
 21
136.5505787165
 31
0.0
  0
LINE
  5
232
330
1F
100
AcDbEntity
  8
0
  6
Continuous
 62
     7
100
AcDbLine
 10
2701.7805741719
 20
124.5505787164
 30
0.0
 11
2701.7805741719
 21
136.5505787164
 31
0.0
  0
LINE
  5
233
330
1F
100
AcDbEntity
  8
0
  6
Continuous
 62
     7
100
AcDbLine
 10
1706.7805741719
 20
124.5505787165
 30
0.0
 11
2701.7805741719
 21
124.5505787164
 31
0.0
  0
LINE
  5
234
330
1F
100
AcDbEntity
  8
0
  6
Continuous
 62
     7
100
AcDbLine
 10
1751.0305741719
 20
143.5505787165
 30
0.0
 11
1773.0305741719
 21
143.5505787165
 31
0.0
  0
LINE
  5
235
330
1F
100
AcDbEntity
  8
0
  6
Continuous
 62
     7
100
AcDbLine
 10
1751.0305741719
 20
162.1505787165
 30
0.0
 11
1751.0305741719
 21
143.5505787165
 31
0.0
  0
LINE
  5
236
330
1F
100
AcDbEntity
  8
0
  6
Continuous
 62
     7
100
AcDbLine
 10
2657.5305741719
 20
162.1505787164
 30
0.0
 11
1751.0305741719
 21
162.1505787165
 31
0.0
  0
LINE
  5
237
330
1F
100
AcDbEntity
  8
0
  6
Continuous
 62
     7
100
AcDbLine
 10
2657.5305741719
 20
143.5505787164
 30
0.0
 11
2657.5305741719
 21
162.1505787164
 31
0.0
  0
LINE
  5
238
330
1F
100
AcDbEntity
  8
0
  6
Continuous
 62
     7
100
AcDbLine
 10
2635.5305741719
 20
143.5505787164
 30
0.0
 11
2657.5305741719
 21
143.5505787164
 31
0.0
  0
LINE
  5
239
330
1F
100
AcDbEntity
  8
0
  6
Continuous
 62
     7
100
AcDbLine
 10
2635.5305741719
 20
141.0505787164
 30
0.0
 11
2635.5305741719
 21
143.5505787164
 31
0.0
  0
LINE
  5
23A
330
1F
100
AcDbEntity
  8
0
  6
Continuous
 62
     7
100
AcDbLine
 10
2635.5305741719
 20
141.0505787164
 30
0.0
 11
2635.5305741719
 21
138.6505787164
 31
0.0
  0
LINE
  5
23B
330
1F
100
AcDbEntity
  8
0
  6
Continuous
 62
     7
100
AcDbLine
 10
1773.0305741719
 20
138.6505787165
 30
0.0
 11
2635.5305741719
 21
138.6505787164
 31
0.0
  0
LINE
  5
23C
330
1F
100
AcDbEntity
  8
0
  6
Continuous
 62
     7
100
AcDbLine
 10
1773.0305741719
 20
141.0505787165
 30
0.0
 11
1773.0305741719
 21
138.6505787165
 31
0.0
  0
LINE
  5
23D
330
1F
100
AcDbEntity
  8
0
  6
Continuous
 62
     7
100
AcDbLine
 10
1773.0305741719
 20
143.5505787165
 30
0.0
 11
1773.0305741719
 21
141.0505787165
 31
0.0
  0
CIRCLE
  5
23E
330
1F
100
AcDbEntity
  8
0
  6
Continuous
 62
     7
100
AcDbCircle
 10
1791.7805741719
 20
155.0505787165
 30
0.0
 40
3.25
  0
CIRCLE
  5
23F
330
1F
100
AcDbEntity
  8
0
  6
Continuous
 62
     7
100
AcDbCircle
 10
2066.7805741719
 20
155.0505787164
 30
0.0
 40
3.25
  0
CIRCLE
  5
240
330
1F
100
AcDbEntity
  8
0
  6
Continuous
 62
     7
100
AcDbCircle
 10
2341.7805741719
 20
155.0505787164
 30
0.0
 40
3.25
  0
CIRCLE
  5
241
330
1F
100
AcDbEntity
  8
0
  6
Continuous
 62
     7
100
AcDbCircle
 10
2616.7805741719
 20
155.0505787164
 30
0.0
 40
3.25
  0
LINE
  5
242
330
1F
100
AcDbEntity
  8
0
  6
Continuous
 62
     7
100
AcDbLine
 10
1773.0305741719
 20
140.0505787165
 30
0.0
 11
1750.7805741719
 21
140.0505787165
 31
0.0
  0
LINE
  5
243
330
1F
100
AcDbEntity
  8
0
  6
Continuous
 62
     7
100
AcDbLine
 10
1750.7805741719
 20
140.0505787165
 30
0.0
 11
1750.7805741719
 21
161.5505787165
 31
0.0
  0
LINE
  5
244
330
1F
100
AcDbEntity
  8
0
  6
Continuous
 62
     7
100
AcDbLine
 10
1751.0305741719
 20
161.5505787165
 30
0.0
 11
1750.7805741719
 21
161.5505787165
 31
0.0
  0
LINE
  5
245
330
1F
100
AcDbEntity
  8
0
  6
Continuous
 62
     7
100
AcDbLine
 10
2657.7805741719
 20
161.5505787164
 30
0.0
 11
2657.7805741719
 21
140.0505787164
 31
0.0
  0
LINE
  5
246
330
1F
100
AcDbEntity
  8
0
  6
Continuous
 62
     7
100
AcDbLine
 10
2657.7805741719
 20
140.0505787164
 30
0.0
 11
2635.5305741719
 21
140.0505787164
 31
0.0
  0
LINE
  5
247
330
1F
100
AcDbEntity
  8
0
  6
Continuous
 62
     7
100
AcDbLine
 10
2657.7805741719
 20
161.5505787164
 30
0.0
 11
2657.5305741719
 21
161.5505787164
 31
0.0
  0
LINE
  5
248
330
1F
100
AcDbEntity
  8
0
  6
Continuous
 62
     7
100
AcDbLine
 10
1773.0305741719
 20
137.6505787165
 30
0.0
 11
1773.0305741719
 21
136.5505787165
 31
0.0
  0
LINE
  5
249
330
1F
100
AcDbEntity
  8
0
  6
Continuous
 62
     7
100
AcDbLine
 10
2635.5305741719
 20
137.6505787164
 30
0.0
 11
2635.5305741719
 21
136.5505787164
 31
0.0
  0
LINE
  5
24A
330
1F
100
AcDbEntity
  8
0
  6
Continuous
 62
     7
100
AcDbLine
 10
2635.5305741719
 20
137.6505787164
 30
0.0
 11
2635.5305741719
 21
138.6505787164
 31
0.0
  0
LINE
  5
24B
330
1F
100
AcDbEntity
  8
0
  6
Continuous
 62
     7
100
AcDbLine
 10
1773.0305741719
 20
137.6505787165
 30
0.0
 11
1773.0305741719
 21
138.6505787165
 31
0.0
  0
LINE
  5
24C
330
1F
100
AcDbEntity
  8
0
  6
Continuous
 62
     7
100
AcDbLine
 10
2657.7805741719
 20
139.0505787164
 30
0.0
 11
2655.2805741719
 21
139.0505787164
 31
0.0
  0
LINE
  5
24D
330
1F
100
AcDbEntity
  8
0
  6
Continuous
 62
     7
100
AcDbLine
 10
2657.7805741719
 20
136.5505787164
 30
0.0
 11
2657.7805741719
 21
139.0505787164
 31
0.0
  0
LINE
  5
24E
330
1F
100
AcDbEntity
  8
0
  6
Continuous
 62
     7
100
AcDbLine
 10
1750.7805741719
 20
139.0505787165
 30
0.0
 11
1750.7805741719
 21
136.5505787165
 31
0.0
  0
LINE
  5
24F
330
1F
100
AcDbEntity
  8
0
  6
Continuous
 62
     7
100
AcDbLine
 10
1753.2805741719
 20
139.0505787165
 30
0.0
 11
1750.7805741719
 21
139.0505787165
 31
0.0
  0
LINE
  5
250
330
1F
100
AcDbEntity
  8
0
  6
Continuous
 62
     7
100
AcDbLine
 10
2655.2805741719
 20
139.0505787164
 30
0.0
 11
2655.2805741719
 21
140.0505787164
 31
0.0
  0
LINE
  5
251
330
1F
100
AcDbEntity
  8
0
  6
Continuous
 62
     7
100
AcDbLine
 10
1753.2805741719
 20
139.0505787165
 30
0.0
 11
1753.2805741719
 21
140.0505787165
 31
0.0
  0
LINE
  5
252
330
1F
100
AcDbEntity
  8
0
  6
Continuous
 62
     7
100
AcDbLine
 10
1743.5805741719
 20
151.5505787165
 30
0.0
 11
1743.5805741719
 21
157.5505787165
 31
0.0
  0
LINE
  5
253
330
1F
100
AcDbEntity
  8
0
  6
Continuous
 62
     7
100
AcDbLine
 10
1743.0805741719
 20
152.0505787165
 30
0.0
 11
1743.0805741719
 21
157.0505787165
 31
0.0
  0
LINE
  5
254
330
1F
100
AcDbEntity
  8
0
  6
Continuous
 62
     7
100
AcDbLine
 10
2664.9805741719
 20
152.9996026627
 30
0.0
 11
2664.9805741719
 21
151.5505787164
 31
0.0
  0
LINE
  5
255
330
1F
100
AcDbEntity
  8
0
  6
Continuous
 62
     7
100
AcDbLine
 10
2664.9805741719
 20
157.5505787164
 30
0.0
 11
2664.9805741719
 21
152.9996026627
 31
0.0
  0
LINE
  5
256
330
1F
100
AcDbEntity
  8
0
  6
Continuous
 62
     7
100
AcDbLine
 10
2665.4805741719
 20
153.2580986717
 30
0.0
 11
2665.4805741719
 21
152.0505787164
 31
0.0
  0
LINE
  5
257
330
1F
100
AcDbEntity
  8
0
  6
Continuous
 62
     7
100
AcDbLine
 10
2665.4805741719
 20
157.0505787164
 30
0.0
 11
2665.4805741719
 21
153.2580986717
 31
0.0
  0
CIRCLE
  5
258
330
1F
100
AcDbEntity
  8
0
  6
Continuous
 62
     7
100
AcDbCircle
 10
1791.7805741719
 20
155.0505787165
 30
0.0
 40
3.0
  0
CIRCLE
  5
259
330
1F
100
AcDbEntity
  8
0
  6
Continuous
 62
     7
100
AcDbCircle
 10
1791.7805741719
 20
155.0505787165
 30
0.0
 40
2.5
  0
CIRCLE
  5
25A
330
1F
100
AcDbEntity
  8
0
  6
Continuous
 62
     7
100
AcDbCircle
 10
2616.7805741719
 20
155.0505787164
 30
0.0
 40
2.499999999999964
  0
CIRCLE
  5
25B
330
1F
100
AcDbEntity
  8
0
  6
Continuous
 62
     7
100
AcDbCircle
 10
2616.7805741719
 20
155.0505787164
 30
0.0
 40
3.000000000000028
  0
CIRCLE
  5
25C
330
1F
100
AcDbEntity
  8
0
  6
Continuous
 62
     7
100
AcDbCircle
 10
2341.7805741719
 20
155.0505787164
 30
0.0
 40
2.500000000000015
  0
CIRCLE
  5
25D
330
1F
100
AcDbEntity
  8
0
  6
Continuous
 62
     7
100
AcDbCircle
 10
2341.7805741719
 20
155.0505787164
 30
0.0
 40
3.000000000000019
  0
CIRCLE
  5
25E
330
1F
100
AcDbEntity
  8
0
  6
Continuous
 62
     7
100
AcDbCircle
 10
2066.7805741719
 20
155.0505787164
 30
0.0
 40
2.50000000000011
  0
CIRCLE
  5
25F
330
1F
100
AcDbEntity
  8
0
  6
Continuous
 62
     7
100
AcDbCircle
 10
2066.7805741719
 20
155.0505787164
 30
0.0
 40
3.000000000000154
  0
ENDSEC
  0
SECTION
  2
OBJECTS
  0
DICTIONARY
  5
C
330
0
100
AcDbDictionary
281
     1
  3
ACAD_GROUP
350
D
  3
ACAD_LAYOUT
350
1A
  3
ACAD_MLINESTYLE
350
17
  3
ACAD_PLOTSETTINGS
350
19
  3
ACAD_PLOTSTYLENAME
350
E
  3
ACAD_SCALELIST
350
47
  3
DWGPROPS
350
260
  0
DICTIONARY
  5
D
102
{ACAD_REACTORS
330
C
102
}
330
C
100
AcDbDictionary
281
     1
  0
DICTIONARY
  5
1A
102
{ACAD_REACTORS
330
C
102
}
330
C
100
AcDbDictionary
281
     1
  3
Layout1
350
1E
  3
Layout2
350
26
  3
Model
350
22
  0
DICTIONARY
  5
17
102
{ACAD_REACTORS
330
C
102
}
330
C
100
AcDbDictionary
281
     1
  3
Standard
350
18
  0
DICTIONARY
  5
19
102
{ACAD_REACTORS
330
C
102
}
330
C
100
AcDbDictionary
281
     1
  0
ACDBDICTIONARYWDFLT
  5
E
102
{ACAD_REACTORS
330
C
102
}
330
C
100
AcDbDictionary
281
     1
  3
Normal
350
F
100
AcDbDictionaryWithDefault
340
F
  0
DICTIONARY
  5
47
102
{ACAD_REACTORS
330
C
102
}
330
C
100
AcDbDictionary
281
     1
  3
A0
350
48
  3
A1
350
49
  3
A2
350
4A
  3
A3
350
4B
  3
A4
350
4C
  3
A5
350
4D
  3
A6
350
4E
  3
A7
350
4F
  3
A8
350
50
  3
A9
350
51
  3
B0
350
52
  3
B1
350
53
  3
B2
350
54
  3
B3
350
55
  3
B4
350
56
  3
B5
350
57
  3
B6
350
58
  0
XRECORD
  5
260
102
{ACAD_REACTORS
330
C
102
}
330
C
100
AcDbXrecord
280
     1
  1
DWGPROPS COOKIE
  2

  3

  4

  6

  7

  8
moskovchenkovapa
  9

300
=
301
=
302
=
303
=
304
=
305
=
306
=
307
=
308
=
309
=
 40
0.0
 41
2460670.576731215
 42
2460670.576731991
  1

 90
        0
  0
LAYOUT
  5
1E
102
{ACAD_REACTORS
330
1A
102
}
330
1A
100
AcDbPlotSettings
  1

  2
none_device
  4

  6

 40
0.0
 41
0.0
 42
0.0
 43
0.0
 44
0.0
 45
0.0
 46
0.0
 47
0.0
 48
0.0
 49
0.0
140
0.0
141
0.0
142
1.0
143
1.0
 70
   688
 72
     1
 73
     0
 74
     5
  7

 75
    16
147
1.0
148
0.0
149
0.0
100
AcDbLayout
  1
Layout1
 70
     1
 71
     1
 10
0.0
 20
0.0
 11
420.0
 21
297.0
 12
0.0
 22
0.0
 32
0.0
 14
1.0000000000E+20
 24
1.0000000000E+20
 34
1.0000000000E+20
 15
-1.0000000000E+20
 25
-1.0000000000E+20
 35
-1.0000000000E+20
146
0.0
 13
0.0
 23
0.0
 33
0.0
 16
1.0
 26
0.0
 36
0.0
 17
0.0
 27
1.0
 37
0.0
 76
     0
330
1B
  0
LAYOUT
  5
26
102
{ACAD_REACTORS
330
1A
102
}
330
1A
100
AcDbPlotSettings
  1

  2
none_device
  4

  6

 40
0.0
 41
0.0
 42
0.0
 43
0.0
 44
0.0
 45
0.0
 46
0.0
 47
0.0
 48
0.0
 49
0.0
140
0.0
141
0.0
142
1.0
143
1.0
 70
   688
 72
     1
 73
     0
 74
     5
  7

 75
    16
147
1.0
148
0.0
149
0.0
100
AcDbLayout
  1
Layout2
 70
     1
 71
     2
 10
0.0
 20
0.0
 11
0.0
 21
0.0
 12
0.0
 22
0.0
 32
0.0
 14
0.0
 24
0.0
 34
0.0
 15
0.0
 25
0.0
 35
0.0
146
0.0
 13
0.0
 23
0.0
 33
0.0
 16
1.0
 26
0.0
 36
0.0
 17
0.0
 27
1.0
 37
0.0
 76
     0
330
23
  0
LAYOUT
  5
22
102
{ACAD_REACTORS
330
1A
102
}
330
1A
100
AcDbPlotSettings
  1

  2
none_device
  4
Letter_(8.50_x_11.00_Inches)
  6

 40
6.35
 41
6.35
 42
6.35000508
 43
6.35000508
 44
215.9
 45
279.4
 46
0.0
 47
0.0
 48
0.0
 49
0.0
140
0.0
141
0.0
142
1.0
143
1.0
 70
  1712
 72
     1
 73
     0
 74
     0
  7

 75
     0
147
1.0
148
0.0
149
0.0
100
AcDbLayout
  1
Model
 70
     1
 71
     0
 10
0.0
 20
0.0
 11
420.0
 21
297.0
 12
0.0
 22
0.0
 32
0.0
 14
0.0
 24
0.0
 34
0.0
 15
420.0
 25
297.0
 35
0.0
146
0.0
 13
0.0
 23
0.0
 33
0.0
 16
1.0
 26
0.0
 36
0.0
 17
0.0
 27
1.0
 37
0.0
 76
     0
330
1F
331
29
  0
MLINESTYLE
  5
18
102
{ACAD_REACTORS
330
17
102
}
330
17
100
AcDbMlineStyle
  2
Standard
 70
     0
  3

 62
   256
 51
90.0
 52
90.0
 71
     2
 49
0.5
 62
   256
  6
BYLAYER
 49
-0.5
 62
   256
  6
BYLAYER
  0
ACDBPLACEHOLDER
  5
F
102
{ACAD_REACTORS
330
E
102
}
330
E
  0
SCALE
  5
48
102
{ACAD_REACTORS
330
47
102
}
330
47
100
AcDbScale
 70
     0
300
1:1
140
1.0
141
1.0
290
     1
  0
SCALE
  5
49
102
{ACAD_REACTORS
330
47
102
}
330
47
100
AcDbScale
 70
     0
300
1:2
140
1.0
141
2.0
290
     0
  0
SCALE
  5
4A
102
{ACAD_REACTORS
330
47
102
}
330
47
100
AcDbScale
 70
     0
300
1:4
140
1.0
141
4.0
290
     0
  0
SCALE
  5
4B
102
{ACAD_REACTORS
330
47
102
}
330
47
100
AcDbScale
 70
     0
300
1:5
140
1.0
141
5.0
290
     0
  0
SCALE
  5
4C
102
{ACAD_REACTORS
330
47
102
}
330
47
100
AcDbScale
 70
     0
300
1:8
140
1.0
141
8.0
290
     0
  0
SCALE
  5
4D
102
{ACAD_REACTORS
330
47
102
}
330
47
100
AcDbScale
 70
     0
300
1:10
140
1.0
141
10.0
290
     0
  0
SCALE
  5
4E
102
{ACAD_REACTORS
330
47
102
}
330
47
100
AcDbScale
 70
     0
300
1:16
140
1.0
141
16.0
290
     0
  0
SCALE
  5
4F
102
{ACAD_REACTORS
330
47
102
}
330
47
100
AcDbScale
 70
     0
300
1:20
140
1.0
141
20.0
290
     0
  0
SCALE
  5
50
102
{ACAD_REACTORS
330
47
102
}
330
47
100
AcDbScale
 70
     0
300
1:30
140
1.0
141
30.0
290
     0
  0
SCALE
  5
51
102
{ACAD_REACTORS
330
47
102
}
330
47
100
AcDbScale
 70
     0
300
1:40
140
1.0
141
40.0
290
     0
  0
SCALE
  5
52
102
{ACAD_REACTORS
330
47
102
}
330
47
100
AcDbScale
 70
     0
300
1:50
140
1.0
141
50.0
290
     0
  0
SCALE
  5
53
102
{ACAD_REACTORS
330
47
102
}
330
47
100
AcDbScale
 70
     0
300
1:100
140
1.0
141
100.0
290
     0
  0
SCALE
  5
54
102
{ACAD_REACTORS
330
47
102
}
330
47
100
AcDbScale
 70
     0
300
2:1
140
2.0
141
1.0
290
     0
  0
SCALE
  5
55
102
{ACAD_REACTORS
330
47
102
}
330
47
100
AcDbScale
 70
     0
300
4:1
140
4.0
141
1.0
290
     0
  0
SCALE
  5
56
102
{ACAD_REACTORS
330
47
102
}
330
47
100
AcDbScale
 70
     0
300
8:1
140
8.0
141
1.0
290
     0
  0
SCALE
  5
57
102
{ACAD_REACTORS
330
47
102
}
330
47
100
AcDbScale
 70
     0
300
10:1
140
10.0
141
1.0
290
     0
  0
SCALE
  5
58
102
{ACAD_REACTORS
330
47
102
}
330
47
100
AcDbScale
 70
     0
300
100:1
140
100.0
141
1.0
290
     0
  0
ENDSEC
  0
EOF
