ISO-10303-21;
HEADER;
FILE_DESCRIPTION (( 'STEP AP203' ),
    '1' );
FILE_NAME ('CLP1K-060-1 Êðûøêà íà ëîòîê îñí. 60  ìì. ( äëèíà 2 ìåòðà).STEP',
    '2016-03-14T08:15:47',
    ( '' ),
    ( '' ),
    'SwSTEP 2.0',
    'SolidWorks 2014',
    '' );
FILE_SCHEMA (( 'CONFIG_CONTROL_DESIGN' ));
ENDSEC;

DATA;
#1 = DIRECTION ( 'NONE',  ( 0.0000000000000000000, 3.491481338843133400E-015, -1.000000000000000000 ) ) ;
#2 = PLANE ( 'NONE',  #177 ) ;
#3 = PERSON_AND_ORGANIZATION ( #143, #118 ) ;
#4 =( LENGTH_UNIT ( ) NAMED_UNIT ( * ) SI_UNIT ( .MILLI., .METRE. ) );
#5 = ORIENTED_EDGE ( 'NONE', *, *, #46, .T. ) ;
#6 = APPROVAL_ROLE ( '' ) ;
#7 = LINE ( 'NONE', #192, #222 ) ;
#8 = CC_DESIGN_DATE_AND_TIME_ASSIGNMENT ( #295, #325, ( #345 ) ) ;
#9 = ORIENTED_EDGE ( 'NONE', *, *, #338, .F. ) ;
#10 = DIRECTION ( 'NONE',  ( -4.232467377468589100E-031, -3.437222986455592900E-015, -1.000000000000000000 ) ) ;
#11 = VECTOR ( 'NONE', #224, 1000.000000000000000 ) ;
#12 = DIRECTION ( 'NONE',  ( 0.0000000000000000000, -3.491481338843133400E-015, -1.000000000000000000 ) ) ;
#13 = COORDINATED_UNIVERSAL_TIME_OFFSET ( 3, 0, .AHEAD. ) ;
#14 = ADVANCED_FACE ( 'NONE', ( #76 ), #2, .F. ) ;
#15 = DIRECTION ( 'NONE',  ( 1.000000000000000000, 0.0000000000000000000, 0.0000000000000000000 ) ) ;
#16 = VERTEX_POINT ( 'NONE', #172 ) ;
#17 =( GEOMETRIC_REPRESENTATION_CONTEXT ( 3 ) GLOBAL_UNCERTAINTY_ASSIGNED_CONTEXT ( ( #205 ) ) GLOBAL_UNIT_ASSIGNED_CONTEXT ( ( #4, #204, #39 ) ) REPRESENTATION_CONTEXT ( 'NONE', 'WORKASPACE' ) );
#18 = CARTESIAN_POINT ( 'NONE',  ( 1042.500000000000000, -16.15000000000000200, -1.000000000000056400 ) ) ;
#19 = EDGE_CURVE ( 'NONE', #139, #209, #32, .T. ) ;
#20 = DIRECTION ( 'NONE',  ( 0.0000000000000000000, -1.000000000000000000, 3.437222986455592900E-015 ) ) ;
#21 = ORIENTED_EDGE ( 'NONE', *, *, #181, .T. ) ;
#22 = LINE ( 'NONE', #174, #166 ) ;
#23 = ADVANCED_FACE ( 'NONE', ( #329 ), #347, .T. ) ;
#24 = LOCAL_TIME ( 11, 15, 47.00000000000000000, #100 ) ;
#25 = ORIENTED_EDGE ( 'NONE', *, *, #98, .F. ) ;
#26 = DIRECTION ( 'NONE',  ( -0.0000000000000000000, -0.0000000000000000000, -1.000000000000000000 ) ) ;
#27 = ORIENTED_EDGE ( 'NONE', *, *, #81, .T. ) ;
#28 = FACE_OUTER_BOUND ( 'NONE', #88, .T. ) ;
#29 = CARTESIAN_POINT ( 'NONE',  ( -1042.500000000000000, 1.993589332144244100E-013, 59.00000000000000700 ) ) ;
#30 = VERTEX_POINT ( 'NONE', #119 ) ;
#31 = DIRECTION ( 'NONE',  ( -0.0000000000000000000, 1.000000000000000000, -3.437222986455592900E-015 ) ) ;
#32 = LINE ( 'NONE', #170, #254 ) ;
#33 = CARTESIAN_POINT ( 'NONE',  ( 1042.500000000000000, 2.444036937190193300E-015, 59.70000000000000300 ) ) ;
#34 = CARTESIAN_POINT ( 'NONE',  ( 0.0000000000000000000, 2.444036937190193300E-015, -1.700000000000000200 ) ) ;
#35 = CALENDAR_DATE ( 2016, 14, 3 ) ;
#36 = VERTEX_POINT ( 'NONE', #202 ) ;
#37 = ADVANCED_BREP_SHAPE_REPRESENTATION ( 'CLP1K-060-1 ¦¨v°úð ýð ûþªþú þ¸ý. 60  üü. ( ôûøýð 2 üõª¨ð)', ( #277, #114 ), #17 ) ;
#38 = FACE_OUTER_BOUND ( 'NONE', #201, .T. ) ;
#39 =( NAMED_UNIT ( * ) SI_UNIT ( $, .STERADIAN. ) SOLID_ANGLE_UNIT ( ) );
#40 = AXIS2_PLACEMENT_3D ( 'NONE', #308, #135, #337 ) ;
#41 = DATE_TIME_ROLE ( 'creation_date' ) ;
#42 = ORIENTED_EDGE ( 'NONE', *, *, #120, .F. ) ;
#43 = ORIENTED_EDGE ( 'NONE', *, *, #46, .F. ) ;
#44 = CARTESIAN_POINT ( 'NONE',  ( 1042.500000000000000, 0.6999999999999999600, 58.00000000000000000 ) ) ;
#45 = PERSON_AND_ORGANIZATION ( #143, #118 ) ;
#46 = EDGE_CURVE ( 'NONE', #229, #16, #110, .T. ) ;
#47 = CARTESIAN_POINT ( 'NONE',  ( 1042.500000000000000, 2.444036937190193300E-015, -1.700000000000000200 ) ) ;
#48 = ORIENTED_EDGE ( 'NONE', *, *, #199, .F. ) ;
#49 = CARTESIAN_POINT ( 'NONE',  ( 1042.500000000000000, 0.6999999999999809700, 59.69999999999997400 ) ) ;
#50 = FACE_OUTER_BOUND ( 'NONE', #193, .T. ) ;
#51 = DIRECTION ( 'NONE',  ( -1.000000000000000000, 1.231362467360036000E-016, -8.758115402030106700E-047 ) ) ;
#52 = CARTESIAN_POINT ( 'NONE',  ( 2.454831078931781800E-029, 2.465190328815661900E-029, 59.00000000000000700 ) ) ;
#53 = VERTEX_POINT ( 'NONE', #116 ) ;
#54 = ORIENTED_EDGE ( 'NONE', *, *, #60, .T. ) ;
#55 = LINE ( 'NONE', #272, #343 ) ;
#56 = CARTESIAN_POINT ( 'NONE',  ( 1042.500000000000000, 0.7000000000000001800, -1.700000000000000200 ) ) ;
#57 = ORIENTED_EDGE ( 'NONE', *, *, #62, .T. ) ;
#58 = ORIENTED_EDGE ( 'NONE', *, *, #199, .T. ) ;
#59 = DIRECTION ( 'NONE',  ( 1.000000000000000000, 0.0000000000000000000, -0.0000000000000000000 ) ) ;
#60 = EDGE_CURVE ( 'NONE', #266, #322, #96, .T. ) ;
#61 = VECTOR ( 'NONE', #302, 1000.000000000000000 ) ;
#62 = EDGE_CURVE ( 'NONE', #318, #139, #22, .T. ) ;
#63 = APPLICATION_PROTOCOL_DEFINITION ( 'international standard', 'config_control_design', 1994, #91 ) ;
#64 = COORDINATED_UNIVERSAL_TIME_OFFSET ( 3, 0, .AHEAD. ) ;
#65 = ORIENTED_EDGE ( 'NONE', *, *, #163, .T. ) ;
#66 = APPROVAL_ROLE ( '' ) ;
#67 = DIRECTION ( 'NONE',  ( -0.0000000000000000000, -0.0000000000000000000, -1.000000000000000000 ) ) ;
#68 = DIRECTION ( 'NONE',  ( 0.0000000000000000000, 3.491481338843133700E-015, -1.000000000000000000 ) ) ;
#69 = ORIENTED_EDGE ( 'NONE', *, *, #367, .F. ) ;
#70 = VECTOR ( 'NONE', #168, 1000.000000000000000 ) ;
#71 = CARTESIAN_POINT ( 'NONE',  ( 1042.500000000000000, 0.6999999999999999600, 58.00000000000000000 ) ) ;
#72 = CARTESIAN_POINT ( 'NONE',  ( -1042.500000000000000, -16.14999999999999900, -1.700000000000056600 ) ) ;
#73 = LOCAL_TIME ( 11, 15, 47.00000000000000000, #151 ) ;
#74 = ADVANCED_FACE ( 'NONE', ( #241 ), #200, .T. ) ;
#75 = DIRECTION ( 'NONE',  ( 1.000000000000000000, -1.477758086569391400E-045, -4.232467377468589100E-031 ) ) ;
#76 = FACE_OUTER_BOUND ( 'NONE', #282, .T. ) ;
#77 = LINE ( 'NONE', #29, #11 ) ;
#78 = EDGE_CURVE ( 'NONE', #318, #322, #313, .T. ) ;
#79 = APPROVAL_DATE_TIME ( #161, #269 ) ;
#80 = CARTESIAN_POINT ( 'NONE',  ( 1042.500000000000000, -16.14999999999999900, 59.70000000000006000 ) ) ;
#81 = EDGE_CURVE ( 'NONE', #16, #266, #85, .T. ) ;
#82 = ORIENTED_EDGE ( 'NONE', *, *, #279, .T. ) ;
#83 = PRODUCT ( 'CLP1K-060-1 Êðûøêà íà ëîòîê îñí. 60  ìì. ( äëèíà 2 ìåòðà)', 'CLP1K-060-1 Êðûøêà íà ëîòîê îñí. 60  ìì. ( äëèíà 2 ìåòðà)', '', ( #124 ) ) ;
#84 = VERTEX_POINT ( 'NONE', #56 ) ;
#85 = LINE ( 'NONE', #80, #157 ) ;
#86 = CARTESIAN_POINT ( 'NONE',  ( 1042.500000000000000, -16.14999999999999900, -1.700000000000056600 ) ) ;
#87 = APPROVAL_PERSON_ORGANIZATION ( #167, #269, #66 ) ;
#88 = EDGE_LOOP ( 'NONE', ( #352, #271, #58, #9, #186, #25, #101, #57 ) ) ;
#89 = ORIENTED_EDGE ( 'NONE', *, *, #81, .F. ) ;
#90 = EDGE_CURVE ( 'NONE', #117, #30, #369, .T. ) ;
#91 = APPLICATION_CONTEXT ( 'configuration controlled 3d designs of mechanical parts and assemblies' ) ;
#92 = VECTOR ( 'NONE', #75, 1000.000000000000000 ) ;
#93 = PERSON_AND_ORGANIZATION_ROLE ( 'design_supplier' ) ;
#94 = ORIENTED_EDGE ( 'NONE', *, *, #236, .F. ) ;
#95 = CARTESIAN_POINT ( 'NONE',  ( 2.454831078931781800E-029, 1.993589332144244100E-013, 59.00000000000000700 ) ) ;
#96 = LINE ( 'NONE', #231, #320 ) ;
#97 = PLANE ( 'NONE',  #179 ) ;
#98 = EDGE_CURVE ( 'NONE', #322, #117, #77, .T. ) ;
#99 = CARTESIAN_POINT ( 'NONE',  ( -1042.500000000000000, 0.7000000000000001800, -1.700000000000000200 ) ) ;
#100 = COORDINATED_UNIVERSAL_TIME_OFFSET ( 3, 0, .AHEAD. ) ;
#101 = ORIENTED_EDGE ( 'NONE', *, *, #78, .F. ) ;
#102 = PLANE ( 'NONE',  #40 ) ;
#103 = ORIENTED_EDGE ( 'NONE', *, *, #350, .T. ) ;
#104 = EDGE_CURVE ( 'NONE', #344, #30, #223, .T. ) ;
#105 = VECTOR ( 'NONE', #51, 1000.000000000000000 ) ;
#106 = ADVANCED_FACE ( 'NONE', ( #150 ), #97, .F. ) ;
#107 = PLANE ( 'NONE',  #215 ) ;
#108 = CARTESIAN_POINT ( 'NONE',  ( -1042.500000000000000, -16.14999999999973900, 59.70000000000006000 ) ) ;
#109 = ADVANCED_FACE ( 'NONE', ( #362 ), #107, .T. ) ;
#110 = LINE ( 'NONE', #33, #173 ) ;
#111 = LOCAL_TIME ( 11, 15, 47.00000000000000000, #185 ) ;
#112 = LINE ( 'NONE', #72, #189 ) ;
#113 = CARTESIAN_POINT ( 'NONE',  ( 0.0000000000000000000, -16.15000000000000200, -1.000000000000056400 ) ) ;
#114 = AXIS2_PLACEMENT_3D ( 'NONE', #281, #311, #296 ) ;
#115 = EDGE_LOOP ( 'NONE', ( #253, #178, #188, #366 ) ) ;
#116 = CARTESIAN_POINT ( 'NONE',  ( -1042.500000000000000, -16.15000000000000200, -1.000000000000056400 ) ) ;
#117 = VERTEX_POINT ( 'NONE', #255 ) ;
#118 = ORGANIZATION ( 'UNSPECIFIED', 'UNSPECIFIED', '' ) ;
#119 = CARTESIAN_POINT ( 'NONE',  ( -1042.500000000000000, 0.0000000000000000000, -1.000000000000000000 ) ) ;
#120 = EDGE_CURVE ( 'NONE', #53, #290, #292, .T. ) ;
#121 = ORIENTED_EDGE ( 'NONE', *, *, #219, .F. ) ;
#122 = VECTOR ( 'NONE', #303, 1000.000000000000000 ) ;
#123 = EDGE_CURVE ( 'NONE', #141, #290, #213, .T. ) ;
#124 = MECHANICAL_CONTEXT ( 'NONE', #91, 'mechanical' ) ;
#125 = PERSON_AND_ORGANIZATION_ROLE ( 'classification_officer' ) ;
#126 = ORIENTED_EDGE ( 'NONE', *, *, #181, .F. ) ;
#127 = EDGE_LOOP ( 'NONE', ( #130, #54, #245, #239 ) ) ;
#128 = CARTESIAN_POINT ( 'NONE',  ( 1042.500000000000000, -16.14999999999999900, -1.700000000000056600 ) ) ;
#129 = CARTESIAN_POINT ( 'NONE',  ( -1042.500000000000000, 0.0000000000000000000, 58.00000000000000000 ) ) ;
#130 = ORIENTED_EDGE ( 'NONE', *, *, #367, .T. ) ;
#131 = PLANE ( 'NONE',  #336 ) ;
#132 = FACE_OUTER_BOUND ( 'NONE', #312, .T. ) ;
#133 = DIRECTION ( 'NONE',  ( -0.0000000000000000000, 1.000000000000000000, 3.491481338843133700E-015 ) ) ;
#134 = ADVANCED_FACE ( 'NONE', ( #284 ), #353, .T. ) ;
#135 = DIRECTION ( 'NONE',  ( -1.000000000000000000, 0.0000000000000000000, 0.0000000000000000000 ) ) ;
#136 = APPROVAL_DATE_TIME ( #206, #263 ) ;
#137 = CC_DESIGN_PERSON_AND_ORGANIZATION_ASSIGNMENT ( #45, #324, ( #83 ) ) ;
#138 = CARTESIAN_POINT ( 'NONE',  ( 1042.500000000000000, 1.993589332144244100E-013, 59.00000000000000700 ) ) ;
#139 = VERTEX_POINT ( 'NONE', #156 ) ;
#140 = PRODUCT_DEFINITION_SHAPE ( 'NONE', 'NONE',  #153 ) ;
#141 = VERTEX_POINT ( 'NONE', #242 ) ;
#142 = VECTOR ( 'NONE', #243, 1000.000000000000000 ) ;
#143 = PERSON ( 'UNSPECIFIED', 'UNSPECIFIED', 'UNSPECIFIED', ('UNSPECIFIED'), ('UNSPECIFIED'), ('UNSPECIFIED') ) ;
#144 = DIRECTION ( 'NONE',  ( 0.0000000000000000000, -3.491481338843133400E-015, -1.000000000000000000 ) ) ;
#145 = EDGE_CURVE ( 'NONE', #229, #84, #203, .T. ) ;
#146 = APPROVAL_PERSON_ORGANIZATION ( #218, #263, #351 ) ;
#147 = DIRECTION ( 'NONE',  ( -0.0000000000000000000, -1.000000000000000000, 3.437222986455592900E-015 ) ) ;
#148 = CLOSED_SHELL ( 'NONE', ( #14, #276, #160, #109, #23, #74, #106, #217, #246, #134 ) ) ;
#149 = CARTESIAN_POINT ( 'NONE',  ( -1042.500000000000000, 0.6999999999999999600, 58.00000000000000000 ) ) ;
#150 = FACE_OUTER_BOUND ( 'NONE', #115, .T. ) ;
#151 = COORDINATED_UNIVERSAL_TIME_OFFSET ( 3, 0, .AHEAD. ) ;
#152 = APPLICATION_CONTEXT ( 'configuration controlled 3d designs of mechanical parts and assemblies' ) ;
#153 = PRODUCT_DEFINITION ( 'UNKNOWN', '', #250, #293 ) ;
#154 = APPROVAL_STATUS ( 'not_yet_approved' ) ;
#155 = ORIENTED_EDGE ( 'NONE', *, *, #123, .F. ) ;
#156 = CARTESIAN_POINT ( 'NONE',  ( -1042.500000000000000, 0.6999999999999809700, 59.69999999999997400 ) ) ;
#157 = VECTOR ( 'NONE', #285, 1000.000000000000000 ) ;
#158 = DIRECTION ( 'NONE',  ( 0.0000000000000000000, -1.000000000000000000, 0.0000000000000000000 ) ) ;
#159 = CARTESIAN_POINT ( 'NONE',  ( 0.0000000000000000000, 0.0000000000000000000, -1.000000000000000000 ) ) ;
#160 = ADVANCED_FACE ( 'NONE', ( #132 ), #330, .T. ) ;
#161 = DATE_AND_TIME ( #235, #314 ) ;
#162 = PLANE ( 'NONE',  #365 ) ;
#163 = EDGE_CURVE ( 'NONE', #141, #84, #355, .T. ) ;
#164 = CARTESIAN_POINT ( 'NONE',  ( 1042.500000000000000, -16.14999999999999900, 59.70000000000006000 ) ) ;
#165 = CARTESIAN_POINT ( 'NONE',  ( -1042.500000000000000, 0.0000000000000000000, -1.000000000000000000 ) ) ;
#166 = VECTOR ( 'NONE', #31, 1000.000000000000000 ) ;
#167 = PERSON_AND_ORGANIZATION ( #143, #118 ) ;
#168 = DIRECTION ( 'NONE',  ( -1.000000000000000000, -0.0000000000000000000, -0.0000000000000000000 ) ) ;
#169 = LINE ( 'NONE', #220, #315 ) ;
#170 = CARTESIAN_POINT ( 'NONE',  ( -1042.500000000000000, 0.6999999999999999600, 58.00000000000000000 ) ) ;
#171 = APPROVAL ( #182, 'UNSPECIFIED' ) ;
#172 = CARTESIAN_POINT ( 'NONE',  ( 1042.500000000000000, -16.14999999999999900, 59.70000000000006000 ) ) ;
#173 = VECTOR ( 'NONE', #147, 1000.000000000000000 ) ;
#174 = CARTESIAN_POINT ( 'NONE',  ( -1042.500000000000000, -16.14999999999973900, 59.70000000000006000 ) ) ;
#175 = DIRECTION ( 'NONE',  ( -0.0000000000000000000, -0.0000000000000000000, -1.000000000000000000 ) ) ;
#176 = PERSON_AND_ORGANIZATION ( #143, #118 ) ;
#177 = AXIS2_PLACEMENT_3D ( 'NONE', #149, #233, #198 ) ;
#178 = ORIENTED_EDGE ( 'NONE', *, *, #338, .T. ) ;
#179 = AXIS2_PLACEMENT_3D ( 'NONE', #159, #68, #304 ) ;
#180 = VECTOR ( 'NONE', #15, 1000.000000000000000 ) ;
#181 = EDGE_CURVE ( 'NONE', #264, #344, #274, .T. ) ;
#182 = APPROVAL_STATUS ( 'not_yet_approved' ) ;
#183 = VECTOR ( 'NONE', #144, 1000.000000000000000 ) ;
#184 = CARTESIAN_POINT ( 'NONE',  ( 1042.500000000000000, 0.0000000000000000000, 58.00000000000000000 ) ) ;
#185 = COORDINATED_UNIVERSAL_TIME_OFFSET ( 3, 0, .AHEAD. ) ;
#186 = ORIENTED_EDGE ( 'NONE', *, *, #90, .F. ) ;
#187 = DIRECTION ( 'NONE',  ( -1.231362467360036000E-016, -1.000000000000000000, 3.491481338843133400E-015 ) ) ;
#188 = ORIENTED_EDGE ( 'NONE', *, *, #120, .T. ) ;
#189 = VECTOR ( 'NONE', #275, 1000.000000000000000 ) ;
#190 = DIRECTION ( 'NONE',  ( 0.0000000000000000000, 1.000000000000000000, -3.437222986455592900E-015 ) ) ;
#191 = CC_DESIGN_APPROVAL ( #171, ( #153 ) ) ;
#192 = CARTESIAN_POINT ( 'NONE',  ( 1042.500000000000000, -16.14999999999999900, -1.700000000000056600 ) ) ;
#193 = EDGE_LOOP ( 'NONE', ( #291, #89, #82, #273 ) ) ;
#194 = SHAPE_DEFINITION_REPRESENTATION ( #140, #37 ) ;
#195 = ORIENTED_EDGE ( 'NONE', *, *, #262, .T. ) ;
#196 = LINE ( 'NONE', #356, #260 ) ;
#197 = CARTESIAN_POINT ( 'NONE',  ( 0.0000000000000000000, -3.851859888774471700E-031, -1.000000000000000000 ) ) ;
#198 = DIRECTION ( 'NONE',  ( 0.0000000000000000000, 0.0000000000000000000, -1.000000000000000000 ) ) ;
#199 = EDGE_CURVE ( 'NONE', #36, #53, #55, .T. ) ;
#200 = PLANE ( 'NONE',  #258 ) ;
#201 = EDGE_LOOP ( 'NONE', ( #43, #297, #340, #328 ) ) ;
#202 = CARTESIAN_POINT ( 'NONE',  ( -1042.500000000000000, -16.14999999999999900, -1.700000000000056600 ) ) ;
#203 = LINE ( 'NONE', #44, #348 ) ;
#204 =( NAMED_UNIT ( * ) PLANE_ANGLE_UNIT ( ) SI_UNIT ( $, .RADIAN. ) );
#205 = UNCERTAINTY_MEASURE_WITH_UNIT (LENGTH_MEASURE( 1.000000000000000100E-005 ), #4, 'distance_accuracy_value', 'NONE');
#206 = DATE_AND_TIME ( #286, #358 ) ;
#207 = PERSON_AND_ORGANIZATION_ROLE ( 'creator' ) ;
#208 = CC_DESIGN_PERSON_AND_ORGANIZATION_ASSIGNMENT ( #176, #207, ( #153 ) ) ;
#209 = VERTEX_POINT ( 'NONE', #99 ) ;
#210 = DIRECTION ( 'NONE',  ( 0.0000000000000000000, 1.000000000000000000, -3.437222986455592900E-015 ) ) ;
#211 = ORIENTED_EDGE ( 'NONE', *, *, #163, .F. ) ;
#212 = DIRECTION ( 'NONE',  ( 0.0000000000000000000, -3.491481338843133400E-015, 1.000000000000000000 ) ) ;
#213 = LINE ( 'NONE', #128, #232 ) ;
#214 = AXIS2_PLACEMENT_3D ( 'NONE', #86, #289, #1 ) ;
#215 = AXIS2_PLACEMENT_3D ( 'NONE', #71, #59, #234 ) ;
#216 = CARTESIAN_POINT ( 'NONE',  ( -1043.489949493661200, 0.7000000000000001800, -1.700000000000000200 ) ) ;
#217 = ADVANCED_FACE ( 'NONE', ( #50 ), #131, .T. ) ;
#218 = PERSON_AND_ORGANIZATION ( #143, #118 ) ;
#219 = EDGE_CURVE ( 'NONE', #209, #36, #112, .T. ) ;
#220 = CARTESIAN_POINT ( 'NONE',  ( -1043.489949493661200, 0.6999999999999809700, 59.69999999999997400 ) ) ;
#221 = CARTESIAN_POINT ( 'NONE',  ( 1042.500000000000000, -3.851859888774471700E-031, -1.000000000000000000 ) ) ;
#222 = VECTOR ( 'NONE', #251, 1000.000000000000000 ) ;
#223 = LINE ( 'NONE', #197, #70 ) ;
#224 = DIRECTION ( 'NONE',  ( 0.0000000000000000000, 1.000000000000000000, -3.437222986455592900E-015 ) ) ;
#225 = PERSON_AND_ORGANIZATION ( #143, #118 ) ;
#226 = DIRECTION ( 'NONE',  ( 0.0000000000000000000, 1.000000000000000000, 3.491481338843133700E-015 ) ) ;
#227 = CC_DESIGN_DATE_AND_TIME_ASSIGNMENT ( #244, #41, ( #153 ) ) ;
#228 = DIRECTION ( 'NONE',  ( -1.000000000000000000, 1.231362467360036000E-016, -8.758115402030106700E-047 ) ) ;
#229 = VERTEX_POINT ( 'NONE', #49 ) ;
#230 = EDGE_LOOP ( 'NONE', ( #21, #94, #155, #65, #368, #5, #27, #69 ) ) ;
#231 = CARTESIAN_POINT ( 'NONE',  ( -1.988650384786442300E-015, -16.14999999999987400, 59.00000000000005700 ) ) ;
#232 = VECTOR ( 'NONE', #240, 1000.000000000000000 ) ;
#233 = DIRECTION ( 'NONE',  ( 0.0000000000000000000, -1.000000000000000000, 0.0000000000000000000 ) ) ;
#234 = DIRECTION ( 'NONE',  ( -0.0000000000000000000, 0.0000000000000000000, -1.000000000000000000 ) ) ;
#235 = CALENDAR_DATE ( 2016, 14, 3 ) ;
#236 = EDGE_CURVE ( 'NONE', #290, #344, #196, .T. ) ;
#237 = LINE ( 'NONE', #165, #323 ) ;
#238 = APPROVAL_STATUS ( 'not_yet_approved' ) ;
#239 = ORIENTED_EDGE ( 'NONE', *, *, #298, .T. ) ;
#240 = DIRECTION ( 'NONE',  ( 0.0000000000000000000, -3.491481338843133400E-015, 1.000000000000000000 ) ) ;
#241 = FACE_OUTER_BOUND ( 'NONE', #252, .T. ) ;
#242 = CARTESIAN_POINT ( 'NONE',  ( 1042.500000000000000, -16.14999999999999900, -1.700000000000056600 ) ) ;
#243 = DIRECTION ( 'NONE',  ( -0.0000000000000000000, 1.000000000000000000, 3.491481338843133700E-015 ) ) ;
#244 = DATE_AND_TIME ( #321, #24 ) ;
#245 = ORIENTED_EDGE ( 'NONE', *, *, #98, .T. ) ;
#246 = ADVANCED_FACE ( 'NONE', ( #38 ), #162, .F. ) ;
#247 = CARTESIAN_POINT ( 'NONE',  ( 1042.500000000000000, 0.0000000000000000000, 59.00000000000000700 ) ) ;
#248 = LINE ( 'NONE', #52, #92 ) ;
#249 = DIRECTION ( 'NONE',  ( 1.000000000000000000, 0.0000000000000000000, 0.0000000000000000000 ) ) ;
#250 = PRODUCT_DEFINITION_FORMATION_WITH_SPECIFIED_SOURCE ( 'ANY', '', #83, .NOT_KNOWN. ) ;
#251 = DIRECTION ( 'NONE',  ( 1.000000000000000000, 0.0000000000000000000, 0.0000000000000000000 ) ) ;
#252 = EDGE_LOOP ( 'NONE', ( #121, #195, #211, #342 ) ) ;
#253 = ORIENTED_EDGE ( 'NONE', *, *, #104, .T. ) ;
#254 = VECTOR ( 'NONE', #175, 1000.000000000000000 ) ;
#255 = CARTESIAN_POINT ( 'NONE',  ( -1042.500000000000000, 5.127050073817270800E-016, 59.00000000000000700 ) ) ;
#256 = APPROVAL_DATE_TIME ( #331, #171 ) ;
#257 = ORIENTED_EDGE ( 'NONE', *, *, #19, .F. ) ;
#258 = AXIS2_PLACEMENT_3D ( 'NONE', #34, #317, #226 ) ;
#259 = AXIS2_PLACEMENT_3D ( 'NONE', #95, #10, #210 ) ;
#260 = VECTOR ( 'NONE', #133, 1000.000000000000000 ) ;
#261 = CARTESIAN_POINT ( 'NONE',  ( -1042.500000000000000, 0.0000000000000000000, 58.00000000000000000 ) ) ;
#262 = EDGE_CURVE ( 'NONE', #209, #84, #267, .T. ) ;
#263 = APPROVAL ( #154, 'UNSPECIFIED' ) ;
#264 = VERTEX_POINT ( 'NONE', #247 ) ;
#265 = APPROVAL_PERSON_ORGANIZATION ( #341, #171, #6 ) ;
#266 = VERTEX_POINT ( 'NONE', #278 ) ;
#267 = LINE ( 'NONE', #216, #180 ) ;
#268 = PERSON_AND_ORGANIZATION_ROLE ( 'creator' ) ;
#269 = APPROVAL ( #238, 'UNSPECIFIED' ) ;
#270 = EDGE_LOOP ( 'NONE', ( #42, #48, #103, #333 ) ) ;
#271 = ORIENTED_EDGE ( 'NONE', *, *, #219, .T. ) ;
#272 = CARTESIAN_POINT ( 'NONE',  ( -1042.500000000000000, -16.14999999999999900, -1.700000000000056600 ) ) ;
#273 = ORIENTED_EDGE ( 'NONE', *, *, #78, .T. ) ;
#274 = LINE ( 'NONE', #184, #122 ) ;
#275 = DIRECTION ( 'NONE',  ( 0.0000000000000000000, -1.000000000000000000, -3.491481338843133700E-015 ) ) ;
#276 = ADVANCED_FACE ( 'NONE', ( #28 ), #102, .T. ) ;
#277 = MANIFOLD_SOLID_BREP ( 'Áîáûøêà-Âûòÿíóòü1', #148 ) ;
#278 = CARTESIAN_POINT ( 'NONE',  ( 1042.500000000000000, -16.15000000000000200, 59.00000000000005700 ) ) ;
#279 = EDGE_CURVE ( 'NONE', #16, #318, #335, .T. ) ;
#280 = ORIENTED_EDGE ( 'NONE', *, *, #90, .T. ) ;
#281 = CARTESIAN_POINT ( 'NONE',  ( 0.0000000000000000000, 0.0000000000000000000, 0.0000000000000000000 ) ) ;
#282 = EDGE_LOOP ( 'NONE', ( #307, #299, #257, #346 ) ) ;
#283 = CC_DESIGN_APPROVAL ( #263, ( #345 ) ) ;
#284 = FACE_OUTER_BOUND ( 'NONE', #127, .T. ) ;
#285 = DIRECTION ( 'NONE',  ( 0.0000000000000000000, -3.491481338843133400E-015, -1.000000000000000000 ) ) ;
#286 = CALENDAR_DATE ( 2016, 14, 3 ) ;
#287 = CC_DESIGN_APPROVAL ( #269, ( #250 ) ) ;
#288 = VECTOR ( 'NONE', #20, 1000.000000000000000 ) ;
#289 = DIRECTION ( 'NONE',  ( 0.0000000000000000000, -1.000000000000000000, -3.491481338843133400E-015 ) ) ;
#290 = VERTEX_POINT ( 'NONE', #18 ) ;
#291 = ORIENTED_EDGE ( 'NONE', *, *, #60, .F. ) ;
#292 = LINE ( 'NONE', #113, #61 ) ;
#293 = DESIGN_CONTEXT ( 'detailed design', #152, 'design' ) ;
#294 = AXIS2_PLACEMENT_3D ( 'NONE', #129, #158, #354 ) ;
#295 = DATE_AND_TIME ( #363, #73 ) ;
#296 = DIRECTION ( 'NONE',  ( 1.000000000000000000, 0.0000000000000000000, 0.0000000000000000000 ) ) ;
#297 = ORIENTED_EDGE ( 'NONE', *, *, #316, .F. ) ;
#298 = EDGE_CURVE ( 'NONE', #117, #264, #248, .T. ) ;
#299 = ORIENTED_EDGE ( 'NONE', *, *, #262, .F. ) ;
#300 = SECURITY_CLASSIFICATION_LEVEL ( 'unclassified' ) ;
#301 = CC_DESIGN_SECURITY_CLASSIFICATION ( #345, ( #250 ) ) ;
#302 = DIRECTION ( 'NONE',  ( 1.000000000000000000, -0.0000000000000000000, -0.0000000000000000000 ) ) ;
#303 = DIRECTION ( 'NONE',  ( -0.0000000000000000000, -0.0000000000000000000, -1.000000000000000000 ) ) ;
#304 = DIRECTION ( 'NONE',  ( 0.0000000000000000000, 1.000000000000000000, 3.491481338843133700E-015 ) ) ;
#305 = VECTOR ( 'NONE', #26, 1000.000000000000000 ) ;
#306 = PERSON_AND_ORGANIZATION ( #143, #118 ) ;
#307 = ORIENTED_EDGE ( 'NONE', *, *, #145, .T. ) ;
#308 = CARTESIAN_POINT ( 'NONE',  ( -1042.500000000000000, 0.0000000000000000000, 58.00000000000000000 ) ) ;
#309 = CARTESIAN_POINT ( 'NONE',  ( -1042.500000000000000, -16.14999999999974300, 59.00000000000005700 ) ) ;
#310 = CC_DESIGN_PERSON_AND_ORGANIZATION_ASSIGNMENT ( #3, #268, ( #250 ) ) ;
#311 = DIRECTION ( 'NONE',  ( 0.0000000000000000000, 0.0000000000000000000, 1.000000000000000000 ) ) ;
#312 = EDGE_LOOP ( 'NONE', ( #280, #361, #126, #327 ) ) ;
#313 = LINE ( 'NONE', #364, #183 ) ;
#314 = LOCAL_TIME ( 11, 15, 47.00000000000000000, #13 ) ;
#315 = VECTOR ( 'NONE', #249, 1000.000000000000000 ) ;
#316 = EDGE_CURVE ( 'NONE', #139, #229, #169, .T. ) ;
#317 = DIRECTION ( 'NONE',  ( 0.0000000000000000000, 3.491481338843133700E-015, -1.000000000000000000 ) ) ;
#318 = VERTEX_POINT ( 'NONE', #108 ) ;
#319 = PRODUCT_RELATED_PRODUCT_CATEGORY ( 'detail', '', ( #83 ) ) ;
#320 = VECTOR ( 'NONE', #228, 1000.000000000000000 ) ;
#321 = CALENDAR_DATE ( 2016, 14, 3 ) ;
#322 = VERTEX_POINT ( 'NONE', #309 ) ;
#323 = VECTOR ( 'NONE', #339, 1000.000000000000000 ) ;
#324 = PERSON_AND_ORGANIZATION_ROLE ( 'design_owner' ) ;
#325 = DATE_TIME_ROLE ( 'classification_date' ) ;
#326 = CC_DESIGN_PERSON_AND_ORGANIZATION_ASSIGNMENT ( #306, #93, ( #250 ) ) ;
#327 = ORIENTED_EDGE ( 'NONE', *, *, #298, .F. ) ;
#328 = ORIENTED_EDGE ( 'NONE', *, *, #279, .F. ) ;
#329 = FACE_OUTER_BOUND ( 'NONE', #270, .T. ) ;
#330 = PLANE ( 'NONE',  #294 ) ;
#331 = DATE_AND_TIME ( #35, #111 ) ;
#332 = CARTESIAN_POINT ( 'NONE',  ( 1042.500000000000000, -16.14999999999999900, 59.70000000000006000 ) ) ;
#333 = ORIENTED_EDGE ( 'NONE', *, *, #123, .T. ) ;
#334 = CARTESIAN_POINT ( 'NONE',  ( 2.454831078931781800E-029, 2.018029701516146100E-013, 59.70000000000000300 ) ) ;
#335 = LINE ( 'NONE', #164, #105 ) ;
#336 = AXIS2_PLACEMENT_3D ( 'NONE', #332, #187, #12 ) ;
#337 = DIRECTION ( 'NONE',  ( 0.0000000000000000000, 0.0000000000000000000, 1.000000000000000000 ) ) ;
#338 = EDGE_CURVE ( 'NONE', #30, #53, #237, .T. ) ;
#339 = DIRECTION ( 'NONE',  ( -0.0000000000000000000, -1.000000000000000000, -3.491481338843133700E-015 ) ) ;
#340 = ORIENTED_EDGE ( 'NONE', *, *, #62, .F. ) ;
#341 = PERSON_AND_ORGANIZATION ( #143, #118 ) ;
#342 = ORIENTED_EDGE ( 'NONE', *, *, #350, .F. ) ;
#343 = VECTOR ( 'NONE', #212, 1000.000000000000000 ) ;
#344 = VERTEX_POINT ( 'NONE', #221 ) ;
#345 = SECURITY_CLASSIFICATION ( '', '', #300 ) ;
#346 = ORIENTED_EDGE ( 'NONE', *, *, #316, .T. ) ;
#347 = PLANE ( 'NONE',  #214 ) ;
#348 = VECTOR ( 'NONE', #67, 1000.000000000000000 ) ;
#349 = APPLICATION_PROTOCOL_DEFINITION ( 'international standard', 'config_control_design', 1994, #152 ) ;
#350 = EDGE_CURVE ( 'NONE', #36, #141, #7, .T. ) ;
#351 = APPROVAL_ROLE ( '' ) ;
#352 = ORIENTED_EDGE ( 'NONE', *, *, #19, .T. ) ;
#353 = PLANE ( 'NONE',  #259 ) ;
#354 = DIRECTION ( 'NONE',  ( 0.0000000000000000000, -0.0000000000000000000, -1.000000000000000000 ) ) ;
#355 = LINE ( 'NONE', #47, #142 ) ;
#356 = CARTESIAN_POINT ( 'NONE',  ( 1042.500000000000000, 0.0000000000000000000, -1.000000000000000000 ) ) ;
#357 = DIRECTION ( 'NONE',  ( -4.232467377468589100E-031, -3.437222986455592900E-015, -1.000000000000000000 ) ) ;
#358 = LOCAL_TIME ( 11, 15, 47.00000000000000000, #64 ) ;
#359 = CC_DESIGN_PERSON_AND_ORGANIZATION_ASSIGNMENT ( #225, #125, ( #345 ) ) ;
#360 = LINE ( 'NONE', #138, #288 ) ;
#361 = ORIENTED_EDGE ( 'NONE', *, *, #104, .F. ) ;
#362 = FACE_OUTER_BOUND ( 'NONE', #230, .T. ) ;
#363 = CALENDAR_DATE ( 2016, 14, 3 ) ;
#364 = CARTESIAN_POINT ( 'NONE',  ( -1042.500000000000000, -16.14999999999973900, 59.70000000000006000 ) ) ;
#365 = AXIS2_PLACEMENT_3D ( 'NONE', #334, #357, #190 ) ;
#366 = ORIENTED_EDGE ( 'NONE', *, *, #236, .T. ) ;
#367 = EDGE_CURVE ( 'NONE', #264, #266, #360, .T. ) ;
#368 = ORIENTED_EDGE ( 'NONE', *, *, #145, .F. ) ;
#369 = LINE ( 'NONE', #261, #305 ) ;
ENDSEC;
END-ISO-10303-21;
