  0
SECTION
  2
HEADER
  9
$ACADVER
  1
AC1015
  9
$ACADMAINTVER
 70
     6
  9
$DWGCODEPAGE
  3
ANSI_1251
  9
$INSBASE
 10
0.0
 20
0.0
 30
0.0
  9
$EXTMIN
 10
0.0
 20
0.0
 30
0.0
  9
$EXTMAX
 10
841.0
 20
594.0
 30
0.0
  9
$LIMMIN
 10
0.0
 20
0.0
  9
$LIMMAX
 10
841.0
 20
594.0
  9
$ORTHOMODE
 70
     0
  9
$REGENMODE
 70
     1
  9
$FILLMODE
 70
     1
  9
$QTEXTMODE
 70
     0
  9
$MIRRTEXT
 70
     1
  9
$LTSCALE
 40
1.0
  9
$ATTMODE
 70
     1
  9
$TEXTSIZE
 40
3.5
  9
$TRACEWID
 40
1.0
  9
$TEXTSTYLE
  7
Standard
  9
$CLAYER
  8
0
  9
$CELTYPE
  6
ByLayer
  9
$CECOLOR
 62
   256
  9
$CELTSCALE
 40
1.0
  9
$DISPSILH
 70
     0
  9
$DIMSCALE
 40
1.0
  9
$DIMASZ
 40
3.5
  9
$DIMEXO
 40
0.01
  9
$DIMDLI
 40
3.75
  9
$DIMRND
 40
0.0
  9
$DIMDLE
 40
0.0
  9
$DIMEXE
 40
1.0
  9
$DIMTP
 40
0.0
  9
$DIMTM
 40
0.0
  9
$DIMTXT
 40
3.5
  9
$DIMCEN
 40
2.5
  9
$DIMTSZ
 40
0.0
  9
$DIMTOL
 70
     0
  9
$DIMLIM
 70
     0
  9
$DIMTIH
 70
     1
  9
$DIMTOH
 70
     1
  9
$DIMSE1
 70
     0
  9
$DIMSE2
 70
     0
  9
$DIMTAD
 70
     1
  9
$DIMZIN
 70
     0
  9
$DIMBLK
  1

  9
$DIMASO
 70
     1
  9
$DIMSHO
 70
     1
  9
$DIMPOST
  1

  9
$DIMAPOST
  1

  9
$DIMALT
 70
     0
  9
$DIMALTD
 70
     3
  9
$DIMALTF
 40
0.0393700787
  9
$DIMLFAC
 40
1.0
  9
$DIMTOFL
 70
     1
  9
$DIMTVP
 40
0.0
  9
$DIMTIX
 70
     0
  9
$DIMSOXD
 70
     0
  9
$DIMSAH
 70
     0
  9
$DIMBLK1
  1

  9
$DIMBLK2
  1

  9
$DIMSTYLE
  2
ISO-25
  9
$DIMCLRD
 70
     0
  9
$DIMCLRE
 70
     0
  9
$DIMCLRT
 70
     0
  9
$DIMTFAC
 40
1.0
  9
$DIMGAP
 40
3.0
  9
$DIMJUST
 70
     0
  9
$DIMSD1
 70
     0
  9
$DIMSD2
 70
     0
  9
$DIMTOLJ
 70
     0
  9
$DIMTZIN
 70
     0
  9
$DIMALTZ
 70
     0
  9
$DIMALTTZ
 70
     0
  9
$DIMUPT
 70
     0
  9
$DIMDEC
 70
     2
  9
$DIMTDEC
 70
     3
  9
$DIMALTU
 70
     2
  9
$DIMALTTD
 70
     3
  9
$DIMTXSTY
  7
Standard
  9
$DIMAUNIT
 70
     0
  9
$DIMADEC
 70
     2
  9
$DIMALTRND
 40
0.0
  9
$DIMAZIN
 70
     0
  9
$DIMDSEP
 70
    44
  9
$DIMATFIT
 70
     3
  9
$DIMFRAC
 70
     0
  9
$DIMLDRBLK
  1

  9
$DIMLUNIT
 70
     2
  9
$DIMLWD
 70
    -2
  9
$DIMLWE
 70
    -2
  9
$DIMTMOVE
 70
     0
  9
$LUNITS
 70
     2
  9
$LUPREC
 70
     2
  9
$SKETCHINC
 40
1.0
  9
$FILLETRAD
 40
10.0
  9
$AUNITS
 70
     0
  9
$AUPREC
 70
     2
  9
$MENU
  1
.
  9
$ELEVATION
 40
0.0
  9
$PELEVATION
 40
0.0
  9
$THICKNESS
 40
0.0
  9
$LIMCHECK
 70
     0
  9
$CHAMFERA
 40
0.0
  9
$CHAMFERB
 40
0.0
  9
$CHAMFERC
 40
0.0
  9
$CHAMFERD
 40
0.0
  9
$SKPOLY
 70
     0
  9
$TDCREATE
 40
2459732.520218704
  9
$TDUCREATE
 40
2459732.395218704
  9
$TDUPDATE
 40
2459732.520219479
  9
$TDUUPDATE
 40
2459732.395219479
  9
$TDINDWG
 40
0.0000000116
  9
$TDUSRTIMER
 40
0.0000000116
  9
$USRTIMER
 70
     1
  9
$ANGBASE
 50
0.0
  9
$ANGDIR
 70
     0
  9
$PDMODE
 70
     0
  9
$PDSIZE
 40
-1.0
  9
$PLINEWID
 40
0.0
  9
$SPLFRAME
 70
     0
  9
$SPLINETYPE
 70
     6
  9
$SPLINESEGS
 70
     8
  9
$HANDSEED
  5
459
  9
$SURFTAB1
 70
     6
  9
$SURFTAB2
 70
     6
  9
$SURFTYPE
 70
     6
  9
$SURFU
 70
     6
  9
$SURFV
 70
     6
  9
$UCSBASE
  2

  9
$UCSNAME
  2

  9
$UCSORG
 10
0.0
 20
0.0
 30
0.0
  9
$UCSXDIR
 10
1.0
 20
0.0
 30
0.0
  9
$UCSYDIR
 10
0.0
 20
1.0
 30
0.0
  9
$UCSORTHOREF
  2

  9
$UCSORTHOVIEW
 70
     0
  9
$UCSORGTOP
 10
0.0
 20
0.0
 30
0.0
  9
$UCSORGBOTTOM
 10
0.0
 20
0.0
 30
0.0
  9
$UCSORGLEFT
 10
0.0
 20
0.0
 30
0.0
  9
$UCSORGRIGHT
 10
0.0
 20
0.0
 30
0.0
  9
$UCSORGFRONT
 10
0.0
 20
0.0
 30
0.0
  9
$UCSORGBACK
 10
0.0
 20
0.0
 30
0.0
  9
$PUCSBASE
  2

  9
$PUCSNAME
  2

  9
$PUCSORG
 10
0.0
 20
0.0
 30
0.0
  9
$PUCSXDIR
 10
1.0
 20
0.0
 30
0.0
  9
$PUCSYDIR
 10
0.0
 20
1.0
 30
0.0
  9
$PUCSORTHOREF
  2

  9
$PUCSORTHOVIEW
 70
     0
  9
$PUCSORGTOP
 10
0.0
 20
0.0
 30
0.0
  9
$PUCSORGBOTTOM
 10
0.0
 20
0.0
 30
0.0
  9
$PUCSORGLEFT
 10
0.0
 20
0.0
 30
0.0
  9
$PUCSORGRIGHT
 10
0.0
 20
0.0
 30
0.0
  9
$PUCSORGFRONT
 10
0.0
 20
0.0
 30
0.0
  9
$PUCSORGBACK
 10
0.0
 20
0.0
 30
0.0
  9
$USERI1
 70
     0
  9
$USERI2
 70
     0
  9
$USERI3
 70
     0
  9
$USERI4
 70
     0
  9
$USERI5
 70
     0
  9
$USERR1
 40
0.0
  9
$USERR2
 40
0.0
  9
$USERR3
 40
0.0
  9
$USERR4
 40
0.0
  9
$USERR5
 40
0.0
  9
$WORLDVIEW
 70
     1
  9
$SHADEDGE
 70
     3
  9
$SHADEDIF
 70
    70
  9
$TILEMODE
 70
     1
  9
$MAXACTVP
 70
    64
  9
$PINSBASE
 10
0.0
 20
0.0
 30
0.0
  9
$PLIMCHECK
 70
     0
  9
$PEXTMIN
 10
1.0000000000E+20
 20
1.0000000000E+20
 30
1.0000000000E+20
  9
$PEXTMAX
 10
-1.0000000000E+20
 20
-1.0000000000E+20
 30
-1.0000000000E+20
  9
$PLIMMIN
 10
0.0
 20
0.0
  9
$PLIMMAX
 10
420.0
 20
297.0
  9
$UNITMODE
 70
     0
  9
$VISRETAIN
 70
     1
  9
$PLINEGEN
 70
     0
  9
$PSLTSCALE
 70
     1
  9
$TREEDEPTH
 70
  3020
  9
$CMLSTYLE
  2
Standard
  9
$CMLJUST
 70
     0
  9
$CMLSCALE
 40
20.0
  9
$PROXYGRAPHICS
 70
     1
  9
$MEASUREMENT
 70
     1
  9
$CELWEIGHT
370
    -1
  9
$ENDCAPS
280
     0
  9
$JOINSTYLE
280
     0
  9
$LWDISPLAY
290
     1
  9
$INSUNITS
 70
     4
  9
$HYPERLINKBASE
  1

  9
$STYLESHEET
  1

  9
$XEDIT
290
     1
  9
$CEPSNTYPE
380
     0
  9
$PSTYLEMODE
290
     1
  9
$FINGERPRINTGUID
  2
{08A502F8-F72F-4039-AC3F-CFB465B667BD}
  9
$VERSIONGUID
  2
{FAEB1C32-E019-11D5-929B-00C0DF256EC4}
  9
$EXTNAMES
290
     1
  9
$PSVPSCALE
 40
0.0
  9
$OLESTARTUP
290
     0
  0
ENDSEC
  0
SECTION
  2
CLASSES
  0
CLASS
  1
ACDBDICTIONARYWDFLT
  2
AcDbDictionaryWithDefault
  3
ObjectDBX Classes
 90
        0
280
     0
281
     0
  0
CLASS
  1
VISUALSTYLE
  2
AcDbVisualStyle
  3
ObjectDBX Classes
 90
     4095
280
     0
281
     0
  0
CLASS
  1
MATERIAL
  2
AcDbMaterial
  3
ObjectDBX Classes
 90
     1153
280
     0
281
     0
  0
CLASS
  1
SCALE
  2
AcDbScale
  3
ObjectDBX Classes
 90
     1153
280
     0
281
     0
  0
CLASS
  1
TABLESTYLE
  2
AcDbTableStyle
  3
ObjectDBX Classes
 90
     4095
280
     0
281
     0
  0
CLASS
  1
MLEADERSTYLE
  2
AcDbMLeaderStyle
  3
ACDB_MLEADERSTYLE_CLASS
 90
     4095
280
     0
281
     0
  0
CLASS
  1
SUN
  2
AcDbSun
  3
SCENEOE
 90
     1153
280
     0
281
     0
  0
CLASS
  1
ACDBPLACEHOLDER
  2
AcDbPlaceHolder
  3
ObjectDBX Classes
 90
        0
280
     0
281
     0
  0
CLASS
  1
LAYOUT
  2
AcDbLayout
  3
ObjectDBX Classes
 90
        0
280
     0
281
     0
  0
ENDSEC
  0
SECTION
  2
TABLES
  0
TABLE
  2
VPORT
  5
8
330
0
100
AcDbSymbolTable
 70
     1
  0
VPORT
  5
29
330
8
100
AcDbSymbolTableRecord
100
AcDbViewportTableRecord
  2
*Active
 70
     0
 10
0.0
 20
0.0
 11
1.0
 21
1.0
 12
420.5
 22
297.0
 13
0.0
 23
0.0
 14
10.0
 24
10.0
 15
10.0
 25
10.0
 16
0.0
 26
0.0
 36
1.0
 17
0.0
 27
0.0
 37
0.0
 40
594.0
 41
1.4158249158
 42
50.0
 43
0.0
 44
0.0
 50
0.0
 51
0.0
 71
     0
 72
  2000
 73
     1
 74
     3
 75
     0
 76
     0
 77
     0
 78
     0
281
     0
 65
     1
110
0.0
120
0.0
130
0.0
111
1.0
121
0.0
131
0.0
112
0.0
122
1.0
132
0.0
 79
     0
146
0.0
  0
ENDTAB
  0
TABLE
  2
LTYPE
  5
5
330
0
100
AcDbSymbolTable
 70
     6
  0
LTYPE
  5
14
330
5
100
AcDbSymbolTableRecord
100
AcDbLinetypeTableRecord
  2
ByBlock
 70
     0
  3

 72
    65
 73
     0
 40
0.0
  0
LTYPE
  5
15
330
5
100
AcDbSymbolTableRecord
100
AcDbLinetypeTableRecord
  2
ByLayer
 70
     0
  3

 72
    65
 73
     0
 40
0.0
  0
LTYPE
  5
16
330
5
100
AcDbSymbolTableRecord
100
AcDbLinetypeTableRecord
  2
Continuous
 70
     0
  3
Solid line
 72
    65
 73
     0
 40
0.0
  0
LTYPE
  5
6E
330
5
100
AcDbSymbolTableRecord
100
AcDbLinetypeTableRecord
  2
HIDDEN
 70
     0
  3
Hidden __ __ __ __ __ __ __ __ __ __ __ __ __ __
 72
    65
 73
     2
 40
1.905
 49
1.27
 74
     0
 49
-0.635
 74
     0
  0
LTYPE
  5
6F
330
5
100
AcDbSymbolTableRecord
100
AcDbLinetypeTableRecord
  2
PHANTOM
 70
     0
  3
Phantom ______  __  __  ______  __  __  ______
 72
    65
 73
     6
 40
12.7
 49
6.35
 74
     0
 49
-1.27
 74
     0
 49
1.27
 74
     0
 49
-1.27
 74
     0
 49
1.27
 74
     0
 49
-1.27
 74
     0
  0
LTYPE
  5
70
330
5
100
AcDbSymbolTableRecord
100
AcDbLinetypeTableRecord
  2
CENTER
 70
     0
  3
Center ____ _ ____ _ ____ _ ____ _ ____ _ ____
 72
    65
 73
     4
 40
10.16
 49
6.35
 74
     0
 49
-1.27
 74
     0
 49
1.27
 74
     0
 49
-1.27
 74
     0
  0
LTYPE
  5
71
330
5
100
AcDbSymbolTableRecord
100
AcDbLinetypeTableRecord
  2
CENTERX2
 70
     0
  3
Center (2x) ________  __  ________  __  _____
 72
    65
 73
     4
 40
20.32
 49
12.7
 74
     0
 49
-2.54
 74
     0
 49
2.54
 74
     0
 49
-2.54
 74
     0
  0
LTYPE
  5
72
330
5
100
AcDbSymbolTableRecord
100
AcDbLinetypeTableRecord
  2
DOT2
 70
     0
  3
Dot (.5x) ........................................
 72
    65
 73
     2
 40
0.635
 49
0.0
 74
     0
 49
-0.635
 74
     0
  0
ENDTAB
  0
TABLE
  2
LAYER
  5
2
330
0
100
AcDbSymbolTable
 70
     1
  0
LAYER
  5
10
330
2
100
AcDbSymbolTableRecord
100
AcDbLayerTableRecord
  2
0
 70
     0
 62
     7
  6
Continuous
370
    -3
390
F
  0
ENDTAB
  0
TABLE
  2
STYLE
  5
3
330
0
100
AcDbSymbolTable
 70
     1
  0
STYLE
  5
11
330
3
100
AcDbSymbolTableRecord
100
AcDbTextStyleTableRecord
  2
Standard
 70
     0
 40
0.0
 41
1.0
 50
0.0
 71
     0
 42
3.5
  3
txt
  4

  0
ENDTAB
  0
TABLE
  2
VIEW
  5
6
330
0
100
AcDbSymbolTable
 70
     0
  0
ENDTAB
  0
TABLE
  2
UCS
  5
7
330
0
100
AcDbSymbolTable
 70
     0
  0
ENDTAB
  0
TABLE
  2
APPID
  5
9
330
0
100
AcDbSymbolTable
 70
     1
  0
APPID
  5
12
330
9
100
AcDbSymbolTableRecord
100
AcDbRegAppTableRecord
  2
ACAD
 70
     0
  0
ENDTAB
  0
TABLE
  2
DIMSTYLE
  5
A
330
0
100
AcDbSymbolTable
 70
     1
100
AcDbDimStyleTable
  0
DIMSTYLE
105
27
330
A
100
AcDbSymbolTableRecord
100
AcDbDimStyleTableRecord
  2
ISO-25
 70
     0
 41
2.5
 42
0.625
 43
3.75
 44
1.25
 73
     0
 74
     0
 77
     1
 78
     8
140
2.5
141
2.5
143
0.0393700787
147
0.625
171
     3
172
     1
178
     0
271
     2
272
     2
274
     3
278
    44
283
     0
284
     8
340
11
  0
ENDTAB
  0
TABLE
  2
BLOCK_RECORD
  5
1
330
0
100
AcDbSymbolTable
 70
     1
  0
BLOCK_RECORD
  5
1F
330
1
100
AcDbSymbolTableRecord
100
AcDbBlockTableRecord
  2
*Model_Space
340
22
  0
BLOCK_RECORD
  5
1B
330
1
100
AcDbSymbolTableRecord
100
AcDbBlockTableRecord
  2
*Paper_Space
340
1E
  0
BLOCK_RECORD
  5
23
330
1
100
AcDbSymbolTableRecord
100
AcDbBlockTableRecord
  2
*Paper_Space0
340
26
  0
ENDTAB
  0
ENDSEC
  0
SECTION
  2
BLOCKS
  0
BLOCK
  5
20
330
1F
100
AcDbEntity
  8
0
100
AcDbBlockBegin
  2
*Model_Space
 70
     0
 10
0.0
 20
0.0
 30
0.0
  3
*Model_Space
  1

  0
ENDBLK
  5
21
330
1F
100
AcDbEntity
  8
0
100
AcDbBlockEnd
  0
BLOCK
  5
1C
330
1B
100
AcDbEntity
 67
     1
  8
0
100
AcDbBlockBegin
  2
*Paper_Space
 70
     0
 10
0.0
 20
0.0
 30
0.0
  3
*Paper_Space
  1

  0
ENDBLK
  5
1D
330
1B
100
AcDbEntity
 67
     1
  8
0
100
AcDbBlockEnd
  0
BLOCK
  5
24
330
23
100
AcDbEntity
  8
0
100
AcDbBlockBegin
  2
*Paper_Space0
 70
     0
 10
0.0
 20
0.0
 30
0.0
  3
*Paper_Space0
  1

  0
ENDBLK
  5
25
330
23
100
AcDbEntity
  8
0
100
AcDbBlockEnd
  0
ENDSEC
  0
SECTION
  2
ENTITIES
  0
ARC
  5
73
330
1F
100
AcDbEntity
  8
0
  6
Continuous
 62
     7
370
    25
100
AcDbCircle
 10
564.4433501724
 20
388.028893827
 30
0.0
 40
0.5
100
AcDbArc
 50
180.0
 51
0.0
  0
ARC
  5
74
330
1F
100
AcDbEntity
  8
0
  6
Continuous
 62
     7
370
    25
100
AcDbCircle
 10
564.4433501724
 20
399.6288938272
 30
0.0
 40
0.5000000000001137
100
AcDbArc
 50
0.0
 51
180.0
  0
LINE
  5
75
330
1F
100
AcDbEntity
  8
0
  6
Continuous
 62
     7
370
    25
100
AcDbLine
 10
559.9433501724
 20
388.8288938271
 30
0.0
 11
560.1539292274
 21
388.4641602049
 31
0.0
  0
LINE
  5
76
330
1F
100
AcDbEntity
  8
0
  6
Continuous
 62
     7
370
    25
100
AcDbLine
 10
574.4021001724
 20
396.8288938271
 30
0.0
 11
565.7433501725
 21
396.8288938271
 31
0.0
  0
LINE
  5
77
330
1F
100
AcDbEntity
  8
0
  6
Continuous
 62
     7
370
    25
100
AcDbLine
 10
565.7433501725
 20
390.8288938271
 30
0.0
 11
574.4021001724
 21
390.8288938271
 31
0.0
  0
LINE
  5
78
330
1F
100
AcDbEntity
  8
0
  6
Continuous
 62
     7
370
    25
100
AcDbLine
 10
574.4021001724
 20
390.8288938271
 30
0.0
 11
574.9433501724
 21
391.3701438271
 31
0.0
  0
LINE
  5
79
330
1F
100
AcDbEntity
  8
0
  6
Continuous
 62
     7
370
    25
100
AcDbLine
 10
574.9433501724
 20
396.2876438271
 30
0.0
 11
574.4021001724
 21
396.8288938271
 31
0.0
  0
LINE
  5
7A
330
1F
100
AcDbEntity
  8
0
  6
Continuous
 62
     7
370
    25
100
AcDbLine
 10
560.1539292274
 20
399.1936274493
 30
0.0
 11
559.9433501724
 21
398.8288938271
 31
0.0
  0
ARC
  5
7B
330
1F
100
AcDbEntity
  8
0
  6
Continuous
 62
     7
370
    25
100
AcDbCircle
 10
564.4433501724
 20
374.6288938272
 30
0.0
 40
0.5
100
AcDbArc
 50
360.0
 51
113.5781784726
  0
LINE
  5
7C
330
1F
100
AcDbEntity
  8
0
  6
Continuous
 62
     7
370
    25
100
AcDbLine
 10
574.4021001724
 20
371.8288938271
 30
0.0
 11
565.7433501725
 21
371.8288938271
 31
0.0
  0
LINE
  5
7D
330
1F
100
AcDbEntity
  8
0
  6
Continuous
 62
     7
370
    25
100
AcDbLine
 10
574.4021001724
 20
365.8288938271
 30
0.0
 11
574.9433501724
 21
366.3701438271
 31
0.0
  0
LINE
  5
7E
330
1F
100
AcDbEntity
  8
0
  6
Continuous
 62
     7
370
    25
100
AcDbLine
 10
574.9433501724
 20
371.2876438271
 30
0.0
 11
574.4021001724
 21
371.8288938271
 31
0.0
  0
ARC
  5
7F
330
1F
100
AcDbEntity
  8
0
  6
Continuous
 62
     7
370
    25
100
AcDbCircle
 10
261.0433501725
 20
374.6288938272
 30
0.0
 40
0.5000000000000201
100
AcDbArc
 50
66.4218215209
 51
180.0
  0
LINE
  5
80
330
1F
100
AcDbEntity
  8
0
  6
Continuous
 62
     7
370
    25
100
AcDbLine
 10
259.7433501725
 20
371.8288938271
 30
0.0
 11
251.0846001725
 21
371.8288938271
 31
0.0
  0
LINE
  5
81
330
1F
100
AcDbEntity
  8
0
  6
Continuous
 62
     7
370
    25
100
AcDbLine
 10
251.0846001725
 20
371.8288938271
 30
0.0
 11
250.5433501725
 21
371.2876438271
 31
0.0
  0
LINE
  5
82
330
1F
100
AcDbEntity
  8
0
  6
Continuous
 62
     7
370
    25
100
AcDbLine
 10
250.5433501725
 20
366.3701438271
 30
0.0
 11
251.0846001725
 21
365.8288938271
 31
0.0
  0
ARC
  5
83
330
1F
100
AcDbEntity
  8
0
  6
Continuous
 62
     7
370
    25
100
AcDbCircle
 10
261.0433501725
 20
399.6288938272
 30
0.0
 40
0.5
100
AcDbArc
 50
0.0
 51
180.0
  0
ARC
  5
84
330
1F
100
AcDbEntity
  8
0
  6
Continuous
 62
     7
370
    25
100
AcDbCircle
 10
261.0433501725
 20
388.028893827
 30
0.0
 40
0.5
100
AcDbArc
 50
180.0
 51
0.0
  0
LINE
  5
85
330
1F
100
AcDbEntity
  8
0
  6
Continuous
 62
     7
370
    25
100
AcDbLine
 10
251.0846001725
 20
396.8288938271
 30
0.0
 11
250.5433501725
 21
396.2876438271
 31
0.0
  0
LINE
  5
86
330
1F
100
AcDbEntity
  8
0
  6
Continuous
 62
     7
370
    25
100
AcDbLine
 10
250.5433501725
 20
391.3701438271
 30
0.0
 11
251.0846001725
 21
390.8288938271
 31
0.0
  0
LINE
  5
87
330
1F
100
AcDbEntity
  8
0
  6
Continuous
 62
     7
370
    25
100
AcDbLine
 10
251.0846001725
 20
390.8288938271
 30
0.0
 11
259.7433501725
 21
390.8288938271
 31
0.0
  0
LINE
  5
88
330
1F
100
AcDbEntity
  8
0
  6
Continuous
 62
     7
370
    25
100
AcDbLine
 10
259.7433501725
 20
396.8288938271
 30
0.0
 11
251.0846001725
 21
396.8288938271
 31
0.0
  0
SPLINE
  5
89
330
1F
100
AcDbEntity
  8
0
  6
Continuous
 62
     7
370
    25
100
AcDbSpline
210
0.0
220
0.0
230
1.0
 70
    24
 71
     3
 72
    16
 73
    12
 74
     0
 42
0.000000001
 43
0.00000001
 40
0.0
 40
0.0
 40
0.0
 40
0.0
 40
0.1658292928977491
 40
0.2550981074401229
 40
0.3462613343064173
 40
0.4374245611727102
 40
0.5266933757150832
 40
0.6925226686128334
 40
0.8583519615105837
 40
0.9476207760529564
 40
0.9999999999999999
 40
0.9999999999999999
 40
0.9999999999999999
 40
0.9999999999999999
 10
563.9433501724213
 20
397.5545834517288
 30
0.0
 10
563.9433501724213
 20
396.9456756540538
 30
0.0
 10
563.9433501724213
 20
396.0089821177182
 30
0.0
 10
563.9433501724213
 20
394.5091834264822
 30
0.0
 10
563.9433501724214
 20
393.3172263466672
 30
0.0
 10
563.9433501724214
 20
392.1427980724609
 30
0.0
 10
563.9433501724214
 20
390.7391847791736
 30
0.0
 10
563.9433501724214
 20
389.2718416983915
 30
0.0
 10
563.9433501724214
 20
388.3726543475707
 30
0.0
 10
563.9433501724214
 20
388.0448230204564
 30
0.0
 10
563.9433501724214
 20
388.0552134358967
 30
0.0
 10
563.9433501724214
 20
388.0590556486309
 30
0.0
  0
LINE
  5
8A
330
1F
100
AcDbEntity
  8
0
  6
Continuous
 62
     7
370
    25
100
AcDbLine
 10
559.9433501724
 20
394.6943883977
 30
0.0
 11
559.9433501724
 21
389.9968797637
 31
0.0
  0
SPLINE
  5
8B
330
1F
100
AcDbEntity
  8
0
  6
Continuous
 62
     7
370
    25
100
AcDbSpline
210
0.0
220
0.0
230
1.0
 70
     8
 71
     3
 72
     8
 73
     4
 74
     0
 42
0.000000001
 43
0.00000001
 40
0.0
 40
0.0
 40
0.0
 40
0.0
 40
1.0
 40
1.0
 40
1.0
 40
1.0
 10
559.9433501724286
 20
394.6943883977122
 30
0.0
 10
559.9433501724286
 20
393.723982461822
 30
0.0
 10
560.117665472808
 20
392.7801361198909
 30
0.0
 10
560.3899321598199
 20
391.8512141652643
 30
0.0
  0
SPLINE
  5
8C
330
1F
100
AcDbEntity
  8
0
  6
Continuous
 62
     7
370
    25
100
AcDbSpline
210
0.0
220
0.0
230
1.0
 70
     8
 71
     3
 72
     8
 73
     4
 74
     0
 42
0.000000001
 43
0.00000001
 40
0.0
 40
0.0
 40
0.0
 40
0.0
 40
1.0
 40
1.0
 40
1.0
 40
1.0
 10
560.3899321598199
 20
391.8512141652579
 30
0.0
 10
560.1176654728085
 20
391.2453659843268
 30
0.0
 10
559.9433501724286
 20
390.6297840331278
 30
0.0
 10
559.9433501724286
 20
389.9968797637265
 30
0.0
  0
SPLINE
  5
8D
330
1F
100
AcDbEntity
  8
0
  6
Continuous
 62
     7
370
    25
100
AcDbSpline
210
0.0
220
0.0
230
1.0
 70
     8
 71
     3
 72
     8
 73
     4
 74
     0
 42
0.000000001
 43
0.00000001
 40
0.0
 40
0.0
 40
0.0
 40
0.0
 40
1.0
 40
1.0
 40
1.0
 40
1.0
 10
560.3899321598198
 20
397.5375626301602
 30
0.0
 10
560.1176654728084
 20
396.6086406755352
 30
0.0
 10
559.9433501724286
 20
395.6647943336006
 30
0.0
 10
559.9433501724286
 20
394.6943883977122
 30
0.0
  0
LINE
  5
8E
330
1F
100
AcDbEntity
  8
0
  6
Continuous
 62
     7
370
    25
100
AcDbLine
 10
563.9433501724
 20
397.5375626302
 30
0.0
 11
560.3899321598
 21
397.5375626302
 31
0.0
  0
LINE
  5
8F
330
1F
100
AcDbEntity
  8
0
  6
Continuous
 62
     7
370
    25
100
AcDbLine
 10
563.9433501724
 20
391.8512141653
 30
0.0
 11
560.3899321598
 21
391.8512141653
 31
0.0
  0
SPLINE
  5
90
330
1F
100
AcDbEntity
  8
0
  6
Continuous
 62
     7
370
    25
100
AcDbSpline
210
0.0
220
0.0
230
1.0
 70
     8
 71
     3
 72
     8
 73
     4
 74
     0
 42
0.000000001
 43
0.00000001
 40
0.0
 40
0.0
 40
0.0
 40
0.0
 40
1.0
 40
1.0
 40
1.0
 40
1.0
 10
559.9433501724286
 20
389.9968797637265
 30
0.0
 10
559.9433501724286
 20
389.363975494324
 30
0.0
 10
560.117665472808
 20
388.7483935431273
 30
0.0
 10
560.3899321598199
 20
388.1425453621951
 30
0.0
  0
LINE
  5
91
330
1F
100
AcDbEntity
  8
0
  6
Continuous
 62
     7
370
    25
100
AcDbLine
 10
563.9433501724
 20
388.1425453622
 30
0.0
 11
560.3899321598
 21
388.1425453622
 31
0.0
  0
LINE
  5
92
330
1F
100
AcDbEntity
  8
0
  6
Continuous
 62
     7
370
    25
100
AcDbLine
 10
559.9433501724
 20
398.5264024611
 30
0.0
 11
559.9433501724
 21
394.6943883977
 31
0.0
  0
SPLINE
  5
93
330
1F
100
AcDbEntity
  8
0
  6
Continuous
 62
     7
370
    25
100
AcDbSpline
210
0.0
220
0.0
230
1.0
 70
     8
 71
     3
 72
     8
 73
     4
 74
     0
 42
0.000000001
 43
0.00000001
 40
0.0
 40
0.0
 40
0.0
 40
0.0
 40
1.0
 40
1.0
 40
1.0
 40
1.0
 10
559.9433501724285
 20
398.5264024610817
 30
0.0
 10
559.9433501724285
 20
398.188900794594
 30
0.0
 10
560.1176654728079
 20
397.8606364038596
 30
0.0
 10
560.3899321598198
 20
397.5375626301653
 30
0.0
  0
SPLINE
  5
94
330
1F
100
AcDbEntity
  8
0
  6
Continuous
 62
     7
370
    25
100
AcDbSpline
210
0.0
220
0.0
230
1.0
 70
     8
 71
     3
 72
     8
 73
     4
 74
     0
 42
0.000000001
 43
0.00000001
 40
0.0
 40
0.0
 40
0.0
 40
0.0
 40
1.0
 40
1.0
 40
1.0
 40
1.0
 10
560.3899321598198
 20
399.5152422919981
 30
0.0
 10
560.1176654728083
 20
399.1921685183043
 30
0.0
 10
559.9433501724285
 20
398.8639041275687
 30
0.0
 10
559.9433501724285
 20
398.5264024610817
 30
0.0
  0
LINE
  5
95
330
1F
100
AcDbEntity
  8
0
  6
Continuous
 62
     7
370
    25
100
AcDbLine
 10
563.9433501724
 20
399.515242292
 30
0.0
 11
560.3899321598
 21
399.515242292
 31
0.0
  0
LINE
  5
96
330
1F
100
AcDbEntity
  8
0
  6
Continuous
 62
     7
370
    25
100
AcDbLine
 10
560.3899321598
 20
388.1425453622
 30
0.0
 11
560.2259141246
 21
388.5057207047
 31
0.0
  0
LINE
  5
97
330
1F
100
AcDbEntity
  8
0
  6
Continuous
 62
     7
370
    25
100
AcDbLine
 10
559.9433501724
 20
389.9968797637
 30
0.0
 11
559.9433501724
 21
388.8288938271
 31
0.0
  0
LINE
  5
98
330
1F
100
AcDbEntity
  8
0
  6
Continuous
 62
     7
370
    25
100
AcDbLine
 10
574.4021001724
 20
390.8288938271
 30
0.0
 11
574.4021001724
 21
396.8288938271
 31
0.0
  0
LINE
  5
99
330
1F
100
AcDbEntity
  8
0
  6
Continuous
 62
     7
370
    25
100
AcDbLine
 10
574.9433501724
 20
391.9445009114
 30
0.0
 11
574.9433501724
 21
396.2876438271
 31
0.0
  0
LINE
  5
9A
330
1F
100
AcDbEntity
  8
0
  6
Continuous
 62
     7
370
    25
100
AcDbLine
 10
574.9433501724
 20
391.3701438271
 30
0.0
 11
574.9433501724
 21
391.9445009114
 31
0.0
  0
LINE
  5
9B
330
1F
100
AcDbEntity
  8
0
  6
Continuous
 62
     7
370
    25
100
AcDbLine
 10
559.9433501724
 20
398.8288938271
 30
0.0
 11
559.9433501724
 21
398.5264024611
 31
0.0
  0
CIRCLE
  5
9C
330
1F
100
AcDbEntity
  8
0
  6
Continuous
 62
     7
370
    25
100
AcDbCircle
 10
315.2433501725
 20
340.8288938271
 30
0.0
 40
0.5
  0
SPLINE
  5
9D
330
1F
100
AcDbEntity
  8
0
  6
Continuous
 62
     7
370
    25
100
AcDbSpline
210
0.0
220
0.0
230
1.0
 70
     8
 71
     3
 72
    20
 73
    16
 74
     0
 42
0.000000001
 43
0.00000001
 40
0.0
 40
0.0
 40
0.0
 40
0.0
 40
0.125
 40
0.125
 40
0.25
 40
0.25
 40
0.375
 40
0.375
 40
0.5
 40
0.5
 40
0.75
 40
0.75
 40
0.8749999999999999
 40
0.8749999999999999
 40
1.0
 40
1.0
 40
1.0
 40
1.0
 10
607.8433501724775
 20
363.4288938270946
 30
0.0
 10
608.0017293601283
 20
363.4679345579491
 30
0.0
 10
608.1579750848199
 20
363.5064532621489
 30
0.0
 10
608.4659669342365
 20
363.5838600134568
 30
0.0
 10
608.6186110417077
 20
363.6230044314435
 30
0.0
 10
608.9076953308947
 20
363.7001551853587
 30
0.0
 10
609.0454998690788
 20
363.7384827670998
 30
0.0
 10
609.3071185447177
 20
363.8160290875763
 30
0.0
 10
609.4298648514002
 20
363.855005295245
 30
0.0
 10
609.761189228348
 20
363.97050015169
 30
0.0
 10
609.9402003523763
 20
364.0484125953602
 30
0.0
 10
610.1198154517573
 20
364.163892520761
 30
0.0
 10
610.1660598006248
 20
364.202758316626
 30
0.0
 10
610.227813106636
 20
364.2805326502945
 30
0.0
 10
610.2433501724774
 20
364.3191424172493
 30
0.0
 10
610.2433501724776
 20
364.358183148976
 30
0.0
  0
SPLINE
  5
9E
330
1F
100
AcDbEntity
  8
0
  6
Continuous
 62
     7
370
    25
100
AcDbSpline
210
0.0
220
0.0
230
1.0
 70
     8
 71
     3
 72
    14
 73
    10
 74
     0
 42
0.000000001
 43
0.00000001
 40
0.0
 40
0.0
 40
0.0
 40
0.0
 40
0.2500000000000001
 40
0.2500000000000001
 40
0.5000000000000002
 40
0.5000000000000002
 40
0.7500000000000003
 40
0.7500000000000003
 40
1.0
 40
1.0
 40
1.0
 40
1.0
 10
607.8433501724775
 20
363.4288938270946
 30
0.0
 10
607.9755355883365
 20
363.5070952421162
 30
0.0
 10
608.10351760687
 20
363.5828051894131
 30
0.0
 10
608.3461416318173
 20
363.7380856010601
 30
0.0
 10
608.4565838962275
 20
363.8150954506432
 30
0.0
 10
608.6425807934207
 20
363.9705189366707
 30
0.0
 10
608.716381772259
 20
364.0474686535891
 30
0.0
 10
608.8172003566541
 20
364.2028986328382
 30
0.0
 10
608.8433501724775
 20
364.2799817414108
 30
0.0
 10
608.8433501724775
 20
364.358183148976
 30
0.0
  0
LINE
  5
9F
330
1F
100
AcDbEntity
  8
0
  6
Continuous
 62
     7
370
    25
100
AcDbLine
 10
610.2433501725
 20
364.358183149
 30
0.0
 11
608.8433501725
 21
364.358183149
 31
0.0
  0
SPLINE
  5
A0
330
1F
100
AcDbEntity
  8
0
  6
Continuous
 62
     7
370
    25
100
AcDbSpline
210
0.0
220
0.0
230
1.0
 70
     8
 71
     3
 72
    20
 73
    16
 74
     0
 42
0.000000001
 43
0.00000001
 40
0.0
 40
0.0
 40
0.0
 40
0.0
 40
0.1250000000000006
 40
0.1250000000000006
 40
0.2500000000000013
 40
0.2500000000000013
 40
0.375000000000002
 40
0.375000000000002
 40
0.5000000000000027
 40
0.5000000000000027
 40
0.7500000000000013
 40
0.7500000000000013
 40
0.8750000000000007
 40
0.8750000000000007
 40
1.0
 40
1.0
 40
1.0
 40
1.0
 10
610.2433501724776
 20
171.2996045052132
 30
0.0
 10
610.2433501724776
 20
171.3386452360677
 30
0.0
 10
610.2278136120027
 20
171.3771639402675
 30
0.0
 10
610.1664952600422
 20
171.4545706915755
 30
0.0
 10
610.1200715144553
 20
171.4937151095621
 30
0.0
 10
610.0001206443011
 20
171.5708658634773
 30
0.0
 10
609.9265160000178
 20
171.6091934452184
 30
0.0
 10
609.751785633922
 20
171.6867397656949
 30
0.0
 10
609.6509350050205
 20
171.7257159733636
 30
0.0
 10
609.3196497250365
 20
171.8412108298087
 30
0.0
 10
609.0519695636527
 20
171.9191232734788
 30
0.0
 10
608.6192955375972
 20
172.0346031988796
 30
0.0
 10
608.4677774507461
 20
172.0734689947447
 30
0.0
 10
608.1583516933599
 20
172.1512433284132
 30
0.0
 10
608.0017293636663
 20
172.1898530953679
 30
0.0
 10
607.8433501724775
 20
172.2288938270946
 30
0.0
  0
LINE
  5
A1
330
1F
100
AcDbEntity
  8
0
  6
Continuous
 62
     7
370
    25
100
AcDbLine
 10
610.2433501725
 20
171.2996045052
 30
0.0
 11
608.8433501725
 21
171.2996045052
 31
0.0
  0
SPLINE
  5
A2
330
1F
100
AcDbEntity
  8
0
  6
Continuous
 62
     7
370
    25
100
AcDbSpline
210
0.0
220
0.0
230
1.0
 70
     8
 71
     3
 72
    14
 73
    10
 74
     0
 42
0.000000001
 43
0.00000001
 40
0.0
 40
0.0
 40
0.0
 40
0.0
 40
0.25
 40
0.25
 40
0.5
 40
0.5
 40
0.75
 40
0.75
 40
1.0
 40
1.0
 40
1.0
 40
1.0
 10
608.8433501724775
 20
171.2996045052132
 30
0.0
 10
608.8433501724775
 20
171.3778059202349
 30
0.0
 10
608.8177915077972
 20
171.4535158675318
 30
0.0
 10
608.7176634792004
 20
171.6087962791788
 30
0.0
 10
608.6440992998963
 20
171.6858061287618
 30
0.0
 10
608.4585616642044
 20
171.8412296147893
 30
0.0
 10
608.3483967432448
 20
171.9181793317077
 30
0.0
 10
608.1057849865555
 20
172.0736093109568
 30
0.0
 10
607.9755355757324
 20
172.1506924195295
 30
0.0
 10
607.8433501724775
 20
172.2288938270946
 30
0.0
  0
LINE
  5
A3
330
1F
100
AcDbEntity
  8
0
  6
Continuous
 62
     7
370
    25
100
AcDbLine
 10
610.2433501725
 20
171.2996045052
 30
0.0
 11
610.2433501725
 21
364.358183149
 31
0.0
  0
SPLINE
  5
A4
330
1F
100
AcDbEntity
  8
0
  6
Continuous
 62
     7
370
    25
100
AcDbSpline
210
0.0
220
0.0
230
1.0
 70
     8
 71
     3
 72
    20
 73
    16
 74
     0
 42
0.000000001
 43
0.00000001
 40
0.0
 40
0.0
 40
0.0
 40
0.0
 40
0.1249999999999993
 40
0.1249999999999993
 40
0.2499999999999987
 40
0.2499999999999987
 40
0.374999999999998
 40
0.374999999999998
 40
0.4999999999999973
 40
0.4999999999999973
 40
0.7499999999999987
 40
0.7499999999999987
 40
0.8749999999999993
 40
0.8749999999999993
 40
1.0
 40
1.0
 40
1.0
 40
1.0
 10
215.2433501724775
 20
364.3581831489759
 30
0.0
 10
215.2433501724775
 20
364.3191424181214
 30
0.0
 10
215.2588867329523
 20
364.2806237139216
 30
0.0
 10
215.3202050849129
 20
364.2032169626136
 30
0.0
 10
215.3666288304997
 20
364.1640725446269
 30
0.0
 10
215.4865797006539
 20
364.0869217907118
 30
0.0
 10
215.5601843449373
 20
364.0485942089707
 30
0.0
 10
215.734914711033
 20
363.9710478884942
 30
0.0
 10
215.8357653399345
 20
363.9320716808255
 30
0.0
 10
216.1670506199185
 20
363.8165768243804
 30
0.0
 10
216.4347307813023
 20
363.7386643807104
 30
0.0
 10
216.8674048073578
 20
363.6231844553095
 30
0.0
 10
217.0189228942089
 20
363.5843186594444
 30
0.0
 10
217.328348651595
 20
363.5065443257759
 30
0.0
 10
217.4849709812887
 20
363.4679345588211
 30
0.0
 10
217.6433501724775
 20
363.4288938270945
 30
0.0
  0
LINE
  5
A5
330
1F
100
AcDbEntity
  8
0
  6
Continuous
 62
     7
370
    25
100
AcDbLine
 10
215.2433501725
 20
364.358183149
 30
0.0
 11
216.6433501725
 21
364.358183149
 31
0.0
  0
SPLINE
  5
A6
330
1F
100
AcDbEntity
  8
0
  6
Continuous
 62
     7
370
    25
100
AcDbSpline
210
0.0
220
0.0
230
1.0
 70
     8
 71
     3
 72
    14
 73
    10
 74
     0
 42
0.000000001
 43
0.00000001
 40
0.0
 40
0.0
 40
0.0
 40
0.0
 40
0.25
 40
0.25
 40
0.5
 40
0.5
 40
0.75
 40
0.75
 40
1.0
 40
1.0
 40
1.0
 40
1.0
 10
216.6433501724775
 20
364.3581831489759
 30
0.0
 10
216.6433501724775
 20
364.2799817339543
 30
0.0
 10
216.6689088371578
 20
364.2042717866573
 30
0.0
 10
216.7690368657545
 20
364.0489913750103
 30
0.0
 10
216.8426010450587
 20
363.9719815254273
 30
0.0
 10
217.0281386807506
 20
363.8165580393998
 30
0.0
 10
217.1383036017101
 20
363.7396083224814
 30
0.0
 10
217.3809153583995
 20
363.5841783432322
 30
0.0
 10
217.5111647692225
 20
363.5070952346595
 30
0.0
 10
217.6433501724775
 20
363.4288938270945
 30
0.0
  0
SPLINE
  5
A7
330
1F
100
AcDbEntity
  8
0
  6
Continuous
 62
     7
370
    25
100
AcDbSpline
210
0.0
220
0.0
230
1.0
 70
     8
 71
     3
 72
    20
 73
    16
 74
     0
 42
0.000000001
 43
0.00000001
 40
0.0
 40
0.0
 40
0.0
 40
0.0
 40
0.1250000000000026
 40
0.1250000000000026
 40
0.2500000000000051
 40
0.2500000000000051
 40
0.3750000000000077
 40
0.3750000000000077
 40
0.5000000000000102
 40
0.5000000000000102
 40
0.7500000000000079
 40
0.7500000000000079
 40
0.8750000000000041
 40
0.8750000000000041
 40
1.0
 40
1.0
 40
1.0
 40
1.0
 10
607.8433501724775
 20
172.2288938270946
 30
0.0
 10
607.8823909033321
 20
172.0705146394439
 30
0.0
 10
607.9209096075318
 20
171.9142689147522
 30
0.0
 10
607.9983163588396
 20
171.6062770653356
 30
0.0
 10
608.0374607768264
 20
171.4536329578645
 30
0.0
 10
608.1146115307416
 20
171.1645486686774
 30
0.0
 10
608.1529391124827
 20
171.0267441304933
 30
0.0
 10
608.2304854329592
 20
170.7651254548544
 30
0.0
 10
608.2694616406279
 20
170.6423791481718
 30
0.0
 10
608.3849564970731
 20
170.311054771224
 30
0.0
 10
608.462868940743
 20
170.1320436471959
 30
0.0
 10
608.578348866144
 20
169.9524285478149
 30
0.0
 10
608.617214662009
 20
169.9061841989472
 30
0.0
 10
608.6949889956775
 20
169.844430892936
 30
0.0
 10
608.7335987626323
 20
169.8288938270946
 30
0.0
 10
608.7726394943589
 20
169.8288938270946
 30
0.0
  0
SPLINE
  5
A8
330
1F
100
AcDbEntity
  8
0
  6
Continuous
 62
     7
370
    25
100
AcDbSpline
210
0.0
220
0.0
230
1.0
 70
     8
 71
     3
 72
    14
 73
    10
 74
     0
 42
0.000000001
 43
0.00000001
 40
0.0
 40
0.0
 40
0.0
 40
0.0
 40
0.25
 40
0.25
 40
0.5
 40
0.5
 40
0.75
 40
0.75
 40
1.0
 40
1.0
 40
1.0
 40
1.0
 10
607.8433501724775
 20
172.2288938270946
 30
0.0
 10
607.9215515874992
 20
172.0967084112357
 30
0.0
 10
607.997261534796
 20
171.9687263927021
 30
0.0
 10
608.1525419464431
 20
171.7261023677547
 30
0.0
 10
608.2295517960262
 20
171.6156601033447
 30
0.0
 10
608.3849752820535
 20
171.4296632061514
 30
0.0
 10
608.461924998972
 20
171.3558622273131
 30
0.0
 10
608.6173549782211
 20
171.255043642918
 30
0.0
 10
608.6944380867938
 20
171.2288938270946
 30
0.0
 10
608.7726394943589
 20
171.2288938270946
 30
0.0
  0
LINE
  5
A9
330
1F
100
AcDbEntity
  8
0
  6
Continuous
 62
     7
370
    25
100
AcDbLine
 10
608.7726394944
 20
169.8288938271
 30
0.0
 11
608.7726394944
 21
171.2288938271
 31
0.0
  0
SPLINE
  5
AA
330
1F
100
AcDbEntity
  8
0
  6
Continuous
 62
     7
370
    25
100
AcDbSpline
210
0.0
220
0.0
230
1.0
 70
     8
 71
     3
 72
    20
 73
    16
 74
     0
 42
0.000000001
 43
0.00000001
 40
0.0
 40
0.0
 40
0.0
 40
0.0
 40
0.1250000000000003
 40
0.1250000000000003
 40
0.2500000000000006
 40
0.2500000000000006
 40
0.3750000000000009
 40
0.3750000000000009
 40
0.5000000000000012
 40
0.5000000000000012
 40
0.7500000000000018
 40
0.7500000000000018
 40
0.8750000000000009
 40
0.8750000000000009
 40
1.0
 40
1.0
 40
1.0
 40
1.0
 10
217.6433501724775
 20
172.2288938270946
 30
0.0
 10
217.4849709848268
 20
172.18985309624
 30
0.0
 10
217.328725260135
 20
172.1513343920402
 30
0.0
 10
217.0207334107185
 20
172.0739276407323
 30
0.0
 10
216.8680893032473
 20
172.0347832227456
 30
0.0
 10
216.5790050140603
 20
171.9576324688304
 30
0.0
 10
216.4412004758762
 20
171.9193048870894
 30
0.0
 10
216.1795818002373
 20
171.8417585666128
 30
0.0
 10
216.0568354935546
 20
171.8027823589441
 30
0.0
 10
215.725511116607
 20
171.6872875024991
 30
0.0
 10
215.5464999925787
 20
171.609375058829
 30
0.0
 10
215.3668848931978
 20
171.4938951334282
 30
0.0
 10
215.3206405443301
 20
171.4550293375631
 30
0.0
 10
215.2588872383189
 20
171.3772550038946
 30
0.0
 10
215.2433501724775
 20
171.3386452369398
 30
0.0
 10
215.2433501724775
 20
171.2996045052132
 30
0.0
  0
SPLINE
  5
AB
330
1F
100
AcDbEntity
  8
0
  6
Continuous
 62
     7
370
    25
100
AcDbSpline
210
0.0
220
0.0
230
1.0
 70
     8
 71
     3
 72
    14
 73
    10
 74
     0
 42
0.000000001
 43
0.00000001
 40
0.0
 40
0.0
 40
0.0
 40
0.0
 40
0.2500000000000001
 40
0.2500000000000001
 40
0.5000000000000002
 40
0.5000000000000002
 40
0.7500000000000003
 40
0.7500000000000003
 40
1.0
 40
1.0
 40
1.0
 40
1.0
 10
217.6433501724775
 20
172.2288938270946
 30
0.0
 10
217.5111647566185
 20
172.1506924120729
 30
0.0
 10
217.383182738085
 20
172.0749824647759
 30
0.0
 10
217.1405587131376
 20
171.9197020531289
 30
0.0
 10
217.0301164487276
 20
171.8426922035459
 30
0.0
 10
216.8441195515343
 20
171.6872687175184
 30
0.0
 10
216.770318572696
 20
171.6103190006001
 30
0.0
 10
216.669499988301
 20
171.4548890213509
 30
0.0
 10
216.6433501724775
 20
171.3778059127782
 30
0.0
 10
216.6433501724775
 20
171.2996045052132
 30
0.0
  0
LINE
  5
AC
330
1F
100
AcDbEntity
  8
0
  6
Continuous
 62
     7
370
    25
100
AcDbLine
 10
215.2433501725
 20
171.2996045052
 30
0.0
 11
216.6433501725
 21
171.2996045052
 31
0.0
  0
LINE
  5
AD
330
1F
100
AcDbEntity
  8
0
  6
Continuous
 62
     7
370
    25
100
AcDbLine
 10
216.7140608506
 20
169.8288938271
 30
0.0
 11
608.7726394944
 21
169.8288938271
 31
0.0
  0
SPLINE
  5
AE
330
1F
100
AcDbEntity
  8
0
  6
Continuous
 62
     7
370
    25
100
AcDbSpline
210
0.0
220
0.0
230
1.0
 70
     8
 71
     3
 72
    20
 73
    16
 74
     0
 42
0.000000001
 43
0.00000001
 40
0.0
 40
0.0
 40
0.0
 40
0.0
 40
0.1250000000000006
 40
0.1250000000000006
 40
0.2500000000000012
 40
0.2500000000000012
 40
0.3750000000000018
 40
0.3750000000000018
 40
0.5000000000000023
 40
0.5000000000000023
 40
0.7500000000000087
 40
0.7500000000000087
 40
0.8750000000000043
 40
0.8750000000000043
 40
1.0
 40
1.0
 40
1.0
 40
1.0
 10
216.7140608505961
 20
169.8288938270946
 30
0.0
 10
216.7531015814506
 20
169.8288938270946
 30
0.0
 10
216.7916202856504
 20
169.8444303875694
 30
0.0
 10
216.8690270369583
 20
169.90574873953
 30
0.0
 10
216.908171454945
 20
169.9521724851168
 30
0.0
 10
216.9853222088603
 20
170.072123355271
 30
0.0
 10
217.0236497906013
 20
170.1457279995543
 30
0.0
 10
217.1011961110778
 20
170.32045836565
 30
0.0
 10
217.1401723187465
 20
170.4213089945515
 30
0.0
 10
217.2556671751915
 20
170.7525942745355
 30
0.0
 10
217.3335796188615
 20
171.0202744359193
 30
0.0
 10
217.4490595442624
 20
171.4529484619747
 30
0.0
 10
217.4879253401275
 20
171.6044665488259
 30
0.0
 10
217.565699673796
 20
171.9138923062119
 30
0.0
 10
217.6043094407508
 20
172.0705146359057
 30
0.0
 10
217.6433501724775
 20
172.2288938270945
 30
0.0
  0
LINE
  5
AF
330
1F
100
AcDbEntity
  8
0
  6
Continuous
 62
     7
370
    25
100
AcDbLine
 10
215.2433501725
 20
364.358183149
 30
0.0
 11
215.2433501725
 21
171.2996045052
 31
0.0
  0
SPLINE
  5
B0
330
1F
100
AcDbEntity
  8
0
  6
Continuous
 62
     7
370
    25
100
AcDbSpline
210
0.0
220
0.0
230
1.0
 70
     8
 71
     3
 72
    20
 73
    16
 74
     0
 42
0.000000001
 43
0.00000001
 40
0.0
 40
0.0
 40
0.0
 40
0.0
 40
0.1250000000000007
 40
0.1250000000000007
 40
0.2500000000000013
 40
0.2500000000000013
 40
0.375000000000002
 40
0.375000000000002
 40
0.5000000000000027
 40
0.5000000000000027
 40
0.750000000000004
 40
0.750000000000004
 40
0.875000000000002
 40
0.875000000000002
 40
1.0
 40
1.0
 40
1.0
 40
1.0
 10
217.6433501724775
 20
363.4288938270945
 30
0.0
 10
217.604309441623
 20
363.5872730147452
 30
0.0
 10
217.5657907374231
 20
363.7435187394369
 30
0.0
 10
217.4883839861153
 20
364.0515105888535
 30
0.0
 10
217.4492395681285
 20
364.2041546963247
 30
0.0
 10
217.3720888142133
 20
364.4932389855117
 30
0.0
 10
217.3337612324723
 20
364.6310435236958
 30
0.0
 10
217.2562149119957
 20
364.8926621993347
 30
0.0
 10
217.2172387043271
 20
365.0154085060173
 30
0.0
 10
217.101743847882
 20
365.346732882965
 30
0.0
 10
217.0238314042119
 20
365.5257440069932
 30
0.0
 10
216.9083514788111
 20
365.7053591063741
 30
0.0
 10
216.869485682946
 20
365.7516034552418
 30
0.0
 10
216.7917113492775
 20
365.8133567612531
 30
0.0
 10
216.7531015823228
 20
365.8288938270945
 30
0.0
 10
216.7140608505961
 20
365.8288938270945
 30
0.0
  0
LINE
  5
B1
330
1F
100
AcDbEntity
  8
0
  6
Continuous
 62
     7
370
    25
100
AcDbLine
 10
608.7726394944
 20
365.8288938271
 30
0.0
 11
216.7140608506
 21
365.8288938271
 31
0.0
  0
SPLINE
  5
B2
330
1F
100
AcDbEntity
  8
0
  6
Continuous
 62
     7
370
    25
100
AcDbSpline
210
0.0
220
0.0
230
1.0
 70
     8
 71
     3
 72
    20
 73
    16
 74
     0
 42
0.000000001
 43
0.00000001
 40
0.0
 40
0.0
 40
0.0
 40
0.0
 40
0.1249999999999993
 40
0.1249999999999993
 40
0.2499999999999987
 40
0.2499999999999987
 40
0.374999999999998
 40
0.374999999999998
 40
0.4999999999999973
 40
0.4999999999999973
 40
0.7500000000000012
 40
0.7500000000000012
 40
0.8750000000000006
 40
0.8750000000000006
 40
1.0
 40
1.0
 40
1.0
 40
1.0
 10
608.7726394943589
 20
365.8288938270945
 30
0.0
 10
608.7335987635043
 20
365.8288938270945
 30
0.0
 10
608.6950800593046
 20
365.8133572666197
 30
0.0
 10
608.6176733079967
 20
365.7520389146591
 30
0.0
 10
608.5785288900098
 20
365.7056151690723
 30
0.0
 10
608.5013781360947
 20
365.5856642989181
 30
0.0
 10
608.4630505543537
 20
365.5120596546348
 30
0.0
 10
608.3855042338772
 20
365.3373292885391
 30
0.0
 10
608.3465280262085
 20
365.2364786596376
 30
0.0
 10
608.2310331697635
 20
364.9051933796537
 30
0.0
 10
608.1531207260934
 20
364.6375132182698
 30
0.0
 10
608.0376408006924
 20
364.2048391922144
 30
0.0
 10
607.9987750048275
 20
364.0533211053632
 30
0.0
 10
607.9210006711589
 20
363.7438953479771
 30
0.0
 10
607.8823909042042
 20
363.5872730182833
 30
0.0
 10
607.8433501724775
 20
363.4288938270946
 30
0.0
  0
SPLINE
  5
B3
330
1F
100
AcDbEntity
  8
0
  6
Continuous
 62
     7
370
    25
100
AcDbSpline
210
0.0
220
0.0
230
1.0
 70
     8
 71
     3
 72
    14
 73
    10
 74
     0
 42
0.000000001
 43
0.00000001
 40
0.0
 40
0.0
 40
0.0
 40
0.0
 40
0.2500000000000001
 40
0.2500000000000001
 40
0.5000000000000002
 40
0.5000000000000002
 40
0.7500000000000003
 40
0.7500000000000003
 40
1.0
 40
1.0
 40
1.0
 40
1.0
 10
217.6433501724775
 20
363.4288938270946
 30
0.0
 10
217.5651487574558
 20
363.5610792429534
 30
0.0
 10
217.4894388101589
 20
363.689061261487
 30
0.0
 10
217.3341583985119
 20
363.9316852864344
 30
0.0
 10
217.2571485489288
 20
364.0421275508444
 30
0.0
 10
217.1017250629014
 20
364.2281244480377
 30
0.0
 10
217.024775345983
 20
364.301925426876
 30
0.0
 10
216.8693453667337
 20
364.4027440112711
 30
0.0
 10
216.7922622581611
 20
364.4288938270945
 30
0.0
 10
216.7140608505961
 20
364.4288938270946
 30
0.0
  0
LINE
  5
B4
330
1F
100
AcDbEntity
  8
0
  6
Continuous
 62
     7
370
    25
100
AcDbLine
 10
216.7140608506
 20
365.8288938271
 30
0.0
 11
216.7140608506
 21
364.4288938271
 31
0.0
  0
LINE
  5
B5
330
1F
100
AcDbEntity
  8
0
  6
Continuous
 62
     7
370
    25
100
AcDbLine
 10
216.7140608506
 20
169.8288938271
 30
0.0
 11
216.7140608506
 21
171.2288938271
 31
0.0
  0
SPLINE
  5
B6
330
1F
100
AcDbEntity
  8
0
  6
Continuous
 62
     7
370
    25
100
AcDbSpline
210
0.0
220
0.0
230
1.0
 70
     8
 71
     3
 72
    14
 73
    10
 74
     0
 42
0.000000001
 43
0.00000001
 40
0.0
 40
0.0
 40
0.0
 40
0.0
 40
0.2499999999999998
 40
0.2499999999999998
 40
0.4999999999999999
 40
0.4999999999999999
 40
0.7499999999999999
 40
0.7499999999999999
 40
1.0
 40
1.0
 40
1.0
 40
1.0
 10
216.7140608505961
 20
171.2288938270946
 30
0.0
 10
216.7922622656177
 20
171.2288938270946
 30
0.0
 10
216.8679722129147
 20
171.2544524917747
 30
0.0
 10
217.0232526245617
 20
171.3545805203715
 30
0.0
 10
217.1002624741448
 20
171.4281446996759
 30
0.0
 10
217.2556859601722
 20
171.6136823353677
 30
0.0
 10
217.3326356770905
 20
171.7238472563272
 30
0.0
 10
217.4880656563398
 20
171.9664590130166
 30
0.0
 10
217.5651487649124
 20
172.0967084238396
 30
0.0
 10
217.6433501724775
 20
172.2288938270945
 30
0.0
  0
LINE
  5
B7
330
1F
100
AcDbEntity
  8
0
  6
Continuous
 62
     7
370
    25
100
AcDbLine
 10
608.7726394944
 20
365.8288938271
 30
0.0
 11
608.7726394944
 21
364.4288938271
 31
0.0
  0
SPLINE
  5
B8
330
1F
100
AcDbEntity
  8
0
  6
Continuous
 62
     7
370
    25
100
AcDbSpline
210
0.0
220
0.0
230
1.0
 70
     8
 71
     3
 72
    14
 73
    10
 74
     0
 42
0.000000001
 43
0.00000001
 40
0.0
 40
0.0
 40
0.0
 40
0.0
 40
0.2500000000000003
 40
0.2500000000000003
 40
0.5000000000000002
 40
0.5000000000000002
 40
0.7500000000000001
 40
0.7500000000000001
 40
1.0
 40
1.0
 40
1.0
 40
1.0
 10
608.7726394943589
 20
364.4288938270946
 30
0.0
 10
608.6944380793374
 20
364.4288938270946
 30
0.0
 10
608.6187281320404
 20
364.4033351624143
 30
0.0
 10
608.4634477203933
 20
364.3032071338176
 30
0.0
 10
608.3864378708104
 20
364.2296429545133
 30
0.0
 10
608.2310143847827
 20
364.0441053188214
 30
0.0
 10
608.1540646678644
 20
363.9339403978619
 30
0.0
 10
607.9986346886152
 20
363.6913286411725
 30
0.0
 10
607.9215515800424
 20
363.5610792303495
 30
0.0
 10
607.8433501724775
 20
363.4288938270946
 30
0.0
  0
CIRCLE
  5
B9
330
1F
100
AcDbEntity
  8
0
  6
Continuous
 62
     7
370
    25
100
AcDbCircle
 10
271.2433501725
 20
317.8288938271
 30
0.0
 40
5.500000000000088
  0
ARC
  5
BA
330
1F
100
AcDbEntity
  8
0
  6
Continuous
 62
     7
370
    25
100
AcDbCircle
 10
273.4233600741
 20
318.8858299419
 30
0.0
 40
0.5050994627334973
100
AcDbArc
 50
298.8005827702
 51
112.9304972368
  0
ARC
  5
BB
330
1F
100
AcDbEntity
  8
0
  6
Continuous
 62
     7
370
    25
100
AcDbCircle
 10
271.2433501725
 20
317.8288938271
 30
0.0
 40
2.499999999999973
100
AcDbArc
 50
37.506301084
 51
74.2247789229
  0
ARC
  5
BC
330
1F
100
AcDbEntity
  8
0
  6
Continuous
 62
     7
370
    25
100
AcDbCircle
 10
271.4180215977
 20
320.2453058398
 30
0.0
 40
0.5050994627349445
100
AcDbArc
 50
358.800582771
 51
172.930497236
  0
ARC
  5
BD
330
1F
100
AcDbEntity
  8
0
  6
Continuous
 62
     7
370
    25
100
AcDbCircle
 10
271.2433501725
 20
317.8288938271
 30
0.0
 40
2.499999999999899
100
AcDbArc
 50
97.5063010841
 51
134.2247789229
  0
ARC
  5
BE
330
1F
100
AcDbEntity
  8
0
  6
Continuous
 62
     7
370
    25
100
AcDbCircle
 10
269.2380116961
 20
319.188369725
 30
0.0
 40
0.5050994627351901
100
AcDbArc
 50
58.8005827697
 51
232.9304972372
  0
ARC
  5
BF
330
1F
100
AcDbEntity
  8
0
  6
Continuous
 62
     7
370
    25
100
AcDbCircle
 10
271.2433501725
 20
317.8288938271
 30
0.0
 40
2.499999999999955
100
AcDbArc
 50
157.5063010841
 51
194.2247789229
  0
ARC
  5
C0
330
1F
100
AcDbEntity
  8
0
  6
Continuous
 62
     7
370
    25
100
AcDbCircle
 10
269.0633402709
 20
316.7719577123
 30
0.0
 40
0.5050994627333371
100
AcDbArc
 50
118.8005827707
 51
292.9304972361
  0
ARC
  5
C1
330
1F
100
AcDbEntity
  8
0
  6
Continuous
 62
     7
370
    25
100
AcDbCircle
 10
271.2433501725
 20
317.8288938271
 30
0.0
 40
2.499999999999986
100
AcDbArc
 50
217.506301084
 51
254.2247789229
  0
ARC
  5
C2
330
1F
100
AcDbEntity
  8
0
  6
Continuous
 62
     7
370
    25
100
AcDbCircle
 10
271.0686787473
 20
315.4124818144
 30
0.0
 40
0.5050994627365681
100
AcDbArc
 50
178.8005827716
 51
352.9304972354
  0
ARC
  5
C3
330
1F
100
AcDbEntity
  8
0
  6
Continuous
 62
     7
370
    25
100
AcDbCircle
 10
271.2433501725
 20
317.8288938271
 30
0.0
 40
2.500000000000021
100
AcDbArc
 50
277.5063010841
 51
314.2247789229
  0
ARC
  5
C4
330
1F
100
AcDbEntity
  8
0
  6
Continuous
 62
     7
370
    25
100
AcDbCircle
 10
273.2486886489
 20
316.4694179292
 30
0.0
 40
0.5050994627355627
100
AcDbArc
 50
238.8005827701
 51
52.9304972368
  0
ARC
  5
C5
330
1F
100
AcDbEntity
  8
0
  6
Continuous
 62
     7
370
    25
100
AcDbCircle
 10
271.2433501725
 20
317.8288938271
 30
0.0
 40
2.50000000000002
100
AcDbArc
 50
337.5063010841
 51
14.2247789229
  0
CIRCLE
  5
C6
330
1F
100
AcDbEntity
  8
0
  6
Continuous
 62
     7
370
    25
100
AcDbCircle
 10
554.2433501725
 20
317.8288938271
 30
0.0
 40
5.500000000000188
  0
ARC
  5
C7
330
1F
100
AcDbEntity
  8
0
  6
Continuous
 62
     7
370
    25
100
AcDbCircle
 10
554.27601703
 20
320.2513904728
 30
0.0
 40
0.5050994627334843
100
AcDbArc
 50
2.1624680629
 51
176.2923825295
  0
ARC
  5
C8
330
1F
100
AcDbEntity
  8
0
  6
Continuous
 62
     7
370
    25
100
AcDbCircle
 10
554.2433501725
 20
317.8288938271
 30
0.0
 40
2.50000000000002
100
AcDbArc
 50
100.8681863767
 51
137.5866642156
  0
ARC
  5
C9
330
1F
100
AcDbEntity
  8
0
  6
Continuous
 62
     7
370
    25
100
AcDbCircle
 10
552.1617399655
 20
319.0684324784
 30
0.0
 40
0.5050994627349215
100
AcDbArc
 50
62.1624680637
 51
236.2923825287
  0
ARC
  5
CA
330
1F
100
AcDbEntity
  8
0
  6
Continuous
 62
     7
370
    25
100
AcDbCircle
 10
554.2433501725
 20
317.8288938271
 30
0.0
 40
2.499999999999921
100
AcDbArc
 50
160.8681863768
 51
197.5866642156
  0
ARC
  5
CB
330
1F
100
AcDbEntity
  8
0
  6
Continuous
 62
     7
370
    25
100
AcDbCircle
 10
552.129073108
 20
316.6459358327
 30
0.0
 40
0.5050994627351884
100
AcDbArc
 50
122.1624680624
 51
296.2923825299
  0
ARC
  5
CC
330
1F
100
AcDbEntity
  8
0
  6
Continuous
 62
     7
370
    25
100
AcDbCircle
 10
554.2433501725
 20
317.8288938271
 30
0.0
 40
2.499999999999912
100
AcDbArc
 50
220.8681863768
 51
257.5866642156
  0
ARC
  5
CD
330
1F
100
AcDbEntity
  8
0
  6
Continuous
 62
     7
370
    25
100
AcDbCircle
 10
554.210683315
 20
315.4063971814
 30
0.0
 40
0.5050994627333826
100
AcDbArc
 50
182.1624680634
 51
356.2923825288
  0
ARC
  5
CE
330
1F
100
AcDbEntity
  8
0
  6
Continuous
 62
     7
370
    25
100
AcDbCircle
 10
554.2433501725
 20
317.8288938271
 30
0.0
 40
2.499999999999967
100
AcDbArc
 50
280.8681863767
 51
317.5866642156
  0
ARC
  5
CF
330
1F
100
AcDbEntity
  8
0
  6
Continuous
 62
     7
370
    25
100
AcDbCircle
 10
556.3249603795
 20
316.5893551758
 30
0.0
 40
0.505099462736583
100
AcDbArc
 50
242.1624680643
 51
56.2923825281
  0
ARC
  5
D0
330
1F
100
AcDbEntity
  8
0
  6
Continuous
 62
     7
370
    25
100
AcDbCircle
 10
554.2433501725
 20
317.8288938271
 30
0.0
 40
2.499999999999874
100
AcDbArc
 50
340.8681863768
 51
17.5866642156
  0
ARC
  5
D1
330
1F
100
AcDbEntity
  8
0
  6
Continuous
 62
     7
370
    25
100
AcDbCircle
 10
556.357627237
 20
319.0118518215
 30
0.0
 40
0.5050994627355271
100
AcDbArc
 50
302.1624680628
 51
116.2923825295
  0
ARC
  5
D2
330
1F
100
AcDbEntity
  8
0
  6
Continuous
 62
     7
370
    25
100
AcDbCircle
 10
554.2433501725
 20
317.8288938271
 30
0.0
 40
2.499999999999974
100
AcDbArc
 50
40.8681863768
 51
77.5866642156
  0
CIRCLE
  5
D3
330
1F
100
AcDbEntity
  8
0
  6
Continuous
 62
     7
370
    25
100
AcDbCircle
 10
554.2433501725
 20
217.8288938271
 30
0.0
 40
5.500000000000046
  0
ARC
  5
D4
330
1F
100
AcDbEntity
  8
0
  6
Continuous
 62
     7
370
    25
100
AcDbCircle
 10
554.2433501725
 20
217.8288938271
 30
0.0
 40
2.500000000000021
100
AcDbArc
 50
214.8915298906
 51
251.6100077295
  0
ARC
  5
D5
330
1F
100
AcDbEntity
  8
0
  6
Continuous
 62
     7
370
    25
100
AcDbCircle
 10
556.184580767
 20
216.3793487603
 30
0.0
 40
0.5050994627351889
100
AcDbArc
 50
236.1858115763
 51
50.3157260438
  0
ARC
  5
D6
330
1F
100
AcDbEntity
  8
0
  6
Continuous
 62
     7
370
    25
100
AcDbCircle
 10
554.2433501725
 20
217.8288938271
 30
0.0
 40
2.499999999999941
100
AcDbArc
 50
334.8915298906
 51
11.6100077295
  0
ARC
  5
D7
330
1F
100
AcDbEntity
  8
0
  6
Continuous
 62
     7
370
    25
100
AcDbCircle
 10
556.4693083215
 20
218.7852763032
 30
0.0
 40
0.5050994627332462
100
AcDbArc
 50
296.1858115773
 51
110.3157260427
  0
ARC
  5
D8
330
1F
100
AcDbEntity
  8
0
  6
Continuous
 62
     7
370
    25
100
AcDbCircle
 10
554.2433501725
 20
217.8288938271
 30
0.0
 40
2.499999999999961
100
AcDbArc
 50
94.8915298907
 51
131.6100077294
  0
ARC
  5
D9
330
1F
100
AcDbEntity
  8
0
  6
Continuous
 62
     7
370
    25
100
AcDbCircle
 10
552.3021195779
 20
219.2784388939
 30
0.0
 40
0.5050994627355123
100
AcDbArc
 50
56.1858115767
 51
230.3157260434
  0
ARC
  5
DA
330
1F
100
AcDbEntity
  8
0
  6
Continuous
 62
     7
370
    25
100
AcDbCircle
 10
554.2433501725
 20
217.8288938271
 30
0.0
 40
2.499999999999944
100
AcDbArc
 50
154.8915298906
 51
191.6100077295
  0
ARC
  5
DB
330
1F
100
AcDbEntity
  8
0
  6
Continuous
 62
     7
370
    25
100
AcDbCircle
 10
553.958622618
 20
215.4229662842
 30
0.0
 40
0.5050994627349252
100
AcDbArc
 50
176.1858115776
 51
350.3157260426
  0
ARC
  5
DC
330
1F
100
AcDbEntity
  8
0
  6
Continuous
 62
     7
370
    25
100
AcDbCircle
 10
554.2433501725
 20
217.8288938271
 30
0.0
 40
2.500000000000019
100
AcDbArc
 50
34.8915298906
 51
71.6100077295
  0
ARC
  5
DD
330
1F
100
AcDbEntity
  8
0
  6
Continuous
 62
     7
370
    25
100
AcDbCircle
 10
554.2433501725
 20
217.8288938271
 30
0.0
 40
2.499999999999952
100
AcDbArc
 50
274.8915298907
 51
311.6100077294
  0
ARC
  5
DE
330
1F
100
AcDbEntity
  8
0
  6
Continuous
 62
     7
370
    25
100
AcDbCircle
 10
552.0173920234
 20
216.872511351
 30
0.0
 40
0.5050994627335086
100
AcDbArc
 50
116.1858115767
 51
290.3157260433
  0
ARC
  5
DF
330
1F
100
AcDbEntity
  8
0
  6
Continuous
 62
     7
370
    25
100
AcDbCircle
 10
554.528077727
 20
220.23482137
 30
0.0
 40
0.5050994627365983
100
AcDbArc
 50
356.1858115782
 51
170.315726042
  0
ARC
  5
E0
330
1F
100
AcDbEntity
  8
0
  6
Continuous
 62
     7
370
    25
100
AcDbCircle
 10
273.4233600741
 20
218.8858299419
 30
0.0
 40
0.5050994627334724
100
AcDbArc
 50
298.8005827702
 51
112.9304972368
  0
ARC
  5
E1
330
1F
100
AcDbEntity
  8
0
  6
Continuous
 62
     7
370
    25
100
AcDbCircle
 10
271.2433501725
 20
217.8288938271
 30
0.0
 40
2.49999999999999
100
AcDbArc
 50
37.506301084
 51
74.2247789229
  0
ARC
  5
E2
330
1F
100
AcDbEntity
  8
0
  6
Continuous
 62
     7
370
    25
100
AcDbCircle
 10
271.4180215977
 20
220.2453058398
 30
0.0
 40
0.5050994627349445
100
AcDbArc
 50
358.800582771
 51
172.930497236
  0
ARC
  5
E3
330
1F
100
AcDbEntity
  8
0
  6
Continuous
 62
     7
370
    25
100
AcDbCircle
 10
271.2433501725
 20
217.8288938271
 30
0.0
 40
2.499999999999964
100
AcDbArc
 50
97.5063010841
 51
134.2247789229
  0
ARC
  5
E4
330
1F
100
AcDbEntity
  8
0
  6
Continuous
 62
     7
370
    25
100
AcDbCircle
 10
269.2380116961
 20
219.188369725
 30
0.0
 40
0.5050994627351659
100
AcDbArc
 50
58.8005827697
 51
232.9304972372
  0
ARC
  5
E5
330
1F
100
AcDbEntity
  8
0
  6
Continuous
 62
     7
370
    25
100
AcDbCircle
 10
271.2433501725
 20
217.8288938271
 30
0.0
 40
2.499999999999955
100
AcDbArc
 50
157.5063010841
 51
194.2247789229
  0
ARC
  5
E6
330
1F
100
AcDbEntity
  8
0
  6
Continuous
 62
     7
370
    25
100
AcDbCircle
 10
269.0633402709
 20
216.7719577123
 30
0.0
 40
0.505099462733295
100
AcDbArc
 50
118.8005827707
 51
292.9304972361
  0
ARC
  5
E7
330
1F
100
AcDbEntity
  8
0
  6
Continuous
 62
     7
370
    25
100
AcDbCircle
 10
271.2433501725
 20
217.8288938271
 30
0.0
 40
2.499999999999933
100
AcDbArc
 50
217.506301084
 51
254.2247789229
  0
ARC
  5
E8
330
1F
100
AcDbEntity
  8
0
  6
Continuous
 62
     7
370
    25
100
AcDbCircle
 10
271.0686787473
 20
215.4124818144
 30
0.0
 40
0.5050994627365611
100
AcDbArc
 50
178.8005827716
 51
352.9304972354
  0
ARC
  5
E9
330
1F
100
AcDbEntity
  8
0
  6
Continuous
 62
     7
370
    25
100
AcDbCircle
 10
271.2433501725
 20
217.8288938271
 30
0.0
 40
2.49999999999998
100
AcDbArc
 50
277.5063010841
 51
314.2247789229
  0
ARC
  5
EA
330
1F
100
AcDbEntity
  8
0
  6
Continuous
 62
     7
370
    25
100
AcDbCircle
 10
273.2486886489
 20
216.4694179292
 30
0.0
 40
0.5050994627355627
100
AcDbArc
 50
238.8005827701
 51
52.9304972368
  0
ARC
  5
EB
330
1F
100
AcDbEntity
  8
0
  6
Continuous
 62
     7
370
    25
100
AcDbCircle
 10
271.2433501725
 20
217.8288938271
 30
0.0
 40
2.499999999999998
100
AcDbArc
 50
337.5063010841
 51
14.2247789229
  0
CIRCLE
  5
EC
330
1F
100
AcDbEntity
  8
0
  6
Continuous
 62
     7
370
    25
100
AcDbCircle
 10
271.2433501725
 20
217.8288938271
 30
0.0
 40
5.500000000000064
  0
LINE
  5
ED
330
1F
100
AcDbEntity
  8
0
  6
Continuous
 62
     7
370
    25
100
AcDbLine
 10
259.7433501725
 20
400.3288938271
 30
0.0
 11
260.5433501725
 21
400.3288938271
 31
0.0
  0
LINE
  5
EE
330
1F
100
AcDbEntity
  8
0
  6
Continuous
 62
     7
370
    25
100
AcDbLine
 10
260.5433501725
 20
400.3288938271
 30
0.0
 11
260.5433501725
 21
397.3288938271
 31
0.0
  0
LINE
  5
EF
330
1F
100
AcDbEntity
  8
0
  6
Continuous
 62
     7
370
    25
100
AcDbLine
 10
259.7433501725
 20
397.3288938271
 30
0.0
 11
259.7433501725
 21
400.3288938271
 31
0.0
  0
LINE
  5
F0
330
1F
100
AcDbEntity
  8
0
  6
Continuous
 62
     7
370
    25
100
AcDbLine
 10
259.7433501725
 20
380.3288938271
 30
0.0
 11
260.5433501725
 21
380.3288938271
 31
0.0
  0
LINE
  5
F1
330
1F
100
AcDbEntity
  8
0
  6
Continuous
 62
     7
370
    25
100
AcDbLine
 10
259.7433501725
 20
380.3288938271
 30
0.0
 11
259.7433501725
 21
397.3288938271
 31
0.0
  0
LINE
  5
F2
330
1F
100
AcDbEntity
  8
0
  6
Continuous
 62
     7
370
    25
100
AcDbLine
 10
260.5433501725
 20
380.3288938271
 30
0.0
 11
260.5433501725
 21
397.3288938271
 31
0.0
  0
LINE
  5
F3
330
1F
100
AcDbEntity
  8
0
  6
Continuous
 62
     7
370
    25
100
AcDbLine
 10
565.7433501725
 20
380.3288938271
 30
0.0
 11
564.9433501725
 21
380.3288938271
 31
0.0
  0
LINE
  5
F4
330
1F
100
AcDbEntity
  8
0
  6
Continuous
 62
     7
370
    25
100
AcDbLine
 10
565.7433501725
 20
397.3288938271
 30
0.0
 11
565.7433501725
 21
380.3288938271
 31
0.0
  0
LINE
  5
F5
330
1F
100
AcDbEntity
  8
0
  6
Continuous
 62
     7
370
    25
100
AcDbLine
 10
564.9433501725
 20
397.3288938271
 30
0.0
 11
564.9433501725
 21
380.3288938271
 31
0.0
  0
LINE
  5
F6
330
1F
100
AcDbEntity
  8
0
  6
Continuous
 62
     7
370
    25
100
AcDbLine
 10
564.9433501725
 20
400.3288938271
 30
0.0
 11
565.7433501725
 21
400.3288938271
 31
0.0
  0
LINE
  5
F7
330
1F
100
AcDbEntity
  8
0
  6
Continuous
 62
     7
370
    25
100
AcDbLine
 10
565.7433501725
 20
400.3288938271
 30
0.0
 11
565.7433501725
 21
397.3288938271
 31
0.0
  0
LINE
  5
F8
330
1F
100
AcDbEntity
  8
0
  6
Continuous
 62
     7
370
    25
100
AcDbLine
 10
564.9433501725
 20
397.3288938271
 30
0.0
 11
564.9433501725
 21
400.3288938271
 31
0.0
  0
LINE
  5
F9
330
1F
100
AcDbEntity
  8
0
  6
Continuous
 62
     7
370
    25
100
AcDbLine
 10
260.5433501725
 20
365.8288938271
 30
0.0
 11
260.5433501725
 21
377.1288938271
 31
0.0
  0
LINE
  5
FA
330
1F
100
AcDbEntity
  8
0
  6
Continuous
 62
     7
370
    25
100
AcDbLine
 10
260.5433501725
 20
378.8288938271
 30
0.0
 11
260.5433501725
 21
380.3288938271
 31
0.0
  0
LINE
  5
FB
330
1F
100
AcDbEntity
  8
0
  6
Continuous
 62
     7
370
    25
100
AcDbLine
 10
259.7433501725
 20
365.8288938271
 30
0.0
 11
259.7433501725
 21
380.3288938271
 31
0.0
  0
LINE
  5
FC
330
1F
100
AcDbEntity
  8
0
  6
Continuous
 62
     7
370
    25
100
AcDbLine
 10
565.7433501725
 20
380.3288938271
 30
0.0
 11
565.7433501725
 21
365.8288938271
 31
0.0
  0
LINE
  5
FD
330
1F
100
AcDbEntity
  8
0
  6
Continuous
 62
     7
370
    25
100
AcDbLine
 10
564.9433501725
 20
380.3288938271
 30
0.0
 11
564.9433501725
 21
378.8288938271
 31
0.0
  0
LINE
  5
FE
330
1F
100
AcDbEntity
  8
0
  6
Continuous
 62
     7
370
    25
100
AcDbLine
 10
564.9433501725
 20
377.1288938271
 30
0.0
 11
564.9433501725
 21
365.8288938271
 31
0.0
  0
LINE
  5
FF
330
1F
100
AcDbEntity
  8
0
  6
Continuous
 62
     7
370
    25
100
AcDbLine
 10
574.4021001724
 20
365.8288938271
 30
0.0
 11
574.4021001724
 21
371.8288938271
 31
0.0
  0
LINE
  5
100
330
1F
100
AcDbEntity
  8
0
  6
Continuous
 62
     7
370
    25
100
AcDbLine
 10
574.9433501724
 20
366.9445009114
 30
0.0
 11
574.9433501724
 21
371.2876438271
 31
0.0
  0
LINE
  5
101
330
1F
100
AcDbEntity
  8
0
  6
Continuous
 62
     7
370
    25
100
AcDbLine
 10
574.9433501724
 20
366.3701438271
 30
0.0
 11
574.9433501724
 21
366.9445009114
 31
0.0
  0
LINE
  5
102
330
1F
100
AcDbEntity
  8
0
  6
Continuous
 62
     7
370
    25
100
AcDbLine
 10
260.3224199399
 20
378.8288938271
 30
0.0
 11
565.164280405
 21
378.8288938271
 31
0.0
  0
LINE
  5
103
330
1F
100
AcDbEntity
  8
0
  6
Continuous
 62
     7
370
    25
100
AcDbLine
 10
260.3224199399
 20
377.1288938271
 30
0.0
 11
565.164280405
 21
377.1288938271
 31
0.0
  0
ELLIPSE
  5
104
330
1F
100
AcDbEntity
  8
0
  6
Continuous
 62
     7
370
    25
100
AcDbEllipse
 10
260.3224199399
 20
377.9788938271
 30
0.0
 11
0.0
 21
0.8499999999999658
 31
0.0
210
0.0
220
0.0
230
1.0
 40
0.0930232558
 41
0.0
 42
3.141592653589792
  0
ELLIPSE
  5
105
330
1F
100
AcDbEntity
  8
0
  6
Continuous
 62
     7
370
    25
100
AcDbEllipse
 10
565.164280405
 20
377.9788938271
 30
0.0
 11
0.0
 21
0.8499999999999658
 31
0.0
210
0.0
220
0.0
230
1.0
 40
0.0930232558
 41
3.141592653589792
 42
6.283185307179586
  0
LINE
  5
106
330
1F
100
AcDbEntity
  8
0
  6
Continuous
 62
     7
370
    25
100
AcDbLine
 10
564.2433501725
 20
377.0288938271
 30
0.0
 11
564.2433501725
 21
377.1288938271
 31
0.0
  0
LINE
  5
107
330
1F
100
AcDbEntity
  8
0
  6
Continuous
 62
     7
370
    25
100
AcDbLine
 10
261.2433501725
 20
377.1288938271
 30
0.0
 11
261.2433501725
 21
377.0288938271
 31
0.0
  0
LINE
  5
108
330
1F
100
AcDbEntity
  8
0
  6
Continuous
 62
     7
370
    25
100
AcDbLine
 10
564.2433501725
 20
365.8288938271
 30
0.0
 11
564.2433501725
 21
377.0288938271
 31
0.0
  0
LINE
  5
109
330
1F
100
AcDbEntity
  8
0
  6
Continuous
 62
     7
370
    25
100
AcDbLine
 10
261.2433501725
 20
377.0288938271
 30
0.0
 11
261.2433501725
 21
365.8288938271
 31
0.0
  0
LINE
  5
10A
330
1F
100
AcDbEntity
  8
0
  6
Continuous
 62
     7
370
    25
100
AcDbLine
 10
251.0846001725
 20
370.1252596734
 30
0.0
 11
251.0846001725
 21
365.8288938271
 31
0.0
  0
LINE
  5
10B
330
1F
100
AcDbEntity
  8
0
  6
Continuous
 62
     7
370
    25
100
AcDbLine
 10
251.0846001725
 20
371.8288938271
 30
0.0
 11
251.0846001725
 21
370.1252596734
 31
0.0
  0
LINE
  5
10C
330
1F
100
AcDbEntity
  8
0
  6
Continuous
 62
     7
370
    25
100
AcDbLine
 10
250.5433501725
 20
371.2876438271
 30
0.0
 11
250.5433501725
 21
366.3701438271
 31
0.0
  0
ARC
  5
10D
330
1F
100
AcDbEntity
  8
0
  6
Continuous
 62
     7
370
    25
100
AcDbCircle
 10
554.0688164876
 20
370.4051078377
 30
0.0
 40
12.03669752941459
100
AcDbArc
 50
186.2565722694
 51
191.9710500657
  0
ARC
  5
10E
330
1F
100
AcDbEntity
  8
0
  6
Continuous
 62
     7
370
    25
100
AcDbCircle
 10
542.6671361618
 20
378.6543601421
 30
0.0
 40
12.03669752934401
100
AcDbArc
 50
276.2565722693
 51
281.9710500657
  0
ARC
  5
10F
330
1F
100
AcDbEntity
  8
0
  6
Continuous
 62
     7
370
    25
100
AcDbCircle
 10
534.4178838575
 20
367.2526798165
 30
0.0
 40
12.0366975293064
100
AcDbArc
 50
6.2565722693
 51
11.9710500657
  0
ARC
  5
110
330
1F
100
AcDbEntity
  8
0
  6
Continuous
 62
     7
370
    25
100
AcDbCircle
 10
545.8195641831
 20
359.0034275121
 30
0.0
 40
12.03669752932982
100
AcDbArc
 50
96.2565722694
 51
101.9710500657
  0
ARC
  5
111
330
1F
100
AcDbEntity
  8
0
  6
Continuous
 62
     7
370
    25
100
AcDbCircle
 10
544.2433501725
 20
368.8288938271
 30
0.0
 40
4.000000000000049
100
AcDbArc
 50
311.4096221093
 51
99.1138111675
  0
ARC
  5
112
330
1F
100
AcDbEntity
  8
0
  6
Continuous
 62
     7
370
    25
100
AcDbCircle
 10
544.2433501725
 20
368.8288938271
 30
0.0
 40
4.000000000000036
100
AcDbArc
 50
99.1138111675
 51
228.5903778907
  0
LINE
  5
113
330
1F
100
AcDbEntity
  8
0
  6
Continuous
 62
     7
370
    25
100
AcDbLine
 10
542.1038114087
 20
369.0933377069
 30
0.0
 11
543.5558871326
 21
369.326281572
 31
0.0
  0
LINE
  5
114
330
1F
100
AcDbEntity
  8
0
  6
Continuous
 62
     7
370
    25
100
AcDbLine
 10
542.2938867036
 20
367.9084869221
 30
0.0
 11
543.7459624275
 21
368.1414307872
 31
0.0
  0
LINE
  5
115
330
1F
100
AcDbEntity
  8
0
  6
Continuous
 62
     7
370
    25
100
AcDbLine
 10
543.7459624275
 20
368.1414307872
 30
0.0
 11
543.9789062927
 21
366.6893550633
 31
0.0
  0
LINE
  5
116
330
1F
100
AcDbEntity
  8
0
  6
Continuous
 62
     7
370
    25
100
AcDbLine
 10
544.5077940522
 20
370.9684325909
 30
0.0
 11
544.7407379174
 21
369.516356867
 31
0.0
  0
LINE
  5
117
330
1F
100
AcDbEntity
  8
0
  6
Continuous
 62
     7
370
    25
100
AcDbLine
 10
544.9308132123
 20
368.3315060821
 30
0.0
 11
546.3828889363
 21
368.5644499473
 31
0.0
  0
LINE
  5
118
330
1F
100
AcDbEntity
  8
0
  6
Continuous
 62
     7
370
    25
100
AcDbLine
 10
543.3229432674
 20
370.778357296
 30
0.0
 11
543.5558871326
 21
369.326281572
 31
0.0
  0
LINE
  5
119
330
1F
100
AcDbEntity
  8
0
  6
Continuous
 62
     7
370
    25
100
AcDbLine
 10
544.9308132123
 20
368.3315060821
 30
0.0
 11
545.1637570775
 21
366.8794303582
 31
0.0
  0
LINE
  5
11A
330
1F
100
AcDbEntity
  8
0
  6
Continuous
 62
     7
370
    25
100
AcDbLine
 10
544.7407379174
 20
369.516356867
 30
0.0
 11
546.1928136414
 21
369.7493007321
 31
0.0
  0
LINE
  5
11B
330
1F
100
AcDbEntity
  8
0
  6
Continuous
 62
     7
370
    25
100
AcDbLine
 10
544.8888442655
 20
369.5401162788
 30
0.0
 11
545.0789195604
 21
368.355265494
 31
0.0
  0
LINE
  5
11C
330
1F
100
AcDbEntity
  8
0
  6
Continuous
 62
     7
370
    25
100
AcDbLine
 10
544.7169785056
 20
369.6644632151
 30
0.0
 11
543.5321277208
 21
369.4743879201
 31
0.0
  0
LINE
  5
11D
330
1F
100
AcDbEntity
  8
0
  6
Continuous
 62
     7
370
    25
100
AcDbLine
 10
544.9545726242
 20
368.183399734
 30
0.0
 11
543.7697218394
 21
367.9933244391
 31
0.0
  0
LINE
  5
11E
330
1F
100
AcDbEntity
  8
0
  6
Continuous
 62
     7
370
    25
100
AcDbLine
 10
543.4077807845
 20
369.3025221602
 30
0.0
 11
543.5978560794
 21
368.1176713754
 31
0.0
  0
ARC
  5
11F
330
1F
100
AcDbEntity
  8
0
  6
Continuous
 62
     7
370
    25
100
AcDbCircle
 10
422.0688164875
 20
370.4051078377
 30
0.0
 40
12.03669752934673
100
AcDbArc
 50
186.2565722693
 51
191.9710500657
  0
ARC
  5
120
330
1F
100
AcDbEntity
  8
0
  6
Continuous
 62
     7
370
    25
100
AcDbCircle
 10
410.6671361618
 20
378.6543601421
 30
0.0
 40
12.03669752934503
100
AcDbArc
 50
276.2565722694
 51
281.9710500657
  0
LINE
  5
121
330
1F
100
AcDbEntity
  8
0
  6
Continuous
 62
     7
370
    25
100
AcDbLine
 10
412.9308132123
 20
368.3315060821
 30
0.0
 11
414.3828889363
 21
368.5644499473
 31
0.0
  0
ARC
  5
122
330
1F
100
AcDbEntity
  8
0
  6
Continuous
 62
     7
370
    25
100
AcDbCircle
 10
402.4178838575
 20
367.2526798165
 30
0.0
 40
12.03669752930892
100
AcDbArc
 50
6.2565722693
 51
11.9710500657
  0
ARC
  5
123
330
1F
100
AcDbEntity
  8
0
  6
Continuous
 62
     7
370
    25
100
AcDbCircle
 10
413.8195641831
 20
359.0034275121
 30
0.0
 40
12.03669752931622
100
AcDbArc
 50
96.2565722693
 51
101.9710500657
  0
ARC
  5
124
330
1F
100
AcDbEntity
  8
0
  6
Continuous
 62
     7
370
    25
100
AcDbCircle
 10
412.2433501725
 20
368.8288938271
 30
0.0
 40
4.000000000000012
100
AcDbArc
 50
311.4096221093
 51
99.1138111675
  0
ARC
  5
125
330
1F
100
AcDbEntity
  8
0
  6
Continuous
 62
     7
370
    25
100
AcDbCircle
 10
412.2433501725
 20
368.8288938271
 30
0.0
 40
3.999999999999998
100
AcDbArc
 50
99.1138111675
 51
228.5903778907
  0
LINE
  5
126
330
1F
100
AcDbEntity
  8
0
  6
Continuous
 62
     7
370
    25
100
AcDbLine
 10
411.7459624275
 20
368.1414307872
 30
0.0
 11
411.9789062927
 21
366.6893550633
 31
0.0
  0
LINE
  5
127
330
1F
100
AcDbEntity
  8
0
  6
Continuous
 62
     7
370
    25
100
AcDbLine
 10
410.2938867036
 20
367.9084869221
 30
0.0
 11
411.7459624275
 21
368.1414307872
 31
0.0
  0
LINE
  5
128
330
1F
100
AcDbEntity
  8
0
  6
Continuous
 62
     7
370
    25
100
AcDbLine
 10
412.9308132123
 20
368.3315060821
 30
0.0
 11
413.1637570775
 21
366.8794303582
 31
0.0
  0
LINE
  5
129
330
1F
100
AcDbEntity
  8
0
  6
Continuous
 62
     7
370
    25
100
AcDbLine
 10
410.1038114087
 20
369.0933377069
 30
0.0
 11
411.5558871326
 21
369.326281572
 31
0.0
  0
LINE
  5
12A
330
1F
100
AcDbEntity
  8
0
  6
Continuous
 62
     7
370
    25
100
AcDbLine
 10
412.7407379174
 20
369.516356867
 30
0.0
 11
414.1928136414
 21
369.7493007321
 31
0.0
  0
LINE
  5
12B
330
1F
100
AcDbEntity
  8
0
  6
Continuous
 62
     7
370
    25
100
AcDbLine
 10
412.5077940522
 20
370.9684325909
 30
0.0
 11
412.7407379174
 21
369.516356867
 31
0.0
  0
LINE
  5
12C
330
1F
100
AcDbEntity
  8
0
  6
Continuous
 62
     7
370
    25
100
AcDbLine
 10
411.3229432674
 20
370.778357296
 30
0.0
 11
411.5558871326
 21
369.326281572
 31
0.0
  0
LINE
  5
12D
330
1F
100
AcDbEntity
  8
0
  6
Continuous
 62
     7
370
    25
100
AcDbLine
 10
412.8888442655
 20
369.5401162788
 30
0.0
 11
413.0789195604
 21
368.355265494
 31
0.0
  0
LINE
  5
12E
330
1F
100
AcDbEntity
  8
0
  6
Continuous
 62
     7
370
    25
100
AcDbLine
 10
412.9545726242
 20
368.183399734
 30
0.0
 11
411.7697218394
 21
367.9933244391
 31
0.0
  0
LINE
  5
12F
330
1F
100
AcDbEntity
  8
0
  6
Continuous
 62
     7
370
    25
100
AcDbLine
 10
412.7169785056
 20
369.6644632151
 30
0.0
 11
411.5321277208
 21
369.4743879201
 31
0.0
  0
LINE
  5
130
330
1F
100
AcDbEntity
  8
0
  6
Continuous
 62
     7
370
    25
100
AcDbLine
 10
411.4077807845
 20
369.3025221602
 30
0.0
 11
411.5978560794
 21
368.1176713754
 31
0.0
  0
ARC
  5
131
330
1F
100
AcDbEntity
  8
0
  6
Continuous
 62
     7
370
    25
100
AcDbCircle
 10
291.0688164875
 20
370.4051078377
 30
0.0
 40
12.0366975293549
100
AcDbArc
 50
186.2565722694
 51
191.9710500657
  0
ARC
  5
132
330
1F
100
AcDbEntity
  8
0
  6
Continuous
 62
     7
370
    25
100
AcDbCircle
 10
279.6671361618
 20
378.6543601421
 30
0.0
 40
12.03669752932105
100
AcDbArc
 50
276.2565722693
 51
281.9710500657
  0
LINE
  5
133
330
1F
100
AcDbEntity
  8
0
  6
Continuous
 62
     7
370
    25
100
AcDbLine
 10
281.9308132123
 20
368.3315060821
 30
0.0
 11
282.1637570775
 21
366.8794303582
 31
0.0
  0
ARC
  5
134
330
1F
100
AcDbEntity
  8
0
  6
Continuous
 62
     7
370
    25
100
AcDbCircle
 10
271.4178838575
 20
367.2526798165
 30
0.0
 40
12.03669752932123
100
AcDbArc
 50
6.2565722693
 51
11.9710500657
  0
LINE
  5
135
330
1F
100
AcDbEntity
  8
0
  6
Continuous
 62
     7
370
    25
100
AcDbLine
 10
281.7407379174
 20
369.516356867
 30
0.0
 11
283.1928136414
 21
369.7493007321
 31
0.0
  0
ARC
  5
136
330
1F
100
AcDbEntity
  8
0
  6
Continuous
 62
     7
370
    25
100
AcDbCircle
 10
282.8195641831
 20
359.0034275121
 30
0.0
 40
12.03669752930857
100
AcDbArc
 50
96.2565722693
 51
101.9710500657
  0
ARC
  5
137
330
1F
100
AcDbEntity
  8
0
  6
Continuous
 62
     7
370
    25
100
AcDbCircle
 10
281.2433501725
 20
368.8288938271
 30
0.0
 40
4.000000000000012
100
AcDbArc
 50
311.4096221093
 51
99.1138111675
  0
ARC
  5
138
330
1F
100
AcDbEntity
  8
0
  6
Continuous
 62
     7
370
    25
100
AcDbCircle
 10
281.2433501725
 20
368.8288938271
 30
0.0
 40
4.000000000000012
100
AcDbArc
 50
99.1138111675
 51
228.5903778907
  0
LINE
  5
139
330
1F
100
AcDbEntity
  8
0
  6
Continuous
 62
     7
370
    25
100
AcDbLine
 10
279.1038114087
 20
369.0933377069
 30
0.0
 11
280.5558871326
 21
369.326281572
 31
0.0
  0
LINE
  5
13A
330
1F
100
AcDbEntity
  8
0
  6
Continuous
 62
     7
370
    25
100
AcDbLine
 10
279.2938867036
 20
367.9084869221
 30
0.0
 11
280.7459624275
 21
368.1414307872
 31
0.0
  0
LINE
  5
13B
330
1F
100
AcDbEntity
  8
0
  6
Continuous
 62
     7
370
    25
100
AcDbLine
 10
281.9308132123
 20
368.3315060821
 30
0.0
 11
283.3828889363
 21
368.5644499473
 31
0.0
  0
LINE
  5
13C
330
1F
100
AcDbEntity
  8
0
  6
Continuous
 62
     7
370
    25
100
AcDbLine
 10
281.5077940522
 20
370.9684325909
 30
0.0
 11
281.7407379174
 21
369.516356867
 31
0.0
  0
LINE
  5
13D
330
1F
100
AcDbEntity
  8
0
  6
Continuous
 62
     7
370
    25
100
AcDbLine
 10
280.7459624275
 20
368.1414307872
 30
0.0
 11
280.9789062927
 21
366.6893550633
 31
0.0
  0
LINE
  5
13E
330
1F
100
AcDbEntity
  8
0
  6
Continuous
 62
     7
370
    25
100
AcDbLine
 10
280.3229432674
 20
370.778357296
 30
0.0
 11
280.5558871326
 21
369.326281572
 31
0.0
  0
LINE
  5
13F
330
1F
100
AcDbEntity
  8
0
  6
Continuous
 62
     7
370
    25
100
AcDbLine
 10
281.8888442655
 20
369.5401162788
 30
0.0
 11
282.0789195604
 21
368.355265494
 31
0.0
  0
LINE
  5
140
330
1F
100
AcDbEntity
  8
0
  6
Continuous
 62
     7
370
    25
100
AcDbLine
 10
281.9545726242
 20
368.183399734
 30
0.0
 11
280.7697218394
 21
367.9933244391
 31
0.0
  0
LINE
  5
141
330
1F
100
AcDbEntity
  8
0
  6
Continuous
 62
     7
370
    25
100
AcDbLine
 10
281.7169785056
 20
369.6644632151
 30
0.0
 11
280.5321277208
 21
369.4743879201
 31
0.0
  0
LINE
  5
142
330
1F
100
AcDbEntity
  8
0
  6
Continuous
 62
     7
370
    25
100
AcDbLine
 10
280.4077807845
 20
369.3025221602
 30
0.0
 11
280.5978560794
 21
368.1176713754
 31
0.0
  0
SPLINE
  5
143
330
1F
100
AcDbEntity
  8
0
  6
Continuous
 62
     7
370
    25
100
AcDbSpline
210
0.0
220
0.0
230
1.0
 70
    24
 71
     3
 72
    18
 73
    14
 74
     0
 42
0.000000001
 43
0.00000001
 40
0.0
 40
0.0
 40
0.0
 40
0.0
 40
0.139544245000476
 40
0.2146633576115604
 40
0.2913766055701591
 40
0.3680898535287583
 40
0.4432089661398438
 40
0.5827532111403184
 40
0.7222974561407934
 40
0.7974165687518798
 40
0.8741298167104773
 40
0.9508430646690751
 40
1.0
 40
1.0
 40
1.0
 40
1.0
 10
261.5433501724743
 20
388.5983657703268
 30
0.0
 10
261.5433501724743
 20
388.9834966622525
 30
0.0
 10
261.5433501724743
 20
389.5759502627604
 30
0.0
 10
261.5433501724743
 20
390.8118644441455
 30
0.0
 10
261.5433501724743
 20
391.8878940565003
 30
0.0
 10
261.5433501724743
 20
393.0514221770492
 30
0.0
 10
261.5433501724744
 20
394.5718693680674
 30
0.0
 10
261.5433501724743
 20
396.3960593660741
 30
0.0
 10
261.5433501724743
 20
397.9112943206665
 30
0.0
 10
261.5433501724744
 20
398.8290416190964
 30
0.0
 10
261.5433501724743
 20
399.33265843745
 30
0.0
 10
261.5433501724743
 20
399.60479556219
 30
0.0
 10
261.5433501724743
 20
399.6028877193041
 30
0.0
 10
261.5433501724743
 20
399.6021426364981
 30
0.0
  0
SPLINE
  5
144
330
1F
100
AcDbEntity
  8
0
  6
Continuous
 62
     7
370
    25
100
AcDbSpline
210
0.0
220
0.0
230
1.0
 70
     8
 71
     3
 72
     8
 73
     4
 74
     0
 42
0.000000001
 43
0.00000001
 40
0.0
 40
0.0
 40
0.0
 40
0.0
 40
1.0
 40
1.0
 40
1.0
 40
1.0
 10
265.5433501724672
 20
391.0042244159609
 30
0.0
 10
265.5433501724672
 20
391.817213987666
 30
0.0
 10
265.369034872088
 20
392.6079523837338
 30
0.0
 10
265.0967681850759
 20
393.3861873822107
 30
0.0
  0
SPLINE
  5
145
330
1F
100
AcDbEntity
  8
0
  6
Continuous
 62
     7
370
    25
100
AcDbSpline
210
0.0
220
0.0
230
1.0
 70
     8
 71
     3
 72
     8
 73
     4
 74
     0
 42
0.000000001
 43
0.00000001
 40
0.0
 40
0.0
 40
0.0
 40
0.0
 40
1.0
 40
1.0
 40
1.0
 40
1.0
 10
265.0967681850759
 20
388.6222614497112
 30
0.0
 10
265.3690348720873
 20
389.400496448186
 30
0.0
 10
265.5433501724672
 20
390.1912348442578
 30
0.0
 10
265.5433501724672
 20
391.0042244159609
 30
0.0
  0
LINE
  5
146
330
1F
100
AcDbEntity
  8
0
  6
Continuous
 62
     7
370
    25
100
AcDbLine
 10
261.5433501725
 20
388.6222614497
 30
0.0
 11
265.0967681851
 21
388.6222614497
 31
0.0
  0
LINE
  5
147
330
1F
100
AcDbEntity
  8
0
  6
Continuous
 62
     7
370
    25
100
AcDbLine
 10
265.0967681851
 20
393.3861873822
 30
0.0
 11
261.5433501725
 21
393.3861873822
 31
0.0
  0
SPLINE
  5
148
330
1F
100
AcDbEntity
  8
0
  6
Continuous
 62
     7
370
    25
100
AcDbSpline
210
0.0
220
0.0
230
1.0
 70
     8
 71
     3
 72
     8
 73
     4
 74
     0
 42
0.000000001
 43
0.00000001
 40
0.0
 40
0.0
 40
0.0
 40
0.0
 40
1.0
 40
1.0
 40
1.0
 40
1.0
 10
265.5433501724672
 20
395.9895035709075
 30
0.0
 10
265.5433501724672
 20
396.8780433774633
 30
0.0
 10
265.3690348720878
 20
397.7422642308822
 30
0.0
 10
265.0967681850759
 20
398.5928197595974
 30
0.0
  0
SPLINE
  5
149
330
1F
100
AcDbEntity
  8
0
  6
Continuous
 62
     7
370
    25
100
AcDbSpline
210
0.0
220
0.0
230
1.0
 70
     8
 71
     3
 72
     8
 73
     4
 74
     0
 42
0.000000001
 43
0.00000001
 40
0.0
 40
0.0
 40
0.0
 40
0.0
 40
1.0
 40
1.0
 40
1.0
 40
1.0
 10
265.0967681850759
 20
393.3861873822174
 30
0.0
 10
265.3690348720874
 20
394.2367429109312
 30
0.0
 10
265.5433501724672
 20
395.100963764353
 30
0.0
 10
265.5433501724672
 20
395.9895035709075
 30
0.0
  0
LINE
  5
14A
330
1F
100
AcDbEntity
  8
0
  6
Continuous
 62
     7
370
    25
100
AcDbLine
 10
261.5433501725
 20
398.5928197596
 30
0.0
 11
265.0967681851
 21
398.5928197596
 31
0.0
  0
LINE
  5
14B
330
1F
100
AcDbEntity
  8
0
  6
Continuous
 62
     7
370
    25
100
AcDbLine
 10
265.5433501725
 20
391.004224416
 30
0.0
 11
265.5433501725
 21
395.9895035709
 31
0.0
  0
SPLINE
  5
14C
330
1F
100
AcDbEntity
  8
0
  6
Continuous
 62
     7
370
    25
100
AcDbSpline
210
0.0
220
0.0
230
1.0
 70
     8
 71
     3
 72
     8
 73
     4
 74
     0
 42
0.000000001
 43
0.00000001
 40
0.0
 40
0.0
 40
0.0
 40
0.0
 40
1.0
 40
1.0
 40
1.0
 40
1.0
 10
265.096768185076
 20
398.592819759601
 30
0.0
 10
265.3690348720874
 20
398.6651402898399
 30
0.0
 10
265.5433501724673
 20
398.7386227471903
 30
0.0
 10
265.5433501724673
 20
398.8141729820415
 30
0.0
  0
LINE
  5
14D
330
1F
100
AcDbEntity
  8
0
  6
Continuous
 62
     7
370
    25
100
AcDbLine
 10
265.5433501725
 20
395.9895035709
 30
0.0
 11
265.5433501725
 21
398.814172982
 31
0.0
  0
SPLINE
  5
14E
330
1F
100
AcDbEntity
  8
0
  6
Continuous
 62
     7
370
    25
100
AcDbSpline
210
0.0
220
0.0
230
1.0
 70
     8
 71
     3
 72
     8
 73
     4
 74
     0
 42
0.000000001
 43
0.00000001
 40
0.0
 40
0.0
 40
0.0
 40
0.0
 40
1.0
 40
1.0
 40
1.0
 40
1.0
 10
265.5433501724673
 20
388.8436146721488
 30
0.0
 10
265.5433501724673
 20
388.7680644372975
 30
0.0
 10
265.3690348720879
 20
388.6945819799473
 30
0.0
 10
265.0967681850759
 20
388.6222614497083
 30
0.0
  0
LINE
  5
14F
330
1F
100
AcDbEntity
  8
0
  6
Continuous
 62
     7
370
    25
100
AcDbLine
 10
265.5433501725
 20
391.004224416
 30
0.0
 11
265.5433501725
 21
388.8362213333
 31
0.0
  0
SPLINE
  5
150
330
1F
100
AcDbEntity
  8
0
  6
Continuous
 62
     7
370
    25
100
AcDbSpline
210
0.0
220
0.0
230
1.0
 70
     8
 71
     3
 72
     8
 73
     4
 74
     0
 42
0.000000001
 43
0.00000001
 40
0.0
 40
0.0
 40
0.0
 40
0.0
 40
1.0
 40
1.0
 40
1.0
 40
1.0
 10
265.5433501724673
 20
398.8141729820415
 30
0.0
 10
265.5433501724673
 20
398.8897232168929
 30
0.0
 10
265.3690348720879
 20
398.9632056742431
 30
0.0
 10
265.0967681850759
 20
399.035526204482
 30
0.0
  0
LINE
  5
151
330
1F
100
AcDbEntity
  8
0
  6
Continuous
 62
     7
370
    25
100
AcDbLine
 10
261.5433501725
 20
399.0355262045
 30
0.0
 11
265.0967681851
 21
399.0355262045
 31
0.0
  0
LINE
  5
152
330
1F
100
AcDbEntity
  8
0
  6
Continuous
 62
     7
370
    25
100
AcDbLine
 10
250.5433501725
 20
396.2876438271
 30
0.0
 11
250.5433501725
 21
391.3701438271
 31
0.0
  0
LINE
  5
153
330
1F
100
AcDbEntity
  8
0
  6
Continuous
 62
     7
370
    25
100
AcDbLine
 10
251.0846001725
 20
395.1252596734
 30
0.0
 11
251.0846001725
 21
390.8288938271
 31
0.0
  0
LINE
  5
154
330
1F
100
AcDbEntity
  8
0
  6
Continuous
 62
     7
370
    25
100
AcDbLine
 10
251.0846001725
 20
396.8288938271
 30
0.0
 11
251.0846001725
 21
395.1252596734
 31
0.0
  0
LINE
  5
155
330
1F
100
AcDbEntity
  8
0
  6
Continuous
 62
     7
370
    25
100
AcDbLine
 10
715.5900943451
 20
365.050267155
 30
0.0
 11
715.9530321234
 21
365.6788938271
 31
0.0
  0
LINE
  5
156
330
1F
100
AcDbEntity
  8
0
  6
Continuous
 62
     7
370
    25
100
AcDbLine
 10
715.9530321234
 20
371.9788938271
 30
0.0
 11
715.5900943451
 21
372.6075204992
 31
0.0
  0
LINE
  5
157
330
1F
100
AcDbEntity
  8
0
  6
Continuous
 62
     7
370
    25
100
AcDbLine
 10
717.6530321234
 20
364.8288938271
 30
0.0
 11
719.6530321234
 21
364.8288938271
 31
0.0
  0
LINE
  5
158
330
1F
100
AcDbEntity
  8
0
  6
Continuous
 62
     7
370
    25
100
AcDbLine
 10
719.6530321234
 20
372.8288938271
 30
0.0
 11
717.6530321234
 21
372.8288938271
 31
0.0
  0
ARC
  5
159
330
1F
100
AcDbEntity
  8
0
  6
Continuous
 62
     7
370
    25
100
AcDbCircle
 10
712.7248288931
 20
368.8288938271
 30
0.0
 40
8.000000000000037
100
AcDbArc
 50
330.0
 51
344.7252520003
  0
ARC
  5
15A
330
1F
100
AcDbEntity
  8
0
  6
Continuous
 62
     7
370
    25
100
AcDbCircle
 10
712.7248288931
 20
368.8288938271
 30
0.0
 40
8.000000000000066
100
AcDbArc
 50
15.2747479997
 51
30.0
  0
LINE
  5
15B
330
1F
100
AcDbEntity
  8
0
  6
Continuous
 62
     7
370
    25
100
AcDbLine
 10
715.9530321234
 20
366.8288938271
 30
0.0
 11
716.0530321234
 21
366.8288938271
 31
0.0
  0
LINE
  5
15C
330
1F
100
AcDbEntity
  8
0
  6
Continuous
 62
     7
370
    25
100
AcDbLine
 10
716.0530321234
 20
370.8288938271
 30
0.0
 11
715.9530321234
 21
370.8288938271
 31
0.0
  0
LINE
  5
15D
330
1F
100
AcDbEntity
  8
0
  6
Continuous
 62
     7
370
    25
100
AcDbLine
 10
732.5530321234
 20
171.2996045052
 30
0.0
 11
722.9530321234
 21
171.2996045052
 31
0.0
  0
LINE
  5
15E
330
1F
100
AcDbEntity
  8
0
  6
Continuous
 62
     7
370
    25
100
AcDbLine
 10
722.9530321234
 20
364.358183149
 30
0.0
 11
722.9530321234
 21
171.2996045052
 31
0.0
  0
LINE
  5
15F
330
1F
100
AcDbEntity
  8
0
  6
Continuous
 62
     7
370
    25
100
AcDbLine
 10
732.5530321234
 20
364.358183149
 30
0.0
 11
722.9530321234
 21
364.358183149
 31
0.0
  0
LINE
  5
160
330
1F
100
AcDbEntity
  8
0
  6
Continuous
 62
     7
370
    25
100
AcDbLine
 10
734.9530321234
 20
363.4288938271
 30
0.0
 11
734.9530321234
 21
172.2288938271
 31
0.0
  0
SPLINE
  5
161
330
1F
100
AcDbEntity
  8
0
  6
Continuous
 62
     7
370
    25
100
AcDbSpline
210
0.0
220
0.0
230
1.0
 70
     8
 71
     3
 72
    20
 73
    16
 74
     0
 42
0.000000001
 43
0.00000001
 40
0.0
 40
0.0
 40
0.0
 40
0.0
 40
0.1250000000000003
 40
0.1250000000000003
 40
0.2500000000000006
 40
0.2500000000000006
 40
0.3750000000000009
 40
0.3750000000000009
 40
0.5000000000000012
 40
0.5000000000000012
 40
0.7500000000000018
 40
0.7500000000000018
 40
0.8750000000000009
 40
0.8750000000000009
 40
1.0
 40
1.0
 40
1.0
 40
1.0
 10
734.9530321234148
 20
172.2288938270946
 30
0.0
 10
734.9530321234148
 20
172.18985309624
 30
0.0
 10
734.93749556294
 20
172.1513343920402
 30
0.0
 10
734.8761772109793
 20
172.0739276407323
 30
0.0
 10
734.8297534653925
 20
172.0347832227456
 30
0.0
 10
734.7098025952384
 20
171.9576324688304
 30
0.0
 10
734.6361979509551
 20
171.9193048870894
 30
0.0
 10
734.4614675848593
 20
171.8417585666128
 30
0.0
 10
734.3606169559578
 20
171.8027823589441
 30
0.0
 10
734.0293316759738
 20
171.6872875024991
 30
0.0
 10
733.76165151459
 20
171.609375058829
 30
0.0
 10
733.3289774885345
 20
171.4938951334282
 30
0.0
 10
733.1774594016834
 20
171.4550293375631
 30
0.0
 10
732.8680336442973
 20
171.3772550038946
 30
0.0
 10
732.7114113146037
 20
171.3386452369398
 30
0.0
 10
732.5530321234148
 20
171.2996045052132
 30
0.0
  0
SPLINE
  5
162
330
1F
100
AcDbEntity
  8
0
  6
Continuous
 62
     7
370
    25
100
AcDbSpline
210
0.0
220
0.0
230
1.0
 70
     8
 71
     3
 72
    20
 73
    16
 74
     0
 42
0.000000001
 43
0.00000001
 40
0.0
 40
0.0
 40
0.0
 40
0.0
 40
0.1249999999999993
 40
0.1249999999999993
 40
0.2499999999999987
 40
0.2499999999999987
 40
0.374999999999998
 40
0.374999999999998
 40
0.4999999999999973
 40
0.4999999999999973
 40
0.7499999999999987
 40
0.7499999999999987
 40
0.8749999999999993
 40
0.8749999999999993
 40
1.0
 40
1.0
 40
1.0
 40
1.0
 10
732.5530321234148
 20
364.3581831489759
 30
0.0
 10
732.7114113110655
 20
364.3191424181214
 30
0.0
 10
732.8676570357571
 20
364.2806237139216
 30
0.0
 10
733.1756488851738
 20
364.2032169626136
 30
0.0
 10
733.328292992645
 20
364.1640725446269
 30
0.0
 10
733.617377281832
 20
364.0869217907118
 30
0.0
 10
733.7551818200161
 20
364.0485942089707
 30
0.0
 10
734.0168004956549
 20
363.9710478884942
 30
0.0
 10
734.1395468023376
 20
363.9320716808255
 30
0.0
 10
734.4708711792854
 20
363.8165768243804
 30
0.0
 10
734.6498823033135
 20
363.7386643807104
 30
0.0
 10
734.8294974026944
 20
363.6231844553095
 30
0.0
 10
734.8757417515621
 20
363.5843186594444
 30
0.0
 10
734.9374950575733
 20
363.5065443257759
 30
0.0
 10
734.9530321234148
 20
363.4679345588211
 30
0.0
 10
734.9530321234148
 20
363.4288938270945
 30
0.0
  0
LINE
  5
163
330
1F
100
AcDbEntity
  8
0
  6
Continuous
 62
     7
370
    25
100
AcDbLine
 10
732.5530321234
 20
169.8288938271
 30
0.0
 11
732.5530321234
 21
171.2288938271
 31
0.0
  0
SPLINE
  5
164
330
1F
100
AcDbEntity
  8
0
  6
Continuous
 62
     7
370
    25
100
AcDbSpline
210
0.0
220
0.0
230
1.0
 70
     8
 71
     3
 72
     9
 73
     5
 74
     0
 42
0.000000001
 43
0.00000001
 40
0.0
 40
0.0
 40
0.0
 40
0.0
 40
0.7329379507272183
 40
1.0
 40
1.0
 40
1.0
 40
1.0
 10
732.5530321234148
 20
171.2288938270946
 30
0.0
 10
732.7044207650707
 20
171.2406484766124
 30
0.0
 10
732.910971185206
 20
171.2566861910001
 30
0.0
 10
733.0663315273246
 20
171.3850234974939
 30
0.0
 10
733.1078223786665
 20
171.4192975215643
 30
0.0
  0
SPLINE
  5
165
330
1F
100
AcDbEntity
  8
0
  6
Continuous
 62
     7
370
    25
100
AcDbSpline
210
0.0
220
0.0
230
1.0
 70
     8
 71
     3
 72
    20
 73
    16
 74
     0
 42
0.000000001
 43
0.00000001
 40
0.0
 40
0.0
 40
0.0
 40
0.0
 40
0.1250000000000006
 40
0.1250000000000006
 40
0.2500000000000012
 40
0.2500000000000012
 40
0.3750000000000018
 40
0.3750000000000018
 40
0.5000000000000023
 40
0.5000000000000023
 40
0.7500000000000087
 40
0.7500000000000087
 40
0.8750000000000043
 40
0.8750000000000043
 40
1.0
 40
1.0
 40
1.0
 40
1.0
 10
732.5530321234148
 20
169.8288938270946
 30
0.0
 10
732.7114113110655
 20
169.8288938270946
 30
0.0
 10
732.8676570357571
 20
169.8444303875694
 30
0.0
 10
733.1756488851738
 20
169.90574873953
 30
0.0
 10
733.328292992645
 20
169.9521724851168
 30
0.0
 10
733.617377281832
 20
170.072123355271
 30
0.0
 10
733.7551818200161
 20
170.1457279995543
 30
0.0
 10
734.0168004956549
 20
170.32045836565
 30
0.0
 10
734.1395468023376
 20
170.4213089945515
 30
0.0
 10
734.4708711792854
 20
170.7525942745355
 30
0.0
 10
734.6498823033135
 20
171.0202744359193
 30
0.0
 10
734.8294974026944
 20
171.4529484619747
 30
0.0
 10
734.8757417515621
 20
171.6044665488259
 30
0.0
 10
734.9374950575733
 20
171.9138923062119
 30
0.0
 10
734.9530321234148
 20
172.0705146359057
 30
0.0
 10
734.9530321234148
 20
172.2288938270945
 30
0.0
  0
SPLINE
  5
166
330
1F
100
AcDbEntity
  8
0
  6
Continuous
 62
     7
370
    25
100
AcDbSpline
210
0.0
220
0.0
230
1.0
 70
     8
 71
     3
 72
     9
 73
     5
 74
     0
 42
0.000000001
 43
0.00000001
 40
0.0
 40
0.0
 40
0.0
 40
0.0
 40
0.4825784287291826
 40
1.0
 40
1.0
 40
1.0
 40
1.0
 10
733.1655718625927
 20
364.205064059041
 30
0.0
 10
733.0774375212765
 20
364.2688722521024
 30
0.0
 10
732.8948053602235
 20
364.4010957193415
 30
0.0
 10
732.6695724761789
 20
364.419415023798
 30
0.0
 10
732.5530321234148
 20
364.4288938270946
 30
0.0
  0
LINE
  5
167
330
1F
100
AcDbEntity
  8
0
  6
Continuous
 62
     7
370
    25
100
AcDbLine
 10
732.5530321234
 20
365.8288938271
 30
0.0
 11
732.5530321234
 21
364.4288938271
 31
0.0
  0
SPLINE
  5
168
330
1F
100
AcDbEntity
  8
0
  6
Continuous
 62
     7
370
    25
100
AcDbSpline
210
0.0
220
0.0
230
1.0
 70
     8
 71
     3
 72
    20
 73
    16
 74
     0
 42
0.000000001
 43
0.00000001
 40
0.0
 40
0.0
 40
0.0
 40
0.0
 40
0.1250000000000007
 40
0.1250000000000007
 40
0.2500000000000013
 40
0.2500000000000013
 40
0.375000000000002
 40
0.375000000000002
 40
0.5000000000000027
 40
0.5000000000000027
 40
0.750000000000004
 40
0.750000000000004
 40
0.875000000000002
 40
0.875000000000002
 40
1.0
 40
1.0
 40
1.0
 40
1.0
 10
734.9530321234148
 20
363.4288938270945
 30
0.0
 10
734.9530321234148
 20
363.5872730147452
 30
0.0
 10
734.93749556294
 20
363.7435187394369
 30
0.0
 10
734.8761772109793
 20
364.0515105888535
 30
0.0
 10
734.8297534653925
 20
364.2041546963247
 30
0.0
 10
734.7098025952384
 20
364.4932389855117
 30
0.0
 10
734.6361979509551
 20
364.6310435236958
 30
0.0
 10
734.4614675848594
 20
364.8926621993347
 30
0.0
 10
734.3606169559578
 20
365.0154085060173
 30
0.0
 10
734.0293316759738
 20
365.346732882965
 30
0.0
 10
733.7616515145901
 20
365.5257440069932
 30
0.0
 10
733.3289774885346
 20
365.7053591063741
 30
0.0
 10
733.1774594016834
 20
365.7516034552418
 30
0.0
 10
732.8680336442973
 20
365.8133567612531
 30
0.0
 10
732.7114113146037
 20
365.8288938270945
 30
0.0
 10
732.5530321234148
 20
365.8288938270945
 30
0.0
  0
LINE
  5
169
330
1F
100
AcDbEntity
  8
0
  6
Continuous
 62
     7
370
    25
100
AcDbLine
 10
732.5530321234
 20
364.4288938271
 30
0.0
 11
722.9530321234
 21
364.4288938271
 31
0.0
  0
LINE
  5
16A
330
1F
100
AcDbEntity
  8
0
  6
Continuous
 62
     7
370
    25
100
AcDbLine
 10
722.9530321234
 20
365.8288938271
 30
0.0
 11
722.9530321234
 21
364.4288938271
 31
0.0
  0
LINE
  5
16B
330
1F
100
AcDbEntity
  8
0
  6
Continuous
 62
     7
370
    25
100
AcDbLine
 10
732.5530321234
 20
365.8288938271
 30
0.0
 11
722.9530321234
 21
365.8288938271
 31
0.0
  0
LINE
  5
16C
330
1F
100
AcDbEntity
  8
0
  6
Continuous
 62
     7
370
    25
100
AcDbLine
 10
722.9530321234
 20
169.8288938271
 30
0.0
 11
722.9530321234
 21
171.2288938271
 31
0.0
  0
LINE
  5
16D
330
1F
100
AcDbEntity
  8
0
  6
Continuous
 62
     7
370
    25
100
AcDbLine
 10
732.5530321234
 20
171.2288938271
 30
0.0
 11
722.9530321234
 21
171.2288938271
 31
0.0
  0
LINE
  5
16E
330
1F
100
AcDbEntity
  8
0
  6
Continuous
 62
     7
370
    25
100
AcDbLine
 10
732.5530321234
 20
169.8288938271
 30
0.0
 11
722.9530321234
 21
169.8288938271
 31
0.0
  0
LINE
  5
16F
330
1F
100
AcDbEntity
  8
0
  6
Continuous
 62
     7
370
    25
100
AcDbLine
 10
714.8530321234
 20
380.3288938271
 30
0.0
 11
718.8530321234
 21
380.3288938271
 31
0.0
  0
LINE
  5
170
330
1F
100
AcDbEntity
  8
0
  6
Continuous
 62
     7
370
    25
100
AcDbLine
 10
714.8530321234
 20
363.1288938271
 30
0.0
 11
714.8530321234
 21
380.3288938271
 31
0.0
  0
LINE
  5
171
330
1F
100
AcDbEntity
  8
0
  6
Continuous
 62
     7
370
    25
100
AcDbLine
 10
695.8530321234
 20
397.3288938271
 30
0.0
 11
695.8530321234
 21
363.1288938271
 31
0.0
  0
ARC
  5
172
330
1F
100
AcDbEntity
  8
0
  6
Continuous
 62
     7
370
    25
100
AcDbCircle
 10
698.8530321234
 20
397.3288938271
 30
0.0
 40
3.0
100
AcDbArc
 50
90.0
 51
180.0
  0
LINE
  5
173
330
1F
100
AcDbEntity
  8
0
  6
Continuous
 62
     7
370
    25
100
AcDbLine
 10
715.8530321234
 20
400.3288938271
 30
0.0
 11
698.8530321234
 21
400.3288938271
 31
0.0
  0
ARC
  5
174
330
1F
100
AcDbEntity
  8
0
  6
Continuous
 62
     7
370
    25
100
AcDbCircle
 10
715.8530321234
 20
397.3288938271
 30
0.0
 40
3.0
100
AcDbArc
 50
0.0
 51
90.0
  0
LINE
  5
175
330
1F
100
AcDbEntity
  8
0
  6
Continuous
 62
     7
370
    25
100
AcDbLine
 10
718.8530321234
 20
380.3288938271
 30
0.0
 11
718.8530321234
 21
397.3288938271
 31
0.0
  0
CIRCLE
  5
176
330
1F
100
AcDbEntity
  8
0
  6
Continuous
 62
     7
370
    25
100
AcDbCircle
 10
704.3530321234
 20
393.8288938271
 30
0.0
 40
3.250000000000171
  0
CIRCLE
  5
177
330
1F
100
AcDbEntity
  8
0
  6
Continuous
 62
     7
370
    25
100
AcDbCircle
 10
704.3530321234
 20
368.8288938271
 30
0.0
 40
3.250000000000057
  0
LINE
  5
178
330
1F
100
AcDbEntity
  8
0
  6
Continuous
 62
     7
370
    25
100
AcDbLine
 10
714.8530321234
 20
363.1288938271
 30
0.0
 11
714.8530321234
 21
361.3288938271
 31
0.0
  0
LINE
  5
179
330
1F
100
AcDbEntity
  8
0
  6
Continuous
 62
     7
370
    25
100
AcDbLine
 10
714.8530321234
 20
361.3288938271
 30
0.0
 11
695.8530321234
 21
361.3288938271
 31
0.0
  0
LINE
  5
17A
330
1F
100
AcDbEntity
  8
0
  6
Continuous
 62
     7
370
    25
100
AcDbLine
 10
695.8530321234
 20
361.3288938271
 30
0.0
 11
695.8530321234
 21
363.1288938271
 31
0.0
  0
LINE
  5
17B
330
1F
100
AcDbEntity
  8
0
  6
Continuous
 62
     7
370
    25
100
AcDbLine
 10
714.8530321234
 20
362.1288938271
 30
0.0
 11
715.0530321234
 21
362.1288938271
 31
0.0
  0
LINE
  5
17C
330
1F
100
AcDbEntity
  8
0
  6
Continuous
 62
     7
370
    25
100
AcDbLine
 10
714.8530321234
 20
361.3288938271
 30
0.0
 11
715.0530321234
 21
361.3288938271
 31
0.0
  0
ARC
  5
17D
330
1F
100
AcDbEntity
  8
0
  6
Continuous
 62
     7
370
    25
100
AcDbCircle
 10
715.0530321234
 20
363.1288938271
 30
0.0
 40
1.0
100
AcDbArc
 50
270.0
 51
0.0
  0
ARC
  5
17E
330
1F
100
AcDbEntity
  8
0
  6
Continuous
 62
     7
370
    25
100
AcDbCircle
 10
715.0530321234
 20
363.1288938271
 30
0.0
 40
1.800000000000011
100
AcDbArc
 50
270.0
 51
0.0
  0
LINE
  5
17F
330
1F
100
AcDbEntity
  8
0
  6
Continuous
 62
     7
370
    25
100
AcDbLine
 10
716.8530321234
 20
373.3288938271
 30
0.0
 11
716.0530321234
 21
373.3288938271
 31
0.0
  0
LINE
  5
180
330
1F
100
AcDbEntity
  8
0
  6
Continuous
 62
     7
370
    25
100
AcDbLine
 10
716.0530321234
 20
373.3288938271
 30
0.0
 11
716.0530321234
 21
363.1288938271
 31
0.0
  0
LINE
  5
181
330
1F
100
AcDbEntity
  8
0
  6
Continuous
 62
     7
370
    25
100
AcDbLine
 10
674.8530321234
 20
362.1288938271
 30
0.0
 11
695.8530321234
 21
362.1288938271
 31
0.0
  0
LINE
  5
182
330
1F
100
AcDbEntity
  8
0
  6
Continuous
 62
     7
370
    25
100
AcDbLine
 10
674.8530321234
 20
361.3288938271
 30
0.0
 11
695.8530321234
 21
361.3288938271
 31
0.0
  0
LINE
  5
183
330
1F
100
AcDbEntity
  8
0
  6
Continuous
 62
     7
370
    25
100
AcDbLine
 10
671.8530321234
 20
361.3288938271
 30
0.0
 11
671.8530321234
 21
362.1288938271
 31
0.0
  0
LINE
  5
184
330
1F
100
AcDbEntity
  8
0
  6
Continuous
 62
     7
370
    25
100
AcDbLine
 10
671.8530321234
 20
362.1288938271
 30
0.0
 11
674.8530321234
 21
362.1288938271
 31
0.0
  0
LINE
  5
185
330
1F
100
AcDbEntity
  8
0
  6
Continuous
 62
     7
370
    25
100
AcDbLine
 10
674.8530321234
 20
361.3288938271
 30
0.0
 11
671.8530321234
 21
361.3288938271
 31
0.0
  0
LINE
  5
186
330
1F
100
AcDbEntity
  8
0
  6
Continuous
 62
     7
370
    25
100
AcDbLine
 10
675.9484187316
 20
365.5288938271
 30
0.0
 11
672.9484187316
 21
365.5288938271
 31
0.0
  0
LINE
  5
187
330
1F
100
AcDbEntity
  8
0
  6
Continuous
 62
     7
370
    25
100
AcDbLine
 10
672.9484187316
 20
365.5288938271
 30
0.0
 11
672.9484187316
 21
366.3288938271
 31
0.0
  0
LINE
  5
188
330
1F
100
AcDbEntity
  8
0
  6
Continuous
 62
     7
370
    25
100
AcDbLine
 10
672.9484187316
 20
366.3288938271
 30
0.0
 11
675.9484187316
 21
366.3288938271
 31
0.0
  0
LINE
  5
189
330
1F
100
AcDbEntity
  8
0
  6
Continuous
 62
     7
370
    25
100
AcDbLine
 10
675.9484187316
 20
365.5288938271
 30
0.0
 11
682.4661101852
 21
365.5288938271
 31
0.0
  0
LINE
  5
18A
330
1F
100
AcDbEntity
  8
0
  6
Continuous
 62
     7
370
    25
100
AcDbLine
 10
675.9484187316
 20
366.3288938271
 30
0.0
 11
682.4661101852
 21
366.3288938271
 31
0.0
  0
LINE
  5
18B
330
1F
100
AcDbEntity
  8
0
  6
Continuous
 62
     7
370
    25
100
AcDbLine
 10
689.9909813158
 20
362.2628684233
 30
0.0
 11
683.3661101852
 21
366.0877395539
 31
0.0
  0
LINE
  5
18C
330
1F
100
AcDbEntity
  8
0
  6
Continuous
 62
     7
370
    25
100
AcDbLine
 10
688.6230321234
 20
362.1288938271
 30
0.0
 11
682.9661101852
 21
365.3949192309
 31
0.0
  0
ARC
  5
18D
330
1F
100
AcDbEntity
  8
0
  6
Continuous
 62
     7
370
    25
100
AcDbCircle
 10
682.4661101852
 20
364.5288938271
 30
0.0
 40
1.0
100
AcDbArc
 50
60.0
 51
90.0
  0
ARC
  5
18E
330
1F
100
AcDbEntity
  8
0
  6
Continuous
 62
     7
370
    25
100
AcDbCircle
 10
682.4661101852
 20
364.5288938271
 30
0.0
 40
1.800000000000018
100
AcDbArc
 50
60.0
 51
90.0
  0
ARC
  5
18F
330
1F
100
AcDbEntity
  8
0
  6
Continuous
 62
     7
370
    25
100
AcDbCircle
 10
690.4909813158
 20
363.1288938271
 30
0.0
 40
1.0
100
AcDbArc
 50
240.0
 51
270.0
  0
LINE
  5
190
330
1F
100
AcDbEntity
  8
0
  6
Continuous
 62
     7
370
    25
100
AcDbLine
 10
714.8530321234
 20
370.269723149
 30
0.0
 11
715.438352138
 21
370.269723149
 31
0.0
  0
SPLINE
  5
191
330
1F
100
AcDbEntity
  8
0
  6
Continuous
 62
     7
370
    25
100
AcDbSpline
210
0.0
220
0.0
230
1.0
 70
     8
 71
     3
 72
    14
 73
    10
 74
     0
 42
0.000000001
 43
0.00000001
 40
0.0
 40
0.0
 40
0.0
 40
0.0
 40
0.25
 40
0.25
 40
0.5
 40
0.5
 40
0.75
 40
0.75
 40
1.0
 40
1.0
 40
1.0
 40
1.0
 10
715.4383521380289
 20
370.2697231489651
 30
0.0
 10
715.5332267473394
 20
369.9452169196765
 30
0.0
 10
715.6128316722152
 20
369.6127576972821
 30
0.0
 10
715.7216682871094
 20
368.9461877823738
 30
0.0
 10
715.7509918928
 20
368.6111115250986
 30
0.0
 10
715.7509271110544
 20
367.936768054871
 30
0.0
 10
715.720770917728
 20
367.594988634192
 30
0.0
 10
715.6111857163623
 20
366.9285747145873
 30
0.0
 10
715.5326427425601
 20
366.6018006686346
 30
0.0
 10
715.4383521380289
 20
366.2792919515382
 30
0.0
  0
LINE
  5
192
330
1F
100
AcDbEntity
  8
0
  6
Continuous
 62
     7
370
    25
100
AcDbLine
 10
714.8530321234
 20
366.2792919515
 30
0.0
 11
715.438352138
 21
366.2792919515
 31
0.0
  0
SPLINE
  5
193
330
1F
100
AcDbEntity
  8
0
  6
Continuous
 62
     7
370
    25
100
AcDbSpline
210
0.0
220
0.0
230
1.0
 70
     8
 71
     3
 72
    12
 73
     8
 74
     0
 42
0.000000001
 43
0.00000001
 40
0.0
 40
0.0
 40
0.0
 40
0.0
 40
0.4999999999999887
 40
0.4999999999999887
 40
0.7499999999999943
 40
0.7499999999999943
 40
1.0
 40
1.0
 40
1.0
 40
1.0
 10
715.4383521380298
 20
364.8384626296676
 30
0.0
 10
715.6288464274534
 20
365.0737224221107
 30
0.0
 10
715.7505208405157
 20
365.3125071149612
 30
0.0
 10
715.751177031047
 20
365.6799986475183
 30
0.0
 10
715.7213430292526
 20
365.8023708421676
 30
0.0
 10
715.612413159145
 20
366.0427545273271
 30
0.0
 10
715.5337179720821
 20
366.1615154743887
 30
0.0
 10
715.4383521380294
 20
366.2792919515383
 30
0.0
  0
SPLINE
  5
194
330
1F
100
AcDbEntity
  8
0
  6
Continuous
 62
     7
370
    25
100
AcDbSpline
210
0.0
220
0.0
230
1.0
 70
     8
 71
     3
 72
    12
 73
     8
 74
     0
 42
0.000000001
 43
0.00000001
 40
0.0
 40
0.0
 40
0.0
 40
0.0
 40
0.5000000000000078
 40
0.5000000000000078
 40
0.7500000000000039
 40
0.7500000000000039
 40
1.0
 40
1.0
 40
1.0
 40
1.0
 10
715.4383521380298
 20
370.269723148965
 30
0.0
 10
715.6288464274534
 20
370.6860242326196
 30
0.0
 10
715.7505208405157
 20
371.108562760608
 30
0.0
 10
715.751177031047
 20
371.7588529000687
 30
0.0
 10
715.7213430292526
 20
371.9753951179832
 30
0.0
 10
715.612413159145
 20
372.4007631232235
 30
0.0
 10
715.5337179720821
 20
372.6109151022087
 30
0.0
 10
715.4383521380294
 20
372.8193250245214
 30
0.0
  0
LINE
  5
195
330
1F
100
AcDbEntity
  8
0
  6
Continuous
 62
     7
370
    25
100
AcDbLine
 10
715.438352138
 20
372.8193250245
 30
0.0
 11
715.5362271753
 21
372.5764202742
 31
0.0
  0
LINE
  5
196
330
1F
100
AcDbEntity
  8
0
  6
Continuous
 62
     7
370
    25
100
AcDbLine
 10
715.9530321234
 20
368.3299461779
 30
0.0
 11
715.9530321234
 21
365.6788938271
 31
0.0
  0
LINE
  5
197
330
1F
100
AcDbEntity
  8
0
  6
Continuous
 62
     7
370
    25
100
AcDbLine
 10
715.9530321234
 20
371.9788938271
 30
0.0
 11
715.9530321234
 21
368.3299461779
 31
0.0
  0
LINE
  5
198
330
1F
100
AcDbEntity
  8
0
  6
Continuous
 62
     7
370
    25
100
AcDbLine
 10
714.8530321234
 20
372.8193250245
 30
0.0
 11
715.438352138
 21
372.8193250245
 31
0.0
  0
LINE
  5
199
330
1F
100
AcDbEntity
  8
0
  6
Continuous
 62
     7
370
    25
100
AcDbLine
 10
714.8530321234
 20
364.8384626297
 30
0.0
 11
715.438352138
 21
364.8384626297
 31
0.0
  0
LINE
  5
19A
330
1F
100
AcDbEntity
  8
0
  6
Continuous
 62
     7
370
    25
100
AcDbLine
 10
723.4030321234
 20
377.1288938271
 30
0.0
 11
728.5530321234
 21
377.1288938271
 31
0.0
  0
LINE
  5
19B
330
1F
100
AcDbEntity
  8
0
  6
Continuous
 62
     7
370
    25
100
AcDbLine
 10
723.4030321234
 20
377.9288938271
 30
0.0
 11
723.4030321234
 21
377.1288938271
 31
0.0
  0
LINE
  5
19C
330
1F
100
AcDbEntity
  8
0
  6
Continuous
 62
     7
370
    25
100
AcDbLine
 10
723.4030321234
 20
377.9288938271
 30
0.0
 11
728.5530321234
 21
377.9288938271
 31
0.0
  0
LINE
  5
19D
330
1F
100
AcDbEntity
  8
0
  6
Continuous
 62
     7
370
    25
100
AcDbLine
 10
728.5530321234
 20
377.9288938271
 30
0.0
 11
728.5530321234
 21
378.0288938271
 31
0.0
  0
LINE
  5
19E
330
1F
100
AcDbEntity
  8
0
  6
Continuous
 62
     7
370
    25
100
AcDbLine
 10
718.6530321234
 20
378.0288938271
 30
0.0
 11
728.5530321234
 21
378.0288938271
 31
0.0
  0
LINE
  5
19F
330
1F
100
AcDbEntity
  8
0
  6
Continuous
 62
     7
370
    25
100
AcDbLine
 10
718.6530321234
 20
378.0288938271
 30
0.0
 11
718.6530321234
 21
378.8288938271
 31
0.0
  0
LINE
  5
1A0
330
1F
100
AcDbEntity
  8
0
  6
Continuous
 62
     7
370
    25
100
AcDbLine
 10
728.5530321234
 20
378.8288938271
 30
0.0
 11
718.6530321234
 21
378.8288938271
 31
0.0
  0
ARC
  5
1A1
330
1F
100
AcDbEntity
  8
0
  6
Continuous
 62
     7
370
    25
100
AcDbCircle
 10
728.5530321234
 20
377.9788938271
 30
0.0
 40
0.8500000000000227
100
AcDbArc
 50
270.0
 51
90.0
  0
LINE
  5
1A2
330
1F
100
AcDbEntity
  8
0
  6
Continuous
 62
     7
370
    25
100
AcDbLine
 10
718.6530321234
 20
358.8288938271
 30
0.0
 11
718.6530321234
 21
359.6288938271
 31
0.0
  0
LINE
  5
1A3
330
1F
100
AcDbEntity
  8
0
  6
Continuous
 62
     7
370
    25
100
AcDbLine
 10
722.9530321234
 20
359.6288938271
 30
0.0
 11
718.6530321234
 21
359.6288938271
 31
0.0
  0
LINE
  5
1A4
330
1F
100
AcDbEntity
  8
0
  6
Continuous
 62
     7
370
    25
100
AcDbLine
 10
722.9530321234
 20
358.8288938271
 30
0.0
 11
718.6530321234
 21
358.8288938271
 31
0.0
  0
ARC
  5
1A5
330
1F
100
AcDbEntity
  8
0
  6
Continuous
 62
     7
370
    25
100
AcDbCircle
 10
718.6530321234
 20
377.0288938271
 30
0.0
 40
1.0
100
AcDbArc
 50
90.0
 51
180.0
  0
LINE
  5
1A6
330
1F
100
AcDbEntity
  8
0
  6
Continuous
 62
     7
370
    25
100
AcDbLine
 10
717.6530321234
 20
377.0288938271
 30
0.0
 11
717.6530321234
 21
360.6288938271
 31
0.0
  0
ARC
  5
1A7
330
1F
100
AcDbEntity
  8
0
  6
Continuous
 62
     7
370
    25
100
AcDbCircle
 10
718.6530321234
 20
360.6288938271
 30
0.0
 40
1.000000000000057
100
AcDbArc
 50
180.0
 51
270.0
  0
LINE
  5
1A8
330
1F
100
AcDbEntity
  8
0
  6
Continuous
 62
     7
370
    25
100
AcDbLine
 10
716.8530321234
 20
360.6288938271
 30
0.0
 11
716.8530321234
 21
377.0288938271
 31
0.0
  0
ARC
  5
1A9
330
1F
100
AcDbEntity
  8
0
  6
Continuous
 62
     7
370
    25
100
AcDbCircle
 10
718.6530321234
 20
377.0288938271
 30
0.0
 40
1.800000000000068
100
AcDbArc
 50
90.0
 51
180.0
  0
ARC
  5
1AA
330
1F
100
AcDbEntity
  8
0
  6
Continuous
 62
     7
370
    25
100
AcDbCircle
 10
718.6530321234
 20
360.6288938271
 30
0.0
 40
1.800000000000125
100
AcDbArc
 50
180.0
 51
270.0
  0
CIRCLE
  5
1AB
330
1F
100
AcDbEntity
  8
0
  6
Continuous
 62
     7
370
    25
100
AcDbCircle
 10
704.3530321234
 20
368.8288938271
 30
0.0
 40
2.458750000016497
  0
CIRCLE
  5
1AC
330
1F
100
AcDbEntity
  8
0
  6
Continuous
 62
     7
370
    25
100
AcDbCircle
 10
704.3530321234
 20
368.8288938271
 30
0.0
 40
3.000000000000015
  0
LINE
  5
1AD
330
1F
100
AcDbEntity
  8
0
  6
Continuous
 62
     7
370
    25
100
AcDbLine
 10
719.6530321234
 20
372.7783964431
 30
0.0
 11
719.6530321234
 21
372.8288938271
 31
0.0
  0
LINE
  5
1AE
330
1F
100
AcDbEntity
  8
0
  6
Continuous
 62
     7
370
    25
100
AcDbLine
 10
719.6530321234
 20
364.8288938271
 30
0.0
 11
719.6530321234
 21
372.7783964431
 31
0.0
  0
ARC
  5
1AF
330
1F
100
AcDbEntity
  8
0
  6
Continuous
 62
     7
370
    25
100
AcDbCircle
 10
712.9160522257
 20
368.7329558072
 30
0.0
 40
7.786288415102432
100
AcDbArc
 50
4.3702527064
 51
15.2299003794
  0
ARC
  5
1B0
330
1F
100
AcDbEntity
  8
0
  6
Continuous
 62
     7
370
    25
100
AcDbCircle
 10
720.1553086892
 20
369.6394094095
 30
0.0
 40
0.6107675350084288
100
AcDbArc
 50
296.6101963367
 51
329.1575418587
  0
ARC
  5
1B1
330
1F
100
AcDbEntity
  8
0
  6
Continuous
 62
     7
370
    25
100
AcDbCircle
 10
711.3492465477
 20
368.5009123145
 30
0.0
 40
9.098942710266739
100
AcDbArc
 50
356.2668736478
 51
3.7331263522
  0
ARC
  5
1B2
330
1F
100
AcDbEntity
  8
0
  6
Continuous
 62
     7
370
    25
100
AcDbCircle
 10
720.1553086892
 20
368.4545586247
 30
0.0
 40
0.6107675350088774
100
AcDbArc
 50
296.6101963367
 51
329.1575418587
  0
ARC
  5
1B3
330
1F
100
AcDbEntity
  8
0
  6
Continuous
 62
     7
370
    25
100
AcDbCircle
 10
712.9160522257
 20
368.734756552
 30
0.0
 40
7.786288415101502
100
AcDbArc
 50
344.7700996206
 51
355.6297472936
  0
ARC
  5
1B4
330
1F
100
AcDbEntity
  8
0
  6
Continuous
 62
     7
370
    25
100
AcDbCircle
 10
720.2957983448
 20
366.7632914503
 30
0.0
 40
0.152243242061339
100
AcDbArc
 50
330.9451665857
 51
359.1449116562
  0
LWPOLYLINE
  5
1B5
330
1F
100
AcDbEntity
  8
0
  6
Continuous
 62
     7
370
    25
100
AcDbPolyline
 90
        3
 70
   128
 43
0.0
 10
720.6797016137
 20
368.3315060821
 10
720.663476765
 20
368.1478077533
 10
720.662834622
 20
368.1414307872
  0
ARC
  5
1B6
330
1F
100
AcDbEntity
  8
0
  6
Continuous
 62
     7
370
    25
100
AcDbCircle
 10
720.1553086892
 20
368.0183782446
 30
0.0
 40
0.6107675350083123
100
AcDbArc
 50
30.8424581413
 51
63.3898036633
  0
ARC
  5
1B7
330
1F
100
AcDbEntity
  8
0
  6
Continuous
 62
     7
370
    25
100
AcDbCircle
 10
711.2723747681
 20
369.159891196
 30
0.0
 40
9.175815043416769
100
AcDbArc
 50
357.932732127
 51
359.6562101041
  0
ARC
  5
1B8
330
1F
100
AcDbEntity
  8
0
  6
Continuous
 62
     7
370
    25
100
AcDbCircle
 10
712.9160522257
 20
368.9230311022
 30
0.0
 40
7.786288415103909
100
AcDbArc
 50
4.3702527064
 51
15.2299003794
  0
ARC
  5
1B9
330
1F
100
AcDbEntity
  8
0
  6
Continuous
 62
     7
370
    25
100
AcDbCircle
 10
720.2077605584
 20
370.8733949434
 30
0.0
 40
0.2406805056726191
100
AcDbArc
 50
336.7420981705
 51
23.2579018295
  0
LINE
  5
1BA
330
1F
100
AcDbEntity
  8
0
  6
Continuous
 62
     7
370
    25
100
AcDbLine
 10
720.6797016137
 20
368.1414307872
 30
0.0
 11
720.4411459558
 21
368.1414307872
 31
0.0
  0
LINE
  5
1BB
330
1F
100
AcDbEntity
  8
0
  6
Continuous
 62
     7
370
    25
100
AcDbLine
 10
720.6797016137
 20
369.516356867
 30
0.0
 11
720.662834622
 21
369.516356867
 31
0.0
  0
LINE
  5
1BC
330
1F
100
AcDbEntity
  8
0
  6
Continuous
 62
     7
370
    25
100
AcDbLine
 10
720.6797016137
 20
368.3315060821
 30
0.0
 11
720.4466512973
 21
368.3315060821
 31
0.0
  0
LINE
  5
1BD
330
1F
100
AcDbEntity
  8
0
  6
Continuous
 62
     7
370
    25
100
AcDbLine
 10
696.4530321234
 20
304.338084141
 30
0.0
 11
696.4530321234
 21
305.0221244276
 31
0.0
  0
ARC
  5
1BE
330
1F
100
AcDbEntity
  8
0
  6
Continuous
 62
     7
370
    25
100
AcDbCircle
 10
698.3945432342
 20
305.0843670035
 30
0.0
 40
1.942508566655477
100
AcDbArc
 50
181.8362067977
 51
271.7254354149
  0
ARC
  5
1BF
330
1F
100
AcDbEntity
  8
0
  6
Continuous
 62
     7
370
    25
100
AcDbCircle
 10
698.3945432342
 20
304.4003267168
 30
0.0
 40
1.942508566655413
100
AcDbArc
 50
181.8362067977
 51
271.7254354149
  0
LINE
  5
1C0
330
1F
100
AcDbEntity
  8
0
  6
Continuous
 62
     7
370
    25
100
AcDbLine
 10
696.4530321234
 20
305.0221244276
 30
0.0
 11
696.4530321234
 21
310.1632006645
 31
0.0
  0
LINE
  5
1C1
330
1F
100
AcDbEntity
  8
0
  6
Continuous
 62
     7
370
    25
100
AcDbLine
 10
712.4530321234
 20
310.1632006645
 30
0.0
 11
712.4530321234
 21
305.0221244276
 31
0.0
  0
ARC
  5
1C2
330
1F
100
AcDbEntity
  8
0
  6
Continuous
 62
     7
370
    25
100
AcDbCircle
 10
710.5115210126
 20
305.0843670035
 30
0.0
 40
1.942508566655136
100
AcDbArc
 50
268.2745645851
 51
358.1637932023
  0
LINE
  5
1C3
330
1F
100
AcDbEntity
  8
0
  6
Continuous
 62
     7
370
    25
100
AcDbLine
 10
710.4530321234
 20
303.142739186
 30
0.0
 11
698.4530321234
 21
303.142739186
 31
0.0
  0
LINE
  5
1C4
330
1F
100
AcDbEntity
  8
0
  6
Continuous
 62
     7
370
    25
100
AcDbLine
 10
710.4530321234
 20
302.4586988994
 30
0.0
 11
698.4530321234
 21
302.4586988994
 31
0.0
  0
LINE
  5
1C5
330
1F
100
AcDbEntity
  8
0
  6
Continuous
 62
     7
370
    25
100
AcDbLine
 10
712.4530321234
 20
305.0221244276
 30
0.0
 11
712.4530321234
 21
304.338084141
 31
0.0
  0
ARC
  5
1C6
330
1F
100
AcDbEntity
  8
0
  6
Continuous
 62
     7
370
    25
100
AcDbCircle
 10
710.5115210126
 20
304.4003267168
 30
0.0
 40
1.942508566655124
100
AcDbArc
 50
268.2745645851
 51
358.1637932024
  0
LINE
  5
1C7
330
1F
100
AcDbEntity
  8
0
  6
Continuous
 62
     7
370
    25
100
AcDbLine
 10
712.4530321234
 20
310.1632006645
 30
0.0
 11
712.4530321234
 21
310.5052208078
 31
0.0
  0
LINE
  5
1C8
330
1F
100
AcDbEntity
  8
0
  6
Continuous
 62
     7
370
    25
100
AcDbLine
 10
696.4530321234
 20
310.5052208078
 30
0.0
 11
696.4530321234
 21
310.1632006645
 31
0.0
  0
LINE
  5
1C9
330
1F
100
AcDbEntity
  8
0
  6
Continuous
 62
     7
370
    25
100
AcDbLine
 10
712.4530321234
 20
310.3288938271
 30
0.0
 11
722.9530321234
 21
310.3288938271
 31
0.0
  0
LINE
  5
1CA
330
1F
100
AcDbEntity
  8
0
  6
Continuous
 62
     7
370
    25
100
AcDbLine
 10
722.9530321234
 20
325.3288938271
 30
0.0
 11
698.4530321234
 21
325.3288938271
 31
0.0
  0
CIRCLE
  5
1CB
330
1F
100
AcDbEntity
  8
0
  6
Continuous
 62
     7
370
    25
100
AcDbCircle
 10
704.3530321234
 20
317.8288938271
 30
0.0
 40
3.5
  0
ARC
  5
1CC
330
1F
100
AcDbEntity
  8
0
  6
Continuous
 62
     7
370
    25
100
AcDbCircle
 10
698.4530321234
 20
323.3288938271
 30
0.0
 40
2.0
100
AcDbArc
 50
90.0
 51
180.0
  0
LINE
  5
1CD
330
1F
100
AcDbEntity
  8
0
  6
Continuous
 62
     7
370
    25
100
AcDbLine
 10
696.4530321234
 20
323.3288938271
 30
0.0
 11
696.4530321234
 21
310.5052208078
 31
0.0
  0
CIRCLE
  5
1CE
330
1F
100
AcDbEntity
  8
0
  6
Continuous
 62
     7
370
    25
100
AcDbCircle
 10
704.3530321234
 20
217.8288938271
 30
0.0
 40
2.458750000016497
  0
CIRCLE
  5
1CF
330
1F
100
AcDbEntity
  8
0
  6
Continuous
 62
     7
370
    25
100
AcDbCircle
 10
704.3530321234
 20
217.8288938271
 30
0.0
 40
3.000000000000002
  0
LINE
  5
1D0
330
1F
100
AcDbEntity
  8
0
  6
Continuous
 62
     7
370
    25
100
AcDbLine
 10
696.4530321234
 20
204.338084141
 30
0.0
 11
696.4530321234
 21
205.0221244276
 31
0.0
  0
ARC
  5
1D1
330
1F
100
AcDbEntity
  8
0
  6
Continuous
 62
     7
370
    25
100
AcDbCircle
 10
698.3945432342
 20
205.0843670035
 30
0.0
 40
1.94250856665541
100
AcDbArc
 50
181.8362067977
 51
271.7254354149
  0
ARC
  5
1D2
330
1F
100
AcDbEntity
  8
0
  6
Continuous
 62
     7
370
    25
100
AcDbCircle
 10
698.3945432342
 20
204.4003267168
 30
0.0
 40
1.942508566655382
100
AcDbArc
 50
181.8362067977
 51
271.7254354149
  0
LINE
  5
1D3
330
1F
100
AcDbEntity
  8
0
  6
Continuous
 62
     7
370
    25
100
AcDbLine
 10
696.4530321234
 20
205.0221244276
 30
0.0
 11
696.4530321234
 21
210.1632006645
 31
0.0
  0
LINE
  5
1D4
330
1F
100
AcDbEntity
  8
0
  6
Continuous
 62
     7
370
    25
100
AcDbLine
 10
712.4530321234
 20
210.1632006645
 30
0.0
 11
712.4530321234
 21
205.0221244276
 31
0.0
  0
ARC
  5
1D5
330
1F
100
AcDbEntity
  8
0
  6
Continuous
 62
     7
370
    25
100
AcDbCircle
 10
710.5115210126
 20
205.0843670035
 30
0.0
 40
1.942508566655242
100
AcDbArc
 50
268.2745645851
 51
358.1637932023
  0
LINE
  5
1D6
330
1F
100
AcDbEntity
  8
0
  6
Continuous
 62
     7
370
    25
100
AcDbLine
 10
710.4530321234
 20
203.142739186
 30
0.0
 11
698.4530321234
 21
203.142739186
 31
0.0
  0
LINE
  5
1D7
330
1F
100
AcDbEntity
  8
0
  6
Continuous
 62
     7
370
    25
100
AcDbLine
 10
710.4530321234
 20
202.4586988994
 30
0.0
 11
698.4530321234
 21
202.4586988994
 31
0.0
  0
LINE
  5
1D8
330
1F
100
AcDbEntity
  8
0
  6
Continuous
 62
     7
370
    25
100
AcDbLine
 10
712.4530321234
 20
205.0221244276
 30
0.0
 11
712.4530321234
 21
204.338084141
 31
0.0
  0
ARC
  5
1D9
330
1F
100
AcDbEntity
  8
0
  6
Continuous
 62
     7
370
    25
100
AcDbCircle
 10
710.5115210126
 20
204.4003267168
 30
0.0
 40
1.942508566655241
100
AcDbArc
 50
268.2745645851
 51
358.1637932023
  0
LINE
  5
1DA
330
1F
100
AcDbEntity
  8
0
  6
Continuous
 62
     7
370
    25
100
AcDbLine
 10
712.4530321234
 20
210.1632006645
 30
0.0
 11
712.4530321234
 21
210.5052208078
 31
0.0
  0
LINE
  5
1DB
330
1F
100
AcDbEntity
  8
0
  6
Continuous
 62
     7
370
    25
100
AcDbLine
 10
696.4530321234
 20
210.5052208078
 30
0.0
 11
696.4530321234
 21
210.1632006645
 31
0.0
  0
LINE
  5
1DC
330
1F
100
AcDbEntity
  8
0
  6
Continuous
 62
     7
370
    25
100
AcDbLine
 10
712.4530321234
 20
210.3288938271
 30
0.0
 11
722.9530321234
 21
210.3288938271
 31
0.0
  0
LINE
  5
1DD
330
1F
100
AcDbEntity
  8
0
  6
Continuous
 62
     7
370
    25
100
AcDbLine
 10
722.9530321234
 20
225.3288938271
 30
0.0
 11
698.4530321234
 21
225.3288938271
 31
0.0
  0
CIRCLE
  5
1DE
330
1F
100
AcDbEntity
  8
0
  6
Continuous
 62
     7
370
    25
100
AcDbCircle
 10
704.3530321234
 20
217.8288938271
 30
0.0
 40
3.499999999999886
  0
ARC
  5
1DF
330
1F
100
AcDbEntity
  8
0
  6
Continuous
 62
     7
370
    25
100
AcDbCircle
 10
698.4530321234
 20
223.3288938271
 30
0.0
 40
2.0
100
AcDbArc
 50
90.0
 51
180.0
  0
LINE
  5
1E0
330
1F
100
AcDbEntity
  8
0
  6
Continuous
 62
     7
370
    25
100
AcDbLine
 10
696.4530321234
 20
223.3288938271
 30
0.0
 11
696.4530321234
 21
210.5052208078
 31
0.0
  0
CIRCLE
  5
1E1
330
1F
100
AcDbEntity
  8
0
  6
Continuous
 62
     7
370
    25
100
AcDbCircle
 10
704.3530321234
 20
393.8288938271
 30
0.0
 40
2.458750000016599
  0
CIRCLE
  5
1E2
330
1F
100
AcDbEntity
  8
0
  6
Continuous
 62
     7
370
    25
100
AcDbCircle
 10
704.3530321234
 20
393.8288938271
 30
0.0
 40
3.000000000000015
  0
CIRCLE
  5
1E3
330
1F
100
AcDbEntity
  8
0
  6
Continuous
 62
     7
370
    25
100
AcDbCircle
 10
704.3530321234
 20
317.8288938271
 30
0.0
 40
2.458750000016702
  0
CIRCLE
  5
1E4
330
1F
100
AcDbEntity
  8
0
  6
Continuous
 62
     7
370
    25
100
AcDbCircle
 10
704.3530321234
 20
317.8288938271
 30
0.0
 40
2.99999999999999
  0
ARC
  5
1E5
330
1F
100
AcDbEntity
  8
0
  6
Continuous
 62
     7
370
    25
100
AcDbCircle
 10
564.2433501725
 20
460.3521437386
 30
0.0
 40
0.5
100
AcDbArc
 50
180.0
 51
0.0
  0
ARC
  5
1E6
330
1F
100
AcDbEntity
  8
0
  6
Continuous
 62
     7
370
    25
100
AcDbCircle
 10
564.2433501725
 20
471.9521437388
 30
0.0
 40
0.5000000000001137
100
AcDbArc
 50
0.0
 51
180.0
  0
LINE
  5
1E7
330
1F
100
AcDbEntity
  8
0
  6
Continuous
 62
     7
370
    25
100
AcDbLine
 10
559.9709316097
 20
471.5463263508
 30
0.0
 11
559.7433501725
 21
471.1521437387
 31
0.0
  0
LINE
  5
1E8
330
1F
100
AcDbEntity
  8
0
  6
Continuous
 62
     7
370
    25
100
AcDbLine
 10
574.2021001725
 20
463.1521437387
 30
0.0
 11
574.7433501725
 21
463.6933937387
 31
0.0
  0
LINE
  5
1E9
330
1F
100
AcDbEntity
  8
0
  6
Continuous
 62
     7
370
    25
100
AcDbLine
 10
574.7433501725
 20
468.6108937387
 30
0.0
 11
574.2021001725
 21
469.1521437387
 31
0.0
  0
LINE
  5
1EA
330
1F
100
AcDbEntity
  8
0
  6
Continuous
 62
     7
370
    25
100
AcDbLine
 10
574.2021001725
 20
469.1521437387
 30
0.0
 11
569.3588965607
 21
469.1521437387
 31
0.0
  0
LINE
  5
1EB
330
1F
100
AcDbEntity
  8
0
  6
Continuous
 62
     7
370
    25
100
AcDbLine
 10
569.3588965607
 20
463.1521437387
 30
0.0
 11
574.2021001725
 21
463.1521437387
 31
0.0
  0
LINE
  5
1EC
330
1F
100
AcDbEntity
  8
0
  6
Continuous
 62
     7
370
    25
100
AcDbLine
 10
559.7433501725
 20
461.1521437387
 30
0.0
 11
559.9709316097
 21
460.7579611266
 31
0.0
  0
LINE
  5
1ED
330
1F
100
AcDbEntity
  8
0
  6
Continuous
 62
     7
370
    25
100
AcDbLine
 10
551.3748974581
 20
480.2521437387
 30
0.0
 11
551.8748974581
 21
479.7521437387
 31
0.0
  0
LINE
  5
1EE
330
1F
100
AcDbEntity
  8
0
  6
Continuous
 62
     7
370
    25
100
AcDbLine
 10
551.3748974581
 20
484.2521437386
 30
0.0
 11
551.3748974581
 21
480.2521437387
 31
0.0
  0
LINE
  5
1EF
330
1F
100
AcDbEntity
  8
0
  6
Continuous
 62
     7
370
    25
100
AcDbLine
 10
557.1547342479
 20
480.2521437387
 30
0.0
 11
557.1547342479
 21
484.2521437386
 31
0.0
  0
LINE
  5
1F0
330
1F
100
AcDbEntity
  8
0
  6
Continuous
 62
     7
370
    25
100
AcDbLine
 10
556.6547342479
 20
479.7521437387
 30
0.0
 11
557.1547342479
 21
480.2521437387
 31
0.0
  0
LINE
  5
1F1
330
1F
100
AcDbEntity
  8
0
  6
Continuous
 62
     7
370
    25
100
AcDbLine
 10
551.4312394199
 20
480.2521437387
 30
0.0
 11
551.9312394199
 21
479.7521437387
 31
0.0
  0
LINE
  5
1F2
330
1F
100
AcDbEntity
  8
0
  6
Continuous
 62
     7
370
    25
100
AcDbLine
 10
551.4312394199
 20
484.2521437386
 30
0.0
 11
551.4312394199
 21
480.2521437387
 31
0.0
  0
LINE
  5
1F3
330
1F
100
AcDbEntity
  8
0
  6
Continuous
 62
     7
370
    25
100
AcDbLine
 10
273.5812351183
 20
479.7521437387
 30
0.0
 11
274.0812351183
 21
480.2521437387
 31
0.0
  0
LINE
  5
1F4
330
1F
100
AcDbEntity
  8
0
  6
Continuous
 62
     7
370
    25
100
AcDbLine
 10
274.0812351183
 20
480.2521437387
 30
0.0
 11
274.0812351183
 21
484.2521437387
 31
0.0
  0
LINE
  5
1F5
330
1F
100
AcDbEntity
  8
0
  6
Continuous
 62
     7
370
    25
100
AcDbLine
 10
268.351690434
 20
480.2521437387
 30
0.0
 11
268.851690434
 21
479.7521437387
 31
0.0
  0
LINE
  5
1F6
330
1F
100
AcDbEntity
  8
0
  6
Continuous
 62
     7
370
    25
100
AcDbLine
 10
268.351690434
 20
484.2521437387
 30
0.0
 11
268.351690434
 21
480.2521437387
 31
0.0
  0
LINE
  5
1F7
330
1F
100
AcDbEntity
  8
0
  6
Continuous
 62
     7
370
    25
100
AcDbLine
 10
574.4021001724
 20
469.1521437387
 30
0.0
 11
574.2021001725
 21
469.1521437387
 31
0.0
  0
LINE
  5
1F8
330
1F
100
AcDbEntity
  8
0
  6
Continuous
 62
     7
370
    25
100
AcDbLine
 10
574.2021001725
 20
463.1521437387
 30
0.0
 11
574.4021001724
 21
463.1521437387
 31
0.0
  0
LINE
  5
1F9
330
1F
100
AcDbEntity
  8
0
  6
Continuous
 62
     7
370
    25
100
AcDbLine
 10
574.4021001724
 20
463.1521437387
 30
0.0
 11
574.9433501724
 21
463.6933937387
 31
0.0
  0
LINE
  5
1FA
330
1F
100
AcDbEntity
  8
0
  6
Continuous
 62
     7
370
    25
100
AcDbLine
 10
574.9433501724
 20
468.6108937387
 30
0.0
 11
574.4021001724
 21
469.1521437387
 31
0.0
  0
LINE
  5
1FB
330
1F
100
AcDbEntity
  8
0
  6
Continuous
 62
     7
370
    25
100
AcDbLine
 10
251.0846001725
 20
469.1521437387
 30
0.0
 11
250.5433501725
 21
468.6108937387
 31
0.0
  0
LINE
  5
1FC
330
1F
100
AcDbEntity
  8
0
  6
Continuous
 62
     7
370
    25
100
AcDbLine
 10
250.5433501725
 20
463.6933937387
 30
0.0
 11
251.0846001725
 21
463.1521437387
 31
0.0
  0
LINE
  5
1FD
330
1F
100
AcDbEntity
  8
0
  6
Continuous
 62
     7
370
    25
100
AcDbLine
 10
251.0846001725
 20
463.1521437387
 30
0.0
 11
251.2846001725
 21
463.1521437387
 31
0.0
  0
LINE
  5
1FE
330
1F
100
AcDbEntity
  8
0
  6
Continuous
 62
     7
370
    25
100
AcDbLine
 10
251.2846001725
 20
469.1521437387
 30
0.0
 11
251.0846001725
 21
469.1521437387
 31
0.0
  0
ARC
  5
1FF
330
1F
100
AcDbEntity
  8
0
  6
Continuous
 62
     7
370
    25
100
AcDbCircle
 10
261.2433501725
 20
471.9521437388
 30
0.0
 40
0.5000000000000568
100
AcDbArc
 50
0.0
 51
180.0
  0
ARC
  5
200
330
1F
100
AcDbEntity
  8
0
  6
Continuous
 62
     7
370
    25
100
AcDbCircle
 10
261.2433501725
 20
460.3521437386
 30
0.0
 40
0.5
100
AcDbArc
 50
180.0
 51
0.0
  0
LINE
  5
201
330
1F
100
AcDbEntity
  8
0
  6
Continuous
 62
     7
370
    25
100
AcDbLine
 10
251.2846001725
 20
463.1521437387
 30
0.0
 11
256.1278037843
 21
463.1521437387
 31
0.0
  0
LINE
  5
202
330
1F
100
AcDbEntity
  8
0
  6
Continuous
 62
     7
370
    25
100
AcDbLine
 10
256.1278037843
 20
469.1521437387
 30
0.0
 11
251.2846001725
 21
469.1521437387
 31
0.0
  0
LINE
  5
203
330
1F
100
AcDbEntity
  8
0
  6
Continuous
 62
     7
370
    25
100
AcDbLine
 10
251.2846001725
 20
469.1521437387
 30
0.0
 11
250.7433501725
 21
468.6108937387
 31
0.0
  0
LINE
  5
204
330
1F
100
AcDbEntity
  8
0
  6
Continuous
 62
     7
370
    25
100
AcDbLine
 10
250.7433501725
 20
463.6933937387
 30
0.0
 11
251.2846001725
 21
463.1521437387
 31
0.0
  0
LINE
  5
205
330
1F
100
AcDbEntity
  8
0
  6
Continuous
 62
     7
370
    25
100
AcDbLine
 10
265.7433501725
 20
471.1521437387
 30
0.0
 11
265.4138670767
 21
471.7228252008
 31
0.0
  0
LINE
  5
206
330
1F
100
AcDbEntity
  8
0
  6
Continuous
 62
     7
370
    25
100
AcDbLine
 10
265.4138670767
 20
460.5814622766
 30
0.0
 11
265.7433501725
 21
461.1521437387
 31
0.0
  0
LINE
  5
207
330
1F
100
AcDbEntity
  8
0
  6
Continuous
 62
     7
370
    25
100
AcDbLine
 10
258.2433501725
 20
489.3521437387
 30
0.0
 11
261.1827378638
 21
489.3521437387
 31
0.0
  0
LINE
  5
208
330
1F
100
AcDbEntity
  8
0
  6
Continuous
 62
     7
370
    25
100
AcDbLine
 10
564.3039624811
 20
489.3521437387
 30
0.0
 11
567.2433501725
 21
489.3521437387
 31
0.0
  0
LINE
  5
209
330
1F
100
AcDbEntity
  8
0
  6
Continuous
 62
     7
370
    25
100
AcDbLine
 10
567.2433501725
 20
489.3521437387
 30
0.0
 11
573.2433501725
 21
489.3521437387
 31
0.0
  0
LINE
  5
20A
330
1F
100
AcDbEntity
  8
0
  6
Continuous
 62
     7
370
    25
100
AcDbLine
 10
252.2433501725
 20
489.3521437387
 30
0.0
 11
258.2433501725
 21
489.3521437387
 31
0.0
  0
SPLINE
  5
20B
330
1F
100
AcDbEntity
  8
0
  6
Continuous
 62
     7
370
    25
100
AcDbSpline
210
0.0
220
0.0
230
1.0
 70
    24
 71
     3
 72
    19
 73
    15
 74
     0
 42
0.000000001
 43
0.00000001
 40
0.0
 40
0.0
 40
0.0
 40
0.0
 40
0.1260638187928851
 40
0.1939261817305607
 40
0.2632286813759844
 40
0.3325311810214077
 40
0.4003935439590839
 40
0.5264573627519684
 40
0.6525211815448534
 40
0.7203835444825296
 40
0.7896860441279532
 40
0.8589885437733762
 40
0.9268509067110525
 40
1.0
 40
1.0
 40
1.0
 40
1.0
 10
563.7433501724774
 20
471.8795320940945
 30
0.0
 10
563.7433501724774
 20
471.6879441831582
 30
0.0
 10
563.7433501724774
 20
471.393221142167
 30
0.0
 10
563.7433501724774
 20
470.4659666193264
 30
0.0
 10
563.7433501724774
 20
469.5804105787939
 30
0.0
 10
563.7433501724774
 20
468.5440093692586
 30
0.0
 10
563.7433501724776
 20
467.1000559966092
 30
0.0
 10
563.7433501724774
 20
465.2152284139006
 30
0.0
 10
563.7433501724776
 20
463.4422182120741
 30
0.0
 10
563.7433501724776
 20
462.2199145903339
 30
0.0
 10
563.7433501724774
 20
461.4192278751157
 30
0.0
 10
563.7433501724776
 20
460.8337372923426
 30
0.0
 10
563.7433501724776
 20
460.4058511537897
 30
0.0
 10
563.7433501724776
 20
460.4363634056924
 30
0.0
 10
563.7433501724776
 20
460.4521915066184
 30
0.0
  0
SPLINE
  5
20C
330
1F
100
AcDbEntity
  8
0
  6
Continuous
 62
     7
370
    25
100
AcDbSpline
210
0.0
220
0.0
230
1.0
 70
     8
 71
     3
 72
     8
 73
     4
 74
     0
 42
0.000000001
 43
0.00000001
 40
0.0
 40
0.0
 40
0.0
 40
0.0
 40
1.0
 40
1.0
 40
1.0
 40
1.0
 10
559.7433501724846
 20
465.3634459466585
 30
0.0
 10
559.7433501724846
 20
464.3905016308789
 30
0.0
 10
559.9176654728641
 20
463.4441863834264
 30
0.0
 10
560.1899321598759
 20
462.5128345623683
 30
0.0
  0
SPLINE
  5
20D
330
1F
100
AcDbEntity
  8
0
  6
Continuous
 62
     7
370
    25
100
AcDbSpline
210
0.0
220
0.0
230
1.0
 70
     8
 71
     3
 72
     8
 73
     4
 74
     0
 42
0.000000001
 43
0.00000001
 40
0.0
 40
0.0
 40
0.0
 40
0.0
 40
1.0
 40
1.0
 40
1.0
 40
1.0
 10
560.189932159876
 20
468.2140573309489
 30
0.0
 10
559.9176654728645
 20
467.2827055098925
 30
0.0
 10
559.7433501724846
 20
466.3363902624365
 30
0.0
 10
559.7433501724846
 20
465.3634459466585
 30
0.0
  0
LINE
  5
20E
330
1F
100
AcDbEntity
  8
0
  6
Continuous
 62
     7
370
    25
100
AcDbLine
 10
563.7433501725
 20
468.214057331
 30
0.0
 11
560.1899321599
 21
468.214057331
 31
0.0
  0
LINE
  5
20F
330
1F
100
AcDbEntity
  8
0
  6
Continuous
 62
     7
370
    25
100
AcDbLine
 10
563.7433501725
 20
462.5128345624
 30
0.0
 11
560.1899321599
 21
462.5128345624
 31
0.0
  0
LINE
  5
210
330
1F
100
AcDbEntity
  8
0
  6
Continuous
 62
     7
370
    25
100
AcDbLine
 10
559.7433501725
 20
470.0337119191
 30
0.0
 11
559.7433501725
 21
465.3634459467
 31
0.0
  0
SPLINE
  5
211
330
1F
100
AcDbEntity
  8
0
  6
Continuous
 62
     7
370
    25
100
AcDbSpline
210
0.0
220
0.0
230
1.0
 70
     8
 71
     3
 72
     8
 73
     4
 74
     0
 42
0.000000001
 43
0.00000001
 40
0.0
 40
0.0
 40
0.0
 40
0.0
 40
1.0
 40
1.0
 40
1.0
 40
1.0
 10
559.7433501724846
 20
470.0337119191282
 30
0.0
 10
559.7433501724846
 20
469.412644242909
 30
0.0
 10
559.9176654728641
 20
468.8085749224205
 30
0.0
 10
560.189932159876
 20
468.2140573309551
 30
0.0
  0
SPLINE
  5
212
330
1F
100
AcDbEntity
  8
0
  6
Continuous
 62
     7
370
    25
100
AcDbSpline
210
0.0
220
0.0
230
1.0
 70
     8
 71
     3
 72
     8
 73
     4
 74
     0
 42
0.000000001
 43
0.00000001
 40
0.0
 40
0.0
 40
0.0
 40
0.0
 40
1.0
 40
1.0
 40
1.0
 40
1.0
 10
560.1899321598759
 20
471.8533665073013
 30
0.0
 10
559.9176654728644
 20
471.2588489158371
 30
0.0
 10
559.7433501724846
 20
470.6547795953464
 30
0.0
 10
559.7433501724846
 20
470.0337119191282
 30
0.0
  0
LINE
  5
213
330
1F
100
AcDbEntity
  8
0
  6
Continuous
 62
     7
370
    25
100
AcDbLine
 10
563.7433501725
 20
471.8533665073
 30
0.0
 11
560.1899321599
 21
471.8533665073
 31
0.0
  0
LINE
  5
214
330
1F
100
AcDbEntity
  8
0
  6
Continuous
 62
     7
370
    25
100
AcDbLine
 10
559.7433501725
 20
465.3634459467
 30
0.0
 11
559.7433501725
 21
461.4818777662
 31
0.0
  0
SPLINE
  5
215
330
1F
100
AcDbEntity
  8
0
  6
Continuous
 62
     7
370
    25
100
AcDbSpline
210
0.0
220
0.0
230
1.0
 70
     8
 71
     3
 72
     8
 73
     4
 74
     0
 42
0.000000001
 43
0.00000001
 40
0.0
 40
0.0
 40
0.0
 40
0.0
 40
1.0
 40
1.0
 40
1.0
 40
1.0
 10
560.1899321598759
 20
462.5128345623632
 30
0.0
 10
559.9176654728643
 20
462.1760003327709
 30
0.0
 10
559.7433501724845
 20
461.8337544058056
 30
0.0
 10
559.7433501724845
 20
461.4818777662457
 30
0.0
  0
SPLINE
  5
216
330
1F
100
AcDbEntity
  8
0
  6
Continuous
 62
     7
370
    25
100
AcDbSpline
210
0.0
220
0.0
230
1.0
 70
     8
 71
     3
 72
     8
 73
     4
 74
     0
 42
0.000000001
 43
0.00000001
 40
0.0
 40
0.0
 40
0.0
 40
0.0
 40
1.0
 40
1.0
 40
1.0
 40
1.0
 10
559.7433501724845
 20
461.4818777662457
 30
0.0
 10
559.7433501724845
 20
461.1300011266852
 30
0.0
 10
559.917665472864
 20
460.7877551997212
 30
0.0
 10
560.1899321598759
 20
460.4509209701282
 30
0.0
  0
LINE
  5
217
330
1F
100
AcDbEntity
  8
0
  6
Continuous
 62
     7
370
    25
100
AcDbLine
 10
563.7433501725
 20
460.4509209701
 30
0.0
 11
560.1899321599
 21
460.4509209701
 31
0.0
  0
LINE
  5
218
330
1F
100
AcDbEntity
  8
0
  6
Continuous
 62
     7
370
    25
100
AcDbLine
 10
560.0397259296
 20
471.5066079316
 30
0.0
 11
560.1899321599
 21
471.8533665073
 31
0.0
  0
LINE
  5
219
330
1F
100
AcDbEntity
  8
0
  6
Continuous
 62
     7
370
    25
100
AcDbLine
 10
559.7433501725
 20
471.1521437387
 30
0.0
 11
559.7433501725
 21
470.0337119191
 31
0.0
  0
LINE
  5
21A
330
1F
100
AcDbEntity
  8
0
  6
Continuous
 62
     7
370
    25
100
AcDbLine
 10
574.7433501725
 20
465.7643015995
 30
0.0
 11
574.7433501725
 21
468.6108937387
 31
0.0
  0
LINE
  5
21B
330
1F
100
AcDbEntity
  8
0
  6
Continuous
 62
     7
370
    25
100
AcDbLine
 10
574.7433501725
 20
463.6933937387
 30
0.0
 11
574.7433501725
 21
465.7643015995
 31
0.0
  0
LINE
  5
21C
330
1F
100
AcDbEntity
  8
0
  6
Continuous
 62
     7
370
    25
100
AcDbLine
 10
574.2021001725
 20
463.1521437387
 30
0.0
 11
574.2021001725
 21
469.1521437387
 31
0.0
  0
LINE
  5
21D
330
1F
100
AcDbEntity
  8
0
  6
Continuous
 62
     7
370
    25
100
AcDbLine
 10
559.7433501725
 20
461.4818777662
 30
0.0
 11
559.7433501725
 21
461.1521437387
 31
0.0
  0
LINE
  5
21E
330
1F
100
AcDbEntity
  8
0
  6
Continuous
 62
     7
370
    25
100
AcDbLine
 10
266.4933501725
 20
484.2521437387
 30
0.0
 11
266.4933501725
 21
484.7521437387
 31
0.0
  0
LINE
  5
21F
330
1F
100
AcDbEntity
  8
0
  6
Continuous
 62
     7
370
    25
100
AcDbLine
 10
275.9933501725
 20
484.2521437387
 30
0.0
 11
266.4933501725
 21
484.2521437387
 31
0.0
  0
LINE
  5
220
330
1F
100
AcDbEntity
  8
0
  6
Continuous
 62
     7
370
    25
100
AcDbLine
 10
275.9933501725
 20
484.7521437387
 30
0.0
 11
275.9933501725
 21
484.2521437387
 31
0.0
  0
LINE
  5
221
330
1F
100
AcDbEntity
  8
0
  6
Continuous
 62
     7
370
    25
100
AcDbLine
 10
276.7567501725
 20
484.2521437387
 30
0.0
 11
275.9933501725
 21
484.2521437387
 31
0.0
  0
ARC
  5
222
330
1F
100
AcDbEntity
  8
0
  6
Continuous
 62
     7
370
    25
100
AcDbCircle
 10
265.7299501725
 20
485.4887437387
 30
0.0
 40
1.236600000000041
100
AcDbArc
 50
216.5600910985
 51
270.0
  0
LINE
  5
223
330
1F
100
AcDbEntity
  8
0
  6
Continuous
 62
     7
370
    25
100
AcDbLine
 10
266.4933501725
 20
484.2521437387
 30
0.0
 11
265.7299501725
 21
484.2521437387
 31
0.0
  0
ARC
  5
224
330
1F
100
AcDbEntity
  8
0
  6
Continuous
 62
     7
370
    25
100
AcDbCircle
 10
276.7567501725
 20
485.4887437387
 30
0.0
 40
1.236599999999984
100
AcDbArc
 50
270.0
 51
323.4399089015
  0
ARC
  5
225
330
1F
100
AcDbEntity
  8
0
  6
Continuous
 62
     7
370
    25
100
AcDbCircle
 10
258.2433501725
 20
488.7521437387
 30
0.0
 40
3.0
100
AcDbArc
 50
0.0
 51
90.0
  0
LINE
  5
226
330
1F
100
AcDbEntity
  8
0
  6
Continuous
 62
     7
370
    25
100
AcDbLine
 10
246.2433501725
 20
491.7521437387
 30
0.0
 11
258.2433501725
 21
491.7521437387
 31
0.0
  0
ARC
  5
227
330
1F
100
AcDbEntity
  8
0
  6
Continuous
 62
     7
370
    25
100
AcDbCircle
 10
246.2433501725
 20
488.7521437387
 30
0.0
 40
3.0
100
AcDbArc
 50
90.0
 51
180.0
  0
LINE
  5
228
330
1F
100
AcDbEntity
  8
0
  6
Continuous
 62
     7
370
    25
100
AcDbLine
 10
243.2433501725
 20
487.7521437387
 30
0.0
 11
243.2433501725
 21
488.7521437387
 31
0.0
  0
ARC
  5
229
330
1F
100
AcDbEntity
  8
0
  6
Continuous
 62
     7
370
    25
100
AcDbCircle
 10
240.2433501725
 20
487.7521437387
 30
0.0
 40
3.0
100
AcDbArc
 50
270.0
 51
0.0
  0
LINE
  5
22A
330
1F
100
AcDbEntity
  8
0
  6
Continuous
 62
     7
370
    25
100
AcDbLine
 10
216.7140608506
 20
484.7521437387
 30
0.0
 11
240.2433501725
 21
484.7521437387
 31
0.0
  0
LINE
  5
22B
330
1F
100
AcDbEntity
  8
0
  6
Continuous
 62
     7
370
    25
100
AcDbLine
 10
608.7726394944
 20
494.3521437387
 30
0.0
 11
608.7726394944
 21
484.7521437387
 31
0.0
  0
LINE
  5
22C
330
1F
100
AcDbEntity
  8
0
  6
Continuous
 62
     7
370
    25
100
AcDbLine
 10
585.2433501725
 20
484.7521437387
 30
0.0
 11
608.7726394944
 21
484.7521437387
 31
0.0
  0
ARC
  5
22D
330
1F
100
AcDbEntity
  8
0
  6
Continuous
 62
     7
370
    25
100
AcDbCircle
 10
585.2433501725
 20
487.7521437387
 30
0.0
 40
3.0
100
AcDbArc
 50
180.0
 51
270.0
  0
LINE
  5
22E
330
1F
100
AcDbEntity
  8
0
  6
Continuous
 62
     7
370
    25
100
AcDbLine
 10
582.2433501725
 20
487.7521437387
 30
0.0
 11
582.2433501725
 21
488.7521437387
 31
0.0
  0
ARC
  5
22F
330
1F
100
AcDbEntity
  8
0
  6
Continuous
 62
     7
370
    25
100
AcDbCircle
 10
579.2433501725
 20
488.7521437387
 30
0.0
 40
3.000000000000114
100
AcDbArc
 50
0.0
 51
90.0
  0
LINE
  5
230
330
1F
100
AcDbEntity
  8
0
  6
Continuous
 62
     7
370
    25
100
AcDbLine
 10
579.2433501725
 20
491.7521437387
 30
0.0
 11
567.2433501725
 21
491.7521437387
 31
0.0
  0
ARC
  5
231
330
1F
100
AcDbEntity
  8
0
  6
Continuous
 62
     7
370
    25
100
AcDbCircle
 10
567.2433501725
 20
488.7521437387
 30
0.0
 40
3.0
100
AcDbArc
 50
90.0
 51
180.0
  0
LINE
  5
232
330
1F
100
AcDbEntity
  8
0
  6
Continuous
 62
     7
370
    25
100
AcDbLine
 10
564.2433501725
 20
487.7521437387
 30
0.0
 11
564.2433501725
 21
488.7521437387
 31
0.0
  0
ARC
  5
233
330
1F
100
AcDbEntity
  8
0
  6
Continuous
 62
     7
370
    25
100
AcDbCircle
 10
561.2433501725
 20
487.7521437387
 30
0.0
 40
3.000000000000114
100
AcDbArc
 50
270.0
 51
0.0
  0
LINE
  5
234
330
1F
100
AcDbEntity
  8
0
  6
Continuous
 62
     7
370
    25
100
AcDbLine
 10
264.2433501725
 20
484.7521437387
 30
0.0
 11
561.2433501725
 21
484.7521437387
 31
0.0
  0
ARC
  5
235
330
1F
100
AcDbEntity
  8
0
  6
Continuous
 62
     7
370
    25
100
AcDbCircle
 10
264.2433501725
 20
487.7521437387
 30
0.0
 40
3.0
100
AcDbArc
 50
180.0
 51
270.0
  0
LINE
  5
236
330
1F
100
AcDbEntity
  8
0
  6
Continuous
 62
     7
370
    25
100
AcDbLine
 10
261.2433501725
 20
487.7521437387
 30
0.0
 11
261.2433501725
 21
488.7521437387
 31
0.0
  0
LINE
  5
237
330
1F
100
AcDbEntity
  8
0
  6
Continuous
 62
     7
370
    25
100
AcDbLine
 10
216.7140608506
 20
494.3521437387
 30
0.0
 11
216.7140608506
 21
484.7521437387
 31
0.0
  0
SPLINE
  5
238
330
1F
100
AcDbEntity
  8
0
  6
Continuous
 62
     7
370
    25
100
AcDbSpline
210
0.0
220
0.0
230
1.0
 70
     8
 71
     3
 72
    20
 73
    16
 74
     0
 42
0.000000001
 43
0.00000001
 40
0.0
 40
0.0
 40
0.0
 40
0.0
 40
0.1250000000000026
 40
0.1250000000000026
 40
0.2500000000000051
 40
0.2500000000000051
 40
0.3750000000000077
 40
0.3750000000000077
 40
0.5000000000000102
 40
0.5000000000000102
 40
0.7500000000000079
 40
0.7500000000000079
 40
0.8750000000000041
 40
0.8750000000000041
 40
1.0
 40
1.0
 40
1.0
 40
1.0
 10
607.8433501724775
 20
496.7521437387152
 30
0.0
 10
607.8823909033321
 20
496.7521437387152
 30
0.0
 10
607.9209096075318
 20
496.7366071782404
 30
0.0
 10
607.9983163588396
 20
496.6752888262798
 30
0.0
 10
608.0374607768264
 20
496.6288650806929
 30
0.0
 10
608.1146115307416
 20
496.5089142105388
 30
0.0
 10
608.1529391124827
 20
496.4353095662554
 30
0.0
 10
608.2304854329592
 20
496.2605792001598
 30
0.0
 10
608.2694616406279
 20
496.1597285712583
 30
0.0
 10
608.3849564970731
 20
495.8284432912743
 30
0.0
 10
608.462868940743
 20
495.5607631298905
 30
0.0
 10
608.578348866144
 20
495.128089103835
 30
0.0
 10
608.617214662009
 20
494.9765710169839
 30
0.0
 10
608.6949889956775
 20
494.6671452595978
 30
0.0
 10
608.7335987626323
 20
494.510522929904
 30
0.0
 10
608.7726394943589
 20
494.3521437387152
 30
0.0
  0
SPLINE
  5
239
330
1F
100
AcDbEntity
  8
0
  6
Continuous
 62
     7
370
    25
100
AcDbSpline
210
0.0
220
0.0
230
1.0
 70
     8
 71
     3
 72
    20
 73
    16
 74
     0
 42
0.000000001
 43
0.00000001
 40
0.0
 40
0.0
 40
0.0
 40
0.0
 40
0.1250000000000006
 40
0.1250000000000006
 40
0.2500000000000012
 40
0.2500000000000012
 40
0.3750000000000018
 40
0.3750000000000018
 40
0.5000000000000023
 40
0.5000000000000023
 40
0.7500000000000087
 40
0.7500000000000087
 40
0.8750000000000043
 40
0.8750000000000043
 40
1.0
 40
1.0
 40
1.0
 40
1.0
 10
216.7140608505961
 20
494.3521437387152
 30
0.0
 10
216.7531015814506
 20
494.5105229263659
 30
0.0
 10
216.7916202856504
 20
494.6667686510576
 30
0.0
 10
216.8690270369583
 20
494.9747605004742
 30
0.0
 10
216.908171454945
 20
495.1274046079454
 30
0.0
 10
216.9853222088603
 20
495.4164888971324
 30
0.0
 10
217.0236497906013
 20
495.5542934353164
 30
0.0
 10
217.1011961110778
 20
495.8159121109553
 30
0.0
 10
217.1401723187465
 20
495.938658417638
 30
0.0
 10
217.2556671751915
 20
496.2699827945857
 30
0.0
 10
217.3335796188615
 20
496.4489939186139
 30
0.0
 10
217.4490595442624
 20
496.6286090179948
 30
0.0
 10
217.4879253401275
 20
496.6748533668625
 30
0.0
 10
217.565699673796
 20
496.7366066728737
 30
0.0
 10
217.6043094407508
 20
496.7521437387152
 30
0.0
 10
217.6433501724775
 20
496.7521437387152
 30
0.0
  0
LINE
  5
23A
330
1F
100
AcDbEntity
  8
0
  6
Continuous
 62
     7
370
    25
100
AcDbLine
 10
217.6433501725
 20
496.7521437387
 30
0.0
 11
607.8433501725
 21
496.7521437387
 31
0.0
  0
SPLINE
  5
23B
330
1F
100
AcDbEntity
  8
0
  6
Continuous
 62
     7
370
    25
100
AcDbSpline
210
0.0
220
0.0
230
1.0
 70
     8
 71
     3
 72
    20
 73
    16
 74
     0
 42
0.000000001
 43
0.00000001
 40
0.0
 40
0.0
 40
0.0
 40
0.0
 40
0.1250000000000003
 40
0.1250000000000003
 40
0.2500000000000006
 40
0.2500000000000006
 40
0.3750000000000009
 40
0.3750000000000009
 40
0.5000000000000012
 40
0.5000000000000012
 40
0.7500000000000018
 40
0.7500000000000018
 40
0.8750000000000009
 40
0.8750000000000009
 40
1.0
 40
1.0
 40
1.0
 40
1.0
 10
217.6433501724775
 20
496.7521437387152
 30
0.0
 10
217.4849709848268
 20
496.7521437387152
 30
0.0
 10
217.328725260135
 20
496.7366071782404
 30
0.0
 10
217.0207334107185
 20
496.6752888262798
 30
0.0
 10
216.8680893032473
 20
496.6288650806929
 30
0.0
 10
216.5790050140603
 20
496.5089142105388
 30
0.0
 10
216.4412004758762
 20
496.4353095662554
 30
0.0
 10
216.1795818002373
 20
496.2605792001598
 30
0.0
 10
216.0568354935546
 20
496.1597285712583
 30
0.0
 10
215.725511116607
 20
495.8284432912743
 30
0.0
 10
215.5464999925787
 20
495.5607631298904
 30
0.0
 10
215.3668848931978
 20
495.128089103835
 30
0.0
 10
215.3206405443301
 20
494.9765710169838
 30
0.0
 10
215.2588872383189
 20
494.6671452595977
 30
0.0
 10
215.2433501724775
 20
494.5105229299039
 30
0.0
 10
215.2433501724775
 20
494.3521437387152
 30
0.0
  0
SPLINE
  5
23C
330
1F
100
AcDbEntity
  8
0
  6
Continuous
 62
     7
370
    25
100
AcDbSpline
210
0.0
220
0.0
230
1.0
 70
     8
 71
     3
 72
     9
 73
     5
 74
     0
 42
0.000000001
 43
0.00000001
 40
0.0
 40
0.0
 40
0.0
 40
0.0
 40
0.4825784287292463
 40
1.0
 40
1.0
 40
1.0
 40
1.0
 10
216.867179940531
 20
494.9646834778932
 30
0.0
 10
216.8033717474696
 20
494.8765491365768
 30
0.0
 10
216.6711482802304
 20
494.6939169755238
 30
0.0
 10
216.652828975774
 20
494.4686840914794
 30
0.0
 10
216.6433501724775
 20
494.3521437387152
 30
0.0
  0
LINE
  5
23D
330
1F
100
AcDbEntity
  8
0
  6
Continuous
 62
     7
370
    25
100
AcDbLine
 10
215.2433501725
 20
494.3521437387
 30
0.0
 11
216.6433501725
 21
494.3521437387
 31
0.0
  0
SPLINE
  5
23E
330
1F
100
AcDbEntity
  8
0
  6
Continuous
 62
     7
370
    25
100
AcDbSpline
210
0.0
220
0.0
230
1.0
 70
     8
 71
     3
 72
    20
 73
    16
 74
     0
 42
0.000000001
 43
0.00000001
 40
0.0
 40
0.0
 40
0.0
 40
0.0
 40
0.1250000000000006
 40
0.1250000000000006
 40
0.2500000000000013
 40
0.2500000000000013
 40
0.375000000000002
 40
0.375000000000002
 40
0.5000000000000027
 40
0.5000000000000027
 40
0.7500000000000013
 40
0.7500000000000013
 40
0.8750000000000007
 40
0.8750000000000007
 40
1.0
 40
1.0
 40
1.0
 40
1.0
 10
610.2433501724776
 20
494.3521437387152
 30
0.0
 10
610.2433501724776
 20
494.5105229263659
 30
0.0
 10
610.2278136120027
 20
494.6667686510576
 30
0.0
 10
610.1664952600422
 20
494.9747605004742
 30
0.0
 10
610.1200715144553
 20
495.1274046079454
 30
0.0
 10
610.0001206443011
 20
495.4164888971324
 30
0.0
 10
609.9265160000178
 20
495.5542934353165
 30
0.0
 10
609.751785633922
 20
495.8159121109554
 30
0.0
 10
609.6509350050205
 20
495.938658417638
 30
0.0
 10
609.3196497250365
 20
496.2699827945857
 30
0.0
 10
609.0519695636527
 20
496.448993918614
 30
0.0
 10
608.6192955375972
 20
496.6286090179948
 30
0.0
 10
608.4677774507461
 20
496.6748533668626
 30
0.0
 10
608.1583516933599
 20
496.7366066728738
 30
0.0
 10
608.0017293636663
 20
496.7521437387152
 30
0.0
 10
607.8433501724775
 20
496.7521437387152
 30
0.0
  0
LINE
  5
23F
330
1F
100
AcDbEntity
  8
0
  6
Continuous
 62
     7
370
    25
100
AcDbLine
 10
610.2433501725
 20
494.3521437387
 30
0.0
 11
608.8433501725
 21
494.3521437387
 31
0.0
  0
SPLINE
  5
240
330
1F
100
AcDbEntity
  8
0
  6
Continuous
 62
     7
370
    25
100
AcDbSpline
210
0.0
220
0.0
230
1.0
 70
     8
 71
     3
 72
     9
 73
     5
 74
     0
 42
0.000000001
 43
0.00000001
 40
0.0
 40
0.0
 40
0.0
 40
0.0
 40
0.6784508005730401
 40
0.9999999999999999
 40
0.9999999999999999
 40
0.9999999999999999
 40
0.9999999999999999
 10
608.8433501724775
 20
494.3521437387152
 30
0.0
 10
608.8301006020131
 20
494.5028509431685
 30
0.0
 10
608.8105714475729
 20
494.7249852590629
 30
0.0
 10
608.669723793934
 20
494.891818363952
 30
0.0
 10
608.6244343436651
 20
494.9454634152671
 30
0.0
  0
LINE
  5
241
330
1F
100
AcDbEntity
  8
0
  6
Continuous
 62
     7
370
    25
100
AcDbLine
 10
215.2433501725
 20
484.7521437387
 30
0.0
 11
216.6433501725
 21
484.7521437387
 31
0.0
  0
LINE
  5
242
330
1F
100
AcDbEntity
  8
0
  6
Continuous
 62
     7
370
    25
100
AcDbLine
 10
215.2433501725
 20
494.3521437387
 30
0.0
 11
215.2433501725
 21
484.7521437387
 31
0.0
  0
LINE
  5
243
330
1F
100
AcDbEntity
  8
0
  6
Continuous
 62
     7
370
    25
100
AcDbLine
 10
216.6433501725
 20
494.3521437387
 30
0.0
 11
216.6433501725
 21
484.7521437387
 31
0.0
  0
LINE
  5
244
330
1F
100
AcDbEntity
  8
0
  6
Continuous
 62
     7
370
    25
100
AcDbLine
 10
608.8433501725
 20
494.3521437387
 30
0.0
 11
608.8433501725
 21
484.7521437387
 31
0.0
  0
LINE
  5
245
330
1F
100
AcDbEntity
  8
0
  6
Continuous
 62
     7
370
    25
100
AcDbLine
 10
610.2433501725
 20
484.7521437387
 30
0.0
 11
608.8433501725
 21
484.7521437387
 31
0.0
  0
LINE
  5
246
330
1F
100
AcDbEntity
  8
0
  6
Continuous
 62
     7
370
    25
100
AcDbLine
 10
610.2433501725
 20
494.3521437387
 30
0.0
 11
610.2433501725
 21
484.7521437387
 31
0.0
  0
LINE
  5
247
330
1F
100
AcDbEntity
  8
0
  6
Continuous
 62
     7
370
    25
100
AcDbLine
 10
551.3748974581
 20
480.2521437387
 30
0.0
 11
551.4312394199
 21
480.2521437387
 31
0.0
  0
LINE
  5
248
330
1F
100
AcDbEntity
  8
0
  6
Continuous
 62
     7
370
    25
100
AcDbLine
 10
551.9312394199
 20
479.7521437387
 30
0.0
 11
551.8748974581
 21
479.7521437387
 31
0.0
  0
LINE
  5
249
330
1F
100
AcDbEntity
  8
0
  6
Continuous
 62
     7
370
    25
100
AcDbLine
 10
552.3213086987
 20
480.2521437387
 30
0.0
 11
555.7682983547
 21
480.2521437387
 31
0.0
  0
LINE
  5
24A
330
1F
100
AcDbEntity
  8
0
  6
Continuous
 62
     7
370
    25
100
AcDbLine
 10
555.3622429784
 20
479.7521437387
 30
0.0
 11
552.7770007364
 21
479.7521437387
 31
0.0
  0
LINE
  5
24B
330
1F
100
AcDbEntity
  8
0
  6
Continuous
 62
     7
370
    25
100
AcDbLine
 10
555.7682983547
 20
480.2521437387
 30
0.0
 11
556.778955753
 21
480.2521437387
 31
0.0
  0
LINE
  5
24C
330
1F
100
AcDbEntity
  8
0
  6
Continuous
 62
     7
370
    25
100
AcDbLine
 10
556.3729003767
 20
479.7521437387
 30
0.0
 11
555.3622429784
 21
479.7521437387
 31
0.0
  0
LINE
  5
24D
330
1F
100
AcDbEntity
  8
0
  6
Continuous
 62
     7
370
    25
100
AcDbLine
 10
551.6084712691
 20
480.2521437387
 30
0.0
 11
552.3213086987
 21
480.2521437387
 31
0.0
  0
LINE
  5
24E
330
1F
100
AcDbEntity
  8
0
  6
Continuous
 62
     7
370
    25
100
AcDbLine
 10
552.7770007364
 20
479.7521437387
 30
0.0
 11
552.0641633068
 21
479.7521437387
 31
0.0
  0
LINE
  5
24F
330
1F
100
AcDbEntity
  8
0
  6
Continuous
 62
     7
370
    25
100
AcDbLine
 10
556.778955753
 20
480.2521437387
 30
0.0
 11
557.1547342479
 21
480.2521437387
 31
0.0
  0
LINE
  5
250
330
1F
100
AcDbEntity
  8
0
  6
Continuous
 62
     7
370
    25
100
AcDbLine
 10
556.6547342479
 20
479.7521437387
 30
0.0
 11
556.3729003767
 21
479.7521437387
 31
0.0
  0
LINE
  5
251
330
1F
100
AcDbEntity
  8
0
  6
Continuous
 62
     7
370
    25
100
AcDbLine
 10
551.4312394199
 20
480.2521437387
 30
0.0
 11
551.6084712691
 21
480.2521437387
 31
0.0
  0
LINE
  5
252
330
1F
100
AcDbEntity
  8
0
  6
Continuous
 62
     7
370
    25
100
AcDbLine
 10
552.0641633068
 20
479.7521437387
 30
0.0
 11
551.9312394199
 21
479.7521437387
 31
0.0
  0
LINE
  5
253
330
1F
100
AcDbEntity
  8
0
  6
Continuous
 62
     7
370
    25
100
AcDbLine
 10
273.5812351183
 20
479.7521437387
 30
0.0
 11
272.0005729294
 21
479.7521437387
 31
0.0
  0
LINE
  5
254
330
1F
100
AcDbEntity
  8
0
  6
Continuous
 62
     7
370
    25
100
AcDbLine
 10
271.9736855331
 20
480.2521437387
 30
0.0
 11
274.0812351183
 21
480.2521437387
 31
0.0
  0
LINE
  5
255
330
1F
100
AcDbEntity
  8
0
  6
Continuous
 62
     7
370
    25
100
AcDbLine
 10
272.0005729294
 20
479.7521437387
 30
0.0
 11
270.2710282451
 21
479.7521437387
 31
0.0
  0
LINE
  5
256
330
1F
100
AcDbEntity
  8
0
  6
Continuous
 62
     7
370
    25
100
AcDbLine
 10
270.2441408488
 20
480.2521437387
 30
0.0
 11
271.9736855331
 21
480.2521437387
 31
0.0
  0
LINE
  5
257
330
1F
100
AcDbEntity
  8
0
  6
Continuous
 62
     7
370
    25
100
AcDbLine
 10
270.2710282451
 20
479.7521437387
 30
0.0
 11
268.851690434
 21
479.7521437387
 31
0.0
  0
LINE
  5
258
330
1F
100
AcDbEntity
  8
0
  6
Continuous
 62
     7
370
    25
100
AcDbLine
 10
268.351690434
 20
480.2521437387
 30
0.0
 11
270.2441408488
 21
480.2521437387
 31
0.0
  0
ARC
  5
259
330
1F
100
AcDbEntity
  8
0
  6
Continuous
 62
     7
370
    25
100
AcDbCircle
 10
493.7433501725
 20
436.6521437387
 30
0.0
 40
3.0
100
AcDbArc
 50
180.0
 51
270.0
  0
LINE
  5
25A
330
1F
100
AcDbEntity
  8
0
  6
Continuous
 62
     7
370
    25
100
AcDbLine
 10
490.7433501725
 20
436.6521437387
 30
0.0
 11
490.7433501725
 21
452.7821437387
 31
0.0
  0
LINE
  5
25B
330
1F
100
AcDbEntity
  8
0
  6
Continuous
 62
     7
370
    25
100
AcDbLine
 10
490.7433501725
 20
452.7821437387
 30
0.0
 11
488.2433501725
 21
452.7821437387
 31
0.0
  0
LINE
  5
25C
330
1F
100
AcDbEntity
  8
0
  6
Continuous
 62
     7
370
    25
100
AcDbLine
 10
488.2433501725
 20
452.2900929311
 30
0.0
 11
488.2433501725
 21
452.7821437387
 31
0.0
  0
LINE
  5
25D
330
1F
100
AcDbEntity
  8
0
  6
Continuous
 62
     7
370
    25
100
AcDbLine
 10
338.2433501725
 20
452.2900929311
 30
0.0
 11
338.2433501725
 21
452.7821437387
 31
0.0
  0
LINE
  5
25E
330
1F
100
AcDbEntity
  8
0
  6
Continuous
 62
     7
370
    25
100
AcDbLine
 10
338.2433501725
 20
452.7821437387
 30
0.0
 11
335.7433501725
 21
452.7821437387
 31
0.0
  0
LINE
  5
25F
330
1F
100
AcDbEntity
  8
0
  6
Continuous
 62
     7
370
    25
100
AcDbLine
 10
335.7433501725
 20
452.7821437387
 30
0.0
 11
335.7433501725
 21
436.6521437387
 31
0.0
  0
ARC
  5
260
330
1F
100
AcDbEntity
  8
0
  6
Continuous
 62
     7
370
    25
100
AcDbCircle
 10
332.7433501725
 20
436.6521437387
 30
0.0
 40
3.0
100
AcDbArc
 50
270.0
 51
0.0
  0
LINE
  5
261
330
1F
100
AcDbEntity
  8
0
  6
Continuous
 62
     7
370
    25
100
AcDbLine
 10
332.7433501725
 20
433.6521437387
 30
0.0
 11
267.7433501725
 21
433.6521437387
 31
0.0
  0
ARC
  5
262
330
1F
100
AcDbEntity
  8
0
  6
Continuous
 62
     7
370
    25
100
AcDbCircle
 10
267.7433501725
 20
436.6521437387
 30
0.0
 40
3.0
100
AcDbArc
 50
180.0
 51
270.0
  0
LINE
  5
263
330
1F
100
AcDbEntity
  8
0
  6
Continuous
 62
     7
370
    25
100
AcDbLine
 10
264.7433501725
 20
436.6521437387
 30
0.0
 11
264.7433501725
 21
457.6521437387
 31
0.0
  0
LINE
  5
264
330
1F
100
AcDbEntity
  8
0
  6
Continuous
 62
     7
370
    25
100
AcDbLine
 10
264.7433501725
 20
457.6521437387
 30
0.0
 11
261.5433501725
 21
457.6521437387
 31
0.0
  0
LINE
  5
265
330
1F
100
AcDbEntity
  8
0
  6
Continuous
 62
     7
370
    25
100
AcDbLine
 10
261.5433501725
 20
476.6521437387
 30
0.0
 11
262.7433501725
 21
476.6521437387
 31
0.0
  0
LINE
  5
266
330
1F
100
AcDbEntity
  8
0
  6
Continuous
 62
     7
370
    25
100
AcDbLine
 10
262.7433501725
 20
476.6521437387
 30
0.0
 11
262.7433501725
 21
476.8521437387
 31
0.0
  0
LINE
  5
267
330
1F
100
AcDbEntity
  8
0
  6
Continuous
 62
     7
370
    25
100
AcDbLine
 10
562.7433501725
 20
476.8521437387
 30
0.0
 11
562.7433501725
 21
476.6521437387
 31
0.0
  0
LINE
  5
268
330
1F
100
AcDbEntity
  8
0
  6
Continuous
 62
     7
370
    25
100
AcDbLine
 10
562.7433501725
 20
476.6521437387
 30
0.0
 11
563.9433501725
 21
476.6521437387
 31
0.0
  0
LINE
  5
269
330
1F
100
AcDbEntity
  8
0
  6
Continuous
 62
     7
370
    25
100
AcDbLine
 10
563.9433501725
 20
457.6521437387
 30
0.0
 11
560.7433501725
 21
457.6521437387
 31
0.0
  0
LINE
  5
26A
330
1F
100
AcDbEntity
  8
0
  6
Continuous
 62
     7
370
    25
100
AcDbLine
 10
560.7433501725
 20
457.6521437387
 30
0.0
 11
560.7433501725
 21
436.6521437387
 31
0.0
  0
ARC
  5
26B
330
1F
100
AcDbEntity
  8
0
  6
Continuous
 62
     7
370
    25
100
AcDbCircle
 10
557.7433501725
 20
436.6521437387
 30
0.0
 40
3.0
100
AcDbArc
 50
270.0
 51
0.0
  0
LINE
  5
26C
330
1F
100
AcDbEntity
  8
0
  6
Continuous
 62
     7
370
    25
100
AcDbLine
 10
557.7433501725
 20
433.6521437387
 30
0.0
 11
493.7433501725
 21
433.6521437387
 31
0.0
  0
LINE
  5
26D
330
1F
100
AcDbEntity
  8
0
  6
Continuous
 62
     7
370
    25
100
AcDbLine
 10
338.2433501725
 20
451.3900929311
 30
0.0
 11
338.2433501725
 21
452.2900929311
 31
0.0
  0
LINE
  5
26E
330
1F
100
AcDbEntity
  8
0
  6
Continuous
 62
     7
370
    25
100
AcDbLine
 10
488.2433501725
 20
452.2900929311
 30
0.0
 11
488.2433501725
 21
451.3900929311
 31
0.0
  0
LINE
  5
26F
330
1F
100
AcDbEntity
  8
0
  6
Continuous
 62
     7
370
    25
100
AcDbLine
 10
563.9433501725
 20
476.6521437387
 30
0.0
 11
564.7433501725
 21
476.6521437387
 31
0.0
  0
LINE
  5
270
330
1F
100
AcDbEntity
  8
0
  6
Continuous
 62
     7
370
    25
100
AcDbLine
 10
565.7433501725
 20
457.6521437387
 30
0.0
 11
565.7433501725
 21
458.2521437387
 31
0.0
  0
LINE
  5
271
330
1F
100
AcDbEntity
  8
0
  6
Continuous
 62
     7
370
    25
100
AcDbLine
 10
565.7433501725
 20
457.6521437387
 30
0.0
 11
563.9433501725
 21
457.6521437387
 31
0.0
  0
LINE
  5
272
330
1F
100
AcDbEntity
  8
0
  6
Continuous
 62
     7
370
    25
100
AcDbLine
 10
259.7433501725
 20
457.6521437387
 30
0.0
 11
259.7433501725
 21
458.2521437387
 31
0.0
  0
LINE
  5
273
330
1F
100
AcDbEntity
  8
0
  6
Continuous
 62
     7
370
    25
100
AcDbLine
 10
260.7433501725
 20
476.6521437387
 30
0.0
 11
261.5433501725
 21
476.6521437387
 31
0.0
  0
LINE
  5
274
330
1F
100
AcDbEntity
  8
0
  6
Continuous
 62
     7
370
    25
100
AcDbLine
 10
261.5433501725
 20
457.6521437387
 30
0.0
 11
259.7433501725
 21
457.6521437387
 31
0.0
  0
LINE
  5
275
330
1F
100
AcDbEntity
  8
0
  6
Continuous
 62
     7
370
    25
100
AcDbLine
 10
262.7433501725
 20
476.8521437387
 30
0.0
 11
262.7433501725
 21
478.6521437387
 31
0.0
  0
LINE
  5
276
330
1F
100
AcDbEntity
  8
0
  6
Continuous
 62
     7
370
    25
100
AcDbLine
 10
562.7433501725
 20
478.6521437387
 30
0.0
 11
562.7433501725
 21
476.8521437387
 31
0.0
  0
LINE
  5
277
330
1F
100
AcDbEntity
  8
0
  6
Continuous
 62
     7
370
    25
100
AcDbLine
 10
338.2433501725
 20
451.3900929311
 30
0.0
 11
338.2433501725
 21
444.7652218006
 31
0.0
  0
LINE
  5
278
330
1F
100
AcDbEntity
  8
0
  6
Continuous
 62
     7
370
    25
100
AcDbLine
 10
488.2433501725
 20
444.7652218006
 30
0.0
 11
488.2433501725
 21
451.3900929311
 31
0.0
  0
LINE
  5
279
330
1F
100
AcDbEntity
  8
0
  6
Continuous
 62
     7
370
    25
100
AcDbLine
 10
338.2433501725
 20
444.7652218006
 30
0.0
 11
338.2433501725
 21
444.2652218006
 31
0.0
  0
LINE
  5
27A
330
1F
100
AcDbEntity
  8
0
  6
Continuous
 62
     7
370
    25
100
AcDbLine
 10
488.2433501725
 20
444.2652218006
 30
0.0
 11
488.2433501725
 21
444.7652218006
 31
0.0
  0
ARC
  5
27B
330
1F
100
AcDbEntity
  8
0
  6
Continuous
 62
     7
370
    25
100
AcDbCircle
 10
341.2433501725
 20
437.7475303469
 30
0.0
 40
3.0
100
AcDbArc
 50
180.0
 51
270.0
  0
LINE
  5
27C
330
1F
100
AcDbEntity
  8
0
  6
Continuous
 62
     7
370
    25
100
AcDbLine
 10
338.2433501725
 20
437.7475303469
 30
0.0
 11
338.2433501725
 21
444.2652218006
 31
0.0
  0
LINE
  5
27D
330
1F
100
AcDbEntity
  8
0
  6
Continuous
 62
     7
370
    25
100
AcDbLine
 10
488.2433501725
 20
444.2652218006
 30
0.0
 11
488.2433501725
 21
437.7475303469
 31
0.0
  0
ARC
  5
27E
330
1F
100
AcDbEntity
  8
0
  6
Continuous
 62
     7
370
    25
100
AcDbCircle
 10
485.2433501725
 20
437.7475303469
 30
0.0
 40
3.0
100
AcDbArc
 50
270.0
 51
0.0
  0
LINE
  5
27F
330
1F
100
AcDbEntity
  8
0
  6
Continuous
 62
     7
370
    25
100
AcDbLine
 10
485.2433501725
 20
434.7475303469
 30
0.0
 11
341.2433501725
 21
434.7475303469
 31
0.0
  0
LINE
  5
280
330
1F
100
AcDbEntity
  8
0
  6
Continuous
 62
     7
370
    25
100
AcDbLine
 10
574.4021001724
 20
463.1521437387
 30
0.0
 11
574.4021001724
 21
463.3521437387
 31
0.0
  0
LINE
  5
281
330
1F
100
AcDbEntity
  8
0
  6
Continuous
 62
     7
370
    25
100
AcDbLine
 10
574.4021001724
 20
468.9521437388
 30
0.0
 11
574.4021001724
 21
469.1521437387
 31
0.0
  0
LINE
  5
282
330
1F
100
AcDbEntity
  8
0
  6
Continuous
 62
     7
370
    25
100
AcDbLine
 10
574.9433501724
 20
467.731547076
 30
0.0
 11
574.9433501724
 21
468.6108937387
 31
0.0
  0
LINE
  5
283
330
1F
100
AcDbEntity
  8
0
  6
Continuous
 62
     7
370
    25
100
AcDbLine
 10
574.9433501724
 20
463.6933937387
 30
0.0
 11
574.9433501724
 21
467.731547076
 31
0.0
  0
LINE
  5
284
330
1F
100
AcDbEntity
  8
0
  6
Continuous
 62
     7
370
    25
100
AcDbLine
 10
564.2433501725
 20
480.4521437387
 30
0.0
 11
564.2433501725
 21
478.6521437387
 31
0.0
  0
LINE
  5
285
330
1F
100
AcDbEntity
  8
0
  6
Continuous
 62
     7
370
    25
100
AcDbLine
 10
564.2433501725
 20
478.6521437387
 30
0.0
 11
261.2433501725
 21
478.6521437387
 31
0.0
  0
LINE
  5
286
330
1F
100
AcDbEntity
  8
0
  6
Continuous
 62
     7
370
    25
100
AcDbLine
 10
261.2433501725
 20
478.6521437387
 30
0.0
 11
261.2433501725
 21
480.4521437387
 31
0.0
  0
LINE
  5
287
330
1F
100
AcDbEntity
  8
0
  6
Continuous
 62
     7
370
    25
100
AcDbLine
 10
564.2433501725
 20
480.4521437387
 30
0.0
 11
564.7433501725
 21
485.8271437387
 31
0.0
  0
LINE
  5
288
330
1F
100
AcDbEntity
  8
0
  6
Continuous
 62
     7
370
    25
100
AcDbLine
 10
260.7433501725
 20
485.8271437387
 30
0.0
 11
261.2433501725
 21
480.4521437387
 31
0.0
  0
LINE
  5
289
330
1F
100
AcDbEntity
  8
0
  6
Continuous
 62
     7
370
    25
100
AcDbLine
 10
250.5433501725
 20
463.9348056614
 30
0.0
 11
250.5433501725
 21
463.6933937387
 31
0.0
  0
LINE
  5
28A
330
1F
100
AcDbEntity
  8
0
  6
Continuous
 62
     7
370
    25
100
AcDbLine
 10
250.5433501725
 20
468.6108937387
 30
0.0
 11
250.5433501725
 21
463.9348056614
 31
0.0
  0
LINE
  5
28B
330
1F
100
AcDbEntity
  8
0
  6
Continuous
 62
     7
370
    25
100
AcDbLine
 10
251.0846001725
 20
469.1521437387
 30
0.0
 11
251.0846001725
 21
468.9521437387
 31
0.0
  0
LINE
  5
28C
330
1F
100
AcDbEntity
  8
0
  6
Continuous
 62
     7
370
    25
100
AcDbLine
 10
251.0846001725
 20
463.3521437387
 30
0.0
 11
251.0846001725
 21
463.1521437387
 31
0.0
  0
SPLINE
  5
28D
330
1F
100
AcDbEntity
  8
0
  6
Continuous
 62
     7
370
    25
100
AcDbSpline
210
0.0
220
0.0
230
1.0
 70
    24
 71
     3
 72
    15
 73
    11
 74
     0
 42
0.000000001
 43
0.00000001
 40
0.0
 40
0.0
 40
0.0
 40
0.0
 40
0.0346967497918684
 40
0.2211884951269675
 40
0.4076802404620662
 40
0.5080720152630803
 40
0.6105942475634836
 40
0.7131164798638865
 40
0.8135082546649013
 40
1.0
 40
1.0
 40
1.0
 40
1.0
 10
261.7433501724774
 20
460.3788949293123
 30
0.0
 10
261.7433501724774
 20
460.3721738256809
 30
0.0
 10
261.7433501724774
 20
460.3293274263282
 30
0.0
 10
261.7433501724773
 20
460.8173683890866
 30
0.0
 10
261.7433501724773
 20
461.9132794465552
 30
0.0
 10
261.7433501724774
 20
463.1321765790027
 30
0.0
 10
261.7433501724774
 20
464.2123518068597
 30
0.0
 10
261.7433501724774
 20
465.3728287093253
 30
0.0
 10
261.7433501724774
 20
466.9034036044404
 30
0.0
 10
261.7433501724774
 20
467.9670294930905
 30
0.0
 10
261.7433501724774
 20
468.6584510437737
 30
0.0
  0
SPLINE
  5
28E
330
1F
100
AcDbEntity
  8
0
  6
Continuous
 62
     7
370
    25
100
AcDbSpline
210
0.0
220
0.0
230
1.0
 70
    24
 71
     3
 72
    12
 73
     8
 74
     0
 42
0.000000001
 43
0.00000001
 40
0.0
 40
0.0
 40
0.0
 40
0.0
 40
0.3344405486782636
 40
0.5144757571369867
 40
0.6983315710265373
 40
0.8821873849160862
 40
1.0
 40
1.0
 40
1.0
 40
1.0
 10
261.7433501724774
 20
468.6584510437737
 30
0.0
 10
261.7433501724774
 20
469.2825965792755
 30
0.0
 10
261.7433501724774
 20
470.2427305947531
 30
0.0
 10
261.7433501724774
 20
471.1506415010484
 30
0.0
 10
261.7433501724773
 20
471.6563588389645
 30
0.0
 10
261.7433501724774
 20
471.9279785731027
 30
0.0
 10
261.7433501724774
 20
471.926118841643
 30
0.0
 10
261.7433501724774
 20
471.9253925481181
 30
0.0
  0
SPLINE
  5
28F
330
1F
100
AcDbEntity
  8
0
  6
Continuous
 62
     7
370
    25
100
AcDbSpline
210
0.0
220
0.0
230
1.0
 70
     8
 71
     3
 72
     8
 73
     4
 74
     0
 42
0.000000001
 43
0.00000001
 40
0.0
 40
0.0
 40
0.0
 40
0.0
 40
1.0
 40
1.0
 40
1.0
 40
1.0
 10
265.7433501724704
 20
465.7687487110287
 30
0.0
 10
265.7433501724704
 20
466.7511271556015
 30
0.0
 10
265.5690348720909
 20
467.7066183237912
 30
0.0
 10
265.296768185079
 20
468.6470009731188
 30
0.0
  0
SPLINE
  5
290
330
1F
100
AcDbEntity
  8
0
  6
Continuous
 62
     7
370
    25
100
AcDbSpline
210
0.0
220
0.0
230
1.0
 70
     8
 71
     3
 72
     8
 73
     4
 74
     0
 42
0.000000001
 43
0.00000001
 40
0.0
 40
0.0
 40
0.0
 40
0.0
 40
1.0
 40
1.0
 40
1.0
 40
1.0
 10
265.296768185079
 20
462.8904964489387
 30
0.0
 10
265.5690348720905
 20
463.8308790982645
 30
0.0
 10
265.7433501724704
 20
464.7863702664578
 30
0.0
 10
265.7433501724704
 20
465.7687487110287
 30
0.0
  0
LINE
  5
291
330
1F
100
AcDbEntity
  8
0
  6
Continuous
 62
     7
370
    25
100
AcDbLine
 10
261.7433501725
 20
462.8904964489
 30
0.0
 11
265.2967681851
 21
462.8904964489
 31
0.0
  0
LINE
  5
292
330
1F
100
AcDbEntity
  8
0
  6
Continuous
 62
     7
370
    25
100
AcDbLine
 10
261.7433501725
 20
468.6470009731
 30
0.0
 11
265.2967681851
 21
468.6470009731
 31
0.0
  0
LINE
  5
293
330
1F
100
AcDbEntity
  8
0
  6
Continuous
 62
     7
370
    25
100
AcDbLine
 10
265.7433501725
 20
465.768748711
 30
0.0
 11
265.7433501725
 21
470.277824618
 31
0.0
  0
SPLINE
  5
294
330
1F
100
AcDbEntity
  8
0
  6
Continuous
 62
     7
370
    25
100
AcDbSpline
210
0.0
220
0.0
230
1.0
 70
     8
 71
     3
 72
     8
 73
     4
 74
     0
 42
0.000000001
 43
0.00000001
 40
0.0
 40
0.0
 40
0.0
 40
0.0
 40
1.0
 40
1.0
 40
1.0
 40
1.0
 10
265.296768185079
 20
468.6470009731249
 30
0.0
 10
265.5690348720904
 20
469.1798237141898
 30
0.0
 10
265.7433501724703
 20
469.7212069730843
 30
0.0
 10
265.7433501724703
 20
470.2778246180128
 30
0.0
  0
LINE
  5
295
330
1F
100
AcDbEntity
  8
0
  6
Continuous
 62
     7
370
    25
100
AcDbLine
 10
265.7433501725
 20
461.6430678317
 30
0.0
 11
265.7433501725
 21
465.768748711
 31
0.0
  0
SPLINE
  5
296
330
1F
100
AcDbEntity
  8
0
  6
Continuous
 62
     7
370
    25
100
AcDbSpline
210
0.0
220
0.0
230
1.0
 70
     8
 71
     3
 72
     8
 73
     4
 74
     0
 42
0.000000001
 43
0.00000001
 40
0.0
 40
0.0
 40
0.0
 40
0.0
 40
1.0
 40
1.0
 40
1.0
 40
1.0
 10
265.7433501724702
 20
461.6430678317312
 30
0.0
 10
265.7433501724702
 20
462.0688286313745
 30
0.0
 10
265.5690348720908
 20
462.4829365406715
 30
0.0
 10
265.296768185079
 20
462.8904964489332
 30
0.0
  0
SPLINE
  5
297
330
1F
100
AcDbEntity
  8
0
  6
Continuous
 62
     7
370
    25
100
AcDbSpline
210
0.0
220
0.0
230
1.0
 70
     8
 71
     3
 72
     8
 73
     4
 74
     0
 42
0.000000001
 43
0.00000001
 40
0.0
 40
0.0
 40
0.0
 40
0.0
 40
1.0
 40
1.0
 40
1.0
 40
1.0
 10
265.7433501724703
 20
470.2778246180128
 30
0.0
 10
265.7433501724703
 20
470.8344422629426
 30
0.0
 10
265.569034872091
 20
471.3758255218345
 30
0.0
 10
265.296768185079
 20
471.9086482629007
 30
0.0
  0
LINE
  5
298
330
1F
100
AcDbEntity
  8
0
  6
Continuous
 62
     7
370
    25
100
AcDbLine
 10
265.2967681851
 20
471.9086482629
 30
0.0
 11
261.7433501725
 21
471.9086482629
 31
0.0
  0
SPLINE
  5
299
330
1F
100
AcDbEntity
  8
0
  6
Continuous
 62
     7
370
    25
100
AcDbSpline
210
0.0
220
0.0
230
1.0
 70
     8
 71
     3
 72
     8
 73
     4
 74
     0
 42
0.000000001
 43
0.00000001
 40
0.0
 40
0.0
 40
0.0
 40
0.0
 40
1.0
 40
1.0
 40
1.0
 40
1.0
 10
265.2967681850789
 20
460.3956392145292
 30
0.0
 10
265.5690348720903
 20
460.8031991227901
 30
0.0
 10
265.7433501724702
 20
461.2173070320887
 30
0.0
 10
265.7433501724702
 20
461.6430678317312
 30
0.0
  0
LINE
  5
29A
330
1F
100
AcDbEntity
  8
0
  6
Continuous
 62
     7
370
    25
100
AcDbLine
 10
261.7433501725
 20
460.3956392145
 30
0.0
 11
265.2967681851
 21
460.3956392145
 31
0.0
  0
LINE
  5
29B
330
1F
100
AcDbEntity
  8
0
  6
Continuous
 62
     7
370
    25
100
AcDbLine
 10
251.2846001725
 20
469.1521437387
 30
0.0
 11
251.2846001725
 21
463.1521437387
 31
0.0
  0
LINE
  5
29C
330
1F
100
AcDbEntity
  8
0
  6
Continuous
 62
     7
370
    25
100
AcDbLine
 10
250.7433501725
 20
463.9348056614
 30
0.0
 11
250.7433501725
 21
463.6933937387
 31
0.0
  0
LINE
  5
29D
330
1F
100
AcDbEntity
  8
0
  6
Continuous
 62
     7
370
    25
100
AcDbLine
 10
250.7433501725
 20
468.6108937387
 30
0.0
 11
250.7433501725
 21
463.9348056614
 31
0.0
  0
LINE
  5
29E
330
1F
100
AcDbEntity
  8
0
  6
Continuous
 62
     7
370
    25
100
AcDbLine
 10
265.2967681851
 20
471.9086482629
 30
0.0
 11
265.3719559406
 21
471.6986277951
 31
0.0
  0
LINE
  5
29F
330
1F
100
AcDbEntity
  8
0
  6
Continuous
 62
     7
370
    25
100
AcDbLine
 10
265.7433501725
 20
470.277824618
 30
0.0
 11
265.7433501725
 21
471.1521437387
 31
0.0
  0
LINE
  5
2A0
330
1F
100
AcDbEntity
  8
0
  6
Continuous
 62
     7
370
    25
100
AcDbLine
 10
265.7433501725
 20
461.1521437387
 30
0.0
 11
265.7433501725
 21
461.6430678317
 31
0.0
  0
LINE
  5
2A1
330
1F
100
AcDbEntity
  8
0
  6
Continuous
 62
     7
370
    25
100
AcDbLine
 10
258.6912293125
 20
458.2521437387
 30
0.0
 11
256.811844071
 21
458.2521437387
 31
0.0
  0
LWPOLYLINE
  5
2A2
330
1F
100
AcDbEntity
  8
0
  6
Continuous
 62
     7
370
    25
100
AcDbPolyline
 90
        9
 70
   128
 43
0.0
 10
256.811844071
 20
458.2521437387
 10
256.6783944312
 20
458.2905731779
 10
256.5500731862
 20
458.4043846737
 10
256.4318116495
 20
458.5892045141
 10
256.3281545457
 20
458.8379301763
 10
256.243085359
 20
459.1410032727
 10
256.1798732507
 20
459.486776874
 10
256.1409474266
 20
459.8619630947
 10
256.1278037843
 20
460.2521437387
  0
LWPOLYLINE
  5
2A3
330
1F
100
AcDbEntity
  8
0
  6
Continuous
 62
     7
370
    25
100
AcDbPolyline
 90
        9
 70
   128
 43
0.0
 10
258.0071890259
 20
460.2521437387
 10
258.0203326682
 20
459.8619630947
 10
258.0592584923
 20
459.486776874
 10
258.1224706006
 20
459.1410032727
 10
258.2075397872
 20
458.8379301763
 10
258.3111968911
 20
458.5892045141
 10
258.4294584278
 20
458.4043846737
 10
258.5577796727
 20
458.2905731779
 10
258.6912293125
 20
458.2521437387
  0
LINE
  5
2A4
330
1F
100
AcDbEntity
  8
0
  6
Continuous
 62
     7
370
    25
100
AcDbLine
 10
258.6912293125
 20
458.2521437387
 30
0.0
 11
260.5624280348
 21
458.2521437387
 31
0.0
  0
LINE
  5
2A5
330
1F
100
AcDbEntity
  8
0
  6
Continuous
 62
     7
370
    25
100
AcDbLine
 10
258.0071890259
 20
472.2521437387
 30
0.0
 11
258.0071890259
 21
460.2521437387
 31
0.0
  0
LWPOLYLINE
  5
2A6
330
1F
100
AcDbEntity
  8
0
  6
Continuous
 62
     7
370
    25
100
AcDbPolyline
 90
        9
 70
   128
 43
0.0
 10
258.6912293125
 20
474.2521437387
 10
258.5577796727
 20
474.2137142995
 10
258.4294584278
 20
474.0999028037
 10
258.3111968911
 20
473.9150829633
 10
258.2075397872
 20
473.6663573011
 10
258.1224706006
 20
473.3632842048
 10
258.0592584923
 20
473.0175106034
 10
258.0203326682
 20
472.6423243827
 10
258.0071890259
 20
472.2521437387
  0
LINE
  5
2A7
330
1F
100
AcDbEntity
  8
0
  6
Continuous
 62
     7
370
    25
100
AcDbLine
 10
260.5624280348
 20
474.2521437387
 30
0.0
 11
258.6912293125
 21
474.2521437387
 31
0.0
  0
LINE
  5
2A8
330
1F
100
AcDbEntity
  8
0
  6
Continuous
 62
     7
370
    25
100
AcDbLine
 10
256.1278037843
 20
472.2521437387
 30
0.0
 11
256.1278037843
 21
460.2521437387
 31
0.0
  0
LWPOLYLINE
  5
2A9
330
1F
100
AcDbEntity
  8
0
  6
Continuous
 62
     7
370
    25
100
AcDbPolyline
 90
        9
 70
   128
 43
0.0
 10
256.1278037843
 20
472.2521437387
 10
256.1409474266
 20
472.6423243827
 10
256.1798732507
 20
473.0175106034
 10
256.243085359
 20
473.3632842048
 10
256.3281545457
 20
473.6663573011
 10
256.4318116495
 20
473.9150829633
 10
256.5500731862
 20
474.0999028037
 10
256.6783944312
 20
474.2137142995
 10
256.811844071
 20
474.2521437387
  0
LINE
  5
2AA
330
1F
100
AcDbEntity
  8
0
  6
Continuous
 62
     7
370
    25
100
AcDbLine
 10
256.811844071
 20
474.2521437387
 30
0.0
 11
258.6912293125
 21
474.2521437387
 31
0.0
  0
LINE
  5
2AB
330
1F
100
AcDbEntity
  8
0
  6
Continuous
 62
     7
370
    25
100
AcDbLine
 10
260.7433501725
 20
458.2521437387
 30
0.0
 11
260.5624280348
 21
458.2521437387
 31
0.0
  0
LINE
  5
2AC
330
1F
100
AcDbEntity
  8
0
  6
Continuous
 62
     7
370
    25
100
AcDbLine
 10
260.5624280348
 20
474.2521437387
 30
0.0
 11
260.7381638221
 21
474.2521437387
 31
0.0
  0
LINE
  5
2AD
330
1F
100
AcDbEntity
  8
0
  6
Continuous
 62
     7
370
    25
100
AcDbLine
 10
260.7433501725
 20
474.2521437387
 30
0.0
 11
260.7433501725
 21
458.2521437387
 31
0.0
  0
LINE
  5
2AE
330
1F
100
AcDbEntity
  8
0
  6
Continuous
 62
     7
370
    25
100
AcDbLine
 10
260.7381638221
 20
474.2521437387
 30
0.0
 11
260.7433501725
 21
474.2521437387
 31
0.0
  0
LINE
  5
2AF
330
1F
100
AcDbEntity
  8
0
  6
Continuous
 62
     7
370
    25
100
AcDbLine
 10
260.7433501725
 20
474.2521437387
 30
0.0
 11
260.7433501725
 21
489.2521437387
 31
0.0
  0
LINE
  5
2B0
330
1F
100
AcDbEntity
  8
0
  6
Continuous
 62
     7
370
    25
100
AcDbLine
 10
258.7433501725
 20
474.2521437387
 30
0.0
 11
258.7433501725
 21
489.2521437387
 31
0.0
  0
LINE
  5
2B1
330
1F
100
AcDbEntity
  8
0
  6
Continuous
 62
     7
370
    25
100
AcDbLine
 10
260.7483627354
 20
489.3521437387
 30
0.0
 11
260.7433501725
 21
489.2521437387
 31
0.0
  0
LINE
  5
2B2
330
1F
100
AcDbEntity
  8
0
  6
Continuous
 62
     7
370
    25
100
AcDbLine
 10
258.7450173024
 20
489.3521437387
 30
0.0
 11
258.7433501725
 21
489.2521437387
 31
0.0
  0
LWPOLYLINE
  5
2B3
330
1F
100
AcDbEntity
  8
0
  6
Continuous
 62
     7
370
    25
100
AcDbPolyline
 90
        9
 70
   128
 43
0.0
 10
566.7954710324
 20
458.2521437387
 10
566.9289206722
 20
458.2905731779
 10
567.0572419172
 20
458.4043846737
 10
567.1755034539
 20
458.5892045141
 10
567.2791605577
 20
458.8379301763
 10
567.3642297444
 20
459.1410032727
 10
567.4274418527
 20
459.486776874
 10
567.4663676768
 20
459.8619630947
 10
567.4795113191
 20
460.2521437387
  0
LINE
  5
2B4
330
1F
100
AcDbEntity
  8
0
  6
Continuous
 62
     7
370
    25
100
AcDbLine
 10
564.9242723101
 20
458.2521437387
 30
0.0
 11
566.7954710324
 21
458.2521437387
 31
0.0
  0
LINE
  5
2B5
330
1F
100
AcDbEntity
  8
0
  6
Continuous
 62
     7
370
    25
100
AcDbLine
 10
566.7954710324
 20
474.2521437387
 30
0.0
 11
564.9242723101
 21
474.2521437387
 31
0.0
  0
LWPOLYLINE
  5
2B6
330
1F
100
AcDbEntity
  8
0
  6
Continuous
 62
     7
370
    25
100
AcDbPolyline
 90
        9
 70
   128
 43
0.0
 10
567.4795113191
 20
472.2521437387
 10
567.4663676768
 20
472.6423243827
 10
567.4274418527
 20
473.0175106034
 10
567.3642297444
 20
473.3632842048
 10
567.2791605577
 20
473.6663573011
 10
567.1755034539
 20
473.9150829633
 10
567.0572419172
 20
474.0999028037
 10
566.9289206722
 20
474.2137142995
 10
566.7954710324
 20
474.2521437387
  0
LINE
  5
2B7
330
1F
100
AcDbEntity
  8
0
  6
Continuous
 62
     7
370
    25
100
AcDbLine
 10
567.4795113191
 20
460.2521437387
 30
0.0
 11
567.4795113191
 21
472.2521437387
 31
0.0
  0
LWPOLYLINE
  5
2B8
330
1F
100
AcDbEntity
  8
0
  6
Continuous
 62
     7
370
    25
100
AcDbPolyline
 90
        9
 70
   128
 43
0.0
 10
569.3588965607
 20
460.2521437387
 10
569.3457529184
 20
459.8619630947
 10
569.3068270943
 20
459.486776874
 10
569.2436149859
 20
459.1410032727
 10
569.1585457993
 20
458.8379301763
 10
569.0548886955
 20
458.5892045141
 10
568.9366271588
 20
458.4043846737
 10
568.8083059138
 20
458.2905731779
 10
568.674856274
 20
458.2521437387
  0
LINE
  5
2B9
330
1F
100
AcDbEntity
  8
0
  6
Continuous
 62
     7
370
    25
100
AcDbLine
 10
568.674856274
 20
458.2521437387
 30
0.0
 11
566.7954710324
 21
458.2521437387
 31
0.0
  0
LINE
  5
2BA
330
1F
100
AcDbEntity
  8
0
  6
Continuous
 62
     7
370
    25
100
AcDbLine
 10
569.3588965607
 20
460.2521437387
 30
0.0
 11
569.3588965607
 21
472.2521437387
 31
0.0
  0
LINE
  5
2BB
330
1F
100
AcDbEntity
  8
0
  6
Continuous
 62
     7
370
    25
100
AcDbLine
 10
566.7954710324
 20
474.2521437387
 30
0.0
 11
568.674856274
 21
474.2521437387
 31
0.0
  0
LWPOLYLINE
  5
2BC
330
1F
100
AcDbEntity
  8
0
  6
Continuous
 62
     7
370
    25
100
AcDbPolyline
 90
        9
 70
   128
 43
0.0
 10
568.674856274
 20
474.2521437387
 10
568.8083059138
 20
474.2137142995
 10
568.9366271588
 20
474.0999028037
 10
569.0548886955
 20
473.9150829633
 10
569.1585457993
 20
473.6663573011
 10
569.2436149859
 20
473.3632842048
 10
569.3068270943
 20
473.0175106034
 10
569.3457529184
 20
472.6423243827
 10
569.3588965607
 20
472.2521437387
  0
LINE
  5
2BD
330
1F
100
AcDbEntity
  8
0
  6
Continuous
 62
     7
370
    25
100
AcDbLine
 10
564.7485365229
 20
474.2521437387
 30
0.0
 11
564.9242723101
 21
474.2521437387
 31
0.0
  0
LINE
  5
2BE
330
1F
100
AcDbEntity
  8
0
  6
Continuous
 62
     7
370
    25
100
AcDbLine
 10
564.9242723101
 20
458.2521437387
 30
0.0
 11
564.7433501725
 21
458.2521437387
 31
0.0
  0
LINE
  5
2BF
330
1F
100
AcDbEntity
  8
0
  6
Continuous
 62
     7
370
    25
100
AcDbLine
 10
564.7433501725
 20
458.2521437387
 30
0.0
 11
564.7433501725
 21
474.2521437387
 31
0.0
  0
LINE
  5
2C0
330
1F
100
AcDbEntity
  8
0
  6
Continuous
 62
     7
370
    25
100
AcDbLine
 10
564.7485365229
 20
474.2521437387
 30
0.0
 11
564.7433501725
 21
474.2521437387
 31
0.0
  0
LINE
  5
2C1
330
1F
100
AcDbEntity
  8
0
  6
Continuous
 62
     7
370
    25
100
AcDbLine
 10
566.7433501725
 20
489.2521437387
 30
0.0
 11
566.7433501725
 21
474.2521437387
 31
0.0
  0
LINE
  5
2C2
330
1F
100
AcDbEntity
  8
0
  6
Continuous
 62
     7
370
    25
100
AcDbLine
 10
564.7433501725
 20
489.2521437387
 30
0.0
 11
564.7433501725
 21
474.2521437387
 31
0.0
  0
LINE
  5
2C3
330
1F
100
AcDbEntity
  8
0
  6
Continuous
 62
     7
370
    25
100
AcDbLine
 10
564.7433501725
 20
489.2521437387
 30
0.0
 11
564.7383376096
 21
489.3521437387
 31
0.0
  0
LINE
  5
2C4
330
1F
100
AcDbEntity
  8
0
  6
Continuous
 62
     7
370
    25
100
AcDbLine
 10
566.7433501725
 20
489.2521437387
 30
0.0
 11
566.7416830426
 21
489.3521437387
 31
0.0
  0
LINE
  5
2C5
330
1F
100
AcDbEntity
  8
0
  6
Continuous
 62
     7
370
    25
100
AcDbLine
 10
549.4933501725
 20
484.2521437386
 30
0.0
 11
549.4933501725
 21
484.7521437386
 31
0.0
  0
LINE
  5
2C6
330
1F
100
AcDbEntity
  8
0
  6
Continuous
 62
     7
370
    25
100
AcDbLine
 10
558.9933501725
 20
484.7521437388
 30
0.0
 11
558.9933501725
 21
484.2521437386
 31
0.0
  0
LINE
  5
2C7
330
1F
100
AcDbEntity
  8
0
  6
Continuous
 62
     7
370
    25
100
AcDbLine
 10
558.9933501725
 20
484.2521437386
 30
0.0
 11
549.4933501725
 21
484.2521437386
 31
0.0
  0
ARC
  5
2C8
330
1F
100
AcDbEntity
  8
0
  6
Continuous
 62
     7
370
    25
100
AcDbCircle
 10
548.7299501725
 20
485.4887437386
 30
0.0
 40
1.236600000000089
100
AcDbArc
 50
216.5600910917
 51
270.0
  0
ARC
  5
2C9
330
1F
100
AcDbEntity
  8
0
  6
Continuous
 62
     7
370
    25
100
AcDbCircle
 10
559.7567501725
 20
485.4887437386
 30
0.0
 40
1.236600000000067
100
AcDbArc
 50
270.0
 51
323.4399089083
  0
LINE
  5
2CA
330
1F
100
AcDbEntity
  8
0
  6
Continuous
 62
     7
370
    25
100
AcDbLine
 10
559.7567501725
 20
484.2521437386
 30
0.0
 11
558.9933501725
 21
484.2521437386
 31
0.0
  0
LINE
  5
2CB
330
1F
100
AcDbEntity
  8
0
  6
Continuous
 62
     7
370
    25
100
AcDbLine
 10
549.4933501725
 20
484.2521437386
 30
0.0
 11
548.7299501725
 21
484.2521437386
 31
0.0
  0
ARC
  5
2CC
330
1F
100
AcDbEntity
  8
0
  6
Continuous
 62
     7
370
    25
100
AcDbCircle
 10
573.2433501725
 20
495.3521437387
 30
0.0
 40
6.0
100
AcDbArc
 50
270.0
 51
323.1301023541
  0
ARC
  5
2CD
330
1F
100
AcDbEntity
  8
0
  6
Continuous
 62
     7
370
    25
100
AcDbCircle
 10
252.2433501725
 20
495.3521437387
 30
0.0
 40
6.0
100
AcDbArc
 50
216.8698976459
 51
270.0
  0
ARC
  5
2CE
330
1F
100
AcDbEntity
  8
0
  6
Continuous
 62
     7
370
    25
100
AcDbCircle
 10
564.4433501724
 20
83.8722758703
 30
0.0
 40
0.5
100
AcDbArc
 50
180.0
 51
0.0
  0
ARC
  5
2CF
330
1F
100
AcDbEntity
  8
0
  6
Continuous
 62
     7
370
    25
100
AcDbCircle
 10
564.4433501724
 20
95.4722758705
 30
0.0
 40
0.5000000000001137
100
AcDbArc
 50
0.0
 51
180.0
  0
LINE
  5
2D0
330
1F
100
AcDbEntity
  8
0
  6
Continuous
 62
     7
370
    25
100
AcDbLine
 10
574.4021001724
 20
92.6722758704
 30
0.0
 11
565.7433501725
 21
92.6722758704
 31
0.0
  0
LINE
  5
2D1
330
1F
100
AcDbEntity
  8
0
  6
Continuous
 62
     7
370
    25
100
AcDbLine
 10
565.7433501725
 20
86.6722758704
 30
0.0
 11
574.4021001724
 21
86.6722758704
 31
0.0
  0
LINE
  5
2D2
330
1F
100
AcDbEntity
  8
0
  6
Continuous
 62
     7
370
    25
100
AcDbLine
 10
574.4021001724
 20
86.6722758704
 30
0.0
 11
574.9433501724
 21
87.2135258704
 31
0.0
  0
LINE
  5
2D3
330
1F
100
AcDbEntity
  8
0
  6
Continuous
 62
     7
370
    25
100
AcDbLine
 10
574.9433501724
 20
92.1310258705
 30
0.0
 11
574.4021001724
 21
92.6722758704
 31
0.0
  0
LINE
  5
2D4
330
1F
100
AcDbEntity
  8
0
  6
Continuous
 62
     7
370
    25
100
AcDbLine
 10
547.7885647581
 20
81.0440986231
 30
0.0
 11
547.3933501725
 21
81.2722758704
 31
0.0
  0
LINE
  5
2D5
330
1F
100
AcDbEntity
  8
0
  6
Continuous
 62
     7
370
    25
100
AcDbLine
 10
541.0933501725
 20
81.2722758704
 30
0.0
 11
540.6628118775
 21
81.02370447
 31
0.0
  0
LINE
  5
2D6
330
1F
100
AcDbEntity
  8
0
  6
Continuous
 62
     7
370
    25
100
AcDbLine
 10
540.6628118775
 20
78.3208472709
 30
0.0
 11
541.0933501725
 21
78.0722758704
 31
0.0
  0
LINE
  5
2D7
330
1F
100
AcDbEntity
  8
0
  6
Continuous
 62
     7
370
    25
100
AcDbLine
 10
547.3933501725
 20
78.0722758704
 30
0.0
 11
547.7885647581
 21
78.3004531178
 31
0.0
  0
LINE
  5
2D8
330
1F
100
AcDbEntity
  8
0
  6
Continuous
 62
     7
370
    25
100
AcDbLine
 10
415.7885647581
 20
81.0440986231
 30
0.0
 11
415.3933501725
 21
81.2722758704
 31
0.0
  0
LINE
  5
2D9
330
1F
100
AcDbEntity
  8
0
  6
Continuous
 62
     7
370
    25
100
AcDbLine
 10
409.0933501725
 20
81.2722758704
 30
0.0
 11
408.6628118775
 21
81.02370447
 31
0.0
  0
LINE
  5
2DA
330
1F
100
AcDbEntity
  8
0
  6
Continuous
 62
     7
370
    25
100
AcDbLine
 10
408.6628118775
 20
78.3208472709
 30
0.0
 11
409.0933501725
 21
78.0722758704
 31
0.0
  0
LINE
  5
2DB
330
1F
100
AcDbEntity
  8
0
  6
Continuous
 62
     7
370
    25
100
AcDbLine
 10
415.3933501725
 20
78.0722758704
 30
0.0
 11
415.7885647581
 21
78.3004531178
 31
0.0
  0
LINE
  5
2DC
330
1F
100
AcDbEntity
  8
0
  6
Continuous
 62
     7
370
    25
100
AcDbLine
 10
284.7885647581
 20
81.0440986231
 30
0.0
 11
284.3933501725
 21
81.2722758704
 31
0.0
  0
LINE
  5
2DD
330
1F
100
AcDbEntity
  8
0
  6
Continuous
 62
     7
370
    25
100
AcDbLine
 10
278.0933501725
 20
81.2722758704
 30
0.0
 11
277.6628118775
 21
81.02370447
 31
0.0
  0
LINE
  5
2DE
330
1F
100
AcDbEntity
  8
0
  6
Continuous
 62
     7
370
    25
100
AcDbLine
 10
277.6628118775
 20
78.3208472709
 30
0.0
 11
278.0933501725
 21
78.0722758704
 31
0.0
  0
LINE
  5
2DF
330
1F
100
AcDbEntity
  8
0
  6
Continuous
 62
     7
370
    25
100
AcDbLine
 10
284.3933501725
 20
78.0722758704
 30
0.0
 11
284.7885647581
 21
78.3004531178
 31
0.0
  0
LINE
  5
2E0
330
1F
100
AcDbEntity
  8
0
  6
Continuous
 62
     7
370
    25
100
AcDbLine
 10
260.2433501725
 20
64.6222758704
 30
0.0
 11
565.2433501725
 21
64.6222758704
 31
0.0
  0
LINE
  5
2E1
330
1F
100
AcDbEntity
  8
0
  6
Continuous
 62
     7
370
    25
100
AcDbLine
 10
542.2433501725
 20
86.3722758704
 30
0.0
 11
542.2433501725
 21
81.2722758704
 31
0.0
  0
LINE
  5
2E2
330
1F
100
AcDbEntity
  8
0
  6
Continuous
 62
     7
370
    25
100
AcDbLine
 10
542.2433501725
 20
78.0722758704
 30
0.0
 11
542.2433501725
 21
77.9722758704
 31
0.0
  0
LINE
  5
2E3
330
1F
100
AcDbEntity
  8
0
  6
Continuous
 62
     7
370
    25
100
AcDbLine
 10
546.2433501725
 20
77.9722758704
 30
0.0
 11
546.2433501725
 21
78.0722758704
 31
0.0
  0
LINE
  5
2E4
330
1F
100
AcDbEntity
  8
0
  6
Continuous
 62
     7
370
    25
100
AcDbLine
 10
546.2433501725
 20
81.2722758704
 30
0.0
 11
546.2433501725
 21
86.3722758704
 31
0.0
  0
LINE
  5
2E5
330
1F
100
AcDbEntity
  8
0
  6
Continuous
 62
     7
370
    25
100
AcDbLine
 10
410.2433501725
 20
86.3722758704
 30
0.0
 11
410.2433501725
 21
81.2722758704
 31
0.0
  0
LINE
  5
2E6
330
1F
100
AcDbEntity
  8
0
  6
Continuous
 62
     7
370
    25
100
AcDbLine
 10
410.2433501725
 20
78.0722758704
 30
0.0
 11
410.2433501725
 21
77.9722758704
 31
0.0
  0
LINE
  5
2E7
330
1F
100
AcDbEntity
  8
0
  6
Continuous
 62
     7
370
    25
100
AcDbLine
 10
414.2433501725
 20
77.9722758704
 30
0.0
 11
414.2433501725
 21
78.0722758704
 31
0.0
  0
LINE
  5
2E8
330
1F
100
AcDbEntity
  8
0
  6
Continuous
 62
     7
370
    25
100
AcDbLine
 10
414.2433501725
 20
81.2722758704
 30
0.0
 11
414.2433501725
 21
86.3722758704
 31
0.0
  0
LINE
  5
2E9
330
1F
100
AcDbEntity
  8
0
  6
Continuous
 62
     7
370
    25
100
AcDbLine
 10
279.2433501725
 20
86.3722758704
 30
0.0
 11
279.2433501725
 21
81.2722758704
 31
0.0
  0
LINE
  5
2EA
330
1F
100
AcDbEntity
  8
0
  6
Continuous
 62
     7
370
    25
100
AcDbLine
 10
279.2433501725
 20
78.0722758704
 30
0.0
 11
279.2433501725
 21
77.9722758704
 31
0.0
  0
LINE
  5
2EB
330
1F
100
AcDbEntity
  8
0
  6
Continuous
 62
     7
370
    25
100
AcDbLine
 10
283.2433501725
 20
77.9722758704
 30
0.0
 11
283.2433501725
 21
78.0722758704
 31
0.0
  0
LINE
  5
2EC
330
1F
100
AcDbEntity
  8
0
  6
Continuous
 62
     7
370
    25
100
AcDbLine
 10
283.2433501725
 20
81.2722758704
 30
0.0
 11
283.2433501725
 21
86.3722758704
 31
0.0
  0
ARC
  5
2ED
330
1F
100
AcDbEntity
  8
0
  6
Continuous
 62
     7
370
    25
100
AcDbCircle
 10
261.0433501725
 20
95.4722758705
 30
0.0
 40
0.5
100
AcDbArc
 50
360.0
 51
180.0
  0
ARC
  5
2EE
330
1F
100
AcDbEntity
  8
0
  6
Continuous
 62
     7
370
    25
100
AcDbCircle
 10
261.0433501725
 20
83.8722758703
 30
0.0
 40
0.5
100
AcDbArc
 50
180.0
 51
0.0
  0
LINE
  5
2EF
330
1F
100
AcDbEntity
  8
0
  6
Continuous
 62
     7
370
    25
100
AcDbLine
 10
251.0846001725
 20
92.6722758704
 30
0.0
 11
250.5433501725
 21
92.1310258705
 31
0.0
  0
LINE
  5
2F0
330
1F
100
AcDbEntity
  8
0
  6
Continuous
 62
     7
370
    25
100
AcDbLine
 10
250.5433501725
 20
87.2135258704
 30
0.0
 11
251.0846001725
 21
86.6722758704
 31
0.0
  0
LINE
  5
2F1
330
1F
100
AcDbEntity
  8
0
  6
Continuous
 62
     7
370
    25
100
AcDbLine
 10
251.0846001725
 20
86.6722758704
 30
0.0
 11
259.7433501725
 21
86.6722758704
 31
0.0
  0
LINE
  5
2F2
330
1F
100
AcDbEntity
  8
0
  6
Continuous
 62
     7
370
    25
100
AcDbLine
 10
259.7433501725
 20
92.6722758704
 30
0.0
 11
251.0846001725
 21
92.6722758704
 31
0.0
  0
LINE
  5
2F3
330
1F
100
AcDbEntity
  8
0
  6
Continuous
 62
     7
370
    25
100
AcDbLine
 10
265.5433501725
 20
94.6722758704
 30
0.0
 11
265.2138670767
 21
95.2429573325
 31
0.0
  0
LINE
  5
2F4
330
1F
100
AcDbEntity
  8
0
  6
Continuous
 62
     7
370
    25
100
AcDbLine
 10
265.2138670767
 20
84.1015944083
 30
0.0
 11
265.5433501725
 21
84.6722758704
 31
0.0
  0
LINE
  5
2F5
330
1F
100
AcDbEntity
  8
0
  6
Continuous
 62
     7
370
    25
100
AcDbLine
 10
258.2433501725
 20
66.4722758704
 30
0.0
 11
252.2433501725
 21
66.4722758704
 31
0.0
  0
LINE
  5
2F6
330
1F
100
AcDbEntity
  8
0
  6
Continuous
 62
     7
370
    25
100
AcDbLine
 10
567.2433501725
 20
66.4722758704
 30
0.0
 11
565.0712571492
 21
66.4722758704
 31
0.0
  0
LINE
  5
2F7
330
1F
100
AcDbEntity
  8
0
  6
Continuous
 62
     7
370
    25
100
AcDbLine
 10
260.4154431957
 20
66.4722758704
 30
0.0
 11
258.2433501725
 21
66.4722758704
 31
0.0
  0
LINE
  5
2F8
330
1F
100
AcDbEntity
  8
0
  6
Continuous
 62
     7
370
    25
100
AcDbLine
 10
573.2433501725
 20
66.4722758704
 30
0.0
 11
567.2433501725
 21
66.4722758704
 31
0.0
  0
SPLINE
  5
2F9
330
1F
100
AcDbEntity
  8
0
  6
Continuous
 62
     7
370
    25
100
AcDbSpline
210
0.0
220
0.0
230
1.0
 70
    24
 71
     3
 72
     9
 73
     5
 74
     0
 42
0.000000001
 43
0.00000001
 40
0.0
 40
0.0
 40
0.0
 40
0.0
 40
0.515394185966393
 40
1.0
 40
1.0
 40
1.0
 40
1.0
 10
564.9433501724214
 20
95.34728587043357
 30
0.0
 10
564.9433501724213
 20
95.39102771848978
 30
0.0
 10
564.9433501724214
 20
95.47589838495686
 30
0.0
 10
564.9433501724214
 20
95.45314194971341
 30
0.0
 10
564.9433501724214
 20
95.44211404888777
 30
0.0
  0
SPLINE
  5
2FA
330
1F
100
AcDbEntity
  8
0
  6
Continuous
 62
     7
370
    25
100
AcDbSpline
210
0.0
220
0.0
230
1.0
 70
    24
 71
     3
 72
    17
 73
    13
 74
     0
 42
0.000000001
 43
0.00000001
 40
0.0
 40
0.0
 40
0.0
 40
0.0
 40
0.0359921626376374
 40
0.1205930661280436
 40
0.2034359252874614
 40
0.3573281084250907
 40
0.5112202915627208
 40
0.5940631507221371
 40
0.6786640542125447
 40
0.7632649577029526
 40
0.8461078168623681
 40
1.0
 40
1.0
 40
1.0
 40
1.0
 10
563.9433501724213
 20
95.44211404889872
 30
0.0
 10
563.9433501724214
 20
95.44926543593998
 30
0.0
 10
563.9433501724214
 20
95.47322642153173
 30
0.0
 10
563.9433501724213
 20
95.25522149529608
 30
0.0
 10
563.9433501724213
 20
94.68343439820897
 30
0.0
 10
563.9433501724213
 20
93.48641782211867
 30
0.0
 10
563.9433501724213
 20
91.84036106224158
 30
0.0
 10
563.9433501724213
 20
90.35517071002778
 30
0.0
 10
563.9433501724213
 20
89.15914258565356
 30
0.0
 10
563.9433501724213
 20
87.98937717286415
 30
0.0
 10
563.9433501724213
 20
86.56742999228032
 30
0.0
 10
563.9433501724213
 20
85.75516271242017
 30
0.0
 10
563.9433501724213
 20
85.22713955295865
 30
0.0
  0
SPLINE
  5
2FB
330
1F
100
AcDbEntity
  8
0
  6
Continuous
 62
     7
370
    25
100
AcDbSpline
210
0.0
220
0.0
230
1.0
 70
     8
 71
     3
 72
     8
 73
     4
 74
     0
 42
0.000000001
 43
0.00000001
 40
0.0
 40
0.0
 40
0.0
 40
0.0
 40
1.0
 40
1.0
 40
1.0
 40
1.0
 10
559.9433501724286
 20
92.88407726811326
 30
0.0
 10
559.9433501724286
 20
92.12895646180533
 30
0.0
 10
560.117665472808
 20
91.39450298786188
 30
0.0
 10
560.3899321598198
 20
90.67166291709155
 30
0.0
  0
SPLINE
  5
2FC
330
1F
100
AcDbEntity
  8
0
  6
Continuous
 62
     7
370
    25
100
AcDbSpline
210
0.0
220
0.0
230
1.0
 70
     8
 71
     3
 72
     8
 73
     4
 74
     0
 42
0.000000001
 43
0.00000001
 40
0.0
 40
0.0
 40
0.0
 40
0.0
 40
1.0
 40
1.0
 40
1.0
 40
1.0
 10
560.3899321598198
 20
95.09649161913505
 30
0.0
 10
560.1176654728084
 20
94.37365154836577
 30
0.0
 10
559.9433501724286
 20
93.6391980744201
 30
0.0
 10
559.9433501724286
 20
92.88407726811326
 30
0.0
  0
LINE
  5
2FD
330
1F
100
AcDbEntity
  8
0
  6
Continuous
 62
     7
370
    25
100
AcDbLine
 10
560.3899321598
 20
95.0964916191
 30
0.0
 11
563.9433501724
 21
95.0964916191
 31
0.0
  0
LINE
  5
2FE
330
1F
100
AcDbEntity
  8
0
  6
Continuous
 62
     7
370
    25
100
AcDbLine
 10
563.9433501724
 20
90.6716629171
 30
0.0
 11
560.3899321598
 21
90.6716629171
 31
0.0
  0
SPLINE
  5
2FF
330
1F
100
AcDbEntity
  8
0
  6
Continuous
 62
     7
370
    25
100
AcDbSpline
210
0.0
220
0.0
230
1.0
 70
     8
 71
     3
 72
     8
 73
     4
 74
     0
 42
0.000000001
 43
0.00000001
 40
0.0
 40
0.0
 40
0.0
 40
0.0
 40
1.0
 40
1.0
 40
1.0
 40
1.0
 10
559.9433501724285
 20
87.95955504273626
 30
0.0
 10
559.9433501724285
 20
87.03388346411597
 30
0.0
 10
560.1176654728079
 20
86.13354711929668
 30
0.0
 10
560.3899321598198
 20
85.2474471683875
 30
0.0
  0
SPLINE
  5
300
330
1F
100
AcDbEntity
  8
0
  6
Continuous
 62
     7
370
    25
100
AcDbSpline
210
0.0
220
0.0
230
1.0
 70
     8
 71
     3
 72
     8
 73
     4
 74
     0
 42
0.000000001
 43
0.00000001
 40
0.0
 40
0.0
 40
0.0
 40
0.0
 40
1.0
 40
1.0
 40
1.0
 40
1.0
 10
560.3899321598198
 20
90.67166291708493
 30
0.0
 10
560.1176654728083
 20
89.78556296617742
 30
0.0
 10
559.9433501724285
 20
88.88522662135479
 30
0.0
 10
559.9433501724285
 20
87.95955504273626
 30
0.0
  0
LINE
  5
301
330
1F
100
AcDbEntity
  8
0
  6
Continuous
 62
     7
370
    25
100
AcDbLine
 10
563.9433501724
 20
85.2474471684
 30
0.0
 11
560.3899321598
 21
85.2474471684
 31
0.0
  0
LINE
  5
302
330
1F
100
AcDbEntity
  8
0
  6
Continuous
 62
     7
370
    25
100
AcDbLine
 10
559.9433501724
 20
92.8840772681
 30
0.0
 11
559.9433501724
 21
87.9595550427
 31
0.0
  0
SPLINE
  5
303
330
1F
100
AcDbEntity
  8
0
  6
Continuous
 62
     7
370
    25
100
AcDbSpline
210
0.0
220
0.0
230
1.0
 70
     8
 71
     3
 72
     8
 73
     4
 74
     0
 42
0.000000001
 43
0.00000001
 40
0.0
 40
0.0
 40
0.0
 40
0.0
 40
1.0
 40
1.0
 40
1.0
 40
1.0
 10
560.3899321598198
 20
85.24744716838306
 30
0.0
 10
560.1176654728084
 20
85.08418728824465
 30
0.0
 10
559.9433501724286
 20
84.91830441736823
 30
0.0
 10
559.9433501724286
 20
84.74775364505636
 30
0.0
  0
LINE
  5
304
330
1F
100
AcDbEntity
  8
0
  6
Continuous
 62
     7
370
    25
100
AcDbLine
 10
559.9433501724
 20
87.9595550427
 30
0.0
 11
559.9433501724
 21
84.7477536451
 31
0.0
  0
SPLINE
  5
305
330
1F
100
AcDbEntity
  8
0
  6
Continuous
 62
     7
370
    25
100
AcDbSpline
210
0.0
220
0.0
230
1.0
 70
     8
 71
     3
 72
     8
 73
     4
 74
     0
 42
0.000000001
 43
0.00000001
 40
0.0
 40
0.0
 40
0.0
 40
0.0
 40
1.0
 40
1.0
 40
1.0
 40
1.0
 10
559.9433501724286
 20
94.59679809581064
 30
0.0
 10
559.9433501724286
 20
94.76734886812297
 30
0.0
 10
560.1176654728077
 20
94.93323173899853
 30
0.0
 10
560.3899321598198
 20
95.09649161913735
 30
0.0
  0
LINE
  5
306
330
1F
100
AcDbEntity
  8
0
  6
Continuous
 62
     7
370
    25
100
AcDbLine
 10
559.9433501724
 20
92.8840772681
 30
0.0
 11
559.9433501724
 21
94.6676378362
 31
0.0
  0
SPLINE
  5
307
330
1F
100
AcDbEntity
  8
0
  6
Continuous
 62
     7
370
    25
100
AcDbSpline
210
0.0
220
0.0
230
1.0
 70
     8
 71
     3
 72
     8
 73
     4
 74
     0
 42
0.000000001
 43
0.00000001
 40
0.0
 40
0.0
 40
0.0
 40
0.0
 40
1.0
 40
1.0
 40
1.0
 40
1.0
 10
559.9433501724286
 20
84.74775364505636
 30
0.0
 10
559.9433501724286
 20
84.57720287274417
 30
0.0
 10
560.117665472808
 20
84.41132000186836
 30
0.0
 10
560.3899321598199
 20
84.24806012172965
 30
0.0
  0
LINE
  5
308
330
1F
100
AcDbEntity
  8
0
  6
Continuous
 62
     7
370
    25
100
AcDbLine
 10
563.9433501724
 20
84.2480601217
 30
0.0
 11
560.3899321598
 21
84.2480601217
 31
0.0
  0
LINE
  5
309
330
1F
100
AcDbEntity
  8
0
  6
Continuous
 62
     7
370
    25
100
AcDbLine
 10
574.4021001724
 20
91.599356709
 30
0.0
 11
574.4021001724
 21
92.6722758704
 31
0.0
  0
LINE
  5
30A
330
1F
100
AcDbEntity
  8
0
  6
Continuous
 62
     7
370
    25
100
AcDbLine
 10
574.4021001724
 20
86.6722758704
 30
0.0
 11
574.4021001724
 21
91.599356709
 31
0.0
  0
LINE
  5
30B
330
1F
100
AcDbEntity
  8
0
  6
Continuous
 62
     7
370
    25
100
AcDbLine
 10
574.9433501724
 20
87.2135258704
 30
0.0
 11
574.9433501724
 21
92.1310258705
 31
0.0
  0
ARC
  5
30C
330
1F
100
AcDbEntity
  8
0
  6
Continuous
 62
     7
370
    25
100
AcDbCircle
 10
567.2433501725
 20
67.0722758704
 30
0.0
 40
3.0
100
AcDbArc
 50
227.6305369016
 51
270.0
  0
LINE
  5
30D
330
1F
100
AcDbEntity
  8
0
  6
Continuous
 62
     7
370
    25
100
AcDbLine
 10
579.2433501725
 20
64.0722758704
 30
0.0
 11
567.2433501725
 21
64.0722758704
 31
0.0
  0
ARC
  5
30E
330
1F
100
AcDbEntity
  8
0
  6
Continuous
 62
     7
370
    25
100
AcDbCircle
 10
579.2433501725
 20
67.0722758704
 30
0.0
 40
3.0
100
AcDbArc
 50
270.0
 51
0.0
  0
LINE
  5
30F
330
1F
100
AcDbEntity
  8
0
  6
Continuous
 62
     7
370
    25
100
AcDbLine
 10
582.2433501725
 20
68.0722758704
 30
0.0
 11
582.2433501725
 21
67.0722758704
 31
0.0
  0
ARC
  5
310
330
1F
100
AcDbEntity
  8
0
  6
Continuous
 62
     7
370
    25
100
AcDbCircle
 10
585.2433501725
 20
68.0722758704
 30
0.0
 40
3.0
100
AcDbArc
 50
90.0
 51
180.0
  0
LINE
  5
311
330
1F
100
AcDbEntity
  8
0
  6
Continuous
 62
     7
370
    25
100
AcDbLine
 10
608.7726394944
 20
71.0722758704
 30
0.0
 11
585.2433501725
 21
71.0722758704
 31
0.0
  0
LINE
  5
312
330
1F
100
AcDbEntity
  8
0
  6
Continuous
 62
     7
370
    25
100
AcDbLine
 10
608.7726394944
 20
61.4722758704
 30
0.0
 11
608.7726394944
 21
71.0722758704
 31
0.0
  0
LINE
  5
313
330
1F
100
AcDbEntity
  8
0
  6
Continuous
 62
     7
370
    25
100
AcDbLine
 10
216.7140608506
 20
61.4722758704
 30
0.0
 11
216.7140608506
 21
71.0722758704
 31
0.0
  0
LINE
  5
314
330
1F
100
AcDbEntity
  8
0
  6
Continuous
 62
     7
370
    25
100
AcDbLine
 10
240.2433501725
 20
71.0722758704
 30
0.0
 11
216.7140608506
 21
71.0722758704
 31
0.0
  0
ARC
  5
315
330
1F
100
AcDbEntity
  8
0
  6
Continuous
 62
     7
370
    25
100
AcDbCircle
 10
240.2433501725
 20
68.0722758704
 30
0.0
 40
3.0
100
AcDbArc
 50
0.0
 51
90.0
  0
LINE
  5
316
330
1F
100
AcDbEntity
  8
0
  6
Continuous
 62
     7
370
    25
100
AcDbLine
 10
243.2433501725
 20
68.0722758704
 30
0.0
 11
243.2433501725
 21
67.0722758704
 31
0.0
  0
ARC
  5
317
330
1F
100
AcDbEntity
  8
0
  6
Continuous
 62
     7
370
    25
100
AcDbCircle
 10
246.2433501725
 20
67.0722758704
 30
0.0
 40
3.0
100
AcDbArc
 50
180.0
 51
270.0
  0
LINE
  5
318
330
1F
100
AcDbEntity
  8
0
  6
Continuous
 62
     7
370
    25
100
AcDbLine
 10
246.2433501725
 20
64.0722758704
 30
0.0
 11
258.2433501725
 21
64.0722758704
 31
0.0
  0
ARC
  5
319
330
1F
100
AcDbEntity
  8
0
  6
Continuous
 62
     7
370
    25
100
AcDbCircle
 10
258.2433501725
 20
67.0722758704
 30
0.0
 40
3.000000000000012
100
AcDbArc
 50
270.0
 51
312.3694630983
  0
SPLINE
  5
31A
330
1F
100
AcDbEntity
  8
0
  6
Continuous
 62
     7
370
    25
100
AcDbSpline
210
0.0
220
0.0
230
1.0
 70
     8
 71
     3
 72
    20
 73
    16
 74
     0
 42
0.000000001
 43
0.00000001
 40
0.0
 40
0.0
 40
0.0
 40
0.0
 40
0.1250000000000007
 40
0.1250000000000007
 40
0.2500000000000013
 40
0.2500000000000013
 40
0.375000000000002
 40
0.375000000000002
 40
0.5000000000000027
 40
0.5000000000000027
 40
0.750000000000004
 40
0.750000000000004
 40
0.875000000000002
 40
0.875000000000002
 40
1.0
 40
1.0
 40
1.0
 40
1.0
 10
217.6433501724775
 20
59.07227587043356
 30
0.0
 10
217.604309441623
 20
59.07227587043356
 30
0.0
 10
217.5657907374231
 20
59.08781243090841
 30
0.0
 10
217.4883839861153
 20
59.14913078286901
 30
0.0
 10
217.4492395681285
 20
59.19555452845582
 30
0.0
 10
217.3720888142133
 20
59.31550539860995
 30
0.0
 10
217.3337612324723
 20
59.38911004289334
 30
0.0
 10
217.2562149119957
 20
59.56384040898897
 30
0.0
 10
217.2172387043271
 20
59.66469103789053
 30
0.0
 10
217.101743847882
 20
59.99597631787447
 30
0.0
 10
217.0238314042119
 20
60.26365647925835
 30
0.0
 10
216.9083514788111
 20
60.69633050531375
 30
0.0
 10
216.869485682946
 20
60.84784859216489
 30
0.0
 10
216.7917113492775
 20
61.15727434955101
 30
0.0
 10
216.7531015823228
 20
61.31389667924478
 30
0.0
 10
216.7140608505961
 20
61.47227587043351
 30
0.0
  0
SPLINE
  5
31B
330
1F
100
AcDbEntity
  8
0
  6
Continuous
 62
     7
370
    25
100
AcDbSpline
210
0.0
220
0.0
230
1.0
 70
     8
 71
     3
 72
    20
 73
    16
 74
     0
 42
0.000000001
 43
0.00000001
 40
0.0
 40
0.0
 40
0.0
 40
0.0
 40
0.1249999999999993
 40
0.1249999999999993
 40
0.2499999999999987
 40
0.2499999999999987
 40
0.374999999999998
 40
0.374999999999998
 40
0.4999999999999973
 40
0.4999999999999973
 40
0.7500000000000012
 40
0.7500000000000012
 40
0.8750000000000006
 40
0.8750000000000006
 40
1.0
 40
1.0
 40
1.0
 40
1.0
 10
608.7726394943589
 20
61.47227587043355
 30
0.0
 10
608.7335987635043
 20
61.31389668278285
 30
0.0
 10
608.6950800593046
 20
61.15765095809117
 30
0.0
 10
608.6176733079967
 20
60.84965910867457
 30
0.0
 10
608.5785288900098
 20
60.69701500120345
 30
0.0
 10
608.5013781360947
 20
60.40793071201638
 30
0.0
 10
608.4630505543537
 20
60.27012617383234
 30
0.0
 10
608.3855042338772
 20
60.00850749819343
 30
0.0
 10
608.3465280262085
 20
59.88576119151077
 30
0.0
 10
608.2310331697635
 20
59.55443681456308
 30
0.0
 10
608.1531207260934
 20
59.37542569053485
 30
0.0
 10
608.0376408006924
 20
59.19581059115396
 30
0.0
 10
607.9987750048275
 20
59.14956624228625
 30
0.0
 10
607.9210006711589
 20
59.08781293627502
 30
0.0
 10
607.8823909042042
 20
59.07227587043357
 30
0.0
 10
607.8433501724775
 20
59.07227587043356
 30
0.0
  0
LINE
  5
31C
330
1F
100
AcDbEntity
  8
0
  6
Continuous
 62
     7
370
    25
100
AcDbLine
 10
607.8433501725
 20
59.0722758704
 30
0.0
 11
217.6433501725
 21
59.0722758704
 31
0.0
  0
SPLINE
  5
31D
330
1F
100
AcDbEntity
  8
0
  6
Continuous
 62
     7
370
    25
100
AcDbSpline
210
0.0
220
0.0
230
1.0
 70
     8
 71
     3
 72
    20
 73
    16
 74
     0
 42
0.000000001
 43
0.00000001
 40
0.0
 40
0.0
 40
0.0
 40
0.0
 40
0.125
 40
0.125
 40
0.25
 40
0.25
 40
0.375
 40
0.375
 40
0.5
 40
0.5
 40
0.75
 40
0.75
 40
0.8749999999999999
 40
0.8749999999999999
 40
1.0
 40
1.0
 40
1.0
 40
1.0
 10
607.8433501724775
 20
59.07227587043354
 30
0.0
 10
608.0017293601283
 20
59.07227587043354
 30
0.0
 10
608.1579750848199
 20
59.08781243090839
 30
0.0
 10
608.4659669342365
 20
59.149130782869
 30
0.0
 10
608.6186110417077
 20
59.19555452845582
 30
0.0
 10
608.9076953308947
 20
59.31550539860995
 30
0.0
 10
609.0454998690788
 20
59.38911004289335
 30
0.0
 10
609.3071185447177
 20
59.56384040898899
 30
0.0
 10
609.4298648514002
 20
59.66469103789054
 30
0.0
 10
609.761189228348
 20
59.99597631787449
 30
0.0
 10
609.9402003523763
 20
60.26365647925835
 30
0.0
 10
610.1198154517573
 20
60.69633050531377
 30
0.0
 10
610.1660598006248
 20
60.84784859216491
 30
0.0
 10
610.227813106636
 20
61.15727434955102
 30
0.0
 10
610.2433501724774
 20
61.31389667924481
 30
0.0
 10
610.2433501724776
 20
61.47227587043353
 30
0.0
  0
SPLINE
  5
31E
330
1F
100
AcDbEntity
  8
0
  6
Continuous
 62
     7
370
    25
100
AcDbSpline
210
0.0
220
0.0
230
1.0
 70
     8
 71
     3
 72
     9
 73
     5
 74
     0
 42
0.000000001
 43
0.00000001
 40
0.0
 40
0.0
 40
0.0
 40
0.0
 40
0.4825784287291901
 40
1.0
 40
1.0
 40
1.0
 40
1.0
 10
608.6195204044241
 20
60.85973613125554
 30
0.0
 10
608.6833285974853
 20
60.94787047257191
 30
0.0
 10
608.8155520647244
 20
61.13050263362492
 30
0.0
 10
608.833871369181
 20
61.35573551766939
 30
0.0
 10
608.8433501724775
 20
61.47227587043354
 30
0.0
  0
LINE
  5
31F
330
1F
100
AcDbEntity
  8
0
  6
Continuous
 62
     7
370
    25
100
AcDbLine
 10
610.2433501725
 20
61.4722758704
 30
0.0
 11
608.8433501725
 21
61.4722758704
 31
0.0
  0
LINE
  5
320
330
1F
100
AcDbEntity
  8
0
  6
Continuous
 62
     7
370
    25
100
AcDbLine
 10
215.2433501725
 20
61.4722758704
 30
0.0
 11
216.6433501725
 21
61.4722758704
 31
0.0
  0
SPLINE
  5
321
330
1F
100
AcDbEntity
  8
0
  6
Continuous
 62
     7
370
    25
100
AcDbSpline
210
0.0
220
0.0
230
1.0
 70
     8
 71
     3
 72
     9
 73
     5
 74
     0
 42
0.000000001
 43
0.00000001
 40
0.0
 40
0.0
 40
0.0
 40
0.0
 40
0.6784508005729186
 40
1.0
 40
1.0
 40
1.0
 40
1.0
 10
216.6433501724775
 20
61.47227587043354
 30
0.0
 10
216.6565997429419
 20
61.32156866598025
 30
0.0
 10
216.676128897382
 20
61.09943435008582
 30
0.0
 10
216.816976551021
 20
60.93260124519665
 30
0.0
 10
216.8622660012898
 20
60.87895619388161
 30
0.0
  0
SPLINE
  5
322
330
1F
100
AcDbEntity
  8
0
  6
Continuous
 62
     7
370
    25
100
AcDbSpline
210
0.0
220
0.0
230
1.0
 70
     8
 71
     3
 72
    20
 73
    16
 74
     0
 42
0.000000001
 43
0.00000001
 40
0.0
 40
0.0
 40
0.0
 40
0.0
 40
0.1249999999999993
 40
0.1249999999999993
 40
0.2499999999999987
 40
0.2499999999999987
 40
0.374999999999998
 40
0.374999999999998
 40
0.4999999999999973
 40
0.4999999999999973
 40
0.7499999999999987
 40
0.7499999999999987
 40
0.8749999999999993
 40
0.8749999999999993
 40
1.0
 40
1.0
 40
1.0
 40
1.0
 10
215.2433501724775
 20
61.47227587043353
 30
0.0
 10
215.2433501724775
 20
61.31389668278284
 30
0.0
 10
215.2588867329523
 20
61.15765095809117
 30
0.0
 10
215.3202050849129
 20
60.84965910867454
 30
0.0
 10
215.3666288304997
 20
60.69701500120341
 30
0.0
 10
215.4865797006539
 20
60.40793071201634
 30
0.0
 10
215.5601843449373
 20
60.2701261738323
 30
0.0
 10
215.734914711033
 20
60.0085074981934
 30
0.0
 10
215.8357653399345
 20
59.88576119151073
 30
0.0
 10
216.1670506199185
 20
59.55443681456305
 30
0.0
 10
216.4347307813023
 20
59.3754256905348
 30
0.0
 10
216.8674048073578
 20
59.19581059115392
 30
0.0
 10
217.0189228942089
 20
59.14956624228621
 30
0.0
 10
217.328348651595
 20
59.08781293627499
 30
0.0
 10
217.4849709812887
 20
59.07227587043354
 30
0.0
 10
217.6433501724775
 20
59.07227587043354
 30
0.0
  0
LINE
  5
323
330
1F
100
AcDbEntity
  8
0
  6
Continuous
 62
     7
370
    25
100
AcDbLine
 10
610.2433501725
 20
71.0722758704
 30
0.0
 11
608.8433501725
 21
71.0722758704
 31
0.0
  0
LINE
  5
324
330
1F
100
AcDbEntity
  8
0
  6
Continuous
 62
     7
370
    25
100
AcDbLine
 10
608.8433501725
 20
61.4722758704
 30
0.0
 11
608.8433501725
 21
71.0722758704
 31
0.0
  0
LINE
  5
325
330
1F
100
AcDbEntity
  8
0
  6
Continuous
 62
     7
370
    25
100
AcDbLine
 10
610.2433501725
 20
61.4722758704
 30
0.0
 11
610.2433501725
 21
71.0722758704
 31
0.0
  0
LINE
  5
326
330
1F
100
AcDbEntity
  8
0
  6
Continuous
 62
     7
370
    25
100
AcDbLine
 10
215.2433501725
 20
61.4722758704
 30
0.0
 11
215.2433501725
 21
71.0722758704
 31
0.0
  0
LINE
  5
327
330
1F
100
AcDbEntity
  8
0
  6
Continuous
 62
     7
370
    25
100
AcDbLine
 10
216.6433501725
 20
61.4722758704
 30
0.0
 11
216.6433501725
 21
71.0722758704
 31
0.0
  0
LINE
  5
328
330
1F
100
AcDbEntity
  8
0
  6
Continuous
 62
     7
370
    25
100
AcDbLine
 10
215.2433501725
 20
71.0722758704
 30
0.0
 11
216.6433501725
 21
71.0722758704
 31
0.0
  0
LINE
  5
329
330
1F
100
AcDbEntity
  8
0
  6
Continuous
 62
     7
370
    25
100
AcDbLine
 10
565.7433501725
 20
95.1722758704
 30
0.0
 11
565.7433501725
 21
78.1722758704
 31
0.0
  0
LINE
  5
32A
330
1F
100
AcDbEntity
  8
0
  6
Continuous
 62
     7
370
    25
100
AcDbLine
 10
564.9433501725
 20
95.1722758704
 30
0.0
 11
564.9433501725
 21
78.1722758704
 31
0.0
  0
LINE
  5
32B
330
1F
100
AcDbEntity
  8
0
  6
Continuous
 62
     7
370
    25
100
AcDbLine
 10
564.9433501725
 20
98.1722758704
 30
0.0
 11
565.7433501725
 21
98.1722758704
 31
0.0
  0
LINE
  5
32C
330
1F
100
AcDbEntity
  8
0
  6
Continuous
 62
     7
370
    25
100
AcDbLine
 10
565.7433501725
 20
98.1722758704
 30
0.0
 11
565.7433501725
 21
95.1722758704
 31
0.0
  0
LINE
  5
32D
330
1F
100
AcDbEntity
  8
0
  6
Continuous
 62
     7
370
    25
100
AcDbLine
 10
564.9433501725
 20
95.1722758704
 30
0.0
 11
564.9433501725
 21
98.1722758704
 31
0.0
  0
LINE
  5
32E
330
1F
100
AcDbEntity
  8
0
  6
Continuous
 62
     7
370
    25
100
AcDbLine
 10
260.5433501725
 20
78.1722758704
 30
0.0
 11
260.5433501725
 21
95.1722758704
 31
0.0
  0
LINE
  5
32F
330
1F
100
AcDbEntity
  8
0
  6
Continuous
 62
     7
370
    25
100
AcDbLine
 10
259.7433501725
 20
78.1722758704
 30
0.0
 11
259.7433501725
 21
95.1722758704
 31
0.0
  0
LINE
  5
330
330
1F
100
AcDbEntity
  8
0
  6
Continuous
 62
     7
370
    25
100
AcDbLine
 10
259.7433501725
 20
98.1722758704
 30
0.0
 11
260.5433501725
 21
98.1722758704
 31
0.0
  0
LINE
  5
331
330
1F
100
AcDbEntity
  8
0
  6
Continuous
 62
     7
370
    25
100
AcDbLine
 10
260.5433501725
 20
98.1722758704
 30
0.0
 11
260.5433501725
 21
95.1722758704
 31
0.0
  0
LINE
  5
332
330
1F
100
AcDbEntity
  8
0
  6
Continuous
 62
     7
370
    25
100
AcDbLine
 10
259.7433501725
 20
95.1722758704
 30
0.0
 11
259.7433501725
 21
98.1722758704
 31
0.0
  0
LINE
  5
333
330
1F
100
AcDbEntity
  8
0
  6
Continuous
 62
     7
370
    25
100
AcDbLine
 10
565.7433501725
 20
75.1722758704
 30
0.0
 11
564.9433501725
 21
75.1722758704
 31
0.0
  0
LINE
  5
334
330
1F
100
AcDbEntity
  8
0
  6
Continuous
 62
     7
370
    25
100
AcDbLine
 10
565.7433501725
 20
78.1722758704
 30
0.0
 11
565.7433501725
 21
75.1722758704
 31
0.0
  0
LINE
  5
335
330
1F
100
AcDbEntity
  8
0
  6
Continuous
 62
     7
370
    25
100
AcDbLine
 10
564.9433501725
 20
75.1722758704
 30
0.0
 11
564.9433501725
 21
78.1722758704
 31
0.0
  0
LINE
  5
336
330
1F
100
AcDbEntity
  8
0
  6
Continuous
 62
     7
370
    25
100
AcDbLine
 10
260.5433501725
 20
75.1722758704
 30
0.0
 11
259.7433501725
 21
75.1722758704
 31
0.0
  0
LINE
  5
337
330
1F
100
AcDbEntity
  8
0
  6
Continuous
 62
     7
370
    25
100
AcDbLine
 10
260.5433501725
 20
78.1722758704
 30
0.0
 11
260.5433501725
 21
75.1722758704
 31
0.0
  0
LINE
  5
338
330
1F
100
AcDbEntity
  8
0
  6
Continuous
 62
     7
370
    25
100
AcDbLine
 10
259.7433501725
 20
75.1722758704
 30
0.0
 11
259.7433501725
 21
78.1722758704
 31
0.0
  0
LINE
  5
339
330
1F
100
AcDbEntity
  8
0
  6
Continuous
 62
     7
370
    25
100
AcDbLine
 10
562.7433501725
 20
77.1722758704
 30
0.0
 11
562.7433501725
 21
77.9722758704
 31
0.0
  0
LINE
  5
33A
330
1F
100
AcDbEntity
  8
0
  6
Continuous
 62
     7
370
    25
100
AcDbLine
 10
262.7433501725
 20
77.1722758704
 30
0.0
 11
262.7433501725
 21
77.9722758704
 31
0.0
  0
LINE
  5
33B
330
1F
100
AcDbEntity
  8
0
  6
Continuous
 62
     7
370
    25
100
AcDbLine
 10
562.7433501725
 20
77.9722758704
 30
0.0
 11
262.7433501725
 21
77.9722758704
 31
0.0
  0
LINE
  5
33C
330
1F
100
AcDbEntity
  8
0
  6
Continuous
 62
     7
370
    25
100
AcDbLine
 10
338.2433501725
 20
118.0768892622
 30
0.0
 11
338.2433501725
 21
111.5591978086
 31
0.0
  0
LINE
  5
33D
330
1F
100
AcDbEntity
  8
0
  6
Continuous
 62
     7
370
    25
100
AcDbLine
 10
488.2433501725
 20
111.5591978086
 30
0.0
 11
488.2433501725
 21
118.0768892622
 31
0.0
  0
LINE
  5
33E
330
1F
100
AcDbEntity
  8
0
  6
Continuous
 62
     7
370
    25
100
AcDbLine
 10
485.2433501725
 20
121.0768892622
 30
0.0
 11
341.2433501725
 21
121.0768892622
 31
0.0
  0
ARC
  5
33F
330
1F
100
AcDbEntity
  8
0
  6
Continuous
 62
     7
370
    25
100
AcDbCircle
 10
341.2433501725
 20
118.0768892622
 30
0.0
 40
3.0
100
AcDbArc
 50
90.0
 51
180.0
  0
ARC
  5
340
330
1F
100
AcDbEntity
  8
0
  6
Continuous
 62
     7
370
    25
100
AcDbCircle
 10
485.2433501725
 20
118.0768892622
 30
0.0
 40
3.0
100
AcDbArc
 50
0.0
 51
90.0
  0
LINE
  5
341
330
1F
100
AcDbEntity
  8
0
  6
Continuous
 62
     7
370
    25
100
AcDbLine
 10
338.2433501725
 20
110.6591978086
 30
0.0
 11
338.2433501725
 21
111.5591978086
 31
0.0
  0
LINE
  5
342
330
1F
100
AcDbEntity
  8
0
  6
Continuous
 62
     7
370
    25
100
AcDbLine
 10
488.2433501725
 20
111.5591978086
 30
0.0
 11
488.2433501725
 21
110.6591978086
 31
0.0
  0
LINE
  5
343
330
1F
100
AcDbEntity
  8
0
  6
Continuous
 62
     7
370
    25
100
AcDbLine
 10
488.2433501725
 20
110.6591978086
 30
0.0
 11
488.2433501725
 21
104.034326678
 31
0.0
  0
LINE
  5
344
330
1F
100
AcDbEntity
  8
0
  6
Continuous
 62
     7
370
    25
100
AcDbLine
 10
338.2433501725
 20
104.034326678
 30
0.0
 11
338.2433501725
 21
110.6591978086
 31
0.0
  0
LINE
  5
345
330
1F
100
AcDbEntity
  8
0
  6
Continuous
 62
     7
370
    25
100
AcDbLine
 10
564.9433501725
 20
98.1722758704
 30
0.0
 11
563.9433501725
 21
98.1722758704
 31
0.0
  0
LINE
  5
346
330
1F
100
AcDbEntity
  8
0
  6
Continuous
 62
     7
370
    25
100
AcDbLine
 10
563.9433501725
 20
79.1722758704
 30
0.0
 11
564.9433501725
 21
79.1722758704
 31
0.0
  0
LINE
  5
347
330
1F
100
AcDbEntity
  8
0
  6
Continuous
 62
     7
370
    25
100
AcDbLine
 10
260.5433501725
 20
79.1722758704
 30
0.0
 11
261.5433501725
 21
79.1722758704
 31
0.0
  0
LINE
  5
348
330
1F
100
AcDbEntity
  8
0
  6
Continuous
 62
     7
370
    25
100
AcDbLine
 10
261.5433501725
 20
98.1722758704
 30
0.0
 11
260.5433501725
 21
98.1722758704
 31
0.0
  0
LINE
  5
349
330
1F
100
AcDbEntity
  8
0
  6
Continuous
 62
     7
370
    25
100
AcDbLine
 10
262.7433501725
 20
78.9722758704
 30
0.0
 11
262.7433501725
 21
77.9722758704
 31
0.0
  0
LINE
  5
34A
330
1F
100
AcDbEntity
  8
0
  6
Continuous
 62
     7
370
    25
100
AcDbLine
 10
562.7433501725
 20
77.9722758704
 30
0.0
 11
562.7433501725
 21
78.9722758704
 31
0.0
  0
LINE
  5
34B
330
1F
100
AcDbEntity
  8
0
  6
Continuous
 62
     7
370
    25
100
AcDbLine
 10
338.2433501725
 20
104.034326678
 30
0.0
 11
338.2433501725
 21
103.534326678
 31
0.0
  0
LINE
  5
34C
330
1F
100
AcDbEntity
  8
0
  6
Continuous
 62
     7
370
    25
100
AcDbLine
 10
488.2433501725
 20
103.534326678
 30
0.0
 11
488.2433501725
 21
104.034326678
 31
0.0
  0
LINE
  5
34D
330
1F
100
AcDbEntity
  8
0
  6
Continuous
 62
     7
370
    25
100
AcDbLine
 10
563.9433501725
 20
98.1722758704
 30
0.0
 11
560.7433501725
 21
98.1722758704
 31
0.0
  0
LINE
  5
34E
330
1F
100
AcDbEntity
  8
0
  6
Continuous
 62
     7
370
    25
100
AcDbLine
 10
562.7433501725
 20
79.1722758704
 30
0.0
 11
563.9433501725
 21
79.1722758704
 31
0.0
  0
LINE
  5
34F
330
1F
100
AcDbEntity
  8
0
  6
Continuous
 62
     7
370
    25
100
AcDbLine
 10
562.7433501725
 20
78.9722758704
 30
0.0
 11
562.7433501725
 21
79.1722758704
 31
0.0
  0
LINE
  5
350
330
1F
100
AcDbEntity
  8
0
  6
Continuous
 62
     7
370
    25
100
AcDbLine
 10
262.7433501725
 20
79.1722758704
 30
0.0
 11
262.7433501725
 21
78.9722758704
 31
0.0
  0
LINE
  5
351
330
1F
100
AcDbEntity
  8
0
  6
Continuous
 62
     7
370
    25
100
AcDbLine
 10
261.5433501725
 20
79.1722758704
 30
0.0
 11
262.7433501725
 21
79.1722758704
 31
0.0
  0
LINE
  5
352
330
1F
100
AcDbEntity
  8
0
  6
Continuous
 62
     7
370
    25
100
AcDbLine
 10
264.7433501725
 20
98.1722758704
 30
0.0
 11
261.5433501725
 21
98.1722758704
 31
0.0
  0
LINE
  5
353
330
1F
100
AcDbEntity
  8
0
  6
Continuous
 62
     7
370
    25
100
AcDbLine
 10
264.7433501725
 20
119.1722758704
 30
0.0
 11
264.7433501725
 21
98.1722758704
 31
0.0
  0
ARC
  5
354
330
1F
100
AcDbEntity
  8
0
  6
Continuous
 62
     7
370
    25
100
AcDbCircle
 10
267.7433501725
 20
119.1722758704
 30
0.0
 40
3.0
100
AcDbArc
 50
90.0
 51
180.0
  0
LINE
  5
355
330
1F
100
AcDbEntity
  8
0
  6
Continuous
 62
     7
370
    25
100
AcDbLine
 10
332.7433501725
 20
122.1722758704
 30
0.0
 11
267.7433501725
 21
122.1722758704
 31
0.0
  0
ARC
  5
356
330
1F
100
AcDbEntity
  8
0
  6
Continuous
 62
     7
370
    25
100
AcDbCircle
 10
332.7433501725
 20
119.1722758704
 30
0.0
 40
3.0
100
AcDbArc
 50
0.0
 51
90.0
  0
LINE
  5
357
330
1F
100
AcDbEntity
  8
0
  6
Continuous
 62
     7
370
    25
100
AcDbLine
 10
335.7433501725
 20
119.1722758704
 30
0.0
 11
335.7433501725
 21
103.0422758704
 31
0.0
  0
LINE
  5
358
330
1F
100
AcDbEntity
  8
0
  6
Continuous
 62
     7
370
    25
100
AcDbLine
 10
335.7433501725
 20
103.0422758704
 30
0.0
 11
338.2433501725
 21
103.0422758704
 31
0.0
  0
LINE
  5
359
330
1F
100
AcDbEntity
  8
0
  6
Continuous
 62
     7
370
    25
100
AcDbLine
 10
338.2433501725
 20
103.534326678
 30
0.0
 11
338.2433501725
 21
103.0422758704
 31
0.0
  0
LINE
  5
35A
330
1F
100
AcDbEntity
  8
0
  6
Continuous
 62
     7
370
    25
100
AcDbLine
 10
488.2433501725
 20
103.534326678
 30
0.0
 11
488.2433501725
 21
103.0422758704
 31
0.0
  0
LINE
  5
35B
330
1F
100
AcDbEntity
  8
0
  6
Continuous
 62
     7
370
    25
100
AcDbLine
 10
488.2433501725
 20
103.0422758704
 30
0.0
 11
490.7433501725
 21
103.0422758704
 31
0.0
  0
LINE
  5
35C
330
1F
100
AcDbEntity
  8
0
  6
Continuous
 62
     7
370
    25
100
AcDbLine
 10
490.7433501725
 20
103.0422758704
 30
0.0
 11
490.7433501725
 21
119.1722758704
 31
0.0
  0
ARC
  5
35D
330
1F
100
AcDbEntity
  8
0
  6
Continuous
 62
     7
370
    25
100
AcDbCircle
 10
493.7433501725
 20
119.1722758704
 30
0.0
 40
3.0
100
AcDbArc
 50
90.0
 51
180.0
  0
LINE
  5
35E
330
1F
100
AcDbEntity
  8
0
  6
Continuous
 62
     7
370
    25
100
AcDbLine
 10
557.7433501725
 20
122.1722758704
 30
0.0
 11
493.7433501725
 21
122.1722758704
 31
0.0
  0
ARC
  5
35F
330
1F
100
AcDbEntity
  8
0
  6
Continuous
 62
     7
370
    25
100
AcDbCircle
 10
557.7433501725
 20
119.1722758704
 30
0.0
 40
3.0
100
AcDbArc
 50
0.0
 51
90.0
  0
LINE
  5
360
330
1F
100
AcDbEntity
  8
0
  6
Continuous
 62
     7
370
    25
100
AcDbLine
 10
560.7433501725
 20
98.1722758704
 30
0.0
 11
560.7433501725
 21
119.1722758704
 31
0.0
  0
SPLINE
  5
361
330
1F
100
AcDbEntity
  8
0
  6
Continuous
 62
     7
370
    25
100
AcDbSpline
210
0.0
220
0.0
230
1.0
 70
     8
 71
     3
 72
    12
 73
     8
 74
     0
 42
0.000000001
 43
0.00000001
 40
0.0
 40
0.0
 40
0.0
 40
0.0
 40
0.5000000000000077
 40
0.5000000000000077
 40
0.7500000000000038
 40
0.7500000000000038
 40
1.0
 40
1.0
 40
1.0
 40
1.0
 10
547.3790898953337
 20
80.75759588504852
 30
0.0
 10
546.7625595054134
 20
80.94809017447203
 30
0.0
 10
546.1367916329635
 20
81.0697645875344
 30
0.0
 10
545.1737299235787
 20
81.07042077806564
 30
0.0
 10
544.8530368884491
 20
81.04058677627125
 30
0.0
 10
544.2230786384531
 20
80.93165690616367
 30
0.0
 10
543.911849370422
 20
80.85296171910078
 30
0.0
 10
543.6032000401375
 20
80.75759588504802
 30
0.0
  0
LINE
  5
362
330
1F
100
AcDbEntity
  8
0
  6
Continuous
 62
     7
370
    25
100
AcDbLine
 10
547.3790898953
 20
80.757595885
 30
0.0
 11
547.3790898953
 21
78.5869558558
 31
0.0
  0
SPLINE
  5
363
330
1F
100
AcDbEntity
  8
0
  6
Continuous
 62
     7
370
    25
100
AcDbSpline
210
0.0
220
0.0
230
1.0
 70
     8
 71
     3
 72
    12
 73
     8
 74
     0
 42
0.000000001
 43
0.00000001
 40
0.0
 40
0.0
 40
0.0
 40
0.0
 40
0.4999999999999887
 40
0.4999999999999887
 40
0.7499999999999943
 40
0.7499999999999943
 40
1.0
 40
1.0
 40
1.0
 40
1.0
 10
543.6032000401375
 20
78.58695585581856
 30
0.0
 10
544.2197304300578
 20
78.39646156639503
 30
0.0
 10
544.8454983025075
 20
78.27478715333267
 30
0.0
 10
545.8085600118925
 20
78.27413096280144
 30
0.0
 10
546.1292530470221
 20
78.30396496459582
 30
0.0
 10
546.759211297018
 20
78.41289483470341
 30
0.0
 10
547.0704405650489
 20
78.49159002176629
 30
0.0
 10
547.3790898953337
 20
78.58695585581904
 30
0.0
  0
LINE
  5
364
330
1F
100
AcDbEntity
  8
0
  6
Continuous
 62
     7
370
    25
100
AcDbLine
 10
543.6032000401
 20
80.757595885
 30
0.0
 11
543.6032000401
 21
78.5869558558
 31
0.0
  0
SPLINE
  5
365
330
1F
100
AcDbEntity
  8
0
  6
Continuous
 62
     7
370
    25
100
AcDbSpline
210
0.0
220
0.0
230
1.0
 70
     8
 71
     3
 72
    14
 73
    10
 74
     0
 42
0.000000001
 43
0.00000001
 40
0.0
 40
0.0
 40
0.0
 40
0.0
 40
0.25
 40
0.25
 40
0.5
 40
0.5
 40
0.75
 40
0.75
 40
1.0
 40
1.0
 40
1.0
 40
1.0
 10
547.3790898953335
 20
80.75759588504754
 30
0.0
 10
547.4311476042243
 20
80.85247049435814
 30
0.0
 10
547.4844811425525
 20
80.9320754192339
 30
0.0
 10
547.5914131501804
 20
81.04091203412813
 30
0.0
 10
547.6451665166281
 20
81.07023563981863
 30
0.0
 10
547.7533455680518
 20
81.07017085807303
 30
0.0
 10
547.8081742646398
 20
81.04001466474666
 30
0.0
 10
547.9150812472997
 20
80.93042946338097
 30
0.0
 10
547.967502762272
 20
80.85188648957879
 30
0.0
 10
548.0192400276741
 20
80.75759588504752
 30
0.0
  0
SPLINE
  5
366
330
1F
100
AcDbEntity
  8
0
  6
Continuous
 62
     7
370
    25
100
AcDbSpline
210
0.0
220
0.0
230
1.0
 70
     8
 71
     3
 72
    12
 73
     8
 74
     0
 42
0.000000001
 43
0.00000001
 40
0.0
 40
0.0
 40
0.0
 40
0.0
 40
0.4999999999999921
 40
0.4999999999999921
 40
0.749999999999996
 40
0.749999999999996
 40
1.0
 40
1.0
 40
1.0
 40
1.0
 10
543.6032000401377
 20
80.75759588504852
 30
0.0
 10
543.0911938884328
 20
80.94809017447203
 30
0.0
 10
542.5715163421646
 20
81.0697645875344
 30
0.0
 10
541.7717284846021
 20
81.07042077806564
 30
0.0
 10
541.5054045377541
 20
81.04058677627124
 30
0.0
 10
540.9822470347526
 20
80.93165690616367
 30
0.0
 10
540.7237824036043
 20
80.85296171910078
 30
0.0
 10
540.4674603172822
 20
80.75759588504802
 30
0.0
  0
SPLINE
  5
367
330
1F
100
AcDbEntity
  8
0
  6
Continuous
 62
     7
370
    25
100
AcDbSpline
210
0.0
220
0.0
230
1.0
 70
     8
 71
     3
 72
     9
 73
     5
 74
     0
 42
0.000000001
 43
0.00000001
 40
0.0
 40
0.0
 40
0.0
 40
0.0
 40
0.3722348086954455
 40
1.0
 40
1.0
 40
1.0
 40
1.0
 10
540.4674603172823
 20
80.75759588504752
 30
0.0
 10
540.4954265509541
 20
80.80952019382111
 30
0.0
 10
540.5705571755449
 20
80.94901361990762
 30
0.0
 10
540.6491010337015
 20
80.95702234601274
 30
0.0
 10
540.698408133843
 20
80.96204994548822
 30
0.0
  0
LINE
  5
368
330
1F
100
AcDbEntity
  8
0
  6
Continuous
 62
     7
370
    25
100
AcDbLine
 10
547.3933501725
 20
81.2722758704
 30
0.0
 11
541.0933501725
 21
81.2722758704
 31
0.0
  0
SPLINE
  5
369
330
1F
100
AcDbEntity
  8
0
  6
Continuous
 62
     7
370
    25
100
AcDbSpline
210
0.0
220
0.0
230
1.0
 70
     8
 71
     3
 72
     9
 73
     5
 74
     0
 42
0.000000001
 43
0.00000001
 40
0.0
 40
0.0
 40
0.0
 40
0.0
 40
0.6277651913045467
 40
1.0
 40
1.0
 40
1.0
 40
1.0
 10
540.698408133843
 20
78.38250179537887
 30
0.0
 10
540.6491010337015
 20
78.38752939485435
 30
0.0
 10
540.5705571755449
 20
78.39553812095947
 30
0.0
 10
540.4954265509541
 20
78.53503154704597
 30
0.0
 10
540.4674603172823
 20
78.58695585581954
 30
0.0
  0
SPLINE
  5
36A
330
1F
100
AcDbEntity
  8
0
  6
Continuous
 62
     7
370
    25
100
AcDbSpline
210
0.0
220
0.0
230
1.0
 70
     8
 71
     3
 72
    12
 73
     8
 74
     0
 42
0.000000001
 43
0.00000001
 40
0.0
 40
0.0
 40
0.0
 40
0.0
 40
0.5000000000000078
 40
0.5000000000000078
 40
0.7500000000000039
 40
0.7500000000000039
 40
1.0
 40
1.0
 40
1.0
 40
1.0
 10
540.4674603172822
 20
78.58695585581856
 30
0.0
 10
540.9794664689871
 20
78.39646156639505
 30
0.0
 10
541.4991440152553
 20
78.27478715333267
 30
0.0
 10
542.2989318728179
 20
78.27413096280144
 30
0.0
 10
542.5652558196659
 20
78.30396496459582
 30
0.0
 10
543.0884133226673
 20
78.41289483470341
 30
0.0
 10
543.3468779538156
 20
78.4915900217663
 30
0.0
 10
543.6032000401376
 20
78.58695585581904
 30
0.0
  0
SPLINE
  5
36B
330
1F
100
AcDbEntity
  8
0
  6
Continuous
 62
     7
370
    25
100
AcDbSpline
210
0.0
220
0.0
230
1.0
 70
     8
 71
     3
 72
    14
 73
    10
 74
     0
 42
0.000000001
 43
0.00000001
 40
0.0
 40
0.0
 40
0.0
 40
0.0
 40
0.25
 40
0.25
 40
0.5
 40
0.5
 40
0.75
 40
0.75
 40
1.0
 40
1.0
 40
1.0
 40
1.0
 10
547.3790898953335
 20
78.58695585581953
 30
0.0
 10
547.4311476042243
 20
78.49208124650892
 30
0.0
 10
547.4844811425525
 20
78.41247632163318
 30
0.0
 10
547.5914131501804
 20
78.30363970673893
 30
0.0
 10
547.6451665166281
 20
78.27431610104844
 30
0.0
 10
547.7533455680518
 20
78.27438088279403
 30
0.0
 10
547.8081742646398
 20
78.3045370761204
 30
0.0
 10
547.9150812472997
 20
78.4141222774861
 30
0.0
 10
547.967502762272
 20
78.49266525128829
 30
0.0
 10
548.0192400276741
 20
78.58695585581954
 30
0.0
  0
LINE
  5
36C
330
1F
100
AcDbEntity
  8
0
  6
Continuous
 62
     7
370
    25
100
AcDbLine
 10
547.3933501725
 20
78.0722758704
 30
0.0
 11
541.0933501725
 21
78.0722758704
 31
0.0
  0
LINE
  5
36D
330
1F
100
AcDbEntity
  8
0
  6
Continuous
 62
     7
370
    25
100
AcDbLine
 10
540.4674603173
 20
80.757595885
 30
0.0
 11
540.4674603173
 21
78.5869558558
 31
0.0
  0
LINE
  5
36E
330
1F
100
AcDbEntity
  8
0
  6
Continuous
 62
     7
370
    25
100
AcDbLine
 10
548.0192400277
 20
80.757595885
 30
0.0
 11
548.0192400277
 21
78.5869558558
 31
0.0
  0
SPLINE
  5
36F
330
1F
100
AcDbEntity
  8
0
  6
Continuous
 62
     7
370
    25
100
AcDbSpline
210
0.0
220
0.0
230
1.0
 70
     8
 71
     3
 72
    12
 73
     8
 74
     0
 42
0.000000001
 43
0.00000001
 40
0.0
 40
0.0
 40
0.0
 40
0.0
 40
0.4999999999999982
 40
0.4999999999999982
 40
0.7499999999999991
 40
0.7499999999999991
 40
1.0
 40
1.0
 40
1.0
 40
1.0
 10
415.3790898953336
 20
80.75759588504852
 30
0.0
 10
414.7625595054134
 20
80.94809017447204
 30
0.0
 10
414.1367916329636
 20
81.0697645875344
 30
0.0
 10
413.1737299235787
 20
81.07042077806562
 30
0.0
 10
412.853036888449
 20
81.04058677627124
 30
0.0
 10
412.223078638453
 20
80.93165690616365
 30
0.0
 10
411.9118493704221
 20
80.85296171910078
 30
0.0
 10
411.6032000401375
 20
80.75759588504802
 30
0.0
  0
LINE
  5
370
330
1F
100
AcDbEntity
  8
0
  6
Continuous
 62
     7
370
    25
100
AcDbLine
 10
415.3790898953
 20
80.757595885
 30
0.0
 11
415.3790898953
 21
78.5869558558
 31
0.0
  0
SPLINE
  5
371
330
1F
100
AcDbEntity
  8
0
  6
Continuous
 62
     7
370
    25
100
AcDbSpline
210
0.0
220
0.0
230
1.0
 70
     8
 71
     3
 72
    12
 73
     8
 74
     0
 42
0.000000001
 43
0.00000001
 40
0.0
 40
0.0
 40
0.0
 40
0.0
 40
0.4999999999999982
 40
0.4999999999999982
 40
0.7499999999999991
 40
0.7499999999999991
 40
1.0
 40
1.0
 40
1.0
 40
1.0
 10
411.6032000401374
 20
78.58695585581856
 30
0.0
 10
412.2197304300577
 20
78.39646156639505
 30
0.0
 10
412.8454983025075
 20
78.27478715333267
 30
0.0
 10
413.8085600118924
 20
78.27413096280142
 30
0.0
 10
414.1292530470221
 20
78.30396496459582
 30
0.0
 10
414.7592112970181
 20
78.41289483470341
 30
0.0
 10
415.070440565049
 20
78.49159002176629
 30
0.0
 10
415.3790898953335
 20
78.58695585581904
 30
0.0
  0
LINE
  5
372
330
1F
100
AcDbEntity
  8
0
  6
Continuous
 62
     7
370
    25
100
AcDbLine
 10
411.6032000401
 20
80.757595885
 30
0.0
 11
411.6032000401
 21
78.5869558558
 31
0.0
  0
SPLINE
  5
373
330
1F
100
AcDbEntity
  8
0
  6
Continuous
 62
     7
370
    25
100
AcDbSpline
210
0.0
220
0.0
230
1.0
 70
     8
 71
     3
 72
    14
 73
    10
 74
     0
 42
0.000000001
 43
0.00000001
 40
0.0
 40
0.0
 40
0.0
 40
0.0
 40
0.25
 40
0.25
 40
0.5
 40
0.5
 40
0.75
 40
0.75
 40
1.0
 40
1.0
 40
1.0
 40
1.0
 10
415.3790898953335
 20
80.75759588504754
 30
0.0
 10
415.4311476042243
 20
80.85247049435814
 30
0.0
 10
415.4844811425525
 20
80.9320754192339
 30
0.0
 10
415.5914131501805
 20
81.04091203412811
 30
0.0
 10
415.6451665166281
 20
81.07023563981863
 30
0.0
 10
415.7533455680518
 20
81.07017085807303
 30
0.0
 10
415.8081742646397
 20
81.04001466474666
 30
0.0
 10
415.9150812472996
 20
80.93042946338095
 30
0.0
 10
415.967502762272
 20
80.85188648957877
 30
0.0
 10
416.0192400276741
 20
80.75759588504752
 30
0.0
  0
SPLINE
  5
374
330
1F
100
AcDbEntity
  8
0
  6
Continuous
 62
     7
370
    25
100
AcDbSpline
210
0.0
220
0.0
230
1.0
 70
     8
 71
     3
 72
    12
 73
     8
 74
     0
 42
0.000000001
 43
0.00000001
 40
0.0
 40
0.0
 40
0.0
 40
0.0
 40
0.4999999999999968
 40
0.4999999999999968
 40
0.7499999999999983
 40
0.7499999999999983
 40
1.0
 40
1.0
 40
1.0
 40
1.0
 10
411.6032000401377
 20
80.75759588504852
 30
0.0
 10
411.0911938884328
 20
80.94809017447203
 30
0.0
 10
410.5715163421645
 20
81.0697645875344
 30
0.0
 10
409.771728484602
 20
81.07042077806564
 30
0.0
 10
409.505404537754
 20
81.04058677627124
 30
0.0
 10
408.9822470347526
 20
80.93165690616367
 30
0.0
 10
408.7237824036043
 20
80.85296171910078
 30
0.0
 10
408.4674603172822
 20
80.75759588504802
 30
0.0
  0
SPLINE
  5
375
330
1F
100
AcDbEntity
  8
0
  6
Continuous
 62
     7
370
    25
100
AcDbSpline
210
0.0
220
0.0
230
1.0
 70
     8
 71
     3
 72
     9
 73
     5
 74
     0
 42
0.000000001
 43
0.00000001
 40
0.0
 40
0.0
 40
0.0
 40
0.0
 40
0.3722348086954462
 40
1.0
 40
1.0
 40
1.0
 40
1.0
 10
408.4674603172822
 20
80.75759588504752
 30
0.0
 10
408.495426550954
 20
80.80952019382111
 30
0.0
 10
408.5705571755449
 20
80.9490136199076
 30
0.0
 10
408.6491010337015
 20
80.95702234601274
 30
0.0
 10
408.698408133843
 20
80.96204994548822
 30
0.0
  0
LINE
  5
376
330
1F
100
AcDbEntity
  8
0
  6
Continuous
 62
     7
370
    25
100
AcDbLine
 10
415.3933501725
 20
81.2722758704
 30
0.0
 11
409.0933501725
 21
81.2722758704
 31
0.0
  0
SPLINE
  5
377
330
1F
100
AcDbEntity
  8
0
  6
Continuous
 62
     7
370
    25
100
AcDbSpline
210
0.0
220
0.0
230
1.0
 70
     8
 71
     3
 72
     9
 73
     5
 74
     0
 42
0.000000001
 43
0.00000001
 40
0.0
 40
0.0
 40
0.0
 40
0.0
 40
0.6277651913045469
 40
0.9999999999999999
 40
0.9999999999999999
 40
0.9999999999999999
 40
0.9999999999999999
 10
408.698408133843
 20
78.38250179537887
 30
0.0
 10
408.6491010337015
 20
78.38752939485434
 30
0.0
 10
408.5705571755449
 20
78.39553812095947
 30
0.0
 10
408.495426550954
 20
78.53503154704597
 30
0.0
 10
408.4674603172822
 20
78.58695585581954
 30
0.0
  0
SPLINE
  5
378
330
1F
100
AcDbEntity
  8
0
  6
Continuous
 62
     7
370
    25
100
AcDbSpline
210
0.0
220
0.0
230
1.0
 70
     8
 71
     3
 72
    12
 73
     8
 74
     0
 42
0.000000001
 43
0.00000001
 40
0.0
 40
0.0
 40
0.0
 40
0.0
 40
0.5000000000000032
 40
0.5000000000000032
 40
0.7500000000000017
 40
0.7500000000000017
 40
1.0
 40
1.0
 40
1.0
 40
1.0
 10
408.4674603172821
 20
78.58695585581856
 30
0.0
 10
408.979466468987
 20
78.39646156639505
 30
0.0
 10
409.4991440152554
 20
78.27478715333268
 30
0.0
 10
410.2989318728178
 20
78.27413096280144
 30
0.0
 10
410.5652558196659
 20
78.30396496459582
 30
0.0
 10
411.0884133226673
 20
78.41289483470341
 30
0.0
 10
411.3468779538156
 20
78.49159002176631
 30
0.0
 10
411.6032000401377
 20
78.58695585581904
 30
0.0
  0
SPLINE
  5
379
330
1F
100
AcDbEntity
  8
0
  6
Continuous
 62
     7
370
    25
100
AcDbSpline
210
0.0
220
0.0
230
1.0
 70
     8
 71
     3
 72
    14
 73
    10
 74
     0
 42
0.000000001
 43
0.00000001
 40
0.0
 40
0.0
 40
0.0
 40
0.0
 40
0.25
 40
0.25
 40
0.5
 40
0.5
 40
0.75
 40
0.75
 40
1.0
 40
1.0
 40
1.0
 40
1.0
 10
415.3790898953335
 20
78.58695585581954
 30
0.0
 10
415.4311476042243
 20
78.49208124650892
 30
0.0
 10
415.4844811425525
 20
78.41247632163318
 30
0.0
 10
415.5914131501805
 20
78.30363970673893
 30
0.0
 10
415.6451665166281
 20
78.27431610104844
 30
0.0
 10
415.7533455680518
 20
78.27438088279405
 30
0.0
 10
415.8081742646397
 20
78.3045370761204
 30
0.0
 10
415.9150812472996
 20
78.41412227748611
 30
0.0
 10
415.967502762272
 20
78.49266525128829
 30
0.0
 10
416.0192400276741
 20
78.58695585581954
 30
0.0
  0
LINE
  5
37A
330
1F
100
AcDbEntity
  8
0
  6
Continuous
 62
     7
370
    25
100
AcDbLine
 10
415.3933501725
 20
78.0722758704
 30
0.0
 11
409.0933501725
 21
78.0722758704
 31
0.0
  0
LINE
  5
37B
330
1F
100
AcDbEntity
  8
0
  6
Continuous
 62
     7
370
    25
100
AcDbLine
 10
408.4674603173
 20
80.757595885
 30
0.0
 11
408.4674603173
 21
78.5869558558
 31
0.0
  0
LINE
  5
37C
330
1F
100
AcDbEntity
  8
0
  6
Continuous
 62
     7
370
    25
100
AcDbLine
 10
416.0192400277
 20
80.757595885
 30
0.0
 11
416.0192400277
 21
78.5869558558
 31
0.0
  0
SPLINE
  5
37D
330
1F
100
AcDbEntity
  8
0
  6
Continuous
 62
     7
370
    25
100
AcDbSpline
210
0.0
220
0.0
230
1.0
 70
     8
 71
     3
 72
    14
 73
    10
 74
     0
 42
0.000000001
 43
0.00000001
 40
0.0
 40
0.0
 40
0.0
 40
0.0
 40
0.25
 40
0.25
 40
0.5
 40
0.5
 40
0.75
 40
0.75
 40
1.0
 40
1.0
 40
1.0
 40
1.0
 10
284.3790898953335
 20
80.7575958850475
 30
0.0
 10
284.4311476042243
 20
80.8524704943581
 30
0.0
 10
284.4844811425525
 20
80.93207541923387
 30
0.0
 10
284.5914131501805
 20
81.04091203412808
 30
0.0
 10
284.6451665166281
 20
81.07023563981859
 30
0.0
 10
284.7533455680519
 20
81.07017085807298
 30
0.0
 10
284.8081742646398
 20
81.04001466474662
 30
0.0
 10
284.9150812472996
 20
80.93042946338092
 30
0.0
 10
284.967502762272
 20
80.85188648957875
 30
0.0
 10
285.0192400276741
 20
80.7575958850475
 30
0.0
  0
SPLINE
  5
37E
330
1F
100
AcDbEntity
  8
0
  6
Continuous
 62
     7
370
    25
100
AcDbSpline
210
0.0
220
0.0
230
1.0
 70
     8
 71
     3
 72
    12
 73
     8
 74
     0
 42
0.000000001
 43
0.00000001
 40
0.0
 40
0.0
 40
0.0
 40
0.0
 40
0.5000000000000077
 40
0.5000000000000077
 40
0.7500000000000038
 40
0.7500000000000038
 40
1.0
 40
1.0
 40
1.0
 40
1.0
 10
284.3790898953337
 20
80.75759588504847
 30
0.0
 10
283.7625595054134
 20
80.94809017447199
 30
0.0
 10
283.1367916329636
 20
81.06976458753435
 30
0.0
 10
282.1737299235788
 20
81.0704207780656
 30
0.0
 10
281.853036888449
 20
81.04058677627121
 30
0.0
 10
281.2230786384532
 20
80.93165690616361
 30
0.0
 10
280.9118493704223
 20
80.85296171910073
 30
0.0
 10
280.6032000401375
 20
80.75759588504799
 30
0.0
  0
SPLINE
  5
37F
330
1F
100
AcDbEntity
  8
0
  6
Continuous
 62
     7
370
    25
100
AcDbSpline
210
0.0
220
0.0
230
1.0
 70
     8
 71
     3
 72
    12
 73
     8
 74
     0
 42
0.000000001
 43
0.00000001
 40
0.0
 40
0.0
 40
0.0
 40
0.0
 40
0.4999999999999921
 40
0.4999999999999921
 40
0.749999999999996
 40
0.749999999999996
 40
1.0
 40
1.0
 40
1.0
 40
1.0
 10
280.6032000401377
 20
80.75759588504847
 30
0.0
 10
280.0911938884327
 20
80.94809017447199
 30
0.0
 10
279.5715163421646
 20
81.06976458753435
 30
0.0
 10
278.771728484602
 20
81.07042077806558
 30
0.0
 10
278.505404537754
 20
81.0405867762712
 30
0.0
 10
277.9822470347526
 20
80.93165690616361
 30
0.0
 10
277.7237824036043
 20
80.85296171910073
 30
0.0
 10
277.4674603172822
 20
80.75759588504798
 30
0.0
  0
SPLINE
  5
380
330
1F
100
AcDbEntity
  8
0
  6
Continuous
 62
     7
370
    25
100
AcDbSpline
210
0.0
220
0.0
230
1.0
 70
     8
 71
     3
 72
     9
 73
     5
 74
     0
 42
0.000000001
 43
0.00000001
 40
0.0
 40
0.0
 40
0.0
 40
0.0
 40
0.3722348086954467
 40
1.0
 40
1.0
 40
1.0
 40
1.0
 10
277.4674603172822
 20
80.75759588504748
 30
0.0
 10
277.4954265509541
 20
80.80952019382107
 30
0.0
 10
277.5705571755449
 20
80.94901361990759
 30
0.0
 10
277.6491010337015
 20
80.95702234601269
 30
0.0
 10
277.698408133843
 20
80.96204994548818
 30
0.0
  0
LINE
  5
381
330
1F
100
AcDbEntity
  8
0
  6
Continuous
 62
     7
370
    25
100
AcDbLine
 10
284.3933501725
 20
81.2722758704
 30
0.0
 11
278.0933501725
 21
81.2722758704
 31
0.0
  0
LINE
  5
382
330
1F
100
AcDbEntity
  8
0
  6
Continuous
 62
     7
370
    25
100
AcDbLine
 10
284.3790898953
 20
80.757595885
 30
0.0
 11
284.3790898953
 21
78.5869558558
 31
0.0
  0
SPLINE
  5
383
330
1F
100
AcDbEntity
  8
0
  6
Continuous
 62
     7
370
    25
100
AcDbSpline
210
0.0
220
0.0
230
1.0
 70
     8
 71
     3
 72
    12
 73
     8
 74
     0
 42
0.000000001
 43
0.00000001
 40
0.0
 40
0.0
 40
0.0
 40
0.0
 40
0.4999999999999887
 40
0.4999999999999887
 40
0.7499999999999943
 40
0.7499999999999943
 40
1.0
 40
1.0
 40
1.0
 40
1.0
 10
280.6032000401375
 20
78.58695585581852
 30
0.0
 10
281.2197304300578
 20
78.396461566395
 30
0.0
 10
281.8454983025075
 20
78.27478715333262
 30
0.0
 10
282.8085600118924
 20
78.2741309628014
 30
0.0
 10
283.1292530470221
 20
78.30396496459578
 30
0.0
 10
283.7592112970181
 20
78.41289483470337
 30
0.0
 10
284.070440565049
 20
78.49159002176626
 30
0.0
 10
284.3790898953336
 20
78.586955855819
 30
0.0
  0
LINE
  5
384
330
1F
100
AcDbEntity
  8
0
  6
Continuous
 62
     7
370
    25
100
AcDbLine
 10
280.6032000401
 20
80.757595885
 30
0.0
 11
280.6032000401
 21
78.5869558558
 31
0.0
  0
SPLINE
  5
385
330
1F
100
AcDbEntity
  8
0
  6
Continuous
 62
     7
370
    25
100
AcDbSpline
210
0.0
220
0.0
230
1.0
 70
     8
 71
     3
 72
     9
 73
     5
 74
     0
 42
0.000000001
 43
0.00000001
 40
0.0
 40
0.0
 40
0.0
 40
0.0
 40
0.6277651913045446
 40
1.0
 40
1.0
 40
1.0
 40
1.0
 10
277.698408133843
 20
78.38250179537881
 30
0.0
 10
277.6491010337015
 20
78.3875293948543
 30
0.0
 10
277.5705571755449
 20
78.39553812095943
 30
0.0
 10
277.4954265509541
 20
78.53503154704593
 30
0.0
 10
277.4674603172823
 20
78.58695585581951
 30
0.0
  0
SPLINE
  5
386
330
1F
100
AcDbEntity
  8
0
  6
Continuous
 62
     7
370
    25
100
AcDbSpline
210
0.0
220
0.0
230
1.0
 70
     8
 71
     3
 72
    12
 73
     8
 74
     0
 42
0.000000001
 43
0.00000001
 40
0.0
 40
0.0
 40
0.0
 40
0.0
 40
0.5000000000000078
 40
0.5000000000000078
 40
0.7500000000000039
 40
0.7500000000000039
 40
1.0
 40
1.0
 40
1.0
 40
1.0
 10
277.4674603172822
 20
78.58695585581852
 30
0.0
 10
277.9794664689871
 20
78.39646156639499
 30
0.0
 10
278.4991440152554
 20
78.27478715333264
 30
0.0
 10
279.2989318728178
 20
78.2741309628014
 30
0.0
 10
279.5652558196658
 20
78.30396496459579
 30
0.0
 10
280.0884133226673
 20
78.41289483470337
 30
0.0
 10
280.3468779538155
 20
78.49159002176626
 30
0.0
 10
280.6032000401377
 20
78.58695585581901
 30
0.0
  0
SPLINE
  5
387
330
1F
100
AcDbEntity
  8
0
  6
Continuous
 62
     7
370
    25
100
AcDbSpline
210
0.0
220
0.0
230
1.0
 70
     8
 71
     3
 72
    14
 73
    10
 74
     0
 42
0.000000001
 43
0.00000001
 40
0.0
 40
0.0
 40
0.0
 40
0.0
 40
0.25
 40
0.25
 40
0.5
 40
0.5
 40
0.75
 40
0.75
 40
1.0
 40
1.0
 40
1.0
 40
1.0
 10
284.3790898953335
 20
78.58695585581948
 30
0.0
 10
284.4311476042243
 20
78.49208124650887
 30
0.0
 10
284.4844811425525
 20
78.41247632163314
 30
0.0
 10
284.5914131501805
 20
78.30363970673889
 30
0.0
 10
284.6451665166281
 20
78.2743161010484
 30
0.0
 10
284.7533455680519
 20
78.27438088279399
 30
0.0
 10
284.8081742646398
 20
78.30453707612037
 30
0.0
 10
284.9150812472996
 20
78.41412227748607
 30
0.0
 10
284.967502762272
 20
78.49266525128824
 30
0.0
 10
285.0192400276741
 20
78.5869558558195
 30
0.0
  0
LINE
  5
388
330
1F
100
AcDbEntity
  8
0
  6
Continuous
 62
     7
370
    25
100
AcDbLine
 10
284.3933501725
 20
78.0722758704
 30
0.0
 11
278.0933501725
 21
78.0722758704
 31
0.0
  0
LINE
  5
389
330
1F
100
AcDbEntity
  8
0
  6
Continuous
 62
     7
370
    25
100
AcDbLine
 10
277.4674603173
 20
80.757595885
 30
0.0
 11
277.4674603173
 21
78.5869558558
 31
0.0
  0
LINE
  5
38A
330
1F
100
AcDbEntity
  8
0
  6
Continuous
 62
     7
370
    25
100
AcDbLine
 10
285.0192400277
 20
80.757595885
 30
0.0
 11
285.0192400277
 21
78.5869558558
 31
0.0
  0
LINE
  5
38B
330
1F
100
AcDbEntity
  8
0
  6
Continuous
 62
     7
370
    25
100
AcDbLine
 10
564.2433501725
 20
75.3722758704
 30
0.0
 11
565.164280405
 21
65.4722758704
 31
0.0
  0
LINE
  5
38C
330
1F
100
AcDbEntity
  8
0
  6
Continuous
 62
     7
370
    25
100
AcDbLine
 10
260.3224199399
 20
65.4722758704
 30
0.0
 11
261.2433501725
 21
75.3722758704
 31
0.0
  0
LINE
  5
38D
330
1F
100
AcDbEntity
  8
0
  6
Continuous
 62
     7
370
    25
100
AcDbLine
 10
261.2433501725
 20
77.1722758704
 30
0.0
 11
564.2433501725
 21
77.1722758704
 31
0.0
  0
LINE
  5
38E
330
1F
100
AcDbEntity
  8
0
  6
Continuous
 62
     7
370
    25
100
AcDbLine
 10
261.2433501725
 20
75.3722758704
 30
0.0
 11
261.2433501725
 21
77.1722758704
 31
0.0
  0
LINE
  5
38F
330
1F
100
AcDbEntity
  8
0
  6
Continuous
 62
     7
370
    25
100
AcDbLine
 10
564.2433501725
 20
77.1722758704
 30
0.0
 11
564.2433501725
 21
75.3722758704
 31
0.0
  0
LINE
  5
390
330
1F
100
AcDbEntity
  8
0
  6
Continuous
 62
     7
370
    25
100
AcDbLine
 10
260.2433501725
 20
64.6222758704
 30
0.0
 11
260.3224199399
 21
65.4722758704
 31
0.0
  0
LINE
  5
391
330
1F
100
AcDbEntity
  8
0
  6
Continuous
 62
     7
370
    25
100
AcDbLine
 10
565.164280405
 20
65.4722758704
 30
0.0
 11
565.2433501725
 21
64.6222758704
 31
0.0
  0
LINE
  5
392
330
1F
100
AcDbEntity
  8
0
  6
Continuous
 62
     7
370
    25
100
AcDbLine
 10
543.9265580143
 20
86.3722758704
 30
0.0
 11
546.2433501725
 21
86.3722758704
 31
0.0
  0
LINE
  5
393
330
1F
100
AcDbEntity
  8
0
  6
Continuous
 62
     7
370
    25
100
AcDbLine
 10
542.2433501725
 20
86.3722758704
 30
0.0
 11
543.9265580143
 21
86.3722758704
 31
0.0
  0
LINE
  5
394
330
1F
100
AcDbEntity
  8
0
  6
Continuous
 62
     7
370
    25
100
AcDbLine
 10
411.9265580143
 20
86.3722758704
 30
0.0
 11
414.2433501725
 21
86.3722758704
 31
0.0
  0
LINE
  5
395
330
1F
100
AcDbEntity
  8
0
  6
Continuous
 62
     7
370
    25
100
AcDbLine
 10
410.2433501725
 20
86.3722758704
 30
0.0
 11
411.9265580143
 21
86.3722758704
 31
0.0
  0
LINE
  5
396
330
1F
100
AcDbEntity
  8
0
  6
Continuous
 62
     7
370
    25
100
AcDbLine
 10
280.9265580143
 20
86.3722758704
 30
0.0
 11
283.2433501725
 21
86.3722758704
 31
0.0
  0
LINE
  5
397
330
1F
100
AcDbEntity
  8
0
  6
Continuous
 62
     7
370
    25
100
AcDbLine
 10
279.2433501725
 20
86.3722758704
 30
0.0
 11
280.9265580143
 21
86.3722758704
 31
0.0
  0
LINE
  5
398
330
1F
100
AcDbEntity
  8
0
  6
Continuous
 62
     7
370
    25
100
AcDbLine
 10
565.7433501725
 20
97.5722758704
 30
0.0
 11
566.7433501725
 21
97.5722758704
 31
0.0
  0
LINE
  5
399
330
1F
100
AcDbEntity
  8
0
  6
Continuous
 62
     7
370
    25
100
AcDbLine
 10
566.7433501725
 20
97.5722758704
 30
0.0
 11
566.7433501725
 21
95.5722758704
 31
0.0
  0
LINE
  5
39A
330
1F
100
AcDbEntity
  8
0
  6
Continuous
 62
     7
370
    25
100
AcDbLine
 10
564.7433501725
 20
79.1722758704
 30
0.0
 11
564.7433501725
 21
69.9972758704
 31
0.0
  0
LINE
  5
39B
330
1F
100
AcDbEntity
  8
0
  6
Continuous
 62
     7
370
    25
100
AcDbLine
 10
566.7433501725
 20
95.5722758704
 30
0.0
 11
566.7433501725
 21
92.6722758704
 31
0.0
  0
LINE
  5
39C
330
1F
100
AcDbEntity
  8
0
  6
Continuous
 62
     7
370
    25
100
AcDbLine
 10
566.7433501725
 20
86.6722758704
 30
0.0
 11
566.7433501725
 21
66.5722758704
 31
0.0
  0
LINE
  5
39D
330
1F
100
AcDbEntity
  8
0
  6
Continuous
 62
     7
370
    25
100
AcDbLine
 10
566.7416830426
 20
66.4722758704
 30
0.0
 11
566.7433501725
 21
66.5722758704
 31
0.0
  0
LINE
  5
39E
330
1F
100
AcDbEntity
  8
0
  6
Continuous
 62
     7
370
    25
100
AcDbLine
 10
566.8036575517
 20
97.5722758704
 30
0.0
 11
566.7433501725
 21
97.5722758704
 31
0.0
  0
LINE
  5
39F
330
1F
100
AcDbEntity
  8
0
  6
Continuous
 62
     7
370
    25
100
AcDbLine
 10
566.7433501725
 20
81.5722758704
 30
0.0
 11
566.8036575517
 21
81.5722758704
 31
0.0
  0
LINE
  5
3A0
330
1F
100
AcDbEntity
  8
0
  6
Continuous
 62
     7
370
    25
100
AcDbLine
 10
566.8036575517
 20
97.5722758704
 30
0.0
 11
568.674856274
 21
97.5722758704
 31
0.0
  0
LWPOLYLINE
  5
3A1
330
1F
100
AcDbEntity
  8
0
  6
Continuous
 62
     7
370
    25
100
AcDbPolyline
 90
        9
 70
   128
 43
0.0
 10
569.3588965607
 20
95.5722758704
 10
569.3457529184
 20
95.9624565145
 10
569.3068270943
 20
96.3376427352
 10
569.2436149859
 20
96.6834163365
 10
569.1585457993
 20
96.9864894328
 10
569.0548886955
 20
97.235215095
 10
568.9366271588
 20
97.4200349355
 10
568.8083059138
 20
97.5338464312
 10
568.674856274
 20
97.5722758704
  0
LINE
  5
3A2
330
1F
100
AcDbEntity
  8
0
  6
Continuous
 62
     7
370
    25
100
AcDbLine
 10
569.3588965607
 20
95.5722758704
 30
0.0
 11
569.3588965607
 21
92.6722758704
 31
0.0
  0
LINE
  5
3A3
330
1F
100
AcDbEntity
  8
0
  6
Continuous
 62
     7
370
    25
100
AcDbLine
 10
569.3588965607
 20
86.6722758704
 30
0.0
 11
569.3588965607
 21
83.5722758704
 31
0.0
  0
LWPOLYLINE
  5
3A4
330
1F
100
AcDbEntity
  8
0
  6
Continuous
 62
     7
370
    25
100
AcDbPolyline
 90
        9
 70
   128
 43
0.0
 10
568.674856274
 20
81.5722758704
 10
568.8083059138
 20
81.6107053096
 10
568.9366271588
 20
81.7245168054
 10
569.0548886955
 20
81.9093366458
 10
569.1585457993
 20
82.1580623081
 10
569.2436149859
 20
82.4611354044
 10
569.3068270943
 20
82.8069090057
 10
569.3457529184
 20
83.1820952264
 10
569.3588965607
 20
83.5722758704
  0
LINE
  5
3A5
330
1F
100
AcDbEntity
  8
0
  6
Continuous
 62
     7
370
    25
100
AcDbLine
 10
568.674856274
 20
81.5722758704
 30
0.0
 11
566.8036575517
 21
81.5722758704
 31
0.0
  0
LINE
  5
3A6
330
1F
100
AcDbEntity
  8
0
  6
Continuous
 62
     7
370
    25
100
AcDbLine
 10
258.7433501725
 20
97.5722758704
 30
0.0
 11
259.7433501725
 21
97.5722758704
 31
0.0
  0
LINE
  5
3A7
330
1F
100
AcDbEntity
  8
0
  6
Continuous
 62
     7
370
    25
100
AcDbLine
 10
258.7433501725
 20
95.5722758704
 30
0.0
 11
258.7433501725
 21
97.5722758704
 31
0.0
  0
LINE
  5
3A8
330
1F
100
AcDbEntity
  8
0
  6
Continuous
 62
     7
370
    25
100
AcDbLine
 10
260.7433501725
 20
69.9972758705
 30
0.0
 11
260.7433501725
 21
79.1722758704
 31
0.0
  0
LINE
  5
3A9
330
1F
100
AcDbEntity
  8
0
  6
Continuous
 62
     7
370
    25
100
AcDbLine
 10
258.7433501725
 20
66.5722758704
 30
0.0
 11
258.7433501725
 21
86.6722758704
 31
0.0
  0
LINE
  5
3AA
330
1F
100
AcDbEntity
  8
0
  6
Continuous
 62
     7
370
    25
100
AcDbLine
 10
258.7433501725
 20
92.6722758704
 30
0.0
 11
258.7433501725
 21
95.5722758704
 31
0.0
  0
LINE
  5
3AB
330
1F
100
AcDbEntity
  8
0
  6
Continuous
 62
     7
370
    25
100
AcDbLine
 10
258.7433501725
 20
66.5722758704
 30
0.0
 11
258.7450173024
 21
66.4722758704
 31
0.0
  0
LINE
  5
3AC
330
1F
100
AcDbEntity
  8
0
  6
Continuous
 62
     7
370
    25
100
AcDbLine
 10
258.6830427933
 20
81.5722758704
 30
0.0
 11
258.7433501725
 21
81.5722758704
 31
0.0
  0
LINE
  5
3AD
330
1F
100
AcDbEntity
  8
0
  6
Continuous
 62
     7
370
    25
100
AcDbLine
 10
258.7433501725
 20
97.5722758704
 30
0.0
 11
258.6830427933
 21
97.5722758704
 31
0.0
  0
LWPOLYLINE
  5
3AE
330
1F
100
AcDbEntity
  8
0
  6
Continuous
 62
     7
370
    25
100
AcDbPolyline
 90
        9
 70
   128
 43
0.0
 10
256.811844071
 20
97.5722758704
 10
256.6783944312
 20
97.5338464312
 10
256.5500731862
 20
97.4200349355
 10
256.4318116495
 20
97.235215095
 10
256.3281545457
 20
96.9864894328
 10
256.243085359
 20
96.6834163365
 10
256.1798732507
 20
96.3376427352
 10
256.1409474266
 20
95.9624565145
 10
256.1278037843
 20
95.5722758704
  0
LINE
  5
3AF
330
1F
100
AcDbEntity
  8
0
  6
Continuous
 62
     7
370
    25
100
AcDbLine
 10
256.811844071
 20
97.5722758704
 30
0.0
 11
258.6830427933
 21
97.5722758704
 31
0.0
  0
LINE
  5
3B0
330
1F
100
AcDbEntity
  8
0
  6
Continuous
 62
     7
370
    25
100
AcDbLine
 10
258.6830427933
 20
81.5722758704
 30
0.0
 11
256.811844071
 21
81.5722758704
 31
0.0
  0
LWPOLYLINE
  5
3B1
330
1F
100
AcDbEntity
  8
0
  6
Continuous
 62
     7
370
    25
100
AcDbPolyline
 90
        9
 70
   128
 43
0.0
 10
256.1278037843
 20
83.5722758704
 10
256.1409474266
 20
83.1820952264
 10
256.1798732507
 20
82.8069090057
 10
256.243085359
 20
82.4611354044
 10
256.3281545457
 20
82.1580623081
 10
256.4318116495
 20
81.9093366458
 10
256.5500731862
 20
81.7245168054
 10
256.6783944312
 20
81.6107053096
 10
256.811844071
 20
81.5722758704
  0
LINE
  5
3B2
330
1F
100
AcDbEntity
  8
0
  6
Continuous
 62
     7
370
    25
100
AcDbLine
 10
256.1278037843
 20
83.5722758704
 30
0.0
 11
256.1278037843
 21
86.6722758704
 31
0.0
  0
LINE
  5
3B3
330
1F
100
AcDbEntity
  8
0
  6
Continuous
 62
     7
370
    25
100
AcDbLine
 10
256.1278037843
 20
92.6722758704
 30
0.0
 11
256.1278037843
 21
95.5722758704
 31
0.0
  0
SPLINE
  5
3B4
330
1F
100
AcDbEntity
  8
0
  6
Continuous
 62
     7
370
    25
100
AcDbSpline
210
0.0
220
0.0
230
1.0
 70
    24
 71
     3
 72
     9
 73
     5
 74
     0
 42
0.000000001
 43
0.00000001
 40
0.0
 40
0.0
 40
0.0
 40
0.0
 40
0.7059102712347898
 40
1.0
 40
1.0
 40
1.0
 40
1.0
 10
260.5433501724743
 20
95.44552467982551
 30
0.0
 10
260.5433501724743
 20
95.45577744912194
 30
0.0
 10
260.5433501724743
 20
95.4703016311805
 30
0.0
 10
260.5433501724743
 20
95.3752496745713
 30
0.0
 10
260.5433501724743
 20
95.3472958704335
 30
0.0
  0
SPLINE
  5
3B5
330
1F
100
AcDbEntity
  8
0
  6
Continuous
 62
     7
370
    25
100
AcDbSpline
210
0.0
220
0.0
230
1.0
 70
    24
 71
     3
 72
    12
 73
     8
 74
     0
 42
0.000000001
 43
0.00000001
 40
0.0
 40
0.0
 40
0.0
 40
0.0
 40
0.3344405486782615
 40
0.5144757571369827
 40
0.6983315710265334
 40
0.8821873849160792
 40
1.0
 40
1.0
 40
1.0
 40
1.0
 10
261.5433501724743
 20
92.17858317549204
 30
0.0
 10
261.5433501724743
 20
92.80272871099388
 30
0.0
 10
261.5433501724743
 20
93.76286272647147
 30
0.0
 10
261.5433501724743
 20
94.67077363276674
 30
0.0
 10
261.5433501724743
 20
95.17649097068286
 30
0.0
 10
261.5433501724743
 20
95.44811070482109
 30
0.0
 10
261.5433501724743
 20
95.44625097336134
 30
0.0
 10
261.5433501724743
 20
95.44552467983647
 30
0.0
  0
SPLINE
  5
3B6
330
1F
100
AcDbEntity
  8
0
  6
Continuous
 62
     7
370
    25
100
AcDbSpline
210
0.0
220
0.0
230
1.0
 70
    24
 71
     3
 72
    15
 73
    11
 74
     0
 42
0.000000001
 43
0.00000001
 40
0.0
 40
0.0
 40
0.0
 40
0.0
 40
0.034696749791865
 40
0.2211884951269639
 40
0.4076802404620633
 40
0.5080720152630784
 40
0.6105942475634817
 40
0.7131164798638854
 40
0.8135082546649
 40
1.0
 40
1.0
 40
1.0
 40
1.0
 10
261.5433501724743
 20
83.89902706103074
 30
0.0
 10
261.5433501724744
 20
83.89230595739932
 30
0.0
 10
261.5433501724743
 20
83.84945955804652
 30
0.0
 10
261.5433501724744
 20
84.33750052080502
 30
0.0
 10
261.5433501724743
 20
85.43341157827356
 30
0.0
 10
261.5433501724744
 20
86.65230871072104
 30
0.0
 10
261.5433501724743
 20
87.73248393857801
 30
0.0
 10
261.5433501724743
 20
88.89296084104372
 30
0.0
 10
261.5433501724743
 20
90.42353573615883
 30
0.0
 10
261.5433501724743
 20
91.48716162480889
 30
0.0
 10
261.5433501724743
 20
92.17858317549205
 30
0.0
  0
LINE
  5
3B7
330
1F
100
AcDbEntity
  8
0
  6
Continuous
 62
     7
370
    25
100
AcDbLine
 10
265.5433501725
 20
89.2888808427
 30
0.0
 11
265.5433501725
 21
93.7979567497
 31
0.0
  0
SPLINE
  5
3B8
330
1F
100
AcDbEntity
  8
0
  6
Continuous
 62
     7
370
    25
100
AcDbSpline
210
0.0
220
0.0
230
1.0
 70
     8
 71
     3
 72
     8
 73
     4
 74
     0
 42
0.000000001
 43
0.00000001
 40
0.0
 40
0.0
 40
0.0
 40
0.0
 40
1.0
 40
1.0
 40
1.0
 40
1.0
 10
265.5433501724673
 20
89.28888084274712
 30
0.0
 10
265.5433501724673
 20
90.27125928731991
 30
0.0
 10
265.3690348720879
 20
91.22675045550965
 30
0.0
 10
265.0967681850759
 20
92.1671331048372
 30
0.0
  0
SPLINE
  5
3B9
330
1F
100
AcDbEntity
  8
0
  6
Continuous
 62
     7
370
    25
100
AcDbSpline
210
0.0
220
0.0
230
1.0
 70
     8
 71
     3
 72
     8
 73
     4
 74
     0
 42
0.000000001
 43
0.00000001
 40
0.0
 40
0.0
 40
0.0
 40
0.0
 40
1.0
 40
1.0
 40
1.0
 40
1.0
 10
265.0967681850759
 20
92.16713310484334
 30
0.0
 10
265.3690348720873
 20
92.69995584590818
 30
0.0
 10
265.5433501724672
 20
93.24133910480278
 30
0.0
 10
265.5433501724672
 20
93.79795674973121
 30
0.0
  0
SPLINE
  5
3BA
330
1F
100
AcDbEntity
  8
0
  6
Continuous
 62
     7
370
    25
100
AcDbSpline
210
0.0
220
0.0
230
1.0
 70
     8
 71
     3
 72
     8
 73
     4
 74
     0
 42
0.000000001
 43
0.00000001
 40
0.0
 40
0.0
 40
0.0
 40
0.0
 40
1.0
 40
1.0
 40
1.0
 40
1.0
 10
265.096768185076
 20
86.41062858065715
 30
0.0
 10
265.3690348720874
 20
87.35101122998294
 30
0.0
 10
265.5433501724673
 20
88.3065023981762
 30
0.0
 10
265.5433501724673
 20
89.28888084274712
 30
0.0
  0
LINE
  5
3BB
330
1F
100
AcDbEntity
  8
0
  6
Continuous
 62
     7
370
    25
100
AcDbLine
 10
261.5433501725
 20
86.4106285807
 30
0.0
 11
265.0967681851
 21
86.4106285807
 31
0.0
  0
LINE
  5
3BC
330
1F
100
AcDbEntity
  8
0
  6
Continuous
 62
     7
370
    25
100
AcDbLine
 10
261.5433501725
 20
92.1671331048
 30
0.0
 11
265.0967681851
 21
92.1671331048
 31
0.0
  0
LINE
  5
3BD
330
1F
100
AcDbEntity
  8
0
  6
Continuous
 62
     7
370
    25
100
AcDbLine
 10
265.5433501725
 20
85.1631999635
 30
0.0
 11
265.5433501725
 21
89.2888808427
 31
0.0
  0
SPLINE
  5
3BE
330
1F
100
AcDbEntity
  8
0
  6
Continuous
 62
     7
370
    25
100
AcDbSpline
210
0.0
220
0.0
230
1.0
 70
     8
 71
     3
 72
     8
 73
     4
 74
     0
 42
0.000000001
 43
0.00000001
 40
0.0
 40
0.0
 40
0.0
 40
0.0
 40
1.0
 40
1.0
 40
1.0
 40
1.0
 10
265.5433501724672
 20
85.1631999634496
 30
0.0
 10
265.5433501724672
 20
85.58896076309283
 30
0.0
 10
265.3690348720878
 20
86.00306867238989
 30
0.0
 10
265.0967681850759
 20
86.41062858065156
 30
0.0
  0
SPLINE
  5
3BF
330
1F
100
AcDbEntity
  8
0
  6
Continuous
 62
     7
370
    25
100
AcDbSpline
210
0.0
220
0.0
230
1.0
 70
     8
 71
     3
 72
     8
 73
     4
 74
     0
 42
0.000000001
 43
0.00000001
 40
0.0
 40
0.0
 40
0.0
 40
0.0
 40
1.0
 40
1.0
 40
1.0
 40
1.0
 10
265.5433501724672
 20
93.79795674973121
 30
0.0
 10
265.5433501724672
 20
94.35457439466066
 30
0.0
 10
265.3690348720878
 20
94.89595765355327
 30
0.0
 10
265.0967681850758
 20
95.42878039461908
 30
0.0
  0
LINE
  5
3C0
330
1F
100
AcDbEntity
  8
0
  6
Continuous
 62
     7
370
    25
100
AcDbLine
 10
261.5433501725
 20
95.4287803946
 30
0.0
 11
265.0967681851
 21
95.4287803946
 31
0.0
  0
SPLINE
  5
3C1
330
1F
100
AcDbEntity
  8
0
  6
Continuous
 62
     7
370
    25
100
AcDbSpline
210
0.0
220
0.0
230
1.0
 70
     8
 71
     3
 72
     8
 73
     4
 74
     0
 42
0.000000001
 43
0.00000001
 40
0.0
 40
0.0
 40
0.0
 40
0.0
 40
1.0
 40
1.0
 40
1.0
 40
1.0
 10
265.0967681850759
 20
83.91577134624761
 30
0.0
 10
265.3690348720874
 20
84.32333125450867
 30
0.0
 10
265.5433501724672
 20
84.73743916380703
 30
0.0
 10
265.5433501724672
 20
85.1631999634496
 30
0.0
  0
LINE
  5
3C2
330
1F
100
AcDbEntity
  8
0
  6
Continuous
 62
     7
370
    25
100
AcDbLine
 10
265.0967681851
 20
83.9157713462
 30
0.0
 11
261.5433501725
 21
83.9157713462
 31
0.0
  0
LINE
  5
3C3
330
1F
100
AcDbEntity
  8
0
  6
Continuous
 62
     7
370
    25
100
AcDbLine
 10
250.5433501725
 20
92.1310258705
 30
0.0
 11
250.5433501725
 21
87.2135258704
 31
0.0
  0
LINE
  5
3C4
330
1F
100
AcDbEntity
  8
0
  6
Continuous
 62
     7
370
    25
100
AcDbLine
 10
251.0846001725
 20
86.9668303262
 30
0.0
 11
251.0846001725
 21
86.6722758704
 31
0.0
  0
LINE
  5
3C5
330
1F
100
AcDbEntity
  8
0
  6
Continuous
 62
     7
370
    25
100
AcDbLine
 10
251.0846001725
 20
92.6722758704
 30
0.0
 11
251.0846001725
 21
86.9668303262
 31
0.0
  0
LINE
  5
3C6
330
1F
100
AcDbEntity
  8
0
  6
Continuous
 62
     7
370
    25
100
AcDbLine
 10
265.0967681851
 20
95.4287803946
 30
0.0
 11
265.1719559406
 21
95.2187599268
 31
0.0
  0
LINE
  5
3C7
330
1F
100
AcDbEntity
  8
0
  6
Continuous
 62
     7
370
    25
100
AcDbLine
 10
265.5433501725
 20
93.7979567497
 30
0.0
 11
265.5433501725
 21
94.6722758704
 31
0.0
  0
LINE
  5
3C8
330
1F
100
AcDbEntity
  8
0
  6
Continuous
 62
     7
370
    25
100
AcDbLine
 10
265.5433501725
 20
84.6722758704
 30
0.0
 11
265.5433501725
 21
85.1631999635
 31
0.0
  0
ARC
  5
3C9
330
1F
100
AcDbEntity
  8
0
  6
Continuous
 62
     7
370
    25
100
AcDbCircle
 10
252.2433501725
 20
60.4722758704
 30
0.0
 40
6.000000000000007
100
AcDbArc
 50
90.0
 51
143.1301023541
  0
ARC
  5
3CA
330
1F
100
AcDbEntity
  8
0
  6
Continuous
 62
     7
370
    25
100
AcDbCircle
 10
573.2433501725
 20
60.4722758704
 30
0.0
 40
6.000000000000007
100
AcDbArc
 50
36.8698976459
 51
90.0
  0
LINE
  5
3CB
330
1F
100
AcDbEntity
  8
0
  6
Continuous
 62
     7
370
    25
100
AcDbLine
 10
108.2718900766
 20
372.6075204992
 30
0.0
 11
107.9089522983
 21
371.9788938271
 31
0.0
  0
LINE
  5
3CC
330
1F
100
AcDbEntity
  8
0
  6
Continuous
 62
     7
370
    25
100
AcDbLine
 10
107.9089522983
 20
365.6788938271
 30
0.0
 11
108.2718900766
 21
365.050267155
 31
0.0
  0
LINE
  5
3CD
330
1F
100
AcDbEntity
  8
0
  6
Continuous
 62
     7
370
    25
100
AcDbLine
 10
106.2089522983
 20
372.8288938271
 30
0.0
 11
104.2089522983
 21
372.8288938271
 31
0.0
  0
LINE
  5
3CE
330
1F
100
AcDbEntity
  8
0
  6
Continuous
 62
     7
370
    25
100
AcDbLine
 10
104.2089522983
 20
364.8288938271
 30
0.0
 11
106.2089522983
 21
364.8288938271
 31
0.0
  0
ARC
  5
3CF
330
1F
100
AcDbEntity
  8
0
  6
Continuous
 62
     7
370
    25
100
AcDbCircle
 10
111.1371555286
 20
368.8288938271
 30
0.0
 40
8.000000000000016
100
AcDbArc
 50
195.2747479997
 51
210.0
  0
ARC
  5
3D0
330
1F
100
AcDbEntity
  8
0
  6
Continuous
 62
     7
370
    25
100
AcDbCircle
 10
111.1371555286
 20
368.8288938271
 30
0.0
 40
8.000000000000016
100
AcDbArc
 50
150.0
 51
164.7252520003
  0
LINE
  5
3D1
330
1F
100
AcDbEntity
  8
0
  6
Continuous
 62
     7
370
    25
100
AcDbLine
 10
107.9089522983
 20
370.8288938271
 30
0.0
 11
107.8089522983
 21
370.8288938271
 31
0.0
  0
LINE
  5
3D2
330
1F
100
AcDbEntity
  8
0
  6
Continuous
 62
     7
370
    25
100
AcDbLine
 10
107.8089522983
 20
366.8288938271
 30
0.0
 11
107.9089522983
 21
366.8288938271
 31
0.0
  0
CIRCLE
  5
3D3
330
1F
100
AcDbEntity
  8
0
  6
Continuous
 62
     7
370
    25
100
AcDbCircle
 10
119.5089522983
 20
217.8288938271
 30
0.0
 40
2.458750000016619
  0
CIRCLE
  5
3D4
330
1F
100
AcDbEntity
  8
0
  6
Continuous
 62
     7
370
    25
100
AcDbCircle
 10
119.5089522983
 20
217.8288938271
 30
0.0
 40
2.999999999999997
  0
CIRCLE
  5
3D5
330
1F
100
AcDbEntity
  8
0
  6
Continuous
 62
     7
370
    25
100
AcDbCircle
 10
119.5089522983
 20
393.8288938271
 30
0.0
 40
2.458750000016629
  0
CIRCLE
  5
3D6
330
1F
100
AcDbEntity
  8
0
  6
Continuous
 62
     7
370
    25
100
AcDbCircle
 10
119.5089522983
 20
393.8288938271
 30
0.0
 40
2.99999999999996
  0
LINE
  5
3D7
330
1F
100
AcDbEntity
  8
0
  6
Continuous
 62
     7
370
    25
100
AcDbLine
 10
100.9089522983
 20
171.2996045052
 30
0.0
 11
100.9089522983
 21
364.358183149
 31
0.0
  0
LINE
  5
3D8
330
1F
100
AcDbEntity
  8
0
  6
Continuous
 62
     7
370
    25
100
AcDbLine
 10
91.3089522983
 20
171.2996045052
 30
0.0
 11
100.9089522983
 21
171.2996045052
 31
0.0
  0
LINE
  5
3D9
330
1F
100
AcDbEntity
  8
0
  6
Continuous
 62
     7
370
    25
100
AcDbLine
 10
91.3089522983
 20
364.358183149
 30
0.0
 11
100.9089522983
 21
364.358183149
 31
0.0
  0
LINE
  5
3DA
330
1F
100
AcDbEntity
  8
0
  6
Continuous
 62
     7
370
    25
100
AcDbLine
 10
88.9089522983
 20
172.2288938271
 30
0.0
 11
88.9089522983
 21
363.4288938271
 31
0.0
  0
SPLINE
  5
3DB
330
1F
100
AcDbEntity
  8
0
  6
Continuous
 62
     7
370
    25
100
AcDbSpline
210
0.0
220
0.0
230
1.0
 70
     8
 71
     3
 72
    20
 73
    16
 74
     0
 42
0.000000001
 43
0.00000001
 40
0.0
 40
0.0
 40
0.0
 40
0.0
 40
0.125
 40
0.125
 40
0.25
 40
0.25
 40
0.375
 40
0.375
 40
0.5
 40
0.5
 40
0.75
 40
0.75
 40
0.8749999999999999
 40
0.8749999999999999
 40
1.0
 40
1.0
 40
1.0
 40
1.0
 10
88.90895229829263
 20
363.4288938270946
 30
0.0
 10
88.90895229829263
 20
363.4679345579491
 30
0.0
 10
88.92448885876748
 20
363.5064532621489
 30
0.0
 10
88.98580721072807
 20
363.5838600134568
 30
0.0
 10
89.0322309563149
 20
363.6230044314435
 30
0.0
 10
89.15218182646903
 20
363.7001551853587
 30
0.0
 10
89.22578647075244
 20
363.7384827670998
 30
0.0
 10
89.40051683684807
 20
363.8160290875763
 30
0.0
 10
89.50136746574962
 20
363.855005295245
 30
0.0
 10
89.83265274573357
 20
363.97050015169
 30
0.0
 10
90.10033290711743
 20
364.0484125953602
 30
0.0
 10
90.53300693317284
 20
364.163892520761
 30
0.0
 10
90.684525020024
 20
364.202758316626
 30
0.0
 10
90.99395077741009
 20
364.2805326502945
 30
0.0
 10
91.15057310710388
 20
364.3191424172493
 30
0.0
 10
91.30895229829262
 20
364.358183148976
 30
0.0
  0
SPLINE
  5
3DC
330
1F
100
AcDbEntity
  8
0
  6
Continuous
 62
     7
370
    25
100
AcDbSpline
210
0.0
220
0.0
230
1.0
 70
     8
 71
     3
 72
    20
 73
    16
 74
     0
 42
0.000000001
 43
0.00000001
 40
0.0
 40
0.0
 40
0.0
 40
0.0
 40
0.1250000000000006
 40
0.1250000000000006
 40
0.2500000000000013
 40
0.2500000000000013
 40
0.375000000000002
 40
0.375000000000002
 40
0.5000000000000027
 40
0.5000000000000027
 40
0.7500000000000013
 40
0.7500000000000013
 40
0.8750000000000007
 40
0.8750000000000007
 40
1.0
 40
1.0
 40
1.0
 40
1.0
 10
91.30895229829262
 20
171.2996045052132
 30
0.0
 10
91.15057311064193
 20
171.3386452360677
 30
0.0
 10
90.99432738595024
 20
171.3771639402675
 30
0.0
 10
90.68633553653362
 20
171.4545706915755
 30
0.0
 10
90.5336914290625
 20
171.4937151095621
 30
0.0
 10
90.24460713987543
 20
171.5708658634773
 30
0.0
 10
90.10680260169137
 20
171.6091934452184
 30
0.0
 10
89.84518392605246
 20
171.6867397656949
 30
0.0
 10
89.72243761936981
 20
171.7257159733636
 30
0.0
 10
89.39111324242212
 20
171.8412108298087
 30
0.0
 10
89.21210211839389
 20
171.9191232734788
 30
0.0
 10
89.032487019013
 20
172.0346031988796
 30
0.0
 10
88.98624267014529
 20
172.0734689947447
 30
0.0
 10
88.92448936413408
 20
172.1512433284132
 30
0.0
 10
88.90895229829263
 20
172.1898530953679
 30
0.0
 10
88.90895229829263
 20
172.2288938270946
 30
0.0
  0
SPLINE
  5
3DD
330
1F
100
AcDbEntity
  8
0
  6
Continuous
 62
     7
370
    25
100
AcDbSpline
210
0.0
220
0.0
230
1.0
 70
     8
 71
     3
 72
    20
 73
    16
 74
     0
 42
0.000000001
 43
0.00000001
 40
0.0
 40
0.0
 40
0.0
 40
0.0
 40
0.1250000000000026
 40
0.1250000000000026
 40
0.2500000000000051
 40
0.2500000000000051
 40
0.3750000000000077
 40
0.3750000000000077
 40
0.5000000000000102
 40
0.5000000000000102
 40
0.7500000000000079
 40
0.7500000000000079
 40
0.8750000000000041
 40
0.8750000000000041
 40
1.0
 40
1.0
 40
1.0
 40
1.0
 10
88.90895229829265
 20
172.2288938270946
 30
0.0
 10
88.90895229829265
 20
172.0705146394439
 30
0.0
 10
88.9244888587675
 20
171.9142689147522
 30
0.0
 10
88.98580721072808
 20
171.6062770653356
 30
0.0
 10
89.03223095631489
 20
171.4536329578645
 30
0.0
 10
89.152181826469
 20
171.1645486686774
 30
0.0
 10
89.22578647075241
 20
171.0267441304933
 30
0.0
 10
89.40051683684806
 20
170.7651254548544
 30
0.0
 10
89.50136746574961
 20
170.6423791481718
 30
0.0
 10
89.83265274573354
 20
170.311054771224
 30
0.0
 10
90.10033290711742
 20
170.1320436471959
 30
0.0
 10
90.53300693317283
 20
169.9524285478149
 30
0.0
 10
90.68452502002395
 20
169.9061841989472
 30
0.0
 10
90.99395077741008
 20
169.844430892936
 30
0.0
 10
91.15057310710387
 20
169.8288938270946
 30
0.0
 10
91.30895229829261
 20
169.8288938270946
 30
0.0
  0
SPLINE
  5
3DE
330
1F
100
AcDbEntity
  8
0
  6
Continuous
 62
     7
370
    25
100
AcDbSpline
210
0.0
220
0.0
230
1.0
 70
     8
 71
     3
 72
     9
 73
     5
 74
     0
 42
0.000000001
 43
0.00000001
 40
0.0
 40
0.0
 40
0.0
 40
0.0
 40
0.4258694941523439
 40
1.0
 40
1.0
 40
1.0
 40
1.0
 10
90.7525608712835
 20
171.4189723897718
 30
0.0
 10
90.82296504788833
 20
171.3690507649273
 30
0.0
 10
90.98828371375092
 20
171.2518279407288
 30
0.0
 10
91.19199527600733
 20
171.2372585555673
 30
0.0
 10
91.30895229829261
 20
171.2288938270946
 30
0.0
  0
LINE
  5
3DF
330
1F
100
AcDbEntity
  8
0
  6
Continuous
 62
     7
370
    25
100
AcDbLine
 10
91.3089522983
 20
169.8288938271
 30
0.0
 11
91.3089522983
 21
171.2288938271
 31
0.0
  0
SPLINE
  5
3E0
330
1F
100
AcDbEntity
  8
0
  6
Continuous
 62
     7
370
    25
100
AcDbSpline
210
0.0
220
0.0
230
1.0
 70
     8
 71
     3
 72
    20
 73
    16
 74
     0
 42
0.000000001
 43
0.00000001
 40
0.0
 40
0.0
 40
0.0
 40
0.0
 40
0.1249999999999993
 40
0.1249999999999993
 40
0.2499999999999987
 40
0.2499999999999987
 40
0.374999999999998
 40
0.374999999999998
 40
0.4999999999999973
 40
0.4999999999999973
 40
0.7500000000000012
 40
0.7500000000000012
 40
0.8750000000000006
 40
0.8750000000000006
 40
1.0
 40
1.0
 40
1.0
 40
1.0
 10
91.30895229829262
 20
365.8288938270945
 30
0.0
 10
91.15057311064193
 20
365.8288938270945
 30
0.0
 10
90.99432738595026
 20
365.8133572666197
 30
0.0
 10
90.68633553653365
 20
365.7520389146591
 30
0.0
 10
90.53369142906251
 20
365.7056151690723
 30
0.0
 10
90.24460713987547
 20
365.5856642989181
 30
0.0
 10
90.10680260169141
 20
365.5120596546348
 30
0.0
 10
89.84518392605251
 20
365.3373292885391
 30
0.0
 10
89.72243761936986
 20
365.2364786596376
 30
0.0
 10
89.39111324242216
 20
364.9051933796537
 30
0.0
 10
89.21210211839393
 20
364.6375132182698
 30
0.0
 10
89.03248701901305
 20
364.2048391922144
 30
0.0
 10
88.98624267014532
 20
364.0533211053632
 30
0.0
 10
88.9244893641341
 20
363.7438953479771
 30
0.0
 10
88.90895229829266
 20
363.5872730182833
 30
0.0
 10
88.90895229829266
 20
363.4288938270946
 30
0.0
  0
LINE
  5
3E1
330
1F
100
AcDbEntity
  8
0
  6
Continuous
 62
     7
370
    25
100
AcDbLine
 10
91.3089522983
 20
365.8288938271
 30
0.0
 11
91.3089522983
 21
364.4288938271
 31
0.0
  0
SPLINE
  5
3E2
330
1F
100
AcDbEntity
  8
0
  6
Continuous
 62
     7
370
    25
100
AcDbSpline
210
0.0
220
0.0
230
1.0
 70
     8
 71
     3
 72
     9
 73
     5
 74
     0
 42
0.000000001
 43
0.00000001
 40
0.0
 40
0.0
 40
0.0
 40
0.0
 40
0.7584558214377376
 40
1.0
 40
1.0
 40
1.0
 40
1.0
 10
91.30895229829261
 20
364.4288938270946
 30
0.0
 10
91.15724452035637
 20
364.4178392912611
 30
0.0
 10
90.95722261578628
 20
364.4032642355743
 30
0.0
 10
90.80666852439482
 20
364.2801678519745
 30
0.0
 10
90.7703030600605
 20
364.2504346371139
 30
0.0
  0
LINE
  5
3E3
330
1F
100
AcDbEntity
  8
0
  6
Continuous
 62
     7
370
    25
100
AcDbLine
 10
91.3089522983
 20
365.8288938271
 30
0.0
 11
100.9089522983
 21
365.8288938271
 31
0.0
  0
LINE
  5
3E4
330
1F
100
AcDbEntity
  8
0
  6
Continuous
 62
     7
370
    25
100
AcDbLine
 10
100.9089522983
 20
365.8288938271
 30
0.0
 11
100.9089522983
 21
364.4288938271
 31
0.0
  0
LINE
  5
3E5
330
1F
100
AcDbEntity
  8
0
  6
Continuous
 62
     7
370
    25
100
AcDbLine
 10
91.3089522983
 20
364.4288938271
 30
0.0
 11
100.9089522983
 21
364.4288938271
 31
0.0
  0
LINE
  5
3E6
330
1F
100
AcDbEntity
  8
0
  6
Continuous
 62
     7
370
    25
100
AcDbLine
 10
100.9089522983
 20
169.8288938271
 30
0.0
 11
100.9089522983
 21
171.2288938271
 31
0.0
  0
LINE
  5
3E7
330
1F
100
AcDbEntity
  8
0
  6
Continuous
 62
     7
370
    25
100
AcDbLine
 10
91.3089522983
 20
169.8288938271
 30
0.0
 11
100.9089522983
 21
169.8288938271
 31
0.0
  0
LINE
  5
3E8
330
1F
100
AcDbEntity
  8
0
  6
Continuous
 62
     7
370
    25
100
AcDbLine
 10
91.3089522983
 20
171.2288938271
 30
0.0
 11
100.9089522983
 21
171.2288938271
 31
0.0
  0
LINE
  5
3E9
330
1F
100
AcDbEntity
  8
0
  6
Continuous
 62
     7
370
    25
100
AcDbLine
 10
109.0089522983
 20
380.3288938271
 30
0.0
 11
109.0089522983
 21
363.1288938271
 31
0.0
  0
LINE
  5
3EA
330
1F
100
AcDbEntity
  8
0
  6
Continuous
 62
     7
370
    25
100
AcDbLine
 10
105.0089522983
 20
380.3288938271
 30
0.0
 11
109.0089522983
 21
380.3288938271
 31
0.0
  0
LINE
  5
3EB
330
1F
100
AcDbEntity
  8
0
  6
Continuous
 62
     7
370
    25
100
AcDbLine
 10
105.0089522983
 20
397.3288938271
 30
0.0
 11
105.0089522983
 21
380.3288938271
 31
0.0
  0
ARC
  5
3EC
330
1F
100
AcDbEntity
  8
0
  6
Continuous
 62
     7
370
    25
100
AcDbCircle
 10
108.0089522983
 20
397.3288938271
 30
0.0
 40
3.0
100
AcDbArc
 50
90.0
 51
180.0
  0
LINE
  5
3ED
330
1F
100
AcDbEntity
  8
0
  6
Continuous
 62
     7
370
    25
100
AcDbLine
 10
125.0089522983
 20
400.3288938271
 30
0.0
 11
108.0089522983
 21
400.3288938271
 31
0.0
  0
ARC
  5
3EE
330
1F
100
AcDbEntity
  8
0
  6
Continuous
 62
     7
370
    25
100
AcDbCircle
 10
125.0089522983
 20
397.3288938271
 30
0.0
 40
3.000000000000014
100
AcDbArc
 50
0.0
 51
90.0
  0
LINE
  5
3EF
330
1F
100
AcDbEntity
  8
0
  6
Continuous
 62
     7
370
    25
100
AcDbLine
 10
128.0089522983
 20
363.1288938271
 30
0.0
 11
128.0089522983
 21
397.3288938271
 31
0.0
  0
CIRCLE
  5
3F0
330
1F
100
AcDbEntity
  8
0
  6
Continuous
 62
     7
370
    25
100
AcDbCircle
 10
119.5089522983
 20
393.8288938271
 30
0.0
 40
3.250000000000114
  0
CIRCLE
  5
3F1
330
1F
100
AcDbEntity
  8
0
  6
Continuous
 62
     7
370
    25
100
AcDbCircle
 10
119.5089522983
 20
368.8288938271
 30
0.0
 40
3.250000000000114
  0
LINE
  5
3F2
330
1F
100
AcDbEntity
  8
0
  6
Continuous
 62
     7
370
    25
100
AcDbLine
 10
109.0089522983
 20
361.3288938271
 30
0.0
 11
109.0089522983
 21
363.1288938271
 31
0.0
  0
LINE
  5
3F3
330
1F
100
AcDbEntity
  8
0
  6
Continuous
 62
     7
370
    25
100
AcDbLine
 10
128.0089522983
 20
361.3288938271
 30
0.0
 11
109.0089522983
 21
361.3288938271
 31
0.0
  0
LINE
  5
3F4
330
1F
100
AcDbEntity
  8
0
  6
Continuous
 62
     7
370
    25
100
AcDbLine
 10
128.0089522983
 20
363.1288938271
 30
0.0
 11
128.0089522983
 21
361.3288938271
 31
0.0
  0
LINE
  5
3F5
330
1F
100
AcDbEntity
  8
0
  6
Continuous
 62
     7
370
    25
100
AcDbLine
 10
108.8089522983
 20
362.1288938271
 30
0.0
 11
109.0089522983
 21
362.1288938271
 31
0.0
  0
LINE
  5
3F6
330
1F
100
AcDbEntity
  8
0
  6
Continuous
 62
     7
370
    25
100
AcDbLine
 10
108.8089522983
 20
361.3288938271
 30
0.0
 11
109.0089522983
 21
361.3288938271
 31
0.0
  0
ARC
  5
3F7
330
1F
100
AcDbEntity
  8
0
  6
Continuous
 62
     7
370
    25
100
AcDbCircle
 10
108.8089522983
 20
363.1288938271
 30
0.0
 40
1.800000000000011
100
AcDbArc
 50
180.0
 51
270.0
  0
ARC
  5
3F8
330
1F
100
AcDbEntity
  8
0
  6
Continuous
 62
     7
370
    25
100
AcDbCircle
 10
108.8089522983
 20
363.1288938271
 30
0.0
 40
1.0
100
AcDbArc
 50
180.0
 51
270.0
  0
LINE
  5
3F9
330
1F
100
AcDbEntity
  8
0
  6
Continuous
 62
     7
370
    25
100
AcDbLine
 10
107.8089522983
 20
363.1288938271
 30
0.0
 11
107.8089522983
 21
373.3288938271
 31
0.0
  0
LINE
  5
3FA
330
1F
100
AcDbEntity
  8
0
  6
Continuous
 62
     7
370
    25
100
AcDbLine
 10
107.0089522983
 20
373.3288938271
 30
0.0
 11
107.8089522983
 21
373.3288938271
 31
0.0
  0
LINE
  5
3FB
330
1F
100
AcDbEntity
  8
0
  6
Continuous
 62
     7
370
    25
100
AcDbLine
 10
152.0089522983
 20
362.1288938271
 30
0.0
 11
152.0089522983
 21
361.3288938271
 31
0.0
  0
LINE
  5
3FC
330
1F
100
AcDbEntity
  8
0
  6
Continuous
 62
     7
370
    25
100
AcDbLine
 10
149.0089522983
 20
362.1288938271
 30
0.0
 11
152.0089522983
 21
362.1288938271
 31
0.0
  0
LINE
  5
3FD
330
1F
100
AcDbEntity
  8
0
  6
Continuous
 62
     7
370
    25
100
AcDbLine
 10
152.0089522983
 20
361.3288938271
 30
0.0
 11
149.0089522983
 21
361.3288938271
 31
0.0
  0
LINE
  5
3FE
330
1F
100
AcDbEntity
  8
0
  6
Continuous
 62
     7
370
    25
100
AcDbLine
 10
128.0089522983
 20
362.1288938271
 30
0.0
 11
149.0089522983
 21
362.1288938271
 31
0.0
  0
LINE
  5
3FF
330
1F
100
AcDbEntity
  8
0
  6
Continuous
 62
     7
370
    25
100
AcDbLine
 10
128.0089522983
 20
361.3288938271
 30
0.0
 11
149.0089522983
 21
361.3288938271
 31
0.0
  0
LINE
  5
400
330
1F
100
AcDbEntity
  8
0
  6
Continuous
 62
     7
370
    25
100
AcDbLine
 10
150.9135656901
 20
366.3288938271
 30
0.0
 11
150.9135656901
 21
365.5288938271
 31
0.0
  0
LINE
  5
401
330
1F
100
AcDbEntity
  8
0
  6
Continuous
 62
     7
370
    25
100
AcDbLine
 10
150.9135656901
 20
365.5288938271
 30
0.0
 11
147.9135656901
 21
365.5288938271
 31
0.0
  0
LINE
  5
402
330
1F
100
AcDbEntity
  8
0
  6
Continuous
 62
     7
370
    25
100
AcDbLine
 10
147.9135656901
 20
366.3288938271
 30
0.0
 11
150.9135656901
 21
366.3288938271
 31
0.0
  0
LINE
  5
403
330
1F
100
AcDbEntity
  8
0
  6
Continuous
 62
     7
370
    25
100
AcDbLine
 10
141.3958742365
 20
366.3288938271
 30
0.0
 11
147.9135656901
 21
366.3288938271
 31
0.0
  0
LINE
  5
404
330
1F
100
AcDbEntity
  8
0
  6
Continuous
 62
     7
370
    25
100
AcDbLine
 10
141.3958742365
 20
365.5288938271
 30
0.0
 11
147.9135656901
 21
365.5288938271
 31
0.0
  0
LINE
  5
405
330
1F
100
AcDbEntity
  8
0
  6
Continuous
 62
     7
370
    25
100
AcDbLine
 10
140.8958742365
 20
365.3949192309
 30
0.0
 11
135.2389522983
 21
362.1288938271
 31
0.0
  0
LINE
  5
406
330
1F
100
AcDbEntity
  8
0
  6
Continuous
 62
     7
370
    25
100
AcDbLine
 10
140.4958742365
 20
366.0877395539
 30
0.0
 11
133.8710031059
 21
362.2628684233
 31
0.0
  0
ARC
  5
407
330
1F
100
AcDbEntity
  8
0
  6
Continuous
 62
     7
370
    25
100
AcDbCircle
 10
141.3958742365
 20
364.5288938271
 30
0.0
 40
1.800000000000011
100
AcDbArc
 50
90.0
 51
120.0
  0
ARC
  5
408
330
1F
100
AcDbEntity
  8
0
  6
Continuous
 62
     7
370
    25
100
AcDbCircle
 10
141.3958742365
 20
364.5288938271
 30
0.0
 40
1.000000000000004
100
AcDbArc
 50
90.0
 51
120.0
  0
ARC
  5
409
330
1F
100
AcDbEntity
  8
0
  6
Continuous
 62
     7
370
    25
100
AcDbCircle
 10
133.3710031059
 20
363.1288938271
 30
0.0
 40
0.9999999999999836
100
AcDbArc
 50
270.0
 51
300.0
  0
CIRCLE
  5
40A
330
1F
100
AcDbEntity
  8
0
  6
Continuous
 62
     7
370
    25
100
AcDbCircle
 10
119.5089522983
 20
368.8288938271
 30
0.0
 40
2.458750000016586
  0
CIRCLE
  5
40B
330
1F
100
AcDbEntity
  8
0
  6
Continuous
 62
     7
370
    25
100
AcDbCircle
 10
119.5089522983
 20
368.8288938271
 30
0.0
 40
2.99999999999996
  0
LINE
  5
40C
330
1F
100
AcDbEntity
  8
0
  6
Continuous
 62
     7
370
    25
100
AcDbLine
 10
109.0089522983
 20
367.3880645052
 30
0.0
 11
108.4236322837
 21
367.3880645052
 31
0.0
  0
SPLINE
  5
40D
330
1F
100
AcDbEntity
  8
0
  6
Continuous
 62
     7
370
    25
100
AcDbSpline
210
0.0
220
0.0
230
1.0
 70
     8
 71
     3
 72
    14
 73
    10
 74
     0
 42
0.000000001
 43
0.00000001
 40
0.0
 40
0.0
 40
0.0
 40
0.0
 40
0.25
 40
0.25
 40
0.5
 40
0.5
 40
0.75
 40
0.75
 40
1.0
 40
1.0
 40
1.0
 40
1.0
 10
108.4236322836786
 20
371.378495702651
 30
0.0
 10
108.328757674368
 20
371.0539894733623
 30
0.0
 10
108.2491527494923
 20
370.721530250968
 30
0.0
 10
108.140316134598
 20
370.0549603360598
 30
0.0
 10
108.1109925289075
 20
369.7198840787846
 30
0.0
 10
108.1110573106531
 20
369.045540608557
 30
0.0
 10
108.1412135039795
 20
368.703761187878
 30
0.0
 10
108.2507987053452
 20
368.0373472682733
 30
0.0
 10
108.3293416791474
 20
367.7105732223205
 30
0.0
 10
108.4236322836786
 20
367.3880645052241
 30
0.0
  0
LINE
  5
40E
330
1F
100
AcDbEntity
  8
0
  6
Continuous
 62
     7
370
    25
100
AcDbLine
 10
109.0089522983
 20
371.3784957027
 30
0.0
 11
108.4236322837
 21
371.3784957027
 31
0.0
  0
SPLINE
  5
40F
330
1F
100
AcDbEntity
  8
0
  6
Continuous
 62
     7
370
    25
100
AcDbSpline
210
0.0
220
0.0
230
1.0
 70
     8
 71
     3
 72
    12
 73
     8
 74
     0
 42
0.000000001
 43
0.00000001
 40
0.0
 40
0.0
 40
0.0
 40
0.0
 40
0.5000000000000078
 40
0.5000000000000078
 40
0.7500000000000039
 40
0.7500000000000039
 40
1.0
 40
1.0
 40
1.0
 40
1.0
 10
108.4236322836776
 20
367.3880645052242
 30
0.0
 10
108.2331379942541
 20
366.9717634215697
 30
0.0
 10
108.1114635811918
 20
366.5492248935812
 30
0.0
 10
108.1108073906605
 20
365.8989347541204
 30
0.0
 10
108.1406413924549
 20
365.682392536206
 30
0.0
 10
108.2495712625625
 20
365.2570245309656
 30
0.0
 10
108.3282664496254
 20
365.0468725519805
 30
0.0
 10
108.4236322836781
 20
364.8384626296677
 30
0.0
  0
LINE
  5
410
330
1F
100
AcDbEntity
  8
0
  6
Continuous
 62
     7
370
    25
100
AcDbLine
 10
108.4236322837
 20
364.8384626297
 30
0.0
 11
108.3257572464
 21
365.08136738
 31
0.0
  0
SPLINE
  5
411
330
1F
100
AcDbEntity
  8
0
  6
Continuous
 62
     7
370
    25
100
AcDbSpline
210
0.0
220
0.0
230
1.0
 70
     8
 71
     3
 72
    12
 73
     8
 74
     0
 42
0.000000001
 43
0.00000001
 40
0.0
 40
0.0
 40
0.0
 40
0.0
 40
0.4999999999999887
 40
0.4999999999999887
 40
0.7499999999999943
 40
0.7499999999999943
 40
1.0
 40
1.0
 40
1.0
 40
1.0
 10
108.4236322836776
 20
372.8193250245215
 30
0.0
 10
108.2331379942541
 20
372.5840652320784
 30
0.0
 10
108.1114635811917
 20
372.3452805392279
 30
0.0
 10
108.1108073906605
 20
371.9777890066709
 30
0.0
 10
108.1406413924549
 20
371.8554168120216
 30
0.0
 10
108.2495712625625
 20
371.6150331268621
 30
0.0
 10
108.3282664496254
 20
371.4962721798005
 30
0.0
 10
108.4236322836781
 20
371.3784957026509
 30
0.0
  0
LINE
  5
412
330
1F
100
AcDbEntity
  8
0
  6
Continuous
 62
     7
370
    25
100
AcDbLine
 10
107.9089522983
 20
365.6788938271
 30
0.0
 11
107.9089522983
 21
371.9788938271
 31
0.0
  0
LINE
  5
413
330
1F
100
AcDbEntity
  8
0
  6
Continuous
 62
     7
370
    25
100
AcDbLine
 10
109.0089522983
 20
364.8384626297
 30
0.0
 11
108.4236322837
 21
364.8384626297
 31
0.0
  0
LINE
  5
414
330
1F
100
AcDbEntity
  8
0
  6
Continuous
 62
     7
370
    25
100
AcDbLine
 10
109.0089522983
 20
372.8193250245
 30
0.0
 11
108.4236322837
 21
372.8193250245
 31
0.0
  0
LINE
  5
415
330
1F
100
AcDbEntity
  8
0
  6
Continuous
 62
     7
370
    25
100
AcDbLine
 10
105.2089522983
 20
359.6288938271
 30
0.0
 11
100.9089522983
 21
359.6288938271
 31
0.0
  0
LINE
  5
416
330
1F
100
AcDbEntity
  8
0
  6
Continuous
 62
     7
370
    25
100
AcDbLine
 10
105.2089522983
 20
358.8288938271
 30
0.0
 11
105.2089522983
 21
359.6288938271
 31
0.0
  0
LINE
  5
417
330
1F
100
AcDbEntity
  8
0
  6
Continuous
 62
     7
370
    25
100
AcDbLine
 10
105.2089522983
 20
358.8288938271
 30
0.0
 11
100.9089522983
 21
358.8288938271
 31
0.0
  0
LINE
  5
418
330
1F
100
AcDbEntity
  8
0
  6
Continuous
 62
     7
370
    25
100
AcDbLine
 10
105.2089522983
 20
378.8288938271
 30
0.0
 11
95.3089522983
 21
378.8288938271
 31
0.0
  0
LINE
  5
419
330
1F
100
AcDbEntity
  8
0
  6
Continuous
 62
     7
370
    25
100
AcDbLine
 10
105.2089522983
 20
378.0288938271
 30
0.0
 11
105.2089522983
 21
378.8288938271
 31
0.0
  0
LINE
  5
41A
330
1F
100
AcDbEntity
  8
0
  6
Continuous
 62
     7
370
    25
100
AcDbLine
 10
95.3089522983
 20
378.0288938271
 30
0.0
 11
105.2089522983
 21
378.0288938271
 31
0.0
  0
LINE
  5
41B
330
1F
100
AcDbEntity
  8
0
  6
Continuous
 62
     7
370
    25
100
AcDbLine
 10
95.3089522983
 20
378.0288938271
 30
0.0
 11
95.3089522983
 21
377.9288938271
 31
0.0
  0
LINE
  5
41C
330
1F
100
AcDbEntity
  8
0
  6
Continuous
 62
     7
370
    25
100
AcDbLine
 10
95.3089522983
 20
377.9288938271
 30
0.0
 11
100.4589522983
 21
377.9288938271
 31
0.0
  0
LINE
  5
41D
330
1F
100
AcDbEntity
  8
0
  6
Continuous
 62
     7
370
    25
100
AcDbLine
 10
100.4589522983
 20
377.1288938271
 30
0.0
 11
100.4589522983
 21
377.9288938271
 31
0.0
  0
LINE
  5
41E
330
1F
100
AcDbEntity
  8
0
  6
Continuous
 62
     7
370
    25
100
AcDbLine
 10
95.3089522983
 20
377.1288938271
 30
0.0
 11
100.4589522983
 21
377.1288938271
 31
0.0
  0
ARC
  5
41F
330
1F
100
AcDbEntity
  8
0
  6
Continuous
 62
     7
370
    25
100
AcDbCircle
 10
95.3089522983
 20
377.9788938271
 30
0.0
 40
0.8500000000000227
100
AcDbArc
 50
90.0
 51
270.0
  0
ARC
  5
420
330
1F
100
AcDbEntity
  8
0
  6
Continuous
 62
     7
370
    25
100
AcDbCircle
 10
105.2089522983
 20
360.6288938271
 30
0.0
 40
1.800000000000125
100
AcDbArc
 50
270.0
 51
360.0
  0
ARC
  5
421
330
1F
100
AcDbEntity
  8
0
  6
Continuous
 62
     7
370
    25
100
AcDbCircle
 10
105.2089522983
 20
377.0288938271
 30
0.0
 40
1.000000000000057
100
AcDbArc
 50
0.0
 51
90.0
  0
ARC
  5
422
330
1F
100
AcDbEntity
  8
0
  6
Continuous
 62
     7
370
    25
100
AcDbCircle
 10
105.2089522983
 20
360.6288938271
 30
0.0
 40
1.000000000000014
100
AcDbArc
 50
270.0
 51
0.0
  0
LINE
  5
423
330
1F
100
AcDbEntity
  8
0
  6
Continuous
 62
     7
370
    25
100
AcDbLine
 10
107.0089522983
 20
360.6288938271
 30
0.0
 11
107.0089522983
 21
377.0288938271
 31
0.0
  0
LINE
  5
424
330
1F
100
AcDbEntity
  8
0
  6
Continuous
 62
     7
370
    25
100
AcDbLine
 10
106.2089522983
 20
360.6288938271
 30
0.0
 11
106.2089522983
 21
377.0288938271
 31
0.0
  0
ARC
  5
425
330
1F
100
AcDbEntity
  8
0
  6
Continuous
 62
     7
370
    25
100
AcDbCircle
 10
105.2089522983
 20
377.0288938271
 30
0.0
 40
1.800000000000011
100
AcDbArc
 50
0.0
 51
90.0
  0
LINE
  5
426
330
1F
100
AcDbEntity
  8
0
  6
Continuous
 62
     7
370
    25
100
AcDbLine
 10
104.2089522983
 20
372.8288938271
 30
0.0
 11
104.2089522983
 21
364.8288938271
 31
0.0
  0
LWPOLYLINE
  5
427
330
1F
100
AcDbEntity
  8
0
  6
Continuous
 62
     7
370
    25
100
AcDbPolyline
 90
        3
 70
   128
 43
0.0
 10
103.2029081817
 20
369.5526752297
 10
103.1985076567
 20
369.5099799009
 10
103.182282808
 20
369.326281572
  0
ARC
  5
428
330
1F
100
AcDbEntity
  8
0
  6
Continuous
 62
     7
370
    25
100
AcDbCircle
 10
103.7066757325
 20
369.6394094095
 30
0.0
 40
0.6107675350080953
100
AcDbArc
 50
210.8424581413
 51
243.3898036633
  0
ARC
  5
429
330
1F
100
AcDbEntity
  8
0
  6
Continuous
 62
     7
370
    25
100
AcDbCircle
 10
112.5896096538
 20
368.4978964582
 30
0.0
 40
9.17581504356766
100
AcDbArc
 50
177.9327321272
 51
179.6562101054
  0
ARC
  5
42A
330
1F
100
AcDbEntity
  8
0
  6
Continuous
 62
     7
370
    25
100
AcDbCircle
 10
110.945932196
 20
368.734756552
 30
0.0
 40
7.78628841509324
100
AcDbArc
 50
184.3702527064
 51
195.2299003794
  0
ARC
  5
42B
330
1F
100
AcDbEntity
  8
0
  6
Continuous
 62
     7
370
    25
100
AcDbCircle
 10
103.6542238633
 20
366.7843927108
 30
0.0
 40
0.2406805056720185
100
AcDbArc
 50
156.7420981704
 51
203.2579018295
  0
ARC
  5
42C
330
1F
100
AcDbEntity
  8
0
  6
Continuous
 62
     7
370
    25
100
AcDbCircle
 10
110.945932196
 20
368.9248318469
 30
0.0
 40
7.78628841509665
100
AcDbArc
 50
184.3702527064
 51
195.2299003794
  0
ARC
  5
42D
330
1F
100
AcDbEntity
  8
0
  6
Continuous
 62
     7
370
    25
100
AcDbCircle
 10
103.7066757325
 20
368.0183782446
 30
0.0
 40
0.610767535008134
100
AcDbArc
 50
116.6101963367
 51
149.1575418587
  0
ARC
  5
42E
330
1F
100
AcDbEntity
  8
0
  6
Continuous
 62
     7
370
    25
100
AcDbCircle
 10
112.5127378739
 20
369.1568753397
 30
0.0
 40
9.098942710246297
100
AcDbArc
 50
176.2668736478
 51
183.7331263522
  0
ARC
  5
42F
330
1F
100
AcDbEntity
  8
0
  6
Continuous
 62
     7
370
    25
100
AcDbCircle
 10
103.7066757325
 20
369.2032290294
 30
0.0
 40
0.6107675350082669
100
AcDbArc
 50
116.6101963367
 51
149.1575418587
  0
ARC
  5
430
330
1F
100
AcDbEntity
  8
0
  6
Continuous
 62
     7
370
    25
100
AcDbCircle
 10
110.945932196
 20
368.9230311022
 30
0.0
 40
7.786288415096353
100
AcDbArc
 50
164.7700996206
 51
175.6297472936
  0
ARC
  5
431
330
1F
100
AcDbEntity
  8
0
  6
Continuous
 62
     7
370
    25
100
AcDbCircle
 10
103.5661860769
 20
370.8944962039
 30
0.0
 40
0.1522432420612113
100
AcDbArc
 50
150.9451665855
 51
179.1449116563
  0
LINE
  5
432
330
1F
100
AcDbEntity
  8
0
  6
Continuous
 62
     7
370
    25
100
AcDbLine
 10
103.182282808
 20
369.516356867
 30
0.0
 11
103.4208384659
 21
369.516356867
 31
0.0
  0
LINE
  5
433
330
1F
100
AcDbEntity
  8
0
  6
Continuous
 62
     7
370
    25
100
AcDbLine
 10
103.182282808
 20
368.1414307872
 30
0.0
 11
103.1991497998
 21
368.1414307872
 31
0.0
  0
LINE
  5
434
330
1F
100
AcDbEntity
  8
0
  6
Continuous
 62
     7
370
    25
100
AcDbLine
 10
103.182282808
 20
369.326281572
 30
0.0
 11
103.4153331244
 21
369.326281572
 31
0.0
  0
LINE
  5
435
330
1F
100
AcDbEntity
  8
0
  6
Continuous
 62
     7
370
    25
100
AcDbLine
 10
127.4089522983
 20
310.1632006645
 30
0.0
 11
127.4089522983
 21
305.0221244276
 31
0.0
  0
ARC
  5
436
330
1F
100
AcDbEntity
  8
0
  6
Continuous
 62
     7
370
    25
100
AcDbCircle
 10
125.4674411875
 20
305.0843670035
 30
0.0
 40
1.9425085666552
100
AcDbArc
 50
268.2745645851
 51
358.1637932023
  0
LINE
  5
437
330
1F
100
AcDbEntity
  8
0
  6
Continuous
 62
     7
370
    25
100
AcDbLine
 10
125.4089522983
 20
303.142739186
 30
0.0
 11
113.4089522983
 21
303.142739186
 31
0.0
  0
ARC
  5
438
330
1F
100
AcDbEntity
  8
0
  6
Continuous
 62
     7
370
    25
100
AcDbCircle
 10
113.3504634091
 20
305.0843670035
 30
0.0
 40
1.942508566655188
100
AcDbArc
 50
181.8362067977
 51
271.7254354149
  0
LINE
  5
439
330
1F
100
AcDbEntity
  8
0
  6
Continuous
 62
     7
370
    25
100
AcDbLine
 10
111.4089522983
 20
305.0221244276
 30
0.0
 11
111.4089522983
 21
310.1632006645
 31
0.0
  0
LINE
  5
43A
330
1F
100
AcDbEntity
  8
0
  6
Continuous
 62
     7
370
    25
100
AcDbLine
 10
125.4089522983
 20
302.4586988994
 30
0.0
 11
113.4089522983
 21
302.4586988994
 31
0.0
  0
LINE
  5
43B
330
1F
100
AcDbEntity
  8
0
  6
Continuous
 62
     7
370
    25
100
AcDbLine
 10
127.4089522983
 20
305.0221244276
 30
0.0
 11
127.4089522983
 21
304.338084141
 31
0.0
  0
ARC
  5
43C
330
1F
100
AcDbEntity
  8
0
  6
Continuous
 62
     7
370
    25
100
AcDbCircle
 10
125.4674411875
 20
304.4003267168
 30
0.0
 40
1.942508566655188
100
AcDbArc
 50
268.2745645851
 51
358.1637932023
  0
LINE
  5
43D
330
1F
100
AcDbEntity
  8
0
  6
Continuous
 62
     7
370
    25
100
AcDbLine
 10
111.4089522983
 20
304.338084141
 30
0.0
 11
111.4089522983
 21
305.0221244276
 31
0.0
  0
ARC
  5
43E
330
1F
100
AcDbEntity
  8
0
  6
Continuous
 62
     7
370
    25
100
AcDbCircle
 10
113.3504634091
 20
304.4003267168
 30
0.0
 40
1.942508566655188
100
AcDbArc
 50
181.8362067977
 51
271.7254354149
  0
LINE
  5
43F
330
1F
100
AcDbEntity
  8
0
  6
Continuous
 62
     7
370
    25
100
AcDbLine
 10
127.4089522983
 20
310.1632006645
 30
0.0
 11
127.4089522983
 21
310.5052208078
 31
0.0
  0
LINE
  5
440
330
1F
100
AcDbEntity
  8
0
  6
Continuous
 62
     7
370
    25
100
AcDbLine
 10
111.4089522983
 20
310.5052208078
 30
0.0
 11
111.4089522983
 21
310.1632006645
 31
0.0
  0
LINE
  5
441
330
1F
100
AcDbEntity
  8
0
  6
Continuous
 62
     7
370
    25
100
AcDbLine
 10
100.9089522983
 20
310.3288938271
 30
0.0
 11
111.4089522983
 21
310.3288938271
 31
0.0
  0
LINE
  5
442
330
1F
100
AcDbEntity
  8
0
  6
Continuous
 62
     7
370
    25
100
AcDbLine
 10
125.4089522983
 20
325.3288938271
 30
0.0
 11
100.9089522983
 21
325.3288938271
 31
0.0
  0
ARC
  5
443
330
1F
100
AcDbEntity
  8
0
  6
Continuous
 62
     7
370
    25
100
AcDbCircle
 10
125.4089522983
 20
323.3288938271
 30
0.0
 40
2.0
100
AcDbArc
 50
0.0
 51
90.0
  0
LINE
  5
444
330
1F
100
AcDbEntity
  8
0
  6
Continuous
 62
     7
370
    25
100
AcDbLine
 10
127.4089522983
 20
310.5052208078
 30
0.0
 11
127.4089522983
 21
323.3288938271
 31
0.0
  0
CIRCLE
  5
445
330
1F
100
AcDbEntity
  8
0
  6
Continuous
 62
     7
370
    25
100
AcDbCircle
 10
119.5089522983
 20
317.8288938271
 30
0.0
 40
3.499999999999986
  0
LINE
  5
446
330
1F
100
AcDbEntity
  8
0
  6
Continuous
 62
     7
370
    25
100
AcDbLine
 10
127.4089522983
 20
210.1632006645
 30
0.0
 11
127.4089522983
 21
205.0221244276
 31
0.0
  0
ARC
  5
447
330
1F
100
AcDbEntity
  8
0
  6
Continuous
 62
     7
370
    25
100
AcDbCircle
 10
125.4674411875
 20
205.0843670035
 30
0.0
 40
1.942508566655188
100
AcDbArc
 50
268.2745645851
 51
358.1637932023
  0
LINE
  5
448
330
1F
100
AcDbEntity
  8
0
  6
Continuous
 62
     7
370
    25
100
AcDbLine
 10
125.4089522983
 20
203.142739186
 30
0.0
 11
113.4089522983
 21
203.142739186
 31
0.0
  0
ARC
  5
449
330
1F
100
AcDbEntity
  8
0
  6
Continuous
 62
     7
370
    25
100
AcDbCircle
 10
113.3504634091
 20
205.0843670035
 30
0.0
 40
1.942508566655273
100
AcDbArc
 50
181.8362067977
 51
271.7254354149
  0
LINE
  5
44A
330
1F
100
AcDbEntity
  8
0
  6
Continuous
 62
     7
370
    25
100
AcDbLine
 10
111.4089522983
 20
205.0221244276
 30
0.0
 11
111.4089522983
 21
210.1632006645
 31
0.0
  0
LINE
  5
44B
330
1F
100
AcDbEntity
  8
0
  6
Continuous
 62
     7
370
    25
100
AcDbLine
 10
127.4089522983
 20
205.0221244276
 30
0.0
 11
127.4089522983
 21
204.338084141
 31
0.0
  0
ARC
  5
44C
330
1F
100
AcDbEntity
  8
0
  6
Continuous
 62
     7
370
    25
100
AcDbCircle
 10
125.4674411875
 20
204.4003267168
 30
0.0
 40
1.942508566655327
100
AcDbArc
 50
268.2745645851
 51
358.1637932023
  0
LINE
  5
44D
330
1F
100
AcDbEntity
  8
0
  6
Continuous
 62
     7
370
    25
100
AcDbLine
 10
125.4089522983
 20
202.4586988994
 30
0.0
 11
113.4089522983
 21
202.4586988994
 31
0.0
  0
LINE
  5
44E
330
1F
100
AcDbEntity
  8
0
  6
Continuous
 62
     7
370
    25
100
AcDbLine
 10
111.4089522983
 20
204.338084141
 30
0.0
 11
111.4089522983
 21
205.0221244276
 31
0.0
  0
ARC
  5
44F
330
1F
100
AcDbEntity
  8
0
  6
Continuous
 62
     7
370
    25
100
AcDbCircle
 10
113.3504634091
 20
204.4003267168
 30
0.0
 40
1.942508566655287
100
AcDbArc
 50
181.8362067977
 51
271.7254354149
  0
LINE
  5
450
330
1F
100
AcDbEntity
  8
0
  6
Continuous
 62
     7
370
    25
100
AcDbLine
 10
111.4089522983
 20
210.5052208078
 30
0.0
 11
111.4089522983
 21
210.1632006645
 31
0.0
  0
LINE
  5
451
330
1F
100
AcDbEntity
  8
0
  6
Continuous
 62
     7
370
    25
100
AcDbLine
 10
127.4089522983
 20
210.1632006645
 30
0.0
 11
127.4089522983
 21
210.5052208078
 31
0.0
  0
LINE
  5
452
330
1F
100
AcDbEntity
  8
0
  6
Continuous
 62
     7
370
    25
100
AcDbLine
 10
100.9089522983
 20
210.3288938271
 30
0.0
 11
111.4089522983
 21
210.3288938271
 31
0.0
  0
ARC
  5
453
330
1F
100
AcDbEntity
  8
0
  6
Continuous
 62
     7
370
    25
100
AcDbCircle
 10
125.4089522983
 20
223.3288938271
 30
0.0
 40
2.0
100
AcDbArc
 50
0.0
 51
90.0
  0
LINE
  5
454
330
1F
100
AcDbEntity
  8
0
  6
Continuous
 62
     7
370
    25
100
AcDbLine
 10
127.4089522983
 20
210.5052208078
 30
0.0
 11
127.4089522983
 21
223.3288938271
 31
0.0
  0
CIRCLE
  5
455
330
1F
100
AcDbEntity
  8
0
  6
Continuous
 62
     7
370
    25
100
AcDbCircle
 10
119.5089522983
 20
217.8288938271
 30
0.0
 40
3.5
  0
LINE
  5
456
330
1F
100
AcDbEntity
  8
0
  6
Continuous
 62
     7
370
    25
100
AcDbLine
 10
125.4089522983
 20
225.3288938271
 30
0.0
 11
100.9089522983
 21
225.3288938271
 31
0.0
  0
CIRCLE
  5
457
330
1F
100
AcDbEntity
  8
0
  6
Continuous
 62
     7
370
    25
100
AcDbCircle
 10
119.5089522983
 20
317.8288938271
 30
0.0
 40
2.458750000016591
  0
CIRCLE
  5
458
330
1F
100
AcDbEntity
  8
0
  6
Continuous
 62
     7
370
    25
100
AcDbCircle
 10
119.5089522983
 20
317.8288938271
 30
0.0
 40
2.999999999999994
  0
ENDSEC
  0
SECTION
  2
OBJECTS
  0
DICTIONARY
  5
C
330
0
100
AcDbDictionary
281
     1
  3
ACAD_GROUP
350
D
  3
ACAD_LAYOUT
350
1A
  3
ACAD_MLINESTYLE
350
17
  3
ACAD_PLOTSETTINGS
350
19
  3
ACAD_PLOTSTYLENAME
350
E
  3
ACAD_SCALELIST
350
47
  0
DICTIONARY
  5
D
102
{ACAD_REACTORS
330
C
102
}
330
C
100
AcDbDictionary
281
     1
  0
DICTIONARY
  5
1A
102
{ACAD_REACTORS
330
C
102
}
330
C
100
AcDbDictionary
281
     1
  3
Layout1
350
1E
  3
Layout2
350
26
  3
Model
350
22
  0
DICTIONARY
  5
17
102
{ACAD_REACTORS
330
C
102
}
330
C
100
AcDbDictionary
281
     1
  3
Standard
350
18
  0
DICTIONARY
  5
19
102
{ACAD_REACTORS
330
C
102
}
330
C
100
AcDbDictionary
281
     1
  0
ACDBDICTIONARYWDFLT
  5
E
102
{ACAD_REACTORS
330
C
102
}
330
C
100
AcDbDictionary
281
     1
  3
Normal
350
F
100
AcDbDictionaryWithDefault
340
F
  0
DICTIONARY
  5
47
102
{ACAD_REACTORS
330
C
102
}
330
C
100
AcDbDictionary
281
     1
  3
A0
350
48
  3
A1
350
49
  3
A2
350
4A
  3
A3
350
4B
  3
A4
350
4C
  3
A5
350
4D
  3
A6
350
4E
  3
A7
350
4F
  3
A8
350
50
  3
A9
350
51
  3
B0
350
52
  3
B1
350
53
  3
B2
350
54
  3
B3
350
55
  3
B4
350
56
  3
B5
350
57
  3
B6
350
58
  3
B7
350
59
  3
B8
350
5A
  3
B9
350
5B
  3
C0
350
5C
  3
C1
350
5D
  3
C2
350
5E
  3
C3
350
5F
  3
C4
350
60
  3
C5
350
61
  3
C6
350
62
  3
C7
350
63
  3
C8
350
64
  3
C9
350
65
  3
D0
350
66
  3
D1
350
67
  3
D2
350
68
  0
LAYOUT
  5
1E
102
{ACAD_REACTORS
330
1A
102
}
330
1A
100
AcDbPlotSettings
  1

  2
none_device
  4

  6

 40
0.0
 41
0.0
 42
0.0
 43
0.0
 44
0.0
 45
0.0
 46
0.0
 47
0.0
 48
0.0
 49
0.0
140
0.0
141
0.0
142
1.0
143
1.0
 70
   688
 72
     1
 73
     0
 74
     5
  7

 75
    16
147
1.0
148
0.0
149
0.0
100
AcDbLayout
  1
Layout1
 70
     1
 71
     1
 10
0.0
 20
0.0
 11
420.0
 21
297.0
 12
0.0
 22
0.0
 32
0.0
 14
1.0000000000E+20
 24
1.0000000000E+20
 34
1.0000000000E+20
 15
-1.0000000000E+20
 25
-1.0000000000E+20
 35
-1.0000000000E+20
146
0.0
 13
0.0
 23
0.0
 33
0.0
 16
1.0
 26
0.0
 36
0.0
 17
0.0
 27
1.0
 37
0.0
 76
     0
330
1B
  0
LAYOUT
  5
26
102
{ACAD_REACTORS
330
1A
102
}
330
1A
100
AcDbPlotSettings
  1

  2
none_device
  4

  6

 40
0.0
 41
0.0
 42
0.0
 43
0.0
 44
0.0
 45
0.0
 46
0.0
 47
0.0
 48
0.0
 49
0.0
140
0.0
141
0.0
142
1.0
143
1.0
 70
   688
 72
     1
 73
     0
 74
     5
  7

 75
    16
147
1.0
148
0.0
149
0.0
100
AcDbLayout
  1
Layout2
 70
     1
 71
     2
 10
0.0
 20
0.0
 11
0.0
 21
0.0
 12
0.0
 22
0.0
 32
0.0
 14
0.0
 24
0.0
 34
0.0
 15
0.0
 25
0.0
 35
0.0
146
0.0
 13
0.0
 23
0.0
 33
0.0
 16
1.0
 26
0.0
 36
0.0
 17
0.0
 27
1.0
 37
0.0
 76
     0
330
23
  0
LAYOUT
  5
22
102
{ACAD_REACTORS
330
1A
102
}
330
1A
100
AcDbPlotSettings
  1

  2
none_device
  4
Letter_(8.50_x_11.00_Inches)
  6

 40
6.35
 41
6.35
 42
6.35000508
 43
6.35000508
 44
215.9
 45
279.4
 46
0.0
 47
0.0
 48
0.0
 49
0.0
140
0.0
141
0.0
142
1.0
143
1.0
 70
  1712
 72
     1
 73
     0
 74
     0
  7

 75
     0
147
1.0
148
0.0
149
0.0
100
AcDbLayout
  1
Model
 70
     1
 71
     0
 10
0.0
 20
0.0
 11
841.0
 21
594.0
 12
0.0
 22
0.0
 32
0.0
 14
0.0
 24
0.0
 34
0.0
 15
841.0
 25
594.0
 35
0.0
146
0.0
 13
0.0
 23
0.0
 33
0.0
 16
1.0
 26
0.0
 36
0.0
 17
0.0
 27
1.0
 37
0.0
 76
     0
330
1F
331
29
  0
MLINESTYLE
  5
18
102
{ACAD_REACTORS
330
17
102
}
330
17
100
AcDbMlineStyle
  2
Standard
 70
     0
  3

 62
   256
 51
90.0
 52
90.0
 71
     2
 49
0.5
 62
   256
  6
BYLAYER
 49
-0.5
 62
   256
  6
BYLAYER
  0
ACDBPLACEHOLDER
  5
F
102
{ACAD_REACTORS
330
E
102
}
330
E
  0
SCALE
  5
48
102
{ACAD_REACTORS
330
47
102
}
330
47
100
AcDbScale
 70
     0
300
1:1
140
1.0
141
1.0
290
     1
  0
SCALE
  5
49
102
{ACAD_REACTORS
330
47
102
}
330
47
100
AcDbScale
 70
     0
300
1:2
140
1.0
141
2.0
290
     0
  0
SCALE
  5
4A
102
{ACAD_REACTORS
330
47
102
}
330
47
100
AcDbScale
 70
     0
300
1:4
140
1.0
141
4.0
290
     0
  0
SCALE
  5
4B
102
{ACAD_REACTORS
330
47
102
}
330
47
100
AcDbScale
 70
     0
300
1:5
140
1.0
141
5.0
290
     0
  0
SCALE
  5
4C
102
{ACAD_REACTORS
330
47
102
}
330
47
100
AcDbScale
 70
     0
300
1:8
140
1.0
141
8.0
290
     0
  0
SCALE
  5
4D
102
{ACAD_REACTORS
330
47
102
}
330
47
100
AcDbScale
 70
     0
300
1:10
140
1.0
141
10.0
290
     0
  0
SCALE
  5
4E
102
{ACAD_REACTORS
330
47
102
}
330
47
100
AcDbScale
 70
     0
300
1:16
140
1.0
141
16.0
290
     0
  0
SCALE
  5
4F
102
{ACAD_REACTORS
330
47
102
}
330
47
100
AcDbScale
 70
     0
300
1:20
140
1.0
141
20.0
290
     0
  0
SCALE
  5
50
102
{ACAD_REACTORS
330
47
102
}
330
47
100
AcDbScale
 70
     0
300
1:30
140
1.0
141
30.0
290
     0
  0
SCALE
  5
51
102
{ACAD_REACTORS
330
47
102
}
330
47
100
AcDbScale
 70
     0
300
1:40
140
1.0
141
40.0
290
     0
  0
SCALE
  5
52
102
{ACAD_REACTORS
330
47
102
}
330
47
100
AcDbScale
 70
     0
300
1:50
140
1.0
141
50.0
290
     0
  0
SCALE
  5
53
102
{ACAD_REACTORS
330
47
102
}
330
47
100
AcDbScale
 70
     0
300
1:100
140
1.0
141
100.0
290
     0
  0
SCALE
  5
54
102
{ACAD_REACTORS
330
47
102
}
330
47
100
AcDbScale
 70
     0
300
2:1
140
2.0
141
1.0
290
     0
  0
SCALE
  5
55
102
{ACAD_REACTORS
330
47
102
}
330
47
100
AcDbScale
 70
     0
300
4:1
140
4.0
141
1.0
290
     0
  0
SCALE
  5
56
102
{ACAD_REACTORS
330
47
102
}
330
47
100
AcDbScale
 70
     0
300
8:1
140
8.0
141
1.0
290
     0
  0
SCALE
  5
57
102
{ACAD_REACTORS
330
47
102
}
330
47
100
AcDbScale
 70
     0
300
10:1
140
10.0
141
1.0
290
     0
  0
SCALE
  5
58
102
{ACAD_REACTORS
330
47
102
}
330
47
100
AcDbScale
 70
     0
300
100:1
140
100.0
141
1.0
290
     0
  0
SCALE
  5
59
102
{ACAD_REACTORS
330
47
102
}
330
47
100
AcDbScale
 70
     0
300
1/128" = 1'-0"
140
0.0078125
141
12.0
290
     0
  0
SCALE
  5
5A
102
{ACAD_REACTORS
330
47
102
}
330
47
100
AcDbScale
 70
     0
300
1/64" = 1'-0"
140
0.015625
141
12.0
290
     0
  0
SCALE
  5
5B
102
{ACAD_REACTORS
330
47
102
}
330
47
100
AcDbScale
 70
     0
300
1/32" = 1'-0"
140
0.03125
141
12.0
290
     0
  0
SCALE
  5
5C
102
{ACAD_REACTORS
330
47
102
}
330
47
100
AcDbScale
 70
     0
300
1/16" = 1'-0"
140
0.0625
141
12.0
290
     0
  0
SCALE
  5
5D
102
{ACAD_REACTORS
330
47
102
}
330
47
100
AcDbScale
 70
     0
300
3/32" = 1'-0"
140
0.09375
141
12.0
290
     0
  0
SCALE
  5
5E
102
{ACAD_REACTORS
330
47
102
}
330
47
100
AcDbScale
 70
     0
300
1/8" = 1'-0"
140
0.125
141
12.0
290
     0
  0
SCALE
  5
5F
102
{ACAD_REACTORS
330
47
102
}
330
47
100
AcDbScale
 70
     0
300
3/16" = 1'-0"
140
0.1875
141
12.0
290
     0
  0
SCALE
  5
60
102
{ACAD_REACTORS
330
47
102
}
330
47
100
AcDbScale
 70
     0
300
1/4" = 1'-0"
140
0.25
141
12.0
290
     0
  0
SCALE
  5
61
102
{ACAD_REACTORS
330
47
102
}
330
47
100
AcDbScale
 70
     0
300
3/8" = 1'-0"
140
0.375
141
12.0
290
     0
  0
SCALE
  5
62
102
{ACAD_REACTORS
330
47
102
}
330
47
100
AcDbScale
 70
     0
300
1/2" = 1'-0"
140
0.5
141
12.0
290
     0
  0
SCALE
  5
63
102
{ACAD_REACTORS
330
47
102
}
330
47
100
AcDbScale
 70
     0
300
3/4" = 1'-0"
140
0.75
141
12.0
290
     0
  0
SCALE
  5
64
102
{ACAD_REACTORS
330
47
102
}
330
47
100
AcDbScale
 70
     0
300
1" = 1'-0"
140
1.0
141
12.0
290
     0
  0
SCALE
  5
65
102
{ACAD_REACTORS
330
47
102
}
330
47
100
AcDbScale
 70
     0
300
1-1/2" = 1'-0"
140
1.5
141
12.0
290
     0
  0
SCALE
  5
66
102
{ACAD_REACTORS
330
47
102
}
330
47
100
AcDbScale
 70
     0
300
3" = 1'-0"
140
3.0
141
12.0
290
     0
  0
SCALE
  5
67
102
{ACAD_REACTORS
330
47
102
}
330
47
100
AcDbScale
 70
     0
300
6" = 1'-0"
140
6.0
141
12.0
290
     0
  0
SCALE
  5
68
102
{ACAD_REACTORS
330
47
102
}
330
47
100
AcDbScale
 70
     0
300
1'-0" = 1'-0"
140
12.0
141
12.0
290
     0
  0
ENDSEC
  0
EOF
