  0
SECTION
  2
HEADER
  9
$ACADVER
  1
AC1015
  9
$ACADMAINTVER
 70
     6
  9
$DWGCODEPAGE
  3
ANSI_1251
  9
$INSBASE
 10
0.0
 20
0.0
 30
0.0
  9
$EXTMIN
 10
0.0
 20
0.0
 30
0.0
  9
$EXTMAX
 10
420.0
 20
297.0
 30
0.0
  9
$LIMMIN
 10
0.0
 20
0.0
  9
$LIMMAX
 10
420.0
 20
297.0
  9
$ORTHOMODE
 70
     0
  9
$REGENMODE
 70
     1
  9
$FILLMODE
 70
     1
  9
$QTEXTMODE
 70
     0
  9
$MIRRTEXT
 70
     1
  9
$LTSCALE
 40
1.0
  9
$ATTMODE
 70
     1
  9
$TEXTSIZE
 40
5.0
  9
$TRACEWID
 40
1.0
  9
$TEXTSTYLE
  7
Standard
  9
$CLAYER
  8
0
  9
$CELTYPE
  6
ByLayer
  9
$CECOLOR
 62
   256
  9
$CELTSCALE
 40
1.0
  9
$DISPSILH
 70
     0
  9
$DIMSCALE
 40
1.0
  9
$DIMASZ
 40
5.0
  9
$DIMEXO
 40
0.0
  9
$DIMDLI
 40
3.75
  9
$DIMRND
 40
0.0
  9
$DIMDLE
 40
0.0
  9
$DIMEXE
 40
1.0
  9
$DIMTP
 40
0.0
  9
$DIMTM
 40
0.0
  9
$DIMTXT
 40
3.5
  9
$DIMCEN
 40
2.5
  9
$DIMTSZ
 40
0.0
  9
$DIMTOL
 70
     0
  9
$DIMLIM
 70
     0
  9
$DIMTIH
 70
     1
  9
$DIMTOH
 70
     1
  9
$DIMSE1
 70
     0
  9
$DIMSE2
 70
     0
  9
$DIMTAD
 70
     1
  9
$DIMZIN
 70
     0
  9
$DIMBLK
  1

  9
$DIMASO
 70
     1
  9
$DIMSHO
 70
     1
  9
$DIMPOST
  1

  9
$DIMAPOST
  1

  9
$DIMALT
 70
     0
  9
$DIMALTD
 70
     3
  9
$DIMALTF
 40
0.0393700787
  9
$DIMLFAC
 40
1.0
  9
$DIMTOFL
 70
     1
  9
$DIMTVP
 40
0.0
  9
$DIMTIX
 70
     0
  9
$DIMSOXD
 70
     0
  9
$DIMSAH
 70
     0
  9
$DIMBLK1
  1

  9
$DIMBLK2
  1

  9
$DIMSTYLE
  2
ISO-25
  9
$DIMCLRD
 70
     0
  9
$DIMCLRE
 70
     0
  9
$DIMCLRT
 70
     0
  9
$DIMTFAC
 40
1.0
  9
$DIMGAP
 40
1.5
  9
$DIMJUST
 70
     0
  9
$DIMSD1
 70
     0
  9
$DIMSD2
 70
     0
  9
$DIMTOLJ
 70
     0
  9
$DIMTZIN
 70
     0
  9
$DIMALTZ
 70
     0
  9
$DIMALTTZ
 70
     0
  9
$DIMUPT
 70
     0
  9
$DIMDEC
 70
     1
  9
$DIMTDEC
 70
     1
  9
$DIMALTU
 70
     2
  9
$DIMALTTD
 70
     3
  9
$DIMTXSTY
  7
Standard
  9
$DIMAUNIT
 70
     0
  9
$DIMADEC
 70
     2
  9
$DIMALTRND
 40
0.0
  9
$DIMAZIN
 70
     0
  9
$DIMDSEP
 70
    44
  9
$DIMATFIT
 70
     3
  9
$DIMFRAC
 70
     0
  9
$DIMLDRBLK
  1

  9
$DIMLUNIT
 70
     2
  9
$DIMLWD
 70
    -2
  9
$DIMLWE
 70
    -2
  9
$DIMTMOVE
 70
     0
  9
$LUNITS
 70
     2
  9
$LUPREC
 70
     1
  9
$SKETCHINC
 40
1.0
  9
$FILLETRAD
 40
0.0
  9
$AUNITS
 70
     0
  9
$AUPREC
 70
     2
  9
$MENU
  1
.
  9
$ELEVATION
 40
0.0
  9
$PELEVATION
 40
0.0
  9
$THICKNESS
 40
0.0
  9
$LIMCHECK
 70
     0
  9
$CHAMFERA
 40
0.0
  9
$CHAMFERB
 40
0.0
  9
$CHAMFERC
 40
0.0
  9
$CHAMFERD
 40
0.0
  9
$SKPOLY
 70
     0
  9
$TDCREATE
 40
2460697.654349097
  9
$TDUCREATE
 40
2460697.529349097
  9
$TDUPDATE
 40
2460697.654349907
  9
$TDUUPDATE
 40
2460697.529349907
  9
$TDINDWG
 40
0.0000000116
  9
$TDUSRTIMER
 40
0.0000000116
  9
$USRTIMER
 70
     1
  9
$ANGBASE
 50
0.0
  9
$ANGDIR
 70
     0
  9
$PDMODE
 70
     0
  9
$PDSIZE
 40
-1.0
  9
$PLINEWID
 40
0.0
  9
$SPLFRAME
 70
     0
  9
$SPLINETYPE
 70
     6
  9
$SPLINESEGS
 70
     8
  9
$HANDSEED
  5
418
  9
$SURFTAB1
 70
     6
  9
$SURFTAB2
 70
     6
  9
$SURFTYPE
 70
     6
  9
$SURFU
 70
     6
  9
$SURFV
 70
     6
  9
$UCSBASE
  2

  9
$UCSNAME
  2

  9
$UCSORG
 10
0.0
 20
0.0
 30
0.0
  9
$UCSXDIR
 10
1.0
 20
0.0
 30
0.0
  9
$UCSYDIR
 10
0.0
 20
1.0
 30
0.0
  9
$UCSORTHOREF
  2

  9
$UCSORTHOVIEW
 70
     0
  9
$UCSORGTOP
 10
0.0
 20
0.0
 30
0.0
  9
$UCSORGBOTTOM
 10
0.0
 20
0.0
 30
0.0
  9
$UCSORGLEFT
 10
0.0
 20
0.0
 30
0.0
  9
$UCSORGRIGHT
 10
0.0
 20
0.0
 30
0.0
  9
$UCSORGFRONT
 10
0.0
 20
0.0
 30
0.0
  9
$UCSORGBACK
 10
0.0
 20
0.0
 30
0.0
  9
$PUCSBASE
  2

  9
$PUCSNAME
  2

  9
$PUCSORG
 10
0.0
 20
0.0
 30
0.0
  9
$PUCSXDIR
 10
1.0
 20
0.0
 30
0.0
  9
$PUCSYDIR
 10
0.0
 20
1.0
 30
0.0
  9
$PUCSORTHOREF
  2

  9
$PUCSORTHOVIEW
 70
     0
  9
$PUCSORGTOP
 10
0.0
 20
0.0
 30
0.0
  9
$PUCSORGBOTTOM
 10
0.0
 20
0.0
 30
0.0
  9
$PUCSORGLEFT
 10
0.0
 20
0.0
 30
0.0
  9
$PUCSORGRIGHT
 10
0.0
 20
0.0
 30
0.0
  9
$PUCSORGFRONT
 10
0.0
 20
0.0
 30
0.0
  9
$PUCSORGBACK
 10
0.0
 20
0.0
 30
0.0
  9
$USERI1
 70
     0
  9
$USERI2
 70
     0
  9
$USERI3
 70
     0
  9
$USERI4
 70
     0
  9
$USERI5
 70
     0
  9
$USERR1
 40
0.0
  9
$USERR2
 40
0.0
  9
$USERR3
 40
0.0
  9
$USERR4
 40
0.0
  9
$USERR5
 40
0.0
  9
$WORLDVIEW
 70
     1
  9
$SHADEDGE
 70
     3
  9
$SHADEDIF
 70
    70
  9
$TILEMODE
 70
     1
  9
$MAXACTVP
 70
    64
  9
$PINSBASE
 10
0.0
 20
0.0
 30
0.0
  9
$PLIMCHECK
 70
     0
  9
$PEXTMIN
 10
1.0000000000E+20
 20
1.0000000000E+20
 30
1.0000000000E+20
  9
$PEXTMAX
 10
-1.0000000000E+20
 20
-1.0000000000E+20
 30
-1.0000000000E+20
  9
$PLIMMIN
 10
0.0
 20
0.0
  9
$PLIMMAX
 10
420.0
 20
297.0
  9
$UNITMODE
 70
     0
  9
$VISRETAIN
 70
     1
  9
$PLINEGEN
 70
     0
  9
$PSLTSCALE
 70
     1
  9
$TREEDEPTH
 70
  3020
  9
$CMLSTYLE
  2
Standard
  9
$CMLJUST
 70
     0
  9
$CMLSCALE
 40
20.0
  9
$PROXYGRAPHICS
 70
     1
  9
$MEASUREMENT
 70
     1
  9
$CELWEIGHT
370
    -1
  9
$ENDCAPS
280
     0
  9
$JOINSTYLE
280
     0
  9
$LWDISPLAY
290
     1
  9
$INSUNITS
 70
     4
  9
$HYPERLINKBASE
  1

  9
$STYLESHEET
  1

  9
$XEDIT
290
     1
  9
$CEPSNTYPE
380
     0
  9
$PSTYLEMODE
290
     1
  9
$FINGERPRINTGUID
  2
{aa53b5fa-0ee7-4627-9d97-1e5c862855a7}
  9
$VERSIONGUID
  2
{FAEB1C32-E019-11D5-929B-00C0DF256EC4}
  9
$EXTNAMES
290
     1
  9
$PSVPSCALE
 40
0.0
  9
$OLESTARTUP
290
     0
  0
ENDSEC
  0
SECTION
  2
CLASSES
  0
CLASS
  1
ACDBDICTIONARYWDFLT
  2
AcDbDictionaryWithDefault
  3
ObjectDBX Classes
 90
        0
280
     0
281
     0
  0
CLASS
  1
VISUALSTYLE
  2
AcDbVisualStyle
  3
ObjectDBX Classes
 90
     4095
280
     0
281
     0
  0
CLASS
  1
MATERIAL
  2
AcDbMaterial
  3
ObjectDBX Classes
 90
     1153
280
     0
281
     0
  0
CLASS
  1
SCALE
  2
AcDbScale
  3
ObjectDBX Classes
 90
     1153
280
     0
281
     0
  0
CLASS
  1
TABLESTYLE
  2
AcDbTableStyle
  3
ObjectDBX Classes
 90
     4095
280
     0
281
     0
  0
CLASS
  1
MLEADERSTYLE
  2
AcDbMLeaderStyle
  3
ACDB_MLEADERSTYLE_CLASS
 90
     4095
280
     0
281
     0
  0
CLASS
  1
SUN
  2
AcDbSun
  3
SCENEOE
 90
     1153
280
     0
281
     0
  0
CLASS
  1
ACDBPLACEHOLDER
  2
AcDbPlaceHolder
  3
ObjectDBX Classes
 90
        0
280
     0
281
     0
  0
CLASS
  1
LAYOUT
  2
AcDbLayout
  3
ObjectDBX Classes
 90
        0
280
     0
281
     0
  0
ENDSEC
  0
SECTION
  2
TABLES
  0
TABLE
  2
VPORT
  5
8
330
0
100
AcDbSymbolTable
 70
     1
  0
VPORT
  5
29
330
8
100
AcDbSymbolTableRecord
100
AcDbViewportTableRecord
  2
*Active
 70
     0
 10
0.0
 20
0.0
 11
1.0
 21
1.0
 12
210.0
 22
148.5
 13
0.0
 23
0.0
 14
10.0
 24
10.0
 15
10.0
 25
10.0
 16
0.0
 26
0.0
 36
1.0
 17
0.0
 27
0.0
 37
0.0
 40
297.0
 41
1.4141414141
 42
50.0
 43
0.0
 44
0.0
 50
0.0
 51
0.0
 71
     0
 72
  2000
 73
     1
 74
     3
 75
     0
 76
     0
 77
     0
 78
     0
281
     0
 65
     1
110
0.0
120
0.0
130
0.0
111
1.0
121
0.0
131
0.0
112
0.0
122
1.0
132
0.0
 79
     0
146
0.0
  0
ENDTAB
  0
TABLE
  2
LTYPE
  5
5
330
0
100
AcDbSymbolTable
 70
     6
  0
LTYPE
  5
14
330
5
100
AcDbSymbolTableRecord
100
AcDbLinetypeTableRecord
  2
ByBlock
 70
     0
  3

 72
    65
 73
     0
 40
0.0
  0
LTYPE
  5
15
330
5
100
AcDbSymbolTableRecord
100
AcDbLinetypeTableRecord
  2
ByLayer
 70
     0
  3

 72
    65
 73
     0
 40
0.0
  0
LTYPE
  5
16
330
5
100
AcDbSymbolTableRecord
100
AcDbLinetypeTableRecord
  2
Continuous
 70
     0
  3
Solid line
 72
    65
 73
     0
 40
0.0
  0
LTYPE
  5
5E
330
5
100
AcDbSymbolTableRecord
100
AcDbLinetypeTableRecord
  2
HIDDEN
 70
     0
  3
Hidden __ __ __ __ __ __ __ __ __ __ __ __ __ __
 72
    65
 73
     2
 40
1.905
 49
1.27
 74
     0
 49
-0.635
 74
     0
  0
LTYPE
  5
5F
330
5
100
AcDbSymbolTableRecord
100
AcDbLinetypeTableRecord
  2
PHANTOM
 70
     0
  3
Phantom ______  __  __  ______  __  __  ______
 72
    65
 73
     6
 40
12.7
 49
6.35
 74
     0
 49
-1.27
 74
     0
 49
1.27
 74
     0
 49
-1.27
 74
     0
 49
1.27
 74
     0
 49
-1.27
 74
     0
  0
LTYPE
  5
60
330
5
100
AcDbSymbolTableRecord
100
AcDbLinetypeTableRecord
  2
CENTER
 70
     0
  3
Center ____ _ ____ _ ____ _ ____ _ ____ _ ____
 72
    65
 73
     4
 40
10.16
 49
6.35
 74
     0
 49
-1.27
 74
     0
 49
1.27
 74
     0
 49
-1.27
 74
     0
  0
LTYPE
  5
61
330
5
100
AcDbSymbolTableRecord
100
AcDbLinetypeTableRecord
  2
CENTERX2
 70
     0
  3
Center (2x) ________  __  ________  __  _____
 72
    65
 73
     4
 40
20.32
 49
12.7
 74
     0
 49
-2.54
 74
     0
 49
2.54
 74
     0
 49
-2.54
 74
     0
  0
LTYPE
  5
62
330
5
100
AcDbSymbolTableRecord
100
AcDbLinetypeTableRecord
  2
DOT2
 70
     0
  3
Dot (.5x) ........................................
 72
    65
 73
     2
 40
0.635
 49
0.0
 74
     0
 49
-0.635
 74
     0
  0
ENDTAB
  0
TABLE
  2
LAYER
  5
2
330
0
100
AcDbSymbolTable
 70
     3
  0
LAYER
  5
10
330
2
100
AcDbSymbolTableRecord
100
AcDbLayerTableRecord
  2
0
 70
     0
 62
     7
  6
Continuous
370
    -3
390
F
  0
LAYER
  5
63
330
2
100
AcDbSymbolTableRecord
100
AcDbLayerTableRecord
  2
ВОДЯНОЙ_ЗНАК
 70
     0
 62
    11
  6
Continuous
370
    -3
390
F
  0
LAYER
  5
64
330
2
100
AcDbSymbolTableRecord
100
AcDbLayerTableRecord
  2
ОСНОВНОЙ
 70
     0
 62
     7
  6
Continuous
370
    -3
390
F
  0
ENDTAB
  0
TABLE
  2
STYLE
  5
3
330
0
100
AcDbSymbolTable
 70
     1
  0
STYLE
  5
11
330
3
100
AcDbSymbolTableRecord
100
AcDbTextStyleTableRecord
  2
Standard
 70
     0
 40
0.0
 41
1.0
 50
0.0
 71
     0
 42
5.0
  3
txt
  4

  0
ENDTAB
  0
TABLE
  2
VIEW
  5
6
330
0
100
AcDbSymbolTable
 70
     0
  0
ENDTAB
  0
TABLE
  2
UCS
  5
7
330
0
100
AcDbSymbolTable
 70
     0
  0
ENDTAB
  0
TABLE
  2
APPID
  5
9
330
0
100
AcDbSymbolTable
 70
     1
  0
APPID
  5
12
330
9
100
AcDbSymbolTableRecord
100
AcDbRegAppTableRecord
  2
ACAD
 70
     0
  0
ENDTAB
  0
TABLE
  2
DIMSTYLE
  5
A
330
0
100
AcDbSymbolTable
 70
     1
100
AcDbDimStyleTable
  0
DIMSTYLE
105
27
330
A
100
AcDbSymbolTableRecord
100
AcDbDimStyleTableRecord
  2
ISO-25
 70
     0
 41
2.5
 42
0.625
 43
3.75
 44
1.25
 73
     0
 74
     0
 77
     1
 78
     8
140
2.5
141
2.5
143
0.0393700787
147
0.625
171
     3
172
     1
178
     0
271
     2
272
     2
274
     3
278
    44
283
     0
284
     8
340
11
  0
ENDTAB
  0
TABLE
  2
BLOCK_RECORD
  5
1
330
0
100
AcDbSymbolTable
 70
     1
  0
BLOCK_RECORD
  5
1F
330
1
100
AcDbSymbolTableRecord
100
AcDbBlockTableRecord
  2
*Model_Space
340
22
  0
BLOCK_RECORD
  5
1B
330
1
100
AcDbSymbolTableRecord
100
AcDbBlockTableRecord
  2
*Paper_Space
340
1E
  0
BLOCK_RECORD
  5
23
330
1
100
AcDbSymbolTableRecord
100
AcDbBlockTableRecord
  2
*Paper_Space0
340
26
  0
ENDTAB
  0
ENDSEC
  0
SECTION
  2
BLOCKS
  0
BLOCK
  5
20
330
1F
100
AcDbEntity
  8
0
100
AcDbBlockBegin
  2
*Model_Space
 70
     0
 10
0.0
 20
0.0
 30
0.0
  3
*Model_Space
  1

  0
ENDBLK
  5
21
330
1F
100
AcDbEntity
  8
0
100
AcDbBlockEnd
  0
BLOCK
  5
1C
330
1B
100
AcDbEntity
 67
     1
  8
0
100
AcDbBlockBegin
  2
*Paper_Space
 70
     0
 10
0.0
 20
0.0
 30
0.0
  3
*Paper_Space
  1

  0
ENDBLK
  5
1D
330
1B
100
AcDbEntity
 67
     1
  8
0
100
AcDbBlockEnd
  0
BLOCK
  5
24
330
23
100
AcDbEntity
  8
0
100
AcDbBlockBegin
  2
*Paper_Space0
 70
     0
 10
0.0
 20
0.0
 30
0.0
  3
*Paper_Space0
  1

  0
ENDBLK
  5
25
330
23
100
AcDbEntity
  8
0
100
AcDbBlockEnd
  0
ENDSEC
  0
SECTION
  2
ENTITIES
  0
LINE
  5
65
330
1F
100
AcDbEntity
  8
0
  6
Continuous
 62
     7
100
AcDbLine
 10
1460.9189032113
 20
123.1300907337
 30
0.0
 11
1463.5189032113
 21
123.1300907337
 31
0.0
  0
LINE
  5
66
330
1F
100
AcDbEntity
  8
0
  6
Continuous
 62
     7
100
AcDbLine
 10
559.5190582972
 20
123.1300907337
 30
0.0
 11
562.1190582972
 21
123.1300907337
 31
0.0
  0
ARC
  5
67
330
1F
100
AcDbEntity
  8
0
  6
Continuous
 62
     7
100
AcDbCircle
 10
1468.9189032113
 20
129.1300907337
 30
0.0
 40
9.999999999999998
100
AcDbArc
 50
195.3594143317
 51
216.8698976458
  0
ARC
  5
68
330
1F
100
AcDbEntity
  8
0
  6
Continuous
 62
     7
100
AcDbCircle
 10
554.1190582972
 20
129.1300907337
 30
0.0
 40
10.0
100
AcDbArc
 50
323.1301023542
 51
346.7136324852
  0
LINE
  5
69
330
1F
100
AcDbEntity
  8
0
  6
Continuous
 62
     7
100
AcDbLine
 10
1460.9189032113
 20
173.1300907337
 30
0.0
 11
1463.5189032113
 21
173.1300907337
 31
0.0
  0
ARC
  5
6A
330
1F
100
AcDbEntity
  8
0
  6
Continuous
 62
     7
100
AcDbCircle
 10
1468.9189032113
 20
179.1300907337
 30
0.0
 40
10.00000000000021
100
AcDbArc
 50
193.0337885362
 51
216.8698976458
  0
ARC
  5
6B
330
1F
100
AcDbEntity
  8
0
  6
Continuous
 62
     7
100
AcDbCircle
 10
554.1190582972
 20
179.1300907337
 30
0.0
 40
10.00000000000002
100
AcDbArc
 50
323.1301023542
 51
345.9301358438
  0
LINE
  5
6C
330
1F
100
AcDbEntity
  8
0
  6
Continuous
 62
     7
100
AcDbLine
 10
559.5190582972
 20
173.1300907337
 30
0.0
 11
562.1190582972
 21
173.1300907337
 31
0.0
  0
ARC
  5
6D
330
1F
100
AcDbEntity
  8
0
  6
Continuous
 62
     7
100
AcDbCircle
 10
554.1190582972
 20
179.1300907337
 30
0.0
 40
10.00000000000002
100
AcDbArc
 50
14.0846903186
 51
36.8698976458
  0
LINE
  5
6E
330
1F
100
AcDbEntity
  8
0
  6
Continuous
 62
     7
100
AcDbLine
 10
562.1190582972
 20
185.1300907337
 30
0.0
 11
559.5190582972
 21
185.1300907337
 31
0.0
  0
LINE
  5
6F
330
1F
100
AcDbEntity
  8
0
  6
Continuous
 62
     7
100
AcDbLine
 10
550.5190582972
 20
126.1300907337
 30
0.0
 11
558.0190582972
 21
126.1300907337
 31
0.0
  0
LINE
  5
70
330
1F
100
AcDbEntity
  8
0
  6
Continuous
 62
     7
100
AcDbLine
 10
549.5190582972
 20
127.1300907337
 30
0.0
 11
550.5190582972
 21
126.1300907337
 31
0.0
  0
LINE
  5
71
330
1F
100
AcDbEntity
  8
0
  6
Continuous
 62
     7
100
AcDbLine
 10
1465.0189032113
 20
126.1300907337
 30
0.0
 11
1472.5189032113
 21
126.1300907337
 31
0.0
  0
LINE
  5
72
330
1F
100
AcDbEntity
  8
0
  6
Continuous
 62
     7
100
AcDbLine
 10
1472.5189032113
 20
126.1300907337
 30
0.0
 11
1473.5189032113
 21
127.1300907337
 31
0.0
  0
LINE
  5
73
330
1F
100
AcDbEntity
  8
0
  6
Continuous
 62
     7
100
AcDbLine
 10
1465.0189032113
 20
176.1300907337
 30
0.0
 11
1472.5189032113
 21
176.1300907337
 31
0.0
  0
LINE
  5
74
330
1F
100
AcDbEntity
  8
0
  6
Continuous
 62
     7
100
AcDbLine
 10
1472.5189032113
 20
176.1300907337
 30
0.0
 11
1473.5189032113
 21
177.1300907337
 31
0.0
  0
LINE
  5
75
330
1F
100
AcDbEntity
  8
0
  6
Continuous
 62
     7
100
AcDbLine
 10
549.5190582972
 20
177.1300907337
 30
0.0
 11
550.5190582972
 21
176.1300907337
 31
0.0
  0
LINE
  5
76
330
1F
100
AcDbEntity
  8
0
  6
Continuous
 62
     7
100
AcDbLine
 10
550.5190582972
 20
176.1300907337
 30
0.0
 11
558.0190582972
 21
176.1300907337
 31
0.0
  0
ARC
  5
77
330
1F
100
AcDbEntity
  8
0
  6
Continuous
 62
     7
100
AcDbCircle
 10
1468.9189032113
 20
179.1300907337
 30
0.0
 40
10.00000000000017
100
AcDbArc
 50
143.1301023542
 51
166.9855839034
  0
LINE
  5
78
330
1F
100
AcDbEntity
  8
0
  6
Continuous
 62
     7
100
AcDbLine
 10
1463.5189032113
 20
185.1300907337
 30
0.0
 11
1460.9189032113
 21
185.1300907337
 31
0.0
  0
ARC
  5
79
330
1F
100
AcDbEntity
  8
0
  6
Continuous
 62
     7
100
AcDbCircle
 10
554.1190582972
 20
129.1300907337
 30
0.0
 40
10.0
100
AcDbArc
 50
13.2984106497
 51
36.8698976458
  0
LINE
  5
7A
330
1F
100
AcDbEntity
  8
0
  6
Continuous
 62
     7
100
AcDbLine
 10
562.1190582972
 20
135.1300907337
 30
0.0
 11
559.5190582972
 21
135.1300907337
 31
0.0
  0
LINE
  5
7B
330
1F
100
AcDbEntity
  8
0
  6
Continuous
 62
     7
100
AcDbLine
 10
550.5190582972
 20
182.1300907337
 30
0.0
 11
549.5190582972
 21
181.1300907337
 31
0.0
  0
LINE
  5
7C
330
1F
100
AcDbEntity
  8
0
  6
Continuous
 62
     7
100
AcDbLine
 10
558.0190582972
 20
182.1300907337
 30
0.0
 11
550.5190582972
 21
182.1300907337
 31
0.0
  0
LINE
  5
7D
330
1F
100
AcDbEntity
  8
0
  6
Continuous
 62
     7
100
AcDbLine
 10
1472.5189032113
 20
182.1300907337
 30
0.0
 11
1465.0189032113
 21
182.1300907337
 31
0.0
  0
LINE
  5
7E
330
1F
100
AcDbEntity
  8
0
  6
Continuous
 62
     7
100
AcDbLine
 10
1473.5189032113
 20
181.1300907337
 30
0.0
 11
1472.5189032113
 21
182.1300907337
 31
0.0
  0
LINE
  5
7F
330
1F
100
AcDbEntity
  8
0
  6
Continuous
 62
     7
100
AcDbLine
 10
558.0190582972
 20
132.1300907337
 30
0.0
 11
550.5190582972
 21
132.1300907337
 31
0.0
  0
LINE
  5
80
330
1F
100
AcDbEntity
  8
0
  6
Continuous
 62
     7
100
AcDbLine
 10
550.5190582972
 20
132.1300907337
 30
0.0
 11
549.5190582972
 21
131.1300907337
 31
0.0
  0
LINE
  5
81
330
1F
100
AcDbEntity
  8
0
  6
Continuous
 62
     7
100
AcDbLine
 10
1459.2500588356
 20
176.8802505206
 30
0.0
 11
1459.0398186326
 21
176.8802505206
 31
0.0
  0
LINE
  5
82
330
1F
100
AcDbEntity
  8
0
  6
Continuous
 62
     7
100
AcDbLine
 10
1459.0398186326
 20
181.3799309468
 30
0.0
 11
1459.2659548124
 21
181.3799309468
 31
0.0
  0
ARC
  5
83
330
1F
100
AcDbEntity
  8
0
  6
Continuous
 62
     7
100
AcDbCircle
 10
1468.9189032113
 20
129.1300907337
 30
0.0
 40
10.00000000000023
100
AcDbArc
 50
143.1301023542
 51
165.0363527596
  0
LINE
  5
84
330
1F
100
AcDbEntity
  8
0
  6
Continuous
 62
     7
100
AcDbLine
 10
1463.5189032113
 20
135.1300907337
 30
0.0
 11
1460.9189032113
 21
135.1300907337
 31
0.0
  0
LINE
  5
85
330
1F
100
AcDbEntity
  8
0
  6
Continuous
 62
     7
100
AcDbLine
 10
1473.5189032113
 20
131.1300907337
 30
0.0
 11
1472.5189032113
 21
132.1300907337
 31
0.0
  0
LINE
  5
86
330
1F
100
AcDbEntity
  8
0
  6
Continuous
 62
     7
100
AcDbLine
 10
1472.5189032113
 20
132.1300907337
 30
0.0
 11
1465.0189032113
 21
132.1300907337
 31
0.0
  0
LINE
  5
87
330
1F
100
AcDbEntity
  8
0
  6
Continuous
 62
     7
100
AcDbLine
 10
1389.0189032113
 20
166.6300907337
 30
0.0
 11
1404.0189032113
 21
166.6300907337
 31
0.0
  0
LINE
  5
88
330
1F
100
AcDbEntity
  8
0
  6
Continuous
 62
     7
100
AcDbLine
 10
1404.0189032113
 20
166.6300907337
 30
0.0
 11
1404.0189032113
 21
164.6300907337
 31
0.0
  0
LINE
  5
89
330
1F
100
AcDbEntity
  8
0
  6
Continuous
 62
     7
100
AcDbLine
 10
1404.0189032113
 20
164.6300907337
 30
0.0
 11
1389.0189032113
 21
164.6300907337
 31
0.0
  0
LINE
  5
8A
330
1F
100
AcDbEntity
  8
0
  6
Continuous
 62
     7
100
AcDbLine
 10
1389.0189032113
 20
164.6300907337
 30
0.0
 11
1389.0189032113
 21
166.6300907337
 31
0.0
  0
LINE
  5
8B
330
1F
100
AcDbEntity
  8
0
  6
Continuous
 62
     7
100
AcDbLine
 10
1389.0189032113
 20
159.3800907337
 30
0.0
 11
1404.0189032113
 21
159.3800907337
 31
0.0
  0
LINE
  5
8C
330
1F
100
AcDbEntity
  8
0
  6
Continuous
 62
     7
100
AcDbLine
 10
1389.0189032113
 20
159.3800907337
 30
0.0
 11
1389.0189032113
 21
164.6300907337
 31
0.0
  0
LINE
  5
8D
330
1F
100
AcDbEntity
  8
0
  6
Continuous
 62
     7
100
AcDbLine
 10
1404.0189032113
 20
159.3800907337
 30
0.0
 11
1404.0189032113
 21
164.6300907337
 31
0.0
  0
LINE
  5
8E
330
1F
100
AcDbEntity
  8
0
  6
Continuous
 62
     7
100
AcDbLine
 10
1389.0189032113
 20
158.3800907337
 30
0.0
 11
1404.0189032113
 21
158.3800907337
 31
0.0
  0
LINE
  5
8F
330
1F
100
AcDbEntity
  8
0
  6
Continuous
 62
     7
100
AcDbLine
 10
1389.0189032113
 20
158.3800907337
 30
0.0
 11
1389.0189032113
 21
159.3800907337
 31
0.0
  0
LINE
  5
90
330
1F
100
AcDbEntity
  8
0
  6
Continuous
 62
     7
100
AcDbLine
 10
1404.0189032113
 20
158.3800907337
 30
0.0
 11
1404.0189032113
 21
159.3800907337
 31
0.0
  0
LINE
  5
91
330
1F
100
AcDbEntity
  8
0
  6
Continuous
 62
     7
100
AcDbLine
 10
1389.0189032113
 20
152.3800907337
 30
0.0
 11
1404.0189032113
 21
152.3800907337
 31
0.0
  0
LINE
  5
92
330
1F
100
AcDbEntity
  8
0
  6
Continuous
 62
     7
100
AcDbLine
 10
1389.0189032113
 20
152.3800907337
 30
0.0
 11
1389.0189032113
 21
153.3800907337
 31
0.0
  0
LINE
  5
93
330
1F
100
AcDbEntity
  8
0
  6
Continuous
 62
     7
100
AcDbLine
 10
1389.0189032113
 20
153.3800907337
 30
0.0
 11
1404.0189032113
 21
153.3800907337
 31
0.0
  0
LINE
  5
94
330
1F
100
AcDbEntity
  8
0
  6
Continuous
 62
     7
100
AcDbLine
 10
1404.0189032113
 20
152.3800907337
 30
0.0
 11
1404.0189032113
 21
153.3800907337
 31
0.0
  0
LINE
  5
95
330
1F
100
AcDbEntity
  8
0
  6
Continuous
 62
     7
100
AcDbLine
 10
1389.0189032113
 20
154.8800907337
 30
0.0
 11
1404.0189032113
 21
154.8800907337
 31
0.0
  0
LINE
  5
96
330
1F
100
AcDbEntity
  8
0
  6
Continuous
 62
     7
100
AcDbLine
 10
1389.0189032113
 20
154.8800907337
 30
0.0
 11
1389.0189032113
 21
155.8800907337
 31
0.0
  0
LINE
  5
97
330
1F
100
AcDbEntity
  8
0
  6
Continuous
 62
     7
100
AcDbLine
 10
1389.0189032113
 20
155.8800907337
 30
0.0
 11
1404.0189032113
 21
155.8800907337
 31
0.0
  0
LINE
  5
98
330
1F
100
AcDbEntity
  8
0
  6
Continuous
 62
     7
100
AcDbLine
 10
1404.0189032113
 20
154.8800907337
 30
0.0
 11
1404.0189032113
 21
155.8800907337
 31
0.0
  0
LINE
  5
99
330
1F
100
AcDbEntity
  8
0
  6
Continuous
 62
     7
100
AcDbLine
 10
1389.0189032113
 20
153.3800907337
 30
0.0
 11
1389.0189032113
 21
154.8800907337
 31
0.0
  0
LINE
  5
9A
330
1F
100
AcDbEntity
  8
0
  6
Continuous
 62
     7
100
AcDbLine
 10
1404.0189032113
 20
153.3800907337
 30
0.0
 11
1404.0189032113
 21
154.8800907337
 31
0.0
  0
LINE
  5
9B
330
1F
100
AcDbEntity
  8
0
  6
Continuous
 62
     7
100
AcDbLine
 10
1389.0189032113
 20
148.8800907337
 30
0.0
 11
1404.0189032113
 21
148.8800907337
 31
0.0
  0
LINE
  5
9C
330
1F
100
AcDbEntity
  8
0
  6
Continuous
 62
     7
100
AcDbLine
 10
1389.0189032113
 20
148.8800907337
 30
0.0
 11
1389.0189032113
 21
149.8800907337
 31
0.0
  0
LINE
  5
9D
330
1F
100
AcDbEntity
  8
0
  6
Continuous
 62
     7
100
AcDbLine
 10
1389.0189032113
 20
149.8800907337
 30
0.0
 11
1404.0189032113
 21
149.8800907337
 31
0.0
  0
LINE
  5
9E
330
1F
100
AcDbEntity
  8
0
  6
Continuous
 62
     7
100
AcDbLine
 10
1404.0189032113
 20
148.8800907337
 30
0.0
 11
1404.0189032113
 21
149.8800907337
 31
0.0
  0
LINE
  5
9F
330
1F
100
AcDbEntity
  8
0
  6
Continuous
 62
     7
100
AcDbLine
 10
1389.0189032113
 20
143.6300907337
 30
0.0
 11
1404.0189032113
 21
143.6300907337
 31
0.0
  0
LINE
  5
A0
330
1F
100
AcDbEntity
  8
0
  6
Continuous
 62
     7
100
AcDbLine
 10
1389.0189032113
 20
143.6300907337
 30
0.0
 11
1389.0189032113
 21
148.8800907337
 31
0.0
  0
LINE
  5
A1
330
1F
100
AcDbEntity
  8
0
  6
Continuous
 62
     7
100
AcDbLine
 10
1404.0189032113
 20
143.6300907337
 30
0.0
 11
1404.0189032113
 21
148.8800907337
 31
0.0
  0
LINE
  5
A2
330
1F
100
AcDbEntity
  8
0
  6
Continuous
 62
     7
100
AcDbLine
 10
1404.0189032113
 20
141.6300907337
 30
0.0
 11
1389.0189032113
 21
141.6300907337
 31
0.0
  0
LINE
  5
A3
330
1F
100
AcDbEntity
  8
0
  6
Continuous
 62
     7
100
AcDbLine
 10
1389.0189032113
 20
141.6300907337
 30
0.0
 11
1389.0189032113
 21
143.6300907337
 31
0.0
  0
LINE
  5
A4
330
1F
100
AcDbEntity
  8
0
  6
Continuous
 62
     7
100
AcDbLine
 10
1404.0189032113
 20
143.6300907337
 30
0.0
 11
1404.0189032113
 21
141.6300907337
 31
0.0
  0
LINE
  5
A5
330
1F
100
AcDbEntity
  8
0
  6
Continuous
 62
     7
100
AcDbLine
 10
558.5190582972
 20
170.1300907337
 30
0.0
 11
558.5190582972
 21
167.0300907337
 31
0.0
  0
LINE
  5
A6
330
1F
100
AcDbEntity
  8
0
  6
Continuous
 62
     7
100
AcDbLine
 10
1464.5189032113
 20
170.1300907337
 30
0.0
 11
1464.5189032113
 21
167.0300907337
 31
0.0
  0
LINE
  5
A7
330
1F
100
AcDbEntity
  8
0
  6
Continuous
 62
     7
100
AcDbLine
 10
558.5190582972
 20
170.1300907337
 30
0.0
 11
1464.5189032113
 21
170.1300907337
 31
0.0
  0
LINE
  5
A8
330
1F
100
AcDbEntity
  8
0
  6
Continuous
 62
     7
100
AcDbLine
 10
558.5190582972
 20
167.0300907337
 30
0.0
 11
1464.5189032113
 21
167.0300907337
 31
0.0
  0
LINE
  5
A9
330
1F
100
AcDbEntity
  8
0
  6
Continuous
 62
     7
100
AcDbLine
 10
558.5190582972
 20
138.1300907337
 30
0.0
 11
1464.5189032113
 21
138.1300907337
 31
0.0
  0
LINE
  5
AA
330
1F
100
AcDbEntity
  8
0
  6
Continuous
 62
     7
100
AcDbLine
 10
558.5190582972
 20
141.2300907337
 30
0.0
 11
1464.5189032113
 21
141.2300907337
 31
0.0
  0
LINE
  5
AB
330
1F
100
AcDbEntity
  8
0
  6
Continuous
 62
     7
100
AcDbLine
 10
1464.5189032113
 20
141.2300907337
 30
0.0
 11
1464.5189032113
 21
138.1300907337
 31
0.0
  0
LINE
  5
AC
330
1F
100
AcDbEntity
  8
0
  6
Continuous
 62
     7
100
AcDbLine
 10
558.5190582972
 20
141.2300907337
 30
0.0
 11
558.5190582972
 21
138.1300907337
 31
0.0
  0
LINE
  5
AD
330
1F
100
AcDbEntity
  8
0
  6
Continuous
 62
     7
100
AcDbLine
 10
1419.0189032113
 20
141.2300907337
 30
0.0
 11
1419.0189032113
 21
167.0300907337
 31
0.0
  0
ARC
  5
AE
330
1F
100
AcDbEntity
  8
0
  6
Continuous
 62
     7
100
AcDbCircle
 10
1411.5189032113
 20
160.0300907337
 30
0.0
 40
5.735000000000014
100
AcDbArc
 50
90.0
 51
270.0
  0
ARC
  5
AF
330
1F
100
AcDbEntity
  8
0
  6
Continuous
 62
     7
100
AcDbCircle
 10
1411.5189032113
 20
160.0300907337
 30
0.0
 40
5.735000000000014
100
AcDbArc
 50
270.0
 51
90.0
  0
ARC
  5
B0
330
1F
100
AcDbEntity
  8
0
  6
Continuous
 62
     7
100
AcDbCircle
 10
1411.5189032113
 20
148.2300907337
 30
0.0
 40
5.734999999999985
100
AcDbArc
 50
90.0
 51
270.0
  0
ARC
  5
B1
330
1F
100
AcDbEntity
  8
0
  6
Continuous
 62
     7
100
AcDbCircle
 10
1411.5189032113
 20
148.2300907337
 30
0.0
 40
5.734999999999985
100
AcDbArc
 50
270.0
 51
90.0
  0
LINE
  5
B2
330
1F
100
AcDbEntity
  8
0
  6
Continuous
 62
     7
100
AcDbLine
 10
1389.0189032113
 20
141.2300907337
 30
0.0
 11
1389.0189032113
 21
141.6300907337
 31
0.0
  0
LINE
  5
B3
330
1F
100
AcDbEntity
  8
0
  6
Continuous
 62
     7
100
AcDbLine
 10
1389.0189032113
 20
166.6300907337
 30
0.0
 11
1389.0189032113
 21
167.0300907337
 31
0.0
  0
LINE
  5
B4
330
1F
100
AcDbEntity
  8
0
  6
Continuous
 62
     7
100
AcDbLine
 10
1389.0189032113
 20
155.8800907337
 30
0.0
 11
1389.0189032113
 21
158.3800907337
 31
0.0
  0
LINE
  5
B5
330
1F
100
AcDbEntity
  8
0
  6
Continuous
 62
     7
100
AcDbLine
 10
1389.0189032113
 20
149.8800907337
 30
0.0
 11
1389.0189032113
 21
152.3800907337
 31
0.0
  0
LINE
  5
B6
330
1F
100
AcDbEntity
  8
0
  6
Continuous
 62
     7
100
AcDbLine
 10
1411.5189032113
 20
165.4300907337
 30
0.0
 11
1411.5189032113
 21
165.7650907337
 31
0.0
  0
LINE
  5
B7
330
1F
100
AcDbEntity
  8
0
  6
Continuous
 62
     7
100
AcDbLine
 10
1411.5189032113
 20
154.6300907337
 30
0.0
 11
1411.5189032113
 21
154.2950907337
 31
0.0
  0
LINE
  5
B8
330
1F
100
AcDbEntity
  8
0
  6
Continuous
 62
     7
100
AcDbLine
 10
1411.5189032113
 20
151.4800907337
 30
0.0
 11
1411.5189032113
 21
153.9650907337
 31
0.0
  0
ARC
  5
B9
330
1F
100
AcDbEntity
  8
0
  6
Continuous
 62
     7
100
AcDbCircle
 10
1411.5189032113
 20
148.2300907337
 30
0.0
 40
3.250000000000028
100
AcDbArc
 50
90.0
 51
270.0
  0
LINE
  5
BA
330
1F
100
AcDbEntity
  8
0
  6
Continuous
 62
     7
100
AcDbLine
 10
1411.5189032113
 20
144.9800907337
 30
0.0
 11
1411.5189032113
 21
142.4950907337
 31
0.0
  0
ARC
  5
BB
330
1F
100
AcDbEntity
  8
0
  6
Continuous
 62
     7
100
AcDbCircle
 10
1411.5189032113
 20
148.2300907337
 30
0.0
 40
3.250000000000028
100
AcDbArc
 50
270.0
 51
90.0
  0
ARC
  5
BC
330
1F
100
AcDbEntity
  8
0
  6
Continuous
 62
     7
100
AcDbCircle
 10
1411.5189032113
 20
160.0300907337
 30
0.0
 40
5.400000000000318
100
AcDbArc
 50
180.0
 51
0.0
  0
ARC
  5
BD
330
1F
100
AcDbEntity
  8
0
  6
Continuous
 62
     7
100
AcDbCircle
 10
1411.5189032113
 20
160.0300907337
 30
0.0
 40
5.400000000000318
100
AcDbArc
 50
0.0
 51
180.0
  0
ARC
  5
BE
330
1F
100
AcDbEntity
  8
0
  6
Continuous
 62
     7
100
AcDbCircle
 10
1405.1147016553
 20
160.0300907337
 30
0.0
 40
4.154201555955979
100
AcDbArc
 50
0.0
 51
15.9632794617
  0
ARC
  5
BF
330
1F
100
AcDbEntity
  8
0
  6
Continuous
 62
     7
100
AcDbCircle
 10
1405.1147016553
 20
160.0300907337
 30
0.0
 40
4.154201555956192
100
AcDbArc
 50
344.0367205383
 51
0.0
  0
ARC
  5
C0
330
1F
100
AcDbEntity
  8
0
  6
Continuous
 62
     7
100
AcDbCircle
 10
1409.397140972
 20
158.8050907337
 30
0.0
 40
0.300000000000622
100
AcDbArc
 50
164.0367205383
 51
255.9632794617
  0
ARC
  5
C1
330
1F
100
AcDbEntity
  8
0
  6
Continuous
 62
     7
100
AcDbCircle
 10
1408.3168024333
 20
154.4838894953
 30
0.0
 40
4.1542015559561
100
AcDbArc
 50
44.0367205383
 51
75.9632794617
  0
ARC
  5
C2
330
1F
100
AcDbEntity
  8
0
  6
Continuous
 62
     7
100
AcDbCircle
 10
1411.5189032113
 20
157.5800907337
 30
0.0
 40
0.3000000000010233
100
AcDbArc
 50
224.0367205382
 51
315.9632794617
  0
ARC
  5
C3
330
1F
100
AcDbEntity
  8
0
  6
Continuous
 62
     7
100
AcDbCircle
 10
1414.7210039893
 20
154.4838894953
 30
0.0
 40
4.154201555956309
100
AcDbArc
 50
104.0367205383
 51
135.9632794617
  0
ARC
  5
C4
330
1F
100
AcDbEntity
  8
0
  6
Continuous
 62
     7
100
AcDbCircle
 10
1413.6406654506
 20
158.8050907337
 30
0.0
 40
0.300000000000594
100
AcDbArc
 50
284.0367205383
 51
0.0
  0
ARC
  5
C5
330
1F
100
AcDbEntity
  8
0
  6
Continuous
 62
     7
100
AcDbCircle
 10
1413.6406654506
 20
158.8050907337
 30
0.0
 40
0.3000000000004425
100
AcDbArc
 50
0.0
 51
15.9632794618
  0
ARC
  5
C6
330
1F
100
AcDbEntity
  8
0
  6
Continuous
 62
     7
100
AcDbCircle
 10
1417.9231047673
 20
160.0300907337
 30
0.0
 40
4.154201555955825
100
AcDbArc
 50
164.0367205383
 51
195.9632794618
  0
ARC
  5
C7
330
1F
100
AcDbEntity
  8
0
  6
Continuous
 62
     7
100
AcDbCircle
 10
1413.6406654506
 20
161.2550907337
 30
0.0
 40
0.3000000000006376
100
AcDbArc
 50
344.0367205382
 51
0.0
  0
ARC
  5
C8
330
1F
100
AcDbEntity
  8
0
  6
Continuous
 62
     7
100
AcDbCircle
 10
1413.6406654506
 20
161.2550907337
 30
0.0
 40
0.3000000000006767
100
AcDbArc
 50
0.0
 51
75.9632794617
  0
ARC
  5
C9
330
1F
100
AcDbEntity
  8
0
  6
Continuous
 62
     7
100
AcDbCircle
 10
1414.7210039893
 20
165.5762919721
 30
0.0
 40
4.154201555956044
100
AcDbArc
 50
224.0367205383
 51
255.9632794618
  0
ARC
  5
CA
330
1F
100
AcDbEntity
  8
0
  6
Continuous
 62
     7
100
AcDbCircle
 10
1411.5189032113
 20
162.4800907337
 30
0.0
 40
0.3000000000004593
100
AcDbArc
 50
44.0367205383
 51
135.9632794618
  0
ARC
  5
CB
330
1F
100
AcDbEntity
  8
0
  6
Continuous
 62
     7
100
AcDbCircle
 10
1408.3168024333
 20
165.5762919721
 30
0.0
 40
4.154201555956393
100
AcDbArc
 50
284.0367205383
 51
315.9632794618
  0
ARC
  5
CC
330
1F
100
AcDbEntity
  8
0
  6
Continuous
 62
     7
100
AcDbCircle
 10
1409.397140972
 20
161.2550907337
 30
0.0
 40
0.300000000001067
100
AcDbArc
 50
104.0367205383
 51
195.9632794617
  0
ARC
  5
CD
330
1F
100
AcDbEntity
  8
0
  6
Continuous
 62
     7
100
AcDbCircle
 10
1136.5189032113
 20
160.0300907337
 30
0.0
 40
5.999999999999893
100
AcDbArc
 50
26.1292858367
 51
206.1292858367
  0
LINE
  5
CE
330
1F
100
AcDbEntity
  8
0
  6
Continuous
 62
     7
100
AcDbLine
 10
1138.9878603351
 20
161.2411855776
 30
0.0
 11
1141.9057187541
 21
162.6724794839
 31
0.0
  0
SPLINE
  5
CF
330
1F
100
AcDbEntity
  8
0
  6
Continuous
 62
     7
100
AcDbSpline
210
0.0
220
0.0
230
1.0
 70
     8
 71
     3
 72
    12
 73
     8
 74
     0
 42
0.00000001
 43
0.00000001
 40
0.0
 40
0.0
 40
0.0
 40
0.0
 40
0.1670444628000468
 40
0.3333684210324423
 40
0.5020689749359756
 40
0.7529675841919412
 40
1.0
 40
1.0
 40
1.0
 40
1.0
 10
1138.810123337812
 20
161.395120334902
 30
0.0
 10
1138.82263404979
 20
161.3905368017513
 30
0.0
 10
1138.847601511916
 20
161.3813895053753
 30
0.0
 10
1138.882614083561
 20
161.3612147242318
 30
0.0
 10
1138.920095158497
 20
161.332672734461
 30
0.0
 10
1138.95811900921
 20
161.2938230205764
 30
0.0
 10
1138.977998010093
 20
161.2586403330579
 30
0.0
 10
1138.987860335124
 20
161.2411855775701
 30
0.0
  0
SPLINE
  5
D0
330
1F
100
AcDbEntity
  8
0
  6
Continuous
 62
     7
100
AcDbSpline
210
0.0
220
0.0
230
1.0
 70
     8
 71
     3
 72
    16
 73
    12
 74
     0
 42
0.00000001
 43
0.00000001
 40
0.0
 40
0.0
 40
0.0
 40
0.0
 40
0.0839762982374842
 40
0.1673944921086243
 40
0.2504691102608414
 40
0.3334182983961205
 40
0.4164614833208611
 40
0.4998170465180363
 40
0.6663918471851269
 40
0.8325505286245999
 40
1.0
 40
1.0
 40
1.0
 40
1.0
 10
1136.914331481124
 20
162.6676335226796
 30
0.0
 10
1136.956347635068
 20
162.6191723938416
 30
0.0
 10
1137.040100704653
 20
162.5225722076094
 30
0.0
 10
1137.17446065638
 20
162.3847028317195
 30
0.0
 10
1137.314535426869
 20
162.2529449987171
 30
0.0
 10
1137.460942641811
 20
162.1278221414705
 30
0.0
 10
1137.613466379285
 20
162.0093132109749
 30
0.0
 10
1137.82442335522
 20
161.8604768848514
 30
0.0
 10
1138.10070635047
 20
161.6933381701261
 30
0.0
 10
1138.448401017281
 20
161.5226227918091
 30
0.0
 10
1138.689238616308
 20
161.4377306415362
 30
0.0
 10
1138.810123337812
 20
161.395120334902
 30
0.0
  0
SPLINE
  5
D1
330
1F
100
AcDbEntity
  8
0
  6
Continuous
 62
     7
100
AcDbSpline
210
0.0
220
0.0
230
1.0
 70
     8
 71
     3
 72
    14
 73
    10
 74
     0
 42
0.00000001
 43
0.00000001
 40
0.0
 40
0.0
 40
0.0
 40
0.0
 40
0.0837468194346329
 40
0.1671107191177376
 40
0.251677365815127
 40
0.4999233232793093
 40
0.7483582931430454
 40
0.8745973258626072
 40
1.0
 40
1.0
 40
1.0
 40
1.0
 10
1136.482362962993
 20
162.696860369519
 30
0.0
 10
1136.492583636958
 20
162.7054034303828
 30
0.0
 10
1136.512978252391
 20
162.7224504902478
 30
0.0
 10
1136.547953662915
 20
162.7426476382896
 30
0.0
 10
1136.609421298279
 20
162.7686172031201
 30
0.0
 10
1136.705181970674
 20
162.7825202569278
 30
0.0
 10
1136.804252871264
 20
162.753785941344
 30
0.0
 10
1136.872897721548
 20
162.7112426708384
 30
0.0
 10
1136.900550864008
 20
162.6821376608438
 30
0.0
 10
1136.914331481124
 20
162.6676335226796
 30
0.0
  0
SPLINE
  5
D2
330
1F
100
AcDbEntity
  8
0
  6
Continuous
 62
     7
100
AcDbSpline
210
0.0
220
0.0
230
1.0
 70
     8
 71
     3
 72
    13
 73
     9
 74
     0
 42
0.00000001
 43
0.00000001
 40
0.0
 40
0.0
 40
0.0
 40
0.0
 40
0.1659066595312194
 40
0.331667534424803
 40
0.4976216786066243
 40
0.6641068106890096
 40
0.8314569199210978
 40
1.0
 40
1.0
 40
1.0
 40
1.0
 10
1135.527841427028
 20
162.0504849784632
 30
0.0
 10
1135.585205714164
 20
162.0795759292186
 30
0.0
 10
1135.699883881586
 20
162.1377322680805
 30
0.0
 10
1135.866425202023
 20
162.2348841370722
 30
0.0
 10
1136.028493806341
 20
162.3390102039353
 30
0.0
 10
1136.185397298477
 20
162.450874849219
 30
0.0
 10
1136.337658478486
 20
162.5696422341883
 30
0.0
 10
1136.434014061457
 20
162.6543540358716
 30
0.0
 10
1136.482362962993
 20
162.696860369519
 30
0.0
  0
SPLINE
  5
D3
330
1F
100
AcDbEntity
  8
0
  6
Continuous
 62
     7
100
AcDbSpline
210
0.0
220
0.0
230
1.0
 70
     8
 71
     3
 72
    13
 73
     9
 74
     0
 42
0.00000001
 43
0.00000001
 40
0.0
 40
0.0
 40
0.0
 40
0.0
 40
0.1685430800788821
 40
0.3358931893109654
 40
0.5023783213933597
 40
0.6683324655751591
 40
0.8340933404687579
 40
0.9999999999999999
 40
0.9999999999999999
 40
0.9999999999999999
 40
0.9999999999999999
 10
1134.432438287383
 20
161.6913130552284
 30
0.0
 10
1134.495645808456
 20
161.7035283718352
 30
0.0
 10
1134.621613459169
 20
161.7278725433764
 30
0.0
 10
1134.808731382453
 20
161.7755804196215
 30
0.0
 10
1134.993232303808
 20
161.831184508754
 30
0.0
 10
1135.174775263094
 20
161.8956098472434
 30
0.0
 10
1135.35354090312
 20
161.967841024776
 30
0.0
 10
1135.469724229578
 20
162.022928922596
 30
0.0
 10
1135.527841427028
 20
162.0504849784632
 30
0.0
  0
SPLINE
  5
D4
330
1F
100
AcDbEntity
  8
0
  6
Continuous
 62
     7
100
AcDbSpline
210
0.0
220
0.0
230
1.0
 70
     8
 71
     3
 72
    14
 73
    10
 74
     0
 42
0.00000001
 43
0.00000001
 40
0.0
 40
0.0
 40
0.0
 40
0.0
 40
0.0838023324350852
 40
0.1671770642229939
 40
0.2516766523770015
 40
0.4999225989988003
 40
0.7483576082000291
 40
0.8746656612085695
 40
1.0
 40
1.0
 40
1.0
 40
1.0
 10
1134.191142836483
 20
161.3318307683119
 30
0.0
 10
1134.188854015501
 20
161.3449625642932
 30
0.0
 10
1134.184288052225
 20
161.3711591513851
 30
0.0
 10
1134.184288696339
 20
161.4115472962925
 30
0.0
 10
1134.192531390465
 20
161.4777553451964
 30
0.0
 10
1134.228369131694
 20
161.5676281433952
 30
0.0
 10
1134.302797492038
 20
161.6390648982664
 30
0.0
 10
1134.373964425455
 20
161.6772418972863
 30
0.0
 10
1134.412997345207
 20
161.6866347843072
 30
0.0
 10
1134.432438287383
 20
161.6913130552284
 30
0.0
  0
SPLINE
  5
D5
330
1F
100
AcDbEntity
  8
0
  6
Continuous
 62
     7
100
AcDbSpline
210
0.0
220
0.0
230
1.0
 70
     8
 71
     3
 72
    12
 73
     8
 74
     0
 42
0.00000001
 43
0.00000001
 40
0.0
 40
0.0
 40
0.0
 40
0.0
 40
0.1648509396835871
 40
0.3299215411289373
 40
0.4984060237413331
 40
0.7502078228074067
 40
1.0
 40
1.0
 40
1.0
 40
1.0
 10
1134.049946087479
 20
158.8189958898197
 30
0.0
 10
1134.044534507708
 20
158.8312009064206
 30
0.0
 10
1134.033704137307
 20
158.8556272026505
 30
0.0
 10
1134.023888049237
 20
158.8948841703736
 30
0.0
 10
1134.018369502657
 20
158.9417633061274
 30
0.0
 10
1134.019938586247
 20
158.9961557512664
 30
0.0
 10
1134.031334759937
 20
159.0346167922703
 30
0.0
 10
1134.037010017561
 20
159.0537702662437
 30
0.0
  0
LINE
  5
D6
330
1F
100
AcDbEntity
  8
0
  6
Continuous
 62
     7
100
AcDbLine
 10
1134.0499460875
 20
158.8189958898
 30
0.0
 11
1131.1320876685
 21
157.3877019834
 31
0.0
  0
SPLINE
  5
D7
330
1F
100
AcDbEntity
  8
0
  6
Continuous
 62
     7
100
AcDbSpline
210
0.0
220
0.0
230
1.0
 70
     8
 71
     3
 72
    16
 73
    12
 74
     0
 42
0.00000001
 43
0.00000001
 40
0.0
 40
0.0
 40
0.0
 40
0.0
 40
0.0839209304606791
 40
0.1673144079497938
 40
0.2503878621109483
 40
0.3333528282355243
 40
0.4164233723746812
 40
0.4998143879307659
 40
0.6663260176157988
 40
0.8324699100368099
 40
1.0
 40
1.0
 40
1.0
 40
1.0
 10
1134.037010017561
 20
159.0537702662437
 30
0.0
 10
1134.057954079456
 20
159.1143489061752
 30
0.0
 10
1134.09971056734
 20
159.2351254421228
 30
0.0
 10
1134.151897387872
 20
159.4203632204524
 30
0.0
 10
1134.195965627575
 20
159.6075416585442
 30
0.0
 10
1134.231144184266
 20
159.7969234136775
 30
0.0
 10
1134.257549556325
 20
159.9883236497567
 30
0.0
 10
1134.280977651443
 20
160.2454347986863
 30
0.0
 10
1134.287621050516
 20
160.5682378591649
 30
0.0
 10
1134.261635711539
 20
160.9547144722419
 30
0.0
 10
1134.214705449701
 20
161.2057776684013
 30
0.0
 10
1134.191142836483
 20
161.3318307683119
 30
0.0
  0
ARC
  5
D8
330
1F
100
AcDbEntity
  8
0
  6
Continuous
 62
     7
100
AcDbCircle
 10
611.5189032113
 20
160.0300907337
 30
0.0
 40
6.000000000000006
100
AcDbArc
 50
145.344264523
 51
325.344264523
  0
LINE
  5
D9
330
1F
100
AcDbEntity
  8
0
  6
Continuous
 62
     7
100
AcDbLine
 10
609.2567983135
 20
161.5938622745
 30
0.0
 11
606.5834016162
 21
163.4419559135
 31
0.0
  0
SPLINE
  5
DA
330
1F
100
AcDbEntity
  8
0
  6
Continuous
 62
     7
100
AcDbSpline
210
0.0
220
0.0
230
1.0
 70
     8
 71
     3
 72
    12
 73
     8
 74
     0
 42
0.00000001
 43
0.00000001
 40
0.0
 40
0.0
 40
0.0
 40
0.0
 40
0.1670444630685725
 40
0.3333684213006524
 40
0.5020689749498588
 40
0.7529675844895455
 40
1.0
 40
1.0
 40
1.0
 40
1.0
 10
609.2091961713878
 20
161.363600714938
 30
0.0
 10
609.207090327453
 20
161.3767571624919
 30
0.0
 10
609.2028877226188
 20
161.4030133105283
 30
0.0
 10
609.2034069500289
 20
161.4434191562741
 30
0.0
 10
609.2100241847573
 20
161.4900634309861
 30
0.0
 10
609.2253730221933
 20
161.5422125122701
 30
0.0
 10
609.2463775798446
 20
161.5767350373056
 30
0.0
 10
609.2567983135452
 20
161.5938622744529
 30
0.0
  0
SPLINE
  5
DB
330
1F
100
AcDbEntity
  8
0
  6
Continuous
 62
     7
100
AcDbSpline
210
0.0
220
0.0
230
1.0
 70
     8
 71
     3
 72
    16
 73
    12
 74
     0
 42
0.00000001
 43
0.00000001
 40
0.0
 40
0.0
 40
0.0
 40
0.0
 40
0.0839762981937108
 40
0.1673944920386383
 40
0.2504691101821448
 40
0.3334182983260363
 40
0.4164614832763991
 40
0.4998170465157617
 40
0.6663918471153792
 40
0.8325505285548435
 40
1.0
 40
1.0
 40
1.0
 40
1.0
 10
609.0238666182748
 20
159.0878657713
 30
0.0
 10
609.0456556511746
 20
159.148190527756
 30
0.0
 10
609.0890889076135
 20
159.2684391238661
 30
0.0
 10
609.1438410819047
 20
159.4530001187251
 30
0.0
 10
609.1904698015527
 20
159.6395660062313
 30
0.0
 10
609.228216761631
 20
159.8284203654742
 30
0.0
 10
609.2572057224595
 20
160.0193850147498
 30
0.0
 10
609.2841437140197
 20
160.2761523068266
 30
0.0
 10
609.2951710936228
 20
160.5988689632165
 30
0.0
 10
609.2744649964021
 20
160.9856590603792
 30
0.0
 10
609.2310084934038
 20
161.2372956210326
 30
0.0
 10
609.2091961713878
 20
161.363600714938
 30
0.0
  0
SPLINE
  5
DC
330
1F
100
AcDbEntity
  8
0
  6
Continuous
 62
     7
100
AcDbSpline
210
0.0
220
0.0
230
1.0
 70
     8
 71
     3
 72
    14
 73
    10
 74
     0
 42
0.00000001
 43
0.00000001
 40
0.0
 40
0.0
 40
0.0
 40
0.0
 40
0.0837468194611828
 40
0.1671107191442336
 40
0.2516773658165743
 40
0.4999233232810065
 40
0.748358293144796
 40
0.8745973259058296
 40
1.0
 40
1.0
 40
1.0
 40
1.0
 10
609.2091961713879
 20
158.6965807524517
 30
0.0
 10
609.1967512480214
 20
158.7013315363588
 30
0.0
 10
609.1719183038354
 20
158.7108113819257
 30
0.0
 10
609.1372192710925
 20
158.7314797456016
 30
0.0
 10
609.0845515716738
 20
158.7724529311293
 30
0.0
 10
609.0256774421409
 20
158.8492464084114
 30
0.0
 10
609.0024012922661
 20
158.9497398165778
 30
0.0
 10
609.0060281078446
 20
159.0304175182327
 30
0.0
 10
609.0179336379076
 20
159.0687588307893
 30
0.0
 10
609.0238666182748
 20
159.0878657713
 30
0.0
  0
SPLINE
  5
DD
330
1F
100
AcDbEntity
  8
0
  6
Continuous
 62
     7
100
AcDbSpline
210
0.0
220
0.0
230
1.0
 70
     8
 71
     3
 72
    13
 73
     9
 74
     0
 42
0.00000001
 43
0.00000001
 40
0.0
 40
0.0
 40
0.0
 40
0.0
 40
0.165906659531218
 40
0.3316675344248078
 40
0.4976216786066026
 40
0.6641068106890008
 40
0.8314569199211023
 40
1.0
 40
1.0
 40
1.0
 40
1.0
 10
610.2392394250824
 20
158.1789675722658
 30
0.0
 10
610.1858501915714
 20
158.2148358674512
 30
0.0
 10
610.0791186384591
 20
158.2865409398201
 30
0.0
 10
609.9130382260738
 20
158.3844786428947
 30
0.0
 10
609.7430538504782
 20
158.4751085626739
 30
0.0
 10
609.568836314631
 20
158.5574532948208
 30
0.0
 10
609.3908599616365
 20
158.6323770990802
 30
0.0
 10
609.269893977246
 20
158.6751289216691
 30
0.0
 10
609.2091961713879
 20
158.6965807524517
 30
0.0
  0
SPLINE
  5
DE
330
1F
100
AcDbEntity
  8
0
  6
Continuous
 62
     7
100
AcDbSpline
210
0.0
220
0.0
230
1.0
 70
     8
 71
     3
 72
    13
 73
     9
 74
     0
 42
0.00000001
 43
0.00000001
 40
0.0
 40
0.0
 40
0.0
 40
0.0
 40
0.1685430800789784
 40
0.3358931893111017
 40
0.5023783213935051
 40
0.6683324655752984
 40
0.834093340468835
 40
1.0
 40
1.0
 40
1.0
 40
1.0
 10
611.087375668302
 20
157.3982131795649
 30
0.0
 10
611.0458633841085
 20
157.4474182091958
 30
0.0
 10
610.9631326453158
 20
157.5454799885648
 30
0.0
 10
610.8301634884245
 20
157.6855098496147
 30
0.0
 10
610.6915798871353
 20
157.8194015601972
 30
0.0
 10
610.5467408931988
 20
157.9464060331154
 30
0.0
 10
610.3964445815997
 20
158.0671765418557
 30
0.0
 10
610.2916564971405
 20
158.1416929775497
 30
0.0
 10
610.2392394250824
 20
158.1789675722658
 30
0.0
  0
SPLINE
  5
DF
330
1F
100
AcDbEntity
  8
0
  6
Continuous
 62
     7
100
AcDbSpline
210
0.0
220
0.0
230
1.0
 70
     8
 71
     3
 72
    14
 73
    10
 74
     0
 42
0.00000001
 43
0.00000001
 40
0.0
 40
0.0
 40
0.0
 40
0.0
 40
0.0838023324289942
 40
0.1671770642169315
 40
0.2516766523768784
 40
0.4999225989990555
 40
0.7483576082005472
 40
0.8746656612266304
 40
1.0
 40
1.0
 40
1.0
 40
1.0
 10
611.5189032113012
 20
157.3630707712086
 30
0.0
 10
611.508558997603
 20
157.3546636307837
 30
0.0
 10
611.4879233514632
 20
157.3378922472918
 30
0.0
 10
611.4526724860327
 20
157.3181798467306
 30
0.0
 10
611.3908633057541
 20
157.2930586807647
 30
0.0
 10
611.2949308551048
 20
157.2804718437891
 30
0.0
 10
611.1962536695647
 20
157.3105650959354
 30
0.0
 10
611.1281972791131
 20
157.3540454752437
 30
0.0
 10
611.1009477250994
 20
157.3835286392013
 30
0.0
 10
611.087375668302
 20
157.3982131795649
 30
0.0
  0
SPLINE
  5
E0
330
1F
100
AcDbEntity
  8
0
  6
Continuous
 62
     7
100
AcDbSpline
210
0.0
220
0.0
230
1.0
 70
     8
 71
     3
 72
    16
 73
    12
 74
     0
 42
0.00000001
 43
0.00000001
 40
0.0
 40
0.0
 40
0.0
 40
0.0
 40
0.0839209305256507
 40
0.1673144080536145
 40
0.2503878622276163
 40
0.3333528283393294
 40
0.4164233724404912
 40
0.4998143879341463
 40
0.6663260177203433
 40
0.8324699101412193
 40
1.0
 40
1.0
 40
1.0
 40
1.0
 10
613.5824122613282
 20
158.3404381419598
 30
0.0
 10
613.5193170149681
 20
158.3291503061286
 30
0.0
 10
613.3935230833519
 20
158.3066455798527
 30
0.0
 10
613.2063768148048
 20
158.2617816415369
 30
0.0
 10
613.0214993297823
 20
158.2088846380256
 30
0.0
 10
612.8390377480592
 20
158.1471533557422
 30
0.0
 10
612.6590965321201
 20
158.0767796900886
 30
0.0
 10
612.4232563649923
 20
157.9717347753401
 30
0.0
 10
612.1382730644258
 20
157.8199768463165
 30
0.0
 10
611.8136415274089
 20
157.6086624467413
 30
0.0
 10
611.6174210393222
 20
157.44516107685
 30
0.0
 10
611.5189032113012
 20
157.3630707712086
 30
0.0
  0
SPLINE
  5
E1
330
1F
100
AcDbEntity
  8
0
  6
Continuous
 62
     7
100
AcDbSpline
210
0.0
220
0.0
230
1.0
 70
     8
 71
     3
 72
    12
 73
     8
 74
     0
 42
0.00000001
 43
0.00000001
 40
0.0
 40
0.0
 40
0.0
 40
0.0
 40
0.1648509397311184
 40
0.3299215411763469
 40
0.4984060237436918
 40
0.7502078228615754
 40
1.0
 40
1.0
 40
1.0
 40
1.0
 10
613.7810081090569
 20
158.4663191929369
 30
0.0
 10
613.7729969639263
 20
158.4556388755428
 30
0.0
 10
613.7569639989191
 20
158.434264009372
 30
0.0
 10
613.7274918464115
 20
158.4065357327143
 30
0.0
 10
613.6892695297275
 20
158.3788380390783
 30
0.0
 10
613.6410302517265
 20
158.3536592351164
 30
0.0
 10
613.6018993324899
 20
158.3448333861745
 30
0.0
 10
613.582412261328
 20
158.3404381419598
 30
0.0
  0
LINE
  5
E2
330
1F
100
AcDbEntity
  8
0
  6
Continuous
 62
     7
100
AcDbLine
 10
613.7810081091
 20
158.4663191929
 30
0.0
 11
616.4544048064
 21
156.6182255539
 31
0.0
  0
SPLINE
  5
E3
330
1F
100
AcDbEntity
  8
0
  6
Continuous
 62
     7
100
AcDbSpline
210
0.0
220
0.0
230
1.0
 70
     8
 71
     3
 72
    16
 73
    12
 74
     0
 42
0.00000001
 43
0.00000001
 40
0.0
 40
0.0
 40
0.0
 40
0.0
 40
0.0839762981894482
 40
0.1673944920318183
 40
0.2504691101744786
 40
0.3334182983192096
 40
0.4164614832720709
 40
0.4998170465155475
 40
0.6663918471086634
 40
0.8325505285481235
 40
1.0
 40
1.0
 40
1.0
 40
1.0
 10
889.1413313660908
 20
160.5157511636942
 30
0.0
 10
889.109207481739
 20
160.4602363526081
 30
0.0
 10
889.0451732075556
 20
160.349575680462
 30
0.0
 10
888.9586138914835
 20
160.1776220640074
 30
0.0
 10
888.8796948156071
 20
160.0022571663254
 30
0.0
 10
888.8091121079423
 20
159.8230676482738
 30
0.0
 10
888.7467755053757
 20
159.6402507860713
 30
0.0
 10
888.6748087790475
 20
159.3923074700263
 30
0.0
 10
888.6068267044803
 20
159.0766397951705
 30
0.0
 10
888.558734331377
 20
158.6922930176703
 30
0.0
 10
888.5569585830671
 20
158.4369378277273
 30
0.0
 10
888.556067273567
 20
158.3087662251514
 30
0.0
  0
SPLINE
  5
E4
330
1F
100
AcDbEntity
  8
0
  6
Continuous
 62
     7
100
AcDbSpline
210
0.0
220
0.0
230
1.0
 70
     8
 71
     3
 72
    13
 73
     9
 74
     0
 42
0.00000001
 43
0.00000001
 40
0.0
 40
0.0
 40
0.0
 40
0.0
 40
0.1247566171779992
 40
0.2502697142794531
 40
0.4994973261260085
 40
0.7487509998579693
 40
0.8744077893174013
 40
1.0
 40
1.0
 40
1.0
 40
1.0
 10
889.095053576694
 20
160.8835085915609
 30
0.0
 10
889.1062173518999
 20
160.8712749415048
 30
0.0
 10
889.1286125954889
 20
160.8467334608731
 30
0.0
 10
889.1623265417487
 20
160.7890349781305
 30
0.0
 10
889.1873633005231
 20
160.707951537024
 30
0.0
 10
889.1830542951251
 20
160.6234578213422
 30
0.0
 10
889.1646770472165
 20
160.5595297922872
 30
0.0
 10
889.1491119262266
 20
160.5303415391301
 30
0.0
 10
889.1413313660908
 20
160.5157511636942
 30
0.0
  0
SPLINE
  5
E5
330
1F
100
AcDbEntity
  8
0
  6
Continuous
 62
     7
100
AcDbSpline
210
0.0
220
0.0
230
1.0
 70
     8
 71
     3
 72
     9
 73
     5
 74
     0
 42
0.00000001
 43
0.00000001
 40
0.0
 40
0.0
 40
0.0
 40
0.0
 40
0.5010648085020001
 40
0.9999999999999999
 40
0.9999999999999999
 40
0.9999999999999999
 40
0.9999999999999999
 10
889.0281959949895
 20
160.9336643090221
 30
0.0
 10
889.0402067710115
 20
160.926486605
 30
0.0
 10
889.0641772750623
 20
160.9121617035096
 30
0.0
 10
889.0847760986852
 20
160.8930460592101
 30
0.0
 10
889.095053576694
 20
160.8835085915609
 30
0.0
  0
SPLINE
  5
E6
330
1F
100
AcDbEntity
  8
0
  6
Continuous
 62
     7
100
AcDbSpline
210
0.0
220
0.0
230
1.0
 70
     8
 71
     3
 72
    16
 73
    12
 74
     0
 42
0.00000001
 43
0.00000001
 40
0.0
 40
0.0
 40
0.0
 40
0.0
 40
0.08423711076987
 40
0.1678795383450092
 40
0.2510910322822742
 40
0.3340383252490537
 40
0.4168900028821064
 40
0.4998153101262106
 40
0.6657051861828798
 40
0.8319852586787791
 40
1.0
 40
1.0
 40
1.0
 40
1.0
 10
887.4095230187037
 20
162.5440103503419
 30
0.0
 10
887.4416499780041
 20
162.4882674503615
 30
0.0
 10
887.5056770920219
 20
162.3771751748883
 30
0.0
 10
887.6116822224957
 20
162.2159014354847
 30
0.0
 10
887.724327051763
 20
162.0596997863907
 30
0.0
 10
887.8442174712304
 20
161.9090356003436
 30
0.0
 10
887.9710378568506
 20
161.7639951046151
 30
0.0
 10
888.1490480988979
 20
161.5784047671404
 30
0.0
 10
888.3879106653236
 20
161.3622818463622
 30
0.0
 10
888.6966190624393
 20
161.1283300553305
 30
0.0
 10
888.9172886630851
 20
160.9987769764511
 30
0.0
 10
889.0281959949895
 20
160.9336643090221
 30
0.0
  0
SPLINE
  5
E7
330
1F
100
AcDbEntity
  8
0
  6
Continuous
 62
     7
100
AcDbSpline
210
0.0
220
0.0
230
1.0
 70
     8
 71
     3
 72
     9
 73
     5
 74
     0
 42
0.00000001
 43
0.00000001
 40
0.0
 40
0.0
 40
0.0
 40
0.0
 40
0.4989351915001856
 40
1.0
 40
1.0
 40
1.0
 40
1.0
 10
887.3590231484047
 20
162.6106083632646
 30
0.0
 10
887.3686134955951
 20
162.6003802117134
 30
0.0
 10
887.3878351246839
 20
162.5798802515474
 30
0.0
 10
887.4022834642205
 20
162.5559839474022
 30
0.0
 10
887.4095230187037
 20
162.5440103503419
 30
0.0
  0
SPLINE
  5
E8
330
1F
100
AcDbEntity
  8
0
  6
Continuous
 62
     7
100
AcDbSpline
210
0.0
220
0.0
230
1.0
 70
     8
 71
     3
 72
    13
 73
     9
 74
     0
 42
0.00000001
 43
0.00000001
 40
0.0
 40
0.0
 40
0.0
 40
0.0
 40
0.1255391549141359
 40
0.2505272282568954
 40
0.4999057788119841
 40
0.7494227264641553
 40
0.8746535166969738
 40
1.0
 40
1.0
 40
1.0
 40
1.0
 10
886.9910319327236
 20
162.6549888175656
 30
0.0
 10
887.0055711149072
 20
162.662852598995
 30
0.0
 10
887.0345856563551
 20
162.6785456420658
 30
0.0
 10
887.0983163412778
 20
162.6973660171543
 30
0.0
 10
887.1827643970825
 20
162.7019523576124
 30
0.0
 10
887.2640867895445
 20
162.6776188205392
 30
0.0
 10
887.3220102061174
 20
162.6440907253958
 30
0.0
 10
887.3466817039814
 20
162.6217725854492
 30
0.0
 10
887.3590231484047
 20
162.6106083632646
 30
0.0
  0
SPLINE
  5
E9
330
1F
100
AcDbEntity
  8
0
  6
Continuous
 62
     7
100
AcDbSpline
210
0.0
220
0.0
230
1.0
 70
     8
 71
     3
 72
    16
 73
    12
 74
     0
 42
0.00000001
 43
0.00000001
 40
0.0
 40
0.0
 40
0.0
 40
0.0
 40
0.083920930476019
 40
0.167314407974314
 40
0.2503878621384988
 40
0.3333528282600415
 40
0.4164233723902241
 40
0.4998143879315685
 40
0.6663260176404591
 40
0.8324699100614364
 40
1.0
 40
1.0
 40
1.0
 40
1.0
 10
884.787094863914
 20
162.0583499203425
 30
0.0
 10
884.8511918354681
 20
162.0582900560193
 30
0.0
 10
884.9789829215255
 20
162.0581707036271
 30
0.0
 10
885.1711155049226
 20
162.0691965443234
 30
0.0
 10
885.3624371890252
 20
162.0885302100878
 30
0.0
 10
885.5529450122983
 20
162.1169863042911
 30
0.0
 10
885.7425021918492
 20
162.1543944547073
 30
0.0
 10
885.9932131477175
 20
162.216030768294
 30
0.0
 10
886.3005604522368
 20
162.3149427747161
 30
0.0
 10
886.6574727776598
 20
162.4654519181512
 30
0.0
 10
886.879538035654
 20
162.5916351148313
 30
0.0
 10
886.9910319327236
 20
162.6549888175656
 30
0.0
  0
SPLINE
  5
EA
330
1F
100
AcDbEntity
  8
0
  6
Continuous
 62
     7
100
AcDbSpline
210
0.0
220
0.0
230
1.0
 70
     8
 71
     3
 72
    12
 73
     8
 74
     0
 42
0.00000001
 43
0.00000001
 40
0.0
 40
0.0
 40
0.0
 40
0.0
 40
0.1648509398350056
 40
0.329921541280092
 40
0.4984060237492653
 40
0.7502078229806796
 40
0.9999999999999999
 40
0.9999999999999999
 40
0.9999999999999999
 40
0.9999999999999999
 10
884.5693514919163
 20
161.9696133794969
 30
0.0
 10
884.5791267933691
 20
161.978706844605
 30
0.0
 10
884.5986904217294
 20
161.9969058917384
 30
0.0
 10
884.6326056956008
 20
162.0189789363439
 30
0.0
 10
884.6751275230043
 20
162.0394728847147
 30
0.0
 10
884.7270622017261
 20
162.0557144750329
 30
0.0
 10
884.7671374967002
 20
162.0574737881188
 30
0.0
 10
884.787094863914
 20
162.0583499203425
 30
0.0
  0
LINE
  5
EB
330
1F
100
AcDbEntity
  8
0
  6
Continuous
 62
     7
100
AcDbLine
 10
884.5693514919
 20
161.9696133795
 30
0.0
 11
882.2653358236
 21
164.2617765063
 31
0.0
  0
ARC
  5
EC
330
1F
100
AcDbEntity
  8
0
  6
Continuous
 62
     7
100
AcDbCircle
 10
886.5189032113
 20
160.0300907337
 30
0.0
 40
6.000000000000103
100
AcDbArc
 50
315.1477529769
 51
135.1477529769
  0
LINE
  5
ED
330
1F
100
AcDbEntity
  8
0
  6
Continuous
 62
     7
100
AcDbLine
 10
888.4684549307
 20
158.0905680879
 30
0.0
 11
890.772470599
 21
155.7984049611
 31
0.0
  0
SPLINE
  5
EE
330
1F
100
AcDbEntity
  8
0
  6
Continuous
 62
     7
100
AcDbSpline
210
0.0
220
0.0
230
1.0
 70
     8
 71
     3
 72
    12
 73
     8
 74
     0
 42
0.00000001
 43
0.00000001
 40
0.0
 40
0.0
 40
0.0
 40
0.0
 40
0.1670444628726261
 40
0.3333684211049001
 40
0.5020689749396784
 40
0.7529675842721668
 40
0.9999999999999999
 40
0.9999999999999999
 40
0.9999999999999999
 40
0.9999999999999999
 10
888.556067273567
 20
158.3087662251514
 30
0.0
 10
888.5558108408952
 20
158.295444778804
 30
0.0
 10
888.5552990816097
 20
158.2688593448463
 30
0.0
 10
888.5476352172115
 20
158.2291835694927
 30
0.0
 10
888.5328652983409
 20
158.1844473911233
 30
0.0
 10
888.5085271929106
 20
158.1358390573176
 30
0.0
 10
888.4817430294021
 20
158.1055800956331
 30
0.0
 10
888.4684549306859
 20
158.0905680878928
 30
0.0
  0
ARC
  5
EF
330
1F
100
AcDbEntity
  8
0
  6
Continuous
 62
     7
100
AcDbCircle
 10
886.5189032113
 20
160.0300907337
 30
0.0
 40
6.000000000000103
100
AcDbArc
 50
135.1477529769
 51
315.1477529769
  0
SPLINE
  5
F0
330
1F
100
AcDbEntity
  8
0
  6
Continuous
 62
     7
100
AcDbSpline
210
0.0
220
0.0
230
1.0
 70
     8
 71
     3
 72
    12
 73
     8
 74
     0
 42
0.00000001
 43
0.00000001
 40
0.0
 40
0.0
 40
0.0
 40
0.0
 40
0.1670444630156257
 40
0.3333684212477578
 40
0.502068974947048
 40
0.752967584430579
 40
1.0
 40
1.0
 40
1.0
 40
1.0
 10
884.4817391490352
 20
161.7514152422383
 30
0.0
 10
884.4819955817064
 20
161.7647366885971
 30
0.0
 10
884.4825073409905
 20
161.791322122566
 30
0.0
 10
884.4901712053845
 20
161.8309978979215
 30
0.0
 10
884.5049411242737
 20
161.8757340762872
 30
0.0
 10
884.5292792297078
 20
161.9243424100769
 30
0.0
 10
884.5560633932112
 20
161.9546013717645
 30
0.0
 10
884.5693514919163
 20
161.9696133794969
 30
0.0
  0
SPLINE
  5
F1
330
1F
100
AcDbEntity
  8
0
  6
Continuous
 62
     7
100
AcDbSpline
210
0.0
220
0.0
230
1.0
 70
     8
 71
     3
 72
    16
 73
    12
 74
     0
 42
0.00000001
 43
0.00000001
 40
0.0
 40
0.0
 40
0.0
 40
0.0
 40
0.0839762982252113
 40
0.1673944920889995
 40
0.2504691102387746
 40
0.3334182983764657
 40
0.4164614833083891
 40
0.4998170465173913
 40
0.666391847165542
 40
0.8325505286050157
 40
1.0
 40
1.0
 40
1.0
 40
1.0
 10
883.8964750565116
 20
159.5444303036955
 30
0.0
 10
883.9285989408776
 20
159.5999451148049
 30
0.0
 10
883.9926332150837
 20
159.7106057869883
 30
0.0
 10
884.0791925311823
 20
159.882559403485
 30
0.0
 10
884.1581116070688
 20
160.0579243011811
 30
0.0
 10
884.228694314726
 20
160.2371138192188
 30
0.0
 10
884.2910309172692
 20
160.4199306813786
 30
0.0
 10
884.3629976435636
 20
160.6678739974335
 30
0.0
 10
884.4309797181036
 20
160.9835416723099
 30
0.0
 10
884.4790720912185
 20
161.3678884498063
 30
0.0
 10
884.4808478395331
 20
161.6232436397059
 30
0.0
 10
884.4817391490352
 20
161.7514152422383
 30
0.0
  0
SPLINE
  5
F2
330
1F
100
AcDbEntity
  8
0
  6
Continuous
 62
     7
100
AcDbSpline
210
0.0
220
0.0
230
1.0
 70
     8
 71
     3
 72
    14
 73
    10
 74
     0
 42
0.00000001
 43
0.00000001
 40
0.0
 40
0.0
 40
0.0
 40
0.0
 40
0.0837468193987028
 40
0.1671107190818889
 40
0.2516773658134162
 40
0.4999233232779742
 40
0.7483582931419867
 40
0.8745973258452278
 40
0.9999999999999999
 40
0.9999999999999999
 40
0.9999999999999999
 40
0.9999999999999999
 10
884.0096104276128
 20
159.1265171583676
 30
0.0
 10
883.9982030611998
 20
159.1333959705166
 30
0.0
 10
883.9754404868382
 20
159.1471221424825
 30
0.0
 10
883.9449482904623
 20
159.173606667973
 30
0.0
 10
883.900365674912
 20
159.2232562287577
 30
0.0
 10
883.8560157318248
 20
159.3092590416911
 30
0.0
 10
883.8508970236493
 20
159.4122857521184
 30
0.0
 10
883.8687485140832
 20
159.4910472250928
 30
0.0
 10
883.8872533766757
 20
159.5266754155484
 30
0.0
 10
883.8964750565116
 20
159.5444303036955
 30
0.0
  0
SPLINE
  5
F3
330
1F
100
AcDbEntity
  8
0
  6
Continuous
 62
     7
100
AcDbSpline
210
0.0
220
0.0
230
1.0
 70
     8
 71
     3
 72
    13
 73
     9
 74
     0
 42
0.00000001
 43
0.00000001
 40
0.0
 40
0.0
 40
0.0
 40
0.0
 40
0.1659066595312301
 40
0.3316675344248005
 40
0.4976216786066178
 40
0.664106810689015
 40
0.8314569199210914
 40
1.0
 40
1.0
 40
1.0
 40
1.0
 10
884.9317551991434
 20
158.4347357412112
 30
0.0
 10
884.8855587528737
 20
158.4794887657622
 30
0.0
 10
884.7932064538358
 20
158.5689554897191
 30
0.0
 10
884.6470864550397
 20
158.6947467573553
 30
0.0
 10
884.4958304917119
 20
158.8140367563641
 30
0.0
 10
884.3389415411966
 20
158.9259217951997
 30
0.0
 10
884.1770394504308
 20
159.0311685133225
 30
0.0
 10
884.0655520894494
 20
159.0946591114894
 30
0.0
 10
884.0096104276128
 20
159.1265171583676
 30
0.0
  0
SPLINE
  5
F4
330
1F
100
AcDbEntity
  8
0
  6
Continuous
 62
     7
100
AcDbSpline
210
0.0
220
0.0
230
1.0
 70
     8
 71
     3
 72
    13
 73
     9
 74
     0
 42
0.00000001
 43
0.00000001
 40
0.0
 40
0.0
 40
0.0
 40
0.0
 40
0.168543080078892
 40
0.3358931893109732
 40
0.5023783213933604
 40
0.6683324655751773
 40
0.8340933404687685
 40
1.0
 40
1.0
 40
1.0
 40
1.0
 10
885.6282834038986
 20
157.5161711170479
 30
0.0
 10
885.5961372599945
 20
157.5719477260523
 30
0.0
 10
885.5320725069655
 20
157.6831061496355
 30
0.0
 10
885.4259921739128
 20
157.8444632740812
 30
0.0
 10
885.3132994638539
 20
158.0007730876202
 30
0.0
 10
885.1932309444036
 20
158.1514117975948
 30
0.0
 10
885.0666877316797
 20
158.2968810808651
 30
0.0
 10
884.9767458879836
 20
158.3887707243823
 30
0.0
 10
884.9317551991434
 20
158.4347357412112
 30
0.0
  0
SPLINE
  5
F5
330
1F
100
AcDbEntity
  8
0
  6
Continuous
 62
     7
100
AcDbSpline
210
0.0
220
0.0
230
1.0
 70
     8
 71
     3
 72
    14
 73
    10
 74
     0
 42
0.00000001
 43
0.00000001
 40
0.0
 40
0.0
 40
0.0
 40
0.0
 40
0.0838023324012496
 40
0.1671770641893504
 40
0.2516766523757127
 40
0.4999225989981962
 40
0.7483576082000397
 40
0.8746656612237148
 40
1.0
 40
1.0
 40
1.0
 40
1.0
 10
886.0467744898788
 20
157.4051926498241
 30
0.0
 10
886.0351053761852
 20
157.3987494710553
 30
0.0
 10
886.011826690341
 20
157.3858959897768
 30
0.0
 10
885.9736429792969
 20
157.3727351972348
 30
0.0
 10
885.9083629194168
 20
157.3589525440492
 30
0.0
 10
885.811717406155
 20
157.3635469232431
 30
0.0
 10
885.7199259422641
 20
157.4106332049733
 30
0.0
 10
885.6606415142403
 20
157.4654745421202
 30
0.0
 10
885.6390415808225
 20
157.4993159077434
 30
0.0
 10
885.6282834038986
 20
157.5161711170479
 30
0.0
  0
SPLINE
  5
F6
330
1F
100
AcDbEntity
  8
0
  6
Continuous
 62
     7
100
AcDbSpline
210
0.0
220
0.0
230
1.0
 70
     8
 71
     3
 72
    12
 73
     8
 74
     0
 42
0.00000001
 43
0.00000001
 40
0.0
 40
0.0
 40
0.0
 40
0.0
 40
0.1648509395603824
 40
0.3299215410058794
 40
0.4984060237347324
 40
0.7502078226663137
 40
0.9999999999999999
 40
0.9999999999999999
 40
0.9999999999999999
 40
0.9999999999999999
 10
888.4684549306859
 20
158.0905680878928
 30
0.0
 10
888.4586796292484
 20
158.081474622801
 30
0.0
 10
888.4391160009021
 20
158.0632755756849
 30
0.0
 10
888.4052007270279
 20
158.0412025310882
 30
0.0
 10
888.3626788996435
 20
158.0207085826858
 30
0.0
 10
888.310744220904
 20
158.0044669923405
 30
0.0
 10
888.2706689259277
 20
158.0027076792662
 30
0.0
 10
888.2507115586882
 20
158.0018315470472
 30
0.0
  0
SPLINE
  5
F7
330
1F
100
AcDbEntity
  8
0
  6
Continuous
 62
     7
100
AcDbSpline
210
0.0
220
0.0
230
1.0
 70
     8
 71
     3
 72
    16
 73
    12
 74
     0
 42
0.00000001
 43
0.00000001
 40
0.0
 40
0.0
 40
0.0
 40
0.0
 40
0.0839209304692566
 40
0.1673144079635084
 40
0.2503878621263603
 40
0.3333528282492402
 40
0.4164233723833768
 40
0.4998143879312187
 40
0.6663260176295727
 40
0.8324699100505624
 40
1.0
 40
1.0
 40
1.0
 40
1.0
 10
888.2507115586882
 20
158.0018315470472
 30
0.0
 10
888.1866145871395
 20
158.0018914113703
 30
0.0
 10
888.0588235010903
 20
158.0020107637623
 30
0.0
 10
887.8666909177025
 20
157.9909849230655
 30
0.0
 10
887.6753692336032
 20
157.9716512573008
 30
0.0
 10
887.4848614103269
 20
157.9431951630975
 30
0.0
 10
887.2953042307669
 20
157.9057870126811
 30
0.0
 10
887.0445932748971
 20
157.8441506991009
 30
0.0
 10
886.7372459703788
 20
157.7452386926852
 30
0.0
 10
886.3803336449563
 20
157.5947295492479
 30
0.0
 10
886.1582683869553
 20
157.4685463525629
 30
0.0
 10
886.0467744898788
 20
157.4051926498241
 30
0.0
  0
SPLINE
  5
F8
330
1F
100
AcDbEntity
  8
0
  6
Continuous
 62
     7
100
AcDbSpline
210
0.0
220
0.0
230
1.0
 70
     8
 71
     3
 72
    16
 73
    12
 74
     0
 42
0.00000001
 43
0.00000001
 40
0.0
 40
0.0
 40
0.0
 40
0.0
 40
0.0839762981991496
 40
0.1673944920473331
 40
0.250469110191919
 40
0.3334182983347428
 40
0.4164614832819191
 40
0.499817046516044
 40
0.6663918471241735
 40
0.832550528563639
 40
0.9999999999999999
 40
0.9999999999999999
 40
0.9999999999999999
 40
0.9999999999999999
 10
614.0139398043274
 20
160.9723156960898
 30
0.0
 10
613.9921507714263
 20
160.9119909396299
 30
0.0
 10
613.9487175149849
 20
160.7917423435136
 30
0.0
 10
613.8939653406907
 20
160.6071813486476
 30
0.0
 10
613.8473366210419
 20
160.420615461139
 30
0.0
 10
613.8095896609641
 20
160.2317611018985
 30
0.0
 10
613.7806007001382
 20
160.0407964526299
 30
0.0
 10
613.7536627085833
 20
159.7840291605523
 30
0.0
 10
613.7426353289849
 20
159.46131250416
 30
0.0
 10
613.7633414262034
 20
159.0745224069975
 30
0.0
 10
613.8067979291998
 20
158.8228858463506
 30
0.0
 10
613.8286102512145
 20
158.6965807524518
 30
0.0
  0
SPLINE
  5
F9
330
1F
100
AcDbEntity
  8
0
  6
Continuous
 62
     7
100
AcDbSpline
210
0.0
220
0.0
230
1.0
 70
     8
 71
     3
 72
    13
 73
     9
 74
     0
 42
0.00000001
 43
0.00000001
 40
0.0
 40
0.0
 40
0.0
 40
0.0
 40
0.1247566175078786
 40
0.2502697142863459
 40
0.4994973261304442
 40
0.7487509998597771
 40
0.8744077892884208
 40
1.0
 40
1.0
 40
1.0
 40
1.0
 10
613.9032907169277
 20
161.3260725886026
 30
0.0
 10
613.9164438355056
 20
161.3160084173152
 30
0.0
 10
613.9428298284431
 20
161.2958190492245
 30
0.0
 10
613.9862253730274
 20
161.2450000390628
 30
0.0
 10
614.0252204922898
 20
161.169629326072
 30
0.0
 10
614.0359370262187
 20
161.0857072704622
 30
0.0
 10
614.0291668691009
 20
161.0195356669447
 30
0.0
 10
614.0190146227719
 20
160.9880529890361
 30
0.0
 10
614.0139398043274
 20
160.9723156960898
 30
0.0
  0
SPLINE
  5
FA
330
1F
100
AcDbEntity
  8
0
  6
Continuous
 62
     7
100
AcDbSpline
210
0.0
220
0.0
230
1.0
 70
     8
 71
     3
 72
     9
 73
     5
 74
     0
 42
0.00000001
 43
0.00000001
 40
0.0
 40
0.0
 40
0.0
 40
0.0
 40
0.5010648085020556
 40
1.0
 40
1.0
 40
1.0
 40
1.0
 10
613.8286102512145
 20
161.3636007149381
 30
0.0
 10
613.8417019654422
 20
161.3586625782189
 30
0.0
 10
613.8678297517197
 20
161.3488072927639
 30
0.0
 10
613.891487188952
 20
161.3336400565216
 30
0.0
 10
613.9032907169278
 20
161.3260725886026
 30
0.0
  0
SPLINE
  5
FB
330
1F
100
AcDbEntity
  8
0
  6
Continuous
 62
     7
100
AcDbSpline
210
0.0
220
0.0
230
1.0
 70
     8
 71
     3
 72
    16
 73
    12
 74
     0
 42
0.00000001
 43
0.00000001
 40
0.0
 40
0.0
 40
0.0
 40
0.0
 40
0.0842371107449972
 40
0.1678795383052089
 40
0.2510910322374745
 40
0.3340383252091325
 40
0.4168900028567777
 40
0.4998153101249914
 40
0.6657051861429096
 40
0.8319852586389308
 40
0.9999999999999999
 40
0.9999999999999999
 40
0.9999999999999999
 40
0.9999999999999999
 10
611.9504307543004
 20
162.6619682878249
 30
0.0
 10
611.9919181895385
 20
162.6127930386946
 30
0.0
 10
612.0746001738997
 20
162.5147896997027
 30
0.0
 10
612.2074805546888
 20
162.3748285940483
 30
0.0
 10
612.3459978835988
 20
162.2410348635246
 30
0.0
 10
612.4906661002987
 20
162.1139737887679
 30
0.0
 10
612.6411593012193
 20
161.9936743619213
 30
0.0
 10
612.8492122141212
 20
161.8425273967825
 30
0.0
 10
613.1225613983711
 20
161.6721024397242
 30
0.0
 10
613.4678094478804
 20
161.4964946401026
 30
0.0
 10
613.707927988603
 20
161.4080516680068
 30
0.0
 10
613.8286102512145
 20
161.3636007149381
 30
0.0
  0
SPLINE
  5
FC
330
1F
100
AcDbEntity
  8
0
  6
Continuous
 62
     7
100
AcDbSpline
210
0.0
220
0.0
230
1.0
 70
     8
 71
     3
 72
     9
 73
     5
 74
     0
 42
0.00000001
 43
0.00000001
 40
0.0
 40
0.0
 40
0.0
 40
0.0
 40
0.4989351914997198
 40
1.0
 40
1.0
 40
1.0
 40
1.0
 10
611.8889389582957
 20
162.7185747472581
 30
0.0
 10
611.900188475922
 20
162.7102058646231
 30
0.0
 10
611.9227355277599
 20
162.6934323782515
 30
0.0
 10
611.941185914701
 20
162.6724711977292
 30
0.0
 10
611.9504307543004
 20
162.6619682878249
 30
0.0
  0
SPLINE
  5
FD
330
1F
100
AcDbEntity
  8
0
  6
Continuous
 62
     7
100
AcDbSpline
210
0.0
220
0.0
230
1.0
 70
     8
 71
     3
 72
    13
 73
     9
 74
     0
 42
0.00000001
 43
0.00000001
 40
0.0
 40
0.0
 40
0.0
 40
0.0
 40
0.1255391551523753
 40
0.250527228260895
 40
0.4999057788134884
 40
0.7494227264631181
 40
0.8746535165662894
 40
1.0
 40
1.0
 40
1.0
 40
1.0
 10
611.5189032113011
 20
162.6971106961811
 30
0.0
 10
611.5318206828324
 20
162.7074240761916
 30
0.0
 10
611.5575989217805
 20
162.7280055633369
 30
0.0
 10
611.6169913955529
 20
162.7578106095311
 30
0.0
 10
611.699293815406
 20
162.777273916764
 30
0.0
 10
611.7836394734845
 20
162.7677207757853
 30
0.0
 10
611.8465833750128
 20
162.7449760926275
 30
0.0
 10
611.8748160854528
 20
162.727377904118
 30
0.0
 10
611.8889389582957
 20
162.7185747472581
 30
0.0
  0
SPLINE
  5
FE
330
1F
100
AcDbEntity
  8
0
  6
Continuous
 62
     7
100
AcDbSpline
210
0.0
220
0.0
230
1.0
 70
     8
 71
     3
 72
    12
 73
     8
 74
     0
 42
0.00000001
 43
0.00000001
 40
0.0
 40
0.0
 40
0.0
 40
0.0
 40
0.1648509404205562
 40
0.3299215418648703
 40
0.4984060237800677
 40
0.7502078236510089
 40
1.0
 40
1.0
 40
1.0
 40
1.0
 10
609.2567983135452
 20
161.5938622744529
 30
0.0
 10
609.2648094587062
 20
161.6045425918939
 30
0.0
 10
609.2808424237402
 20
161.625917458114
 30
0.0
 10
609.3103145762373
 20
161.653645734792
 30
0.0
 10
609.3485368929826
 20
161.6813434283586
 30
0.0
 10
609.3967761709513
 20
161.7065222322455
 30
0.0
 10
609.4359070901778
 20
161.715348081215
 30
0.0
 10
609.4553941612742
 20
161.7197433254299
 30
0.0
  0
ARC
  5
FF
330
1F
100
AcDbEntity
  8
0
  6
Continuous
 62
     7
100
AcDbCircle
 10
611.5189032113
 20
160.0300907337
 30
0.0
 40
6.000000000000006
100
AcDbArc
 50
325.344264523
 51
145.344264523
  0
SPLINE
  5
100
330
1F
100
AcDbEntity
  8
0
  6
Continuous
 62
     7
100
AcDbSpline
210
0.0
220
0.0
230
1.0
 70
     8
 71
     3
 72
    12
 73
     8
 74
     0
 42
0.00000001
 43
0.00000001
 40
0.0
 40
0.0
 40
0.0
 40
0.0
 40
0.167044463048266
 40
0.3333684212803113
 40
0.5020689749486166
 40
0.7529675844655069
 40
1.0
 40
1.0
 40
1.0
 40
1.0
 10
613.8286102512145
 20
158.6965807524518
 30
0.0
 10
613.8307160951489
 20
158.6834243048994
 30
0.0
 10
613.8349186999827
 20
158.6571681568646
 30
0.0
 10
613.8343994725717
 20
158.6167623111189
 30
0.0
 10
613.8277822378463
 20
158.5701180364071
 30
0.0
 10
613.8124334004112
 20
158.5179689551208
 30
0.0
 10
613.791428842759
 20
158.4834464300856
 30
0.0
 10
613.7810081090569
 20
158.4663191929369
 30
0.0
  0
SPLINE
  5
101
330
1F
100
AcDbEntity
  8
0
  6
Continuous
 62
     7
100
AcDbSpline
210
0.0
220
0.0
230
1.0
 70
     8
 71
     3
 72
    16
 73
    12
 74
     0
 42
0.00000001
 43
0.00000001
 40
0.0
 40
0.0
 40
0.0
 40
0.0
 40
0.0839209304682833
 40
0.1673144079619563
 40
0.2503878621246202
 40
0.3333528282476846
 40
0.4164233723823755
 40
0.4998143879311414
 40
0.6663260176280854
 40
0.832469910049083
 40
0.9999999999999999
 40
0.9999999999999999
 40
0.9999999999999999
 40
0.9999999999999999
 10
609.4553941612742
 20
161.7197433254299
 30
0.0
 10
609.5184894075908
 20
161.7310311612544
 30
0.0
 10
609.6442833391379
 20
161.7535358875198
 30
0.0
 10
609.8314296076059
 20
161.798399825825
 30
0.0
 10
610.016307092601
 20
161.851296829334
 30
0.0
 10
610.1987686743489
 20
161.9130281116225
 30
0.0
 10
610.3787098903646
 20
161.9834017772913
 30
0.0
 10
610.6145500575144
 20
162.0884466919876
 30
0.0
 10
610.8995333580827
 20
162.2402046209562
 30
0.0
 10
611.2241648950927
 20
162.4515190205495
 30
0.0
 10
611.4203853832286
 20
162.6150203904917
 30
0.0
 10
611.5189032113011
 20
162.6971106961811
 30
0.0
  0
SPLINE
  5
102
330
1F
100
AcDbEntity
  8
0
  6
Continuous
 62
     7
100
AcDbSpline
210
0.0
220
0.0
230
1.0
 70
     8
 71
     3
 72
    16
 73
    12
 74
     0
 42
0.00000001
 43
0.00000001
 40
0.0
 40
0.0
 40
0.0
 40
0.0
 40
0.0839762982021061
 40
0.1673944920520594
 40
0.2504691101972352
 40
0.3334182983394774
 40
0.4164614832849272
 40
0.4998170465162106
 40
0.6663918471288526
 40
0.8325505285683176
 40
1.0
 40
1.0
 40
1.0
 40
1.0
 10
1136.123474941478
 20
157.3925479447102
 30
0.0
 10
1136.081458787552
 20
157.4410090735273
 30
0.0
 10
1135.997705717994
 20
157.5376092597262
 30
0.0
 10
1135.863345766298
 20
157.6754786355775
 30
0.0
 10
1135.72327099582
 20
157.8072364685662
 30
0.0
 10
1135.576863780866
 20
157.9323593258245
 30
0.0
 10
1135.42434004336
 20
158.0508682563557
 30
0.0
 10
1135.213383067445
 20
158.1997045825075
 30
0.0
 10
1134.937100072224
 20
158.3668432972516
 30
0.0
 10
1134.589405405405
 20
158.5375586755589
 30
0.0
 10
1134.348567806335
 20
158.6224508258415
 30
0.0
 10
1134.22768308479
 20
158.6650611324877
 30
0.0
  0
SPLINE
  5
103
330
1F
100
AcDbEntity
  8
0
  6
Continuous
 62
     7
100
AcDbSpline
210
0.0
220
0.0
230
1.0
 70
     8
 71
     3
 72
    13
 73
     9
 74
     0
 42
0.00000001
 43
0.00000001
 40
0.0
 40
0.0
 40
0.0
 40
0.0
 40
0.1247566172824952
 40
0.2502697142821273
 40
0.4994973261285842
 40
0.7487509998603832
 40
0.8744077893960757
 40
0.9999999999999999
 40
0.9999999999999999
 40
0.9999999999999999
 40
0.9999999999999999
 10
1136.486238489251
 20
157.3164574200042
 30
0.0
 10
1136.47103465851
 20
157.3098896500778
 30
0.0
 10
1136.44053480641
 20
157.2967142856064
 30
0.0
 10
1136.374999415494
 20
157.2836430339128
 30
0.0
 10
1136.290183227281
 20
157.2863958371414
 30
0.0
 10
1136.211705908078
 20
157.318003840721
 30
0.0
 10
1136.157256127404
 20
157.3562103522603
 30
0.0
 10
1136.134733407103
 20
157.3804374896068
 30
0.0
 10
1136.123474941478
 20
157.3925479447102
 30
0.0
  0
SPLINE
  5
104
330
1F
100
AcDbEntity
  8
0
  6
Continuous
 62
     7
100
AcDbSpline
210
0.0
220
0.0
230
1.0
 70
     8
 71
     3
 72
     9
 73
     5
 74
     0
 42
0.00000001
 43
0.00000001
 40
0.0
 40
0.0
 40
0.0
 40
0.0
 40
0.5010648085017712
 40
1.0
 40
1.0
 40
1.0
 40
1.0
 10
1136.555443459609
 20
157.3633210978707
 30
0.0
 10
1136.544743574376
 20
157.3543049661236
 30
0.0
 10
1136.523389280378
 20
157.336311022837
 30
0.0
 10
1136.498604492258
 20
157.3230658852584
 30
0.0
 10
1136.486238489251
 20
157.3164574200042
 30
0.0
  0
SPLINE
  5
105
330
1F
100
AcDbEntity
  8
0
  6
Continuous
 62
     7
100
AcDbSpline
210
0.0
220
0.0
230
1.0
 70
     8
 71
     3
 72
    16
 73
    12
 74
     0
 42
0.00000001
 43
0.00000001
 40
0.0
 40
0.0
 40
0.0
 40
0.0
 40
0.084237110791947
 40
0.1678795383803361
 40
0.2510910323220257
 40
0.334038325284471
 40
0.4168900029045514
 40
0.4998153101272488
 40
0.6657051862183457
 40
0.8319852587141471
 40
1.0
 40
1.0
 40
1.0
 40
1.0
 10
1138.605368135219
 20
158.3688684121614
 30
0.0
 10
1138.542198734842
 20
158.3566602480796
 30
0.0
 10
1138.416305886958
 20
158.3323301050909
 30
0.0
 10
1138.229291303477
 20
158.2846661534564
 30
0.0
 10
1138.0449082453
 20
158.2290720836133
 30
0.0
 10
1137.863399238555
 20
158.1648234252317
 30
0.0
 10
1137.684948656995
 20
158.0921904744469
 30
0.0
 10
1137.451480317434
 20
157.9843760317215
 30
0.0
 10
1137.169315935813
 20
157.8289807155898
 30
0.0
 10
1136.84753503523
 20
157.6133621472902
 30
0.0
 10
1136.653143553136
 20
157.4469559437645
 30
0.0
 10
1136.555443459609
 20
157.3633210978707
 30
0.0
  0
SPLINE
  5
106
330
1F
100
AcDbEntity
  8
0
  6
Continuous
 62
     7
100
AcDbSpline
210
0.0
220
0.0
230
1.0
 70
     8
 71
     3
 72
     9
 73
     5
 74
     0
 42
0.00000001
 43
0.00000001
 40
0.0
 40
0.0
 40
0.0
 40
0.0
 40
0.4989351914991718
 40
1.0
 40
1.0
 40
1.0
 40
1.0
 10
1138.684787340499
 20
158.394909188995
 30
0.0
 10
1138.671992272849
 20
158.3891754217152
 30
0.0
 10
1138.646347524057
 20
158.3776834135797
 30
0.0
 10
1138.619047311164
 20
158.371810914692
 30
0.0
 10
1138.605368135219
 20
158.3688684121614
 30
0.0
  0
SPLINE
  5
107
330
1F
100
AcDbEntity
  8
0
  6
Continuous
 62
     7
100
AcDbSpline
210
0.0
220
0.0
230
1.0
 70
     8
 71
     3
 72
    13
 73
     9
 74
     0
 42
0.00000001
 43
0.00000001
 40
0.0
 40
0.0
 40
0.0
 40
0.0
 40
0.1255391550159751
 40
0.2505272282590573
 40
0.4999057788136001
 40
0.7494227264652389
 40
0.8746535167100061
 40
0.9999999999999999
 40
0.9999999999999999
 40
0.9999999999999999
 40
0.9999999999999999
 10
1138.84666358612
 20
158.7283506990779
 30
0.0
 10
1138.849360186656
 20
158.7120425654342
 30
0.0
 10
1138.854741550408
 20
158.6794978862918
 30
0.0
 10
1138.851766486328
 20
158.6131129805298
 30
0.0
 10
1138.828583142954
 20
158.5317800767619
 30
0.0
 10
1138.779077123219
 20
158.4628264216532
 30
0.0
 10
1138.72850353521
 20
158.4189907335989
 30
0.0
 10
1138.699363890053
 20
158.4029388409484
 30
0.0
 10
1138.684787340499
 20
158.394909188995
 30
0.0
  0
SPLINE
  5
108
330
1F
100
AcDbEntity
  8
0
  6
Continuous
 62
     7
100
AcDbSpline
210
0.0
220
0.0
230
1.0
 70
     8
 71
     3
 72
    12
 73
     8
 74
     0
 42
0.00000001
 43
0.00000001
 40
0.0
 40
0.0
 40
0.0
 40
0.0
 40
0.1648509410251643
 40
0.3299215424682839
 40
0.4984060238114581
 40
0.7502078243431404
 40
0.9999999999999999
 40
0.9999999999999999
 40
0.9999999999999999
 40
0.9999999999999999
 10
1138.987860335124
 20
161.2411855775701
 30
0.0
 10
1138.993271914945
 20
161.2289805608732
 30
0.0
 10
1139.004102285404
 20
161.204554264551
 30
0.0
 10
1139.013918373519
 20
161.1652972968264
 30
0.0
 10
1139.019436919923
 20
161.1184181610347
 30
0.0
 10
1139.017867836235
 20
161.0640257160214
 30
0.0
 10
1139.006471662603
 20
161.0255646750087
 30
0.0
 10
1139.000796405042
 20
161.0064112011461
 30
0.0
  0
ARC
  5
109
330
1F
100
AcDbEntity
  8
0
  6
Continuous
 62
     7
100
AcDbCircle
 10
1136.5189032113
 20
160.0300907337
 30
0.0
 40
5.999999999999893
100
AcDbArc
 50
206.1292858367
 51
26.1292858367
  0
SPLINE
  5
10A
330
1F
100
AcDbEntity
  8
0
  6
Continuous
 62
     7
100
AcDbSpline
210
0.0
220
0.0
230
1.0
 70
     8
 71
     3
 72
    12
 73
     8
 74
     0
 42
0.00000001
 43
0.00000001
 40
0.0
 40
0.0
 40
0.0
 40
0.0
 40
0.1670444625367813
 40
0.3333684207695676
 40
0.5020689749227099
 40
0.7529675839004548
 40
1.0
 40
1.0
 40
1.0
 40
1.0
 10
1134.22768308479
 20
158.6650611324877
 30
0.0
 10
1134.215172372832
 20
158.6696446656327
 30
0.0
 10
1134.190204910727
 20
158.6787919620043
 30
0.0
 10
1134.155192339088
 20
158.6989667431542
 30
0.0
 10
1134.117711264134
 20
158.727508732895
 30
0.0
 10
1134.079687413391
 20
158.7663584467824
 30
0.0
 10
1134.059808412516
 20
158.8015411343081
 30
0.0
 10
1134.049946087479
 20
158.8189958898197
 30
0.0
  0
SPLINE
  5
10B
330
1F
100
AcDbEntity
  8
0
  6
Continuous
 62
     7
100
AcDbSpline
210
0.0
220
0.0
230
1.0
 70
     8
 71
     3
 72
    16
 73
    12
 74
     0
 42
0.00000001
 43
0.00000001
 40
0.0
 40
0.0
 40
0.0
 40
0.0
 40
0.0839209305892151
 40
0.1673144081551831
 40
0.2503878623417261
 40
0.3333528284408715
 40
0.4164233725048376
 40
0.4998143879374266
 40
0.6663260178227385
 40
0.8324699102434827
 40
1.0
 40
1.0
 40
1.0
 40
1.0
 10
1139.000796405042
 20
161.0064112011461
 30
0.0
 10
1138.979852343113
 20
160.9458325611224
 30
0.0
 10
1138.938095855173
 20
160.8250560250277
 30
0.0
 10
1138.885909034575
 20
160.639818246532
 30
0.0
 10
1138.841840794847
 20
160.452639808384
 30
0.0
 10
1138.806662238173
 20
160.2632580533054
 30
0.0
 10
1138.780256866168
 20
160.0718578173922
 30
0.0
 10
1138.756828771176
 20
159.8147466684486
 30
0.0
 10
1138.750185372212
 20
159.4919436079134
 30
0.0
 10
1138.776170711146
 20
159.1054669948422
 30
0.0
 10
1138.823100972939
 20
158.8544037988348
 30
0.0
 10
1138.84666358612
 20
158.7283506990779
 30
0.0
  0
LINE
  5
10C
330
1F
100
AcDbEntity
  8
0
  6
Continuous
 62
     7
100
AcDbLine
 10
1465.0189032113
 20
167.6300907337
 30
0.0
 11
1465.0189032113
 21
140.6300907337
 31
0.0
  0
LINE
  5
10D
330
1F
100
AcDbEntity
  8
0
  6
Continuous
 62
     7
100
AcDbLine
 10
1464.5189032113
 20
140.6300907337
 30
0.0
 11
1465.0189032113
 21
140.6300907337
 31
0.0
  0
LINE
  5
10E
330
1F
100
AcDbEntity
  8
0
  6
Continuous
 62
     7
100
AcDbLine
 10
558.5190582972
 20
140.6300907337
 30
0.0
 11
558.0190582972
 21
140.6300907337
 31
0.0
  0
LINE
  5
10F
330
1F
100
AcDbEntity
  8
0
  6
Continuous
 62
     7
100
AcDbLine
 10
558.0190582972
 20
140.6300907337
 30
0.0
 11
558.0190582972
 21
167.6300907337
 31
0.0
  0
LINE
  5
110
330
1F
100
AcDbEntity
  8
0
  6
Continuous
 62
     7
100
AcDbLine
 10
558.5190582972
 20
167.6300907337
 30
0.0
 11
558.0190582972
 21
167.6300907337
 31
0.0
  0
LINE
  5
111
330
1F
100
AcDbEntity
  8
0
  6
Continuous
 62
     7
100
AcDbLine
 10
1464.5189032113
 20
167.6300907337
 30
0.0
 11
1465.0189032113
 21
167.6300907337
 31
0.0
  0
LINE
  5
112
330
1F
100
AcDbEntity
  8
0
  6
Continuous
 62
     7
100
AcDbLine
 10
1465.0189032113
 20
182.1300907337
 30
0.0
 11
1463.5189032113
 21
182.1300907337
 31
0.0
  0
LINE
  5
113
330
1F
100
AcDbEntity
  8
0
  6
Continuous
 62
     7
100
AcDbLine
 10
1463.5189032113
 20
182.1300907337
 30
0.0
 11
1463.5189032113
 21
170.1300907337
 31
0.0
  0
LINE
  5
114
330
1F
100
AcDbEntity
  8
0
  6
Continuous
 62
     7
100
AcDbLine
 10
1465.0189032113
 20
182.1300907337
 30
0.0
 11
1465.0189032113
 21
167.6300907337
 31
0.0
  0
LINE
  5
115
330
1F
100
AcDbEntity
  8
0
  6
Continuous
 62
     7
100
AcDbLine
 10
558.0190582972
 20
126.1300907337
 30
0.0
 11
559.5190582972
 21
126.1300907337
 31
0.0
  0
LINE
  5
116
330
1F
100
AcDbEntity
  8
0
  6
Continuous
 62
     7
100
AcDbLine
 10
559.5190582972
 20
138.1300907337
 30
0.0
 11
559.5190582972
 21
126.1300907337
 31
0.0
  0
LINE
  5
117
330
1F
100
AcDbEntity
  8
0
  6
Continuous
 62
     7
100
AcDbLine
 10
558.0190582972
 20
140.6300907337
 30
0.0
 11
558.0190582972
 21
126.1300907337
 31
0.0
  0
LINE
  5
118
330
1F
100
AcDbEntity
  8
0
  6
Continuous
 62
     7
100
AcDbLine
 10
1465.0189032113
 20
126.1300907337
 30
0.0
 11
1463.5189032113
 21
126.1300907337
 31
0.0
  0
LINE
  5
119
330
1F
100
AcDbEntity
  8
0
  6
Continuous
 62
     7
100
AcDbLine
 10
1463.5189032113
 20
138.1300907337
 30
0.0
 11
1463.5189032113
 21
126.1300907337
 31
0.0
  0
LINE
  5
11A
330
1F
100
AcDbEntity
  8
0
  6
Continuous
 62
     7
100
AcDbLine
 10
1465.0189032113
 20
140.6300907337
 30
0.0
 11
1465.0189032113
 21
126.1300907337
 31
0.0
  0
LINE
  5
11B
330
1F
100
AcDbEntity
  8
0
  6
Continuous
 62
     7
100
AcDbLine
 10
558.0190582972
 20
182.1300907337
 30
0.0
 11
559.5190582972
 21
182.1300907337
 31
0.0
  0
LINE
  5
11C
330
1F
100
AcDbEntity
  8
0
  6
Continuous
 62
     7
100
AcDbLine
 10
559.5190582972
 20
182.1300907337
 30
0.0
 11
559.5190582972
 21
170.1300907337
 31
0.0
  0
LINE
  5
11D
330
1F
100
AcDbEntity
  8
0
  6
Continuous
 62
     7
100
AcDbLine
 10
558.0190582972
 20
182.1300907337
 30
0.0
 11
558.0190582972
 21
167.6300907337
 31
0.0
  0
LINE
  5
11E
330
1F
100
AcDbEntity
  8
0
  6
Continuous
 62
     7
100
AcDbLine
 10
1465.0189032113
 20
123.1300907337
 30
0.0
 11
1463.5189032113
 21
123.1300907337
 31
0.0
  0
LINE
  5
11F
330
1F
100
AcDbEntity
  8
0
  6
Continuous
 62
     7
100
AcDbLine
 10
1463.5189032113
 20
126.1300907337
 30
0.0
 11
1463.5189032113
 21
123.1300907337
 31
0.0
  0
LINE
  5
120
330
1F
100
AcDbEntity
  8
0
  6
Continuous
 62
     7
100
AcDbLine
 10
1465.0189032113
 20
126.1300907337
 30
0.0
 11
1465.0189032113
 21
123.1300907337
 31
0.0
  0
LINE
  5
121
330
1F
100
AcDbEntity
  8
0
  6
Continuous
 62
     7
100
AcDbLine
 10
558.0190582972
 20
123.1300907337
 30
0.0
 11
559.5190582972
 21
123.1300907337
 31
0.0
  0
LINE
  5
122
330
1F
100
AcDbEntity
  8
0
  6
Continuous
 62
     7
100
AcDbLine
 10
559.5190582972
 20
126.1300907337
 30
0.0
 11
559.5190582972
 21
123.1300907337
 31
0.0
  0
LINE
  5
123
330
1F
100
AcDbEntity
  8
0
  6
Continuous
 62
     7
100
AcDbLine
 10
558.0190582972
 20
126.1300907337
 30
0.0
 11
558.0190582972
 21
123.1300907337
 31
0.0
  0
LINE
  5
124
330
1F
100
AcDbEntity
  8
0
  6
Continuous
 62
     7
100
AcDbLine
 10
1465.0189032113
 20
185.1300907337
 30
0.0
 11
1463.5189032113
 21
185.1300907337
 31
0.0
  0
LINE
  5
125
330
1F
100
AcDbEntity
  8
0
  6
Continuous
 62
     7
100
AcDbLine
 10
1463.5189032113
 20
185.1300907337
 30
0.0
 11
1463.5189032113
 21
182.1300907337
 31
0.0
  0
LINE
  5
126
330
1F
100
AcDbEntity
  8
0
  6
Continuous
 62
     7
100
AcDbLine
 10
1465.0189032113
 20
185.1300907337
 30
0.0
 11
1465.0189032113
 21
182.1300907337
 31
0.0
  0
LINE
  5
127
330
1F
100
AcDbEntity
  8
0
  6
Continuous
 62
     7
100
AcDbLine
 10
558.0190582972
 20
185.1300907337
 30
0.0
 11
559.5190582972
 21
185.1300907337
 31
0.0
  0
LINE
  5
128
330
1F
100
AcDbEntity
  8
0
  6
Continuous
 62
     7
100
AcDbLine
 10
559.5190582972
 20
185.1300907337
 30
0.0
 11
559.5190582972
 21
182.1300907337
 31
0.0
  0
LINE
  5
129
330
1F
100
AcDbEntity
  8
0
  6
Continuous
 62
     7
100
AcDbLine
 10
558.0190582972
 20
185.1300907337
 30
0.0
 11
558.0190582972
 21
182.1300907337
 31
0.0
  0
LINE
  5
12A
330
1F
100
AcDbEntity
  8
0
  6
Continuous
 62
     7
100
AcDbLine
 10
1460.9189032113
 20
135.0811739202
 30
0.0
 11
1463.5189032113
 21
135.0811739202
 31
0.0
  0
LINE
  5
12B
330
1F
100
AcDbEntity
  8
0
  6
Continuous
 62
     7
100
AcDbLine
 10
1460.9189032113
 20
135.0811739202
 30
0.0
 11
1460.9189032113
 21
123.1300907337
 31
0.0
  0
LINE
  5
12C
330
1F
100
AcDbEntity
  8
0
  6
Continuous
 62
     7
100
AcDbLine
 10
562.1190582972
 20
134.6004333013
 30
0.0
 11
559.5190582972
 21
134.6004333013
 31
0.0
  0
LINE
  5
12D
330
1F
100
AcDbEntity
  8
0
  6
Continuous
 62
     7
100
AcDbLine
 10
562.1190582972
 20
123.1300907337
 30
0.0
 11
562.1190582972
 21
134.6004333013
 31
0.0
  0
SPLINE
  5
12E
330
1F
100
AcDbEntity
  8
0
  6
Continuous
 62
     7
100
AcDbSpline
210
0.0
220
0.0
230
1.0
 70
     8
 71
     3
 72
    16
 73
    12
 74
     0
 42
0.00000001
 43
0.00000001
 40
0.0
 40
0.0
 40
0.0
 40
0.0
 40
0.0839762981672426
 40
0.1673944919963157
 40
0.250469110134557
 40
0.3334182982836589
 40
0.4164614832495167
 40
0.4998170465143953
 40
0.6663918470733462
 40
0.832550528512798
 40
1.0
 40
1.0
 40
1.0
 40
1.0
 10
1459.28111277367
 20
127.3463015268055
 30
0.0
 10
1459.269955111424
 20
127.3379574616255
 30
0.0
 10
1459.247713940471
 20
127.3213247857102
 30
0.0
 10
1459.221601967062
 20
127.2852159486547
 30
0.0
 10
1459.200953446236
 20
127.2409700975999
 30
0.0
 10
1459.186253624511
 20
127.1877833840674
 30
0.0
 10
1459.177392780789
 20
127.1258475676278
 30
0.0
 10
1459.173393604188
 20
127.0318742723425
 30
0.0
 10
1459.183506183692
 20
126.8934840344041
 30
0.0
 10
1459.217712841858
 20
126.6974821450276
 30
0.0
 10
1459.259925020891
 20
126.5433304695435
 30
0.0
 10
1459.28111277367
 20
126.4659564114991
 30
0.0
  0
SPLINE
  5
12F
330
1F
100
AcDbEntity
  8
0
  6
Continuous
 62
     7
100
AcDbSpline
210
0.0
220
0.0
230
1.0
 70
     8
 71
     3
 72
    13
 73
     9
 74
     0
 42
0.00000001
 43
0.00000001
 40
0.0
 40
0.0
 40
0.0
 40
0.0
 40
0.124756617310474
 40
0.2502697142827152
 40
0.4994973261286615
 40
0.7487509998600391
 40
0.8744077893685535
 40
1.0
 40
1.0
 40
1.0
 40
1.0
 10
1459.294188812694
 20
127.6070351621104
 30
0.0
 10
1459.296117322864
 20
127.590729398933
 30
0.0
 10
1459.299986037
 20
127.5580190002418
 30
0.0
 10
1459.304426593955
 20
127.4961336755493
 30
0.0
 10
1459.305198055353
 20
127.4268836817337
 30
0.0
 10
1459.298505164935
 20
127.3788280809356
 30
0.0
 10
1459.289747533101
 20
127.354457351228
 30
0.0
 10
1459.283990533571
 20
127.3490196690613
 30
0.0
 10
1459.28111277367
 20
127.3463015268055
 30
0.0
  0
SPLINE
  5
130
330
1F
100
AcDbEntity
  8
0
  6
Continuous
 62
     7
100
AcDbSpline
210
0.0
220
0.0
230
1.0
 70
     8
 71
     3
 72
     9
 73
     5
 74
     0
 42
0.00000001
 43
0.00000001
 40
0.0
 40
0.0
 40
0.0
 40
0.0
 40
0.5010648085016309
 40
0.9999999999999999
 40
0.9999999999999999
 40
0.9999999999999999
 40
0.9999999999999999
 10
1459.28111277367
 20
127.6906092104334
 30
0.0
 10
1459.283582731802
 20
127.6767117881162
 30
0.0
 10
1459.28851215029
 20
127.6489760100663
 30
0.0
 10
1459.292299280272
 20
127.6209955822307
 30
0.0
 10
1459.294188812694
 20
127.6070351621104
 30
0.0
  0
SPLINE
  5
131
330
1F
100
AcDbEntity
  8
0
  6
Continuous
 62
     7
100
AcDbSpline
210
0.0
220
0.0
230
1.0
 70
     8
 71
     3
 72
    16
 73
    12
 74
     0
 42
0.00000001
 43
0.00000001
 40
0.0
 40
0.0
 40
0.0
 40
0.0
 40
0.0842371106890495
 40
0.1678795382156577
 40
0.2510910321366913
 40
0.3340383251193152
 40
0.4168900027998247
 40
0.4998153101222962
 40
0.6657051860530588
 40
0.8319852585493368
 40
1.0
 40
1.0
 40
1.0
 40
1.0
 10
1459.28111277367
 20
129.9552630070095
 30
0.0
 10
1459.269924633974
 20
129.8958275232224
 30
0.0
 10
1459.247627338753
 20
129.7773761484047
 30
0.0
 10
1459.221495278691
 20
129.5950651362668
 30
0.0
 10
1459.200862256912
 20
129.4105785505869
 30
0.0
 10
1459.186202548191
 20
129.2237194053855
 30
0.0
 10
1459.177383670268
 20
129.0347905269574
 30
0.0
 10
1459.173404552518
 20
128.7805642900963
 30
0.0
 10
1459.183485213299
 20
128.459480540479
 30
0.0
 10
1459.217594507334
 20
128.0721461884179
 30
0.0
 10
1459.259866900521
 20
127.8182274012902
 30
0.0
 10
1459.28111277367
 20
127.6906092104334
 30
0.0
  0
SPLINE
  5
132
330
1F
100
AcDbEntity
  8
0
  6
Continuous
 62
     7
100
AcDbSpline
210
0.0
220
0.0
230
1.0
 70
     8
 71
     3
 72
     9
 73
     5
 74
     0
 42
0.00000001
 43
0.00000001
 40
0.0
 40
0.0
 40
0.0
 40
0.0
 40
0.4989351914990597
 40
0.9999999999999999
 40
0.9999999999999999
 40
0.9999999999999999
 40
0.9999999999999999
 10
1459.294188812694
 20
130.0358814812833
 30
0.0
 10
1459.292299280272
 20
130.0220452145953
 30
0.0
 10
1459.288512150291
 20
129.9943136235514
 30
0.0
 10
1459.283582731802
 20
129.9682983467154
 30
0.0
 10
1459.28111277367
 20
129.9552630070095
 30
0.0
  0
SPLINE
  5
133
330
1F
100
AcDbEntity
  8
0
  6
Continuous
 62
     7
100
AcDbSpline
210
0.0
220
0.0
230
1.0
 70
     8
 71
     3
 72
    13
 73
     9
 74
     0
 42
0.00000001
 43
0.00000001
 40
0.0
 40
0.0
 40
0.0
 40
0.0
 40
0.1255391550191372
 40
0.2505272282594069
 40
0.4999057788143033
 40
0.7494227264661371
 40
0.8746535167581064
 40
1.0
 40
1.0
 40
1.0
 40
1.0
 10
1459.28111277367
 20
130.3547435326292
 30
0.0
 10
1459.283992168559
 20
130.3480041491937
 30
0.0
 10
1459.289738318598
 20
130.3345549663308
 30
0.0
 10
1459.298520542525
 20
130.295480184215
 30
0.0
 10
1459.305165489487
 20
130.2313047923757
 30
0.0
 10
1459.304479617124
 20
130.1519904201257
 30
0.0
 10
1459.300011266037
 20
130.08563076535
 30
0.0
 10
1459.296130227774
 20
130.0524696795261
 30
0.0
 10
1459.294188812694
 20
130.0358814812833
 30
0.0
  0
SPLINE
  5
134
330
1F
100
AcDbEntity
  8
0
  6
Continuous
 62
     7
100
AcDbSpline
210
0.0
220
0.0
230
1.0
 70
     8
 71
     3
 72
    16
 73
    12
 74
     0
 42
0.00000001
 43
0.00000001
 40
0.0
 40
0.0
 40
0.0
 40
0.0
 40
0.0839209304552383
 40
0.1673144079411
 40
0.2503878621011803
 40
0.3333528282268314
 40
0.4164233723691723
 40
0.4998143879304843
 40
0.666326017607005
 40
0.8324699100280282
 40
1.0
 40
1.0
 40
1.0
 40
1.0
 10
1459.28111277367
 20
131.7390522138989
 30
0.0
 10
1459.26996280041
 20
131.6881853003012
 30
0.0
 10
1459.24773293279
 20
131.5867711776716
 30
0.0
 10
1459.22162950036
 20
131.4411222380813
 30
0.0
 10
1459.200977778683
 20
131.3011774070384
 30
0.0
 10
1459.18626834537
 20
131.1674352815252
 30
0.0
 10
1459.177396133687
 20
131.0399005445815
 30
0.0
 10
1459.173393402079
 20
130.8786289479024
 30
0.0
 10
1459.183493430704
 20
130.695151348203
 30
0.0
 10
1459.217689500327
 20
130.5037999628621
 30
0.0
 10
1459.259913211904
 20
130.4045664262262
 30
0.0
 10
1459.28111277367
 20
130.3547435326292
 30
0.0
  0
SPLINE
  5
135
330
1F
100
AcDbEntity
  8
0
  6
Continuous
 62
     7
100
AcDbSpline
210
0.0
220
0.0
230
1.0
 70
     8
 71
     3
 72
    12
 73
     8
 74
     0
 42
0.00000001
 43
0.00000001
 40
0.0
 40
0.0
 40
0.0
 40
0.0
 40
0.164850939784001
 40
0.3299215412291489
 40
0.4984060237465193
 40
0.7502078229223107
 40
1.0
 40
1.0
 40
1.0
 40
1.0
 10
1459.304460949794
 20
131.8576705275169
 30
0.0
 10
1459.304329304285
 20
131.8554581277201
 30
0.0
 10
1459.30406583785
 20
131.8510303801336
 30
0.0
 10
1459.301901267064
 20
131.8375814328151
 30
0.0
 10
1459.297899166035
 20
131.8163453109137
 30
0.0
 10
1459.291456439566
 20
131.785054075839
 30
0.0
 10
1459.284551440741
 20
131.7543451564061
 30
0.0
 10
1459.28111277367
 20
131.7390522138989
 30
0.0
  0
ARC
  5
136
330
1F
100
AcDbEntity
  8
0
  6
Continuous
 62
     7
100
AcDbCircle
 10
1468.8035812794
 20
129.1162177472
 30
0.0
 40
9.886801827846494
100
AcDbArc
 50
142.8915831511
 51
163.9018230323
  0
ARC
  5
137
330
1F
100
AcDbEntity
  8
0
  6
Continuous
 62
     7
100
AcDbCircle
 10
555.3175028343
 20
128.9732504958
 30
0.0
 40
8.827589877348593
100
AcDbArc
 50
17.5651616367
 51
39.6022343763
  0
SPLINE
  5
138
330
1F
100
AcDbEntity
  8
0
  6
Continuous
 62
     7
100
AcDbSpline
210
0.0
220
0.0
230
1.0
 70
     8
 71
     3
 72
    12
 73
     8
 74
     0
 42
0.00000001
 43
0.00000001
 40
0.0
 40
0.0
 40
0.0
 40
0.0
 40
0.1670444631998554
 40
0.3333684214317664
 40
0.5020689749564381
 40
0.7529675846342186
 40
0.9999999999999999
 40
0.9999999999999999
 40
0.9999999999999999
 40
0.9999999999999999
 10
563.7568487348785
 20
131.464722909283
 30
0.0
 10
563.7545072288997
 20
131.477077045703
 30
0.0
 10
563.7498343164489
 20
131.5017320320316
 30
0.0
 10
563.7441040116553
 20
131.536066149196
 30
0.0
 10
563.7387464014284
 20
131.5725938358848
 30
0.0
 10
563.7343982130081
 20
131.609326938296
 30
0.0
 10
563.733798223964
 20
131.6280448093121
 30
0.0
 10
563.7335005587547
 20
131.6373310771988
 30
0.0
  0
SPLINE
  5
139
330
1F
100
AcDbEntity
  8
0
  6
Continuous
 62
     7
100
AcDbSpline
210
0.0
220
0.0
230
1.0
 70
     8
 71
     3
 72
    16
 73
    12
 74
     0
 42
0.00000001
 43
0.00000001
 40
0.0
 40
0.0
 40
0.0
 40
0.0
 40
0.0839762982022092
 40
0.167394492052225
 40
0.2504691101974231
 40
0.333418298339641
 40
0.4164614832850277
 40
0.4998170465162013
 40
0.6663918471289414
 40
0.8325505285684063
 40
1.0
 40
1.0
 40
1.0
 40
1.0
 10
563.7568487348785
 20
129.6115570096764
 30
0.0
 10
563.7680063971295
 20
129.65196598026
 30
0.0
 10
563.7902475680904
 20
129.7325153644316
 30
0.0
 10
563.816359541504
 20
129.8622950344025
 30
0.0
 10
563.8370080623298
 20
129.9979863185157
 30
0.0
 10
563.8517078840503
 20
130.1402236287691
 30
0.0
 10
563.8605687277667
 20
130.2887904704024
 30
0.0
 10
563.8645679043586
 20
130.4947675727686
 30
0.0
 10
563.8544553248455
 20
130.7654372565321
 30
0.0
 10
563.8202486666768
 20
131.107363460773
 30
0.0
 10
563.778036487651
 20
131.3452962248824
 30
0.0
 10
563.7568487348785
 20
131.464722909283
 30
0.0
  0
SPLINE
  5
13A
330
1F
100
AcDbEntity
  8
0
  6
Continuous
 62
     7
100
AcDbSpline
210
0.0
220
0.0
230
1.0
 70
     8
 71
     3
 72
    14
 73
    10
 74
     0
 42
0.00000001
 43
0.00000001
 40
0.0
 40
0.0
 40
0.0
 40
0.0
 40
0.0837468194587599
 40
0.1671107191416617
 40
0.2516773658159067
 40
0.4999233232797073
 40
0.7483582931429618
 40
0.8745973258494124
 40
0.9999999999999999
 40
0.9999999999999999
 40
0.9999999999999999
 40
0.9999999999999999
 10
563.7568487348785
 20
129.1807752512041
 30
0.0
 10
563.75450720926
 20
129.191269823083
 30
0.0
 10
563.7498348642978
 20
129.2122109819843
 30
0.0
 10
563.7441142898496
 20
129.2478281480834
 30
0.0
 10
563.7364732331431
 20
129.3101121327439
 30
0.0
 10
563.7312661833118
 20
129.4062762308324
 30
0.0
 10
563.7368949762838
 20
129.5043545151107
 30
0.0
 10
563.7465021538136
 20
129.5715714588263
 30
0.0
 10
563.7534075247738
 20
129.5982580579971
 30
0.0
 10
563.7568487348785
 20
129.6115570096764
 30
0.0
  0
SPLINE
  5
13B
330
1F
100
AcDbEntity
  8
0
  6
Continuous
 62
     7
100
AcDbSpline
210
0.0
220
0.0
230
1.0
 70
     8
 71
     3
 72
    13
 73
     9
 74
     0
 42
0.00000001
 43
0.00000001
 40
0.0
 40
0.0
 40
0.0
 40
0.0
 40
0.1659066595312376
 40
0.3316675344248206
 40
0.4976216786066386
 40
0.6641068106890285
 40
0.8314569199211036
 40
1.0
 40
1.0
 40
1.0
 40
1.0
 10
563.8625588815065
 20
128.205627278349
 30
0.0
 10
563.8619940071453
 20
128.2639121807882
 30
0.0
 10
563.8608647547867
 20
128.38043076986
 30
0.0
 10
563.8517155676936
 20
128.5500599559577
 30
0.0
 10
563.8371509868884
 20
128.7154468791181
 30
0.0
 10
563.8164900218279
 20
128.8759245093568
 30
0.0
 10
563.7903544168219
 20
129.0319880346195
 30
0.0
 10
563.7680437087089
 20
129.131062220478
 30
0.0
 10
563.7568487348785
 20
129.1807752512041
 30
0.0
  0
SPLINE
  5
13C
330
1F
100
AcDbEntity
  8
0
  6
Continuous
 62
     7
100
AcDbSpline
210
0.0
220
0.0
230
1.0
 70
     8
 71
     3
 72
    13
 73
     9
 74
     0
 42
0.00000001
 43
0.00000001
 40
0.0
 40
0.0
 40
0.0
 40
0.0
 40
0.1685430800788899
 40
0.3358931893109631
 40
0.5023783213933536
 40
0.6683324655751735
 40
0.834093340468759
 40
1.0
 40
1.0
 40
1.0
 40
1.0
 10
563.7568487348785
 20
127.0990648001631
 30
0.0
 10
563.7680437087089
 20
127.1626379665295
 30
0.0
 10
563.7903544168216
 20
127.2893343197431
 30
0.0
 10
563.8164900218283
 20
127.4779122511127
 30
0.0
 10
563.8371509868884
 20
127.6641327918125
 30
0.0
 10
563.8517155676936
 20
127.8476854133889
 30
0.0
 10
563.8608647547867
 20
128.0287174574169
 30
0.0
 10
563.8619940071453
 20
128.1466400603911
 30
0.0
 10
563.8625588815065
 20
128.205627278349
 30
0.0
  0
SPLINE
  5
13D
330
1F
100
AcDbEntity
  8
0
  6
Continuous
 62
     7
100
AcDbSpline
210
0.0
220
0.0
230
1.0
 70
     8
 71
     3
 72
    14
 73
    10
 74
     0
 42
0.00000001
 43
0.00000001
 40
0.0
 40
0.0
 40
0.0
 40
0.0
 40
0.0838023325553371
 40
0.1671770643431393
 40
0.2516766523833527
 40
0.4999225990049665
 40
0.7483576082059512
 40
0.8746656613430415
 40
1.0
 40
1.0
 40
1.0
 40
1.0
 10
563.7568487348785
 20
126.846143075616
 30
0.0
 10
563.7545058286693
 20
126.8442848975871
 30
0.0
 10
563.7498319709118
 20
126.8405780228685
 30
0.0
 10
563.744112282927
 20
126.8418993870871
 30
0.0
 10
563.7364722620208
 20
126.8523027222683
 30
0.0
 10
563.7312662025832
 20
126.8910602001249
 30
0.0
 10
563.7368959406795
 20
126.9677847870168
 30
0.0
 10
563.7465031168767
 20
127.0401620740522
 30
0.0
 10
563.7534091029717
 20
127.0794812725184
 30
0.0
 10
563.7568487348785
 20
127.0990648001631
 30
0.0
  0
SPLINE
  5
13E
330
1F
100
AcDbEntity
  8
0
  6
Continuous
 62
     7
100
AcDbSpline
210
0.0
220
0.0
230
1.0
 70
     8
 71
     3
 72
     9
 73
     5
 74
     0
 42
0.00000001
 43
0.00000001
 40
0.0
 40
0.0
 40
0.0
 40
0.0
 40
0.168928860703842
 40
0.9999999999999999
 40
0.9999999999999999
 40
0.9999999999999999
 40
0.9999999999999999
 10
563.8410477374046
 20
126.835325657421
 30
0.0
 10
563.849428720212
 20
126.8556897916105
 30
0.0
 10
563.8990412184713
 20
126.9762383710817
 30
0.0
 10
563.8213858611552
 20
126.905189632082
 30
0.0
 10
563.7568487348781
 20
126.846143075616
 30
0.0
  0
LINE
  5
13F
330
1F
100
AcDbEntity
  8
0
  6
Continuous
 62
     7
100
AcDbLine
 10
1460.9189032113
 20
184.3646457943
 30
0.0
 11
1463.5189032113
 21
184.3646457943
 31
0.0
  0
LINE
  5
140
330
1F
100
AcDbEntity
  8
0
  6
Continuous
 62
     7
100
AcDbLine
 10
1460.9189032113
 20
184.3646457943
 30
0.0
 11
1460.9189032113
 21
173.1300907337
 31
0.0
  0
SPLINE
  5
141
330
1F
100
AcDbEntity
  8
0
  6
Continuous
 62
     7
100
AcDbSpline
210
0.0
220
0.0
230
1.0
 70
     8
 71
     3
 72
     9
 73
     5
 74
     0
 42
0.00000001
 43
0.00000001
 40
0.0
 40
0.0
 40
0.0
 40
0.0
 40
0.974192971183131
 40
1.0
 40
1.0
 40
1.0
 40
1.0
 10
1459.28111277367
 20
176.7347474175451
 30
0.0
 10
1459.211567703557
 20
176.8350422504445
 30
0.0
 10
1459.140180337634
 20
176.9379939611077
 30
0.0
 10
1459.17724340756
 20
176.8768649019941
 30
0.0
 10
1459.178199895273
 20
176.875287342604
 30
0.0
  0
SPLINE
  5
142
330
1F
100
AcDbEntity
  8
0
  6
Continuous
 62
     7
100
AcDbSpline
210
0.0
220
0.0
230
1.0
 70
     8
 71
     3
 72
    13
 73
     9
 74
     0
 42
0.00000001
 43
0.00000001
 40
0.0
 40
0.0
 40
0.0
 40
0.0
 40
0.1247566173109728
 40
0.2502697142836494
 40
0.499497326130341
 40
0.7487509998625127
 40
0.8744077894864494
 40
1.0
 40
1.0
 40
1.0
 40
1.0
 10
1459.294188812694
 20
176.8781820465217
 30
0.0
 10
1459.296117322863
 20
176.864140561577
 30
0.0
 10
1459.299986037
 20
176.8359724491276
 30
0.0
 10
1459.304426593955
 20
176.7879890261401
 30
0.0
 10
1459.305198055352
 20
176.7420770605374
 30
0.0
 10
1459.298505164936
 20
176.7235139122269
 30
0.0
 10
1459.289747533096
 20
176.7240296168519
 30
0.0
 10
1459.283990533567
 20
176.7311754295489
 30
0.0
 10
1459.28111277367
 20
176.7347474175451
 30
0.0
  0
SPLINE
  5
143
330
1F
100
AcDbEntity
  8
0
  6
Continuous
 62
     7
100
AcDbSpline
210
0.0
220
0.0
230
1.0
 70
     8
 71
     3
 72
     9
 73
     5
 74
     0
 42
0.00000001
 43
0.00000001
 40
0.0
 40
0.0
 40
0.0
 40
0.0
 40
0.5010648085017654
 40
1.0
 40
1.0
 40
1.0
 40
1.0
 10
1459.28111277367
 20
176.95606146757
 30
0.0
 10
1459.283582731802
 20
176.9425632952939
 30
0.0
 10
1459.288512150291
 20
176.9156243204405
 30
0.0
 10
1459.292299280272
 20
176.8906450724175
 30
0.0
 10
1459.294188812694
 20
176.8781820465217
 30
0.0
  0
SPLINE
  5
144
330
1F
100
AcDbEntity
  8
0
  6
Continuous
 62
     7
100
AcDbSpline
210
0.0
220
0.0
230
1.0
 70
     8
 71
     3
 72
    16
 73
    12
 74
     0
 42
0.00000001
 43
0.00000001
 40
0.0
 40
0.0
 40
0.0
 40
0.0
 40
0.0842371107298067
 40
0.1678795382808846
 40
0.2510910322101045
 40
0.3340383251847385
 40
0.4168900028413182
 40
0.4998153101242733
 40
0.6657051861185103
 40
0.8319852586145934
 40
0.9999999999999999
 40
0.9999999999999999
 40
0.9999999999999999
 40
0.9999999999999999
 10
1459.28111277367
 20
178.9480442075252
 30
0.0
 10
1459.269924633969
 20
178.9021150539025
 30
0.0
 10
1459.247627338739
 20
178.8105809896759
 30
0.0
 10
1459.221495278671
 20
178.6651243472763
 30
0.0
 10
1459.200862256892
 20
178.5146358850059
 30
0.0
 10
1459.186202548176
 20
178.3586571151172
 30
0.0
 10
1459.17738367026
 20
178.1975152232878
 30
0.0
 10
1459.17340455252
 20
177.9761671614131
 30
0.0
 10
1459.183485213312
 20
177.6879989633418
 30
0.0
 10
1459.21759450735
 20
177.3277631713648
 30
0.0
 10
1459.259866900529
 20
177.0803899120138
 30
0.0
 10
1459.28111277367
 20
176.95606146757
 30
0.0
  0
SPLINE
  5
145
330
1F
100
AcDbEntity
  8
0
  6
Continuous
 62
     7
100
AcDbSpline
210
0.0
220
0.0
230
1.0
 70
     8
 71
     3
 72
     9
 73
     5
 74
     0
 42
0.00000001
 43
0.00000001
 40
0.0
 40
0.0
 40
0.0
 40
0.0
 40
0.498935191499221
 40
1.0
 40
1.0
 40
1.0
 40
1.0
 10
1459.294188812694
 20
179.0145880407232
 30
0.0
 10
1459.292299280272
 20
179.0026011836241
 30
0.0
 10
1459.288512150291
 20
178.9785763056374
 30
0.0
 10
1459.283582731802
 20
178.9582360125739
 30
0.0
 10
1459.28111277367
 20
178.9480442075252
 30
0.0
  0
SPLINE
  5
146
330
1F
100
AcDbEntity
  8
0
  6
Continuous
 62
     7
100
AcDbSpline
210
0.0
220
0.0
230
1.0
 70
     8
 71
     3
 72
    13
 73
     9
 74
     0
 42
0.00000001
 43
0.00000001
 40
0.0
 40
0.0
 40
0.0
 40
0.0
 40
0.1255391549690864
 40
0.2505272282593621
 40
0.4999057788154442
 40
0.7494227264685986
 40
0.874653516880911
 40
1.0
 40
1.0
 40
1.0
 40
1.0
 10
1459.28111277367
 20
179.3809640528727
 30
0.0
 10
1459.283992168558
 20
179.3690739851399
 30
0.0
 10
1459.289738318596
 20
179.3453460437369
 30
0.0
 10
1459.298520542525
 20
179.2890205255891
 30
0.0
 10
1459.305165489486
 20
179.2089138467431
 30
0.0
 10
1459.304479617125
 20
179.1240435561187
 30
0.0
 10
1459.300011266032
 20
179.0592392650546
 30
0.0
 10
1459.296130227771
 20
179.0294763627244
 30
0.0
 10
1459.294188812694
 20
179.0145880407232
 30
0.0
  0
SPLINE
  5
147
330
1F
100
AcDbEntity
  8
0
  6
Continuous
 62
     7
100
AcDbSpline
210
0.0
220
0.0
230
1.0
 70
     8
 71
     3
 72
    16
 73
    12
 74
     0
 42
0.00000001
 43
0.00000001
 40
0.0
 40
0.0
 40
0.0
 40
0.0
 40
0.0839209305058322
 40
0.1673144080219477
 40
0.2503878621920196
 40
0.3333528283076596
 40
0.4164233724204041
 40
0.4998143879331048
 40
0.6663260176884562
 40
0.8324699101093749
 40
1.0
 40
1.0
 40
1.0
 40
1.0
 10
1459.28111277367
 20
181.343387523675
 30
0.0
 10
1459.269962800404
 20
181.281633828831
 30
0.0
 10
1459.247732932773
 20
181.1585145684305
 30
0.0
 10
1459.221629500335
 20
180.9764182240007
 30
0.0
 10
1459.200977778658
 20
180.7973362339544
 30
0.0
 10
1459.186268345352
 20
180.6214904319264
 30
0.0
 10
1459.177396133678
 20
180.4489667665727
 30
0.0
 10
1459.173393402083
 20
180.2240533550968
 30
0.0
 10
1459.183493430721
 20
179.9546087693458
 30
0.0
 10
1459.217689500347
 20
179.6512939265852
 30
0.0
 10
1459.259913211914
 20
179.4713232310098
 30
0.0
 10
1459.28111277367
 20
179.3809640528727
 30
0.0
  0
SPLINE
  5
148
330
1F
100
AcDbEntity
  8
0
  6
Continuous
 62
     7
100
AcDbSpline
210
0.0
220
0.0
230
1.0
 70
     8
 71
     3
 72
    12
 73
     8
 74
     0
 42
0.00000001
 43
0.00000001
 40
0.0
 40
0.0
 40
0.0
 40
0.0
 40
0.1648509396537497
 40
0.3299215410991259
 40
0.4984060237397552
 40
0.7502078227734322
 40
1.0
 40
1.0
 40
1.0
 40
1.0
 10
1459.304460949794
 20
181.5292618031805
 30
0.0
 10
1459.304329304285
 20
181.5222908234321
 30
0.0
 10
1459.30406583785
 20
181.508339575193
 30
0.0
 10
1459.301901267062
 20
181.481606361832
 30
0.0
 10
1459.297899166039
 20
181.4461589052584
 30
0.0
 10
1459.29145643957
 20
181.4005019625749
 30
0.0
 10
1459.284551440744
 20
181.3623747514509
 30
0.0
 10
1459.28111277367
 20
181.343387523675
 30
0.0
  0
ARC
  5
149
330
1F
100
AcDbEntity
  8
0
  6
Continuous
 62
     7
100
AcDbCircle
 10
1467.2225498884
 20
178.8980893272
 30
0.0
 40
8.343812140614558
100
AcDbArc
 50
139.0679941511
 51
161.6184080092
  0
LINE
  5
14A
330
1F
100
AcDbEntity
  8
0
  6
Continuous
 62
     7
100
AcDbLine
 10
562.1190582972
 20
173.1300907337
 30
0.0
 11
562.1190582972
 21
183.3492341957
 31
0.0
  0
ARC
  5
14B
330
1F
100
AcDbEntity
  8
0
  6
Continuous
 62
     7
100
AcDbCircle
 10
557.7090207948
 20
178.5209471202
 30
0.0
 40
6.539173254839564
100
AcDbArc
 50
22.8844853355
 51
47.5921997523
  0
SPLINE
  5
14C
330
1F
100
AcDbEntity
  8
0
  6
Continuous
 62
     7
100
AcDbSpline
210
0.0
220
0.0
230
1.0
 70
     8
 71
     3
 72
    12
 73
     8
 74
     0
 42
0.00000001
 43
0.00000001
 40
0.0
 40
0.0
 40
0.0
 40
0.0
 40
0.1670444632398932
 40
0.3333684214717526
 40
0.5020689749585194
 40
0.7529675846784923
 40
1.0
 40
1.0
 40
1.0
 40
1.0
 10
563.7568487348785
 20
180.8454096680933
 30
0.0
 10
563.7545072288992
 20
180.8587318117531
 30
0.0
 10
563.7498343164474
 20
180.8853186372984
 30
0.0
 10
563.7441040116537
 20
180.9250168057357
 30
0.0
 10
563.7387464014281
 20
180.969796277913
 30
0.0
 10
563.7343982130087
 20
181.0184760607482
 30
0.0
 10
563.7337982239643
 20
181.0488137530862
 30
0.0
 10
563.7335005587548
 20
181.0638648204764
 30
0.0
  0
SPLINE
  5
14D
330
1F
100
AcDbEntity
  8
0
  6
Continuous
 62
     7
100
AcDbSpline
210
0.0
220
0.0
230
1.0
 70
     8
 71
     3
 72
    16
 73
    12
 74
     0
 42
0.00000001
 43
0.00000001
 40
0.0
 40
0.0
 40
0.0
 40
0.0
 40
0.0839762982431171
 40
0.1673944921176267
 40
0.2504691102709622
 40
0.3334182984051307
 40
0.4164614833265723
 40
0.499817046518318
 40
0.6663918471940201
 40
0.8325505286335
 40
1.0
 40
1.0
 40
1.0
 40
1.0
 10
563.7568487348785
 20
178.6367110767878
 30
0.0
 10
563.7680063971346
 20
178.6923202310587
 30
0.0
 10
563.7902475681043
 20
178.8031689625583
 30
0.0
 10
563.8163595415245
 20
178.975376694178
 30
0.0
 10
563.8370080623499
 20
179.150973196697
 30
0.0
 10
563.8517078840653
 20
179.3303697578249
 30
0.0
 10
563.8605687277746
 20
179.5133693679629
 30
0.0
 10
563.8645679043561
 20
179.761523504128
 30
0.0
 10
563.8544553248315
 20
180.0773899733751
 30
0.0
 10
563.8202486666604
 20
180.4618766853997
 30
0.0
 10
563.7780364876427
 20
180.717235996832
 30
0.0
 10
563.7568487348785
 20
180.8454096680933
 30
0.0
  0
SPLINE
  5
14E
330
1F
100
AcDbEntity
  8
0
  6
Continuous
 62
     7
100
AcDbSpline
210
0.0
220
0.0
230
1.0
 70
     8
 71
     3
 72
    14
 73
    10
 74
     0
 42
0.00000001
 43
0.00000001
 40
0.0
 40
0.0
 40
0.0
 40
0.0
 40
0.0837468193403739
 40
0.1671107190238777
 40
0.2516773658110586
 40
0.4999233232764638
 40
0.7483582931412756
 40
0.8745973258475422
 40
1.0
 40
1.0
 40
1.0
 40
1.0
 10
563.7568487348785
 20
178.2191328524561
 30
0.0
 10
563.7545072092638
 20
178.225978047567
 30
0.0
 10
563.7498348643053
 20
178.2396371391701
 30
0.0
 10
563.7441142898596
 20
178.2660317703312
 30
0.0
 10
563.7364732331391
 20
178.3155498493148
 30
0.0
 10
563.7312661833138
 20
178.4014217079651
 30
0.0
 10
563.7368949762837
 20
178.5044329005708
 30
0.0
 10
563.7465021538137
 20
178.5832465930851
 30
0.0
 10
563.7534075247737
 20
178.6189291137984
 30
0.0
 10
563.7568487348785
 20
178.6367110767878
 30
0.0
  0
SPLINE
  5
14F
330
1F
100
AcDbEntity
  8
0
  6
Continuous
 62
     7
100
AcDbSpline
210
0.0
220
0.0
230
1.0
 70
     8
 71
     3
 72
    13
 73
     9
 74
     0
 42
0.00000001
 43
0.00000001
 40
0.0
 40
0.0
 40
0.0
 40
0.0
 40
0.1659066595312366
 40
0.3316675344248198
 40
0.4976216786066391
 40
0.6641068106890284
 40
0.8314569199211049
 40
1.0
 40
1.0
 40
1.0
 40
1.0
 10
563.8625588815065
 20
177.530069545823
 30
0.0
 10
563.8619940071454
 20
177.5746863581331
 30
0.0
 10
563.8608647547867
 20
177.6638807772997
 30
0.0
 10
563.851715567694
 20
177.7892412720599
 30
0.0
 10
563.8371509868882
 20
177.9080854043239
 30
0.0
 10
563.8164900218281
 20
178.019508023057
 30
0.0
 10
563.7903544168219
 20
178.1242775894395
 30
0.0
 10
563.7680437087089
 20
178.1874396551968
 30
0.0
 10
563.7568487348785
 20
178.2191328524561
 30
0.0
  0
SPLINE
  5
150
330
1F
100
AcDbEntity
  8
0
  6
Continuous
 62
     7
100
AcDbSpline
210
0.0
220
0.0
230
1.0
 70
     8
 71
     3
 72
    13
 73
     9
 74
     0
 42
0.00000001
 43
0.00000001
 40
0.0
 40
0.0
 40
0.0
 40
0.0
 40
0.1685430800788895
 40
0.3358931893109629
 40
0.5023783213933535
 40
0.6683324655751722
 40
0.8340933404687572
 40
1.0
 40
1.0
 40
1.0
 40
1.0
 10
563.7568487348785
 20
176.6135597222865
 30
0.0
 10
563.7680437087089
 20
176.6692414401984
 30
0.0
 10
563.7903544168217
 20
176.7802107532488
 30
0.0
 10
563.8164900218283
 20
176.9412548412266
 30
0.0
 10
563.8371509868882
 20
177.0972321710597
 30
0.0
 10
563.8517155676938
 20
177.2475167049859
 30
0.0
 10
563.8608647547867
 20
177.3926127708874
 30
0.0
 10
563.8619940071453
 20
177.4842371963231
 30
0.0
 10
563.8625588815065
 20
177.530069545823
 30
0.0
  0
SPLINE
  5
151
330
1F
100
AcDbEntity
  8
0
  6
Continuous
 62
     7
100
AcDbSpline
210
0.0
220
0.0
230
1.0
 70
     8
 71
     3
 72
    14
 73
    10
 74
     0
 42
0.00000001
 43
0.00000001
 40
0.0
 40
0.0
 40
0.0
 40
0.0
 40
0.0838023324908401
 40
0.1671770642789614
 40
0.2516766523807255
 40
0.4999225990032016
 40
0.7483576082051108
 40
0.8746656613444017
 40
1.0
 40
1.0
 40
1.0
 40
1.0
 10
563.7568487348785
 20
176.5038139180577
 30
0.0
 10
563.7545058286713
 20
176.4973364093183
 30
0.0
 10
563.749831970916
 20
176.484414443274
 30
0.0
 10
563.7441122829324
 20
176.471141281771
 30
0.0
 10
563.7364722620189
 20
176.4571664813761
 30
0.0
 10
563.7312662025844
 20
176.4614762829474
 30
0.0
 10
563.7368959406792
 20
176.5082920948862
 30
0.0
 10
563.7465031168769
 20
176.5629586405598
 30
0.0
 10
563.7534091029715
 20
176.5967362618413
 30
0.0
 10
563.7568487348785
 20
176.6135597222865
 30
0.0
  0
LINE
  5
152
330
1F
100
AcDbEntity
  8
0
  6
Continuous
 62
     7
100
AcDbLine
 10
563.803054797
 20
176.7031327707
 30
0.0
 11
563.7568487349
 21
176.5038139181
 31
0.0
  0
LINE
  5
153
330
1F
100
AcDbEntity
  8
0
  6
Continuous
 62
     7
100
AcDbLine
 10
562.1190582972
 20
183.3492341957
 30
0.0
 11
559.5190582972
 21
183.3492341957
 31
0.0
  0
SPLINE
  5
154
330
1F
100
AcDbEntity
  8
0
  6
Continuous
 62
     7
100
AcDbSpline
210
0.0
220
0.0
230
1.0
 70
     8
 71
     3
 72
     9
 73
     5
 74
     0
 42
0.00000001
 43
0.00000001
 40
0.0
 40
0.0
 40
0.0
 40
0.0
 40
0.4880522425988475
 40
0.9999999999999999
 40
0.9999999999999999
 40
0.9999999999999999
 40
0.9999999999999999
 10
563.8059047269263
 20
179.1300907336949
 30
0.0
 10
563.834001060499
 20
178.9436926634432
 30
0.0
 10
563.8915693515967
 20
178.5617702912415
 30
0.0
 10
563.8331197560863
 20
178.135331962644
 30
0.0
 10
563.8031966167437
 20
177.9170178166486
 30
0.0
  0
SPLINE
  5
155
330
1F
100
AcDbEntity
  8
0
  6
Continuous
 62
     7
100
AcDbSpline
210
0.0
220
0.0
230
1.0
 70
     8
 71
     3
 72
     9
 73
     5
 74
     0
 42
0.00000001
 43
0.00000001
 40
0.0
 40
0.0
 40
0.0
 40
0.0
 40
0.3486804317937676
 40
0.9999999999999999
 40
0.9999999999999999
 40
0.9999999999999999
 40
0.9999999999999999
 10
563.8059047566546
 20
181.2215168455678
 30
0.0
 10
563.8313705315023
 20
181.0507885150398
 30
0.0
 10
563.9044052433069
 20
180.5611472419414
 30
0.0
 10
563.8150485183763
 20
180.2461878379463
 30
0.0
 10
563.7568487348781
 20
180.0410486149336
 30
0.0
  0
SPLINE
  5
156
330
1F
100
AcDbEntity
  8
0
  6
Continuous
 62
     7
100
AcDbSpline
210
0.0
220
0.0
230
1.0
 70
     8
 71
     3
 72
     9
 73
     5
 74
     0
 42
0.00000001
 43
0.00000001
 40
0.0
 40
0.0
 40
0.0
 40
0.0
 40
0.6391094731523148
 40
0.9999999999999999
 40
0.9999999999999999
 40
0.9999999999999999
 40
0.9999999999999999
 10
563.7568487348781
 20
181.1532420881962
 30
0.0
 10
563.8145930959787
 20
181.1694362209676
 30
0.0
 10
563.9049443793289
 20
181.1947748107581
 30
0.0
 10
563.8299849390165
 20
181.4613651001809
 30
0.0
 10
563.80293278711
 20
181.5575750101832
 30
0.0
  0
SPLINE
  5
157
330
1F
100
AcDbEntity
  8
0
  6
Continuous
 62
     7
100
AcDbSpline
210
0.0
220
0.0
230
1.0
 70
     8
 71
     3
 72
    12
 73
     8
 74
     0
 42
0.00000001
 43
0.00000001
 40
0.0
 40
0.0
 40
0.0
 40
0.0
 40
0.1648509397437378
 40
0.3299215411889555
 40
0.4984060237444102
 40
0.7502078228762343
 40
1.0
 40
1.0
 40
1.0
 40
1.0
 10
563.7335005587548
 20
181.0638648204764
 30
0.0
 10
563.7336322042642
 20
181.0729870280182
 30
0.0
 10
563.7338956706988
 20
181.091243598323
 30
0.0
 10
563.7360602414852
 20
181.1134164054997
 30
0.0
 10
563.7400623425126
 20
181.1340354639588
 30
0.0
 10
563.7465050689817
 20
181.1504298974738
 30
0.0
 10
563.7534100678067
 20
181.1523071984063
 30
0.0
 10
563.7568487348785
 20
181.1532420881962
 30
0.0
  0
LINE
  5
158
330
1F
100
AcDbEntity
  8
0
  6
Continuous
 62
     7
100
AcDbLine
 10
562.1190582972
 20
183.3492341957
 30
0.0
 11
562.1190582972
 21
185.1300907337
 31
0.0
  0
LINE
  5
159
330
1F
100
AcDbEntity
  8
0
  6
Continuous
 62
     7
100
AcDbLine
 10
550.5190582972
 20
131.8652620175
 30
0.0
 11
550.5190582972
 21
126.1300907337
 31
0.0
  0
LINE
  5
15A
330
1F
100
AcDbEntity
  8
0
  6
Continuous
 62
     7
100
AcDbLine
 10
549.5190582972
 20
127.1300907337
 30
0.0
 11
549.5190582972
 21
130.9535382562
 31
0.0
  0
LINE
  5
15B
330
1F
100
AcDbEntity
  8
0
  6
Continuous
 62
     7
100
AcDbLine
 10
549.5190582972
 20
130.9535382562
 30
0.0
 11
550.5190582972
 21
131.8652620175
 31
0.0
  0
LINE
  5
15C
330
1F
100
AcDbEntity
  8
0
  6
Continuous
 62
     7
100
AcDbLine
 10
1472.5189032113
 20
126.1300907337
 30
0.0
 11
1472.5189032113
 21
132.1056323269
 31
0.0
  0
LINE
  5
15D
330
1F
100
AcDbEntity
  8
0
  6
Continuous
 62
     7
100
AcDbLine
 10
1473.5189032113
 20
131.1137851292
 30
0.0
 11
1472.5189032113
 21
132.1056323269
 31
0.0
  0
LINE
  5
15E
330
1F
100
AcDbEntity
  8
0
  6
Continuous
 62
     7
100
AcDbLine
 10
1473.5189032113
 20
131.1137851292
 30
0.0
 11
1473.5189032113
 21
127.1300907337
 31
0.0
  0
LINE
  5
15F
330
1F
100
AcDbEntity
  8
0
  6
Continuous
 62
     7
100
AcDbLine
 10
1472.5189032113
 20
176.1300907337
 30
0.0
 11
1472.5189032113
 21
181.747368264
 31
0.0
  0
LINE
  5
160
330
1F
100
AcDbEntity
  8
0
  6
Continuous
 62
     7
100
AcDbLine
 10
1473.5189032113
 20
180.8749424206
 30
0.0
 11
1472.5189032113
 21
181.747368264
 31
0.0
  0
LINE
  5
161
330
1F
100
AcDbEntity
  8
0
  6
Continuous
 62
     7
100
AcDbLine
 10
1473.5189032113
 20
180.8749424206
 30
0.0
 11
1473.5189032113
 21
177.1300907337
 31
0.0
  0
LINE
  5
162
330
1F
100
AcDbEntity
  8
0
  6
Continuous
 62
     7
100
AcDbLine
 10
550.5190582972
 20
181.2396624647
 30
0.0
 11
550.5190582972
 21
176.1300907337
 31
0.0
  0
LINE
  5
163
330
1F
100
AcDbEntity
  8
0
  6
Continuous
 62
     7
100
AcDbLine
 10
549.5190582972
 20
177.1300907337
 30
0.0
 11
549.5190582972
 21
180.5364718877
 31
0.0
  0
LINE
  5
164
330
1F
100
AcDbEntity
  8
0
  6
Continuous
 62
     7
100
AcDbLine
 10
549.5190582972
 20
180.5364718877
 30
0.0
 11
550.5190582972
 21
181.2396624647
 31
0.0
  0
LINE
  5
165
330
1F
100
AcDbEntity
  8
0
  6
Continuous
 62
     7
100
AcDbLine
 10
1460.9189032113
 20
185.1300907337
 30
0.0
 11
1460.9189032113
 21
184.3646457943
 31
0.0
  0
SPLINE
  5
166
330
1F
100
AcDbEntity
  8
0
  6
Continuous
 62
     7
100
AcDbSpline
210
0.0
220
0.0
230
1.0
 70
     8
 71
     3
 72
    12
 73
     8
 74
     0
 42
0.00000001
 43
0.00000001
 40
0.0
 40
0.0
 40
0.0
 40
0.0
 40
0.1670444632754149
 40
0.3333684215072287
 40
0.5020689749603684
 40
0.7529675847177786
 40
1.0
 40
1.0
 40
1.0
 40
1.0
 10
1459.28111277367
 20
181.5549933189976
 30
0.0
 10
1459.28345427965
 20
181.5583273874066
 30
0.0
 10
1459.288127192103
 20
181.5649811435439
 30
0.0
 10
1459.293857496897
 20
181.5682649955553
 30
0.0
 10
1459.299215107121
 20
181.5660646964673
 30
0.0
 10
1459.303563295539
 20
181.5556893199426
 30
0.0
 10
1459.304163284585
 20
181.5380252577909
 30
0.0
 10
1459.304460949794
 20
181.5292618031805
 30
0.0
  0
LINE
  5
167
330
1F
100
AcDbEntity
  8
0
  6
Continuous
 62
     7
100
AcDbLine
 10
1459.1785827724
 20
181.3855269619
 30
0.0
 11
1459.2811127737
 21
181.554993319
 31
0.0
  0
SPLINE
  5
168
330
1F
100
AcDbEntity
  8
0
  6
Continuous
 62
     7
100
AcDbSpline
210
0.0
220
0.0
230
1.0
 70
     8
 71
     3
 72
    13
 73
     9
 74
     0
 42
0.00000001
 43
0.00000001
 40
0.0
 40
0.0
 40
0.0
 40
0.0
 40
0.1685430800788726
 40
0.3358931893109363
 40
0.5023783213933217
 40
0.668332465575147
 40
0.8340933404687422
 40
1.0
 40
1.0
 40
1.0
 40
1.0
 10
1459.28111277367
 20
179.3121372598646
 30
0.0
 10
1459.26991779984
 20
179.3580939535755
 30
0.0
 10
1459.247607091727
 20
179.449682053268
 30
0.0
 10
1459.221471486721
 20
179.5952335456345
 30
0.0
 10
1459.200810521661
 20
179.7457972029385
 30
0.0
 10
1459.186245940855
 20
179.9019406685881
 30
0.0
 10
1459.177096753762
 20
180.0629308564111
 30
0.0
 10
1459.175967501404
 20
180.174263707195
 30
0.0
 10
1459.175402627043
 20
180.2299546007932
 30
0.0
  0
SPLINE
  5
169
330
1F
100
AcDbEntity
  8
0
  6
Continuous
 62
     7
100
AcDbSpline
210
0.0
220
0.0
230
1.0
 70
     8
 71
     3
 72
     9
 73
     5
 74
     0
 42
0.00000001
 43
0.00000001
 40
0.0
 40
0.0
 40
0.0
 40
0.0
 40
0.167151186659886
 40
0.9999999999999999
 40
0.9999999999999999
 40
0.9999999999999999
 40
0.9999999999999999
 10
563.8413195357168
 20
127.9832960844053
 30
0.0
 10
563.8495820441601
 20
127.9285783499094
 30
0.0
 10
563.8990133919627
 20
127.6012236024539
 30
0.0
 10
563.8214485344306
 20
127.1615992109151
 30
0.0
 10
563.7568487348781
 20
126.7954585581067
 30
0.0
  0
SPLINE
  5
16A
330
1F
100
AcDbEntity
  8
0
  6
Continuous
 62
     7
100
AcDbSpline
210
0.0
220
0.0
230
1.0
 70
     8
 71
     3
 72
     9
 73
     5
 74
     0
 42
0.00000001
 43
0.00000001
 40
0.0
 40
0.0
 40
0.0
 40
0.0
 40
0.1669816676683964
 40
1.0
 40
1.0
 40
1.0
 40
1.0
 10
563.8413453609053
 20
130.2770887932811
 30
0.0
 10
563.8495966238652
 20
130.2023749249448
 30
0.0
 10
563.8990108085181
 20
129.7549373745864
 30
0.0
 10
563.8214545336396
 20
129.3864025124492
 30
0.0
 10
563.7568487348781
 20
129.0794062161856
 30
0.0
  0
SPLINE
  5
16B
330
1F
100
AcDbEntity
  8
0
  6
Continuous
 62
     7
100
AcDbSpline
210
0.0
220
0.0
230
1.0
 70
     8
 71
     3
 72
     9
 73
     5
 74
     0
 42
0.00000001
 43
0.00000001
 40
0.0
 40
0.0
 40
0.0
 40
0.0
 40
0.735031262399872
 40
1.0
 40
1.0
 40
1.0
 40
1.0
 10
563.7568487348781
 20
131.6425829432081
 30
0.0
 10
563.8179711943978
 20
131.5124955313238
 30
0.0
 10
563.9011274663095
 20
131.3355133830278
 30
0.0
 10
563.840546111115
 20
131.3749232199073
 30
0.0
 10
563.824493945907
 20
131.3853655946343
 30
0.0
  0
SPLINE
  5
16C
330
1F
100
AcDbEntity
  8
0
  6
Continuous
 62
     7
100
AcDbSpline
210
0.0
220
0.0
230
1.0
 70
     8
 71
     3
 72
    12
 73
     8
 74
     0
 42
0.00000001
 43
0.00000001
 40
0.0
 40
0.0
 40
0.0
 40
0.0
 40
0.1648509398090845
 40
0.3299215412541991
 40
0.4984060237478342
 40
0.7502078229510439
 40
1.0
 40
1.0
 40
1.0
 40
1.0
 10
563.7335005587548
 20
131.6373310771988
 30
0.0
 10
563.733632204264
 20
131.6423406502623
 30
0.0
 10
563.7338956706984
 20
131.6523664715774
 30
0.0
 10
563.7360602414846
 20
131.6608935797265
 30
0.0
 10
563.7400623425137
 20
131.6648761945354
 30
0.0
 10
563.7465050689841
 20
131.6615292792752
 30
0.0
 10
563.7534100678081
 20
131.6488814975699
 30
0.0
 10
563.7568487348785
 20
131.6425829432081
 30
0.0
  0
LINE
  5
16D
330
1F
100
AcDbEntity
  8
0
  6
Continuous
 62
     7
100
AcDbLine
 10
562.1190582972
 20
134.6004333013
 30
0.0
 11
562.1190582972
 21
135.1300907337
 31
0.0
  0
LINE
  5
16E
330
1F
100
AcDbEntity
  8
0
  6
Continuous
 62
     7
100
AcDbLine
 10
550.5190582972
 20
182.1300907337
 30
0.0
 11
550.5190582972
 21
181.2396624647
 31
0.0
  0
LINE
  5
16F
330
1F
100
AcDbEntity
  8
0
  6
Continuous
 62
     7
100
AcDbLine
 10
549.5190582972
 20
180.5364718877
 30
0.0
 11
549.5190582972
 21
181.1300907337
 31
0.0
  0
LINE
  5
170
330
1F
100
AcDbEntity
  8
0
  6
Continuous
 62
     7
100
AcDbLine
 10
1472.5189032113
 20
181.747368264
 30
0.0
 11
1472.5189032113
 21
182.1300907337
 31
0.0
  0
LINE
  5
171
330
1F
100
AcDbEntity
  8
0
  6
Continuous
 62
     7
100
AcDbLine
 10
1473.5189032113
 20
181.1300907337
 30
0.0
 11
1473.5189032113
 21
180.8749424206
 31
0.0
  0
LINE
  5
172
330
1F
100
AcDbEntity
  8
0
  6
Continuous
 62
     7
100
AcDbLine
 10
550.5190582972
 20
132.1300907337
 30
0.0
 11
550.5190582972
 21
131.8652620175
 31
0.0
  0
LINE
  5
173
330
1F
100
AcDbEntity
  8
0
  6
Continuous
 62
     7
100
AcDbLine
 10
549.5190582972
 20
130.9535382562
 30
0.0
 11
549.5190582972
 21
131.1300907337
 31
0.0
  0
LINE
  5
174
330
1F
100
AcDbEntity
  8
0
  6
Continuous
 62
     7
100
AcDbLine
 10
1460.9189032113
 20
135.1300907337
 30
0.0
 11
1460.9189032113
 21
135.0811739202
 31
0.0
  0
SPLINE
  5
175
330
1F
100
AcDbEntity
  8
0
  6
Continuous
 62
     7
100
AcDbSpline
210
0.0
220
0.0
230
1.0
 70
     8
 71
     3
 72
    12
 73
     8
 74
     0
 42
0.00000001
 43
0.00000001
 40
0.0
 40
0.0
 40
0.0
 40
0.0
 40
0.1670444631647195
 40
0.3333684213966865
 40
0.502068974954668
 40
0.7529675845953441
 40
1.0
 40
1.0
 40
1.0
 40
1.0
 10
1459.28111277367
 20
131.7942250558907
 30
0.0
 10
1459.283454279649
 20
131.8021369935653
 30
0.0
 10
1459.288127192099
 20
131.8179267427306
 30
0.0
 10
1459.293857496892
 20
131.8360192080588
 30
0.0
 10
1459.29921510712
 20
131.8515591487792
 30
0.0
 10
1459.303563295541
 20
131.8618701659817
 30
0.0
 10
1459.304163284585
 20
131.8590631419426
 30
0.0
 10
1459.304460949794
 20
131.8576705275169
 30
0.0
  0
SPLINE
  5
176
330
1F
100
AcDbEntity
  8
0
  6
Continuous
 62
     7
100
AcDbSpline
210
0.0
220
0.0
230
1.0
 70
     8
 71
     3
 72
     9
 73
     5
 74
     0
 42
0.00000001
 43
0.00000001
 40
0.0
 40
0.0
 40
0.0
 40
0.0
 40
0.2045730183796104
 40
1.0
 40
1.0
 40
1.0
 40
1.0
 10
1459.202619970095
 20
131.1309516543224
 30
0.0
 10
1459.191692584217
 20
131.1534516626054
 30
0.0
 10
1459.138277006912
 20
131.2634368818742
 30
0.0
 10
1459.217832326187
 20
131.559070276855
 30
0.0
 10
1459.28111277367
 20
131.7942250558907
 30
0.0
  0
SPLINE
  5
177
330
1F
100
AcDbEntity
  8
0
  6
Continuous
 62
     7
100
AcDbSpline
210
0.0
220
0.0
230
1.0
 70
     8
 71
     3
 72
    13
 73
     9
 74
     0
 42
0.00000001
 43
0.00000001
 40
0.0
 40
0.0
 40
0.0
 40
0.0
 40
0.1659066595312374
 40
0.3316675344248188
 40
0.4976216786066395
 40
0.6641068106890288
 40
0.831456919921104
 40
1.0
 40
1.0
 40
1.0
 40
1.0
 10
1459.175402627043
 20
129.4168627252626
 30
0.0
 10
1459.175967501404
 20
129.4807607269811
 30
0.0
 10
1459.177096753762
 20
129.6085005822983
 30
0.0
 10
1459.186245940855
 20
129.8010080778199
 30
0.0
 10
1459.200810521661
 20
129.9936280077999
 30
0.0
 10
1459.221471486721
 20
130.1862040031353
 30
0.0
 10
1459.247607091727
 20
130.3787115395195
 30
0.0
 10
1459.26991779984
 20
130.5058015585849
 30
0.0
 10
1459.28111277367
 20
130.5695722569563
 30
0.0
  0
LINE
  5
178
330
1F
100
AcDbEntity
  8
0
  6
Continuous
 62
     7
100
AcDbLine
 10
1459.2106810446
 20
127.5287609798
 30
0.0
 11
1459.2811127737
 21
127.9054379348
 31
0.0
  0
LINE
  5
179
330
1F
100
AcDbEntity
  8
0
  6
Continuous
 62
     7
100
AcDbLine
 10
1472.5189032113
 20
132.1056323269
 30
0.0
 11
1472.5189032113
 21
132.1300907337
 31
0.0
  0
LINE
  5
17A
330
1F
100
AcDbEntity
  8
0
  6
Continuous
 62
     7
100
AcDbLine
 10
1473.5189032113
 20
131.1300907337
 30
0.0
 11
1473.5189032113
 21
131.1137851292
 31
0.0
  0
LINE
  5
17B
330
1F
100
AcDbEntity
  8
0
  6
Continuous
 62
     7
100
AcDbLine
 10
558.0190582972
 20
131.8652620175
 30
0.0
 11
550.5190582972
 21
131.8652620175
 31
0.0
  0
LINE
  5
17C
330
1F
100
AcDbEntity
  8
0
  6
Continuous
 62
     7
100
AcDbLine
 10
1465.0189032113
 20
132.1056323269
 30
0.0
 11
1472.5189032113
 21
132.1056323269
 31
0.0
  0
LINE
  5
17D
330
1F
100
AcDbEntity
  8
0
  6
Continuous
 62
     7
100
AcDbLine
 10
1465.0189032113
 20
181.747368264
 30
0.0
 11
1472.5189032113
 21
181.747368264
 31
0.0
  0
LINE
  5
17E
330
1F
100
AcDbEntity
  8
0
  6
Continuous
 62
     7
100
AcDbLine
 10
558.0190582972
 20
181.2396624647
 30
0.0
 11
550.5190582972
 21
181.2396624647
 31
0.0
  0
LINE
  5
17F
330
1F
100
AcDbEntity
  8
0
  6
Continuous
 62
     7
100
AcDbLine
 10
1459.3022170808
 20
181.554993319
 30
0.0
 11
1459.2811127737
 21
181.554993319
 31
0.0
  0
LINE
  5
180
330
1F
100
AcDbEntity
  8
0
  6
Continuous
 62
     7
100
AcDbLine
 10
563.7339290366
 20
131.6425829432
 30
0.0
 11
563.7568487349
 21
131.6425829432
 31
0.0
  0
ARC
  5
181
330
1F
100
AcDbEntity
  8
0
  6
Continuous
 62
     7
100
AcDbCircle
 10
516.5214952349
 20
129.1300907337
 30
0.0
 40
2.00000000000002
100
AcDbArc
 50
97.3212727469
 51
277.3212727469
  0
ARC
  5
182
330
1F
100
AcDbEntity
  8
0
  6
Continuous
 62
     7
100
AcDbCircle
 10
516.5214952349
 20
129.1300907337
 30
0.0
 40
2.00000000000002
100
AcDbArc
 50
277.3212727469
 51
97.3212727469
  0
ARC
  5
183
330
1F
100
AcDbEntity
  8
0
  6
Continuous
 62
     7
100
AcDbCircle
 10
516.5214952349
 20
129.1300907337
 30
0.0
 40
3.000000000000003
100
AcDbArc
 50
277.3212727469
 51
97.3212727469
  0
LINE
  5
184
330
1F
100
AcDbEntity
  8
0
  6
Continuous
 62
     7
100
AcDbLine
 10
516.7763609747
 20
127.1463963382
 30
0.0
 11
516.9037938446
 21
126.1545491405
 31
0.0
  0
LINE
  5
185
330
1F
100
AcDbEntity
  8
0
  6
Continuous
 62
     7
100
AcDbLine
 10
516.2666294952
 20
131.1137851292
 30
0.0
 11
516.1391966253
 21
132.1056323269
 31
0.0
  0
ARC
  5
186
330
1F
100
AcDbEntity
  8
0
  6
Continuous
 62
     7
100
AcDbCircle
 10
516.5214952349
 20
179.1300907337
 30
0.0
 40
3.000000000000007
100
AcDbArc
 50
299.2582263405
 51
119.2582263405
  0
LINE
  5
187
330
1F
100
AcDbEntity
  8
0
  6
Continuous
 62
     7
100
AcDbLine
 10
517.4989882481
 20
177.3852390468
 30
0.0
 11
517.9877347547
 21
176.5128132034
 31
0.0
  0
ARC
  5
188
330
1F
100
AcDbEntity
  8
0
  6
Continuous
 62
     7
100
AcDbCircle
 10
516.5214952349
 20
179.1300907337
 30
0.0
 40
2.00000000000004
100
AcDbArc
 50
299.2582263405
 51
119.2582263405
  0
LINE
  5
189
330
1F
100
AcDbEntity
  8
0
  6
Continuous
 62
     7
100
AcDbLine
 10
515.5440022218
 20
180.8749424206
 30
0.0
 11
515.0552557152
 21
181.747368264
 31
0.0
  0
ARC
  5
18A
330
1F
100
AcDbEntity
  8
0
  6
Continuous
 62
     7
100
AcDbCircle
 10
516.5214952349
 20
129.1300907337
 30
0.0
 40
3.000000000000003
100
AcDbArc
 50
97.3212727469
 51
277.3212727469
  0
ARC
  5
18B
330
1F
100
AcDbEntity
  8
0
  6
Continuous
 62
     7
100
AcDbCircle
 10
516.5214952349
 20
179.1300907337
 30
0.0
 40
2.00000000000004
100
AcDbArc
 50
119.2582263405
 51
299.2582263405
  0
ARC
  5
18C
330
1F
100
AcDbEntity
  8
0
  6
Continuous
 62
     7
100
AcDbCircle
 10
516.5214952349
 20
179.1300907337
 30
0.0
 40
3.000000000000007
100
AcDbArc
 50
119.2582263405
 51
299.2582263405
  0
LINE
  5
18D
330
1F
100
AcDbEntity
  8
0
  6
Continuous
 62
     7
100
AcDbLine
 10
511.5214952349
 20
185.1300907337
 30
0.0
 11
508.5214952349
 21
182.1300907337
 31
0.0
  0
LINE
  5
18E
330
1F
100
AcDbEntity
  8
0
  6
Continuous
 62
     7
100
AcDbLine
 10
521.5214952349
 20
185.1300907337
 30
0.0
 11
511.5214952349
 21
185.1300907337
 31
0.0
  0
LINE
  5
18F
330
1F
100
AcDbEntity
  8
0
  6
Continuous
 62
     7
100
AcDbLine
 10
524.5214952349
 20
182.1300907337
 30
0.0
 11
521.5214952349
 21
185.1300907337
 31
0.0
  0
LINE
  5
190
330
1F
100
AcDbEntity
  8
0
  6
Continuous
 62
     7
100
AcDbLine
 10
524.5214952349
 20
126.1300907337
 30
0.0
 11
524.5214952349
 21
182.1300907337
 31
0.0
  0
LINE
  5
191
330
1F
100
AcDbEntity
  8
0
  6
Continuous
 62
     7
100
AcDbLine
 10
521.5214952349
 20
123.1300907337
 30
0.0
 11
524.5214952349
 21
126.1300907337
 31
0.0
  0
LINE
  5
192
330
1F
100
AcDbEntity
  8
0
  6
Continuous
 62
     7
100
AcDbLine
 10
511.5214952349
 20
123.1300907337
 30
0.0
 11
521.5214952349
 21
123.1300907337
 31
0.0
  0
LINE
  5
193
330
1F
100
AcDbEntity
  8
0
  6
Continuous
 62
     7
100
AcDbLine
 10
508.5214952349
 20
126.1300907337
 30
0.0
 11
511.5214952349
 21
123.1300907337
 31
0.0
  0
LINE
  5
194
330
1F
100
AcDbEntity
  8
0
  6
Continuous
 62
     7
100
AcDbLine
 10
508.5214852349
 20
140.6300907337
 30
0.0
 11
508.5214952349
 21
126.1300907337
 31
0.0
  0
LINE
  5
195
330
1F
100
AcDbEntity
  8
0
  6
Continuous
 62
     7
100
AcDbLine
 10
508.5214852349
 20
140.6300907337
 30
0.0
 11
506.0214852349
 21
140.6300907337
 31
0.0
  0
LINE
  5
196
330
1F
100
AcDbEntity
  8
0
  6
Continuous
 62
     7
100
AcDbLine
 10
506.0214852349
 20
167.6300907337
 30
0.0
 11
506.0214852349
 21
140.6300907337
 31
0.0
  0
LINE
  5
197
330
1F
100
AcDbEntity
  8
0
  6
Continuous
 62
     7
100
AcDbLine
 10
508.5214852349
 20
167.6300907337
 30
0.0
 11
506.0214852349
 21
167.6300907337
 31
0.0
  0
LINE
  5
198
330
1F
100
AcDbEntity
  8
0
  6
Continuous
 62
     7
100
AcDbLine
 10
508.5214952349
 20
182.1300907337
 30
0.0
 11
508.5214852349
 21
167.6300907337
 31
0.0
  0
ARC
  5
199
330
1F
100
AcDbEntity
  8
0
  6
Continuous
 62
     7
100
AcDbCircle
 10
516.5214952349
 20
179.1300907337
 30
0.0
 40
3.250000000000028
100
AcDbArc
 50
270.0
 51
90.0
  0
ARC
  5
19A
330
1F
100
AcDbEntity
  8
0
  6
Continuous
 62
     7
100
AcDbCircle
 10
516.5214952349
 20
179.1300907337
 30
0.0
 40
3.250000000000028
100
AcDbArc
 50
90.0
 51
270.0
  0
ARC
  5
19B
330
1F
100
AcDbEntity
  8
0
  6
Continuous
 62
     7
100
AcDbCircle
 10
516.5214952349
 20
129.1300907337
 30
0.0
 40
3.25
100
AcDbArc
 50
270.0
 51
90.0
  0
ARC
  5
19C
330
1F
100
AcDbEntity
  8
0
  6
Continuous
 62
     7
100
AcDbCircle
 10
516.5214952349
 20
129.1300907337
 30
0.0
 40
3.25
100
AcDbArc
 50
90.0
 51
270.0
  0
LINE
  5
19D
330
1F
100
AcDbEntity
  8
0
  6
Continuous
 62
     7
100
AcDbLine
 10
505.0214852349
 20
138.1300907337
 30
0.0
 11
505.0214852349
 21
139.6300907337
 31
0.0
  0
LINE
  5
19E
330
1F
100
AcDbEntity
  8
0
  6
Continuous
 62
     7
100
AcDbLine
 10
503.0214852349
 20
138.1300907337
 30
0.0
 11
505.0214852349
 21
138.1300907337
 31
0.0
  0
LINE
  5
19F
330
1F
100
AcDbEntity
  8
0
  6
Continuous
 62
     7
100
AcDbLine
 10
503.0214852349
 20
138.1300907337
 30
0.0
 11
503.0214852349
 21
139.6300907337
 31
0.0
  0
LINE
  5
1A0
330
1F
100
AcDbEntity
  8
0
  6
Continuous
 62
     7
100
AcDbLine
 10
503.0214852349
 20
139.6300907337
 30
0.0
 11
505.0214852349
 21
139.6300907337
 31
0.0
  0
LINE
  5
1A1
330
1F
100
AcDbEntity
  8
0
  6
Continuous
 62
     7
100
AcDbLine
 10
503.0214852349
 20
170.1300907337
 30
0.0
 11
503.0214852349
 21
168.6300907337
 31
0.0
  0
LINE
  5
1A2
330
1F
100
AcDbEntity
  8
0
  6
Continuous
 62
     7
100
AcDbLine
 10
500.5214852349
 20
168.6300907337
 30
0.0
 11
503.0214852349
 21
168.6300907337
 31
0.0
  0
LINE
  5
1A3
330
1F
100
AcDbEntity
  8
0
  6
Continuous
 62
     7
100
AcDbLine
 10
500.5214852349
 20
168.6300907337
 30
0.0
 11
500.5214852349
 21
167.0300907337
 31
0.0
  0
LINE
  5
1A4
330
1F
100
AcDbEntity
  8
0
  6
Continuous
 62
     7
100
AcDbLine
 10
491.5214852349
 20
170.1300907337
 30
0.0
 11
491.5214852349
 21
167.0300907337
 31
0.0
  0
LINE
  5
1A5
330
1F
100
AcDbEntity
  8
0
  6
Continuous
 62
     7
100
AcDbLine
 10
491.5214852349
 20
167.0300907337
 30
0.0
 11
500.5214852349
 21
167.0300907337
 31
0.0
  0
LINE
  5
1A6
330
1F
100
AcDbEntity
  8
0
  6
Continuous
 62
     7
100
AcDbLine
 10
491.5214852349
 20
170.1300907337
 30
0.0
 11
503.0214852349
 21
170.1300907337
 31
0.0
  0
LINE
  5
1A7
330
1F
100
AcDbEntity
  8
0
  6
Continuous
 62
     7
100
AcDbLine
 10
505.0214852349
 20
170.1300907337
 30
0.0
 11
505.0214852349
 21
168.6300907337
 31
0.0
  0
LINE
  5
1A8
330
1F
100
AcDbEntity
  8
0
  6
Continuous
 62
     7
100
AcDbLine
 10
503.0214852349
 20
168.6300907337
 30
0.0
 11
505.0214852349
 21
168.6300907337
 31
0.0
  0
LINE
  5
1A9
330
1F
100
AcDbEntity
  8
0
  6
Continuous
 62
     7
100
AcDbLine
 10
503.0214852349
 20
170.1300907337
 30
0.0
 11
505.0214852349
 21
170.1300907337
 31
0.0
  0
LINE
  5
1AA
330
1F
100
AcDbEntity
  8
0
  6
Continuous
 62
     7
100
AcDbLine
 10
500.5214852349
 20
139.6300907337
 30
0.0
 11
500.5214852349
 21
141.2300907337
 31
0.0
  0
LINE
  5
1AB
330
1F
100
AcDbEntity
  8
0
  6
Continuous
 62
     7
100
AcDbLine
 10
500.5214852349
 20
139.6300907337
 30
0.0
 11
503.0214852349
 21
139.6300907337
 31
0.0
  0
LINE
  5
1AC
330
1F
100
AcDbEntity
  8
0
  6
Continuous
 62
     7
100
AcDbLine
 10
491.5214852349
 20
141.2300907337
 30
0.0
 11
491.5214852349
 21
138.1300907337
 31
0.0
  0
LINE
  5
1AD
330
1F
100
AcDbEntity
  8
0
  6
Continuous
 62
     7
100
AcDbLine
 10
491.5214852349
 20
138.1300907337
 30
0.0
 11
503.0214852349
 21
138.1300907337
 31
0.0
  0
LINE
  5
1AE
330
1F
100
AcDbEntity
  8
0
  6
Continuous
 62
     7
100
AcDbLine
 10
500.5214852349
 20
141.2300907337
 30
0.0
 11
491.5214852349
 21
141.2300907337
 31
0.0
  0
LINE
  5
1AF
330
1F
100
AcDbEntity
  8
0
  6
Continuous
 62
     7
100
AcDbLine
 10
515.0552557152
 20
181.747368264
 30
0.0
 11
514.9330690886
 21
181.9654747249
 31
0.0
  0
LINE
  5
1B0
330
1F
100
AcDbEntity
  8
0
  6
Continuous
 62
     7
100
AcDbLine
 10
517.9877347547
 20
176.5128132034
 30
0.0
 11
518.1099213813
 21
176.2947067425
 31
0.0
  0
LINE
  5
1B1
330
1F
100
AcDbEntity
  8
0
  6
Continuous
 62
     7
100
AcDbLine
 10
516.1391966253
 20
132.1056323269
 30
0.0
 11
516.1073384078
 21
132.3535941264
 31
0.0
  0
LINE
  5
1B2
330
1F
100
AcDbEntity
  8
0
  6
Continuous
 62
     7
100
AcDbLine
 10
516.9037938446
 20
126.1545491405
 30
0.0
 11
516.9356520621
 21
125.906587341
 31
0.0
  0
LINE
  5
1B3
330
1F
100
AcDbEntity
  8
0
  6
Continuous
 62
     7
100
AcDbLine
 10
507.5214852349
 20
140.6300907337
 30
0.0
 11
507.5214852349
 21
138.1300907337
 31
0.0
  0
LINE
  5
1B4
330
1F
100
AcDbEntity
  8
0
  6
Continuous
 62
     7
100
AcDbLine
 10
505.0214852349
 20
139.6300907337
 30
0.0
 11
506.0214852349
 21
139.6300907337
 31
0.0
  0
LINE
  5
1B5
330
1F
100
AcDbEntity
  8
0
  6
Continuous
 62
     7
100
AcDbLine
 10
505.0214852349
 20
138.1300907337
 30
0.0
 11
507.5214852349
 21
138.1300907337
 31
0.0
  0
LINE
  5
1B6
330
1F
100
AcDbEntity
  8
0
  6
Continuous
 62
     7
100
AcDbLine
 10
506.0214852349
 20
140.6300907337
 30
0.0
 11
506.0214852349
 21
139.6300907337
 31
0.0
  0
LINE
  5
1B7
330
1F
100
AcDbEntity
  8
0
  6
Continuous
 62
     7
100
AcDbLine
 10
507.5214852349
 20
167.6300907337
 30
0.0
 11
507.5214852349
 21
170.1300907337
 31
0.0
  0
LINE
  5
1B8
330
1F
100
AcDbEntity
  8
0
  6
Continuous
 62
     7
100
AcDbLine
 10
505.0214852349
 20
168.6300907337
 30
0.0
 11
506.0214852349
 21
168.6300907337
 31
0.0
  0
LINE
  5
1B9
330
1F
100
AcDbEntity
  8
0
  6
Continuous
 62
     7
100
AcDbLine
 10
505.0214852349
 20
170.1300907337
 30
0.0
 11
507.5214852349
 21
170.1300907337
 31
0.0
  0
LINE
  5
1BA
330
1F
100
AcDbEntity
  8
0
  6
Continuous
 62
     7
100
AcDbLine
 10
506.0214852349
 20
167.6300907337
 30
0.0
 11
506.0214852349
 21
168.6300907337
 31
0.0
  0
LINE
  5
1BB
330
1F
100
AcDbEntity
  8
0
  6
Continuous
 62
     7
100
AcDbLine
 10
501.0214852349
 20
140.1300907337
 30
0.0
 11
501.0214852349
 21
168.1300907337
 31
0.0
  0
LINE
  5
1BC
330
1F
100
AcDbEntity
  8
0
  6
Continuous
 62
     7
100
AcDbLine
 10
501.0214852349
 20
168.1300907337
 30
0.0
 11
504.5214852349
 21
168.1300907337
 31
0.0
  0
ARC
  5
1BD
330
1F
100
AcDbEntity
  8
0
  6
Continuous
 62
     7
100
AcDbCircle
 10
504.5214852349
 20
166.6300907337
 30
0.0
 40
1.500000000000057
100
AcDbArc
 50
0.0
 51
90.0
  0
ARC
  5
1BE
330
1F
100
AcDbEntity
  8
0
  6
Continuous
 62
     7
100
AcDbCircle
 10
504.5214852349
 20
141.6300907337
 30
0.0
 40
1.500000000000057
100
AcDbArc
 50
270.0
 51
0.0
  0
LINE
  5
1BF
330
1F
100
AcDbEntity
  8
0
  6
Continuous
 62
     7
100
AcDbLine
 10
504.5214852349
 20
140.1300907337
 30
0.0
 11
501.0214852349
 21
140.1300907337
 31
0.0
  0
LINE
  5
1C0
330
1F
100
AcDbEntity
  8
0
  6
Continuous
 62
     7
100
AcDbLine
 10
491.5214852349
 20
148.8800907337
 30
0.0
 11
495.5214852349
 21
149.8800907337
 31
0.0
  0
LINE
  5
1C1
330
1F
100
AcDbEntity
  8
0
  6
Continuous
 62
     7
100
AcDbLine
 10
495.5214852349
 20
149.8800907337
 30
0.0
 11
501.0214852349
 21
149.8800907337
 31
0.0
  0
LINE
  5
1C2
330
1F
100
AcDbEntity
  8
0
  6
Continuous
 62
     7
100
AcDbLine
 10
501.0214852349
 20
141.6300907337
 30
0.0
 11
493.5214852349
 21
141.6300907337
 31
0.0
  0
LINE
  5
1C3
330
1F
100
AcDbEntity
  8
0
  6
Continuous
 62
     7
100
AcDbLine
 10
491.5214852349
 20
143.6300907337
 30
0.0
 11
493.5214852349
 21
141.6300907337
 31
0.0
  0
LINE
  5
1C4
330
1F
100
AcDbEntity
  8
0
  6
Continuous
 62
     7
100
AcDbLine
 10
491.5214852349
 20
143.6300907337
 30
0.0
 11
491.5214852349
 21
148.8800907337
 31
0.0
  0
LINE
  5
1C5
330
1F
100
AcDbEntity
  8
0
  6
Continuous
 62
     7
100
AcDbLine
 10
495.5214852349
 20
152.3800907337
 30
0.0
 11
491.5214852349
 21
153.3800907337
 31
0.0
  0
LINE
  5
1C6
330
1F
100
AcDbEntity
  8
0
  6
Continuous
 62
     7
100
AcDbLine
 10
491.5214852349
 20
153.3800907337
 30
0.0
 11
491.5214852349
 21
154.8800907337
 31
0.0
  0
LINE
  5
1C7
330
1F
100
AcDbEntity
  8
0
  6
Continuous
 62
     7
100
AcDbLine
 10
491.5214852349
 20
154.8800907337
 30
0.0
 11
495.5214852349
 21
155.8800907337
 31
0.0
  0
LINE
  5
1C8
330
1F
100
AcDbEntity
  8
0
  6
Continuous
 62
     7
100
AcDbLine
 10
495.5214852349
 20
155.8800907337
 30
0.0
 11
501.0214852349
 21
155.8800907337
 31
0.0
  0
LINE
  5
1C9
330
1F
100
AcDbEntity
  8
0
  6
Continuous
 62
     7
100
AcDbLine
 10
501.0214852349
 20
152.3800907337
 30
0.0
 11
495.5214852349
 21
152.3800907337
 31
0.0
  0
LINE
  5
1CA
330
1F
100
AcDbEntity
  8
0
  6
Continuous
 62
     7
100
AcDbLine
 10
491.5214852349
 20
159.3800907337
 30
0.0
 11
491.5214852349
 21
164.6300907337
 31
0.0
  0
LINE
  5
1CB
330
1F
100
AcDbEntity
  8
0
  6
Continuous
 62
     7
100
AcDbLine
 10
493.5214852349
 20
166.6300907337
 30
0.0
 11
491.5214852349
 21
164.6300907337
 31
0.0
  0
LINE
  5
1CC
330
1F
100
AcDbEntity
  8
0
  6
Continuous
 62
     7
100
AcDbLine
 10
493.5214852349
 20
166.6300907337
 30
0.0
 11
501.0214852349
 21
166.6300907337
 31
0.0
  0
LINE
  5
1CD
330
1F
100
AcDbEntity
  8
0
  6
Continuous
 62
     7
100
AcDbLine
 10
495.5214852349
 20
158.3800907337
 30
0.0
 11
491.5214852349
 21
159.3800907337
 31
0.0
  0
LINE
  5
1CE
330
1F
100
AcDbEntity
  8
0
  6
Continuous
 62
     7
100
AcDbLine
 10
501.0214852349
 20
158.3800907337
 30
0.0
 11
495.5214852349
 21
158.3800907337
 31
0.0
  0
LINE
  5
1CF
330
1F
100
AcDbEntity
  8
0
  6
Continuous
 62
     7
100
AcDbLine
 10
562.1190582972
 20
235.097584162
 30
0.0
 11
559.5190582972
 21
235.097584162
 31
0.0
  0
LINE
  5
1D0
330
1F
100
AcDbEntity
  8
0
  6
Continuous
 62
     7
100
AcDbLine
 10
1463.5189032113
 20
235.097584162
 30
0.0
 11
1460.9189032113
 21
235.097584162
 31
0.0
  0
ARC
  5
1D1
330
1F
100
AcDbEntity
  8
0
  6
Continuous
 62
     7
100
AcDbCircle
 10
1468.9189032113
 20
229.097584162
 30
0.0
 40
10.00000000000024
100
AcDbArc
 50
143.1301023542
 51
166.6226569003
  0
ARC
  5
1D2
330
1F
100
AcDbEntity
  8
0
  6
Continuous
 62
     7
100
AcDbCircle
 10
554.1190582972
 20
229.097584162
 30
0.0
 40
9.999999999999982
100
AcDbArc
 50
15.5689013961
 51
36.8698976458
  0
ARC
  5
1D3
330
1F
100
AcDbEntity
  8
0
  6
Continuous
 62
     7
100
AcDbCircle
 10
1468.9189032113
 20
229.097584162
 30
0.0
 40
10.0000000000001
100
AcDbArc
 50
193.3597458397
 51
216.8698976458
  0
LINE
  5
1D4
330
1F
100
AcDbEntity
  8
0
  6
Continuous
 62
     7
100
AcDbLine
 10
1460.9189032113
 20
223.097584162
 30
0.0
 11
1463.5189032113
 21
223.097584162
 31
0.0
  0
ARC
  5
1D5
330
1F
100
AcDbEntity
  8
0
  6
Continuous
 62
     7
100
AcDbCircle
 10
554.1190582972
 20
229.097584162
 30
0.0
 40
10.0
100
AcDbArc
 50
323.1301023542
 51
342.6221054213
  0
LINE
  5
1D6
330
1F
100
AcDbEntity
  8
0
  6
Continuous
 62
     7
100
AcDbLine
 10
559.5190582972
 20
223.097584162
 30
0.0
 11
562.1190582972
 21
223.097584162
 31
0.0
  0
LINE
  5
1D7
330
1F
100
AcDbEntity
  8
0
  6
Continuous
 62
     7
100
AcDbLine
 10
1473.5189032113
 20
231.097584162
 30
0.0
 11
1472.5189032113
 21
232.097584162
 31
0.0
  0
LINE
  5
1D8
330
1F
100
AcDbEntity
  8
0
  6
Continuous
 62
     7
100
AcDbLine
 10
558.0190582972
 20
232.097584162
 30
0.0
 11
550.5190582972
 21
232.097584162
 31
0.0
  0
LINE
  5
1D9
330
1F
100
AcDbEntity
  8
0
  6
Continuous
 62
     7
100
AcDbLine
 10
550.5190582972
 20
232.097584162
 30
0.0
 11
549.5190582972
 21
231.097584162
 31
0.0
  0
LINE
  5
1DA
330
1F
100
AcDbEntity
  8
0
  6
Continuous
 62
     7
100
AcDbLine
 10
1472.5189032113
 20
232.097584162
 30
0.0
 11
1465.0189032113
 21
232.097584162
 31
0.0
  0
LINE
  5
1DB
330
1F
100
AcDbEntity
  8
0
  6
Continuous
 62
     7
100
AcDbLine
 10
1472.5189032113
 20
226.097584162
 30
0.0
 11
1473.5189032113
 21
227.097584162
 31
0.0
  0
LINE
  5
1DC
330
1F
100
AcDbEntity
  8
0
  6
Continuous
 62
     7
100
AcDbLine
 10
1465.0189032113
 20
226.097584162
 30
0.0
 11
1472.5189032113
 21
226.097584162
 31
0.0
  0
LINE
  5
1DD
330
1F
100
AcDbEntity
  8
0
  6
Continuous
 62
     7
100
AcDbLine
 10
550.5190582972
 20
226.097584162
 30
0.0
 11
558.0190582972
 21
226.097584162
 31
0.0
  0
LINE
  5
1DE
330
1F
100
AcDbEntity
  8
0
  6
Continuous
 62
     7
100
AcDbLine
 10
549.5190582972
 20
227.097584162
 30
0.0
 11
550.5190582972
 21
226.097584162
 31
0.0
  0
LINE
  5
1DF
330
1F
100
AcDbEntity
  8
0
  6
Continuous
 62
     7
100
AcDbLine
 10
883.5189032113
 20
230.597594162
 30
0.0
 11
884.5189032113
 21
229.597594162
 31
0.0
  0
LINE
  5
1E0
330
1F
100
AcDbEntity
  8
0
  6
Continuous
 62
     7
100
AcDbLine
 10
883.5189032113
 20
238.097594162
 30
0.0
 11
883.5189032113
 21
230.597594162
 31
0.0
  0
LINE
  5
1E1
330
1F
100
AcDbEntity
  8
0
  6
Continuous
 62
     7
100
AcDbLine
 10
1138.5189032113
 20
229.597594162
 30
0.0
 11
1139.5189032113
 21
230.597594162
 31
0.0
  0
LINE
  5
1E2
330
1F
100
AcDbEntity
  8
0
  6
Continuous
 62
     7
100
AcDbLine
 10
1139.5189032113
 20
230.597594162
 30
0.0
 11
1139.5189032113
 21
238.097594162
 31
0.0
  0
LINE
  5
1E3
330
1F
100
AcDbEntity
  8
0
  6
Continuous
 62
     7
100
AcDbLine
 10
608.5189032113
 20
230.597594162
 30
0.0
 11
609.5189032113
 21
229.597594162
 31
0.0
  0
LINE
  5
1E4
330
1F
100
AcDbEntity
  8
0
  6
Continuous
 62
     7
100
AcDbLine
 10
608.5189032113
 20
238.097594162
 30
0.0
 11
608.5189032113
 21
230.597594162
 31
0.0
  0
LINE
  5
1E5
330
1F
100
AcDbEntity
  8
0
  6
Continuous
 62
     7
100
AcDbLine
 10
888.5189032113
 20
229.597594162
 30
0.0
 11
889.5189032113
 21
230.597594162
 31
0.0
  0
LINE
  5
1E6
330
1F
100
AcDbEntity
  8
0
  6
Continuous
 62
     7
100
AcDbLine
 10
889.5189032113
 20
230.597594162
 30
0.0
 11
889.5189032113
 21
238.097594162
 31
0.0
  0
LINE
  5
1E7
330
1F
100
AcDbEntity
  8
0
  6
Continuous
 62
     7
100
AcDbLine
 10
613.5189032113
 20
229.597594162
 30
0.0
 11
614.5189032113
 21
230.597594162
 31
0.0
  0
LINE
  5
1E8
330
1F
100
AcDbEntity
  8
0
  6
Continuous
 62
     7
100
AcDbLine
 10
614.5189032113
 20
230.597594162
 30
0.0
 11
614.5189032113
 21
238.097594162
 31
0.0
  0
LINE
  5
1E9
330
1F
100
AcDbEntity
  8
0
  6
Continuous
 62
     7
100
AcDbLine
 10
1133.5189032113
 20
230.597594162
 30
0.0
 11
1134.5189032113
 21
229.597594162
 31
0.0
  0
LINE
  5
1EA
330
1F
100
AcDbEntity
  8
0
  6
Continuous
 62
     7
100
AcDbLine
 10
1133.5189032113
 20
238.097594162
 30
0.0
 11
1133.5189032113
 21
230.597594162
 31
0.0
  0
LINE
  5
1EB
330
1F
100
AcDbEntity
  8
0
  6
Continuous
 62
     7
100
AcDbLine
 10
1465.0189032113
 20
224.097584162
 30
0.0
 11
1463.5189032113
 21
224.097584162
 31
0.0
  0
LINE
  5
1EC
330
1F
100
AcDbEntity
  8
0
  6
Continuous
 62
     7
100
AcDbLine
 10
1465.0189032113
 20
224.097584162
 30
0.0
 11
1465.0189032113
 21
221.097584162
 31
0.0
  0
LINE
  5
1ED
330
1F
100
AcDbEntity
  8
0
  6
Continuous
 62
     7
100
AcDbLine
 10
1465.0189032113
 20
221.097584162
 30
0.0
 11
1463.5189032113
 21
221.097584162
 31
0.0
  0
LINE
  5
1EE
330
1F
100
AcDbEntity
  8
0
  6
Continuous
 62
     7
100
AcDbLine
 10
1463.5189032113
 20
224.097584162
 30
0.0
 11
1463.5189032113
 21
221.097584162
 31
0.0
  0
LINE
  5
1EF
330
1F
100
AcDbEntity
  8
0
  6
Continuous
 62
     7
100
AcDbLine
 10
558.0190582972
 20
221.097584162
 30
0.0
 11
559.5190582972
 21
221.097584162
 31
0.0
  0
LINE
  5
1F0
330
1F
100
AcDbEntity
  8
0
  6
Continuous
 62
     7
100
AcDbLine
 10
558.0190582972
 20
224.097584162
 30
0.0
 11
559.5190582972
 21
224.097584162
 31
0.0
  0
LINE
  5
1F1
330
1F
100
AcDbEntity
  8
0
  6
Continuous
 62
     7
100
AcDbLine
 10
558.0190582972
 20
224.097584162
 30
0.0
 11
558.0190582972
 21
221.097584162
 31
0.0
  0
LINE
  5
1F2
330
1F
100
AcDbEntity
  8
0
  6
Continuous
 62
     7
100
AcDbLine
 10
559.5190582972
 20
224.097584162
 30
0.0
 11
559.5190582972
 21
221.097584162
 31
0.0
  0
LINE
  5
1F3
330
1F
100
AcDbEntity
  8
0
  6
Continuous
 62
     7
100
AcDbLine
 10
558.0190582972
 20
234.097584162
 30
0.0
 11
559.5190582972
 21
234.097584162
 31
0.0
  0
LINE
  5
1F4
330
1F
100
AcDbEntity
  8
0
  6
Continuous
 62
     7
100
AcDbLine
 10
558.0190582972
 20
234.097584162
 30
0.0
 11
558.0190582972
 21
224.097584162
 31
0.0
  0
LINE
  5
1F5
330
1F
100
AcDbEntity
  8
0
  6
Continuous
 62
     7
100
AcDbLine
 10
559.5190582972
 20
229.097584162
 30
0.0
 11
559.5190582972
 21
224.097584162
 31
0.0
  0
LINE
  5
1F6
330
1F
100
AcDbEntity
  8
0
  6
Continuous
 62
     7
100
AcDbLine
 10
559.5190582972
 20
234.097584162
 30
0.0
 11
559.5190582972
 21
229.097584162
 31
0.0
  0
LINE
  5
1F7
330
1F
100
AcDbEntity
  8
0
  6
Continuous
 62
     7
100
AcDbLine
 10
1465.0189032113
 20
234.097584162
 30
0.0
 11
1463.5189032113
 21
234.097584162
 31
0.0
  0
LINE
  5
1F8
330
1F
100
AcDbEntity
  8
0
  6
Continuous
 62
     7
100
AcDbLine
 10
1463.5189032113
 20
234.097584162
 30
0.0
 11
1463.5189032113
 21
229.097584162
 31
0.0
  0
LINE
  5
1F9
330
1F
100
AcDbEntity
  8
0
  6
Continuous
 62
     7
100
AcDbLine
 10
1463.5189032113
 20
229.097584162
 30
0.0
 11
1463.5189032113
 21
224.097584162
 31
0.0
  0
LINE
  5
1FA
330
1F
100
AcDbEntity
  8
0
  6
Continuous
 62
     7
100
AcDbLine
 10
1465.0189032113
 20
234.097584162
 30
0.0
 11
1465.0189032113
 21
224.097584162
 31
0.0
  0
LINE
  5
1FB
330
1F
100
AcDbEntity
  8
0
  6
Continuous
 62
     7
100
AcDbLine
 10
562.1190582972
 20
226.6327612083
 30
0.0
 11
562.1190582972
 21
235.097584162
 31
0.0
  0
LINE
  5
1FC
330
1F
100
AcDbEntity
  8
0
  6
Continuous
 62
     7
100
AcDbLine
 10
562.1190582972
 20
226.6327612083
 30
0.0
 11
559.5190582972
 21
226.6327612083
 31
0.0
  0
LINE
  5
1FD
330
1F
100
AcDbEntity
  8
0
  6
Continuous
 62
     7
100
AcDbLine
 10
1460.9189032113
 20
228.3329869427
 30
0.0
 11
1463.5189032113
 21
228.3329869427
 31
0.0
  0
LINE
  5
1FE
330
1F
100
AcDbEntity
  8
0
  6
Continuous
 62
     7
100
AcDbLine
 10
1460.9189032113
 20
235.097584162
 30
0.0
 11
1460.9189032113
 21
228.3329869427
 31
0.0
  0
SPLINE
  5
1FF
330
1F
100
AcDbEntity
  8
0
  6
Continuous
 62
     7
100
AcDbSpline
210
0.0
220
0.0
230
1.0
 70
     8
 71
     3
 72
    16
 73
    12
 74
     0
 42
0.00000001
 43
0.00000001
 40
0.0
 40
0.0
 40
0.0
 40
0.0
 40
0.0839762981672426
 40
0.1673944919963157
 40
0.250469110134557
 40
0.3334182982836589
 40
0.4164614832495167
 40
0.4998170465143953
 40
0.6663918470733462
 40
0.832550528512798
 40
1.0
 40
1.0
 40
1.0
 40
1.0
 10
1459.28111277367
 20
231.0802822090573
 30
0.0
 10
1459.269955111424
 20
231.0166880680547
 30
0.0
 10
1459.247713940471
 20
230.8899224310903
 30
0.0
 10
1459.221601967062
 20
230.7008279751026
 30
0.0
 10
1459.200953446236
 20
230.5136826504572
 30
0.0
 10
1459.186253624511
 20
230.3285827436277
 30
0.0
 10
1459.177392780789
 20
230.1456297120088
 30
0.0
 10
1459.173393604188
 20
229.9051632539673
 30
0.0
 10
1459.183506183692
 20
229.6134171563948
 30
0.0
 10
1459.217712841858
 20
229.2793234852672
 30
0.0
 10
1459.259925020891
 20
229.075738890388
 30
0.0
 10
1459.28111277367
 20
228.9735527402103
 30
0.0
  0
SPLINE
  5
200
330
1F
100
AcDbEntity
  8
0
  6
Continuous
 62
     7
100
AcDbSpline
210
0.0
220
0.0
230
1.0
 70
     8
 71
     3
 72
    13
 73
     9
 74
     0
 42
0.00000001
 43
0.00000001
 40
0.0
 40
0.0
 40
0.0
 40
0.0
 40
0.124756617310474
 40
0.2502697142827152
 40
0.4994973261286615
 40
0.7487509998600391
 40
0.8744077893685535
 40
1.0
 40
1.0
 40
1.0
 40
1.0
 10
1459.294188812694
 20
231.3437307447589
 30
0.0
 10
1459.296117322864
 20
231.3408300278928
 30
0.0
 10
1459.299986037
 20
231.3350110052474
 30
0.0
 10
1459.304426593955
 20
231.3097929230229
 30
0.0
 10
1459.305198055353
 20
231.2607439468403
 30
0.0
 10
1459.298505164935
 20
231.1911133878104
 30
0.0
 10
1459.289747533101
 20
231.1292216785681
 30
0.0
 10
1459.283990533571
 20
231.0965925699926
 30
0.0
 10
1459.28111277367
 20
231.0802822090573
 30
0.0
  0
SPLINE
  5
201
330
1F
100
AcDbEntity
  8
0
  6
Continuous
 62
     7
100
AcDbSpline
210
0.0
220
0.0
230
1.0
 70
     8
 71
     3
 72
     9
 73
     5
 74
     0
 42
0.00000001
 43
0.00000001
 40
0.0
 40
0.0
 40
0.0
 40
0.0
 40
0.5010648085016309
 40
0.9999999999999999
 40
0.9999999999999999
 40
0.9999999999999999
 40
0.9999999999999999
 10
1459.28111277367
 20
231.3427764532358
 30
0.0
 10
1459.283582731802
 20
231.3444012081756
 30
0.0
 10
1459.28851215029
 20
231.3476438125497
 30
0.0
 10
1459.292299280272
 20
231.3450332475213
 30
0.0
 10
1459.294188812694
 20
231.3437307447589
 30
0.0
  0
SPLINE
  5
202
330
1F
100
AcDbEntity
  8
0
  6
Continuous
 62
     7
100
AcDbSpline
210
0.0
220
0.0
230
1.0
 70
     8
 71
     3
 72
     9
 73
     5
 74
     0
 42
0.00000001
 43
0.00000001
 40
0.0
 40
0.0
 40
0.0
 40
0.0
 40
0.204361575457324
 40
1.0
 40
1.0
 40
1.0
 40
1.0
 10
1459.202584655196
 20
231.4078778492636
 30
0.0
 10
1459.191673363996
 20
231.3790403406175
 30
0.0
 10
1459.138281276097
 20
231.2379301119381
 30
0.0
 10
1459.217824849915
 20
231.2963195626564
 30
0.0
 10
1459.28111277367
 20
231.3427764532358
 30
0.0
  0
SPLINE
  5
203
330
1F
100
AcDbEntity
  8
0
  6
Continuous
 62
     7
100
AcDbSpline
210
0.0
220
0.0
230
1.0
 70
     8
 71
     3
 72
     9
 73
     5
 74
     0
 42
0.00000001
 43
0.00000001
 40
0.0
 40
0.0
 40
0.0
 40
0.0
 40
0.208924258010132
 40
1.0
 40
1.0
 40
1.0
 40
1.0
 10
1459.203351770526
 20
230.2471716301652
 30
0.0
 10
1459.192090061274
 20
230.3168077550601
 30
0.0
 10
1459.138186750288
 20
230.6501157469521
 30
0.0
 10
1459.217985733676
 20
231.1060943016034
 30
0.0
 10
1459.28111277367
 20
231.4668078750557
 30
0.0
  0
ARC
  5
204
330
1F
100
AcDbEntity
  8
0
  6
Continuous
 62
     7
100
AcDbCircle
 10
1461.9327432929
 20
235.6388211645
 30
0.0
 40
7.375844723567072
100
AcDbArc
 50
249.1246252837
 51
262.0994474835
  0
SPLINE
  5
205
330
1F
100
AcDbEntity
  8
0
  6
Continuous
 62
     7
100
AcDbSpline
210
0.0
220
0.0
230
1.0
 70
     8
 71
     3
 72
    12
 73
     8
 74
     0
 42
0.00000001
 43
0.00000001
 40
0.0
 40
0.0
 40
0.0
 40
0.0
 40
0.1670444628953431
 40
0.3333684211275591
 40
0.502068974940835
 40
0.7529675842976865
 40
0.9999999999999999
 40
0.9999999999999999
 40
0.9999999999999999
 40
0.9999999999999999
 10
1459.28111277367
 20
228.9735527402103
 30
0.0
 10
1459.283454279645
 20
228.9628322955832
 30
0.0
 10
1459.28812719209
 20
228.9414376462953
 30
0.0
 10
1459.293857496881
 20
228.9053050479097
 30
0.0
 10
1459.299215107117
 20
228.8608304888899
 30
0.0
 10
1459.303563295546
 20
228.8074563714281
 30
0.0
 10
1459.304163284586
 20
228.7671436340732
 30
0.0
 10
1459.304460949794
 20
228.7471437698527
 30
0.0
  0
SPLINE
  5
206
330
1F
100
AcDbEntity
  8
0
  6
Continuous
 62
     7
100
AcDbSpline
210
0.0
220
0.0
230
1.0
 70
     8
 71
     3
 72
     9
 73
     5
 74
     0
 42
0.00000001
 43
0.00000001
 40
0.0
 40
0.0
 40
0.0
 40
0.0
 40
0.1962701745449347
 40
0.9999999999999999
 40
0.9999999999999999
 40
0.9999999999999999
 40
0.9999999999999999
 10
563.8367159399727
 20
231.1191173979358
 30
0.0
 10
563.8470200383639
 20
231.0521477750168
 30
0.0
 10
563.8995196013527
 20
230.7109363654166
 30
0.0
 10
563.8204219091922
 20
230.531321257081
 30
0.0
 10
563.7568487348781
 20
230.3869592374093
 30
0.0
  0
SPLINE
  5
207
330
1F
100
AcDbEntity
  8
0
  6
Continuous
 62
     7
100
AcDbSpline
210
0.0
220
0.0
230
1.0
 70
     8
 71
     3
 72
    13
 73
     9
 74
     0
 42
0.00000001
 43
0.00000001
 40
0.0
 40
0.0
 40
0.0
 40
0.0
 40
0.1659066595312376
 40
0.3316675344248206
 40
0.4976216786066386
 40
0.6641068106890285
 40
0.8314569199211036
 40
1.0
 40
1.0
 40
1.0
 40
1.0
 10
563.8625588815065
 20
231.1493062885056
 30
0.0
 10
563.8619940071453
 20
231.1765058289807
 30
0.0
 10
563.8608647547867
 20
231.2308810092921
 30
0.0
 10
563.8517155676936
 20
231.3225349032927
 30
0.0
 10
563.8371509868884
 20
231.4213055262196
 30
0.0
 10
563.8164900218279
 20
231.5279794916562
 30
0.0
 10
563.7903544168219
 20
231.6417043119574
 30
0.0
 10
563.7680437087089
 20
231.7232199142103
 30
0.0
 10
563.7568487348785
 20
231.7641224722716
 30
0.0
  0
SPLINE
  5
208
330
1F
100
AcDbEntity
  8
0
  6
Continuous
 62
     7
100
AcDbSpline
210
0.0
220
0.0
230
1.0
 70
     8
 71
     3
 72
    13
 73
     9
 74
     0
 42
0.00000001
 43
0.00000001
 40
0.0
 40
0.0
 40
0.0
 40
0.0
 40
0.1685430800788899
 40
0.3358931893109631
 40
0.5023783213933536
 40
0.6683324655751735
 40
0.834093340468759
 40
1.0
 40
1.0
 40
1.0
 40
1.0
 10
563.7568487348785
 20
230.8261468995731
 30
0.0
 10
563.7680437087089
 20
230.8362887533528
 30
0.0
 10
563.7903544168216
 20
230.8565006754916
 30
0.0
 10
563.8164900218283
 20
230.8980641506873
 30
0.0
 10
563.8371509868884
 20
230.9476051935757
 30
0.0
 10
563.8517155676936
 20
231.0060594955408
 30
0.0
 10
563.8608647547867
 20
231.0724062821755
 30
0.0
 10
563.8619940071453
 20
231.123665442732
 30
0.0
 10
563.8625588815065
 20
231.1493062885056
 30
0.0
  0
SPLINE
  5
209
330
1F
100
AcDbEntity
  8
0
  6
Continuous
 62
     7
100
AcDbSpline
210
0.0
220
0.0
230
1.0
 70
     8
 71
     3
 72
    14
 73
    10
 74
     0
 42
0.00000001
 43
0.00000001
 40
0.0
 40
0.0
 40
0.0
 40
0.0
 40
0.0838023325553371
 40
0.1671770643431393
 40
0.2516766523833527
 40
0.4999225990049665
 40
0.7483576082059512
 40
0.8746656613430415
 40
1.0
 40
1.0
 40
1.0
 40
1.0
 10
563.7568487348785
 20
230.4747473968925
 30
0.0
 10
563.7545058286693
 20
230.487947015906
 30
0.0
 10
563.7498319709118
 20
230.5142789029769
 30
0.0
 10
563.744112282927
 20
230.5546454268083
 30
0.0
 10
563.7364722620208
 20
230.6205485250738
 30
0.0
 10
563.7312662025832
 20
230.7092013392251
 30
0.0
 10
563.7368959406795
 20
230.7781660297773
 30
0.0
 10
563.7465031168767
 20
230.8139954030209
 30
0.0
 10
563.7534091029717
 20
230.8221068629846
 30
0.0
 10
563.7568487348785
 20
230.8261468995731
 30
0.0
  0
SPLINE
  5
20A
330
1F
100
AcDbEntity
  8
0
  6
Continuous
 62
     7
100
AcDbSpline
210
0.0
220
0.0
230
1.0
 70
     8
 71
     3
 72
    16
 73
    12
 74
     0
 42
0.00000001
 43
0.00000001
 40
0.0
 40
0.0
 40
0.0
 40
0.0
 40
0.0839209304465243
 40
0.1673144079271807
 40
0.2503878620855404
 40
0.3333528282129177
 40
0.4164233723603538
 40
0.4998143879300351
 40
0.6663260175929222
 40
0.8324699100139604
 40
1.0
 40
1.0
 40
1.0
 40
1.0
 10
563.7568487348785
 20
228.2029454766182
 30
0.0
 10
563.7679987081376
 20
228.2628068330249
 30
0.0
 10
563.7902285757558
 20
228.3821533101389
 30
0.0
 10
563.8163320081848
 20
228.5655854759262
 30
0.0
 10
563.8369837298618
 20
228.7512227468473
 30
0.0
 10
563.8516931631755
 20
228.9393528552878
 30
0.0
 10
563.8605653748598
 20
229.1297872544263
 30
0.0
 10
563.8645681064697
 20
229.3859947825194
 30
0.0
 10
563.8544680778479
 20
229.7084079606608
 30
0.0
 10
563.8202720082257
 20
230.0955276205563
 30
0.0
 10
563.7780482966466
 20
230.3479911976646
 30
0.0
 10
563.7568487348785
 20
230.4747473968925
 30
0.0
  0
SPLINE
  5
20B
330
1F
100
AcDbEntity
  8
0
  6
Continuous
 62
     7
100
AcDbSpline
210
0.0
220
0.0
230
1.0
 70
     8
 71
     3
 72
    12
 73
     8
 74
     0
 42
0.00000001
 43
0.00000001
 40
0.0
 40
0.0
 40
0.0
 40
0.0
 40
0.16485093975
 40
0.3299215411952162
 40
0.4984060237447349
 40
0.7502078228833785
 40
1.0
 40
1.0
 40
1.0
 40
1.0
 10
563.7335005587547
 20
227.9678736415685
 30
0.0
 10
563.733632204264
 20
227.9802490932259
 30
0.0
 10
563.7338956706988
 20
228.0050164866662
 30
0.0
 10
563.7360602414849
 20
228.0445734522539
 30
0.0
 10
563.7400623425126
 20
228.0916079768574
 30
0.0
 10
563.746505068982
 20
228.1459200221984
 30
0.0
 10
563.7534100678068
 20
228.1839878310099
 30
0.0
 10
563.7568487348785
 20
228.2029454766182
 30
0.0
  0
ARC
  5
20C
330
1F
100
AcDbEntity
  8
0
  6
Continuous
 62
     7
100
AcDbCircle
 10
560.0220956105
 20
230.812109371
 30
0.0
 40
4.675917404569583
100
AcDbArc
 50
296.6449325231
 51
322.5352439426
  0
LINE
  5
20D
330
1F
100
AcDbEntity
  8
0
  6
Continuous
 62
     7
100
AcDbLine
 10
558.0190582972
 20
237.097584162
 30
0.0
 11
559.5190582972
 21
237.097584162
 31
0.0
  0
LINE
  5
20E
330
1F
100
AcDbEntity
  8
0
  6
Continuous
 62
     7
100
AcDbLine
 10
558.0190582972
 20
237.097584162
 30
0.0
 11
558.0190582972
 21
234.097584162
 31
0.0
  0
LINE
  5
20F
330
1F
100
AcDbEntity
  8
0
  6
Continuous
 62
     7
100
AcDbLine
 10
559.5190582972
 20
237.097584162
 30
0.0
 11
559.5190582972
 21
234.097584162
 31
0.0
  0
LINE
  5
210
330
1F
100
AcDbEntity
  8
0
  6
Continuous
 62
     7
100
AcDbLine
 10
1465.0189032113
 20
237.097584162
 30
0.0
 11
1463.5189032113
 21
237.097584162
 31
0.0
  0
LINE
  5
211
330
1F
100
AcDbEntity
  8
0
  6
Continuous
 62
     7
100
AcDbLine
 10
1463.5189032113
 20
237.097584162
 30
0.0
 11
1463.5189032113
 21
234.097584162
 31
0.0
  0
LINE
  5
212
330
1F
100
AcDbEntity
  8
0
  6
Continuous
 62
     7
100
AcDbLine
 10
1465.0189032113
 20
237.097584162
 30
0.0
 11
1465.0189032113
 21
234.097584162
 31
0.0
  0
LINE
  5
213
330
1F
100
AcDbEntity
  8
0
  6
Continuous
 62
     7
100
AcDbLine
 10
1460.9189032113
 20
228.3329869427
 30
0.0
 11
1460.9189032113
 21
223.097584162
 31
0.0
  0
SPLINE
  5
214
330
1F
100
AcDbEntity
  8
0
  6
Continuous
 62
     7
100
AcDbSpline
210
0.0
220
0.0
230
1.0
 70
     8
 71
     3
 72
     9
 73
     5
 74
     0
 42
0.00000001
 43
0.00000001
 40
0.0
 40
0.0
 40
0.0
 40
0.0
 40
0.2783030401751852
 40
1.0
 40
1.0
 40
1.0
 40
1.0
 10
1459.216212062804
 20
227.7990936657259
 30
0.0
 10
1459.198825228752
 20
227.9447097695512
 30
0.0
 10
1459.136350761921
 20
228.4679383470531
 30
0.0
 10
1459.220431767538
 20
228.9056908983927
 30
0.0
 10
1459.28111277367
 20
229.22161558385
 30
0.0
  0
LINE
  5
215
330
1F
100
AcDbEntity
  8
0
  6
Continuous
 62
     7
100
AcDbLine
 10
1459.175402627
 20
226.8655541019
 30
0.0
 11
1459.2239082201
 21
226.8595145509
 31
0.0
  0
SPLINE
  5
216
330
1F
100
AcDbEntity
  8
0
  6
Continuous
 62
     7
100
AcDbSpline
210
0.0
220
0.0
230
1.0
 70
     8
 71
     3
 72
    13
 73
     9
 74
     0
 42
0.00000001
 43
0.00000001
 40
0.0
 40
0.0
 40
0.0
 40
0.0
 40
0.1685430800788782
 40
0.3358931893109461
 40
0.502378321393333
 40
0.6683324655751546
 40
0.8340933404687467
 40
0.9999999999999999
 40
0.9999999999999999
 40
0.9999999999999999
 40
0.9999999999999999
 10
1459.28111277367
 20
226.5614283703539
 30
0.0
 10
1459.26991779984
 20
226.5860774501878
 30
0.0
 10
1459.247607091727
 20
226.6352011403158
 30
0.0
 10
1459.221471486721
 20
226.6985381304952
 30
0.0
 10
1459.200810521661
 20
226.7538442858893
 30
0.0
 10
1459.186245940855
 20
226.8001598483208
 30
0.0
 10
1459.177096753762
 20
226.8384316107779
 30
0.0
 10
1459.175967501404
 20
226.8565106226363
 30
0.0
 10
1459.175402627043
 20
226.8655541018851
 30
0.0
  0
SPLINE
  5
217
330
1F
100
AcDbEntity
  8
0
  6
Continuous
 62
     7
100
AcDbSpline
210
0.0
220
0.0
230
1.0
 70
     8
 71
     3
 72
    14
 73
    10
 74
     0
 42
0.00000001
 43
0.00000001
 40
0.0
 40
0.0
 40
0.0
 40
0.0
 40
0.0838023325077847
 40
0.1671770642951859
 40
0.2516766523795012
 40
0.4999225989998686
 40
0.7483576081996344
 40
0.8746656611627913
 40
1.0
 40
1.0
 40
1.0
 40
1.0
 10
1459.28111277367
 20
226.7283604490046
 30
0.0
 10
1459.283455679878
 20
226.7161421427296
 30
0.0
 10
1459.288129537634
 20
226.6917678739881
 30
0.0
 10
1459.293849225618
 20
226.6580699042919
 30
0.0
 10
1459.301489246529
 20
226.6073719531863
 30
0.0
 10
1459.306695305966
 20
226.552139904338
 30
0.0
 10
1459.301065567867
 20
226.5335619988337
 30
0.0
 10
1459.291458391683
 20
226.5409370079755
 30
0.0
 10
1459.284552405584
 20
226.5546155589869
 30
0.0
 10
1459.28111277367
 20
226.5614283703539
 30
0.0
  0
SPLINE
  5
218
330
1F
100
AcDbEntity
  8
0
  6
Continuous
 62
     7
100
AcDbSpline
210
0.0
220
0.0
230
1.0
 70
     8
 71
     3
 72
    16
 73
    12
 74
     0
 42
0.00000001
 43
0.00000001
 40
0.0
 40
0.0
 40
0.0
 40
0.0
 40
0.0839209305182822
 40
0.1673144080418394
 40
0.2503878622143731
 40
0.3333528283275505
 40
0.4164233724330119
 40
0.4998143879337537
 40
0.666326017708493
 40
0.8324699101293828
 40
1.0
 40
1.0
 40
1.0
 40
1.0
 10
1459.28111277367
 20
228.544126417381
 30
0.0
 10
1459.269962800402
 20
228.5051266424156
 30
0.0
 10
1459.247732932768
 20
228.4273722106926
 30
0.0
 10
1459.221629500329
 20
228.3015831604392
 30
0.0
 10
1459.200977778652
 20
228.1696997964216
 30
0.0
 10
1459.186268345347
 20
228.0310779226517
 30
0.0
 10
1459.177396133675
 20
227.8859359752181
 30
0.0
 10
1459.173393402084
 20
227.6843262267798
 30
0.0
 10
1459.183493430725
 20
227.4186536443768
 30
0.0
 10
1459.217689500352
 20
227.0818687610816
 30
0.0
 10
1459.259913211917
 20
226.8465224564216
 30
0.0
 10
1459.28111277367
 20
226.7283604490046
 30
0.0
  0
SPLINE
  5
219
330
1F
100
AcDbEntity
  8
0
  6
Continuous
 62
     7
100
AcDbSpline
210
0.0
220
0.0
230
1.0
 70
     8
 71
     3
 72
    12
 73
     8
 74
     0
 42
0.00000001
 43
0.00000001
 40
0.0
 40
0.0
 40
0.0
 40
0.0
 40
0.1648509397055117
 40
0.3299215411508061
 40
0.4984060237423976
 40
0.7502078228326488
 40
1.0
 40
1.0
 40
1.0
 40
1.0
 10
1459.304460949794
 20
228.7471437698527
 30
0.0
 10
1459.304329304285
 20
228.7339774145094
 30
0.0
 10
1459.30406583785
 20
228.7076271598248
 30
0.0
 10
1459.301901267063
 20
228.6694618494528
 30
0.0
 10
1459.297899166037
 20
228.6273057721635
 30
0.0
 10
1459.291456439568
 20
228.5827877003406
 30
0.0
 10
1459.284551440743
 20
228.556979044487
 30
0.0
 10
1459.28111277367
 20
228.544126417381
 30
0.0
  0
SPLINE
  5
21A
330
1F
100
AcDbEntity
  8
0
  6
Continuous
 62
     7
100
AcDbSpline
210
0.0
220
0.0
230
1.0
 70
     8
 71
     3
 72
    16
 73
    12
 74
     0
 42
0.00000001
 43
0.00000001
 40
0.0
 40
0.0
 40
0.0
 40
0.0
 40
0.0839762981140652
 40
0.16739449191129
 40
0.2504691100389528
 40
0.3334182981985193
 40
0.4164614831955098
 40
0.499817046511651
 40
0.6663918469887175
 40
0.8325505284281489
 40
1.0
 40
1.0
 40
1.0
 40
1.0
 10
563.7568487348785
 20
226.4743827390752
 30
0.0
 10
563.7680063971178
 20
226.5241919077904
 30
0.0
 10
563.7902475680601
 20
226.6234792147668
 30
0.0
 10
563.8163595414601
 20
226.7656685204537
 30
0.0
 10
563.8370080622867
 20
226.9019364304132
 30
0.0
 10
563.8517078840179
 20
227.0317799885065
 30
0.0
 10
563.8605687277499
 20
227.1552131716792
 30
0.0
 10
563.8645679043643
 20
227.3108683386093
 30
0.0
 10
563.8544553248748
 20
227.4869523121039
 30
0.0
 10
563.8202486667128
 20
227.6689462476343
 30
0.0
 10
563.7780364876688
 20
227.7616685538683
 30
0.0
 10
563.7568487348785
 20
227.808209086651
 30
0.0
  0
SPLINE
  5
21B
330
1F
100
AcDbEntity
  8
0
  6
Continuous
 62
     7
100
AcDbSpline
210
0.0
220
0.0
230
1.0
 70
     8
 71
     3
 72
    13
 73
     9
 74
     0
 42
0.00000001
 43
0.00000001
 40
0.0
 40
0.0
 40
0.0
 40
0.0
 40
0.1247566171809425
 40
0.2502697142815927
 40
0.4994973261303811
 40
0.7487509998645844
 40
0.8744077896292697
 40
1.0
 40
1.0
 40
1.0
 40
1.0
 10
563.7437726958547
 20
226.3864702878334
 30
0.0
 10
563.7418441856885
 20
226.3804032062793
 30
0.0
 10
563.7379754715541
 20
226.3682322545384
 30
0.0
 10
563.7335349145919
 20
226.3573110463787
 30
0.0
 10
563.7327634531977
 20
226.3628359257951
 30
0.0
 10
563.7394563436123
 20
226.3969932880437
 30
0.0
 10
563.7482139754591
 20
226.4369599121013
 30
0.0
 10
563.7539709749858
 20
226.4619106011377
 30
0.0
 10
563.7568487348785
 20
226.4743827390752
 30
0.0
  0
SPLINE
  5
21C
330
1F
100
AcDbEntity
  8
0
  6
Continuous
 62
     7
100
AcDbSpline
210
0.0
220
0.0
230
1.0
 70
     8
 71
     3
 72
     9
 73
     5
 74
     0
 42
0.00000001
 43
0.00000001
 40
0.0
 40
0.0
 40
0.0
 40
0.0
 40
0.5010648085023512
 40
1.0
 40
1.0
 40
1.0
 40
1.0
 10
563.7568487348785
 20
226.4310458517887
 30
0.0
 10
563.7543787767473
 20
226.4223844356624
 30
0.0
 10
563.7494493582581
 20
226.4050984160112
 30
0.0
 10
563.745662228277
 20
226.3926708419017
 30
0.0
 10
563.7437726958545
 20
226.3864702878334
 30
0.0
  0
SPLINE
  5
21D
330
1F
100
AcDbEntity
  8
0
  6
Continuous
 62
     7
100
AcDbSpline
210
0.0
220
0.0
230
1.0
 70
     8
 71
     3
 72
     9
 73
     5
 74
     0
 42
0.00000001
 43
0.00000001
 40
0.0
 40
0.0
 40
0.0
 40
0.0
 40
0.1325230812618846
 40
1.0
 40
1.0
 40
1.0
 40
1.0
 10
563.8463917740169
 20
227.095511622161
 30
0.0
 10
563.8524945733365
 20
227.0800355208843
 30
0.0
 10
563.8985454141518
 20
226.9632550994708
 30
0.0
 10
563.8226694138373
 20
226.6782667055893
 30
0.0
 10
563.7568487348781
 20
226.4310458517887
 30
0.0
  0
SPLINE
  5
21E
330
1F
100
AcDbEntity
  8
0
  6
Continuous
 62
     7
100
AcDbSpline
210
0.0
220
0.0
230
1.0
 70
     8
 71
     3
 72
     9
 73
     5
 74
     0
 42
0.00000001
 43
0.00000001
 40
0.0
 40
0.0
 40
0.0
 40
0.0
 40
0.1669820956261622
 40
1.0
 40
1.0
 40
1.0
 40
1.0
 10
563.8413453273087
 20
229.0975841620302
 30
0.0
 10
563.8495966072742
 20
229.0228944438914
 30
0.0
 10
563.8990107671253
 20
228.5756026677363
 30
0.0
 10
563.8214544967212
 20
228.1090596304163
 30
0.0
 10
563.7568487348781
 20
227.7204209271678
 30
0.0
  0
LINE
  5
21F
330
1F
100
AcDbEntity
  8
0
  6
Continuous
 62
     7
100
AcDbLine
 10
562.1190582972
 20
223.097584162
 30
0.0
 11
562.1190582972
 21
226.6327612083
 31
0.0
  0
SPLINE
  5
220
330
1F
100
AcDbEntity
  8
0
  6
Continuous
 62
     7
100
AcDbSpline
210
0.0
220
0.0
230
1.0
 70
     8
 71
     3
 72
    12
 73
     8
 74
     0
 42
0.00000001
 43
0.00000001
 40
0.0
 40
0.0
 40
0.0
 40
0.0
 40
0.1670444631978567
 40
0.3333684214297495
 40
0.5020689749563536
 40
0.75296758463196
 40
1.0
 40
1.0
 40
1.0
 40
1.0
 10
563.7568487348785
 20
227.808209086651
 30
0.0
 10
563.7545072288998
 20
227.8131992774802
 30
0.0
 10
563.7498343164488
 20
227.823158135185
 30
0.0
 10
563.7441040116554
 20
227.8444670620973
 30
0.0
 10
563.7387464014286
 20
227.8742194445935
 30
0.0
 10
563.7343982130081
 20
227.9142917876171
 30
0.0
 10
563.733798223964
 20
227.9501057162134
 30
0.0
 10
563.7335005587548
 20
227.9678736415685
 30
0.0
  0
LINE
  5
221
330
1F
100
AcDbEntity
  8
0
  6
Continuous
 62
     7
100
AcDbLine
 10
1473.5189032113
 20
228.8427184223
 30
0.0
 11
1472.5189032113
 21
228.7152855524
 31
0.0
  0
LINE
  5
222
330
1F
100
AcDbEntity
  8
0
  6
Continuous
 62
     7
100
AcDbLine
 10
1472.5189032113
 20
228.7152855524
 30
0.0
 11
1472.5189032113
 21
232.097584162
 31
0.0
  0
LINE
  5
223
330
1F
100
AcDbEntity
  8
0
  6
Continuous
 62
     7
100
AcDbLine
 10
1473.5189032113
 20
231.097584162
 30
0.0
 11
1473.5189032113
 21
228.8427184223
 31
0.0
  0
LINE
  5
224
330
1F
100
AcDbEntity
  8
0
  6
Continuous
 62
     7
100
AcDbLine
 10
550.5190582972
 20
232.097584162
 30
0.0
 11
550.5190582972
 21
227.8651726852
 31
0.0
  0
LINE
  5
225
330
1F
100
AcDbEntity
  8
0
  6
Continuous
 62
     7
100
AcDbLine
 10
549.5190582972
 20
228.2759765108
 30
0.0
 11
550.5190582972
 21
227.8651726852
 31
0.0
  0
LINE
  5
226
330
1F
100
AcDbEntity
  8
0
  6
Continuous
 62
     7
100
AcDbLine
 10
549.5190582972
 20
228.2759765108
 30
0.0
 11
549.5190582972
 21
231.097584162
 31
0.0
  0
LINE
  5
227
330
1F
100
AcDbEntity
  8
0
  6
Continuous
 62
     7
100
AcDbLine
 10
1472.5189032113
 20
226.097584162
 30
0.0
 11
1472.5189032113
 21
228.7152855524
 31
0.0
  0
LINE
  5
228
330
1F
100
AcDbEntity
  8
0
  6
Continuous
 62
     7
100
AcDbLine
 10
1473.5189032113
 20
228.8427184223
 30
0.0
 11
1473.5189032113
 21
227.097584162
 31
0.0
  0
LINE
  5
229
330
1F
100
AcDbEntity
  8
0
  6
Continuous
 62
     7
100
AcDbLine
 10
550.5190582972
 20
227.8651726852
 30
0.0
 11
550.5190582972
 21
226.097584162
 31
0.0
  0
LINE
  5
22A
330
1F
100
AcDbEntity
  8
0
  6
Continuous
 62
     7
100
AcDbLine
 10
549.5190582972
 20
227.097584162
 30
0.0
 11
549.5190582972
 21
228.2759765108
 31
0.0
  0
LINE
  5
22B
330
1F
100
AcDbEntity
  8
0
  6
Continuous
 62
     7
100
AcDbLine
 10
1462.5189032113
 20
240.597594162
 30
0.0
 11
1462.5189032113
 21
238.097594162
 31
0.0
  0
LINE
  5
22C
330
1F
100
AcDbEntity
  8
0
  6
Continuous
 62
     7
100
AcDbLine
 10
560.5190582972
 20
238.097594162
 30
0.0
 11
1462.5189032113
 21
238.097594162
 31
0.0
  0
LINE
  5
22D
330
1F
100
AcDbEntity
  8
0
  6
Continuous
 62
     7
100
AcDbLine
 10
560.5190582972
 20
240.597594162
 30
0.0
 11
560.5190582972
 21
238.097594162
 31
0.0
  0
LINE
  5
22E
330
1F
100
AcDbEntity
  8
0
  6
Continuous
 62
     7
100
AcDbLine
 10
560.5190582972
 20
240.597594162
 30
0.0
 11
558.5190582972
 21
242.597594162
 31
0.0
  0
LINE
  5
22F
330
1F
100
AcDbEntity
  8
0
  6
Continuous
 62
     7
100
AcDbLine
 10
558.5190582972
 20
242.597594162
 30
0.0
 11
558.5190582972
 21
254.097594162
 31
0.0
  0
LINE
  5
230
330
1F
100
AcDbEntity
  8
0
  6
Continuous
 62
     7
100
AcDbLine
 10
558.5190582972
 20
254.097594162
 30
0.0
 11
1464.5189032113
 21
254.097594162
 31
0.0
  0
LINE
  5
231
330
1F
100
AcDbEntity
  8
0
  6
Continuous
 62
     7
100
AcDbLine
 10
1464.5189032113
 20
254.097594162
 30
0.0
 11
1464.5189032113
 21
242.597594162
 31
0.0
  0
LINE
  5
232
330
1F
100
AcDbEntity
  8
0
  6
Continuous
 62
     7
100
AcDbLine
 10
1464.5189032113
 20
242.597594162
 30
0.0
 11
1462.5189032113
 21
240.597594162
 31
0.0
  0
LINE
  5
233
330
1F
100
AcDbEntity
  8
0
  6
Continuous
 62
     7
100
AcDbLine
 10
560.5190582972
 20
239.597594162
 30
0.0
 11
558.0190582972
 21
239.597594162
 31
0.0
  0
LINE
  5
234
330
1F
100
AcDbEntity
  8
0
  6
Continuous
 62
     7
100
AcDbLine
 10
560.5190582972
 20
238.097594162
 30
0.0
 11
559.5190582972
 21
238.097594162
 31
0.0
  0
LINE
  5
235
330
1F
100
AcDbEntity
  8
0
  6
Continuous
 62
     7
100
AcDbLine
 10
558.0190582972
 20
237.097594162
 30
0.0
 11
558.0190582972
 21
239.597594162
 31
0.0
  0
LINE
  5
236
330
1F
100
AcDbEntity
  8
0
  6
Continuous
 62
     7
100
AcDbLine
 10
559.5190582972
 20
237.097594162
 30
0.0
 11
559.5190582972
 21
238.097594162
 31
0.0
  0
LINE
  5
237
330
1F
100
AcDbEntity
  8
0
  6
Continuous
 62
     7
100
AcDbLine
 10
1462.5189032113
 20
239.597594162
 30
0.0
 11
1465.0189032113
 21
239.597594162
 31
0.0
  0
LINE
  5
238
330
1F
100
AcDbEntity
  8
0
  6
Continuous
 62
     7
100
AcDbLine
 10
1462.5189032113
 20
238.097594162
 30
0.0
 11
1463.5189032113
 21
238.097594162
 31
0.0
  0
LINE
  5
239
330
1F
100
AcDbEntity
  8
0
  6
Continuous
 62
     7
100
AcDbLine
 10
1463.5189032113
 20
237.097594162
 30
0.0
 11
1463.5189032113
 21
238.097594162
 31
0.0
  0
LINE
  5
23A
330
1F
100
AcDbEntity
  8
0
  6
Continuous
 62
     7
100
AcDbLine
 10
1465.0189032113
 20
237.097594162
 30
0.0
 11
1465.0189032113
 21
239.597594162
 31
0.0
  0
LINE
  5
23B
330
1F
100
AcDbEntity
  8
0
  6
Continuous
 62
     7
100
AcDbLine
 10
883.5189032113
 20
230.597594162
 30
0.0
 11
888.6456869052
 21
230.597594162
 31
0.0
  0
LINE
  5
23C
330
1F
100
AcDbEntity
  8
0
  6
Continuous
 62
     7
100
AcDbLine
 10
887.9367590072
 20
229.597594162
 30
0.0
 11
888.6456869052
 21
230.597594162
 31
0.0
  0
LINE
  5
23D
330
1F
100
AcDbEntity
  8
0
  6
Continuous
 62
     7
100
AcDbLine
 10
887.9367590072
 20
229.597594162
 30
0.0
 11
884.5189032113
 21
229.597594162
 31
0.0
  0
LINE
  5
23E
330
1F
100
AcDbEntity
  8
0
  6
Continuous
 62
     7
100
AcDbLine
 10
1134.7232980304
 20
229.597594162
 30
0.0
 11
1133.8254954399
 21
230.597594162
 31
0.0
  0
LINE
  5
23F
330
1F
100
AcDbEntity
  8
0
  6
Continuous
 62
     7
100
AcDbLine
 10
1133.8254954399
 20
230.597594162
 30
0.0
 11
1139.5189032113
 21
230.597594162
 31
0.0
  0
LINE
  5
240
330
1F
100
AcDbEntity
  8
0
  6
Continuous
 62
     7
100
AcDbLine
 10
1138.5189032113
 20
229.597594162
 30
0.0
 11
1134.7232980304
 21
229.597594162
 31
0.0
  0
LINE
  5
241
330
1F
100
AcDbEntity
  8
0
  6
Continuous
 62
     7
100
AcDbLine
 10
608.5189032113
 20
230.597594162
 30
0.0
 11
613.9866540088
 21
230.597594162
 31
0.0
  0
LINE
  5
242
330
1F
100
AcDbEntity
  8
0
  6
Continuous
 62
     7
100
AcDbLine
 10
613.1640704097
 20
229.597594162
 30
0.0
 11
613.9866540088
 21
230.597594162
 31
0.0
  0
LINE
  5
243
330
1F
100
AcDbEntity
  8
0
  6
Continuous
 62
     7
100
AcDbLine
 10
613.1640704097
 20
229.597594162
 30
0.0
 11
609.5189032113
 21
229.597594162
 31
0.0
  0
LINE
  5
244
330
1F
100
AcDbEntity
  8
0
  6
Continuous
 62
     7
100
AcDbLine
 10
1414.5189032113
 20
233.012594162
 30
0.0
 11
1408.5189032113
 21
233.012594162
 31
0.0
  0
LINE
  5
245
330
1F
100
AcDbEntity
  8
0
  6
Continuous
 62
     7
100
AcDbLine
 10
1414.0189032113
 20
232.512594162
 30
0.0
 11
1414.5189032113
 21
233.012594162
 31
0.0
  0
LINE
  5
246
330
1F
100
AcDbEntity
  8
0
  6
Continuous
 62
     7
100
AcDbLine
 10
1414.0189032113
 20
232.512594162
 30
0.0
 11
1409.0189032113
 21
232.512594162
 31
0.0
  0
LINE
  5
247
330
1F
100
AcDbEntity
  8
0
  6
Continuous
 62
     7
100
AcDbLine
 10
1409.0189032113
 20
232.512594162
 30
0.0
 11
1408.5189032113
 21
233.012594162
 31
0.0
  0
LINE
  5
248
330
1F
100
AcDbEntity
  8
0
  6
Continuous
 62
     7
100
AcDbLine
 10
1408.5189032113
 20
238.097594162
 30
0.0
 11
1408.5189032113
 21
233.012594162
 31
0.0
  0
LINE
  5
249
330
1F
100
AcDbEntity
  8
0
  6
Continuous
 62
     7
100
AcDbLine
 10
1414.5189032113
 20
238.097594162
 30
0.0
 11
1414.5189032113
 21
233.012594162
 31
0.0
  0
LINE
  5
24A
330
1F
100
AcDbEntity
  8
0
  6
Continuous
 62
     7
100
AcDbLine
 10
888.6456869052
 20
230.597594162
 30
0.0
 11
889.5189032113
 21
230.597594162
 31
0.0
  0
LINE
  5
24B
330
1F
100
AcDbEntity
  8
0
  6
Continuous
 62
     7
100
AcDbLine
 10
888.5189032113
 20
229.597594162
 30
0.0
 11
887.9367590072
 21
229.597594162
 31
0.0
  0
LINE
  5
24C
330
1F
100
AcDbEntity
  8
0
  6
Continuous
 62
     7
100
AcDbLine
 10
613.9866540088
 20
230.597594162
 30
0.0
 11
614.5189032113
 21
230.597594162
 31
0.0
  0
LINE
  5
24D
330
1F
100
AcDbEntity
  8
0
  6
Continuous
 62
     7
100
AcDbLine
 10
613.5189032113
 20
229.597594162
 30
0.0
 11
613.1640704097
 21
229.597594162
 31
0.0
  0
LINE
  5
24E
330
1F
100
AcDbEntity
  8
0
  6
Continuous
 62
     7
100
AcDbLine
 10
1133.5189032113
 20
230.597594162
 30
0.0
 11
1133.8254954399
 21
230.597594162
 31
0.0
  0
LINE
  5
24F
330
1F
100
AcDbEntity
  8
0
  6
Continuous
 62
     7
100
AcDbLine
 10
1134.7232980304
 20
229.597594162
 30
0.0
 11
1134.5189032113
 21
229.597594162
 31
0.0
  0
SPLINE
  5
250
330
1F
100
AcDbEntity
  8
0
  6
Continuous
 62
     7
100
AcDbSpline
210
0.0
220
0.0
230
1.0
 70
     8
 71
     3
 72
     9
 73
     5
 74
     0
 42
0.00000001
 43
0.00000001
 40
0.0
 40
0.0
 40
0.0
 40
0.0
 40
0.8253176553874976
 40
1.0
 40
1.0
 40
1.0
 40
1.0
 10
563.8001306543127
 20
227.8276819530604
 30
0.0
 10
563.8381049173607
 20
228.0594858364873
 30
0.0
 10
563.8841166109191
 20
228.3403520967856
 30
0.0
 10
563.8545287252822
 20
228.5910149823062
 30
0.0
 10
563.8493602440469
 20
228.6348013628563
 30
0.0
  0
SPLINE
  5
251
330
1F
100
AcDbEntity
  8
0
  6
Continuous
 62
     7
100
AcDbSpline
210
0.0
220
0.0
230
1.0
 70
     8
 71
     3
 72
     9
 73
     5
 74
     0
 42
0.00000001
 43
0.00000001
 40
0.0
 40
0.0
 40
0.0
 40
0.0
 40
0.520277605557848
 40
1.0
 40
1.0
 40
1.0
 40
1.0
 10
1459.216913308572
 20
229.5761889362028
 30
0.0
 10
1459.195881386924
 20
229.426441924811
 30
0.0
 10
1459.15545696461
 20
229.1386205583093
 30
0.0
 10
1459.19477399388
 20
228.8523477603269
 30
0.0
 10
1459.213635253303
 20
228.7150162882151
 30
0.0
  0
LINE
  5
252
330
1F
100
AcDbEntity
  8
0
  6
Continuous
 62
     7
100
AcDbLine
 10
1459.216914796
 20
226.8603853193
 30
0.0
 11
1459.175402627
 21
227.1342971636
 31
0.0
  0
SPLINE
  5
253
330
1F
100
AcDbEntity
  8
0
  6
Continuous
 62
     7
100
AcDbSpline
210
0.0
220
0.0
230
1.0
 70
     8
 71
     3
 72
     9
 73
     5
 74
     0
 42
0.00000001
 43
0.00000001
 40
0.0
 40
0.0
 40
0.0
 40
0.0
 40
0.7015865764355655
 40
0.9999999999999999
 40
0.9999999999999999
 40
0.9999999999999999
 40
0.9999999999999999
 10
563.8208900151865
 20
227.7910429684928
 30
0.0
 10
563.8445189940688
 20
227.7095932567016
 30
0.0
 10
563.8781983426711
 20
227.5934996561014
 30
0.0
 10
563.852518293587
 20
227.4142414687364
 30
0.0
 10
563.8448550222226
 20
227.3607484193428
 30
0.0
  0
SPLINE
  5
254
330
1F
100
AcDbEntity
  8
0
  6
Continuous
 62
     7
100
AcDbSpline
210
0.0
220
0.0
230
1.0
 70
     8
 71
     3
 72
     9
 73
     5
 74
     0
 42
0.00000001
 43
0.00000001
 40
0.0
 40
0.0
 40
0.0
 40
0.0
 40
0.7048057871903235
 40
0.9999999999999999
 40
0.9999999999999999
 40
0.9999999999999999
 40
0.9999999999999999
 10
563.8058924351933
 20
230.3052024546601
 30
0.0
 10
563.8380868152788
 20
230.0957017313227
 30
0.0
 10
563.8837651860737
 20
229.7984556996569
 30
0.0
 10
563.8490879834704
 20
229.5333131469342
 30
0.0
 10
563.8388514739454
 20
229.4550445998009
 30
0.0
  0
LINE
  5
255
330
1F
100
AcDbEntity
  8
0
  6
Continuous
 62
     7
100
AcDbLine
 10
558.0190582972
 20
227.8651726852
 30
0.0
 11
550.5190582972
 21
227.8651726852
 31
0.0
  0
LINE
  5
256
330
1F
100
AcDbEntity
  8
0
  6
Continuous
 62
     7
100
AcDbLine
 10
1465.0189032113
 20
228.7152855524
 30
0.0
 11
1472.5189032113
 21
228.7152855524
 31
0.0
  0
LINE
  5
257
330
1F
100
AcDbEntity
  8
0
  6
Continuous
 62
     7
100
AcDbLine
 10
888.6456869052
 20
238.097594162
 30
0.0
 11
888.6456869052
 21
230.597594162
 31
0.0
  0
LINE
  5
258
330
1F
100
AcDbEntity
  8
0
  6
Continuous
 62
     7
100
AcDbLine
 10
1133.8254954399
 20
238.097594162
 30
0.0
 11
1133.8254954399
 21
230.597594162
 31
0.0
  0
LINE
  5
259
330
1F
100
AcDbEntity
  8
0
  6
Continuous
 62
     7
100
AcDbLine
 10
613.9866540088
 20
238.097594162
 30
0.0
 11
613.9866540088
 21
230.597594162
 31
0.0
  0
ARC
  5
25A
330
1F
100
AcDbEntity
  8
0
  6
Continuous
 62
     7
100
AcDbCircle
 10
1468.9189032113
 20
80.50884728
 30
0.0
 40
10.0
100
AcDbArc
 50
143.1301023542
 51
164.354572241
  0
LINE
  5
25B
330
1F
100
AcDbEntity
  8
0
  6
Continuous
 62
     7
100
AcDbLine
 10
562.1190582972
 20
86.50884728
 30
0.0
 11
559.5190582972
 21
86.50884728
 31
0.0
  0
LINE
  5
25C
330
1F
100
AcDbEntity
  8
0
  6
Continuous
 62
     7
100
AcDbLine
 10
1463.5189032113
 20
86.50884728
 30
0.0
 11
1460.9189032113
 21
86.50884728
 31
0.0
  0
ARC
  5
25D
330
1F
100
AcDbEntity
  8
0
  6
Continuous
 62
     7
100
AcDbCircle
 10
554.1190582972
 20
80.50884728
 30
0.0
 40
10.0
100
AcDbArc
 50
14.0185748237
 51
36.8698976458
  0
ARC
  5
25E
330
1F
100
AcDbEntity
  8
0
  6
Continuous
 62
     7
100
AcDbCircle
 10
1468.9189032113
 20
80.50884728
 30
0.0
 40
10.00000000000017
100
AcDbArc
 50
198.2222763867
 51
216.8698976458
  0
LINE
  5
25F
330
1F
100
AcDbEntity
  8
0
  6
Continuous
 62
     7
100
AcDbLine
 10
1460.9189032113
 20
74.50884728
 30
0.0
 11
1463.5189032113
 21
74.50884728
 31
0.0
  0
ARC
  5
260
330
1F
100
AcDbEntity
  8
0
  6
Continuous
 62
     7
100
AcDbCircle
 10
554.1190582972
 20
80.50884728
 30
0.0
 40
9.999999999999991
100
AcDbArc
 50
323.1301023542
 51
346.0091186353
  0
LINE
  5
261
330
1F
100
AcDbEntity
  8
0
  6
Continuous
 62
     7
100
AcDbLine
 10
559.5190582972
 20
74.50884728
 30
0.0
 11
562.1190582972
 21
74.50884728
 31
0.0
  0
LINE
  5
262
330
1F
100
AcDbEntity
  8
0
  6
Continuous
 62
     7
100
AcDbLine
 10
1472.5189032113
 20
83.50884728
 30
0.0
 11
1465.0189032113
 21
83.50884728
 31
0.0
  0
LINE
  5
263
330
1F
100
AcDbEntity
  8
0
  6
Continuous
 62
     7
100
AcDbLine
 10
558.0190582972
 20
83.50884728
 30
0.0
 11
550.5190582972
 21
83.50884728
 31
0.0
  0
LINE
  5
264
330
1F
100
AcDbEntity
  8
0
  6
Continuous
 62
     7
100
AcDbLine
 10
550.5190582972
 20
83.50884728
 30
0.0
 11
549.5190582972
 21
82.50884728
 31
0.0
  0
LINE
  5
265
330
1F
100
AcDbEntity
  8
0
  6
Continuous
 62
     7
100
AcDbLine
 10
1473.5189032113
 20
82.50884728
 30
0.0
 11
1472.5189032113
 21
83.50884728
 31
0.0
  0
LINE
  5
266
330
1F
100
AcDbEntity
  8
0
  6
Continuous
 62
     7
100
AcDbLine
 10
1465.0189032113
 20
77.50884728
 30
0.0
 11
1472.5189032113
 21
77.50884728
 31
0.0
  0
LINE
  5
267
330
1F
100
AcDbEntity
  8
0
  6
Continuous
 62
     7
100
AcDbLine
 10
1472.5189032113
 20
77.50884728
 30
0.0
 11
1473.5189032113
 21
78.50884728
 31
0.0
  0
LINE
  5
268
330
1F
100
AcDbEntity
  8
0
  6
Continuous
 62
     7
100
AcDbLine
 10
549.5190582972
 20
78.50884728
 30
0.0
 11
550.5190582972
 21
77.50884728
 31
0.0
  0
LINE
  5
269
330
1F
100
AcDbEntity
  8
0
  6
Continuous
 62
     7
100
AcDbLine
 10
550.5190582972
 20
77.50884728
 30
0.0
 11
558.0190582972
 21
77.50884728
 31
0.0
  0
LINE
  5
26A
330
1F
100
AcDbEntity
  8
0
  6
Continuous
 62
     7
100
AcDbLine
 10
614.5189032113
 20
79.00883728
 30
0.0
 11
613.5189032113
 21
80.00883728
 31
0.0
  0
LINE
  5
26B
330
1F
100
AcDbEntity
  8
0
  6
Continuous
 62
     7
100
AcDbLine
 10
614.5189032113
 20
71.50883728
 30
0.0
 11
614.5189032113
 21
79.00883728
 31
0.0
  0
LINE
  5
26C
330
1F
100
AcDbEntity
  8
0
  6
Continuous
 62
     7
100
AcDbLine
 10
1134.5189032113
 20
80.00883728
 30
0.0
 11
1133.5189032113
 21
79.00883728
 31
0.0
  0
LINE
  5
26D
330
1F
100
AcDbEntity
  8
0
  6
Continuous
 62
     7
100
AcDbLine
 10
1133.5189032113
 20
79.00883728
 30
0.0
 11
1133.5189032113
 21
71.50883728
 31
0.0
  0
LINE
  5
26E
330
1F
100
AcDbEntity
  8
0
  6
Continuous
 62
     7
100
AcDbLine
 10
889.5189032113
 20
79.00883728
 30
0.0
 11
888.5189032113
 21
80.00883728
 31
0.0
  0
LINE
  5
26F
330
1F
100
AcDbEntity
  8
0
  6
Continuous
 62
     7
100
AcDbLine
 10
889.5189032113
 20
71.50883728
 30
0.0
 11
889.5189032113
 21
79.00883728
 31
0.0
  0
LINE
  5
270
330
1F
100
AcDbEntity
  8
0
  6
Continuous
 62
     7
100
AcDbLine
 10
884.5189032113
 20
80.00883728
 30
0.0
 11
883.5189032113
 21
79.00883728
 31
0.0
  0
LINE
  5
271
330
1F
100
AcDbEntity
  8
0
  6
Continuous
 62
     7
100
AcDbLine
 10
883.5189032113
 20
79.00883728
 30
0.0
 11
883.5189032113
 21
71.50883728
 31
0.0
  0
LINE
  5
272
330
1F
100
AcDbEntity
  8
0
  6
Continuous
 62
     7
100
AcDbLine
 10
609.5189032113
 20
80.00883728
 30
0.0
 11
608.5189032113
 21
79.00883728
 31
0.0
  0
LINE
  5
273
330
1F
100
AcDbEntity
  8
0
  6
Continuous
 62
     7
100
AcDbLine
 10
608.5189032113
 20
79.00883728
 30
0.0
 11
608.5189032113
 21
71.50883728
 31
0.0
  0
LINE
  5
274
330
1F
100
AcDbEntity
  8
0
  6
Continuous
 62
     7
100
AcDbLine
 10
1139.5189032113
 20
71.50883728
 30
0.0
 11
1139.5189032113
 21
79.00883728
 31
0.0
  0
LINE
  5
275
330
1F
100
AcDbEntity
  8
0
  6
Continuous
 62
     7
100
AcDbLine
 10
1139.5189032113
 20
79.00883728
 30
0.0
 11
1138.5189032113
 21
80.00883728
 31
0.0
  0
LWPOLYLINE
  5
276
330
1F
100
AcDbEntity
  8
0
  6
Continuous
 62
     7
100
AcDbPolyline
 90
        3
 70
   128
 43
0.0
 10
1459.2883651878
 20
77.8157566062
 10
1459.3207577466
 20
77.7024966891
 10
1459.4203977606
 20
77.3818048749
  0
LINE
  5
277
330
1F
100
AcDbEntity
  8
0
  6
Continuous
 62
     7
100
AcDbLine
 10
1465.0189032113
 20
88.50884728
 30
0.0
 11
1463.5189032113
 21
88.50884728
 31
0.0
  0
LINE
  5
278
330
1F
100
AcDbEntity
  8
0
  6
Continuous
 62
     7
100
AcDbLine
 10
1465.0189032113
 20
85.50884728
 30
0.0
 11
1463.5189032113
 21
85.50884728
 31
0.0
  0
LINE
  5
279
330
1F
100
AcDbEntity
  8
0
  6
Continuous
 62
     7
100
AcDbLine
 10
1465.0189032113
 20
88.50884728
 30
0.0
 11
1465.0189032113
 21
85.50884728
 31
0.0
  0
LINE
  5
27A
330
1F
100
AcDbEntity
  8
0
  6
Continuous
 62
     7
100
AcDbLine
 10
1463.5189032113
 20
88.50884728
 30
0.0
 11
1463.5189032113
 21
85.50884728
 31
0.0
  0
LINE
  5
27B
330
1F
100
AcDbEntity
  8
0
  6
Continuous
 62
     7
100
AcDbLine
 10
558.0190582972
 20
85.50884728
 30
0.0
 11
559.5190582972
 21
85.50884728
 31
0.0
  0
LINE
  5
27C
330
1F
100
AcDbEntity
  8
0
  6
Continuous
 62
     7
100
AcDbLine
 10
558.0190582972
 20
88.50884728
 30
0.0
 11
558.0190582972
 21
85.50884728
 31
0.0
  0
LINE
  5
27D
330
1F
100
AcDbEntity
  8
0
  6
Continuous
 62
     7
100
AcDbLine
 10
558.0190582972
 20
88.50884728
 30
0.0
 11
559.5190582972
 21
88.50884728
 31
0.0
  0
LINE
  5
27E
330
1F
100
AcDbEntity
  8
0
  6
Continuous
 62
     7
100
AcDbLine
 10
559.5190582972
 20
88.50884728
 30
0.0
 11
559.5190582972
 21
85.50884728
 31
0.0
  0
LINE
  5
27F
330
1F
100
AcDbEntity
  8
0
  6
Continuous
 62
     7
100
AcDbLine
 10
1460.9189032113
 20
86.50884728
 30
0.0
 11
1460.9189032113
 21
77.5763682405
 31
0.0
  0
ARC
  5
280
330
1F
100
AcDbEntity
  8
0
  6
Continuous
 62
     7
100
AcDbCircle
 10
1463.5137746839
 20
81.8283952567
 30
0.0
 40
4.981274104638158
100
AcDbArc
 50
212.3251147955
 51
238.6056638844
  0
SPLINE
  5
281
330
1F
100
AcDbEntity
  8
0
  6
Continuous
 62
     7
100
AcDbSpline
210
0.0
220
0.0
230
1.0
 70
     8
 71
     3
 72
    12
 73
     8
 74
     0
 42
0.00000001
 43
0.00000001
 40
0.0
 40
0.0
 40
0.0
 40
0.0
 40
0.1670444632754149
 40
0.3333684215072287
 40
0.5020689749603684
 40
0.7529675847177786
 40
1.0
 40
1.0
 40
1.0
 40
1.0
 10
1459.28111277367
 20
79.3985126763471
 30
0.0
 10
1459.28345427965
 20
79.38561265002159
 30
0.0
 10
1459.288127192103
 20
79.35986823844873
 30
0.0
 10
1459.293857496897
 20
79.31959270886043
 30
0.0
 10
1459.299215107121
 20
79.27253280190037
 30
0.0
 10
1459.303563295539
 20
79.2191711579096
 30
0.0
 10
1459.304163284585
 20
79.18282590945637
 30
0.0
 10
1459.304460949794
 20
79.16479438690017
 30
0.0
  0
SPLINE
  5
282
330
1F
100
AcDbEntity
  8
0
  6
Continuous
 62
     7
100
AcDbSpline
210
0.0
220
0.0
230
1.0
 70
     8
 71
     3
 72
    16
 73
    12
 74
     0
 42
0.00000001
 43
0.00000001
 40
0.0
 40
0.0
 40
0.0
 40
0.0
 40
0.083976298163867
 40
0.1673944919909143
 40
0.2504691101284856
 40
0.333418298278251
 40
0.4164614832460879
 40
0.4998170465142245
 40
0.666391847067971
 40
0.832550528507419
 40
1.0
 40
1.0
 40
1.0
 40
1.0
 10
1459.28111277367
 20
81.6815901666131
 30
0.0
 10
1459.269955111424
 20
81.61948330075136
 30
0.0
 10
1459.247713940472
 20
81.4956823296751
 30
0.0
 10
1459.221601967064
 20
81.30678940312517
 30
0.0
 10
1459.200953446237
 20
81.11666460650987
 30
0.0
 10
1459.186253624513
 20
80.92509694809115
 30
0.0
 10
1459.17739278079
 20
80.73225217800636
 30
0.0
 10
1459.173393604188
 20
80.4740894549561
 30
0.0
 10
1459.183506183691
 20
80.15176641569269
 30
0.0
 10
1459.217712841856
 20
79.7686390442892
 30
0.0
 10
1459.25992502089
 20
79.5222059636582
 30
0.0
 10
1459.28111277367
 20
79.3985126763471
 30
0.0
  0
SPLINE
  5
283
330
1F
100
AcDbEntity
  8
0
  6
Continuous
 62
     7
100
AcDbSpline
210
0.0
220
0.0
230
1.0
 70
     8
 71
     3
 72
    14
 73
    10
 74
     0
 42
0.00000001
 43
0.00000001
 40
0.0
 40
0.0
 40
0.0
 40
0.0
 40
0.0837468195904906
 40
0.1671107192730607
 40
0.2516773658223166
 40
0.4999233232852683
 40
0.7483582931476329
 40
0.8745973259411207
 40
0.9999999999999999
 40
0.9999999999999999
 40
0.9999999999999999
 40
0.9999999999999999
 10
1459.28111277367
 20
82.05370721875356
 30
0.0
 10
1459.283454299293
 20
82.05014813167705
 30
0.0
 10
1459.288126644259
 20
82.04304623092165
 30
0.0
 10
1459.29384721871
 20
82.02573347528178
 30
0.0
 10
1459.301488275401
 20
81.98989615142777
 30
0.0
 10
1459.306695325238
 20
81.91898116914939
 30
0.0
 10
1459.301066532265
 20
81.82112281501632
 30
0.0
 10
1459.29145935473
 20
81.74046167733707
 30
0.0
 10
1459.284553983772
 20
81.7011704739839
 30
0.0
 10
1459.28111277367
 20
81.6815901666131
 30
0.0
  0
SPLINE
  5
284
330
1F
100
AcDbEntity
  8
0
  6
Continuous
 62
     7
100
AcDbSpline
210
0.0
220
0.0
230
1.0
 70
     8
 71
     3
 72
    13
 73
     9
 74
     0
 42
0.00000001
 43
0.00000001
 40
0.0
 40
0.0
 40
0.0
 40
0.0
 40
0.165906659531236
 40
0.3316675344248181
 40
0.4976216786066407
 40
0.6641068106890292
 40
0.8314569199211069
 40
1.0
 40
1.0
 40
1.0
 40
1.0
 10
1459.175402627043
 20
82.47213427848807
 30
0.0
 10
1459.175967501404
 20
82.44144708133408
 30
0.0
 10
1459.177096753762
 20
82.38009965232048
 30
0.0
 10
1459.186245940855
 20
82.29821855901568
 30
0.0
 10
1459.200810521661
 20
82.22398007312228
 30
0.0
 10
1459.221471486721
 20
82.15838823115033
 30
0.0
 10
1459.247607091727
 20
82.10053798633584
 30
0.0
 10
1459.26991779984
 20
82.06935439222171
 30
0.0
 10
1459.28111277367
 20
82.05370721875356
 30
0.0
  0
SPLINE
  5
285
330
1F
100
AcDbEntity
  8
0
  6
Continuous
 62
     7
100
AcDbSpline
210
0.0
220
0.0
230
1.0
 70
     8
 71
     3
 72
    13
 73
     9
 74
     0
 42
0.00000001
 43
0.00000001
 40
0.0
 40
0.0
 40
0.0
 40
0.0
 40
0.1685430800788726
 40
0.3358931893109363
 40
0.5023783213933217
 40
0.668332465575147
 40
0.8340933404687422
 40
1.0
 40
1.0
 40
1.0
 40
1.0
 10
1459.28111277367
 20
83.16964688588291
 30
0.0
 10
1459.26991779984
 20
83.12456488300933
 30
0.0
 10
1459.247607091727
 20
83.0347199738108
 30
0.0
 10
1459.221471486721
 20
82.90781874552735
 30
0.0
 10
1459.200810521661
 20
82.78755657438329
 30
0.0
 10
1459.186245940855
 20
82.67473951698199
 30
0.0
 10
1459.177096753762
 20
82.56864212546628
 30
0.0
 10
1459.175967501404
 20
82.50431298611639
 30
0.0
 10
1459.175402627043
 20
82.47213427848807
 30
0.0
  0
SPLINE
  5
286
330
1F
100
AcDbEntity
  8
0
  6
Continuous
 62
     7
100
AcDbSpline
210
0.0
220
0.0
230
1.0
 70
     8
 71
     3
 72
    14
 73
    10
 74
     0
 42
0.00000001
 43
0.00000001
 40
0.0
 40
0.0
 40
0.0
 40
0.0
 40
0.0838023324187034
 40
0.1671770642069958
 40
0.251676652377252
 40
0.4999225990002131
 40
0.7483576082026058
 40
0.8746656612984398
 40
0.9999999999999999
 40
0.9999999999999999
 40
0.9999999999999999
 40
0.9999999999999999
 10
1459.28111277367
 20
83.16404182241715
 30
0.0
 10
1459.283455679875
 20
83.17338471483838
 30
0.0
 10
1459.288129537628
 20
83.19202282765818
 30
0.0
 10
1459.293849225611
 20
83.21496369831559
 30
0.0
 10
1459.301489246533
 20
83.24578756096082
 30
0.0
 10
1459.306695305964
 20
83.26734247766706
 30
0.0
 10
1459.301065567869
 20
83.24666473000886
 30
0.0
 10
1459.291458391675
 20
83.2097788668693
 30
0.0
 10
1459.284552405579
 20
83.18298965982828
 30
0.0
 10
1459.28111277367
 20
83.16964688588291
 30
0.0
  0
SPLINE
  5
287
330
1F
100
AcDbEntity
  8
0
  6
Continuous
 62
     7
100
AcDbSpline
210
0.0
220
0.0
230
1.0
 70
     8
 71
     3
 72
     9
 73
     5
 74
     0
 42
0.00000001
 43
0.00000001
 40
0.0
 40
0.0
 40
0.0
 40
0.0
 40
0.9747729501366892
 40
1.0
 40
1.0
 40
1.0
 40
1.0
 10
1459.28111277367
 20
81.99690399928046
 30
0.0
 10
1459.21154727923
 20
82.10084601753904
 30
0.0
 10
1459.140181435081
 20
82.20747804733021
 30
0.0
 10
1459.177201497095
 20
82.45507122186837
 30
0.0
 10
1459.178135404045
 20
82.46131726722824
 30
0.0
  0
LINE
  5
288
330
1F
100
AcDbEntity
  8
0
  6
Continuous
 62
     7
100
AcDbLine
 10
562.1190582972
 20
76.2428387888
 30
0.0
 11
559.5190582972
 21
76.2428387888
 31
0.0
  0
LINE
  5
289
330
1F
100
AcDbEntity
  8
0
  6
Continuous
 62
     7
100
AcDbLine
 10
562.1190582972
 20
76.2428387888
 30
0.0
 11
562.1190582972
 21
86.50884728
 31
0.0
  0
LINE
  5
28A
330
1F
100
AcDbEntity
  8
0
  6
Continuous
 62
     7
100
AcDbLine
 10
1460.9189032113
 20
77.5763682405
 30
0.0
 11
1463.5189032113
 21
77.5763682405
 31
0.0
  0
LINE
  5
28B
330
1F
100
AcDbEntity
  8
0
  6
Continuous
 62
     7
100
AcDbLine
 10
563.7568487349
 20
83.129834116
 30
0.0
 11
563.8055252165
 21
82.9254118899
 31
0.0
  0
LINE
  5
28C
330
1F
100
AcDbEntity
  8
0
  6
Continuous
 62
     7
100
AcDbLine
 10
563.8625588481
 20
82.6858928948
 30
0.0
 11
563.8031850462
 21
82.6101678108
 31
0.0
  0
SPLINE
  5
28D
330
1F
100
AcDbEntity
  8
0
  6
Continuous
 62
     7
100
AcDbSpline
210
0.0
220
0.0
230
1.0
 70
     8
 71
     3
 72
    13
 73
     9
 74
     0
 42
0.00000001
 43
0.00000001
 40
0.0
 40
0.0
 40
0.0
 40
0.0
 40
0.1247566173021924
 40
0.2502697142828938
 40
0.4994973261293907
 40
0.7487509998612667
 40
0.8744077894314988
 40
1.0
 40
1.0
 40
1.0
 40
1.0
 10
563.7437726958547
 20
83.08247372262387
 30
0.0
 10
563.7418441856856
 20
83.09367346953412
 30
0.0
 10
563.7379754715492
 20
83.11614087462961
 30
0.0
 10
563.7335349145937
 20
83.15002455894545
 30
0.0
 10
563.7327634531965
 20
83.17529994678482
 30
0.0
 10
563.739456343613
 20
83.17123973868128
 30
0.0
 10
563.7482139754504
 20
83.15305079655315
 30
0.0
 10
563.7539709749799
 20
83.13757168331192
 30
0.0
 10
563.7568487348785
 20
83.12983411600403
 30
0.0
  0
SPLINE
  5
28E
330
1F
100
AcDbEntity
  8
0
  6
Continuous
 62
     7
100
AcDbSpline
210
0.0
220
0.0
230
1.0
 70
     8
 71
     3
 72
     9
 73
     5
 74
     0
 42
0.00000001
 43
0.00000001
 40
0.0
 40
0.0
 40
0.0
 40
0.0
 40
0.501064808502337
 40
0.9999999999999999
 40
0.9999999999999999
 40
0.9999999999999999
 40
0.9999999999999999
 10
563.7568487348785
 20
83.01546875500631
 30
0.0
 10
563.7543787767474
 20
83.02750061260018
 30
0.0
 10
563.7494493582581
 20
83.05151319019434
 30
0.0
 10
563.7456622282768
 20
83.07216820757277
 30
0.0
 10
563.7437726958547
 20
83.08247372262387
 30
0.0
  0
SPLINE
  5
28F
330
1F
100
AcDbEntity
  8
0
  6
Continuous
 62
     7
100
AcDbSpline
210
0.0
220
0.0
230
1.0
 70
     8
 71
     3
 72
    16
 73
    12
 74
     0
 42
0.00000001
 43
0.00000001
 40
0.0
 40
0.0
 40
0.0
 40
0.0
 40
0.0842371107360232
 40
0.1678795382908356
 40
0.251091032221301
 40
0.3340383251947161
 40
0.4168900028476391
 40
0.4998153101245618
 40
0.6657051861284878
 40
0.8319852586245449
 40
1.0
 40
1.0
 40
1.0
 40
1.0
 10
563.7568487348785
 20
81.39206138141532
 30
0.0
 10
563.7680368745805
 20
81.42435232774976
 30
0.0
 10
563.7903341698117
 20
81.48870625815209
 30
0.0
 10
563.8164662298807
 20
81.59518577457015
 30
0.0
 10
563.8370992516597
 20
81.70829002703505
 30
0.0
 10
563.851758960375
 20
81.82862353410933
 30
0.0
 10
563.8605778382899
 20
81.9558704192325
 30
0.0
 10
563.8645569560277
 20
82.13442633155388
 30
0.0
 10
563.8544762952345
 20
82.37392420292296
 30
0.0
 10
563.8203670011959
 20
82.68332009660251
 30
0.0
 10
563.7780946080188
 20
82.90437018967546
 30
0.0
 10
563.7568487348785
 20
83.01546875500631
 30
0.0
  0
SPLINE
  5
290
330
1F
100
AcDbEntity
  8
0
  6
Continuous
 62
     7
100
AcDbSpline
210
0.0
220
0.0
230
1.0
 70
     8
 71
     3
 72
     9
 73
     5
 74
     0
 42
0.00000001
 43
0.00000001
 40
0.0
 40
0.0
 40
0.0
 40
0.0
 40
0.4989351914991517
 40
0.9999999999999999
 40
0.9999999999999999
 40
0.9999999999999999
 40
0.9999999999999999
 10
563.7437726958545
 20
81.34136564251634
 30
0.0
 10
563.745662228277
 20
81.35098606333868
 30
0.0
 10
563.7494493582582
 20
81.37026796805549
 30
0.0
 10
563.7543787767474
 20
81.38478660391746
 30
0.0
 10
563.7568487348785
 20
81.39206138141532
 30
0.0
  0
SPLINE
  5
291
330
1F
100
AcDbEntity
  8
0
  6
Continuous
 62
     7
100
AcDbSpline
210
0.0
220
0.0
230
1.0
 70
     8
 71
     3
 72
    13
 73
     9
 74
     0
 42
0.00000001
 43
0.00000001
 40
0.0
 40
0.0
 40
0.0
 40
0.0
 40
0.1255391548934414
 40
0.2505272282570565
 40
0.4999057788130233
 40
0.7494227264660273
 40
0.8746535167898188
 40
1.0
 40
1.0
 40
1.0
 40
1.0
 10
563.7568487348785
 20
80.97324535057804
 30
0.0
 10
563.7539693399934
 20
80.98776131605611
 30
0.0
 10
563.7482231899558
 20
81.01672952601245
 30
0.0
 10
563.739440966024
 20
81.0804045210183
 30
0.0
 10
563.7327960190623
 20
81.1648387070109
 30
0.0
 10
563.7334818914248
 20
81.24623239330643
 30
0.0
 10
563.7379502425131
 20
81.30425427705906
 30
0.0
 10
563.7418312807753
 20
81.32899138027899
 30
0.0
 10
563.7437726958545
 20
81.34136564251634
 30
0.0
  0
SPLINE
  5
292
330
1F
100
AcDbEntity
  8
0
  6
Continuous
 62
     7
100
AcDbSpline
210
0.0
220
0.0
230
1.0
 70
     8
 71
     3
 72
    16
 73
    12
 74
     0
 42
0.00000001
 43
0.00000001
 40
0.0
 40
0.0
 40
0.0
 40
0.0
 40
0.0839209305485436
 40
0.1673144080902011
 40
0.2503878622687113
 40
0.3333528283759041
 40
0.416423372463663
 40
0.4998143879353291
 40
0.6663260177571911
 40
0.8324699101780164
 40
1.0
 40
1.0
 40
1.0
 40
1.0
 10
563.7568487348785
 20
78.77107454542194
 30
0.0
 10
563.767998708151
 20
78.83517141545825
 30
0.0
 10
563.7902285757907
 20
78.96296229909669
 30
0.0
 10
563.8163320082357
 20
79.1550615859043
 30
0.0
 10
563.8369837299119
 20
79.34632551576672
 30
0.0
 10
563.851693163213
 20
79.536748728688
 30
0.0
 10
563.8605653748798
 20
79.72619494400361
 30
0.0
 10
563.8645681064631
 20
79.97672333458212
 30
0.0
 10
563.8544680778135
 20
80.28377807585908
 30
0.0
 10
563.820272008184
 20
80.6402457034414
 30
0.0
 10
563.7780482966257
 20
80.8619384719933
 30
0.0
 10
563.7568487348785
 20
80.97324535057804
 30
0.0
  0
SPLINE
  5
293
330
1F
100
AcDbEntity
  8
0
  6
Continuous
 62
     7
100
AcDbSpline
210
0.0
220
0.0
230
1.0
 70
     8
 71
     3
 72
    12
 73
     8
 74
     0
 42
0.00000001
 43
0.00000001
 40
0.0
 40
0.0
 40
0.0
 40
0.0
 40
0.1648509397437378
 40
0.3299215411889555
 40
0.4984060237444102
 40
0.7502078228762343
 40
1.0
 40
1.0
 40
1.0
 40
1.0
 10
563.7335005587548
 20
78.55359338820335
 30
0.0
 10
563.7336322042642
 20
78.56334187298474
 30
0.0
 10
563.7338956706988
 20
78.58285183227483
 30
0.0
 10
563.7360602414852
 20
78.61670196848962
 30
0.0
 10
563.7400623425126
 20
78.65916327032679
 30
0.0
 10
563.7465050689817
 20
78.71104990310087
 30
0.0
 10
563.7534100678067
 20
78.75111984434179
 30
0.0
 10
563.7568487348785
 20
78.77107454542194
 30
0.0
  0
ARC
  5
294
330
1F
100
AcDbEntity
  8
0
  6
Continuous
 62
     7
100
AcDbCircle
 10
557.63057765
 20
81.0981350488
 30
0.0
 40
6.612137346770336
100
AcDbArc
 50
312.7518513413
 51
337.3668803067
  0
LINE
  5
295
330
1F
100
AcDbEntity
  8
0
  6
Continuous
 62
     7
100
AcDbLine
 10
1465.0189032113
 20
75.50884728
 30
0.0
 11
1463.5189032113
 21
75.50884728
 31
0.0
  0
LINE
  5
296
330
1F
100
AcDbEntity
  8
0
  6
Continuous
 62
     7
100
AcDbLine
 10
1465.0189032113
 20
85.50884728
 30
0.0
 11
1465.0189032113
 21
75.50884728
 31
0.0
  0
LINE
  5
297
330
1F
100
AcDbEntity
  8
0
  6
Continuous
 62
     7
100
AcDbLine
 10
1463.5189032113
 20
85.50884728
 30
0.0
 11
1463.5189032113
 21
80.50884728
 31
0.0
  0
LINE
  5
298
330
1F
100
AcDbEntity
  8
0
  6
Continuous
 62
     7
100
AcDbLine
 10
1463.5189032113
 20
80.50884728
 30
0.0
 11
1463.5189032113
 21
75.50884728
 31
0.0
  0
LINE
  5
299
330
1F
100
AcDbEntity
  8
0
  6
Continuous
 62
     7
100
AcDbLine
 10
558.0190582972
 20
75.50884728
 30
0.0
 11
559.5190582972
 21
75.50884728
 31
0.0
  0
LINE
  5
29A
330
1F
100
AcDbEntity
  8
0
  6
Continuous
 62
     7
100
AcDbLine
 10
558.0190582972
 20
85.50884728
 30
0.0
 11
558.0190582972
 21
75.50884728
 31
0.0
  0
LINE
  5
29B
330
1F
100
AcDbEntity
  8
0
  6
Continuous
 62
     7
100
AcDbLine
 10
559.5190582972
 20
80.50884728
 30
0.0
 11
559.5190582972
 21
75.50884728
 31
0.0
  0
LINE
  5
29C
330
1F
100
AcDbEntity
  8
0
  6
Continuous
 62
     7
100
AcDbLine
 10
559.5190582972
 20
85.50884728
 30
0.0
 11
559.5190582972
 21
80.50884728
 31
0.0
  0
LINE
  5
29D
330
1F
100
AcDbEntity
  8
0
  6
Continuous
 62
     7
100
AcDbLine
 10
558.0190582972
 20
72.50884728
 30
0.0
 11
559.5190582972
 21
72.50884728
 31
0.0
  0
LINE
  5
29E
330
1F
100
AcDbEntity
  8
0
  6
Continuous
 62
     7
100
AcDbLine
 10
558.0190582972
 20
75.50884728
 30
0.0
 11
558.0190582972
 21
72.50884728
 31
0.0
  0
LINE
  5
29F
330
1F
100
AcDbEntity
  8
0
  6
Continuous
 62
     7
100
AcDbLine
 10
559.5190582972
 20
75.50884728
 30
0.0
 11
559.5190582972
 21
72.50884728
 31
0.0
  0
LINE
  5
2A0
330
1F
100
AcDbEntity
  8
0
  6
Continuous
 62
     7
100
AcDbLine
 10
1465.0189032113
 20
72.50884728
 30
0.0
 11
1463.5189032113
 21
72.50884728
 31
0.0
  0
LINE
  5
2A1
330
1F
100
AcDbEntity
  8
0
  6
Continuous
 62
     7
100
AcDbLine
 10
1465.0189032113
 20
75.50884728
 30
0.0
 11
1465.0189032113
 21
72.50884728
 31
0.0
  0
LINE
  5
2A2
330
1F
100
AcDbEntity
  8
0
  6
Continuous
 62
     7
100
AcDbLine
 10
1463.5189032113
 20
75.50884728
 30
0.0
 11
1463.5189032113
 21
72.50884728
 31
0.0
  0
SPLINE
  5
2A3
330
1F
100
AcDbEntity
  8
0
  6
Continuous
 62
     7
100
AcDbSpline
210
0.0
220
0.0
230
1.0
 70
     8
 71
     3
 72
     9
 73
     5
 74
     0
 42
0.00000001
 43
0.00000001
 40
0.0
 40
0.0
 40
0.0
 40
0.0
 40
0.9550908855464243
 40
0.9999999999999999
 40
0.9999999999999999
 40
0.9999999999999999
 40
0.9999999999999999
 10
1459.28111277367
 20
77.84804767413841
 30
0.0
 10
1459.212240451854
 20
78.12484384906242
 30
0.0
 10
1459.140129700031
 20
78.41465519488595
 30
0.0
 10
1459.178638337811
 20
78.5584524412176
 30
0.0
 10
1459.180367726633
 20
78.5649102482112
 30
0.0
  0
SPLINE
  5
2A4
330
1F
100
AcDbEntity
  8
0
  6
Continuous
 62
     7
100
AcDbSpline
210
0.0
220
0.0
230
1.0
 70
     8
 71
     3
 72
     9
 73
     5
 74
     0
 42
0.00000001
 43
0.00000001
 40
0.0
 40
0.0
 40
0.0
 40
0.0
 40
0.498935191499221
 40
1.0
 40
1.0
 40
1.0
 40
1.0
 10
1459.294188812694
 20
77.7974764324217
 30
0.0
 10
1459.292299280272
 20
77.80475002165058
 30
0.0
 10
1459.288512150291
 20
77.81932824614307
 30
0.0
 10
1459.283582731802
 20
77.83846094969637
 30
0.0
 10
1459.28111277367
 20
77.84804767413841
 30
0.0
  0
SPLINE
  5
2A5
330
1F
100
AcDbEntity
  8
0
  6
Continuous
 62
     7
100
AcDbSpline
210
0.0
220
0.0
230
1.0
 70
     8
 71
     3
 72
    13
 73
     9
 74
     0
 42
0.00000001
 43
0.00000001
 40
0.0
 40
0.0
 40
0.0
 40
0.0
 40
0.1255391549690864
 40
0.2505272282593621
 40
0.4999057788154442
 40
0.7494227264685986
 40
0.874653516880911
 40
1.0
 40
1.0
 40
1.0
 40
1.0
 10
1459.28111277367
 20
77.8536527376042
 30
0.0
 10
1459.283992168558
 20
77.8421700041974
 30
0.0
 10
1459.289738318596
 20
77.81925494336275
 30
0.0
 10
1459.298520542525
 20
77.78399529610587
 30
0.0
 10
1459.305165489486
 20
77.75687650832994
 30
0.0
 10
1459.304479617125
 20
77.7584533141192
 30
0.0
 10
1459.300011266032
 20
77.77517632852673
 30
0.0
 10
1459.296130227771
 20
77.7900407767948
 30
0.0
 10
1459.294188812694
 20
77.7974764324217
 30
0.0
  0
SPLINE
  5
2A6
330
1F
100
AcDbEntity
  8
0
  6
Continuous
 62
     7
100
AcDbSpline
210
0.0
220
0.0
230
1.0
 70
     8
 71
     3
 72
    16
 73
    12
 74
     0
 42
0.00000001
 43
0.00000001
 40
0.0
 40
0.0
 40
0.0
 40
0.0
 40
0.0839209305058322
 40
0.1673144080219477
 40
0.2503878621920196
 40
0.3333528283076596
 40
0.4164233724204041
 40
0.4998143879331048
 40
0.6663260176884562
 40
0.8324699101093749
 40
1.0
 40
1.0
 40
1.0
 40
1.0
 10
1459.28111277367
 20
79.02079056074088
 30
0.0
 10
1459.269962800404
 20
79.00361771816472
 30
0.0
 10
1459.247732932773
 20
78.96937996636233
 30
0.0
 10
1459.221629500335
 20
78.90711103247791
 30
0.0
 10
1459.200977778658
 20
78.83705806475916
 30
0.0
 10
1459.186268345352
 20
78.7584372409933
 30
0.0
 10
1459.177396133678
 20
78.67144943199456
 30
0.0
 10
1459.173393402083
 20
78.54468596768604
 30
0.0
 10
1459.183493430721
 20
78.3667939616056
 30
0.0
 10
1459.217689500347
 20
78.12588004242286
 30
0.0
 10
1459.259913211914
 20
77.94464614204037
 30
0.0
 10
1459.28111277367
 20
77.8536527376042
 30
0.0
  0
SPLINE
  5
2A7
330
1F
100
AcDbEntity
  8
0
  6
Continuous
 62
     7
100
AcDbSpline
210
0.0
220
0.0
230
1.0
 70
     8
 71
     3
 72
    12
 73
     8
 74
     0
 42
0.00000001
 43
0.00000001
 40
0.0
 40
0.0
 40
0.0
 40
0.0
 40
0.1648509396537497
 40
0.3299215410991259
 40
0.4984060237397552
 40
0.7502078227734322
 40
1.0
 40
1.0
 40
1.0
 40
1.0
 10
1459.304460949794
 20
79.16479438690017
 30
0.0
 10
1459.304329304285
 20
79.15340785682636
 30
0.0
 10
1459.30406583785
 20
79.13061962427145
 30
0.0
 10
1459.301901267062
 20
79.10024199429171
 30
0.0
 10
1459.297899166039
 20
79.06907172724426
 30
0.0
 10
1459.29145643957
 20
79.0394669354599
 30
0.0
 10
1459.284551440744
 20
79.02699936866489
 30
0.0
 10
1459.28111277367
 20
79.02079056074088
 30
0.0
  0
LINE
  5
2A8
330
1F
100
AcDbEntity
  8
0
  6
Continuous
 62
     7
100
AcDbLine
 10
1460.9189032113
 20
77.5763682405
 30
0.0
 11
1460.9189032113
 21
74.50884728
 31
0.0
  0
LINE
  5
2A9
330
1F
100
AcDbEntity
  8
0
  6
Continuous
 62
     7
100
AcDbLine
 10
562.1190582972
 20
74.50884728
 30
0.0
 11
562.1190582972
 21
76.2428387888
 31
0.0
  0
SPLINE
  5
2AA
330
1F
100
AcDbEntity
  8
0
  6
Continuous
 62
     7
100
AcDbSpline
210
0.0
220
0.0
230
1.0
 70
     8
 71
     3
 72
    12
 73
     8
 74
     0
 42
0.00000001
 43
0.00000001
 40
0.0
 40
0.0
 40
0.0
 40
0.0
 40
0.1670444632398932
 40
0.3333684214717526
 40
0.5020689749585194
 40
0.7529675846784923
 40
1.0
 40
1.0
 40
1.0
 40
1.0
 10
563.7568487348785
 20
78.4666238755824
 30
0.0
 10
563.7545072288992
 20
78.4668410842132
 30
0.0
 10
563.7498343164474
 20
78.46727456459907
 30
0.0
 10
563.7441040116537
 20
78.47482157661359
 30
0.0
 10
563.7387464014281
 20
78.48945971278722
 30
0.0
 10
563.7343982130087
 20
78.51365459304897
 30
0.0
 10
563.7337982239643
 20
78.54034954763688
 30
0.0
 10
563.7335005587548
 20
78.55359338820335
 30
0.0
  0
SPLINE
  5
2AB
330
1F
100
AcDbEntity
  8
0
  6
Continuous
 62
     7
100
AcDbSpline
210
0.0
220
0.0
230
1.0
 70
     8
 71
     3
 72
     9
 73
     5
 74
     0
 42
0.00000001
 43
0.00000001
 40
0.0
 40
0.0
 40
0.0
 40
0.0
 40
0.3479935215830201
 40
1.0
 40
1.0
 40
1.0
 40
1.0
 10
563.8060760233454
 20
78.094595844113
 30
0.0
 10
563.8314518939154
 20
78.1832486308936
 30
0.0
 10
563.9043724197182
 20
78.43800276073289
 30
0.0
 10
563.8150727185565
 20
78.45532782284582
 30
0.0
 10
563.7568487348781
 20
78.4666238755824
 30
0.0
  0
LINE
  5
2AC
330
1F
100
AcDbEntity
  8
0
  6
Continuous
 62
     7
100
AcDbLine
 10
563.8625588815
 20
78.9264034223
 30
0.0
 11
563.8088814567
 21
78.4571251535
 31
0.0
  0
SPLINE
  5
2AD
330
1F
100
AcDbEntity
  8
0
  6
Continuous
 62
     7
100
AcDbSpline
210
0.0
220
0.0
230
1.0
 70
     8
 71
     3
 72
     9
 73
     5
 74
     0
 42
0.00000001
 43
0.00000001
 40
0.0
 40
0.0
 40
0.0
 40
0.0
 40
0.4880035674638826
 40
1.0
 40
1.0
 40
1.0
 40
1.0
 10
563.8059047448611
 20
81.71633250712912
 30
0.0
 10
563.8340001505854
 20
81.50851211272
 30
0.0
 10
563.8915722824255
 20
81.0826537619519
 30
0.0
 10
563.8331149954676
 20
80.70315122504526
 30
0.0
 10
563.8031850730894
 20
80.50884728001064
 30
0.0
  0
LINE
  5
2AE
330
1F
100
AcDbEntity
  8
0
  6
Continuous
 62
     7
100
AcDbLine
 10
1472.5189032113
 20
79.0426077603
 30
0.0
 11
1472.5189032113
 21
83.50884728
 31
0.0
  0
LINE
  5
2AF
330
1F
100
AcDbEntity
  8
0
  6
Continuous
 62
     7
100
AcDbLine
 10
550.5190582972
 20
83.50884728
 30
0.0
 11
550.5190582972
 21
78.3758430344
 31
0.0
  0
LINE
  5
2B0
330
1F
100
AcDbEntity
  8
0
  6
Continuous
 62
     7
100
AcDbLine
 10
549.5190582972
 20
79.0868444496
 30
0.0
 11
550.5190582972
 21
78.3758430344
 31
0.0
  0
LINE
  5
2B1
330
1F
100
AcDbEntity
  8
0
  6
Continuous
 62
     7
100
AcDbLine
 10
549.5190582972
 20
79.0868444496
 30
0.0
 11
549.5190582972
 21
82.50884728
 31
0.0
  0
LINE
  5
2B2
330
1F
100
AcDbEntity
  8
0
  6
Continuous
 62
     7
100
AcDbLine
 10
1473.5189032113
 20
82.50884728
 30
0.0
 11
1473.5189032113
 21
79.5313542668
 31
0.0
  0
LINE
  5
2B3
330
1F
100
AcDbEntity
  8
0
  6
Continuous
 62
     7
100
AcDbLine
 10
1473.5189032113
 20
79.5313542668
 30
0.0
 11
1472.5189032113
 21
79.0426077603
 31
0.0
  0
LINE
  5
2B4
330
1F
100
AcDbEntity
  8
0
  6
Continuous
 62
     7
100
AcDbLine
 10
1472.5189032113
 20
77.50884728
 30
0.0
 11
1472.5189032113
 21
79.0426077603
 31
0.0
  0
LINE
  5
2B5
330
1F
100
AcDbEntity
  8
0
  6
Continuous
 62
     7
100
AcDbLine
 10
1473.5189032113
 20
79.5313542668
 30
0.0
 11
1473.5189032113
 21
78.50884728
 31
0.0
  0
LINE
  5
2B6
330
1F
100
AcDbEntity
  8
0
  6
Continuous
 62
     7
100
AcDbLine
 10
550.5190582972
 20
78.3758430344
 30
0.0
 11
550.5190582972
 21
77.50884728
 31
0.0
  0
LINE
  5
2B7
330
1F
100
AcDbEntity
  8
0
  6
Continuous
 62
     7
100
AcDbLine
 10
549.5190582972
 20
78.50884728
 30
0.0
 11
549.5190582972
 21
79.0868444496
 31
0.0
  0
LINE
  5
2B8
330
1F
100
AcDbEntity
  8
0
  6
Continuous
 62
     7
100
AcDbLine
 10
560.5190582972
 20
69.00883728
 30
0.0
 11
558.5190582972
 21
67.00883728
 31
0.0
  0
LINE
  5
2B9
330
1F
100
AcDbEntity
  8
0
  6
Continuous
 62
     7
100
AcDbLine
 10
560.5190582972
 20
69.00883728
 30
0.0
 11
560.5190582972
 21
71.50883728
 31
0.0
  0
LINE
  5
2BA
330
1F
100
AcDbEntity
  8
0
  6
Continuous
 62
     7
100
AcDbLine
 10
1462.5189032113
 20
71.50883728
 30
0.0
 11
560.5190582972
 21
71.50883728
 31
0.0
  0
LINE
  5
2BB
330
1F
100
AcDbEntity
  8
0
  6
Continuous
 62
     7
100
AcDbLine
 10
1462.5189032113
 20
69.00883728
 30
0.0
 11
1462.5189032113
 21
71.50883728
 31
0.0
  0
LINE
  5
2BC
330
1F
100
AcDbEntity
  8
0
  6
Continuous
 62
     7
100
AcDbLine
 10
1464.5189032113
 20
67.00883728
 30
0.0
 11
1462.5189032113
 21
69.00883728
 31
0.0
  0
LINE
  5
2BD
330
1F
100
AcDbEntity
  8
0
  6
Continuous
 62
     7
100
AcDbLine
 10
1464.5189032113
 20
55.50883728
 30
0.0
 11
1464.5189032113
 21
67.00883728
 31
0.0
  0
LINE
  5
2BE
330
1F
100
AcDbEntity
  8
0
  6
Continuous
 62
     7
100
AcDbLine
 10
558.5190582972
 20
55.50883728
 30
0.0
 11
1464.5189032113
 21
55.50883728
 31
0.0
  0
LINE
  5
2BF
330
1F
100
AcDbEntity
  8
0
  6
Continuous
 62
     7
100
AcDbLine
 10
558.5190582972
 20
67.00883728
 30
0.0
 11
558.5190582972
 21
55.50883728
 31
0.0
  0
LINE
  5
2C0
330
1F
100
AcDbEntity
  8
0
  6
Continuous
 62
     7
100
AcDbLine
 10
560.5190582972
 20
70.00883728
 30
0.0
 11
558.0190582972
 21
70.00883728
 31
0.0
  0
LINE
  5
2C1
330
1F
100
AcDbEntity
  8
0
  6
Continuous
 62
     7
100
AcDbLine
 10
560.5190582972
 20
71.50883728
 30
0.0
 11
559.5190582972
 21
71.50883728
 31
0.0
  0
LINE
  5
2C2
330
1F
100
AcDbEntity
  8
0
  6
Continuous
 62
     7
100
AcDbLine
 10
558.0190582972
 20
72.50883728
 30
0.0
 11
558.0190582972
 21
70.00883728
 31
0.0
  0
LINE
  5
2C3
330
1F
100
AcDbEntity
  8
0
  6
Continuous
 62
     7
100
AcDbLine
 10
559.5190582972
 20
72.50883728
 30
0.0
 11
559.5190582972
 21
71.50883728
 31
0.0
  0
LINE
  5
2C4
330
1F
100
AcDbEntity
  8
0
  6
Continuous
 62
     7
100
AcDbLine
 10
1462.5189032113
 20
70.00883728
 30
0.0
 11
1465.0189032113
 21
70.00883728
 31
0.0
  0
LINE
  5
2C5
330
1F
100
AcDbEntity
  8
0
  6
Continuous
 62
     7
100
AcDbLine
 10
1462.5189032113
 20
71.50883728
 30
0.0
 11
1463.5189032113
 21
71.50883728
 31
0.0
  0
LINE
  5
2C6
330
1F
100
AcDbEntity
  8
0
  6
Continuous
 62
     7
100
AcDbLine
 10
1465.0189032113
 20
72.50883728
 30
0.0
 11
1465.0189032113
 21
70.00883728
 31
0.0
  0
LINE
  5
2C7
330
1F
100
AcDbEntity
  8
0
  6
Continuous
 62
     7
100
AcDbLine
 10
1463.5189032113
 20
72.50883728
 30
0.0
 11
1463.5189032113
 21
71.50883728
 31
0.0
  0
LINE
  5
2C8
330
1F
100
AcDbEntity
  8
0
  6
Continuous
 62
     7
100
AcDbLine
 10
1414.0189032113
 20
77.09383728
 30
0.0
 11
1414.5189032113
 21
76.59383728
 31
0.0
  0
LINE
  5
2C9
330
1F
100
AcDbEntity
  8
0
  6
Continuous
 62
     7
100
AcDbLine
 10
1408.5189032113
 20
76.59383728
 30
0.0
 11
1414.5189032113
 21
76.59383728
 31
0.0
  0
LINE
  5
2CA
330
1F
100
AcDbEntity
  8
0
  6
Continuous
 62
     7
100
AcDbLine
 10
1409.0189032113
 20
77.09383728
 30
0.0
 11
1408.5189032113
 21
76.59383728
 31
0.0
  0
LINE
  5
2CB
330
1F
100
AcDbEntity
  8
0
  6
Continuous
 62
     7
100
AcDbLine
 10
1409.0189032113
 20
77.09383728
 30
0.0
 11
1414.0189032113
 21
77.09383728
 31
0.0
  0
LINE
  5
2CC
330
1F
100
AcDbEntity
  8
0
  6
Continuous
 62
     7
100
AcDbLine
 10
1408.5189032113
 20
71.50883728
 30
0.0
 11
1408.5189032113
 21
76.59383728
 31
0.0
  0
LINE
  5
2CD
330
1F
100
AcDbEntity
  8
0
  6
Continuous
 62
     7
100
AcDbLine
 10
1414.5189032113
 20
71.50883728
 30
0.0
 11
1414.5189032113
 21
76.59383728
 31
0.0
  0
LINE
  5
2CE
330
1F
100
AcDbEntity
  8
0
  6
Continuous
 62
     7
100
AcDbLine
 10
614.5189032113
 20
79.00883728
 30
0.0
 11
609.0511524138
 21
79.00883728
 31
0.0
  0
LINE
  5
2CF
330
1F
100
AcDbEntity
  8
0
  6
Continuous
 62
     7
100
AcDbLine
 10
609.8737360129
 20
80.00883728
 30
0.0
 11
609.0511524138
 21
79.00883728
 31
0.0
  0
LINE
  5
2D0
330
1F
100
AcDbEntity
  8
0
  6
Continuous
 62
     7
100
AcDbLine
 10
609.8737360129
 20
80.00883728
 30
0.0
 11
613.5189032113
 21
80.00883728
 31
0.0
  0
LINE
  5
2D1
330
1F
100
AcDbEntity
  8
0
  6
Continuous
 62
     7
100
AcDbLine
 10
1139.2123109827
 20
79.00883728
 30
0.0
 11
1133.5189032113
 21
79.00883728
 31
0.0
  0
LINE
  5
2D2
330
1F
100
AcDbEntity
  8
0
  6
Continuous
 62
     7
100
AcDbLine
 10
1134.5189032113
 20
80.00883728
 30
0.0
 11
1138.3145083922
 21
80.00883728
 31
0.0
  0
LINE
  5
2D3
330
1F
100
AcDbEntity
  8
0
  6
Continuous
 62
     7
100
AcDbLine
 10
1138.3145083922
 20
80.00883728
 30
0.0
 11
1139.2123109827
 21
79.00883728
 31
0.0
  0
LINE
  5
2D4
330
1F
100
AcDbEntity
  8
0
  6
Continuous
 62
     7
100
AcDbLine
 10
889.5189032113
 20
79.00883728
 30
0.0
 11
884.3921195174
 21
79.00883728
 31
0.0
  0
LINE
  5
2D5
330
1F
100
AcDbEntity
  8
0
  6
Continuous
 62
     7
100
AcDbLine
 10
885.1010474154
 20
80.00883728
 30
0.0
 11
884.3921195174
 21
79.00883728
 31
0.0
  0
LINE
  5
2D6
330
1F
100
AcDbEntity
  8
0
  6
Continuous
 62
     7
100
AcDbLine
 10
885.1010474154
 20
80.00883728
 30
0.0
 11
888.5189032113
 21
80.00883728
 31
0.0
  0
LINE
  5
2D7
330
1F
100
AcDbEntity
  8
0
  6
Continuous
 62
     7
100
AcDbLine
 10
884.3921195174
 20
79.00883728
 30
0.0
 11
883.5189032113
 21
79.00883728
 31
0.0
  0
LINE
  5
2D8
330
1F
100
AcDbEntity
  8
0
  6
Continuous
 62
     7
100
AcDbLine
 10
884.5189032113
 20
80.00883728
 30
0.0
 11
885.1010474154
 21
80.00883728
 31
0.0
  0
LINE
  5
2D9
330
1F
100
AcDbEntity
  8
0
  6
Continuous
 62
     7
100
AcDbLine
 10
609.0511524138
 20
79.00883728
 30
0.0
 11
608.5189032113
 21
79.00883728
 31
0.0
  0
LINE
  5
2DA
330
1F
100
AcDbEntity
  8
0
  6
Continuous
 62
     7
100
AcDbLine
 10
609.5189032113
 20
80.00883728
 30
0.0
 11
609.8737360129
 21
80.00883728
 31
0.0
  0
LINE
  5
2DB
330
1F
100
AcDbEntity
  8
0
  6
Continuous
 62
     7
100
AcDbLine
 10
1139.5189032113
 20
79.00883728
 30
0.0
 11
1139.2123109827
 21
79.00883728
 31
0.0
  0
LINE
  5
2DC
330
1F
100
AcDbEntity
  8
0
  6
Continuous
 62
     7
100
AcDbLine
 10
1138.3145083922
 20
80.00883728
 30
0.0
 11
1138.5189032113
 21
80.00883728
 31
0.0
  0
SPLINE
  5
2DD
330
1F
100
AcDbEntity
  8
0
  6
Continuous
 62
     7
100
AcDbSpline
210
0.0
220
0.0
230
1.0
 70
     8
 71
     3
 72
     9
 73
     5
 74
     0
 42
0.00000001
 43
0.00000001
 40
0.0
 40
0.0
 40
0.0
 40
0.0
 40
0.6177223067586546
 40
1.0
 40
1.0
 40
1.0
 40
1.0
 10
1459.250918338425
 20
82.173224305455
 30
0.0
 10
1459.210205805357
 20
81.89878898651286
 30
0.0
 10
1459.144298305138
 20
81.45451926217318
 30
0.0
 10
1459.200571782843
 20
81.08150954806153
 30
0.0
 10
1459.22208387809
 20
80.93891625499433
 30
0.0
  0
SPLINE
  5
2DE
330
1F
100
AcDbEntity
  8
0
  6
Continuous
 62
     7
100
AcDbSpline
210
0.0
220
0.0
230
1.0
 70
     8
 71
     3
 72
     9
 73
     5
 74
     0
 42
0.00000001
 43
0.00000001
 40
0.0
 40
0.0
 40
0.0
 40
0.0
 40
0.3792202024130971
 40
1.0
 40
1.0
 40
1.0
 40
1.0
 10
1459.202619970419
 20
81.66404485832516
 30
0.0
 10
1459.190108985252
 20
81.73044094140776
 30
0.0
 10
1459.157117638566
 20
81.9055267692727
 30
0.0
 10
1459.195858380767
 20
82.14642609534837
 30
0.0
 10
1459.219907850869
 20
82.29597153022846
 30
0.0
  0
SPLINE
  5
2DF
330
1F
100
AcDbEntity
  8
0
  6
Continuous
 62
     7
100
AcDbSpline
210
0.0
220
0.0
230
1.0
 70
     8
 71
     3
 72
     9
 73
     5
 74
     0
 42
0.00000001
 43
0.00000001
 40
0.0
 40
0.0
 40
0.0
 40
0.0
 40
0.6917321609318582
 40
0.9999999999999999
 40
0.9999999999999999
 40
0.9999999999999999
 40
0.9999999999999999
 10
563.822788752657
 20
80.31237273500636
 30
0.0
 10
563.8452104642581
 20
80.45134329629997
 30
0.0
 10
563.8776243274089
 20
80.65224556619931
 30
0.0
 10
563.8525764986277
 20
80.86186017987923
 30
0.0
 10
563.844855058576
 20
80.92647762387543
 30
0.0
  0
SPLINE
  5
2E0
330
1F
100
AcDbEntity
  8
0
  6
Continuous
 62
     7
100
AcDbSpline
210
0.0
220
0.0
230
1.0
 70
     8
 71
     3
 72
     9
 73
     5
 74
     0
 42
0.00000001
 43
0.00000001
 40
0.0
 40
0.0
 40
0.0
 40
0.0
 40
0.3396606380356635
 40
1.0
 40
1.0
 40
1.0
 40
1.0
 10
1459.202619970419
 20
79.35364970169614
 30
0.0
 10
1459.190467688317
 20
79.451090988176
 30
0.0
 10
1459.154689971557
 20
79.73796934724456
 30
0.0
 10
1459.198998832247
 20
79.97813855055738
 30
0.0
 10
1459.228257717044
 20
80.13673172903646
 30
0.0
  0
SPLINE
  5
2E1
330
1F
100
AcDbEntity
  8
0
  6
Continuous
 62
     7
100
AcDbSpline
210
0.0
220
0.0
230
1.0
 70
     8
 71
     3
 72
     9
 73
     5
 74
     0
 42
0.00000001
 43
0.00000001
 40
0.0
 40
0.0
 40
0.0
 40
0.0
 40
0.7034291283483711
 40
0.9999999999999999
 40
0.9999999999999999
 40
0.9999999999999999
 40
0.9999999999999999
 10
1459.28111277367
 20
79.95538953536152
 30
0.0
 10
1459.221103253347
 20
79.70798749185631
 30
0.0
 10
1459.135793279813
 20
79.35627893510932
 30
0.0
 10
1459.200678464892
 20
78.86676777207904
 30
0.0
 10
1459.219921520789
 20
78.72159301977595
 30
0.0
  0
SPLINE
  5
2E2
330
1F
100
AcDbEntity
  8
0
  6
Continuous
 62
     7
100
AcDbSpline
210
0.0
220
0.0
230
1.0
 70
     8
 71
     3
 72
     9
 73
     5
 74
     0
 42
0.00000001
 43
0.00000001
 40
0.0
 40
0.0
 40
0.0
 40
0.0
 40
0.4139150624393353
 40
1.0
 40
1.0
 40
1.0
 40
1.0
 10
563.8413453273085
 20
80.50884728001064
 30
0.0
 10
563.8513417474551
 20
80.43442216008839
 30
0.0
 10
563.875492644713
 20
80.2546144490966
 30
0.0
 10
563.8484209834061
 20
80.0670403719479
 30
0.0
 10
563.8325546904794
 20
79.95710603065422
 30
0.0
  0
LINE
  5
2E3
330
1F
100
AcDbEntity
  8
0
  6
Continuous
 62
     7
100
AcDbLine
 10
1465.0189032113
 20
79.0426077603
 30
0.0
 11
1472.5189032113
 21
79.0426077603
 31
0.0
  0
LINE
  5
2E4
330
1F
100
AcDbEntity
  8
0
  6
Continuous
 62
     7
100
AcDbLine
 10
558.0190582972
 20
78.3758430344
 30
0.0
 11
550.5190582972
 21
78.3758430344
 31
0.0
  0
LINE
  5
2E5
330
1F
100
AcDbEntity
  8
0
  6
Continuous
 62
     7
100
AcDbLine
 10
609.0511524138
 20
71.50883728
 30
0.0
 11
609.0511524138
 21
79.00883728
 31
0.0
  0
LINE
  5
2E6
330
1F
100
AcDbEntity
  8
0
  6
Continuous
 62
     7
100
AcDbLine
 10
1139.2123109827
 20
71.50883728
 30
0.0
 11
1139.2123109827
 21
79.00883728
 31
0.0
  0
LINE
  5
2E7
330
1F
100
AcDbEntity
  8
0
  6
Continuous
 62
     7
100
AcDbLine
 10
884.3921195174
 20
71.50883728
 30
0.0
 11
884.3921195174
 21
79.00883728
 31
0.0
  0
LINE
  5
2E8
330
1F
100
AcDbEntity
  8
0
  6
Continuous
 62
     7
100
AcDbLine
 10
1519.7089762229
 20
154.0300907337
 30
0.0
 11
1522.3089762229
 21
154.0300907337
 31
0.0
  0
ARC
  5
2E9
330
1F
100
AcDbEntity
  8
0
  6
Continuous
 62
     7
100
AcDbCircle
 10
1514.3089762229
 20
160.0300907337
 30
0.0
 40
10.00000000000012
100
AcDbArc
 50
323.1301023542
 51
344.6935142518
  0
ARC
  5
2EA
330
1F
100
AcDbEntity
  8
0
  6
Continuous
 62
     7
100
AcDbCircle
 10
1514.3089762229
 20
160.0300907337
 30
0.0
 40
10.0
100
AcDbArc
 50
15.5213583711
 51
36.8698976458
  0
LINE
  5
2EB
330
1F
100
AcDbEntity
  8
0
  6
Continuous
 62
     7
100
AcDbLine
 10
1522.3089762229
 20
166.0300907337
 30
0.0
 11
1519.7089762229
 21
166.0300907337
 31
0.0
  0
ARC
  5
2EC
330
1F
100
AcDbEntity
  8
0
  6
Continuous
 62
     7
100
AcDbCircle
 10
1509.2089662229
 20
179.1300907337
 30
0.0
 40
2.000000000000173
100
AcDbArc
 50
44.6835482632
 51
224.6835482632
  0
ARC
  5
2ED
330
1F
100
AcDbEntity
  8
0
  6
Continuous
 62
     7
100
AcDbCircle
 10
1509.2089662229
 20
179.1300907337
 30
0.0
 40
2.000000000000173
100
AcDbArc
 50
224.6835482632
 51
44.6835482632
  0
ARC
  5
2EE
330
1F
100
AcDbEntity
  8
0
  6
Continuous
 62
     7
100
AcDbCircle
 10
1509.2089662229
 20
179.1300907337
 30
0.0
 40
3.00000000000027
100
AcDbArc
 50
224.6835482632
 51
44.6835482632
  0
LINE
  5
2EF
330
1F
100
AcDbEntity
  8
0
  6
Continuous
 62
     7
100
AcDbLine
 10
1507.7869633925
 20
177.7237095797
 30
0.0
 11
1507.0759619773
 21
177.0205190027
 31
0.0
  0
LINE
  5
2F0
330
1F
100
AcDbEntity
  8
0
  6
Continuous
 62
     7
100
AcDbLine
 10
1510.6309690533
 20
180.5364718877
 30
0.0
 11
1511.3419704685
 21
181.2396624647
 31
0.0
  0
ARC
  5
2F1
330
1F
100
AcDbEntity
  8
0
  6
Continuous
 62
     7
100
AcDbCircle
 10
1509.2089662229
 20
129.1300907337
 30
0.0
 40
2.000000000000023
100
AcDbArc
 50
65.7446601235
 51
245.7446601235
  0
ARC
  5
2F2
330
1F
100
AcDbEntity
  8
0
  6
Continuous
 62
     7
100
AcDbCircle
 10
1509.2089662229
 20
129.1300907337
 30
0.0
 40
2.000000000000023
100
AcDbArc
 50
245.7446601235
 51
65.7446601235
  0
ARC
  5
2F3
330
1F
100
AcDbEntity
  8
0
  6
Continuous
 62
     7
100
AcDbCircle
 10
1509.2089662229
 20
179.1300907337
 30
0.0
 40
3.00000000000027
100
AcDbArc
 50
44.6835482632
 51
224.6835482632
  0
ARC
  5
2F4
330
1F
100
AcDbEntity
  8
0
  6
Continuous
 62
     7
100
AcDbCircle
 10
1509.2089662229
 20
129.1300907337
 30
0.0
 40
3.000000000000082
100
AcDbArc
 50
245.7446601235
 51
65.7446601235
  0
LINE
  5
2F5
330
1F
100
AcDbEntity
  8
0
  6
Continuous
 62
     7
100
AcDbLine
 10
1508.3873585717
 20
127.3066432112
 30
0.0
 11
1507.976554746
 21
126.3949194499
 31
0.0
  0
LINE
  5
2F6
330
1F
100
AcDbEntity
  8
0
  6
Continuous
 62
     7
100
AcDbLine
 10
1510.0305738741
 20
130.9535382562
 30
0.0
 11
1510.4413776998
 21
131.8652620175
 31
0.0
  0
ARC
  5
2F7
330
1F
100
AcDbEntity
  8
0
  6
Continuous
 62
     7
100
AcDbCircle
 10
1509.2089662229
 20
129.1300907337
 30
0.0
 40
3.000000000000082
100
AcDbArc
 50
65.7446601235
 51
245.7446601235
  0
LINE
  5
2F8
330
1F
100
AcDbEntity
  8
0
  6
Continuous
 62
     7
100
AcDbLine
 10
1517.2089662229
 20
126.1300907337
 30
0.0
 11
1514.2089662229
 21
123.1300907337
 31
0.0
  0
LINE
  5
2F9
330
1F
100
AcDbEntity
  8
0
  6
Continuous
 62
     7
100
AcDbLine
 10
1514.2089662229
 20
123.1300907337
 30
0.0
 11
1504.2089662229
 21
123.1300907337
 31
0.0
  0
LINE
  5
2FA
330
1F
100
AcDbEntity
  8
0
  6
Continuous
 62
     7
100
AcDbLine
 10
1504.2089662229
 20
185.1300907337
 30
0.0
 11
1514.2089662229
 21
185.1300907337
 31
0.0
  0
LINE
  5
2FB
330
1F
100
AcDbEntity
  8
0
  6
Continuous
 62
     7
100
AcDbLine
 10
1514.2089662229
 20
185.1300907337
 30
0.0
 11
1517.2089662229
 21
182.1300907337
 31
0.0
  0
LINE
  5
2FC
330
1F
100
AcDbEntity
  8
0
  6
Continuous
 62
     7
100
AcDbLine
 10
1517.2089662229
 20
182.1300907337
 30
0.0
 11
1517.2089762229
 21
167.6300907337
 31
0.0
  0
LINE
  5
2FD
330
1F
100
AcDbEntity
  8
0
  6
Continuous
 62
     7
100
AcDbLine
 10
1517.2089762229
 20
167.6300907337
 30
0.0
 11
1519.7089762229
 21
167.6300907337
 31
0.0
  0
LINE
  5
2FE
330
1F
100
AcDbEntity
  8
0
  6
Continuous
 62
     7
100
AcDbLine
 10
1519.7089762229
 20
140.6300907337
 30
0.0
 11
1519.7089762229
 21
167.6300907337
 31
0.0
  0
LINE
  5
2FF
330
1F
100
AcDbEntity
  8
0
  6
Continuous
 62
     7
100
AcDbLine
 10
1517.2089762229
 20
140.6300907337
 30
0.0
 11
1519.7089762229
 21
140.6300907337
 31
0.0
  0
LINE
  5
300
330
1F
100
AcDbEntity
  8
0
  6
Continuous
 62
     7
100
AcDbLine
 10
1517.2089762229
 20
140.6300907337
 30
0.0
 11
1517.2089662229
 21
126.1300907337
 31
0.0
  0
ARC
  5
301
330
1F
100
AcDbEntity
  8
0
  6
Continuous
 62
     7
100
AcDbCircle
 10
1509.2089662229
 20
179.1300907337
 30
0.0
 40
3.250000000000028
100
AcDbArc
 50
90.0
 51
270.0
  0
ARC
  5
302
330
1F
100
AcDbEntity
  8
0
  6
Continuous
 62
     7
100
AcDbCircle
 10
1509.2089662229
 20
179.1300907337
 30
0.0
 40
3.250000000000028
100
AcDbArc
 50
270.0
 51
90.0
  0
ARC
  5
303
330
1F
100
AcDbEntity
  8
0
  6
Continuous
 62
     7
100
AcDbCircle
 10
1509.2089662229
 20
129.1300907337
 30
0.0
 40
3.25
100
AcDbArc
 50
90.0
 51
270.0
  0
ARC
  5
304
330
1F
100
AcDbEntity
  8
0
  6
Continuous
 62
     7
100
AcDbCircle
 10
1509.2089662229
 20
129.1300907337
 30
0.0
 40
3.25
100
AcDbArc
 50
270.0
 51
90.0
  0
LINE
  5
305
330
1F
100
AcDbEntity
  8
0
  6
Continuous
 62
     7
100
AcDbLine
 10
1501.2089662229
 20
182.1300907337
 30
0.0
 11
1504.2089662229
 21
185.1300907337
 31
0.0
  0
LINE
  5
306
330
1F
100
AcDbEntity
  8
0
  6
Continuous
 62
     7
100
AcDbLine
 10
1501.2089662229
 20
126.1300907337
 30
0.0
 11
1501.2089662229
 21
182.1300907337
 31
0.0
  0
LINE
  5
307
330
1F
100
AcDbEntity
  8
0
  6
Continuous
 62
     7
100
AcDbLine
 10
1504.2089662229
 20
123.1300907337
 30
0.0
 11
1501.2089662229
 21
126.1300907337
 31
0.0
  0
LINE
  5
308
330
1F
100
AcDbEntity
  8
0
  6
Continuous
 62
     7
100
AcDbLine
 10
1520.7089762229
 20
170.1300907337
 30
0.0
 11
1520.7089762229
 21
168.6300907337
 31
0.0
  0
LINE
  5
309
330
1F
100
AcDbEntity
  8
0
  6
Continuous
 62
     7
100
AcDbLine
 10
1520.7089762229
 20
170.1300907337
 30
0.0
 11
1522.7089762229
 21
170.1300907337
 31
0.0
  0
LINE
  5
30A
330
1F
100
AcDbEntity
  8
0
  6
Continuous
 62
     7
100
AcDbLine
 10
1522.7089762229
 20
170.1300907337
 30
0.0
 11
1522.7089762229
 21
168.6300907337
 31
0.0
  0
LINE
  5
30B
330
1F
100
AcDbEntity
  8
0
  6
Continuous
 62
     7
100
AcDbLine
 10
1520.7089762229
 20
168.6300907337
 30
0.0
 11
1522.7089762229
 21
168.6300907337
 31
0.0
  0
LINE
  5
30C
330
1F
100
AcDbEntity
  8
0
  6
Continuous
 62
     7
100
AcDbLine
 10
1522.7089762229
 20
138.1300907337
 30
0.0
 11
1522.7089762229
 21
139.6300907337
 31
0.0
  0
LINE
  5
30D
330
1F
100
AcDbEntity
  8
0
  6
Continuous
 62
     7
100
AcDbLine
 10
1534.2089762229
 20
141.2300907337
 30
0.0
 11
1534.2089762229
 21
138.1300907337
 31
0.0
  0
LINE
  5
30E
330
1F
100
AcDbEntity
  8
0
  6
Continuous
 62
     7
100
AcDbLine
 10
1522.7089762229
 20
138.1300907337
 30
0.0
 11
1534.2089762229
 21
138.1300907337
 31
0.0
  0
LINE
  5
30F
330
1F
100
AcDbEntity
  8
0
  6
Continuous
 62
     7
100
AcDbLine
 10
1525.2089762229
 20
139.6300907337
 30
0.0
 11
1525.2089762229
 21
141.2300907337
 31
0.0
  0
LINE
  5
310
330
1F
100
AcDbEntity
  8
0
  6
Continuous
 62
     7
100
AcDbLine
 10
1534.2089762229
 20
141.2300907337
 30
0.0
 11
1525.2089762229
 21
141.2300907337
 31
0.0
  0
LINE
  5
311
330
1F
100
AcDbEntity
  8
0
  6
Continuous
 62
     7
100
AcDbLine
 10
1522.7089762229
 20
139.6300907337
 30
0.0
 11
1525.2089762229
 21
139.6300907337
 31
0.0
  0
LINE
  5
312
330
1F
100
AcDbEntity
  8
0
  6
Continuous
 62
     7
100
AcDbLine
 10
1525.2089762229
 20
167.0300907337
 30
0.0
 11
1534.2089762229
 21
167.0300907337
 31
0.0
  0
LINE
  5
313
330
1F
100
AcDbEntity
  8
0
  6
Continuous
 62
     7
100
AcDbLine
 10
1522.7089762229
 20
170.1300907337
 30
0.0
 11
1534.2089762229
 21
170.1300907337
 31
0.0
  0
LINE
  5
314
330
1F
100
AcDbEntity
  8
0
  6
Continuous
 62
     7
100
AcDbLine
 10
1534.2089762229
 20
170.1300907337
 30
0.0
 11
1534.2089762229
 21
167.0300907337
 31
0.0
  0
LINE
  5
315
330
1F
100
AcDbEntity
  8
0
  6
Continuous
 62
     7
100
AcDbLine
 10
1522.7089762229
 20
168.6300907337
 30
0.0
 11
1525.2089762229
 21
168.6300907337
 31
0.0
  0
LINE
  5
316
330
1F
100
AcDbEntity
  8
0
  6
Continuous
 62
     7
100
AcDbLine
 10
1525.2089762229
 20
168.6300907337
 30
0.0
 11
1525.2089762229
 21
167.0300907337
 31
0.0
  0
LINE
  5
317
330
1F
100
AcDbEntity
  8
0
  6
Continuous
 62
     7
100
AcDbLine
 10
1520.7089762229
 20
138.1300907337
 30
0.0
 11
1520.7089762229
 21
139.6300907337
 31
0.0
  0
LINE
  5
318
330
1F
100
AcDbEntity
  8
0
  6
Continuous
 62
     7
100
AcDbLine
 10
1520.7089762229
 20
138.1300907337
 30
0.0
 11
1522.7089762229
 21
138.1300907337
 31
0.0
  0
LINE
  5
319
330
1F
100
AcDbEntity
  8
0
  6
Continuous
 62
     7
100
AcDbLine
 10
1520.7089762229
 20
139.6300907337
 30
0.0
 11
1522.7089762229
 21
139.6300907337
 31
0.0
  0
LINE
  5
31A
330
1F
100
AcDbEntity
  8
0
  6
Continuous
 62
     7
100
AcDbLine
 10
1510.4413776998
 20
131.8652620175
 30
0.0
 11
1510.5440786562
 21
132.0931929578
 31
0.0
  0
LINE
  5
31B
330
1F
100
AcDbEntity
  8
0
  6
Continuous
 62
     7
100
AcDbLine
 10
1507.976554746
 20
126.3949194499
 30
0.0
 11
1507.8738537896
 21
126.1669885096
 31
0.0
  0
LINE
  5
31C
330
1F
100
AcDbEntity
  8
0
  6
Continuous
 62
     7
100
AcDbLine
 10
1511.3419704685
 20
181.2396624647
 30
0.0
 11
1511.5197208223
 21
181.415460109
 31
0.0
  0
LINE
  5
31D
330
1F
100
AcDbEntity
  8
0
  6
Continuous
 62
     7
100
AcDbLine
 10
1507.0759619773
 20
177.0205190027
 30
0.0
 11
1506.8982116235
 21
176.8447213584
 31
0.0
  0
LINE
  5
31E
330
1F
100
AcDbEntity
  8
0
  6
Continuous
 62
     7
100
AcDbLine
 10
1518.2089762229
 20
140.6300907337
 30
0.0
 11
1518.2089762229
 21
138.1300907337
 31
0.0
  0
LINE
  5
31F
330
1F
100
AcDbEntity
  8
0
  6
Continuous
 62
     7
100
AcDbLine
 10
1520.7089762229
 20
138.1300907337
 30
0.0
 11
1518.2089762229
 21
138.1300907337
 31
0.0
  0
LINE
  5
320
330
1F
100
AcDbEntity
  8
0
  6
Continuous
 62
     7
100
AcDbLine
 10
1520.7089762229
 20
139.6300907337
 30
0.0
 11
1519.7089762229
 21
139.6300907337
 31
0.0
  0
LINE
  5
321
330
1F
100
AcDbEntity
  8
0
  6
Continuous
 62
     7
100
AcDbLine
 10
1519.7089762229
 20
140.6300907337
 30
0.0
 11
1519.7089762229
 21
139.6300907337
 31
0.0
  0
LINE
  5
322
330
1F
100
AcDbEntity
  8
0
  6
Continuous
 62
     7
100
AcDbLine
 10
1518.2089762229
 20
167.6300907337
 30
0.0
 11
1518.2089762229
 21
170.1300907337
 31
0.0
  0
LINE
  5
323
330
1F
100
AcDbEntity
  8
0
  6
Continuous
 62
     7
100
AcDbLine
 10
1520.7089762229
 20
170.1300907337
 30
0.0
 11
1518.2089762229
 21
170.1300907337
 31
0.0
  0
LINE
  5
324
330
1F
100
AcDbEntity
  8
0
  6
Continuous
 62
     7
100
AcDbLine
 10
1520.7089762229
 20
168.6300907337
 30
0.0
 11
1519.7089762229
 21
168.6300907337
 31
0.0
  0
LINE
  5
325
330
1F
100
AcDbEntity
  8
0
  6
Continuous
 62
     7
100
AcDbLine
 10
1519.7089762229
 20
167.6300907337
 30
0.0
 11
1519.7089762229
 21
168.6300907337
 31
0.0
  0
LINE
  5
326
330
1F
100
AcDbEntity
  8
0
  6
Continuous
 62
     7
100
AcDbLine
 10
1522.3089762229
 20
163.4419559135
 30
0.0
 11
1519.7089762229
 21
163.4419559135
 31
0.0
  0
LINE
  5
327
330
1F
100
AcDbEntity
  8
0
  6
Continuous
 62
     7
100
AcDbLine
 10
1522.3089762229
 20
154.0300907337
 30
0.0
 11
1522.3089762229
 21
163.4419559135
 31
0.0
  0
ARC
  5
328
330
1F
100
AcDbEntity
  8
0
  6
Continuous
 62
     7
100
AcDbCircle
 10
1519.1141497289
 20
159.0218336347
 30
0.0
 40
5.453842433241619
100
AcDbArc
 50
28.1381650898
 51
54.1409194861
  0
SPLINE
  5
329
330
1F
100
AcDbEntity
  8
0
  6
Continuous
 62
     7
100
AcDbSpline
210
0.0
220
0.0
230
1.0
 70
     8
 71
     3
 72
    12
 73
     8
 74
     0
 42
0.00000001
 43
0.00000001
 40
0.0
 40
0.0
 40
0.0
 40
0.0
 40
0.1670444630685725
 40
0.3333684213006524
 40
0.5020689749498588
 40
0.7529675844895455
 40
1.0
 40
1.0
 40
1.0
 40
1.0
 10
1523.946766660535
 20
161.363600714938
 30
0.0
 10
1523.944425154558
 20
161.3767571624919
 30
0.0
 10
1523.939752242109
 20
161.4030133105283
 30
0.0
 10
1523.934021937317
 20
161.4434191562741
 30
0.0
 10
1523.928664327086
 20
161.4900634309861
 30
0.0
 10
1523.924316138662
 20
161.5422125122701
 30
0.0
 10
1523.92371614962
 20
161.5767350373056
 30
0.0
 10
1523.923418484411
 20
161.5938622744529
 30
0.0
  0
SPLINE
  5
32A
330
1F
100
AcDbEntity
  8
0
  6
Continuous
 62
     7
100
AcDbSpline
210
0.0
220
0.0
230
1.0
 70
     8
 71
     3
 72
    16
 73
    12
 74
     0
 42
0.00000001
 43
0.00000001
 40
0.0
 40
0.0
 40
0.0
 40
0.0
 40
0.0839762981937108
 40
0.1673944920386383
 40
0.2504691101821448
 40
0.3334182983260363
 40
0.4164614832763991
 40
0.4998170465157617
 40
0.6663918471153792
 40
0.8325505285548435
 40
1.0
 40
1.0
 40
1.0
 40
1.0
 10
1523.946766660535
 20
159.0878657713
 30
0.0
 10
1523.957924322784
 20
159.148190527756
 30
0.0
 10
1523.980165493743
 20
159.2684391238661
 30
0.0
 10
1524.006277467156
 20
159.4530001187251
 30
0.0
 10
1524.026925987982
 20
159.6395660062313
 30
0.0
 10
1524.041625809703
 20
159.8284203654742
 30
0.0
 10
1524.050486653421
 20
160.0193850147498
 30
0.0
 10
1524.054485830015
 20
160.2761523068266
 30
0.0
 10
1524.044373250504
 20
160.5988689632165
 30
0.0
 10
1524.010166592336
 20
160.9856590603792
 30
0.0
 10
1523.967954413309
 20
161.2372956210326
 30
0.0
 10
1523.946766660535
 20
161.363600714938
 30
0.0
  0
SPLINE
  5
32B
330
1F
100
AcDbEntity
  8
0
  6
Continuous
 62
     7
100
AcDbSpline
210
0.0
220
0.0
230
1.0
 70
     8
 71
     3
 72
    14
 73
    10
 74
     0
 42
0.00000001
 43
0.00000001
 40
0.0
 40
0.0
 40
0.0
 40
0.0
 40
0.0837468194611828
 40
0.1671107191442336
 40
0.2516773658165743
 40
0.4999233232810065
 40
0.748358293144796
 40
0.8745973259058296
 40
1.0
 40
1.0
 40
1.0
 40
1.0
 10
1523.946766660535
 20
158.6965807524517
 30
0.0
 10
1523.944425134916
 20
158.7013315363588
 30
0.0
 10
1523.939752789954
 20
158.7108113819257
 30
0.0
 10
1523.934032215505
 20
158.7314797456016
 30
0.0
 10
1523.926391158799
 20
158.7724529311293
 30
0.0
 10
1523.921184108968
 20
158.8492464084114
 30
0.0
 10
1523.926812901939
 20
158.9497398165778
 30
0.0
 10
1523.936420079473
 20
159.0304175182327
 30
0.0
 10
1523.943325450432
 20
159.0687588307893
 30
0.0
 10
1523.946766660535
 20
159.0878657713
 30
0.0
  0
SPLINE
  5
32C
330
1F
100
AcDbEntity
  8
0
  6
Continuous
 62
     7
100
AcDbSpline
210
0.0
220
0.0
230
1.0
 70
     8
 71
     3
 72
    13
 73
     9
 74
     0
 42
0.00000001
 43
0.00000001
 40
0.0
 40
0.0
 40
0.0
 40
0.0
 40
0.165906659531218
 40
0.3316675344248078
 40
0.4976216786066026
 40
0.6641068106890008
 40
0.8314569199211023
 40
1.0
 40
1.0
 40
1.0
 40
1.0
 10
1524.052476807162
 20
158.1789675722658
 30
0.0
 10
1524.051911932801
 20
158.2148358674512
 30
0.0
 10
1524.050782680443
 20
158.2865409398201
 30
0.0
 10
1524.04163349335
 20
158.3844786428947
 30
0.0
 10
1524.027068912544
 20
158.4751085626739
 30
0.0
 10
1524.006407947484
 20
158.5574532948208
 30
0.0
 10
1523.980272342478
 20
158.6323770990802
 30
0.0
 10
1523.957961634365
 20
158.6751289216691
 30
0.0
 10
1523.946766660535
 20
158.6965807524517
 30
0.0
  0
SPLINE
  5
32D
330
1F
100
AcDbEntity
  8
0
  6
Continuous
 62
     7
100
AcDbSpline
210
0.0
220
0.0
230
1.0
 70
     8
 71
     3
 72
    13
 73
     9
 74
     0
 42
0.00000001
 43
0.00000001
 40
0.0
 40
0.0
 40
0.0
 40
0.0
 40
0.1685430800789784
 40
0.3358931893111017
 40
0.5023783213935051
 40
0.6683324655752984
 40
0.834093340468835
 40
1.0
 40
1.0
 40
1.0
 40
1.0
 10
1523.946766660535
 20
157.3982131795649
 30
0.0
 10
1523.957961634365
 20
157.4474182091958
 30
0.0
 10
1523.980272342478
 20
157.5454799885648
 30
0.0
 10
1524.006407947484
 20
157.6855098496147
 30
0.0
 10
1524.027068912544
 20
157.8194015601972
 30
0.0
 10
1524.04163349335
 20
157.9464060331154
 30
0.0
 10
1524.050782680443
 20
158.0671765418557
 30
0.0
 10
1524.051911932801
 20
158.1416929775497
 30
0.0
 10
1524.052476807162
 20
158.1789675722658
 30
0.0
  0
SPLINE
  5
32E
330
1F
100
AcDbEntity
  8
0
  6
Continuous
 62
     7
100
AcDbSpline
210
0.0
220
0.0
230
1.0
 70
     8
 71
     3
 72
    14
 73
    10
 74
     0
 42
0.00000001
 43
0.00000001
 40
0.0
 40
0.0
 40
0.0
 40
0.0
 40
0.0838023324289942
 40
0.1671770642169315
 40
0.2516766523768784
 40
0.4999225989990555
 40
0.7483576082005472
 40
0.8746656612266304
 40
1.0
 40
1.0
 40
1.0
 40
1.0
 10
1523.946766660535
 20
157.3630707712086
 30
0.0
 10
1523.944423754329
 20
157.3546636307837
 30
0.0
 10
1523.939749896576
 20
157.3378922472918
 30
0.0
 10
1523.934030208593
 20
157.3181798467306
 30
0.0
 10
1523.926390187673
 20
157.2930586807647
 30
0.0
 10
1523.92118412824
 20
157.2804718437891
 30
0.0
 10
1523.926813866337
 20
157.3105650959354
 30
0.0
 10
1523.936421042526
 20
157.3540454752437
 30
0.0
 10
1523.943327028623
 20
157.3835286392013
 30
0.0
 10
1523.946766660535
 20
157.3982131795649
 30
0.0
  0
SPLINE
  5
32F
330
1F
100
AcDbEntity
  8
0
  6
Continuous
 62
     7
100
AcDbSpline
210
0.0
220
0.0
230
1.0
 70
     8
 71
     3
 72
     9
 73
     5
 74
     0
 42
0.00000001
 43
0.00000001
 40
0.0
 40
0.0
 40
0.0
 40
0.0
 40
0.1134629477842752
 40
1.0
 40
1.0
 40
1.0
 40
1.0
 10
1524.038932542712
 20
158.0406422861958
 30
0.0
 10
1524.043959259222
 20
158.0266569270784
 30
0.0
 10
1524.088261973094
 20
157.9033976658795
 30
0.0
 10
1524.013259304902
 20
157.6169856423063
 30
0.0
 10
1523.946766660535
 20
157.3630707712086
 30
0.0
  0
SPLINE
  5
330
330
1F
100
AcDbEntity
  8
0
  6
Continuous
 62
     7
100
AcDbSpline
210
0.0
220
0.0
230
1.0
 70
     8
 71
     3
 72
     9
 73
     5
 74
     0
 42
0.00000001
 43
0.00000001
 40
0.0
 40
0.0
 40
0.0
 40
0.0
 40
0.1287980149892459
 40
1.0
 40
1.0
 40
1.0
 40
1.0
 10
1524.036831344868
 20
160.0144690048078
 30
0.0
 10
1524.042717816433
 20
159.9590880129622
 30
0.0
 10
1524.088420939767
 20
159.5291047414786
 30
0.0
 10
1524.012718647675
 20
159.0841907259444
 30
0.0
 10
1523.946766660535
 20
158.6965807524518
 30
0.0
  0
SPLINE
  5
331
330
1F
100
AcDbEntity
  8
0
  6
Continuous
 62
     7
100
AcDbSpline
210
0.0
220
0.0
230
1.0
 70
     8
 71
     3
 72
     9
 73
     5
 74
     0
 42
0.00000001
 43
0.00000001
 40
0.0
 40
0.0
 40
0.0
 40
0.0
 40
0.1257019184834571
 40
1.0
 40
1.0
 40
1.0
 40
1.0
 10
1524.037261484528
 20
161.9939077328675
 30
0.0
 10
1524.042970424863
 20
161.9556734296139
 30
0.0
 10
1524.088386918142
 20
161.6515070038761
 30
0.0
 10
1524.012827828046
 20
161.49789947913
 30
0.0
 10
1523.946766660535
 20
161.3636007149381
 30
0.0
  0
SPLINE
  5
332
330
1F
100
AcDbEntity
  8
0
  6
Continuous
 62
     7
100
AcDbSpline
210
0.0
220
0.0
230
1.0
 70
     8
 71
     3
 72
    16
 73
    12
 74
     0
 42
0.00000001
 43
0.00000001
 40
0.0
 40
0.0
 40
0.0
 40
0.0
 40
0.0839209304682833
 40
0.1673144079619563
 40
0.2503878621246202
 40
0.3333528282476846
 40
0.4164233723823755
 40
0.4998143879311414
 40
0.6663260176280854
 40
0.832469910049083
 40
0.9999999999999999
 40
0.9999999999999999
 40
0.9999999999999999
 40
0.9999999999999999
 10
1523.946766660535
 20
161.7197433254299
 30
0.0
 10
1523.957916633796
 20
161.7310311612544
 30
0.0
 10
1523.980146501419
 20
161.7535358875198
 30
0.0
 10
1524.006249933851
 20
161.798399825825
 30
0.0
 10
1524.026901655528
 20
161.851296829334
 30
0.0
 10
1524.04161108884
 20
161.9130281116225
 30
0.0
 10
1524.05048330052
 20
161.9834017772913
 30
0.0
 10
1524.054486032124
 20
162.0884466919876
 30
0.0
 10
1524.044386003497
 20
162.2402046209562
 30
0.0
 10
1524.010189933873
 20
162.4515190205495
 30
0.0
 10
1523.967966222298
 20
162.6150203904917
 30
0.0
 10
1523.946766660535
 20
162.6971106961811
 30
0.0
  0
SPLINE
  5
333
330
1F
100
AcDbEntity
  8
0
  6
Continuous
 62
     7
100
AcDbSpline
210
0.0
220
0.0
230
1.0
 70
     8
 71
     3
 72
    12
 73
     8
 74
     0
 42
0.00000001
 43
0.00000001
 40
0.0
 40
0.0
 40
0.0
 40
0.0
 40
0.1648509404205562
 40
0.3299215418648703
 40
0.4984060237800677
 40
0.7502078236510089
 40
1.0
 40
1.0
 40
1.0
 40
1.0
 10
1523.923418484411
 20
161.5938622744529
 30
0.0
 10
1523.923550129919
 20
161.6045425918939
 30
0.0
 10
1523.923813596352
 20
161.625917458114
 30
0.0
 10
1523.925978167132
 20
161.653645734792
 30
0.0
 10
1523.929980268184
 20
161.6813434283586
 30
0.0
 10
1523.936422994659
 20
161.7065222322455
 30
0.0
 10
1523.943327993477
 20
161.715348081215
 30
0.0
 10
1523.946766660535
 20
161.7197433254299
 30
0.0
  0
LINE
  5
334
330
1F
100
AcDbEntity
  8
0
  6
Continuous
 62
     7
100
AcDbLine
 10
1522.3089762229
 20
163.4419559135
 30
0.0
 11
1522.3089762229
 21
166.0300907337
 31
0.0
  0
SPLINE
  5
335
330
1F
100
AcDbEntity
  8
0
  6
Continuous
 62
     7
100
AcDbSpline
210
0.0
220
0.0
230
1.0
 70
     8
 71
     3
 72
     9
 73
     5
 74
     0
 42
0.00000001
 43
0.00000001
 40
0.0
 40
0.0
 40
0.0
 40
0.0
 40
0.1014980901023354
 40
1.0
 40
1.0
 40
1.0
 40
1.0
 10
1524.043157257776
 20
160.512680722375
 30
0.0
 10
1524.046578893098
 20
160.5437635172844
 30
0.0
 10
1524.080290220264
 20
160.8500037123277
 30
0.0
 10
1524.022232707023
 20
161.1918508436952
 30
0.0
 10
1523.970067920493
 20
161.4990011441218
 30
0.0
  0
SPLINE
  5
336
330
1F
100
AcDbEntity
  8
0
  6
Continuous
 62
     7
100
AcDbSpline
210
0.0
220
0.0
230
1.0
 70
     8
 71
     3
 72
     9
 73
     5
 74
     0
 42
0.00000001
 43
0.00000001
 40
0.0
 40
0.0
 40
0.0
 40
0.0
 40
0.2500101460823067
 40
1.0
 40
1.0
 40
1.0
 40
1.0
 10
1524.033650145844
 20
159.6430003619019
 30
0.0
 10
1524.041493770148
 20
159.5805705151622
 30
0.0
 10
1524.072866994103
 20
159.3308612624861
 30
0.0
 10
1524.028978407548
 20
159.0519499137327
 30
0.0
 10
1523.99606241293
 20
158.8427692320252
 30
0.0
  0
SPLINE
  5
337
330
1F
100
AcDbEntity
  8
0
  6
Continuous
 62
     7
100
AcDbSpline
210
0.0
220
0.0
230
1.0
 70
     8
 71
     3
 72
     9
 73
     5
 74
     0
 42
0.00000001
 43
0.00000001
 40
0.0
 40
0.0
 40
0.0
 40
0.0
 40
0.3776278970211902
 40
0.9999999999999999
 40
0.9999999999999999
 40
0.9999999999999999
 40
0.9999999999999999
 10
1524.033656290328
 20
161.7893628030394
 30
0.0
 10
1524.04229751932
 20
161.7323371965896
 30
0.0
 10
1524.065180439412
 20
161.5813271496635
 30
0.0
 10
1524.038252260517
 20
161.4837418097092
 30
0.0
 10
1524.021492913188
 20
161.4230074164619
 30
0.0
  0
LINE
  5
338
330
1F
100
AcDbEntity
  8
0
  6
Continuous
 62
     7
100
AcDbLine
 10
1524.7089762229
 20
140.1300907337
 30
0.0
 11
1524.7089762229
 21
141.6300907337
 31
0.0
  0
LINE
  5
339
330
1F
100
AcDbEntity
  8
0
  6
Continuous
 62
     7
100
AcDbLine
 10
1521.2089762229
 20
140.1300907337
 30
0.0
 11
1524.7089762229
 21
140.1300907337
 31
0.0
  0
ARC
  5
33A
330
1F
100
AcDbEntity
  8
0
  6
Continuous
 62
     7
100
AcDbCircle
 10
1521.2089762229
 20
141.6300907337
 30
0.0
 40
1.5
100
AcDbArc
 50
180.0
 51
270.0
  0
ARC
  5
33B
330
1F
100
AcDbEntity
  8
0
  6
Continuous
 62
     7
100
AcDbCircle
 10
1521.2089762229
 20
166.6300907337
 30
0.0
 40
1.500000000005912
100
AcDbArc
 50
90.0
 51
180.0
  0
LINE
  5
33C
330
1F
100
AcDbEntity
  8
0
  6
Continuous
 62
     7
100
AcDbLine
 10
1524.7089762229
 20
168.1300907337
 30
0.0
 11
1521.2089762229
 21
168.1300907337
 31
0.0
  0
LINE
  5
33D
330
1F
100
AcDbEntity
  8
0
  6
Continuous
 62
     7
100
AcDbLine
 10
1524.7089762229
 20
166.6300907337
 30
0.0
 11
1524.7089762229
 21
168.1300907337
 31
0.0
  0
LINE
  5
33E
330
1F
100
AcDbEntity
  8
0
  6
Continuous
 62
     7
100
AcDbLine
 10
1532.2089762229
 20
166.6300907337
 30
0.0
 11
1524.7089762229
 21
166.6300907337
 31
0.0
  0
LINE
  5
33F
330
1F
100
AcDbEntity
  8
0
  6
Continuous
 62
     7
100
AcDbLine
 10
1534.2089762229
 20
164.6300907337
 30
0.0
 11
1532.2089762229
 21
166.6300907337
 31
0.0
  0
LINE
  5
340
330
1F
100
AcDbEntity
  8
0
  6
Continuous
 62
     7
100
AcDbLine
 10
1534.2089762229
 20
159.3800907337
 30
0.0
 11
1534.2089762229
 21
164.6300907337
 31
0.0
  0
LINE
  5
341
330
1F
100
AcDbEntity
  8
0
  6
Continuous
 62
     7
100
AcDbLine
 10
1530.2089762229
 20
158.3800907337
 30
0.0
 11
1534.2089762229
 21
159.3800907337
 31
0.0
  0
LINE
  5
342
330
1F
100
AcDbEntity
  8
0
  6
Continuous
 62
     7
100
AcDbLine
 10
1524.7089762229
 20
155.8800907337
 30
0.0
 11
1524.7089762229
 21
158.3800907337
 31
0.0
  0
LINE
  5
343
330
1F
100
AcDbEntity
  8
0
  6
Continuous
 62
     7
100
AcDbLine
 10
1530.2089762229
 20
155.8800907337
 30
0.0
 11
1524.7089762229
 21
155.8800907337
 31
0.0
  0
LINE
  5
344
330
1F
100
AcDbEntity
  8
0
  6
Continuous
 62
     7
100
AcDbLine
 10
1534.2089762229
 20
154.8800907337
 30
0.0
 11
1530.2089762229
 21
155.8800907337
 31
0.0
  0
LINE
  5
345
330
1F
100
AcDbEntity
  8
0
  6
Continuous
 62
     7
100
AcDbLine
 10
1534.2089762229
 20
153.3800907337
 30
0.0
 11
1534.2089762229
 21
154.8800907337
 31
0.0
  0
LINE
  5
346
330
1F
100
AcDbEntity
  8
0
  6
Continuous
 62
     7
100
AcDbLine
 10
1530.2089762229
 20
152.3800907337
 30
0.0
 11
1534.2089762229
 21
153.3800907337
 31
0.0
  0
LINE
  5
347
330
1F
100
AcDbEntity
  8
0
  6
Continuous
 62
     7
100
AcDbLine
 10
1524.7089762229
 20
152.3800907337
 30
0.0
 11
1530.2089762229
 21
152.3800907337
 31
0.0
  0
LINE
  5
348
330
1F
100
AcDbEntity
  8
0
  6
Continuous
 62
     7
100
AcDbLine
 10
1524.7089762229
 20
149.8800907337
 30
0.0
 11
1524.7089762229
 21
152.3800907337
 31
0.0
  0
LINE
  5
349
330
1F
100
AcDbEntity
  8
0
  6
Continuous
 62
     7
100
AcDbLine
 10
1534.2089762229
 20
143.6300907337
 30
0.0
 11
1534.2089762229
 21
148.8800907337
 31
0.0
  0
LINE
  5
34A
330
1F
100
AcDbEntity
  8
0
  6
Continuous
 62
     7
100
AcDbLine
 10
1532.2089762229
 20
141.6300907337
 30
0.0
 11
1534.2089762229
 21
143.6300907337
 31
0.0
  0
LINE
  5
34B
330
1F
100
AcDbEntity
  8
0
  6
Continuous
 62
     7
100
AcDbLine
 10
1524.7089762229
 20
141.6300907337
 30
0.0
 11
1532.2089762229
 21
141.6300907337
 31
0.0
  0
LINE
  5
34C
330
1F
100
AcDbEntity
  8
0
  6
Continuous
 62
     7
100
AcDbLine
 10
1524.7089762229
 20
158.3800907337
 30
0.0
 11
1530.2089762229
 21
158.3800907337
 31
0.0
  0
LINE
  5
34D
330
1F
100
AcDbEntity
  8
0
  6
Continuous
 62
     7
100
AcDbLine
 10
1534.2089762229
 20
148.8800907337
 30
0.0
 11
1530.2089762229
 21
149.8800907337
 31
0.0
  0
LINE
  5
34E
330
1F
100
AcDbEntity
  8
0
  6
Continuous
 62
     7
100
AcDbLine
 10
1530.2089762229
 20
149.8800907337
 30
0.0
 11
1524.7089762229
 21
149.8800907337
 31
0.0
  0
LINE
  5
34F
330
1F
100
AcDbEntity
  8
0
  6
Continuous
 62
     7
100
AcDbLine
 10
1573.1527892599
 20
185.1300907337
 30
0.0
 11
1570.5527892599
 21
185.1300907337
 31
0.0
  0
LINE
  5
350
330
1F
100
AcDbEntity
  8
0
  6
Continuous
 62
     7
100
AcDbLine
 10
1573.1527892599
 20
135.1300907337
 30
0.0
 11
1570.5527892599
 21
135.1300907337
 31
0.0
  0
ARC
  5
351
330
1F
100
AcDbEntity
  8
0
  6
Continuous
 62
     7
100
AcDbCircle
 10
1565.1527892599
 20
179.1300907337
 30
0.0
 40
10.00000000000018
100
AcDbArc
 50
13.055487296
 51
36.8698976458
  0
ARC
  5
352
330
1F
100
AcDbEntity
  8
0
  6
Continuous
 62
     7
100
AcDbCircle
 10
1565.1527892599
 20
129.1300907337
 30
0.0
 40
10.0000000000002
100
AcDbArc
 50
15.2951770067
 51
36.8698976458
  0
ARC
  5
353
330
1F
100
AcDbEntity
  8
0
  6
Continuous
 62
     7
100
AcDbCircle
 10
2479.9526341739
 20
179.1300907337
 30
0.0
 40
10.0
100
AcDbArc
 50
143.1301023542
 51
165.9625833499
  0
ARC
  5
354
330
1F
100
AcDbEntity
  8
0
  6
Continuous
 62
     7
100
AcDbCircle
 10
2479.9526341739
 20
129.1300907337
 30
0.0
 40
10.0
100
AcDbArc
 50
143.1301023542
 51
166.7399259971
  0
LINE
  5
355
330
1F
100
AcDbEntity
  8
0
  6
Continuous
 62
     7
100
AcDbLine
 10
2474.5526341739
 20
185.1300907337
 30
0.0
 11
2471.9526341739
 21
185.1300907337
 31
0.0
  0
LINE
  5
356
330
1F
100
AcDbEntity
  8
0
  6
Continuous
 62
     7
100
AcDbLine
 10
2474.5526341739
 20
135.1300907337
 30
0.0
 11
2471.9526341739
 21
135.1300907337
 31
0.0
  0
ARC
  5
357
330
1F
100
AcDbEntity
  8
0
  6
Continuous
 62
     7
100
AcDbCircle
 10
2479.9526341739
 20
179.1300907337
 30
0.0
 40
10.00000000000022
100
AcDbArc
 50
194.0716721224
 51
216.8698976458
  0
LINE
  5
358
330
1F
100
AcDbEntity
  8
0
  6
Continuous
 62
     7
100
AcDbLine
 10
2471.9526341739
 20
173.1300907337
 30
0.0
 11
2474.5526341739
 21
173.1300907337
 31
0.0
  0
LINE
  5
359
330
1F
100
AcDbEntity
  8
0
  6
Continuous
 62
     7
100
AcDbLine
 10
1561.5527892599
 20
182.1300907337
 30
0.0
 11
1560.5527892599
 21
181.1300907337
 31
0.0
  0
LINE
  5
35A
330
1F
100
AcDbEntity
  8
0
  6
Continuous
 62
     7
100
AcDbLine
 10
1561.5527892599
 20
132.1300907337
 30
0.0
 11
1560.5527892599
 21
131.1300907337
 31
0.0
  0
LINE
  5
35B
330
1F
100
AcDbEntity
  8
0
  6
Continuous
 62
     7
100
AcDbLine
 10
1569.0527892599
 20
182.1300907337
 30
0.0
 11
1561.5527892599
 21
182.1300907337
 31
0.0
  0
LINE
  5
35C
330
1F
100
AcDbEntity
  8
0
  6
Continuous
 62
     7
100
AcDbLine
 10
1569.0527892599
 20
132.1300907337
 30
0.0
 11
1561.5527892599
 21
132.1300907337
 31
0.0
  0
LINE
  5
35D
330
1F
100
AcDbEntity
  8
0
  6
Continuous
 62
     7
100
AcDbLine
 10
2483.5526341739
 20
182.1300907337
 30
0.0
 11
2476.0526341739
 21
182.1300907337
 31
0.0
  0
LINE
  5
35E
330
1F
100
AcDbEntity
  8
0
  6
Continuous
 62
     7
100
AcDbLine
 10
2483.5526341739
 20
132.1300907337
 30
0.0
 11
2476.0526341739
 21
132.1300907337
 31
0.0
  0
LINE
  5
35F
330
1F
100
AcDbEntity
  8
0
  6
Continuous
 62
     7
100
AcDbLine
 10
2484.5526341739
 20
181.1300907337
 30
0.0
 11
2483.5526341739
 21
182.1300907337
 31
0.0
  0
LINE
  5
360
330
1F
100
AcDbEntity
  8
0
  6
Continuous
 62
     7
100
AcDbLine
 10
2484.5526341739
 20
131.1300907337
 30
0.0
 11
2483.5526341739
 21
132.1300907337
 31
0.0
  0
ARC
  5
361
330
1F
100
AcDbEntity
  8
0
  6
Continuous
 62
     7
100
AcDbCircle
 10
1565.1527892599
 20
179.1300907337
 30
0.0
 40
10.00000000000027
100
AcDbArc
 50
323.1301023542
 51
346.9524129868
  0
LINE
  5
362
330
1F
100
AcDbEntity
  8
0
  6
Continuous
 62
     7
100
AcDbLine
 10
1570.5527892599
 20
173.1300907337
 30
0.0
 11
1573.1527892599
 21
173.1300907337
 31
0.0
  0
ARC
  5
363
330
1F
100
AcDbEntity
  8
0
  6
Continuous
 62
     7
100
AcDbCircle
 10
2479.9526341739
 20
129.1300907337
 30
0.0
 40
10.00000000000016
100
AcDbArc
 50
193.2873046707
 51
216.8698976458
  0
LINE
  5
364
330
1F
100
AcDbEntity
  8
0
  6
Continuous
 62
     7
100
AcDbLine
 10
2471.9526341739
 20
123.1300907337
 30
0.0
 11
2474.5526341739
 21
123.1300907337
 31
0.0
  0
LINE
  5
365
330
1F
100
AcDbEntity
  8
0
  6
Continuous
 62
     7
100
AcDbLine
 10
2476.0526341739
 20
176.1300907337
 30
0.0
 11
2483.5526341739
 21
176.1300907337
 31
0.0
  0
LINE
  5
366
330
1F
100
AcDbEntity
  8
0
  6
Continuous
 62
     7
100
AcDbLine
 10
2483.5526341739
 20
176.1300907337
 30
0.0
 11
2484.5526341739
 21
177.1300907337
 31
0.0
  0
LINE
  5
367
330
1F
100
AcDbEntity
  8
0
  6
Continuous
 62
     7
100
AcDbLine
 10
1560.5527892599
 20
177.1300907337
 30
0.0
 11
1561.5527892599
 21
176.1300907337
 31
0.0
  0
LINE
  5
368
330
1F
100
AcDbEntity
  8
0
  6
Continuous
 62
     7
100
AcDbLine
 10
1561.5527892599
 20
176.1300907337
 30
0.0
 11
1569.0527892599
 21
176.1300907337
 31
0.0
  0
LINE
  5
369
330
1F
100
AcDbEntity
  8
0
  6
Continuous
 62
     7
100
AcDbLine
 10
2476.0526341739
 20
126.1300907337
 30
0.0
 11
2483.5526341739
 21
126.1300907337
 31
0.0
  0
LINE
  5
36A
330
1F
100
AcDbEntity
  8
0
  6
Continuous
 62
     7
100
AcDbLine
 10
2483.5526341739
 20
126.1300907337
 30
0.0
 11
2484.5526341739
 21
127.1300907337
 31
0.0
  0
LINE
  5
36B
330
1F
100
AcDbEntity
  8
0
  6
Continuous
 62
     7
100
AcDbLine
 10
1574.8216303326
 20
181.3799309468
 30
0.0
 11
1575.0318738386
 21
181.3799309468
 31
0.0
  0
LINE
  5
36C
330
1F
100
AcDbEntity
  8
0
  6
Continuous
 62
     7
100
AcDbLine
 10
1575.0318738386
 20
176.8802505206
 30
0.0
 11
1574.8057376588
 21
176.8802505206
 31
0.0
  0
ARC
  5
36D
330
1F
100
AcDbEntity
  8
0
  6
Continuous
 62
     7
100
AcDbCircle
 10
1565.1527892599
 20
129.1300907337
 30
0.0
 40
10.0000000000002
100
AcDbArc
 50
323.1301023542
 51
344.9697604338
  0
LINE
  5
36E
330
1F
100
AcDbEntity
  8
0
  6
Continuous
 62
     7
100
AcDbLine
 10
1570.5527892599
 20
123.1300907337
 30
0.0
 11
1573.1527892599
 21
123.1300907337
 31
0.0
  0
LINE
  5
36F
330
1F
100
AcDbEntity
  8
0
  6
Continuous
 62
     7
100
AcDbLine
 10
1560.5527892599
 20
127.1300907337
 30
0.0
 11
1561.5527892599
 21
126.1300907337
 31
0.0
  0
LINE
  5
370
330
1F
100
AcDbEntity
  8
0
  6
Continuous
 62
     7
100
AcDbLine
 10
1561.5527892599
 20
126.1300907337
 30
0.0
 11
1569.0527892599
 21
126.1300907337
 31
0.0
  0
LINE
  5
371
330
1F
100
AcDbEntity
  8
0
  6
Continuous
 62
     7
100
AcDbLine
 10
1569.0527892599
 20
126.1300907337
 30
0.0
 11
1570.5527892599
 21
126.1300907337
 31
0.0
  0
LINE
  5
372
330
1F
100
AcDbEntity
  8
0
  6
Continuous
 62
     7
100
AcDbLine
 10
1569.0527892599
 20
126.1300907337
 30
0.0
 11
1569.0527892599
 21
182.1300907337
 31
0.0
  0
LINE
  5
373
330
1F
100
AcDbEntity
  8
0
  6
Continuous
 62
     7
100
AcDbLine
 10
1569.0527892599
 20
182.1300907337
 30
0.0
 11
1570.5527892599
 21
182.1300907337
 31
0.0
  0
LINE
  5
374
330
1F
100
AcDbEntity
  8
0
  6
Continuous
 62
     7
100
AcDbLine
 10
1570.5527892599
 20
126.1300907337
 30
0.0
 11
1570.5527892599
 21
182.1300907337
 31
0.0
  0
LINE
  5
375
330
1F
100
AcDbEntity
  8
0
  6
Continuous
 62
     7
100
AcDbLine
 10
1569.0527892599
 20
182.1300907337
 30
0.0
 11
1569.0527892599
 21
185.1300907337
 31
0.0
  0
LINE
  5
376
330
1F
100
AcDbEntity
  8
0
  6
Continuous
 62
     7
100
AcDbLine
 10
1569.0527892599
 20
185.1300907337
 30
0.0
 11
1570.5527892599
 21
185.1300907337
 31
0.0
  0
LINE
  5
377
330
1F
100
AcDbEntity
  8
0
  6
Continuous
 62
     7
100
AcDbLine
 10
1570.5527892599
 20
182.1300907337
 30
0.0
 11
1570.5527892599
 21
185.1300907337
 31
0.0
  0
LINE
  5
378
330
1F
100
AcDbEntity
  8
0
  6
Continuous
 62
     7
100
AcDbLine
 10
1569.0527892599
 20
123.1300907337
 30
0.0
 11
1570.5527892599
 21
123.1300907337
 31
0.0
  0
LINE
  5
379
330
1F
100
AcDbEntity
  8
0
  6
Continuous
 62
     7
100
AcDbLine
 10
1570.5527892599
 20
123.1300907337
 30
0.0
 11
1570.5527892599
 21
126.1300907337
 31
0.0
  0
LINE
  5
37A
330
1F
100
AcDbEntity
  8
0
  6
Continuous
 62
     7
100
AcDbLine
 10
1569.0527892599
 20
123.1300907337
 30
0.0
 11
1569.0527892599
 21
126.1300907337
 31
0.0
  0
LINE
  5
37B
330
1F
100
AcDbEntity
  8
0
  6
Continuous
 62
     7
100
AcDbLine
 10
2476.0526341739
 20
182.1300907337
 30
0.0
 11
2474.5526341739
 21
182.1300907337
 31
0.0
  0
LINE
  5
37C
330
1F
100
AcDbEntity
  8
0
  6
Continuous
 62
     7
100
AcDbLine
 10
2476.0526341739
 20
126.1300907337
 30
0.0
 11
2476.0526341739
 21
182.1300907337
 31
0.0
  0
LINE
  5
37D
330
1F
100
AcDbEntity
  8
0
  6
Continuous
 62
     7
100
AcDbLine
 10
2476.0526341739
 20
126.1300907337
 30
0.0
 11
2474.5526341739
 21
126.1300907337
 31
0.0
  0
LINE
  5
37E
330
1F
100
AcDbEntity
  8
0
  6
Continuous
 62
     7
100
AcDbLine
 10
2474.5526341739
 20
126.1300907337
 30
0.0
 11
2474.5526341739
 21
182.1300907337
 31
0.0
  0
LINE
  5
37F
330
1F
100
AcDbEntity
  8
0
  6
Continuous
 62
     7
100
AcDbLine
 10
2476.0526341739
 20
185.1300907337
 30
0.0
 11
2474.5526341739
 21
185.1300907337
 31
0.0
  0
LINE
  5
380
330
1F
100
AcDbEntity
  8
0
  6
Continuous
 62
     7
100
AcDbLine
 10
2476.0526341739
 20
182.1300907337
 30
0.0
 11
2476.0526341739
 21
185.1300907337
 31
0.0
  0
LINE
  5
381
330
1F
100
AcDbEntity
  8
0
  6
Continuous
 62
     7
100
AcDbLine
 10
2474.5526341739
 20
182.1300907337
 30
0.0
 11
2474.5526341739
 21
185.1300907337
 31
0.0
  0
LINE
  5
382
330
1F
100
AcDbEntity
  8
0
  6
Continuous
 62
     7
100
AcDbLine
 10
2476.0526341739
 20
123.1300907337
 30
0.0
 11
2474.5526341739
 21
123.1300907337
 31
0.0
  0
LINE
  5
383
330
1F
100
AcDbEntity
  8
0
  6
Continuous
 62
     7
100
AcDbLine
 10
2476.0526341739
 20
123.1300907337
 30
0.0
 11
2476.0526341739
 21
126.1300907337
 31
0.0
  0
LINE
  5
384
330
1F
100
AcDbEntity
  8
0
  6
Continuous
 62
     7
100
AcDbLine
 10
2474.5526341739
 20
123.1300907337
 30
0.0
 11
2474.5526341739
 21
126.1300907337
 31
0.0
  0
LINE
  5
385
330
1F
100
AcDbEntity
  8
0
  6
Continuous
 62
     7
100
AcDbLine
 10
1573.1527892599
 20
173.895535673
 30
0.0
 11
1573.1527892599
 21
185.1300907337
 31
0.0
  0
LINE
  5
386
330
1F
100
AcDbEntity
  8
0
  6
Continuous
 62
     7
100
AcDbLine
 10
1573.1527892599
 20
173.895535673
 30
0.0
 11
1570.5527892599
 21
173.895535673
 31
0.0
  0
LINE
  5
387
330
1F
100
AcDbEntity
  8
0
  6
Continuous
 62
     7
100
AcDbLine
 10
1573.1527892599
 20
123.1790075472
 30
0.0
 11
1573.1527892599
 21
135.1300907337
 31
0.0
  0
LINE
  5
388
330
1F
100
AcDbEntity
  8
0
  6
Continuous
 62
     7
100
AcDbLine
 10
1573.1527892599
 20
123.1790075472
 30
0.0
 11
1570.5527892599
 21
123.1790075472
 31
0.0
  0
SPLINE
  5
389
330
1F
100
AcDbEntity
  8
0
  6
Continuous
 62
     7
100
AcDbSpline
210
0.0
220
0.0
230
1.0
 70
     8
 71
     3
 72
     9
 73
     5
 74
     0
 42
0.00000001
 43
0.00000001
 40
0.0
 40
0.0
 40
0.0
 40
0.0
 40
0.9660038407936216
 40
1.0
 40
1.0
 40
1.0
 40
1.0
 10
1574.790579697492
 20
181.5254340498447
 30
0.0
 10
1574.859836369218
 20
181.4255755510986
 30
0.0
 10
1574.931530361314
 20
181.3222027749987
 30
0.0
 10
1574.893854547763
 20
181.3843017350067
 30
0.0
 10
1574.892573714807
 20
181.3864128611377
 30
0.0
  0
SPLINE
  5
38A
330
1F
100
AcDbEntity
  8
0
  6
Continuous
 62
     7
100
AcDbSpline
210
0.0
220
0.0
230
1.0
 70
     8
 71
     3
 72
    14
 73
    10
 74
     0
 42
0.00000001
 43
0.00000001
 40
0.0
 40
0.0
 40
0.0
 40
0.0
 40
0.0837468195904906
 40
0.1671107192730607
 40
0.2516773658223166
 40
0.4999233232852683
 40
0.7483582931476329
 40
0.8745973259411207
 40
0.9999999999999999
 40
0.9999999999999999
 40
0.9999999999999999
 40
0.9999999999999999
 10
1574.790579697491
 20
181.3041199998198
 30
0.0
 10
1574.788238171869
 20
181.3169566257415
 30
0.0
 10
1574.783565826903
 20
181.3425711840172
 30
0.0
 10
1574.777845252451
 20
181.3790605334589
 30
0.0
 10
1574.770204195761
 20
181.4353488511705
 30
0.0
 10
1574.764997145923
 20
181.5011855169745
 30
0.0
 10
1574.770625938896
 20
181.5338113773747
 30
0.0
 10
1574.780233116432
 20
181.5377895935077
 30
0.0
 10
1574.78713848739
 20
181.5295434287222
 30
0.0
 10
1574.790579697491
 20
181.5254340498448
 30
0.0
  0
SPLINE
  5
38B
330
1F
100
AcDbEntity
  8
0
  6
Continuous
 62
     7
100
AcDbSpline
210
0.0
220
0.0
230
1.0
 70
     8
 71
     3
 72
    13
 73
     9
 74
     0
 42
0.00000001
 43
0.00000001
 40
0.0
 40
0.0
 40
0.0
 40
0.0
 40
0.165906659531236
 40
0.3316675344248181
 40
0.4976216786066407
 40
0.6641068106890292
 40
0.8314569199211069
 40
1.0
 40
1.0
 40
1.0
 40
1.0
 10
1574.896289844119
 20
180.2299546007932
 30
0.0
 10
1574.895724969758
 20
180.2864810617229
 30
0.0
 10
1574.8945957174
 20
180.3994843129443
 30
0.0
 10
1574.885446530307
 20
180.5740408471127
 30
0.0
 10
1574.870881949501
 20
180.7517966276602
 30
0.0
 10
1574.850220984441
 20
180.9329874524161
 30
0.0
 10
1574.824085379435
 20
181.1172223781085
 30
0.0
 10
1574.801774671322
 20
181.2416734575425
 30
0.0
 10
1574.790579697491
 20
181.3041199998198
 30
0.0
  0
SPLINE
  5
38C
330
1F
100
AcDbEntity
  8
0
  6
Continuous
 62
     7
100
AcDbSpline
210
0.0
220
0.0
230
1.0
 70
     8
 71
     3
 72
    13
 73
     9
 74
     0
 42
0.00000001
 43
0.00000001
 40
0.0
 40
0.0
 40
0.0
 40
0.0
 40
0.1685430800788726
 40
0.3358931893109363
 40
0.5023783213933217
 40
0.668332465575147
 40
0.8340933404687422
 40
1.0
 40
1.0
 40
1.0
 40
1.0
 10
1574.790579697491
 20
179.3121372598646
 30
0.0
 10
1574.801774671322
 20
179.3580939535755
 30
0.0
 10
1574.824085379435
 20
179.449682053268
 30
0.0
 10
1574.850220984441
 20
179.5952335456345
 30
0.0
 10
1574.870881949501
 20
179.7457972029385
 30
0.0
 10
1574.885446530307
 20
179.9019406685881
 30
0.0
 10
1574.894595717399
 20
180.0629308564111
 30
0.0
 10
1574.895724969758
 20
180.174263707195
 30
0.0
 10
1574.896289844119
 20
180.2299546007932
 30
0.0
  0
SPLINE
  5
38D
330
1F
100
AcDbEntity
  8
0
  6
Continuous
 62
     7
100
AcDbSpline
210
0.0
220
0.0
230
1.0
 70
     8
 71
     3
 72
    14
 73
    10
 74
     0
 42
0.00000001
 43
0.00000001
 40
0.0
 40
0.0
 40
0.0
 40
0.0
 40
0.0838023324187034
 40
0.1671770642069958
 40
0.251676652377252
 40
0.4999225990002131
 40
0.7483576082026058
 40
0.8746656612984398
 40
0.9999999999999999
 40
0.9999999999999999
 40
0.9999999999999999
 40
0.9999999999999999
 10
1574.790579697491
 20
178.8792174145171
 30
0.0
 10
1574.788236791286
 20
178.8887249446022
 30
0.0
 10
1574.783562933533
 20
178.9076914926874
 30
0.0
 10
1574.777843245551
 20
178.9409318101188
 30
0.0
 10
1574.770203224629
 20
179.0001039085951
 30
0.0
 10
1574.764997165198
 20
179.0944270187991
 30
0.0
 10
1574.770626903293
 20
179.1954973978694
 30
0.0
 10
1574.780234079487
 20
179.2673420133
 30
0.0
 10
1574.787140065583
 20
179.2972440790635
 30
0.0
 10
1574.790579697491
 20
179.3121372598646
 30
0.0
  0
SPLINE
  5
38E
330
1F
100
AcDbEntity
  8
0
  6
Continuous
 62
     7
100
AcDbSpline
210
0.0
220
0.0
230
1.0
 70
     8
 71
     3
 72
    16
 73
    12
 74
     0
 42
0.00000001
 43
0.00000001
 40
0.0
 40
0.0
 40
0.0
 40
0.0
 40
0.0839209305301696
 40
0.1673144080608339
 40
0.250387862235716
 40
0.3333528283465418
 40
0.41642337244505
 40
0.4998143879343724
 40
0.6663260177276403
 40
0.8324699101485036
 40
1.0
 40
1.0
 40
1.0
 40
1.0
 10
1574.790579697491
 20
176.9167939437148
 30
0.0
 10
1574.801729670761
 20
176.9785476385769
 30
0.0
 10
1574.823959538398
 20
177.1016668990062
 30
0.0
 10
1574.850062970839
 20
177.283763243469
 30
0.0
 10
1574.870714692516
 20
177.4628452335267
 30
0.0
 10
1574.885424125819
 20
177.6386910355444
 30
0.0
 10
1574.894296337489
 20
177.8112147008664
 30
0.0
 10
1574.898299069077
 20
178.0361281123309
 30
0.0
 10
1574.888199040433
 20
178.305572698079
 30
0.0
 10
1574.854002970804
 20
178.6088875408433
 30
0.0
 10
1574.811779259242
 20
178.7888582363999
 30
0.0
 10
1574.790579697491
 20
178.8792174145171
 30
0.0
  0
SPLINE
  5
38F
330
1F
100
AcDbEntity
  8
0
  6
Continuous
 62
     7
100
AcDbSpline
210
0.0
220
0.0
230
1.0
 70
     8
 71
     3
 72
    12
 73
     8
 74
     0
 42
0.00000001
 43
0.00000001
 40
0.0
 40
0.0
 40
0.0
 40
0.0
 40
0.1648509397908638
 40
0.3299215412360052
 40
0.4984060237468663
 40
0.7502078229300863
 40
0.9999999999999999
 40
0.9999999999999999
 40
0.9999999999999999
 40
0.9999999999999999
 10
1574.767231521368
 20
176.7309196642093
 30
0.0
 10
1574.767363166877
 20
176.7378906439628
 30
0.0
 10
1574.767626633311
 20
176.7518418922063
 30
0.0
 10
1574.769791204098
 20
176.7785751055648
 30
0.0
 10
1574.773793305126
 20
176.8140225621518
 30
0.0
 10
1574.780236031596
 20
176.8596795048304
 30
0.0
 10
1574.787141030421
 20
176.8978067159518
 30
0.0
 10
1574.790579697491
 20
176.9167939437148
 30
0.0
  0
ARC
  5
390
330
1F
100
AcDbEntity
  8
0
  6
Continuous
 62
     7
100
AcDbCircle
 10
1566.8491425828
 20
179.3620921402
 30
0.0
 40
8.343812140620017
100
AcDbArc
 50
319.0679941511
 51
341.6184080092
  0
SPLINE
  5
391
330
1F
100
AcDbEntity
  8
0
  6
Continuous
 62
     7
100
AcDbSpline
210
0.0
220
0.0
230
1.0
 70
     8
 71
     3
 72
    16
 73
    12
 74
     0
 42
0.00000001
 43
0.00000001
 40
0.0
 40
0.0
 40
0.0
 40
0.0
 40
0.0839762981769975
 40
0.1673944920119119
 40
0.2504691101520939
 40
0.3334182982992757
 40
0.4164614832594232
 40
0.4998170465149013
 40
0.6663918470888396
 40
0.8325505285282931
 40
1.0
 40
1.0
 40
1.0
 40
1.0
 10
1574.790579697491
 20
130.9138799405843
 30
0.0
 10
1574.801737359739
 20
130.922224005765
 30
0.0
 10
1574.823978530695
 20
130.9388566816816
 30
0.0
 10
1574.850090504104
 20
130.9749655187383
 30
0.0
 10
1574.870739024931
 20
131.0192113697934
 30
0.0
 10
1574.885438846654
 20
131.0723980833252
 30
0.0
 10
1574.894299690375
 20
131.1343338997627
 30
0.0
 10
1574.898298866973
 20
131.2283071950569
 30
0.0
 10
1574.888186287467
 20
131.3666974330046
 30
0.0
 10
1574.8539796293
 20
131.5626993223781
 30
0.0
 10
1574.811767450269
 20
131.7168509978538
 30
0.0
 10
1574.790579697491
 20
131.7942250558907
 30
0.0
  0
SPLINE
  5
392
330
1F
100
AcDbEntity
  8
0
  6
Continuous
 62
     7
100
AcDbSpline
210
0.0
220
0.0
230
1.0
 70
     8
 71
     3
 72
    14
 73
    10
 74
     0
 42
0.00000001
 43
0.00000001
 40
0.0
 40
0.0
 40
0.0
 40
0.0
 40
0.0837468194103198
 40
0.167110719093635
 40
0.2516773658144282
 40
0.4999233232793264
 40
0.7483582931436457
 40
0.8745973258935877
 40
1.0
 40
1.0
 40
1.0
 40
1.0
 10
1574.790579697491
 20
130.5695722569563
 30
0.0
 10
1574.788238171874
 20
130.5828090788888
 30
0.0
 10
1574.783565826914
 20
130.609222199378
 30
0.0
 10
1574.777845252466
 20
130.6495373609175
 30
0.0
 10
1574.770204195755
 20
130.7151384779691
 30
0.0
 10
1574.764997145926
 20
130.8027011261562
 30
0.0
 10
1574.770625938896
 20
130.8695232505939
 30
0.0
 10
1574.780233116429
 20
130.9033473077624
 30
0.0
 10
1574.787138487388
 20
130.9103768507945
 30
0.0
 10
1574.790579697491
 20
130.9138799405843
 30
0.0
  0
SPLINE
  5
393
330
1F
100
AcDbEntity
  8
0
  6
Continuous
 62
     7
100
AcDbSpline
210
0.0
220
0.0
230
1.0
 70
     8
 71
     3
 72
    13
 73
     9
 74
     0
 42
0.00000001
 43
0.00000001
 40
0.0
 40
0.0
 40
0.0
 40
0.0
 40
0.1659066595312374
 40
0.3316675344248188
 40
0.4976216786066395
 40
0.6641068106890288
 40
0.831456919921104
 40
1.0
 40
1.0
 40
1.0
 40
1.0
 10
1574.896289844119
 20
129.4168627252626
 30
0.0
 10
1574.895724969758
 20
129.4807607269811
 30
0.0
 10
1574.894595717399
 20
129.6085005822983
 30
0.0
 10
1574.885446530307
 20
129.8010080778199
 30
0.0
 10
1574.870881949501
 20
129.9936280077999
 30
0.0
 10
1574.850220984441
 20
130.1862040031353
 30
0.0
 10
1574.824085379435
 20
130.3787115395195
 30
0.0
 10
1574.801774671322
 20
130.5058015585849
 30
0.0
 10
1574.790579697491
 20
130.5695722569563
 30
0.0
  0
SPLINE
  5
394
330
1F
100
AcDbEntity
  8
0
  6
Continuous
 62
     7
100
AcDbSpline
210
0.0
220
0.0
230
1.0
 70
     8
 71
     3
 72
    13
 73
     9
 74
     0
 42
0.00000001
 43
0.00000001
 40
0.0
 40
0.0
 40
0.0
 40
0.0
 40
0.1685430800788782
 40
0.3358931893109461
 40
0.502378321393333
 40
0.6683324655751546
 40
0.8340933404687467
 40
0.9999999999999999
 40
0.9999999999999999
 40
0.9999999999999999
 40
0.9999999999999999
 10
1574.790579697491
 20
128.3049184603802
 30
0.0
 10
1574.801774671322
 20
128.3643896932855
 30
0.0
 10
1574.824085379435
 20
128.48291121362
 30
0.0
 10
1574.850220984441
 20
128.6653326606731
 30
0.0
 10
1574.870881949501
 20
128.8499231097341
 30
0.0
 10
1574.885446530307
 20
129.0369079727109
 30
0.0
 10
1574.894595717399
 20
129.2258782594232
 30
0.0
 10
1574.895724969758
 20
129.353182584422
 30
0.0
 10
1574.896289844119
 20
129.4168627252626
 30
0.0
  0
SPLINE
  5
395
330
1F
100
AcDbEntity
  8
0
  6
Continuous
 62
     7
100
AcDbSpline
210
0.0
220
0.0
230
1.0
 70
     8
 71
     3
 72
    14
 73
    10
 74
     0
 42
0.00000001
 43
0.00000001
 40
0.0
 40
0.0
 40
0.0
 40
0.0
 40
0.0838023325077847
 40
0.1671770642951859
 40
0.2516766523795012
 40
0.4999225989998686
 40
0.7483576081996344
 40
0.8746656611627913
 40
1.0
 40
1.0
 40
1.0
 40
1.0
 10
1574.790579697491
 20
127.9054379347604
 30
0.0
 10
1574.788236791283
 20
127.9107667019032
 30
0.0
 10
1574.783562933528
 20
127.9213970461977
 30
0.0
 10
1574.777843245544
 20
127.9436602240465
 30
0.0
 10
1574.770203224632
 20
127.9870326288496
 30
0.0
 10
1574.764997165196
 20
128.0664737034242
 30
0.0
 10
1574.770626903295
 20
128.1679510516157
 30
0.0
 10
1574.780234079479
 20
128.2483738400924
 30
0.0
 10
1574.787140065577
 20
128.2861189376972
 30
0.0
 10
1574.790579697491
 20
128.3049184603802
 30
0.0
  0
SPLINE
  5
396
330
1F
100
AcDbEntity
  8
0
  6
Continuous
 62
     7
100
AcDbSpline
210
0.0
220
0.0
230
1.0
 70
     8
 71
     3
 72
    16
 73
    12
 74
     0
 42
0.00000001
 43
0.00000001
 40
0.0
 40
0.0
 40
0.0
 40
0.0
 40
0.0839209305182822
 40
0.1673144080418394
 40
0.2503878622143731
 40
0.3333528283275505
 40
0.4164233724330119
 40
0.4998143879337537
 40
0.666326017708493
 40
0.8324699101293828
 40
1.0
 40
1.0
 40
1.0
 40
1.0
 10
1574.790579697491
 20
126.5211292534909
 30
0.0
 10
1574.80172967076
 20
126.5719961671273
 30
0.0
 10
1574.823959538393
 20
126.6734102898193
 30
0.0
 10
1574.850062970833
 20
126.8190592294816
 30
0.0
 10
1574.87071469251
 20
126.9590040605501
 30
0.0
 10
1574.885424125815
 20
127.0927461860413
 30
0.0
 10
1574.894296337487
 20
127.2202809229181
 30
0.0
 10
1574.898299069078
 20
127.3815525195493
 30
0.0
 10
1574.888199040437
 20
127.5650301192192
 30
0.0
 10
1574.85400297081
 20
127.7563815045761
 30
0.0
 10
1574.811779259245
 20
127.8556150411897
 30
0.0
 10
1574.790579697491
 20
127.9054379347604
 30
0.0
  0
SPLINE
  5
397
330
1F
100
AcDbEntity
  8
0
  6
Continuous
 62
     7
100
AcDbSpline
210
0.0
220
0.0
230
1.0
 70
     8
 71
     3
 72
    12
 73
     8
 74
     0
 42
0.00000001
 43
0.00000001
 40
0.0
 40
0.0
 40
0.0
 40
0.0
 40
0.1648509397055117
 40
0.3299215411508061
 40
0.4984060237423976
 40
0.7502078228326488
 40
1.0
 40
1.0
 40
1.0
 40
1.0
 10
1574.767231521368
 20
126.4025109398729
 30
0.0
 10
1574.767363166877
 20
126.404723339669
 30
0.0
 10
1574.767626633311
 20
126.4091510872554
 30
0.0
 10
1574.769791204099
 20
126.4226000345761
 30
0.0
 10
1574.773793305124
 20
126.4438361564675
 30
0.0
 10
1574.780236031593
 20
126.4751273915416
 30
0.0
 10
1574.787141030419
 20
126.505836310977
 30
0.0
 10
1574.790579697491
 20
126.5211292534909
 30
0.0
  0
ARC
  5
398
330
1F
100
AcDbEntity
  8
0
  6
Continuous
 62
     7
100
AcDbCircle
 10
1565.2681111918
 20
129.1439637202
 30
0.0
 40
9.886801827852581
100
AcDbArc
 50
322.8915831511
 51
343.9018230323
  0
SPLINE
  5
399
330
1F
100
AcDbEntity
  8
0
  6
Continuous
 62
     7
100
AcDbSpline
210
0.0
220
0.0
230
1.0
 70
     8
 71
     3
 72
    16
 73
    12
 74
     0
 42
0.00000001
 43
0.00000001
 40
0.0
 40
0.0
 40
0.0
 40
0.0
 40
0.0839762981258334
 40
0.1673944919301098
 40
0.2504691100601136
 40
0.3334182982173652
 40
0.4164614832074671
 40
0.4998170465122641
 40
0.6663918470074113
 40
0.8325505284468441
 40
1.0
 40
1.0
 40
1.0
 40
1.0
 10
2470.314843736283
 20
179.623470390602
 30
0.0
 10
2470.303686074042
 20
179.5678612364079
 30
0.0
 10
2470.281444903098
 20
179.4570125050307
 30
0.0
 10
2470.255332929696
 20
179.2848047735492
 30
0.0
 10
2470.234684408869
 20
179.1092082710767
 30
0.0
 10
2470.21998458714
 20
178.9298117099028
 30
0.0
 10
2470.21112374341
 20
178.7468120996247
 30
0.0
 10
2470.207124566798
 20
178.4986579634916
 30
0.0
 10
2470.217237146291
 20
178.1827914943125
 30
0.0
 10
2470.251443804454
 20
177.7983047822751
 30
0.0
 10
2470.293655983495
 20
177.5429454707004
 30
0.0
 10
2470.314843736283
 20
177.4147717992965
 30
0.0
  0
SPLINE
  5
39A
330
1F
100
AcDbEntity
  8
0
  6
Continuous
 62
     7
100
AcDbSpline
210
0.0
220
0.0
230
1.0
 70
     8
 71
     3
 72
    13
 73
     9
 74
     0
 42
0.00000001
 43
0.00000001
 40
0.0
 40
0.0
 40
0.0
 40
0.0
 40
0.1247566173021924
 40
0.2502697142828938
 40
0.4994973261293907
 40
0.7487509998612667
 40
0.8744077894314988
 40
1.0
 40
1.0
 40
1.0
 40
1.0
 10
2470.327919775307
 20
179.9910899666334
 30
0.0
 10
2470.329848285476
 20
179.9788892395959
 30
0.0
 10
2470.333716999613
 20
179.9544138046591
 30
0.0
 10
2470.338157556568
 20
179.8968148374758
 30
0.0
 10
2470.338929017965
 20
179.8158054646992
 30
0.0
 10
2470.332236127549
 20
179.7312994280471
 30
0.0
 10
2470.323478495712
 20
179.667317567152
 30
0.0
 10
2470.317721496182
 20
179.6380836114325
 30
0.0
 10
2470.314843736283
 20
179.623470390602
 30
0.0
  0
SPLINE
  5
39B
330
1F
100
AcDbEntity
  8
0
  6
Continuous
 62
     7
100
AcDbSpline
210
0.0
220
0.0
230
1.0
 70
     8
 71
     3
 72
     9
 73
     5
 74
     0
 42
0.00000001
 43
0.00000001
 40
0.0
 40
0.0
 40
0.0
 40
0.0
 40
0.501064808502337
 40
0.9999999999999999
 40
0.9999999999999999
 40
0.9999999999999999
 40
0.9999999999999999
 10
2470.314843736283
 20
180.0410486149337
 30
0.0
 10
2470.317313694415
 20
180.0339063058869
 30
0.0
 10
2470.322243112903
 20
180.0196520439121
 30
0.0
 10
2470.326030242885
 20
180.0005971325052
 30
0.0
 10
2470.327919775307
 20
179.9910899666334
 30
0.0
  0
SPLINE
  5
39C
330
1F
100
AcDbEntity
  8
0
  6
Continuous
 62
     7
100
AcDbSpline
210
0.0
220
0.0
230
1.0
 70
     8
 71
     3
 72
    16
 73
    12
 74
     0
 42
0.00000001
 43
0.00000001
 40
0.0
 40
0.0
 40
0.0
 40
0.0
 40
0.0842371107360232
 40
0.1678795382908356
 40
0.251091032221301
 40
0.3340383251947161
 40
0.4168900028476391
 40
0.4998153101245618
 40
0.6657051861284878
 40
0.8319852586245449
 40
1.0
 40
1.0
 40
1.0
 40
1.0
 10
2470.314843736283
 20
181.6466217451033
 30
0.0
 10
2470.303655596581
 20
181.5909736796059
 30
0.0
 10
2470.28135830135
 20
181.4800704035929
 30
0.0
 10
2470.255226241281
 20
181.3191094789149
 30
0.0
 10
2470.234593219502
 20
181.163240172095
 30
0.0
 10
2470.219933510787
 20
181.0129296378059
 30
0.0
 10
2470.211114632872
 20
180.8682631736409
 30
0.0
 10
2470.207135515134
 20
180.683197764089
 30
0.0
 10
2470.217216175927
 20
180.4677790738002
 30
0.0
 10
2470.251325469966
 20
180.2347372407474
 30
0.0
 10
2470.293597863143
 20
180.1058344507466
 30
0.0
 10
2470.314843736283
 20
180.0410486149337
 30
0.0
  0
SPLINE
  5
39D
330
1F
100
AcDbEntity
  8
0
  6
Continuous
 62
     7
100
AcDbSpline
210
0.0
220
0.0
230
1.0
 70
     8
 71
     3
 72
     9
 73
     5
 74
     0
 42
0.00000001
 43
0.00000001
 40
0.0
 40
0.0
 40
0.0
 40
0.0
 40
0.4989351914991517
 40
0.9999999999999999
 40
0.9999999999999999
 40
0.9999999999999999
 40
0.9999999999999999
 10
2470.327919775307
 20
181.7130707803329
 30
0.0
 10
2470.326030242885
 20
181.7028709104031
 30
0.0
 10
2470.322243112903
 20
181.6824276341949
 30
0.0
 10
2470.317313694415
 20
181.6585739745203
 30
0.0
 10
2470.314843736283
 20
181.6466217451033
 30
0.0
  0
SPLINE
  5
39E
330
1F
100
AcDbEntity
  8
0
  6
Continuous
 62
     7
100
AcDbSpline
210
0.0
220
0.0
230
1.0
 70
     8
 71
     3
 72
    13
 73
     9
 74
     0
 42
0.00000001
 43
0.00000001
 40
0.0
 40
0.0
 40
0.0
 40
0.0
 40
0.1255391548934414
 40
0.2505272282570565
 40
0.4999057788130233
 40
0.7494227264660273
 40
0.8746535167898188
 40
1.0
 40
1.0
 40
1.0
 40
1.0
 10
2470.314843736283
 20
181.7563675493321
 30
0.0
 10
2470.317723131168
 20
181.7642741050353
 30
0.0
 10
2470.323469281206
 20
181.7800525088889
 30
0.0
 10
2470.332251505138
 20
181.799060447498
 30
0.0
 10
2470.3388964521
 20
181.8038954122458
 30
0.0
 10
2470.338210579737
 20
181.779801421795
 30
0.0
 10
2470.333742228649
 20
181.7464440184619
 30
0.0
 10
2470.329861190387
 20
181.7241986166501
 30
0.0
 10
2470.327919775307
 20
181.7130707803329
 30
0.0
  0
LINE
  5
39F
330
1F
100
AcDbEntity
  8
0
  6
Continuous
 62
     7
100
AcDbLine
 10
2470.2657877145
 20
181.2215168456
 30
0.0
 11
2470.209133623
 21
181.3003663774
 31
0.0
  0
LINE
  5
3A0
330
1F
100
AcDbEntity
  8
0
  6
Continuous
 62
     7
100
AcDbLine
 10
2470.2679541142
 20
181.5541000278
 30
0.0
 11
2470.3148437363
 21
181.7563675493
 31
0.0
  0
LINE
  5
3A1
330
1F
100
AcDbEntity
  8
0
  6
Continuous
 62
     7
100
AcDbLine
 10
2471.9526341739
 20
185.1300907337
 30
0.0
 11
2471.9526341739
 21
174.9109472717
 31
0.0
  0
ARC
  5
3A2
330
1F
100
AcDbEntity
  8
0
  6
Continuous
 62
     7
100
AcDbCircle
 10
2476.3626716764
 20
179.7392343472
 30
0.0
 40
6.539173254822636
100
AcDbArc
 50
202.8844853355
 51
227.5921997523
  0
SPLINE
  5
3A3
330
1F
100
AcDbEntity
  8
0
  6
Continuous
 62
     7
100
AcDbSpline
210
0.0
220
0.0
230
1.0
 70
     8
 71
     3
 72
    12
 73
     8
 74
     0
 42
0.00000001
 43
0.00000001
 40
0.0
 40
0.0
 40
0.0
 40
0.0
 40
0.1670444632030244
 40
0.3333684214349112
 40
0.5020689749566211
 40
0.7529675846377274
 40
0.9999999999999999
 40
0.9999999999999999
 40
0.9999999999999999
 40
0.9999999999999999
 10
2470.314843736283
 20
177.4147717992965
 30
0.0
 10
2470.317185242262
 20
177.4014496556397
 30
0.0
 10
2470.321858154713
 20
177.3748628300973
 30
0.0
 10
2470.327588459507
 20
177.3351646616604
 30
0.0
 10
2470.332946069733
 20
177.2903851894822
 30
0.0
 10
2470.337294258154
 20
177.2417054066428
 30
0.0
 10
2470.337894247198
 20
177.2113677143056
 30
0.0
 10
2470.338191912407
 20
177.1963166469134
 30
0.0
  0
SPLINE
  5
3A4
330
1F
100
AcDbEntity
  8
0
  6
Continuous
 62
     7
100
AcDbSpline
210
0.0
220
0.0
230
1.0
 70
     8
 71
     3
 72
    16
 73
    12
 74
     0
 42
0.00000001
 43
0.00000001
 40
0.0
 40
0.0
 40
0.0
 40
0.0
 40
0.0839762981140652
 40
0.16739449191129
 40
0.2504691100389528
 40
0.3334182981985193
 40
0.4164614831955098
 40
0.499817046511651
 40
0.6663918469887175
 40
0.8325505284281489
 40
1.0
 40
1.0
 40
1.0
 40
1.0
 10
2470.314843736283
 20
128.6486244577133
 30
0.0
 10
2470.303686074044
 20
128.6082154871711
 30
0.0
 10
2470.281444903102
 20
128.5276661030652
 30
0.0
 10
2470.255332929702
 20
128.3978864331677
 30
0.0
 10
2470.234684408875
 20
128.2621951490785
 30
0.0
 10
2470.219984587144
 20
128.1199578387995
 30
0.0
 10
2470.211123743412
 20
127.9713909970886
 30
0.0
 10
2470.207124566797
 20
127.7654138947746
 30
0.0
 10
2470.217237146287
 20
127.4947442110828
 30
0.0
 10
2470.251443804449
 20
127.1528180068228
 30
0.0
 10
2470.293655983493
 20
126.9148852426093
 30
0.0
 10
2470.314843736283
 20
126.7954585581067
 30
0.0
  0
SPLINE
  5
3A5
330
1F
100
AcDbEntity
  8
0
  6
Continuous
 62
     7
100
AcDbSpline
210
0.0
220
0.0
230
1.0
 70
     8
 71
     3
 72
    13
 73
     9
 74
     0
 42
0.00000001
 43
0.00000001
 40
0.0
 40
0.0
 40
0.0
 40
0.0
 40
0.1247566171809425
 40
0.2502697142815927
 40
0.4994973261303811
 40
0.7487509998645844
 40
0.8744077896292697
 40
1.0
 40
1.0
 40
1.0
 40
1.0
 10
2470.327919775307
 20
129.0087057824989
 30
0.0
 10
2470.329848285473
 20
128.993295312293
 30
0.0
 10
2470.333716999608
 20
128.9623809282507
 30
0.0
 10
2470.33815755657
 20
128.8964531473412
 30
0.0
 10
2470.338929017964
 20
128.8117723383095
 30
0.0
 10
2470.33223612755
 20
128.7343705933058
 30
0.0
 10
2470.323478495703
 20
128.6811993125189
 30
0.0
 10
2470.317721496176
 20
128.6594808818609
 30
0.0
 10
2470.314843736283
 20
128.6486244577133
 30
0.0
  0
SPLINE
  5
3A6
330
1F
100
AcDbEntity
  8
0
  6
Continuous
 62
     7
100
AcDbSpline
210
0.0
220
0.0
230
1.0
 70
     8
 71
     3
 72
     9
 73
     5
 74
     0
 42
0.00000001
 43
0.00000001
 40
0.0
 40
0.0
 40
0.0
 40
0.0
 40
0.5010648085023512
 40
1.0
 40
1.0
 40
1.0
 40
1.0
 10
2470.314843736283
 20
129.0794062161856
 30
0.0
 10
2470.317313694415
 20
129.0684172195814
 30
0.0
 10
2470.322243112903
 20
129.0464859316169
 30
0.0
 10
2470.326030242885
 20
129.0212812734486
 30
0.0
 10
2470.327919775307
 20
129.0087057824989
 30
0.0
  0
SPLINE
  5
3A7
330
1F
100
AcDbEntity
  8
0
  6
Continuous
 62
     7
100
AcDbSpline
210
0.0
220
0.0
230
1.0
 70
     8
 71
     3
 72
    16
 73
    12
 74
     0
 42
0.00000001
 43
0.00000001
 40
0.0
 40
0.0
 40
0.0
 40
0.0
 40
0.0842371107753943
 40
0.1678795383538463
 40
0.251091032292217
 40
0.3340383252579118
 40
0.4168900028877177
 40
0.4998153101264607
 40
0.6657051861917331
 40
0.8319852586876064
 40
1.0
 40
1.0
 40
1.0
 40
1.0
 10
2470.314843736283
 20
131.1611166672265
 30
0.0
 10
2470.303655596576
 20
131.097581835073
 30
0.0
 10
2470.281358301337
 20
130.9709607034466
 30
0.0
 10
2470.255226241261
 20
130.7824874930015
 30
0.0
 10
2470.234593219483
 20
130.5963850800907
 30
0.0
 10
2470.219933510773
 20
130.4128721704519
 30
0.0
 10
2470.211114632864
 20
130.2321418781068
 30
0.0
 10
2470.207135515136
 20
129.9952727925859
 30
0.0
 10
2470.21721617594
 20
129.7081777804936
 30
0.0
 10
2470.251325469982
 20
129.3795180945087
 30
0.0
 10
2470.293597863151
 20
129.1797889763525
 30
0.0
 10
2470.314843736283
 20
129.0794062161856
 30
0.0
  0
SPLINE
  5
3A8
330
1F
100
AcDbEntity
  8
0
  6
Continuous
 62
     7
100
AcDbSpline
210
0.0
220
0.0
230
1.0
 70
     8
 71
     3
 72
     9
 73
     5
 74
     0
 42
0.00000001
 43
0.00000001
 40
0.0
 40
0.0
 40
0.0
 40
0.0
 40
0.4989351914992219
 40
1.0
 40
1.0
 40
1.0
 40
1.0
 10
2470.327919775307
 20
131.241344949792
 30
0.0
 10
2470.326030242885
 20
131.2283692269003
 30
0.0
 10
2470.322243112904
 20
131.2023623965288
 30
0.0
 10
2470.317313694415
 20
131.1748847492822
 30
0.0
 10
2470.314843736283
 20
131.1611166672265
 30
0.0
  0
SPLINE
  5
3A9
330
1F
100
AcDbEntity
  8
0
  6
Continuous
 62
     7
100
AcDbSpline
210
0.0
220
0.0
230
1.0
 70
     8
 71
     3
 72
    13
 73
     9
 74
     0
 42
0.00000001
 43
0.00000001
 40
0.0
 40
0.0
 40
0.0
 40
0.0
 40
0.1255391550260164
 40
0.2505272282595253
 40
0.4999057788143255
 40
0.7494227264661368
 40
0.8746535167530531
 40
0.9999999999999999
 40
0.9999999999999999
 40
0.9999999999999999
 40
0.9999999999999999
 10
2470.314843736283
 20
131.4140383917737
 30
0.0
 10
2470.317723131172
 20
131.4162002628159
 30
0.0
 10
2470.323469281212
 20
131.4205145148909
 30
0.0
 10
2470.332251505138
 20
131.4153702092702
 30
0.0
 10
2470.3388964521
 20
131.3895396220212
 30
0.0
 10
2470.338210579736
 20
131.3378052461104
 30
0.0
 10
2470.33374222865
 20
131.2858252478774
 30
0.0
 10
2470.329861190387
 20
131.2561762788533
 30
0.0
 10
2470.327919775307
 20
131.241344949792
 30
0.0
  0
SPLINE
  5
3AA
330
1F
100
AcDbEntity
  8
0
  6
Continuous
 62
     7
100
AcDbSpline
210
0.0
220
0.0
230
1.0
 70
     8
 71
     3
 72
     9
 73
     5
 74
     0
 42
0.00000001
 43
0.00000001
 40
0.0
 40
0.0
 40
0.0
 40
0.0
 40
0.1676844486708269
 40
1.0
 40
1.0
 40
1.0
 40
1.0
 10
2470.230454347685
 20
131.4243634975592
 30
0.0
 10
2470.222156380571
 20
131.4041929048734
 30
0.0
 10
2470.172670771261
 20
131.2839039165641
 30
0.0
 10
2470.25026273675
 20
131.3549257856495
 30
0.0
 10
2470.314843736284
 20
131.4140383917737
 30
0.0
  0
LINE
  5
3AB
330
1F
100
AcDbEntity
  8
0
  6
Continuous
 62
     7
100
AcDbLine
 10
2471.9526341739
 20
135.1300907337
 30
0.0
 11
2471.9526341739
 21
123.6597481661
 31
0.0
  0
ARC
  5
3AC
330
1F
100
AcDbEntity
  8
0
  6
Continuous
 62
     7
100
AcDbCircle
 10
2478.7541896369
 20
129.2869309716
 30
0.0
 40
8.827589877325202
100
AcDbArc
 50
197.5651616366
 51
219.6022343763
  0
SPLINE
  5
3AD
330
1F
100
AcDbEntity
  8
0
  6
Continuous
 62
     7
100
AcDbSpline
210
0.0
220
0.0
230
1.0
 70
     8
 71
     3
 72
    12
 73
     8
 74
     0
 42
0.00000001
 43
0.00000001
 40
0.0
 40
0.0
 40
0.0
 40
0.0
 40
0.1670444631978567
 40
0.3333684214297495
 40
0.5020689749563536
 40
0.75296758463196
 40
1.0
 40
1.0
 40
1.0
 40
1.0
 10
2470.314843736283
 20
126.7954585581067
 30
0.0
 10
2470.317185242262
 20
126.7831044216869
 30
0.0
 10
2470.321858154713
 20
126.7584494353584
 30
0.0
 10
2470.327588459506
 20
126.7241153181941
 30
0.0
 10
2470.332946069733
 20
126.6875876315052
 30
0.0
 10
2470.337294258154
 20
126.6508545290937
 30
0.0
 10
2470.337894247198
 20
126.6321366580776
 30
0.0
 10
2470.338191912407
 20
126.6228503901909
 30
0.0
  0
LINE
  5
3AE
330
1F
100
AcDbEntity
  8
0
  6
Continuous
 62
     7
100
AcDbLine
 10
2471.9526341739
 20
174.9109472717
 30
0.0
 11
2474.5526341739
 21
174.9109472717
 31
0.0
  0
LINE
  5
3AF
330
1F
100
AcDbEntity
  8
0
  6
Continuous
 62
     7
100
AcDbLine
 10
2471.9526341739
 20
123.6597481661
 30
0.0
 11
2474.5526341739
 21
123.6597481661
 31
0.0
  0
LINE
  5
3B0
330
1F
100
AcDbEntity
  8
0
  6
Continuous
 62
     7
100
AcDbLine
 10
2471.9526341739
 20
174.9109472717
 30
0.0
 11
2471.9526341739
 21
173.1300907337
 31
0.0
  0
SPLINE
  5
3B1
330
1F
100
AcDbEntity
  8
0
  6
Continuous
 62
     7
100
AcDbSpline
210
0.0
220
0.0
230
1.0
 70
     8
 71
     3
 72
     9
 73
     5
 74
     0
 42
0.00000001
 43
0.00000001
 40
0.0
 40
0.0
 40
0.0
 40
0.0
 40
0.4880035977031698
 40
1.0
 40
1.0
 40
1.0
 40
1.0
 10
2470.265787744236
 20
179.1300907336947
 30
0.0
 10
2470.237692328799
 20
179.3164891562347
 30
0.0
 10
2470.180120180626
 20
179.6984503209007
 30
0.0
 10
2470.238577483889
 20
180.1249318793767
 30
0.0
 10
2470.268507412848
 20
180.3432889029623
 30
0.0
  0
LINE
  5
3B2
330
1F
100
AcDbEntity
  8
0
  6
Continuous
 62
     7
100
AcDbLine
 10
2470.2658087975
 20
177.0386939645
 30
0.0
 11
2470.2091335897
 21
177.5300695458
 31
0.0
  0
SPLINE
  5
3B3
330
1F
100
AcDbEntity
  8
0
  6
Continuous
 62
     7
100
AcDbSpline
210
0.0
220
0.0
230
1.0
 70
     8
 71
     3
 72
     9
 73
     5
 74
     0
 42
0.00000001
 43
0.00000001
 40
0.0
 40
0.0
 40
0.0
 40
0.0
 40
0.6404080043516459
 40
1.0
 40
1.0
 40
1.0
 40
1.0
 10
2470.314843736284
 20
177.1069393791936
 30
0.0
 10
2470.257053644529
 20
177.0908119849728
 30
0.0
 10
2470.16681415445
 20
177.065628985836
 30
0.0
 10
2470.241550193703
 20
176.7996834640551
 30
0.0
 10
2470.268424675206
 20
176.7040515831441
 30
0.0
  0
SPLINE
  5
3B4
330
1F
100
AcDbEntity
  8
0
  6
Continuous
 62
     7
100
AcDbSpline
210
0.0
220
0.0
230
1.0
 70
     8
 71
     3
 72
    12
 73
     8
 74
     0
 42
0.00000001
 43
0.00000001
 40
0.0
 40
0.0
 40
0.0
 40
0.0
 40
0.1648509398045646
 40
0.3299215412496952
 40
0.4984060237476101
 40
0.7502078229458687
 40
1.0
 40
1.0
 40
1.0
 40
1.0
 10
2470.338191912407
 20
177.1963166469134
 30
0.0
 10
2470.338060266898
 20
177.187194439368
 30
0.0
 10
2470.337796800463
 20
177.1689378690594
 30
0.0
 10
2470.335632229677
 20
177.1467650618807
 30
0.0
 10
2470.331630128648
 20
177.1261460034285
 30
0.0
 10
2470.325187402178
 20
177.1097515699196
 30
0.0
 10
2470.318282403354
 20
177.1078742689845
 30
0.0
 10
2470.314843736283
 20
177.1069393791936
 30
0.0
  0
LINE
  5
3B5
330
1F
100
AcDbEntity
  8
0
  6
Continuous
 62
     7
100
AcDbLine
 10
1561.5527892599
 20
182.1300907337
 30
0.0
 11
1561.5527892599
 21
176.5128132034
 31
0.0
  0
LINE
  5
3B6
330
1F
100
AcDbEntity
  8
0
  6
Continuous
 62
     7
100
AcDbLine
 10
1560.5527892599
 20
177.3852390468
 30
0.0
 11
1561.5527892599
 21
176.5128132034
 31
0.0
  0
LINE
  5
3B7
330
1F
100
AcDbEntity
  8
0
  6
Continuous
 62
     7
100
AcDbLine
 10
1560.5527892599
 20
177.3852390468
 30
0.0
 11
1560.5527892599
 21
181.1300907337
 31
0.0
  0
LINE
  5
3B8
330
1F
100
AcDbEntity
  8
0
  6
Continuous
 62
     7
100
AcDbLine
 10
1561.5527892599
 20
132.1300907337
 30
0.0
 11
1561.5527892599
 21
126.1545491405
 31
0.0
  0
LINE
  5
3B9
330
1F
100
AcDbEntity
  8
0
  6
Continuous
 62
     7
100
AcDbLine
 10
1560.5527892599
 20
127.1463963382
 30
0.0
 11
1561.5527892599
 21
126.1545491405
 31
0.0
  0
LINE
  5
3BA
330
1F
100
AcDbEntity
  8
0
  6
Continuous
 62
     7
100
AcDbLine
 10
1560.5527892599
 20
127.1463963382
 30
0.0
 11
1560.5527892599
 21
131.1300907337
 31
0.0
  0
LINE
  5
3BB
330
1F
100
AcDbEntity
  8
0
  6
Continuous
 62
     7
100
AcDbLine
 10
2483.5526341739
 20
177.0205190027
 30
0.0
 11
2483.5526341739
 21
182.1300907337
 31
0.0
  0
LINE
  5
3BC
330
1F
100
AcDbEntity
  8
0
  6
Continuous
 62
     7
100
AcDbLine
 10
2483.5526341739
 20
126.3949194499
 30
0.0
 11
2483.5526341739
 21
132.1300907337
 31
0.0
  0
LINE
  5
3BD
330
1F
100
AcDbEntity
  8
0
  6
Continuous
 62
     7
100
AcDbLine
 10
2484.5526341739
 20
177.7237095797
 30
0.0
 11
2483.5526341739
 21
177.0205190027
 31
0.0
  0
LINE
  5
3BE
330
1F
100
AcDbEntity
  8
0
  6
Continuous
 62
     7
100
AcDbLine
 10
2484.5526341739
 20
181.1300907337
 30
0.0
 11
2484.5526341739
 21
177.7237095797
 31
0.0
  0
LINE
  5
3BF
330
1F
100
AcDbEntity
  8
0
  6
Continuous
 62
     7
100
AcDbLine
 10
2484.5526341739
 20
127.3066432112
 30
0.0
 11
2483.5526341739
 21
126.3949194499
 31
0.0
  0
LINE
  5
3C0
330
1F
100
AcDbEntity
  8
0
  6
Continuous
 62
     7
100
AcDbLine
 10
2484.5526341739
 20
131.1300907337
 30
0.0
 11
2484.5526341739
 21
127.3066432112
 31
0.0
  0
LINE
  5
3C1
330
1F
100
AcDbEntity
  8
0
  6
Continuous
 62
     7
100
AcDbLine
 10
1574.893098748
 20
176.8746364056
 30
0.0
 11
1574.7905796975
 21
176.7051881484
 31
0.0
  0
SPLINE
  5
3C2
330
1F
100
AcDbEntity
  8
0
  6
Continuous
 62
     7
100
AcDbSpline
210
0.0
220
0.0
230
1.0
 70
     8
 71
     3
 72
     9
 73
     5
 74
     0
 42
0.00000001
 43
0.00000001
 40
0.0
 40
0.0
 40
0.0
 40
0.0
 40
0.498935191499221
 40
1.0
 40
1.0
 40
1.0
 40
1.0
 10
1574.777503658467
 20
179.0145880407232
 30
0.0
 10
1574.77939319089
 20
179.0026011836241
 30
0.0
 10
1574.783180320871
 20
178.9785763056374
 30
0.0
 10
1574.78810973936
 20
178.9582360125739
 30
0.0
 10
1574.790579697491
 20
178.9480442075252
 30
0.0
  0
SPLINE
  5
3C3
330
1F
100
AcDbEntity
  8
0
  6
Continuous
 62
     7
100
AcDbSpline
210
0.0
220
0.0
230
1.0
 70
     8
 71
     3
 72
     9
 73
     5
 74
     0
 42
0.00000001
 43
0.00000001
 40
0.0
 40
0.0
 40
0.0
 40
0.0
 40
0.9747808485630428
 40
1.0
 40
1.0
 40
1.0
 40
1.0
 10
1574.790579697492
 20
181.343387523675
 30
0.0
 10
1574.860145470094
 20
180.9627029836008
 30
0.0
 10
1574.931511021339
 20
180.5721695209919
 30
0.0
 10
1574.894491544646
 20
180.2654497930607
 30
0.0
 10
1574.893557944857
 20
180.2577145817933
 30
0.0
  0
LINE
  5
3C4
330
1F
100
AcDbEntity
  8
0
  6
Continuous
 62
     7
100
AcDbLine
 10
1573.1527892599
 20
173.1300907337
 30
0.0
 11
1573.1527892599
 21
173.895535673
 31
0.0
  0
SPLINE
  5
3C5
330
1F
100
AcDbEntity
  8
0
  6
Continuous
 62
     7
100
AcDbSpline
210
0.0
220
0.0
230
1.0
 70
     8
 71
     3
 72
    12
 73
     8
 74
     0
 42
0.00000001
 43
0.00000001
 40
0.0
 40
0.0
 40
0.0
 40
0.0
 40
0.1670444629464976
 40
0.3333684211786557
 40
0.5020689749434408
 40
0.7529675843541233
 40
0.9999999999999999
 40
0.9999999999999999
 40
0.9999999999999999
 40
0.9999999999999999
 10
1574.790579697491
 20
176.7051881483922
 30
0.0
 10
1574.788238191516
 20
176.7018540799915
 30
0.0
 10
1574.78356527907
 20
176.6952003238644
 30
0.0
 10
1574.777834974279
 20
176.6919164718637
 30
0.0
 10
1574.772477364044
 20
176.6941167709084
 30
0.0
 10
1574.768129175617
 20
176.7044921474146
 30
0.0
 10
1574.767529186576
 20
176.7221562095797
 30
0.0
 10
1574.767231521368
 20
176.7309196642093
 30
0.0
  0
LINE
  5
3C6
330
1F
100
AcDbEntity
  8
0
  6
Continuous
 62
     7
100
AcDbLine
 10
2471.9526341739
 20
123.6597481661
 30
0.0
 11
2471.9526341739
 21
123.1300907337
 31
0.0
  0
SPLINE
  5
3C7
330
1F
100
AcDbEntity
  8
0
  6
Continuous
 62
     7
100
AcDbSpline
210
0.0
220
0.0
230
1.0
 70
     8
 71
     3
 72
    13
 73
     9
 74
     0
 42
0.00000001
 43
0.00000001
 40
0.0
 40
0.0
 40
0.0
 40
0.0
 40
0.1659066595312376
 40
0.3316675344248206
 40
0.4976216786066386
 40
0.6641068106890285
 40
0.8314569199211036
 40
1.0
 40
1.0
 40
1.0
 40
1.0
 10
2470.209133589655
 20
128.205627278349
 30
0.0
 10
2470.209698464017
 20
128.2639121807882
 30
0.0
 10
2470.210827716375
 20
128.38043076986
 30
0.0
 10
2470.219976903468
 20
128.5500599559577
 30
0.0
 10
2470.234541484273
 20
128.7154468791181
 30
0.0
 10
2470.255202449334
 20
128.8759245093568
 30
0.0
 10
2470.28133805434
 20
129.0319880346195
 30
0.0
 10
2470.303648762453
 20
129.131062220478
 30
0.0
 10
2470.314843736283
 20
129.1807752512041
 30
0.0
  0
SPLINE
  5
3C8
330
1F
100
AcDbEntity
  8
0
  6
Continuous
 62
     7
100
AcDbSpline
210
0.0
220
0.0
230
1.0
 70
     8
 71
     3
 72
     9
 73
     5
 74
     0
 42
0.00000001
 43
0.00000001
 40
0.0
 40
0.0
 40
0.0
 40
0.0
 40
0.7350312623998749
 40
1.0
 40
1.0
 40
1.0
 40
1.0
 10
2470.314843736284
 20
126.6175985241816
 30
0.0
 10
2470.253721276764
 20
126.7476859360659
 30
0.0
 10
2470.170565004852
 20
126.924668084362
 30
0.0
 10
2470.231146360047
 20
126.8852582474825
 30
0.0
 10
2470.247198525255
 20
126.8748158727555
 30
0.0
  0
SPLINE
  5
3C9
330
1F
100
AcDbEntity
  8
0
  6
Continuous
 62
     7
100
AcDbSpline
210
0.0
220
0.0
230
1.0
 70
     8
 71
     3
 72
    12
 73
     8
 74
     0
 42
0.00000001
 43
0.00000001
 40
0.0
 40
0.0
 40
0.0
 40
0.0
 40
0.16485093975
 40
0.3299215411952162
 40
0.4984060237447349
 40
0.7502078228833785
 40
1.0
 40
1.0
 40
1.0
 40
1.0
 10
2470.338191912407
 20
126.6228503901909
 30
0.0
 10
2470.338060266898
 20
126.6178408171295
 30
0.0
 10
2470.337796800463
 20
126.6078149958168
 30
0.0
 10
2470.335632229677
 20
126.5992878876697
 30
0.0
 10
2470.331630128649
 20
126.595305272853
 30
0.0
 10
2470.32518740218
 20
126.5986521881091
 30
0.0
 10
2470.318282403355
 20
126.6112999698169
 30
0.0
 10
2470.314843736283
 20
126.6175985241816
 30
0.0
  0
LINE
  5
3CA
330
1F
100
AcDbEntity
  8
0
  6
Continuous
 62
     7
100
AcDbLine
 10
2483.5526341739
 20
176.1300907337
 30
0.0
 11
2483.5526341739
 21
177.0205190027
 31
0.0
  0
LINE
  5
3CB
330
1F
100
AcDbEntity
  8
0
  6
Continuous
 62
     7
100
AcDbLine
 10
2484.5526341739
 20
177.7237095797
 30
0.0
 11
2484.5526341739
 21
177.1300907337
 31
0.0
  0
LINE
  5
3CC
330
1F
100
AcDbEntity
  8
0
  6
Continuous
 62
     7
100
AcDbLine
 10
1561.5527892599
 20
176.5128132034
 30
0.0
 11
1561.5527892599
 21
176.1300907337
 31
0.0
  0
LINE
  5
3CD
330
1F
100
AcDbEntity
  8
0
  6
Continuous
 62
     7
100
AcDbLine
 10
1560.5527892599
 20
177.1300907337
 30
0.0
 11
1560.5527892599
 21
177.3852390468
 31
0.0
  0
LINE
  5
3CE
330
1F
100
AcDbEntity
  8
0
  6
Continuous
 62
     7
100
AcDbLine
 10
2483.5526341739
 20
126.1300907337
 30
0.0
 11
2483.5526341739
 21
126.3949194499
 31
0.0
  0
LINE
  5
3CF
330
1F
100
AcDbEntity
  8
0
  6
Continuous
 62
     7
100
AcDbLine
 10
2484.5526341739
 20
127.3066432112
 30
0.0
 11
2484.5526341739
 21
127.1300907337
 31
0.0
  0
SPLINE
  5
3D0
330
1F
100
AcDbEntity
  8
0
  6
Continuous
 62
     7
100
AcDbSpline
210
0.0
220
0.0
230
1.0
 70
     8
 71
     3
 72
     9
 73
     5
 74
     0
 42
0.00000001
 43
0.00000001
 40
0.0
 40
0.0
 40
0.0
 40
0.0
 40
0.2045730183795233
 40
1.0
 40
1.0
 40
1.0
 40
1.0
 10
1574.869072501067
 20
127.1292298130673
 30
0.0
 10
1574.879999886945
 20
127.1067298047843
 30
0.0
 10
1574.93341546425
 20
126.9967445855155
 30
0.0
 10
1574.853860144975
 20
126.7011111905348
 30
0.0
 10
1574.790579697492
 20
126.4659564114991
 30
0.0
  0
SPLINE
  5
3D1
330
1F
100
AcDbEntity
  8
0
  6
Continuous
 62
     7
100
AcDbSpline
210
0.0
220
0.0
230
1.0
 70
     8
 71
     3
 72
     9
 73
     5
 74
     0
 42
0.00000001
 43
0.00000001
 40
0.0
 40
0.0
 40
0.0
 40
0.0
 40
0.2047084703925101
 40
1.0
 40
1.0
 40
1.0
 40
1.0
 10
1574.869049799178
 20
129.130330044013
 30
0.0
 10
1574.879987527316
 20
129.0352331606092
 30
0.0
 10
1574.933418282363
 20
128.5706852929929
 30
0.0
 10
1574.853855391036
 20
128.0804718273549
 30
0.0
 10
1574.790579697492
 20
127.6906092104335
 30
0.0
  0
LINE
  5
3D2
330
1F
100
AcDbEntity
  8
0
  6
Continuous
 62
     7
100
AcDbLine
 10
1574.8610114266
 20
130.7314204876
 30
0.0
 11
1574.7905796975
 21
130.3547435326
 31
0.0
  0
LINE
  5
3D3
330
1F
100
AcDbEntity
  8
0
  6
Continuous
 62
     7
100
AcDbLine
 10
1573.1527892599
 20
123.1300907337
 30
0.0
 11
1573.1527892599
 21
123.1790075472
 31
0.0
  0
SPLINE
  5
3D4
330
1F
100
AcDbEntity
  8
0
  6
Continuous
 62
     7
100
AcDbSpline
210
0.0
220
0.0
230
1.0
 70
     8
 71
     3
 72
    12
 73
     8
 74
     0
 42
0.00000001
 43
0.00000001
 40
0.0
 40
0.0
 40
0.0
 40
0.0
 40
0.1670444628953431
 40
0.3333684211275591
 40
0.502068974940835
 40
0.7529675842976865
 40
0.9999999999999999
 40
0.9999999999999999
 40
0.9999999999999999
 40
0.9999999999999999
 10
1574.790579697491
 20
126.4659564114991
 30
0.0
 10
1574.788238191517
 20
126.4580444738383
 30
0.0
 10
1574.783565279071
 20
126.4422547246881
 30
0.0
 10
1574.777834974281
 20
126.4241622593684
 30
0.0
 10
1574.772477364045
 20
126.4086223186162
 30
0.0
 10
1574.768129175616
 20
126.3983113013895
 30
0.0
 10
1574.767529186576
 20
126.4011183254399
 30
0.0
 10
1574.767231521368
 20
126.4025109398729
 30
0.0
  0
LINE
  5
3D5
330
1F
100
AcDbEntity
  8
0
  6
Continuous
 62
     7
100
AcDbLine
 10
1561.5527892599
 20
126.1545491405
 30
0.0
 11
1561.5527892599
 21
126.1300907337
 31
0.0
  0
LINE
  5
3D6
330
1F
100
AcDbEntity
  8
0
  6
Continuous
 62
     7
100
AcDbLine
 10
1560.5527892599
 20
127.1300907337
 30
0.0
 11
1560.5527892599
 21
127.1463963382
 31
0.0
  0
LINE
  5
3D7
330
1F
100
AcDbEntity
  8
0
  6
Continuous
 62
     7
100
AcDbLine
 10
1899.3483944408
 20
159.1492944836
 30
0.0
 11
1900.2461970313
 21
158.7088963586
 31
0.0
  0
ARC
  5
3D8
330
1F
100
AcDbEntity
  8
0
  6
Continuous
 62
     7
100
AcDbCircle
 10
1897.5527892599
 20
160.0300907337
 30
0.0
 40
3.000000000000151
100
AcDbArc
 50
153.8707141633
 51
333.8707141633
  0
LINE
  5
3D9
330
1F
100
AcDbEntity
  8
0
  6
Continuous
 62
     7
100
AcDbLine
 10
1895.7571840789
 20
160.9108869838
 30
0.0
 11
1894.8593814884
 21
161.3512851088
 31
0.0
  0
ARC
  5
3DA
330
1F
100
AcDbEntity
  8
0
  6
Continuous
 62
     7
100
AcDbCircle
 10
1897.5527892599
 20
160.0300907337
 30
0.0
 40
2.000000000000168
100
AcDbArc
 50
153.8707141633
 51
333.8707141633
  0
ARC
  5
3DB
330
1F
100
AcDbEntity
  8
0
  6
Continuous
 62
     7
100
AcDbCircle
 10
1897.5527892599
 20
160.0300907337
 30
0.0
 40
3.000000000000151
100
AcDbArc
 50
333.8707141633
 51
153.8707141633
  0
ARC
  5
3DC
330
1F
100
AcDbEntity
  8
0
  6
Continuous
 62
     7
100
AcDbCircle
 10
1897.5527892599
 20
160.0300907337
 30
0.0
 40
2.000000000000168
100
AcDbArc
 50
333.8707141633
 51
153.8707141633
  0
LINE
  5
3DD
330
1F
100
AcDbEntity
  8
0
  6
Continuous
 62
     7
100
AcDbLine
 10
2146.134933464
 20
158.6195288095
 30
0.0
 11
2145.426005566
 21
157.9142478474
 31
0.0
  0
ARC
  5
3DE
330
1F
100
AcDbEntity
  8
0
  6
Continuous
 62
     7
100
AcDbCircle
 10
2147.5527892599
 20
160.0300907337
 30
0.0
 40
3.000000000000071
100
AcDbArc
 50
44.8522470231
 51
224.8522470231
  0
LINE
  5
3DF
330
1F
100
AcDbEntity
  8
0
  6
Continuous
 62
     7
100
AcDbLine
 10
2148.9706450558
 20
161.4406526579
 30
0.0
 11
2149.6795729537
 21
162.14593362
 31
0.0
  0
ARC
  5
3E0
330
1F
100
AcDbEntity
  8
0
  6
Continuous
 62
     7
100
AcDbCircle
 10
2147.5527892599
 20
160.0300907337
 30
0.0
 40
2.000000000000128
100
AcDbArc
 50
44.8522470231
 51
224.8522470231
  0
ARC
  5
3E1
330
1F
100
AcDbEntity
  8
0
  6
Continuous
 62
     7
100
AcDbCircle
 10
2147.5527892599
 20
160.0300907337
 30
0.0
 40
3.000000000000071
100
AcDbArc
 50
224.8522470231
 51
44.8522470231
  0
ARC
  5
3E2
330
1F
100
AcDbEntity
  8
0
  6
Continuous
 62
     7
100
AcDbCircle
 10
2147.5527892599
 20
160.0300907337
 30
0.0
 40
2.000000000000128
100
AcDbArc
 50
224.8522470231
 51
44.8522470231
  0
LINE
  5
3E3
330
1F
100
AcDbEntity
  8
0
  6
Continuous
 62
     7
100
AcDbLine
 10
2420.9076220615
 20
158.8928023404
 30
0.0
 11
2420.0850384623
 21
158.3241581438
 31
0.0
  0
ARC
  5
3E4
330
1F
100
AcDbEntity
  8
0
  6
Continuous
 62
     7
100
AcDbCircle
 10
2422.5527892599
 20
160.0300907337
 30
0.0
 40
3.000000000000127
100
AcDbArc
 50
34.655735477
 51
214.655735477
  0
LINE
  5
3E5
330
1F
100
AcDbEntity
  8
0
  6
Continuous
 62
     7
100
AcDbLine
 10
2424.1979564582
 20
161.167379127
 30
0.0
 11
2425.0205400574
 21
161.7360233236
 31
0.0
  0
ARC
  5
3E6
330
1F
100
AcDbEntity
  8
0
  6
Continuous
 62
     7
100
AcDbCircle
 10
2422.5527892599
 20
160.0300907337
 30
0.0
 40
2.000000000000084
100
AcDbArc
 50
34.655735477
 51
214.655735477
  0
ARC
  5
3E7
330
1F
100
AcDbEntity
  8
0
  6
Continuous
 62
     7
100
AcDbCircle
 10
2422.5527892599
 20
160.0300907337
 30
0.0
 40
3.000000000000127
100
AcDbArc
 50
214.655735477
 51
34.655735477
  0
ARC
  5
3E8
330
1F
100
AcDbEntity
  8
0
  6
Continuous
 62
     7
100
AcDbCircle
 10
2422.5527892599
 20
160.0300907337
 30
0.0
 40
2.000000000000084
100
AcDbArc
 50
214.655735477
 51
34.655735477
  0
LINE
  5
3E9
330
1F
100
AcDbEntity
  8
0
  6
Continuous
 62
     7
100
AcDbLine
 10
1620.0527892599
 20
160.0300907337
 30
0.0
 11
1619.5527892599
 21
160.0300907337
 31
0.0
  0
ARC
  5
3EA
330
1F
100
AcDbEntity
  8
0
  6
Continuous
 62
     7
100
AcDbCircle
 10
1622.5527892599
 20
160.0300907337
 30
0.0
 40
3.0
100
AcDbArc
 50
360.0
 51
180.0
  0
LINE
  5
3EB
330
1F
100
AcDbEntity
  8
0
  6
Continuous
 62
     7
100
AcDbLine
 10
1625.0527892599
 20
160.0300907337
 30
0.0
 11
1625.5527892599
 21
160.0300907337
 31
0.0
  0
ARC
  5
3EC
330
1F
100
AcDbEntity
  8
0
  6
Continuous
 62
     7
100
AcDbCircle
 10
1622.5527892599
 20
160.0300907337
 30
0.0
 40
2.5
100
AcDbArc
 50
360.0
 51
180.0
  0
ARC
  5
3ED
330
1F
100
AcDbEntity
  8
0
  6
Continuous
 62
     7
100
AcDbCircle
 10
1622.5527892599
 20
160.0300907337
 30
0.0
 40
3.0
100
AcDbArc
 50
180.0
 51
360.0
  0
ARC
  5
3EE
330
1F
100
AcDbEntity
  8
0
  6
Continuous
 62
     7
100
AcDbCircle
 10
1622.5527892599
 20
160.0300907337
 30
0.0
 40
2.5
100
AcDbArc
 50
180.0
 51
360.0
  0
LINE
  5
3EF
330
1F
100
AcDbEntity
  8
0
  6
Continuous
 62
     7
100
AcDbLine
 10
1571.5527892599
 20
167.6300907337
 30
0.0
 11
1571.5527892599
 21
170.1300907337
 31
0.0
  0
LINE
  5
3F0
330
1F
100
AcDbEntity
  8
0
  6
Continuous
 62
     7
100
AcDbLine
 10
2473.5526341739
 20
167.6300907337
 30
0.0
 11
2473.5526341739
 21
170.1300907337
 31
0.0
  0
LINE
  5
3F1
330
1F
100
AcDbEntity
  8
0
  6
Continuous
 62
     7
100
AcDbLine
 10
2473.5526341739
 20
140.6300907337
 30
0.0
 11
2473.5526341739
 21
138.1300907337
 31
0.0
  0
LINE
  5
3F2
330
1F
100
AcDbEntity
  8
0
  6
Continuous
 62
     7
100
AcDbLine
 10
1571.5527892599
 20
140.6300907337
 30
0.0
 11
1571.5527892599
 21
138.1300907337
 31
0.0
  0
ARC
  5
3F3
330
1F
100
AcDbEntity
  8
0
  6
Continuous
 62
     7
100
AcDbCircle
 10
2147.5527892599
 20
160.0300907337
 30
0.0
 40
3.25
100
AcDbArc
 50
90.0
 51
270.0
  0
ARC
  5
3F4
330
1F
100
AcDbEntity
  8
0
  6
Continuous
 62
     7
100
AcDbCircle
 10
2147.5527892599
 20
160.0300907337
 30
0.0
 40
3.25
100
AcDbArc
 50
270.0
 51
90.0
  0
ARC
  5
3F5
330
1F
100
AcDbEntity
  8
0
  6
Continuous
 62
     7
100
AcDbCircle
 10
1897.5527892599
 20
160.0300907337
 30
0.0
 40
3.25
100
AcDbArc
 50
90.0
 51
270.0
  0
ARC
  5
3F6
330
1F
100
AcDbEntity
  8
0
  6
Continuous
 62
     7
100
AcDbCircle
 10
1897.5527892599
 20
160.0300907337
 30
0.0
 40
3.25
100
AcDbArc
 50
270.0
 51
90.0
  0
ARC
  5
3F7
330
1F
100
AcDbEntity
  8
0
  6
Continuous
 62
     7
100
AcDbCircle
 10
1622.5527892599
 20
160.0300907337
 30
0.0
 40
3.249999999999972
100
AcDbArc
 50
90.0
 51
270.0
  0
ARC
  5
3F8
330
1F
100
AcDbEntity
  8
0
  6
Continuous
 62
     7
100
AcDbCircle
 10
1622.5527892599
 20
160.0300907337
 30
0.0
 40
3.249999999999972
100
AcDbArc
 50
270.0
 51
90.0
  0
ARC
  5
3F9
330
1F
100
AcDbEntity
  8
0
  6
Continuous
 62
     7
100
AcDbCircle
 10
2422.5527892599
 20
160.0300907337
 30
0.0
 40
3.249999999999972
100
AcDbArc
 50
90.0
 51
270.0
  0
ARC
  5
3FA
330
1F
100
AcDbEntity
  8
0
  6
Continuous
 62
     7
100
AcDbCircle
 10
2422.5527892599
 20
160.0300907337
 30
0.0
 40
3.249999999999972
100
AcDbArc
 50
270.0
 51
90.0
  0
LINE
  5
3FB
330
1F
100
AcDbEntity
  8
0
  6
Continuous
 62
     7
100
AcDbLine
 10
1571.5527892599
 20
170.1300907337
 30
0.0
 11
2473.5526341739
 21
170.1300907337
 31
0.0
  0
LINE
  5
3FC
330
1F
100
AcDbEntity
  8
0
  6
Continuous
 62
     7
100
AcDbLine
 10
2473.5526341739
 20
138.1300907337
 30
0.0
 11
1571.5527892599
 21
138.1300907337
 31
0.0
  0
LINE
  5
3FD
330
1F
100
AcDbEntity
  8
0
  6
Continuous
 62
     7
100
AcDbLine
 10
2473.5526341739
 20
167.6300907337
 30
0.0
 11
2474.5526341739
 21
167.6300907337
 31
0.0
  0
LINE
  5
3FE
330
1F
100
AcDbEntity
  8
0
  6
Continuous
 62
     7
100
AcDbLine
 10
2473.5526341739
 20
140.6300907337
 30
0.0
 11
2474.5526341739
 21
140.6300907337
 31
0.0
  0
LINE
  5
3FF
330
1F
100
AcDbEntity
  8
0
  6
Continuous
 62
     7
100
AcDbLine
 10
1571.5527892599
 20
140.6300907337
 30
0.0
 11
1570.5527892599
 21
140.6300907337
 31
0.0
  0
LINE
  5
400
330
1F
100
AcDbEntity
  8
0
  6
Continuous
 62
     7
100
AcDbLine
 10
1571.5527892599
 20
167.6300907337
 30
0.0
 11
1570.5527892599
 21
167.6300907337
 31
0.0
  0
LINE
  5
401
330
1F
100
AcDbEntity
  8
0
  6
Continuous
 62
     7
100
AcDbLine
 10
1894.8593814884
 20
161.3512851088
 30
0.0
 11
1894.6349308408
 21
161.4613846401
 31
0.0
  0
LINE
  5
402
330
1F
100
AcDbEntity
  8
0
  6
Continuous
 62
     7
100
AcDbLine
 10
1900.2461970313
 20
158.7088963586
 30
0.0
 11
1900.4706476789
 21
158.5987968273
 31
0.0
  0
LINE
  5
403
330
1F
100
AcDbEntity
  8
0
  6
Continuous
 62
     7
100
AcDbLine
 10
2149.6795729537
 20
162.14593362
 30
0.0
 11
2149.8568049282
 21
162.3222538605
 31
0.0
  0
LINE
  5
404
330
1F
100
AcDbEntity
  8
0
  6
Continuous
 62
     7
100
AcDbLine
 10
2145.426005566
 20
157.9142478474
 30
0.0
 11
2145.2487735915
 21
157.7379276069
 31
0.0
  0
LINE
  5
405
330
1F
100
AcDbEntity
  8
0
  6
Continuous
 62
     7
100
AcDbLine
 10
2425.0205400574
 20
161.7360233236
 30
0.0
 11
2425.2261859572
 21
161.8781843728
 31
0.0
  0
LINE
  5
406
330
1F
100
AcDbEntity
  8
0
  6
Continuous
 62
     7
100
AcDbLine
 10
2420.0850384623
 20
158.3241581438
 30
0.0
 11
2419.8793925625
 21
158.1819970946
 31
0.0
  0
LINE
  5
407
330
1F
100
AcDbEntity
  8
0
  6
Continuous
 62
     7
100
AcDbLine
 10
1570.5527892599
 20
139.6300907337
 30
0.0
 11
1571.5527892599
 21
139.6300907337
 31
0.0
  0
LINE
  5
408
330
1F
100
AcDbEntity
  8
0
  6
Continuous
 62
     7
100
AcDbLine
 10
1570.5527892599
 20
138.1300907337
 30
0.0
 11
1571.5527892599
 21
138.1300907337
 31
0.0
  0
LINE
  5
409
330
1F
100
AcDbEntity
  8
0
  6
Continuous
 62
     7
100
AcDbLine
 10
1570.5527892599
 20
168.6300907337
 30
0.0
 11
1571.5527892599
 21
168.6300907337
 31
0.0
  0
LINE
  5
40A
330
1F
100
AcDbEntity
  8
0
  6
Continuous
 62
     7
100
AcDbLine
 10
1570.5527892599
 20
170.1300907337
 30
0.0
 11
1571.5527892599
 21
170.1300907337
 31
0.0
  0
LINE
  5
40B
330
1F
100
AcDbEntity
  8
0
  6
Continuous
 62
     7
100
AcDbLine
 10
2473.5526341739
 20
168.6300907337
 30
0.0
 11
2474.5526341739
 21
168.6300907337
 31
0.0
  0
LINE
  5
40C
330
1F
100
AcDbEntity
  8
0
  6
Continuous
 62
     7
100
AcDbLine
 10
2473.5526341739
 20
170.1300907337
 30
0.0
 11
2474.5526341739
 21
170.1300907337
 31
0.0
  0
LINE
  5
40D
330
1F
100
AcDbEntity
  8
0
  6
Continuous
 62
     7
100
AcDbLine
 10
2473.5526341739
 20
139.6300907337
 30
0.0
 11
2474.5526341739
 21
139.6300907337
 31
0.0
  0
LINE
  5
40E
330
1F
100
AcDbEntity
  8
0
  6
Continuous
 62
     7
100
AcDbLine
 10
2473.5526341739
 20
138.1300907337
 30
0.0
 11
2474.5526341739
 21
138.1300907337
 31
0.0
  0
LINE
  5
40F
330
1F
100
AcDbEntity
  8
0
  6
Continuous
 62
     7
100
AcDbLine
 10
1619.5527892599
 20
160.0300907337
 30
0.0
 11
1619.3027892599
 21
160.0300907337
 31
0.0
  0
LINE
  5
410
330
1F
100
AcDbEntity
  8
0
  6
Continuous
 62
     7
100
AcDbLine
 10
1625.5527892599
 20
160.0300907337
 30
0.0
 11
1625.8027892599
 21
160.0300907337
 31
0.0
  0
LINE
  5
411
330
1F
100
AcDbEntity
  8
0
  6
Continuous
 62
     7
100
AcDbLine
 10
1569.0527892599
 20
176.5128132034
 30
0.0
 11
1561.5527892599
 21
176.5128132034
 31
0.0
  0
LINE
  5
412
330
1F
100
AcDbEntity
  8
0
  6
Continuous
 62
     7
100
AcDbLine
 10
1569.0527892599
 20
126.1545491405
 30
0.0
 11
1561.5527892599
 21
126.1545491405
 31
0.0
  0
LINE
  5
413
330
1F
100
AcDbEntity
  8
0
  6
Continuous
 62
     7
100
AcDbLine
 10
2476.0526341739
 20
177.0205190027
 30
0.0
 11
2483.5526341739
 21
177.0205190027
 31
0.0
  0
LINE
  5
414
330
1F
100
AcDbEntity
  8
0
  6
Continuous
 62
     7
100
AcDbLine
 10
2476.0526341739
 20
126.3949194499
 30
0.0
 11
2483.5526341739
 21
126.3949194499
 31
0.0
  0
LINE
  5
415
330
1F
100
AcDbEntity
  8
0
  6
Continuous
 62
     7
100
AcDbLine
 10
1574.7694753904
 20
176.7051881484
 30
0.0
 11
1574.7905796975
 21
176.7051881484
 31
0.0
  0
LINE
  5
416
330
1F
100
AcDbEntity
  8
0
  6
Continuous
 62
     7
100
AcDbLine
 10
2470.3377634345
 20
126.6175985242
 30
0.0
 11
2470.3148437363
 21
126.6175985242
 31
0.0
  0
ENDSEC
  0
SECTION
  2
OBJECTS
  0
DICTIONARY
  5
C
330
0
100
AcDbDictionary
281
     1
  3
ACAD_GROUP
350
D
  3
ACAD_LAYOUT
350
1A
  3
ACAD_MLINESTYLE
350
17
  3
ACAD_PLOTSETTINGS
350
19
  3
ACAD_PLOTSTYLENAME
350
E
  3
ACAD_SCALELIST
350
47
  3
DWGPROPS
350
417
  0
DICTIONARY
  5
D
102
{ACAD_REACTORS
330
C
102
}
330
C
100
AcDbDictionary
281
     1
  0
DICTIONARY
  5
1A
102
{ACAD_REACTORS
330
C
102
}
330
C
100
AcDbDictionary
281
     1
  3
Layout1
350
1E
  3
Layout2
350
26
  3
Model
350
22
  0
DICTIONARY
  5
17
102
{ACAD_REACTORS
330
C
102
}
330
C
100
AcDbDictionary
281
     1
  3
Standard
350
18
  0
DICTIONARY
  5
19
102
{ACAD_REACTORS
330
C
102
}
330
C
100
AcDbDictionary
281
     1
  0
ACDBDICTIONARYWDFLT
  5
E
102
{ACAD_REACTORS
330
C
102
}
330
C
100
AcDbDictionary
281
     1
  3
Normal
350
F
100
AcDbDictionaryWithDefault
340
F
  0
DICTIONARY
  5
47
102
{ACAD_REACTORS
330
C
102
}
330
C
100
AcDbDictionary
281
     1
  3
A0
350
48
  3
A1
350
49
  3
A2
350
4A
  3
A3
350
4B
  3
A4
350
4C
  3
A5
350
4D
  3
A6
350
4E
  3
A7
350
4F
  3
A8
350
50
  3
A9
350
51
  3
B0
350
52
  3
B1
350
53
  3
B2
350
54
  3
B3
350
55
  3
B4
350
56
  3
B5
350
57
  3
B6
350
58
  0
XRECORD
  5
417
102
{ACAD_REACTORS
330
C
102
}
330
C
100
AcDbXrecord
280
     1
  1
DWGPROPS COOKIE
  2

  3

  4

  6

  7

  8
moskovchenkovapa
  9

300
=
301
=
302
=
303
=
304
=
305
=
306
=
307
=
308
=
309
=
 40
0.0
 41
2460697.529349097
 42
2460697.529349907
  1

 90
        0
  0
LAYOUT
  5
1E
102
{ACAD_REACTORS
330
1A
102
}
330
1A
100
AcDbPlotSettings
  1

  2
none_device
  4

  6

 40
0.0
 41
0.0
 42
0.0
 43
0.0
 44
0.0
 45
0.0
 46
0.0
 47
0.0
 48
0.0
 49
0.0
140
0.0
141
0.0
142
1.0
143
1.0
 70
   688
 72
     1
 73
     0
 74
     5
  7

 75
    16
147
1.0
148
0.0
149
0.0
100
AcDbLayout
  1
Layout1
 70
     1
 71
     1
 10
0.0
 20
0.0
 11
420.0
 21
297.0
 12
0.0
 22
0.0
 32
0.0
 14
1.0000000000E+20
 24
1.0000000000E+20
 34
1.0000000000E+20
 15
-1.0000000000E+20
 25
-1.0000000000E+20
 35
-1.0000000000E+20
146
0.0
 13
0.0
 23
0.0
 33
0.0
 16
1.0
 26
0.0
 36
0.0
 17
0.0
 27
1.0
 37
0.0
 76
     0
330
1B
  0
LAYOUT
  5
26
102
{ACAD_REACTORS
330
1A
102
}
330
1A
100
AcDbPlotSettings
  1

  2
none_device
  4

  6

 40
0.0
 41
0.0
 42
0.0
 43
0.0
 44
0.0
 45
0.0
 46
0.0
 47
0.0
 48
0.0
 49
0.0
140
0.0
141
0.0
142
1.0
143
1.0
 70
   688
 72
     1
 73
     0
 74
     5
  7

 75
    16
147
1.0
148
0.0
149
0.0
100
AcDbLayout
  1
Layout2
 70
     1
 71
     2
 10
0.0
 20
0.0
 11
0.0
 21
0.0
 12
0.0
 22
0.0
 32
0.0
 14
0.0
 24
0.0
 34
0.0
 15
0.0
 25
0.0
 35
0.0
146
0.0
 13
0.0
 23
0.0
 33
0.0
 16
1.0
 26
0.0
 36
0.0
 17
0.0
 27
1.0
 37
0.0
 76
     0
330
23
  0
LAYOUT
  5
22
102
{ACAD_REACTORS
330
1A
102
}
330
1A
100
AcDbPlotSettings
  1

  2
none_device
  4
Letter_(8.50_x_11.00_Inches)
  6

 40
6.35
 41
6.35
 42
6.35000508
 43
6.35000508
 44
215.9
 45
279.4
 46
0.0
 47
0.0
 48
0.0
 49
0.0
140
0.0
141
0.0
142
1.0
143
1.0
 70
  1712
 72
     1
 73
     0
 74
     0
  7

 75
     0
147
1.0
148
0.0
149
0.0
100
AcDbLayout
  1
Model
 70
     1
 71
     0
 10
0.0
 20
0.0
 11
420.0
 21
297.0
 12
0.0
 22
0.0
 32
0.0
 14
0.0
 24
0.0
 34
0.0
 15
420.0
 25
297.0
 35
0.0
146
0.0
 13
0.0
 23
0.0
 33
0.0
 16
1.0
 26
0.0
 36
0.0
 17
0.0
 27
1.0
 37
0.0
 76
     0
330
1F
331
29
  0
MLINESTYLE
  5
18
102
{ACAD_REACTORS
330
17
102
}
330
17
100
AcDbMlineStyle
  2
Standard
 70
     0
  3

 62
   256
 51
90.0
 52
90.0
 71
     2
 49
0.5
 62
   256
  6
BYLAYER
 49
-0.5
 62
   256
  6
BYLAYER
  0
ACDBPLACEHOLDER
  5
F
102
{ACAD_REACTORS
330
E
102
}
330
E
  0
SCALE
  5
48
102
{ACAD_REACTORS
330
47
102
}
330
47
100
AcDbScale
 70
     0
300
1:1
140
1.0
141
1.0
290
     1
  0
SCALE
  5
49
102
{ACAD_REACTORS
330
47
102
}
330
47
100
AcDbScale
 70
     0
300
1:2
140
1.0
141
2.0
290
     0
  0
SCALE
  5
4A
102
{ACAD_REACTORS
330
47
102
}
330
47
100
AcDbScale
 70
     0
300
1:4
140
1.0
141
4.0
290
     0
  0
SCALE
  5
4B
102
{ACAD_REACTORS
330
47
102
}
330
47
100
AcDbScale
 70
     0
300
1:5
140
1.0
141
5.0
290
     0
  0
SCALE
  5
4C
102
{ACAD_REACTORS
330
47
102
}
330
47
100
AcDbScale
 70
     0
300
1:8
140
1.0
141
8.0
290
     0
  0
SCALE
  5
4D
102
{ACAD_REACTORS
330
47
102
}
330
47
100
AcDbScale
 70
     0
300
1:10
140
1.0
141
10.0
290
     0
  0
SCALE
  5
4E
102
{ACAD_REACTORS
330
47
102
}
330
47
100
AcDbScale
 70
     0
300
1:16
140
1.0
141
16.0
290
     0
  0
SCALE
  5
4F
102
{ACAD_REACTORS
330
47
102
}
330
47
100
AcDbScale
 70
     0
300
1:20
140
1.0
141
20.0
290
     0
  0
SCALE
  5
50
102
{ACAD_REACTORS
330
47
102
}
330
47
100
AcDbScale
 70
     0
300
1:30
140
1.0
141
30.0
290
     0
  0
SCALE
  5
51
102
{ACAD_REACTORS
330
47
102
}
330
47
100
AcDbScale
 70
     0
300
1:40
140
1.0
141
40.0
290
     0
  0
SCALE
  5
52
102
{ACAD_REACTORS
330
47
102
}
330
47
100
AcDbScale
 70
     0
300
1:50
140
1.0
141
50.0
290
     0
  0
SCALE
  5
53
102
{ACAD_REACTORS
330
47
102
}
330
47
100
AcDbScale
 70
     0
300
1:100
140
1.0
141
100.0
290
     0
  0
SCALE
  5
54
102
{ACAD_REACTORS
330
47
102
}
330
47
100
AcDbScale
 70
     0
300
2:1
140
2.0
141
1.0
290
     0
  0
SCALE
  5
55
102
{ACAD_REACTORS
330
47
102
}
330
47
100
AcDbScale
 70
     0
300
4:1
140
4.0
141
1.0
290
     0
  0
SCALE
  5
56
102
{ACAD_REACTORS
330
47
102
}
330
47
100
AcDbScale
 70
     0
300
8:1
140
8.0
141
1.0
290
     0
  0
SCALE
  5
57
102
{ACAD_REACTORS
330
47
102
}
330
47
100
AcDbScale
 70
     0
300
10:1
140
10.0
141
1.0
290
     0
  0
SCALE
  5
58
102
{ACAD_REACTORS
330
47
102
}
330
47
100
AcDbScale
 70
     0
300
100:1
140
100.0
141
1.0
290
     0
  0
ENDSEC
  0
EOF
