ISO-10303-21;
HEADER;
FILE_DESCRIPTION (( 'STEP AP203' ),
    '1' );
FILE_NAME ('CTA12D-Z063-K02 Çàãëóøêà äëÿ äâóñòåííîé òðóáû d63.STEP',
    '2016-06-20T13:35:04',
    ( '' ),
    ( '' ),
    'SwSTEP 2.0',
    'SolidWorks 2014',
    '' );
FILE_SCHEMA (( 'CONFIG_CONTROL_DESIGN' ));
ENDSEC;

DATA;
#1 = DIRECTION ( 'NONE',  ( -0.0000000000000000000, -1.000000000000000000, -0.0000000000000000000 ) ) ;
#2 = ORIENTED_EDGE ( 'NONE', *, *, #39, .T. ) ;
#3 = CARTESIAN_POINT ( 'NONE',  ( 0.0000000000000000000, 46.99999999999992900, 0.0000000000000000000 ) ) ;
#4 = DIRECTION ( 'NONE',  ( -0.0000000000000000000, -1.000000000000000000, -0.0000000000000000000 ) ) ;
#5 = COORDINATED_UNIVERSAL_TIME_OFFSET ( 3, 0, .AHEAD. ) ;
#6 = DIRECTION ( 'NONE',  ( -0.0000000000000000000, -1.000000000000000000, -0.0000000000000000000 ) ) ;
#7 = TOROIDAL_SURFACE ( 'NONE', #251, 31.00000000000000000, 0.5000000000000000000 ) ;
#8 = PRODUCT_DEFINITION_FORMATION_WITH_SPECIFIED_SOURCE ( 'ANY', '', #233, .NOT_KNOWN. ) ;
#9 = CIRCLE ( 'NONE', #241, 32.50000000000000000 ) ;
#10 = APPLICATION_CONTEXT ( 'configuration controlled 3d designs of mechanical parts and assemblies' ) ;
#11 = APPROVAL_DATE_TIME ( #61, #213 ) ;
#12 = DIRECTION ( 'NONE',  ( 0.0000000000000000000, -1.000000000000000000, -0.0000000000000000000 ) ) ;
#13 = CARTESIAN_POINT ( 'NONE',  ( 0.0000000000000000000, 47.50000000000000000, 0.0000000000000000000 ) ) ;
#14 = DIRECTION ( 'NONE',  ( 0.0000000000000000000, -1.000000000000000000, 0.0000000000000000000 ) ) ;
#15 = EDGE_CURVE ( 'NONE', #118, #118, #111, .T. ) ;
#16 = EDGE_LOOP ( 'NONE', ( #34 ) ) ;
#17 = FACE_OUTER_BOUND ( 'NONE', #16, .T. ) ;
#18 = MANIFOLD_SOLID_BREP ( 'Ñêðóãëåíèå2', #77 ) ;
#19 = APPROVAL_PERSON_ORGANIZATION ( #69, #213, #68 ) ;
#20 = VERTEX_POINT ( 'NONE', #98 ) ;
#21 = DIRECTION ( 'NONE',  ( 0.0000000000000000000, 1.000000000000000000, 0.0000000000000000000 ) ) ;
#22 = DATE_TIME_ROLE ( 'classification_date' ) ;
#23 = EDGE_LOOP ( 'NONE', ( #93 ) ) ;
#24 = PERSON_AND_ORGANIZATION ( #107, #179 ) ;
#25 = ADVANCED_FACE ( 'NONE', ( #134, #167 ), #56, .T. ) ;
#26 = ORIENTED_EDGE ( 'NONE', *, *, #153, .F. ) ;
#27 = EDGE_CURVE ( 'NONE', #170, #170, #215, .T. ) ;
#28 = ORIENTED_EDGE ( 'NONE', *, *, #27, .T. ) ;
#29 = DIRECTION ( 'NONE',  ( 0.0000000000000000000, 0.0000000000000000000, -1.000000000000000000 ) ) ;
#30 = CALENDAR_DATE ( 2016, 20, 6 ) ;
#31 = CARTESIAN_POINT ( 'NONE',  ( 0.0000000000000000000, 46.99999999999992900, 0.0000000000000000000 ) ) ;
#32 = CIRCLE ( 'NONE', #208, 31.50000000000000000 ) ;
#33 = FACE_BOUND ( 'NONE', #73, .T. ) ;
#34 = ORIENTED_EDGE ( 'NONE', *, *, #226, .F. ) ;
#35 = DATE_AND_TIME ( #90, #146 ) ;
#36 = FACE_OUTER_BOUND ( 'NONE', #151, .T. ) ;
#37 = DIRECTION ( 'NONE',  ( 0.0000000000000000000, 0.0000000000000000000, -1.000000000000000000 ) ) ;
#38 = PLANE ( 'NONE',  #205 ) ;
#39 = EDGE_CURVE ( 'NONE', #104, #104, #32, .T. ) ;
#40 = APPROVAL_ROLE ( '' ) ;
#41 = EDGE_LOOP ( 'NONE', ( #26 ) ) ;
#42 = DIRECTION ( 'NONE',  ( 0.0000000000000000000, 0.0000000000000000000, -1.000000000000000000 ) ) ;
#43 = ORIENTED_EDGE ( 'NONE', *, *, #199, .F. ) ;
#44 = DIRECTION ( 'NONE',  ( 1.000000000000000000, 0.0000000000000000000, 0.0000000000000000000 ) ) ;
#45 = APPROVAL_DATE_TIME ( #100, #216 ) ;
#46 = EDGE_LOOP ( 'NONE', ( #145 ) ) ;
#47 = EDGE_LOOP ( 'NONE', ( #248 ) ) ;
#48 = CARTESIAN_POINT ( 'NONE',  ( 0.0000000000000000000, 0.0000000000000000000, 0.0000000000000000000 ) ) ;
#49 = CARTESIAN_POINT ( 'NONE',  ( 0.0000000000000000000, 28.00000000000002500, 0.0000000000000000000 ) ) ;
#50 = DIRECTION ( 'NONE',  ( 0.0000000000000000000, 0.0000000000000000000, 1.000000000000000000 ) ) ;
#51 = APPROVAL_PERSON_ORGANIZATION ( #108, #216, #40 ) ;
#52 = FACE_OUTER_BOUND ( 'NONE', #46, .T. ) ;
#53 = AXIS2_PLACEMENT_3D ( 'NONE', #48, #4, #125 ) ;
#54 = SHAPE_DEFINITION_REPRESENTATION ( #147, #75 ) ;
#55 = FACE_OUTER_BOUND ( 'NONE', #236, .T. ) ;
#56 = PLANE ( 'NONE',  #82 ) ;
#57 = CYLINDRICAL_SURFACE ( 'NONE', #214, 31.50000000000000000 ) ;
#58 = CARTESIAN_POINT ( 'NONE',  ( 0.0000000000000000000, 50.00000000000000000, 0.0000000000000000000 ) ) ;
#59 = FACE_OUTER_BOUND ( 'NONE', #102, .T. ) ;
#60 = APPROVAL_STATUS ( 'not_yet_approved' ) ;
#61 = DATE_AND_TIME ( #119, #171 ) ;
#62 = PERSON_AND_ORGANIZATION_ROLE ( 'creator' ) ;
#63 = APPROVAL_STATUS ( 'not_yet_approved' ) ;
#64 = DIRECTION ( 'NONE',  ( 0.0000000000000000000, -0.0000000000000000000, 1.000000000000000000 ) ) ;
#65 = DIRECTION ( 'NONE',  ( 0.0000000000000000000, 1.000000000000000000, 0.0000000000000000000 ) ) ;
#66 = PERSON_AND_ORGANIZATION_ROLE ( 'design_owner' ) ;
#67 = CARTESIAN_POINT ( 'NONE',  ( 31.50000000000000000, 47.50000000000000000, 0.0000000000000000000 ) ) ;
#68 = APPROVAL_ROLE ( '' ) ;
#69 = PERSON_AND_ORGANIZATION ( #107, #179 ) ;
#70 = VERTEX_POINT ( 'NONE', #240 ) ;
#71 = DATE_AND_TIME ( #130, #181 ) ;
#72 = DIRECTION ( 'NONE',  ( 0.0000000000000000000, 1.000000000000000000, 0.0000000000000000000 ) ) ;
#73 = EDGE_LOOP ( 'NONE', ( #160 ) ) ;
#74 = AXIS2_PLACEMENT_3D ( 'NONE', #58, #91, #50 ) ;
#75 = ADVANCED_BREP_SHAPE_REPRESENTATION ( 'CTA12D-Z063-K02 ¦ðóûº°úð ôû  ôòº¸ªõýýþù ª¨ºñv d63', ( #18, #173 ), #120 ) ;
#76 = DESIGN_CONTEXT ( 'detailed design', #10, 'design' ) ;
#77 = CLOSED_SHELL ( 'NONE', ( #133, #25, #114, #197, #117, #162, #250, #193, #175 ) ) ;
#78 = PERSON_AND_ORGANIZATION ( #107, #179 ) ;
#79 = CARTESIAN_POINT ( 'NONE',  ( 0.0000000000000000000, -1489.731922708085700, 0.0000000000000000000 ) ) ;
#80 = EDGE_LOOP ( 'NONE', ( #139 ) ) ;
#81 = DIRECTION ( 'NONE',  ( -0.0000000000000000000, -1.000000000000000000, -0.0000000000000000000 ) ) ;
#82 = AXIS2_PLACEMENT_3D ( 'NONE', #245, #12, #42 ) ;
#83 = PERSON_AND_ORGANIZATION_ROLE ( 'design_supplier' ) ;
#84 = LOCAL_TIME ( 16, 35, 4.000000000000000000, #143 ) ;
#85 = CARTESIAN_POINT ( 'NONE',  ( 0.0000000000000000000, 28.99999999999991500, 0.0000000000000000000 ) ) ;
#86 = CARTESIAN_POINT ( 'NONE',  ( 0.0000000000000000000, 0.0000000000000000000, -34.00000000000000000 ) ) ;
#87 = CIRCLE ( 'NONE', #74, 31.00000000000000400 ) ;
#88 = EDGE_LOOP ( 'NONE', ( #28 ) ) ;
#89 = AXIS2_PLACEMENT_3D ( 'NONE', #157, #131, #182 ) ;
#90 = CALENDAR_DATE ( 2016, 20, 6 ) ;
#91 = DIRECTION ( 'NONE',  ( 0.0000000000000000000, 1.000000000000000000, 0.0000000000000000000 ) ) ;
#92 = CARTESIAN_POINT ( 'NONE',  ( 0.0000000000000000000, 28.99999999999991500, 0.0000000000000000000 ) ) ;
#93 = ORIENTED_EDGE ( 'NONE', *, *, #226, .T. ) ;
#94 = AXIS2_PLACEMENT_3D ( 'NONE', #85, #14, #122 ) ;
#95 = CARTESIAN_POINT ( 'NONE',  ( 0.0000000000000000000, -1489.731922708085700, 0.0000000000000000000 ) ) ;
#96 = CARTESIAN_POINT ( 'NONE',  ( 0.0000000000000000000, 50.00000000000000000, 31.00000000000000400 ) ) ;
#97 = EDGE_LOOP ( 'NONE', ( #191 ) ) ;
#98 = CARTESIAN_POINT ( 'NONE',  ( 0.0000000000000000000, 28.00000000000002500, -32.50000000000000000 ) ) ;
#99 =( NAMED_UNIT ( * ) PLANE_ANGLE_UNIT ( ) SI_UNIT ( $, .RADIAN. ) );
#100 = DATE_AND_TIME ( #158, #210 ) ;
#101 = FACE_OUTER_BOUND ( 'NONE', #88, .T. ) ;
#102 = EDGE_LOOP ( 'NONE', ( #43 ) ) ;
#103 = FACE_OUTER_BOUND ( 'NONE', #97, .T. ) ;
#104 = VERTEX_POINT ( 'NONE', #127 ) ;
#105 = AXIS2_PLACEMENT_3D ( 'NONE', #92, #246, #37 ) ;
#106 = ORIENTED_EDGE ( 'NONE', *, *, #153, .T. ) ;
#107 = PERSON ( 'UNSPECIFIED', 'UNSPECIFIED', 'UNSPECIFIED', ('UNSPECIFIED'), ('UNSPECIFIED'), ('UNSPECIFIED') ) ;
#108 = PERSON_AND_ORGANIZATION ( #107, #179 ) ;
#109 = DIRECTION ( 'NONE',  ( 0.0000000000000000000, 0.0000000000000000000, -1.000000000000000000 ) ) ;
#110 = EDGE_CURVE ( 'NONE', #219, #219, #144, .T. ) ;
#111 = CIRCLE ( 'NONE', #53, 34.00000000000000000 ) ;
#112 = DIRECTION ( 'NONE',  ( 0.0000000000000000000, 0.0000000000000000000, 1.000000000000000000 ) ) ;
#113 = APPLICATION_PROTOCOL_DEFINITION ( 'international standard', 'config_control_design', 1994, #196 ) ;
#114 = ADVANCED_FACE ( 'NONE', ( #148, #218 ), #224, .T. ) ;
#115 = DIRECTION ( 'NONE',  ( 0.0000000000000000000, -1.000000000000000000, -0.0000000000000000000 ) ) ;
#116 = APPROVAL_ROLE ( '' ) ;
#117 = ADVANCED_FACE ( 'NONE', ( #36 ), #38, .T. ) ;
#118 = VERTEX_POINT ( 'NONE', #86 ) ;
#119 = CALENDAR_DATE ( 2016, 20, 6 ) ;
#120 =( GEOMETRIC_REPRESENTATION_CONTEXT ( 3 ) GLOBAL_UNCERTAINTY_ASSIGNED_CONTEXT ( ( #244 ) ) GLOBAL_UNIT_ASSIGNED_CONTEXT ( ( #180, #99, #123 ) ) REPRESENTATION_CONTEXT ( 'NONE', 'WORKASPACE' ) );
#121 = DIRECTION ( 'NONE',  ( 0.0000000000000000000, 0.0000000000000000000, -1.000000000000000000 ) ) ;
#122 = DIRECTION ( 'NONE',  ( 0.0000000000000000000, 0.0000000000000000000, -1.000000000000000000 ) ) ;
#123 =( NAMED_UNIT ( * ) SI_UNIT ( $, .STERADIAN. ) SOLID_ANGLE_UNIT ( ) );
#124 = APPROVAL ( #253, 'UNSPECIFIED' ) ;
#125 = DIRECTION ( 'NONE',  ( 0.0000000000000000000, 0.0000000000000000000, -1.000000000000000000 ) ) ;
#126 = DIRECTION ( 'NONE',  ( -0.0000000000000000000, -1.000000000000000000, -0.0000000000000000000 ) ) ;
#127 = CARTESIAN_POINT ( 'NONE',  ( 0.0000000000000000000, 46.99999999999992900, -31.50000000000000000 ) ) ;
#128 = PERSON_AND_ORGANIZATION ( #107, #179 ) ;
#129 = DIRECTION ( 'NONE',  ( -0.0000000000000000000, -1.000000000000000000, -0.0000000000000000000 ) ) ;
#130 = CALENDAR_DATE ( 2016, 20, 6 ) ;
#131 = DIRECTION ( 'NONE',  ( -0.0000000000000000000, -1.000000000000000000, -0.0000000000000000000 ) ) ;
#132 = EDGE_LOOP ( 'NONE', ( #154 ) ) ;
#133 = ADVANCED_FACE ( 'NONE', ( #195, #59 ), #254, .F. ) ;
#134 = FACE_OUTER_BOUND ( 'NONE', #132, .T. ) ;
#135 = PERSON_AND_ORGANIZATION ( #107, #179 ) ;
#136 = DATE_TIME_ROLE ( 'creation_date' ) ;
#137 = CC_DESIGN_APPROVAL ( #124, ( #8 ) ) ;
#138 = PERSON_AND_ORGANIZATION_ROLE ( 'classification_officer' ) ;
#139 = ORIENTED_EDGE ( 'NONE', *, *, #199, .T. ) ;
#140 = AXIS2_PLACEMENT_3D ( 'NONE', #159, #65, #64 ) ;
#141 = CIRCLE ( 'NONE', #89, 34.00000000000000000 ) ;
#142 = CARTESIAN_POINT ( 'NONE',  ( 0.0000000000000000000, -1489.731922708085700, 0.0000000000000000000 ) ) ;
#143 = COORDINATED_UNIVERSAL_TIME_OFFSET ( 3, 0, .AHEAD. ) ;
#144 = CIRCLE ( 'NONE', #164, 31.00000000000000000 ) ;
#145 = ORIENTED_EDGE ( 'NONE', *, *, #212, .F. ) ;
#146 = LOCAL_TIME ( 16, 35, 4.000000000000000000, #166 ) ;
#147 = PRODUCT_DEFINITION_SHAPE ( 'NONE', 'NONE',  #201 ) ;
#148 = FACE_OUTER_BOUND ( 'NONE', #23, .T. ) ;
#149 = CC_DESIGN_PERSON_AND_ORGANIZATION_ASSIGNMENT ( #135, #237, ( #8 ) ) ;
#150 = AXIS2_PLACEMENT_3D ( 'NONE', #142, #126, #109 ) ;
#151 = EDGE_LOOP ( 'NONE', ( #206 ) ) ;
#152 = CONICAL_SURFACE ( 'NONE', #105, 31.50000000000000000, 0.7853981633974831400 ) ;
#153 = EDGE_CURVE ( 'NONE', #70, #70, #204, .T. ) ;
#154 = ORIENTED_EDGE ( 'NONE', *, *, #15, .T. ) ;
#155 = DIRECTION ( 'NONE',  ( 0.0000000000000000000, 0.0000000000000000000, -1.000000000000000000 ) ) ;
#156 = CARTESIAN_POINT ( 'NONE',  ( 0.0000000000000000000, 0.0000000000000000000, 0.0000000000000000000 ) ) ;
#157 = CARTESIAN_POINT ( 'NONE',  ( 0.0000000000000000000, 46.99999999999992900, 0.0000000000000000000 ) ) ;
#158 = CALENDAR_DATE ( 2016, 20, 6 ) ;
#159 = CARTESIAN_POINT ( 'NONE',  ( 34.00000000000000000, 50.00000000000000000, 0.0000000000000000000 ) ) ;
#160 = ORIENTED_EDGE ( 'NONE', *, *, #27, .F. ) ;
#161 = DIRECTION ( 'NONE',  ( -0.0000000000000000000, -1.000000000000000000, -0.0000000000000000000 ) ) ;
#162 = ADVANCED_FACE ( 'NONE', ( #168, #101 ), #57, .F. ) ;
#163 = CC_DESIGN_PERSON_AND_ORGANIZATION_ASSIGNMENT ( #78, #83, ( #8 ) ) ;
#164 = AXIS2_PLACEMENT_3D ( 'NONE', #13, #161, #121 ) ;
#165 = APPLICATION_PROTOCOL_DEFINITION ( 'international standard', 'config_control_design', 1994, #10 ) ;
#166 = COORDINATED_UNIVERSAL_TIME_OFFSET ( 3, 0, .AHEAD. ) ;
#167 = FACE_BOUND ( 'NONE', #41, .T. ) ;
#168 = FACE_OUTER_BOUND ( 'NONE', #222, .T. ) ;
#169 = DIRECTION ( 'NONE',  ( -0.0000000000000000000, -1.000000000000000000, -0.0000000000000000000 ) ) ;
#170 = VERTEX_POINT ( 'NONE', #223 ) ;
#171 = LOCAL_TIME ( 16, 35, 4.000000000000000000, #227 ) ;
#172 = VERTEX_POINT ( 'NONE', #200 ) ;
#173 = AXIS2_PLACEMENT_3D ( 'NONE', #221, #112, #44 ) ;
#174 = DIRECTION ( 'NONE',  ( 0.0000000000000000000, 0.0000000000000000000, -1.000000000000000000 ) ) ;
#175 = ADVANCED_FACE ( 'NONE', ( #52, #17 ), #211, .T. ) ;
#176 = SECURITY_CLASSIFICATION ( '', '', #185 ) ;
#177 = CARTESIAN_POINT ( 'NONE',  ( 0.0000000000000000000, 47.50000000000000000, -31.00000000000000000 ) ) ;
#178 = AXIS2_PLACEMENT_3D ( 'NONE', #79, #169, #155 ) ;
#179 = ORGANIZATION ( 'UNSPECIFIED', 'UNSPECIFIED', '' ) ;
#180 =( LENGTH_UNIT ( ) NAMED_UNIT ( * ) SI_UNIT ( .MILLI., .METRE. ) );
#181 = LOCAL_TIME ( 16, 35, 4.000000000000000000, #235 ) ;
#182 = DIRECTION ( 'NONE',  ( 0.0000000000000000000, 0.0000000000000000000, 1.000000000000000000 ) ) ;
#183 = DIRECTION ( 'NONE',  ( 0.0000000000000000000, 0.0000000000000000000, 1.000000000000000000 ) ) ;
#184 = ORIENTED_EDGE ( 'NONE', *, *, #110, .F. ) ;
#185 = SECURITY_CLASSIFICATION_LEVEL ( 'unclassified' ) ;
#186 = CC_DESIGN_PERSON_AND_ORGANIZATION_ASSIGNMENT ( #128, #66, ( #233 ) ) ;
#187 = APPROVAL_DATE_TIME ( #239, #124 ) ;
#188 = MECHANICAL_CONTEXT ( 'NONE', #196, 'mechanical' ) ;
#189 = CC_DESIGN_PERSON_AND_ORGANIZATION_ASSIGNMENT ( #24, #138, ( #176 ) ) ;
#190 = AXIS2_PLACEMENT_3D ( 'NONE', #156, #81, #174 ) ;
#191 = ORIENTED_EDGE ( 'NONE', *, *, #212, .T. ) ;
#192 = PLANE ( 'NONE',  #140 ) ;
#193 = ADVANCED_FACE ( 'NONE', ( #225, #55 ), #7, .F. ) ;
#194 = APPROVAL_PERSON_ORGANIZATION ( #243, #124, #116 ) ;
#195 = FACE_OUTER_BOUND ( 'NONE', #255, .T. ) ;
#196 = APPLICATION_CONTEXT ( 'configuration controlled 3d designs of mechanical parts and assemblies' ) ;
#197 = ADVANCED_FACE ( 'NONE', ( #103 ), #192, .T. ) ;
#198 = EDGE_LOOP ( 'NONE', ( #209 ) ) ;
#199 = EDGE_CURVE ( 'NONE', #20, #20, #9, .T. ) ;
#200 = CARTESIAN_POINT ( 'NONE',  ( 0.0000000000000000000, 46.99999999999992900, 34.00000000000000000 ) ) ;
#201 = PRODUCT_DEFINITION ( 'UNKNOWN', '', #8, #76 ) ;
#202 = CARTESIAN_POINT ( 'NONE',  ( 0.0000000000000000000, 46.99999999999992900, 0.0000000000000000000 ) ) ;
#203 = CC_DESIGN_DATE_AND_TIME_ASSIGNMENT ( #71, #22, ( #176 ) ) ;
#204 = CIRCLE ( 'NONE', #190, 32.50000000000000000 ) ;
#205 = AXIS2_PLACEMENT_3D ( 'NONE', #67, #115, #232 ) ;
#206 = ORIENTED_EDGE ( 'NONE', *, *, #110, .T. ) ;
#207 = FACE_OUTER_BOUND ( 'NONE', #80, .T. ) ;
#208 = AXIS2_PLACEMENT_3D ( 'NONE', #3, #72, #217 ) ;
#209 = ORIENTED_EDGE ( 'NONE', *, *, #39, .F. ) ;
#210 = LOCAL_TIME ( 16, 35, 4.000000000000000000, #5 ) ;
#211 = TOROIDAL_SURFACE ( 'NONE', #231, 31.00000000000000400, 3.000000000000000000 ) ;
#212 = EDGE_CURVE ( 'NONE', #228, #228, #87, .T. ) ;
#213 = APPROVAL ( #60, 'UNSPECIFIED' ) ;
#214 = AXIS2_PLACEMENT_3D ( 'NONE', #95, #1, #29 ) ;
#215 = CIRCLE ( 'NONE', #94, 31.50000000000000000 ) ;
#216 = APPROVAL ( #63, 'UNSPECIFIED' ) ;
#217 = DIRECTION ( 'NONE',  ( 0.0000000000000000000, 0.0000000000000000000, -1.000000000000000000 ) ) ;
#218 = FACE_OUTER_BOUND ( 'NONE', #47, .T. ) ;
#219 = VERTEX_POINT ( 'NONE', #177 ) ;
#220 = PERSON_AND_ORGANIZATION ( #107, #179 ) ;
#221 = CARTESIAN_POINT ( 'NONE',  ( 0.0000000000000000000, 0.0000000000000000000, 0.0000000000000000000 ) ) ;
#222 = EDGE_LOOP ( 'NONE', ( #2 ) ) ;
#223 = CARTESIAN_POINT ( 'NONE',  ( 0.0000000000000000000, 28.99999999999991500, -31.50000000000000000 ) ) ;
#224 = CYLINDRICAL_SURFACE ( 'NONE', #178, 34.00000000000000000 ) ;
#225 = FACE_OUTER_BOUND ( 'NONE', #198, .T. ) ;
#226 = EDGE_CURVE ( 'NONE', #172, #172, #141, .T. ) ;
#227 = COORDINATED_UNIVERSAL_TIME_OFFSET ( 3, 0, .AHEAD. ) ;
#228 = VERTEX_POINT ( 'NONE', #96 ) ;
#229 = CC_DESIGN_APPROVAL ( #213, ( #201 ) ) ;
#230 = DIRECTION ( 'NONE',  ( 0.0000000000000000000, 0.0000000000000000000, -1.000000000000000000 ) ) ;
#231 = AXIS2_PLACEMENT_3D ( 'NONE', #31, #21, #183 ) ;
#232 = DIRECTION ( 'NONE',  ( 0.0000000000000000000, 0.0000000000000000000, -1.000000000000000000 ) ) ;
#233 = PRODUCT ( 'CTA12D-Z063-K02 Çàãëóøêà äëÿ äâóñòåííîé òðóáû d63', 'CTA12D-Z063-K02 Çàãëóøêà äëÿ äâóñòåííîé òðóáû d63', '', ( #188 ) ) ;
#234 = CC_DESIGN_APPROVAL ( #216, ( #176 ) ) ;
#235 = COORDINATED_UNIVERSAL_TIME_OFFSET ( 3, 0, .AHEAD. ) ;
#236 = EDGE_LOOP ( 'NONE', ( #184 ) ) ;
#237 = PERSON_AND_ORGANIZATION_ROLE ( 'creator' ) ;
#238 = CC_DESIGN_PERSON_AND_ORGANIZATION_ASSIGNMENT ( #220, #62, ( #201 ) ) ;
#239 = DATE_AND_TIME ( #30, #84 ) ;
#240 = CARTESIAN_POINT ( 'NONE',  ( 0.0000000000000000000, 0.0000000000000000000, -32.50000000000000000 ) ) ;
#241 = AXIS2_PLACEMENT_3D ( 'NONE', #49, #6, #247 ) ;
#242 = CC_DESIGN_SECURITY_CLASSIFICATION ( #176, ( #8 ) ) ;
#243 = PERSON_AND_ORGANIZATION ( #107, #179 ) ;
#244 = UNCERTAINTY_MEASURE_WITH_UNIT (LENGTH_MEASURE( 1.000000000000000100E-005 ), #180, 'distance_accuracy_value', 'NONE');
#245 = CARTESIAN_POINT ( 'NONE',  ( 32.50000000000000000, 0.0000000000000000000, 0.0000000000000000000 ) ) ;
#246 = DIRECTION ( 'NONE',  ( 0.0000000000000000000, -1.000000000000000000, 0.0000000000000000000 ) ) ;
#247 = DIRECTION ( 'NONE',  ( 0.0000000000000000000, 0.0000000000000000000, -1.000000000000000000 ) ) ;
#248 = ORIENTED_EDGE ( 'NONE', *, *, #15, .F. ) ;
#249 = CC_DESIGN_DATE_AND_TIME_ASSIGNMENT ( #35, #136, ( #201 ) ) ;
#250 = ADVANCED_FACE ( 'NONE', ( #207, #33 ), #152, .F. ) ;
#251 = AXIS2_PLACEMENT_3D ( 'NONE', #202, #129, #230 ) ;
#252 = PRODUCT_RELATED_PRODUCT_CATEGORY ( 'detail', '', ( #233 ) ) ;
#253 = APPROVAL_STATUS ( 'not_yet_approved' ) ;
#254 = CYLINDRICAL_SURFACE ( 'NONE', #150, 32.50000000000000000 ) ;
#255 = EDGE_LOOP ( 'NONE', ( #106 ) ) ;
ENDSEC;
END-ISO-10303-21;
