  0
SECTION
  2
HEADER
  9
$ACADVER
  1
AC1015
  9
$ACADMAINTVER
 70
     6
  9
$DWGCODEPAGE
  3
ANSI_1251
  9
$INSBASE
 10
0.0
 20
0.0
 30
0.0
  9
$EXTMIN
 10
0.0
 20
0.0
 30
0.0
  9
$EXTMAX
 10
841.0
 20
594.0
 30
0.0
  9
$LIMMIN
 10
0.0
 20
0.0
  9
$LIMMAX
 10
841.0
 20
594.0
  9
$ORTHOMODE
 70
     0
  9
$REGENMODE
 70
     1
  9
$FILLMODE
 70
     1
  9
$QTEXTMODE
 70
     0
  9
$MIRRTEXT
 70
     1
  9
$LTSCALE
 40
1.0
  9
$ATTMODE
 70
     1
  9
$TEXTSIZE
 40
3.5
  9
$TRACEWID
 40
1.0
  9
$TEXTSTYLE
  7
Standard
  9
$CLAYER
  8
0
  9
$CELTYPE
  6
ByLayer
  9
$CECOLOR
 62
   256
  9
$CELTSCALE
 40
1.0
  9
$DISPSILH
 70
     0
  9
$DIMSCALE
 40
1.0
  9
$DIMASZ
 40
3.5
  9
$DIMEXO
 40
0.01
  9
$DIMDLI
 40
3.75
  9
$DIMRND
 40
0.0
  9
$DIMDLE
 40
0.0
  9
$DIMEXE
 40
1.0
  9
$DIMTP
 40
0.0
  9
$DIMTM
 40
0.0
  9
$DIMTXT
 40
3.5
  9
$DIMCEN
 40
2.5
  9
$DIMTSZ
 40
0.0
  9
$DIMTOL
 70
     0
  9
$DIMLIM
 70
     0
  9
$DIMTIH
 70
     1
  9
$DIMTOH
 70
     1
  9
$DIMSE1
 70
     0
  9
$DIMSE2
 70
     0
  9
$DIMTAD
 70
     1
  9
$DIMZIN
 70
     0
  9
$DIMBLK
  1

  9
$DIMASO
 70
     1
  9
$DIMSHO
 70
     1
  9
$DIMPOST
  1

  9
$DIMAPOST
  1

  9
$DIMALT
 70
     0
  9
$DIMALTD
 70
     3
  9
$DIMALTF
 40
0.0393700787
  9
$DIMLFAC
 40
1.0
  9
$DIMTOFL
 70
     1
  9
$DIMTVP
 40
0.0
  9
$DIMTIX
 70
     0
  9
$DIMSOXD
 70
     0
  9
$DIMSAH
 70
     0
  9
$DIMBLK1
  1

  9
$DIMBLK2
  1

  9
$DIMSTYLE
  2
ISO-25
  9
$DIMCLRD
 70
     0
  9
$DIMCLRE
 70
     0
  9
$DIMCLRT
 70
     0
  9
$DIMTFAC
 40
1.0
  9
$DIMGAP
 40
3.0
  9
$DIMJUST
 70
     0
  9
$DIMSD1
 70
     0
  9
$DIMSD2
 70
     0
  9
$DIMTOLJ
 70
     0
  9
$DIMTZIN
 70
     0
  9
$DIMALTZ
 70
     0
  9
$DIMALTTZ
 70
     0
  9
$DIMUPT
 70
     0
  9
$DIMDEC
 70
     2
  9
$DIMTDEC
 70
     3
  9
$DIMALTU
 70
     2
  9
$DIMALTTD
 70
     3
  9
$DIMTXSTY
  7
Standard
  9
$DIMAUNIT
 70
     0
  9
$DIMADEC
 70
     2
  9
$DIMALTRND
 40
0.0
  9
$DIMAZIN
 70
     0
  9
$DIMDSEP
 70
    44
  9
$DIMATFIT
 70
     3
  9
$DIMFRAC
 70
     0
  9
$DIMLDRBLK
  1

  9
$DIMLUNIT
 70
     2
  9
$DIMLWD
 70
    -2
  9
$DIMLWE
 70
    -2
  9
$DIMTMOVE
 70
     0
  9
$LUNITS
 70
     2
  9
$LUPREC
 70
     2
  9
$SKETCHINC
 40
1.0
  9
$FILLETRAD
 40
10.0
  9
$AUNITS
 70
     0
  9
$AUPREC
 70
     2
  9
$MENU
  1
.
  9
$ELEVATION
 40
0.0
  9
$PELEVATION
 40
0.0
  9
$THICKNESS
 40
0.0
  9
$LIMCHECK
 70
     0
  9
$CHAMFERA
 40
0.0
  9
$CHAMFERB
 40
0.0
  9
$CHAMFERC
 40
0.0
  9
$CHAMFERD
 40
0.0
  9
$SKPOLY
 70
     0
  9
$TDCREATE
 40
2459732.602077986
  9
$TDUCREATE
 40
2459732.477077986
  9
$TDUPDATE
 40
2459732.602079618
  9
$TDUUPDATE
 40
2459732.477079618
  9
$TDINDWG
 40
0.0000000116
  9
$TDUSRTIMER
 40
0.0000000116
  9
$USRTIMER
 70
     1
  9
$ANGBASE
 50
0.0
  9
$ANGDIR
 70
     0
  9
$PDMODE
 70
     0
  9
$PDSIZE
 40
-1.0
  9
$PLINEWID
 40
0.0
  9
$SPLFRAME
 70
     0
  9
$SPLINETYPE
 70
     6
  9
$SPLINESEGS
 70
     8
  9
$HANDSEED
  5
4A5
  9
$SURFTAB1
 70
     6
  9
$SURFTAB2
 70
     6
  9
$SURFTYPE
 70
     6
  9
$SURFU
 70
     6
  9
$SURFV
 70
     6
  9
$UCSBASE
  2

  9
$UCSNAME
  2

  9
$UCSORG
 10
0.0
 20
0.0
 30
0.0
  9
$UCSXDIR
 10
1.0
 20
0.0
 30
0.0
  9
$UCSYDIR
 10
0.0
 20
1.0
 30
0.0
  9
$UCSORTHOREF
  2

  9
$UCSORTHOVIEW
 70
     0
  9
$UCSORGTOP
 10
0.0
 20
0.0
 30
0.0
  9
$UCSORGBOTTOM
 10
0.0
 20
0.0
 30
0.0
  9
$UCSORGLEFT
 10
0.0
 20
0.0
 30
0.0
  9
$UCSORGRIGHT
 10
0.0
 20
0.0
 30
0.0
  9
$UCSORGFRONT
 10
0.0
 20
0.0
 30
0.0
  9
$UCSORGBACK
 10
0.0
 20
0.0
 30
0.0
  9
$PUCSBASE
  2

  9
$PUCSNAME
  2

  9
$PUCSORG
 10
0.0
 20
0.0
 30
0.0
  9
$PUCSXDIR
 10
1.0
 20
0.0
 30
0.0
  9
$PUCSYDIR
 10
0.0
 20
1.0
 30
0.0
  9
$PUCSORTHOREF
  2

  9
$PUCSORTHOVIEW
 70
     0
  9
$PUCSORGTOP
 10
0.0
 20
0.0
 30
0.0
  9
$PUCSORGBOTTOM
 10
0.0
 20
0.0
 30
0.0
  9
$PUCSORGLEFT
 10
0.0
 20
0.0
 30
0.0
  9
$PUCSORGRIGHT
 10
0.0
 20
0.0
 30
0.0
  9
$PUCSORGFRONT
 10
0.0
 20
0.0
 30
0.0
  9
$PUCSORGBACK
 10
0.0
 20
0.0
 30
0.0
  9
$USERI1
 70
     0
  9
$USERI2
 70
     0
  9
$USERI3
 70
     0
  9
$USERI4
 70
     0
  9
$USERI5
 70
     0
  9
$USERR1
 40
0.0
  9
$USERR2
 40
0.0
  9
$USERR3
 40
0.0
  9
$USERR4
 40
0.0
  9
$USERR5
 40
0.0
  9
$WORLDVIEW
 70
     1
  9
$SHADEDGE
 70
     3
  9
$SHADEDIF
 70
    70
  9
$TILEMODE
 70
     1
  9
$MAXACTVP
 70
    64
  9
$PINSBASE
 10
0.0
 20
0.0
 30
0.0
  9
$PLIMCHECK
 70
     0
  9
$PEXTMIN
 10
1.0000000000E+20
 20
1.0000000000E+20
 30
1.0000000000E+20
  9
$PEXTMAX
 10
-1.0000000000E+20
 20
-1.0000000000E+20
 30
-1.0000000000E+20
  9
$PLIMMIN
 10
0.0
 20
0.0
  9
$PLIMMAX
 10
420.0
 20
297.0
  9
$UNITMODE
 70
     0
  9
$VISRETAIN
 70
     1
  9
$PLINEGEN
 70
     0
  9
$PSLTSCALE
 70
     1
  9
$TREEDEPTH
 70
  3020
  9
$CMLSTYLE
  2
Standard
  9
$CMLJUST
 70
     0
  9
$CMLSCALE
 40
20.0
  9
$PROXYGRAPHICS
 70
     1
  9
$MEASUREMENT
 70
     1
  9
$CELWEIGHT
370
    -1
  9
$ENDCAPS
280
     0
  9
$JOINSTYLE
280
     0
  9
$LWDISPLAY
290
     1
  9
$INSUNITS
 70
     4
  9
$HYPERLINKBASE
  1

  9
$STYLESHEET
  1

  9
$XEDIT
290
     1
  9
$CEPSNTYPE
380
     0
  9
$PSTYLEMODE
290
     1
  9
$FINGERPRINTGUID
  2
{D147117A-827D-4E57-9B78-4CCBD6D4560D}
  9
$VERSIONGUID
  2
{FAEB1C32-E019-11D5-929B-00C0DF256EC4}
  9
$EXTNAMES
290
     1
  9
$PSVPSCALE
 40
0.0
  9
$OLESTARTUP
290
     0
  0
ENDSEC
  0
SECTION
  2
CLASSES
  0
CLASS
  1
ACDBDICTIONARYWDFLT
  2
AcDbDictionaryWithDefault
  3
ObjectDBX Classes
 90
        0
280
     0
281
     0
  0
CLASS
  1
VISUALSTYLE
  2
AcDbVisualStyle
  3
ObjectDBX Classes
 90
     4095
280
     0
281
     0
  0
CLASS
  1
MATERIAL
  2
AcDbMaterial
  3
ObjectDBX Classes
 90
     1153
280
     0
281
     0
  0
CLASS
  1
SCALE
  2
AcDbScale
  3
ObjectDBX Classes
 90
     1153
280
     0
281
     0
  0
CLASS
  1
TABLESTYLE
  2
AcDbTableStyle
  3
ObjectDBX Classes
 90
     4095
280
     0
281
     0
  0
CLASS
  1
MLEADERSTYLE
  2
AcDbMLeaderStyle
  3
ACDB_MLEADERSTYLE_CLASS
 90
     4095
280
     0
281
     0
  0
CLASS
  1
SUN
  2
AcDbSun
  3
SCENEOE
 90
     1153
280
     0
281
     0
  0
CLASS
  1
ACDBPLACEHOLDER
  2
AcDbPlaceHolder
  3
ObjectDBX Classes
 90
        0
280
     0
281
     0
  0
CLASS
  1
LAYOUT
  2
AcDbLayout
  3
ObjectDBX Classes
 90
        0
280
     0
281
     0
  0
ENDSEC
  0
SECTION
  2
TABLES
  0
TABLE
  2
VPORT
  5
8
330
0
100
AcDbSymbolTable
 70
     1
  0
VPORT
  5
29
330
8
100
AcDbSymbolTableRecord
100
AcDbViewportTableRecord
  2
*Active
 70
     0
 10
0.0
 20
0.0
 11
1.0
 21
1.0
 12
420.5
 22
297.0
 13
0.0
 23
0.0
 14
10.0
 24
10.0
 15
10.0
 25
10.0
 16
0.0
 26
0.0
 36
1.0
 17
0.0
 27
0.0
 37
0.0
 40
594.0
 41
1.4158249158
 42
50.0
 43
0.0
 44
0.0
 50
0.0
 51
0.0
 71
     0
 72
  2000
 73
     1
 74
     3
 75
     0
 76
     0
 77
     0
 78
     0
281
     0
 65
     1
110
0.0
120
0.0
130
0.0
111
1.0
121
0.0
131
0.0
112
0.0
122
1.0
132
0.0
 79
     0
146
0.0
  0
ENDTAB
  0
TABLE
  2
LTYPE
  5
5
330
0
100
AcDbSymbolTable
 70
     6
  0
LTYPE
  5
14
330
5
100
AcDbSymbolTableRecord
100
AcDbLinetypeTableRecord
  2
ByBlock
 70
     0
  3

 72
    65
 73
     0
 40
0.0
  0
LTYPE
  5
15
330
5
100
AcDbSymbolTableRecord
100
AcDbLinetypeTableRecord
  2
ByLayer
 70
     0
  3

 72
    65
 73
     0
 40
0.0
  0
LTYPE
  5
16
330
5
100
AcDbSymbolTableRecord
100
AcDbLinetypeTableRecord
  2
Continuous
 70
     0
  3
Solid line
 72
    65
 73
     0
 40
0.0
  0
LTYPE
  5
6E
330
5
100
AcDbSymbolTableRecord
100
AcDbLinetypeTableRecord
  2
HIDDEN
 70
     0
  3
Hidden __ __ __ __ __ __ __ __ __ __ __ __ __ __
 72
    65
 73
     2
 40
1.905
 49
1.27
 74
     0
 49
-0.635
 74
     0
  0
LTYPE
  5
6F
330
5
100
AcDbSymbolTableRecord
100
AcDbLinetypeTableRecord
  2
PHANTOM
 70
     0
  3
Phantom ______  __  __  ______  __  __  ______
 72
    65
 73
     6
 40
12.7
 49
6.35
 74
     0
 49
-1.27
 74
     0
 49
1.27
 74
     0
 49
-1.27
 74
     0
 49
1.27
 74
     0
 49
-1.27
 74
     0
  0
LTYPE
  5
70
330
5
100
AcDbSymbolTableRecord
100
AcDbLinetypeTableRecord
  2
CENTER
 70
     0
  3
Center ____ _ ____ _ ____ _ ____ _ ____ _ ____
 72
    65
 73
     4
 40
10.16
 49
6.35
 74
     0
 49
-1.27
 74
     0
 49
1.27
 74
     0
 49
-1.27
 74
     0
  0
LTYPE
  5
71
330
5
100
AcDbSymbolTableRecord
100
AcDbLinetypeTableRecord
  2
CENTERX2
 70
     0
  3
Center (2x) ________  __  ________  __  _____
 72
    65
 73
     4
 40
20.32
 49
12.7
 74
     0
 49
-2.54
 74
     0
 49
2.54
 74
     0
 49
-2.54
 74
     0
  0
LTYPE
  5
72
330
5
100
AcDbSymbolTableRecord
100
AcDbLinetypeTableRecord
  2
DOT2
 70
     0
  3
Dot (.5x) ........................................
 72
    65
 73
     2
 40
0.635
 49
0.0
 74
     0
 49
-0.635
 74
     0
  0
ENDTAB
  0
TABLE
  2
LAYER
  5
2
330
0
100
AcDbSymbolTable
 70
     1
  0
LAYER
  5
10
330
2
100
AcDbSymbolTableRecord
100
AcDbLayerTableRecord
  2
0
 70
     0
 62
     7
  6
Continuous
370
    -3
390
F
  0
ENDTAB
  0
TABLE
  2
STYLE
  5
3
330
0
100
AcDbSymbolTable
 70
     1
  0
STYLE
  5
11
330
3
100
AcDbSymbolTableRecord
100
AcDbTextStyleTableRecord
  2
Standard
 70
     0
 40
0.0
 41
1.0
 50
0.0
 71
     0
 42
3.5
  3
txt
  4

  0
ENDTAB
  0
TABLE
  2
VIEW
  5
6
330
0
100
AcDbSymbolTable
 70
     0
  0
ENDTAB
  0
TABLE
  2
UCS
  5
7
330
0
100
AcDbSymbolTable
 70
     0
  0
ENDTAB
  0
TABLE
  2
APPID
  5
9
330
0
100
AcDbSymbolTable
 70
     1
  0
APPID
  5
12
330
9
100
AcDbSymbolTableRecord
100
AcDbRegAppTableRecord
  2
ACAD
 70
     0
  0
ENDTAB
  0
TABLE
  2
DIMSTYLE
  5
A
330
0
100
AcDbSymbolTable
 70
     1
100
AcDbDimStyleTable
  0
DIMSTYLE
105
27
330
A
100
AcDbSymbolTableRecord
100
AcDbDimStyleTableRecord
  2
ISO-25
 70
     0
 41
2.5
 42
0.625
 43
3.75
 44
1.25
 73
     0
 74
     0
 77
     1
 78
     8
140
2.5
141
2.5
143
0.0393700787
147
0.625
171
     3
172
     1
178
     0
271
     2
272
     2
274
     3
278
    44
283
     0
284
     8
340
11
  0
ENDTAB
  0
TABLE
  2
BLOCK_RECORD
  5
1
330
0
100
AcDbSymbolTable
 70
     1
  0
BLOCK_RECORD
  5
1F
330
1
100
AcDbSymbolTableRecord
100
AcDbBlockTableRecord
  2
*Model_Space
340
22
  0
BLOCK_RECORD
  5
1B
330
1
100
AcDbSymbolTableRecord
100
AcDbBlockTableRecord
  2
*Paper_Space
340
1E
  0
BLOCK_RECORD
  5
23
330
1
100
AcDbSymbolTableRecord
100
AcDbBlockTableRecord
  2
*Paper_Space0
340
26
  0
ENDTAB
  0
ENDSEC
  0
SECTION
  2
BLOCKS
  0
BLOCK
  5
20
330
1F
100
AcDbEntity
  8
0
100
AcDbBlockBegin
  2
*Model_Space
 70
     0
 10
0.0
 20
0.0
 30
0.0
  3
*Model_Space
  1

  0
ENDBLK
  5
21
330
1F
100
AcDbEntity
  8
0
100
AcDbBlockEnd
  0
BLOCK
  5
1C
330
1B
100
AcDbEntity
 67
     1
  8
0
100
AcDbBlockBegin
  2
*Paper_Space
 70
     0
 10
0.0
 20
0.0
 30
0.0
  3
*Paper_Space
  1

  0
ENDBLK
  5
1D
330
1B
100
AcDbEntity
 67
     1
  8
0
100
AcDbBlockEnd
  0
BLOCK
  5
24
330
23
100
AcDbEntity
  8
0
100
AcDbBlockBegin
  2
*Paper_Space0
 70
     0
 10
0.0
 20
0.0
 30
0.0
  3
*Paper_Space0
  1

  0
ENDBLK
  5
25
330
23
100
AcDbEntity
  8
0
100
AcDbBlockEnd
  0
ENDSEC
  0
SECTION
  2
ENTITIES
  0
ARC
  5
73
330
1F
100
AcDbEntity
  8
0
  6
Continuous
 62
     7
370
    25
100
AcDbCircle
 10
664.4433501725
 20
538.028893827
 30
0.0
 40
0.5000000000001137
100
AcDbArc
 50
180.0
 51
0.0
  0
ARC
  5
74
330
1F
100
AcDbEntity
  8
0
  6
Continuous
 62
     7
370
    25
100
AcDbCircle
 10
664.4433501725
 20
549.6288938272
 30
0.0
 40
0.5
100
AcDbArc
 50
0.0
 51
180.0
  0
LINE
  5
75
330
1F
100
AcDbEntity
  8
0
  6
Continuous
 62
     7
370
    25
100
AcDbLine
 10
659.9433501725
 20
538.8288938271
 30
0.0
 11
660.1539292275
 21
538.4641602049
 31
0.0
  0
LINE
  5
76
330
1F
100
AcDbEntity
  8
0
  6
Continuous
 62
     7
370
    25
100
AcDbLine
 10
674.4021001725
 20
546.8288938271
 30
0.0
 11
665.7433501725
 21
546.8288938271
 31
0.0
  0
LINE
  5
77
330
1F
100
AcDbEntity
  8
0
  6
Continuous
 62
     7
370
    25
100
AcDbLine
 10
665.7433501725
 20
540.8288938271
 30
0.0
 11
674.4021001725
 21
540.8288938271
 31
0.0
  0
LINE
  5
78
330
1F
100
AcDbEntity
  8
0
  6
Continuous
 62
     7
370
    25
100
AcDbLine
 10
674.4021001725
 20
540.8288938271
 30
0.0
 11
674.9433501725
 21
541.3701438271
 31
0.0
  0
LINE
  5
79
330
1F
100
AcDbEntity
  8
0
  6
Continuous
 62
     7
370
    25
100
AcDbLine
 10
674.9433501725
 20
546.2876438271
 30
0.0
 11
674.4021001725
 21
546.8288938271
 31
0.0
  0
LINE
  5
7A
330
1F
100
AcDbEntity
  8
0
  6
Continuous
 62
     7
370
    25
100
AcDbLine
 10
660.1539292275
 20
549.1936274493
 30
0.0
 11
659.9433501725
 21
548.8288938271
 31
0.0
  0
ARC
  5
7B
330
1F
100
AcDbEntity
  8
0
  6
Continuous
 62
     7
370
    25
100
AcDbCircle
 10
664.4433501725
 20
524.6288938272
 30
0.0
 40
0.5000000000000603
100
AcDbArc
 50
0.0
 51
113.5781784781
  0
LINE
  5
7C
330
1F
100
AcDbEntity
  8
0
  6
Continuous
 62
     7
370
    25
100
AcDbLine
 10
674.4021001725
 20
521.8288938271
 30
0.0
 11
665.7433501725
 21
521.8288938271
 31
0.0
  0
LINE
  5
7D
330
1F
100
AcDbEntity
  8
0
  6
Continuous
 62
     7
370
    25
100
AcDbLine
 10
674.4021001725
 20
515.8288938271
 30
0.0
 11
674.9433501725
 21
516.3701438271
 31
0.0
  0
LINE
  5
7E
330
1F
100
AcDbEntity
  8
0
  6
Continuous
 62
     7
370
    25
100
AcDbLine
 10
674.9433501725
 20
521.2876438271
 30
0.0
 11
674.4021001725
 21
521.8288938271
 31
0.0
  0
ARC
  5
7F
330
1F
100
AcDbEntity
  8
0
  6
Continuous
 62
     7
370
    25
100
AcDbCircle
 10
161.0433501725
 20
524.6288938272
 30
0.0
 40
0.5000000000000205
100
AcDbArc
 50
66.4218215218
 51
180.0
  0
LINE
  5
80
330
1F
100
AcDbEntity
  8
0
  6
Continuous
 62
     7
370
    25
100
AcDbLine
 10
151.0846001725
 20
521.8288938271
 30
0.0
 11
150.5433501725
 21
521.2876438271
 31
0.0
  0
LINE
  5
81
330
1F
100
AcDbEntity
  8
0
  6
Continuous
 62
     7
370
    25
100
AcDbLine
 10
150.5433501725
 20
516.3701438271
 30
0.0
 11
151.0846001725
 21
515.8288938271
 31
0.0
  0
LINE
  5
82
330
1F
100
AcDbEntity
  8
0
  6
Continuous
 62
     7
370
    25
100
AcDbLine
 10
159.7433501725
 20
521.8288938271
 30
0.0
 11
151.0846001725
 21
521.8288938271
 31
0.0
  0
ARC
  5
83
330
1F
100
AcDbEntity
  8
0
  6
Continuous
 62
     7
370
    25
100
AcDbCircle
 10
161.0433501725
 20
549.6288938272
 30
0.0
 40
0.5000000000000284
100
AcDbArc
 50
0.0
 51
180.0
  0
ARC
  5
84
330
1F
100
AcDbEntity
  8
0
  6
Continuous
 62
     7
370
    25
100
AcDbCircle
 10
161.0433501725
 20
538.028893827
 30
0.0
 40
0.5
100
AcDbArc
 50
180.0
 51
0.0
  0
LINE
  5
85
330
1F
100
AcDbEntity
  8
0
  6
Continuous
 62
     7
370
    25
100
AcDbLine
 10
151.0846001725
 20
546.8288938271
 30
0.0
 11
150.5433501725
 21
546.2876438271
 31
0.0
  0
LINE
  5
86
330
1F
100
AcDbEntity
  8
0
  6
Continuous
 62
     7
370
    25
100
AcDbLine
 10
150.5433501725
 20
541.3701438271
 30
0.0
 11
151.0846001725
 21
540.8288938271
 31
0.0
  0
LINE
  5
87
330
1F
100
AcDbEntity
  8
0
  6
Continuous
 62
     7
370
    25
100
AcDbLine
 10
151.0846001725
 20
540.8288938271
 30
0.0
 11
159.7433501725
 21
540.8288938271
 31
0.0
  0
LINE
  5
88
330
1F
100
AcDbEntity
  8
0
  6
Continuous
 62
     7
370
    25
100
AcDbLine
 10
159.7433501725
 20
546.8288938271
 30
0.0
 11
151.0846001725
 21
546.8288938271
 31
0.0
  0
SPLINE
  5
89
330
1F
100
AcDbEntity
  8
0
  6
Continuous
 62
     7
370
    25
100
AcDbSpline
210
0.0
220
0.0
230
1.0
 70
    24
 71
     3
 72
    16
 73
    12
 74
     0
 42
0.000000001
 43
0.00000001
 40
0.0
 40
0.0
 40
0.0
 40
0.0
 40
0.1658292928977469
 40
0.2550981074401225
 40
0.3462613343064168
 40
0.4374245611727115
 40
0.5266933757150815
 40
0.6925226686128337
 40
0.8583519615105841
 40
0.9476207760529565
 40
1.0
 40
1.0
 40
1.0
 40
1.0
 10
663.9433501724765
 20
547.5545834517299
 30
0.0
 10
663.9433501724765
 20
546.9456756540548
 30
0.0
 10
663.9433501724765
 20
546.0089821177191
 30
0.0
 10
663.9433501724767
 20
544.5091834264834
 30
0.0
 10
663.9433501724765
 20
543.3172263466681
 30
0.0
 10
663.9433501724765
 20
542.1427980724619
 30
0.0
 10
663.9433501724765
 20
540.7391847791745
 30
0.0
 10
663.9433501724765
 20
539.2718416983923
 30
0.0
 10
663.9433501724765
 20
538.3726543475717
 30
0.0
 10
663.9433501724766
 20
538.0448230204574
 30
0.0
 10
663.9433501724765
 20
538.0552134358977
 30
0.0
 10
663.9433501724765
 20
538.0590556486319
 30
0.0
  0
LINE
  5
8A
330
1F
100
AcDbEntity
  8
0
  6
Continuous
 62
     7
370
    25
100
AcDbLine
 10
659.9433501725
 20
544.6943883977
 30
0.0
 11
659.9433501725
 21
539.9968797637
 31
0.0
  0
SPLINE
  5
8B
330
1F
100
AcDbEntity
  8
0
  6
Continuous
 62
     7
370
    25
100
AcDbSpline
210
0.0
220
0.0
230
1.0
 70
     8
 71
     3
 72
     8
 73
     4
 74
     0
 42
0.000000001
 43
0.00000001
 40
0.0
 40
0.0
 40
0.0
 40
0.0
 40
1.0
 40
1.0
 40
1.0
 40
1.0
 10
659.9433501724837
 20
544.6943883977132
 30
0.0
 10
659.9433501724837
 20
543.723982461823
 30
0.0
 10
660.1176654728631
 20
542.7801361198918
 30
0.0
 10
660.3899321598751
 20
541.8512141652651
 30
0.0
  0
SPLINE
  5
8C
330
1F
100
AcDbEntity
  8
0
  6
Continuous
 62
     7
370
    25
100
AcDbSpline
210
0.0
220
0.0
230
1.0
 70
     8
 71
     3
 72
     8
 73
     4
 74
     0
 42
0.000000001
 43
0.00000001
 40
0.0
 40
0.0
 40
0.0
 40
0.0
 40
1.0
 40
1.0
 40
1.0
 40
1.0
 10
660.3899321598751
 20
541.851214165259
 30
0.0
 10
660.1176654728637
 20
541.2453659843277
 30
0.0
 10
659.9433501724837
 20
540.6297840331288
 30
0.0
 10
659.9433501724837
 20
539.9968797637274
 30
0.0
  0
SPLINE
  5
8D
330
1F
100
AcDbEntity
  8
0
  6
Continuous
 62
     7
370
    25
100
AcDbSpline
210
0.0
220
0.0
230
1.0
 70
     8
 71
     3
 72
     8
 73
     4
 74
     0
 42
0.000000001
 43
0.00000001
 40
0.0
 40
0.0
 40
0.0
 40
0.0
 40
1.0
 40
1.0
 40
1.0
 40
1.0
 10
660.389932159875
 20
547.5375626301612
 30
0.0
 10
660.1176654728636
 20
546.6086406755362
 30
0.0
 10
659.9433501724837
 20
545.6647943336015
 30
0.0
 10
659.9433501724837
 20
544.6943883977132
 30
0.0
  0
LINE
  5
8E
330
1F
100
AcDbEntity
  8
0
  6
Continuous
 62
     7
370
    25
100
AcDbLine
 10
663.9433501725
 20
547.5375626302
 30
0.0
 11
660.3899321599
 21
547.5375626302
 31
0.0
  0
LINE
  5
8F
330
1F
100
AcDbEntity
  8
0
  6
Continuous
 62
     7
370
    25
100
AcDbLine
 10
663.9433501725
 20
541.8512141653
 30
0.0
 11
660.3899321599
 21
541.8512141653
 31
0.0
  0
SPLINE
  5
90
330
1F
100
AcDbEntity
  8
0
  6
Continuous
 62
     7
370
    25
100
AcDbSpline
210
0.0
220
0.0
230
1.0
 70
     8
 71
     3
 72
     8
 73
     4
 74
     0
 42
0.000000001
 43
0.00000001
 40
0.0
 40
0.0
 40
0.0
 40
0.0
 40
1.0
 40
1.0
 40
1.0
 40
1.0
 10
659.9433501724837
 20
539.9968797637274
 30
0.0
 10
659.9433501724837
 20
539.363975494325
 30
0.0
 10
660.1176654728631
 20
538.7483935431283
 30
0.0
 10
660.3899321598751
 20
538.1425453621961
 30
0.0
  0
LINE
  5
91
330
1F
100
AcDbEntity
  8
0
  6
Continuous
 62
     7
370
    25
100
AcDbLine
 10
663.9433501725
 20
538.1425453622
 30
0.0
 11
660.3899321599
 21
538.1425453622
 31
0.0
  0
LINE
  5
92
330
1F
100
AcDbEntity
  8
0
  6
Continuous
 62
     7
370
    25
100
AcDbLine
 10
659.9433501725
 20
548.5264024611
 30
0.0
 11
659.9433501725
 21
544.6943883977
 31
0.0
  0
SPLINE
  5
93
330
1F
100
AcDbEntity
  8
0
  6
Continuous
 62
     7
370
    25
100
AcDbSpline
210
0.0
220
0.0
230
1.0
 70
     8
 71
     3
 72
     8
 73
     4
 74
     0
 42
0.000000001
 43
0.00000001
 40
0.0
 40
0.0
 40
0.0
 40
0.0
 40
1.0
 40
1.0
 40
1.0
 40
1.0
 10
659.9433501724836
 20
548.5264024610826
 30
0.0
 10
659.9433501724836
 20
548.188900794595
 30
0.0
 10
660.117665472863
 20
547.8606364038607
 30
0.0
 10
660.389932159875
 20
547.5375626301661
 30
0.0
  0
SPLINE
  5
94
330
1F
100
AcDbEntity
  8
0
  6
Continuous
 62
     7
370
    25
100
AcDbSpline
210
0.0
220
0.0
230
1.0
 70
     8
 71
     3
 72
     8
 73
     4
 74
     0
 42
0.000000001
 43
0.00000001
 40
0.0
 40
0.0
 40
0.0
 40
0.0
 40
1.0
 40
1.0
 40
1.0
 40
1.0
 10
660.389932159875
 20
549.5152422919991
 30
0.0
 10
660.1176654728635
 20
549.1921685183053
 30
0.0
 10
659.9433501724836
 20
548.8639041275696
 30
0.0
 10
659.9433501724836
 20
548.5264024610826
 30
0.0
  0
LINE
  5
95
330
1F
100
AcDbEntity
  8
0
  6
Continuous
 62
     7
370
    25
100
AcDbLine
 10
663.9433501725
 20
549.515242292
 30
0.0
 11
660.3899321599
 21
549.515242292
 31
0.0
  0
LINE
  5
96
330
1F
100
AcDbEntity
  8
0
  6
Continuous
 62
     7
370
    25
100
AcDbLine
 10
660.3899321599
 20
538.1425453622
 30
0.0
 11
660.2259141247
 21
538.5057207047
 31
0.0
  0
LINE
  5
97
330
1F
100
AcDbEntity
  8
0
  6
Continuous
 62
     7
370
    25
100
AcDbLine
 10
659.9433501725
 20
539.9968797637
 30
0.0
 11
659.9433501725
 21
538.8288938271
 31
0.0
  0
LINE
  5
98
330
1F
100
AcDbEntity
  8
0
  6
Continuous
 62
     7
370
    25
100
AcDbLine
 10
674.4021001725
 20
540.8288938271
 30
0.0
 11
674.4021001725
 21
546.8288938271
 31
0.0
  0
LINE
  5
99
330
1F
100
AcDbEntity
  8
0
  6
Continuous
 62
     7
370
    25
100
AcDbLine
 10
674.9433501725
 20
541.9445009114
 30
0.0
 11
674.9433501725
 21
546.2876438271
 31
0.0
  0
LINE
  5
9A
330
1F
100
AcDbEntity
  8
0
  6
Continuous
 62
     7
370
    25
100
AcDbLine
 10
674.9433501725
 20
541.3701438271
 30
0.0
 11
674.9433501725
 21
541.9445009114
 31
0.0
  0
LINE
  5
9B
330
1F
100
AcDbEntity
  8
0
  6
Continuous
 62
     7
370
    25
100
AcDbLine
 10
659.9433501725
 20
548.8288938271
 30
0.0
 11
659.9433501725
 21
548.5264024611
 31
0.0
  0
CIRCLE
  5
9C
330
1F
100
AcDbEntity
  8
0
  6
Continuous
 62
     7
370
    25
100
AcDbCircle
 10
215.2433501725
 20
490.8288938271
 30
0.0
 40
0.5000000000000284
  0
SPLINE
  5
9D
330
1F
100
AcDbEntity
  8
0
  6
Continuous
 62
     7
370
    25
100
AcDbSpline
210
0.0
220
0.0
230
1.0
 70
     8
 71
     3
 72
    20
 73
    16
 74
     0
 42
0.000000001
 43
0.00000001
 40
0.0
 40
0.0
 40
0.0
 40
0.0
 40
0.1249999999999927
 40
0.1249999999999927
 40
0.2499999999999854
 40
0.2499999999999854
 40
0.3749999999999781
 40
0.3749999999999781
 40
0.4999999999999708
 40
0.4999999999999708
 40
0.7499999999999909
 40
0.7499999999999909
 40
0.8749999999999956
 40
0.8749999999999956
 40
1.0
 40
1.0
 40
1.0
 40
1.0
 10
117.6433501724775
 20
22.22889382709353
 30
0.0
 10
117.4849709848267
 20
22.189853096239
 30
0.0
 10
117.328725260135
 20
22.15133439203926
 30
0.0
 10
117.0207334107184
 20
22.07392764073129
 30
0.0
 10
116.8680893032474
 20
22.0347832227446
 30
0.0
 10
116.5790050140604
 20
21.95763246882937
 30
0.0
 10
116.4412004758764
 20
21.91930488708843
 30
0.0
 10
116.1795818002376
 20
21.84175856661197
 30
0.0
 10
116.0568354935546
 20
21.80278235894317
 30
0.0
 10
115.7255111166069
 20
21.68728750249815
 30
0.0
 10
115.5464999925787
 20
21.60937505882804
 30
0.0
 10
115.3668848931978
 20
21.49389513342709
 30
0.0
 10
115.3206405443302
 20
21.45502933756216
 30
0.0
 10
115.2588872383189
 20
21.3772550038937
 30
0.0
 10
115.2433501724775
 20
21.33864523693896
 30
0.0
 10
115.2433501724775
 20
21.29960450521223
 30
0.0
  0
SPLINE
  5
9E
330
1F
100
AcDbEntity
  8
0
  6
Continuous
 62
     7
370
    25
100
AcDbSpline
210
0.0
220
0.0
230
1.0
 70
     8
 71
     3
 72
    14
 73
    10
 74
     0
 42
0.000000001
 43
0.00000001
 40
0.0
 40
0.0
 40
0.0
 40
0.0
 40
0.25
 40
0.25
 40
0.5
 40
0.5
 40
0.75
 40
0.75
 40
1.0
 40
1.0
 40
1.0
 40
1.0
 10
117.6433501724775
 20
22.22889382709353
 30
0.0
 10
117.5111647566186
 20
22.15069241207196
 30
0.0
 10
117.3831827380851
 20
22.07498246477496
 30
0.0
 10
117.1405587131378
 20
21.91970205312799
 30
0.0
 10
117.0301164487277
 20
21.84269220354496
 30
0.0
 10
116.8441195515344
 20
21.68726871751747
 30
0.0
 10
116.770318572696
 20
21.61031900059912
 30
0.0
 10
116.669499988301
 20
21.45488902134996
 30
0.0
 10
116.6433501724775
 20
21.37780591277727
 30
0.0
 10
116.6433501724775
 20
21.29960450521223
 30
0.0
  0
LINE
  5
9F
330
1F
100
AcDbEntity
  8
0
  6
Continuous
 62
     7
370
    25
100
AcDbLine
 10
115.2433501725
 20
21.2996045052
 30
0.0
 11
116.6433501725
 21
21.2996045052
 31
0.0
  0
SPLINE
  5
A0
330
1F
100
AcDbEntity
  8
0
  6
Continuous
 62
     7
370
    25
100
AcDbSpline
210
0.0
220
0.0
230
1.0
 70
     8
 71
     3
 72
    20
 73
    16
 74
     0
 42
0.000000001
 43
0.00000001
 40
0.0
 40
0.0
 40
0.0
 40
0.0
 40
0.125
 40
0.125
 40
0.25
 40
0.25
 40
0.375
 40
0.375
 40
0.5
 40
0.5
 40
0.75
 40
0.75
 40
0.875
 40
0.875
 40
1.0
 40
1.0
 40
1.0
 40
1.0
 10
710.2433501724774
 20
21.29960450521229
 30
0.0
 10
710.2433501724776
 20
21.33864523606682
 30
0.0
 10
710.2278136120026
 20
21.37716394026656
 30
0.0
 10
710.166495260042
 20
21.45457069157447
 30
0.0
 10
710.1200715144553
 20
21.49371510956122
 30
0.0
 10
710.0001206443011
 20
21.5708658634764
 30
0.0
 10
709.9265160000176
 20
21.60919344521745
 30
0.0
 10
709.7517856339222
 20
21.68673976569396
 30
0.0
 10
709.6509350050204
 20
21.72571597336265
 30
0.0
 10
709.3196497250365
 20
21.84121082980761
 30
0.0
 10
709.0519695636528
 20
21.91912327347773
 30
0.0
 10
708.6192955375974
 20
22.03460319887862
 30
0.0
 10
708.4677774507461
 20
22.07346899474372
 30
0.0
 10
708.1583516933599
 20
22.15124332841217
 30
0.0
 10
708.0017293636662
 20
22.18985309536692
 30
0.0
 10
707.8433501724775
 20
22.22889382709364
 30
0.0
  0
LINE
  5
A1
330
1F
100
AcDbEntity
  8
0
  6
Continuous
 62
     7
370
    25
100
AcDbLine
 10
710.2433501725
 20
21.2996045052
 30
0.0
 11
708.8433501725
 21
21.2996045052
 31
0.0
  0
SPLINE
  5
A2
330
1F
100
AcDbEntity
  8
0
  6
Continuous
 62
     7
370
    25
100
AcDbSpline
210
0.0
220
0.0
230
1.0
 70
     8
 71
     3
 72
    14
 73
    10
 74
     0
 42
0.000000001
 43
0.00000001
 40
0.0
 40
0.0
 40
0.0
 40
0.0
 40
0.25
 40
0.25
 40
0.5
 40
0.5
 40
0.75
 40
0.75
 40
1.0
 40
1.0
 40
1.0
 40
1.0
 10
708.8433501724775
 20
21.29960450521229
 30
0.0
 10
708.8433501724774
 20
21.37780592023392
 30
0.0
 10
708.8177915077973
 20
21.4535158675308
 30
0.0
 10
708.7176634792005
 20
21.60879627917783
 30
0.0
 10
708.6440992998963
 20
21.68580612876081
 30
0.0
 10
708.4585616642044
 20
21.84122961478835
 30
0.0
 10
708.3483967432447
 20
21.91817933170664
 30
0.0
 10
708.1057849865552
 20
22.07360931095587
 30
0.0
 10
707.9755355757324
 20
22.15069241952855
 30
0.0
 10
707.8433501724775
 20
22.22889382709364
 30
0.0
  0
LINE
  5
A3
330
1F
100
AcDbEntity
  8
0
  6
Continuous
 62
     7
370
    25
100
AcDbLine
 10
115.2433501725
 20
514.358183149
 30
0.0
 11
115.2433501725
 21
21.2996045052
 31
0.0
  0
SPLINE
  5
A4
330
1F
100
AcDbEntity
  8
0
  6
Continuous
 62
     7
370
    25
100
AcDbSpline
210
0.0
220
0.0
230
1.0
 70
     8
 71
     3
 72
    20
 73
    16
 74
     0
 42
0.000000001
 43
0.00000001
 40
0.0
 40
0.0
 40
0.0
 40
0.0
 40
0.1249999999999989
 40
0.1249999999999989
 40
0.2499999999999976
 40
0.2499999999999976
 40
0.3749999999999963
 40
0.3749999999999963
 40
0.4999999999999949
 40
0.4999999999999949
 40
0.7499999999999973
 40
0.7499999999999973
 40
0.8749999999999987
 40
0.8749999999999987
 40
1.0
 40
1.0
 40
1.0
 40
1.0
 10
115.2433501724775
 20
514.358183148975
 30
0.0
 10
115.2433501724774
 20
514.3191424181204
 30
0.0
 10
115.2588867329523
 20
514.2806237139206
 30
0.0
 10
115.3202050849129
 20
514.2032169626126
 30
0.0
 10
115.3666288304998
 20
514.1640725446259
 30
0.0
 10
115.486579700654
 20
514.0869217907108
 30
0.0
 10
115.5601843449373
 20
514.0485942089698
 30
0.0
 10
115.7349147110329
 20
513.9710478884933
 30
0.0
 10
115.8357653399346
 20
513.9320716808246
 30
0.0
 10
116.1670506199187
 20
513.8165768243796
 30
0.0
 10
116.4347307813024
 20
513.7386643807093
 30
0.0
 10
116.8674048073578
 20
513.6231844553085
 30
0.0
 10
117.0189228942088
 20
513.5843186594435
 30
0.0
 10
117.3283486515949
 20
513.506544325775
 30
0.0
 10
117.4849709812887
 20
513.4679345588203
 30
0.0
 10
117.6433501724775
 20
513.4288938270936
 30
0.0
  0
SPLINE
  5
A5
330
1F
100
AcDbEntity
  8
0
  6
Continuous
 62
     7
370
    25
100
AcDbSpline
210
0.0
220
0.0
230
1.0
 70
     8
 71
     3
 72
    20
 73
    16
 74
     0
 42
0.000000001
 43
0.00000001
 40
0.0
 40
0.0
 40
0.0
 40
0.0
 40
0.125
 40
0.125
 40
0.2500000000000001
 40
0.2500000000000001
 40
0.3750000000000001
 40
0.3750000000000001
 40
0.5000000000000001
 40
0.5000000000000001
 40
0.7500000000000002
 40
0.7500000000000002
 40
0.8750000000000002
 40
0.8750000000000002
 40
1.0
 40
1.0
 40
1.0
 40
1.0
 10
707.8433501724775
 20
22.22889382709364
 30
0.0
 10
707.8823909033321
 20
22.07051463944298
 30
0.0
 10
707.9209096075318
 20
21.91426891475118
 30
0.0
 10
707.9983163588399
 20
21.60627706533463
 30
0.0
 10
708.0374607768265
 20
21.45363295786346
 30
0.0
 10
708.1146115307419
 20
21.16454866867629
 30
0.0
 10
708.1529391124827
 20
21.02674413049233
 30
0.0
 10
708.2304854329592
 20
20.76512545485343
 30
0.0
 10
708.269461640628
 20
20.64237914817085
 30
0.0
 10
708.384956497073
 20
20.31105477122314
 30
0.0
 10
708.462868940743
 20
20.13204364719495
 30
0.0
 10
708.5783488661438
 20
19.95242854781398
 30
0.0
 10
708.6172146620089
 20
19.90618419894624
 30
0.0
 10
708.6949889956772
 20
19.84443089293514
 30
0.0
 10
708.7335987626321
 20
19.82889382709369
 30
0.0
 10
708.7726394943587
 20
19.82889382709363
 30
0.0
  0
LINE
  5
A6
330
1F
100
AcDbEntity
  8
0
  6
Continuous
 62
     7
370
    25
100
AcDbLine
 10
116.7140608506
 20
19.8288938271
 30
0.0
 11
708.7726394944
 21
19.8288938271
 31
0.0
  0
SPLINE
  5
A7
330
1F
100
AcDbEntity
  8
0
  6
Continuous
 62
     7
370
    25
100
AcDbSpline
210
0.0
220
0.0
230
1.0
 70
     8
 71
     3
 72
    20
 73
    16
 74
     0
 42
0.000000001
 43
0.00000001
 40
0.0
 40
0.0
 40
0.0
 40
0.0
 40
0.1249999999999937
 40
0.1249999999999937
 40
0.2499999999999875
 40
0.2499999999999875
 40
0.3749999999999812
 40
0.3749999999999812
 40
0.4999999999999749
 40
0.4999999999999749
 40
0.7499999999999875
 40
0.7499999999999875
 40
0.8749999999999937
 40
0.8749999999999937
 40
1.0
 40
1.0
 40
1.0
 40
1.0
 10
116.7140608505962
 20
19.82889382709363
 30
0.0
 10
116.7531015814507
 20
19.82889382709357
 30
0.0
 10
116.7916202856505
 20
19.8444303875685
 30
0.0
 10
116.8690270369584
 20
19.90574873952905
 30
0.0
 10
116.9081714549451
 20
19.95217248511588
 30
0.0
 10
116.9853222088603
 20
20.07212335526998
 30
0.0
 10
117.0236497906011
 20
20.14572799955344
 30
0.0
 10
117.1011961110778
 20
20.32045836564905
 30
0.0
 10
117.1401723187466
 20
20.42130899455069
 30
0.0
 10
117.2556671751914
 20
20.75259427453463
 30
0.0
 10
117.3335796188618
 20
21.02027443591847
 30
0.0
 10
117.4490595442624
 20
21.45294846197382
 30
0.0
 10
117.4879253401276
 20
21.60446654882492
 30
0.0
 10
117.565699673796
 20
21.91389230621105
 30
0.0
 10
117.6043094407508
 20
22.07051463590476
 30
0.0
 10
117.6433501724775
 20
22.22889382709353
 30
0.0
  0
LINE
  5
A8
330
1F
100
AcDbEntity
  8
0
  6
Continuous
 62
     7
370
    25
100
AcDbLine
 10
115.2433501725
 20
514.358183149
 30
0.0
 11
116.6433501725
 21
514.358183149
 31
0.0
  0
SPLINE
  5
A9
330
1F
100
AcDbEntity
  8
0
  6
Continuous
 62
     7
370
    25
100
AcDbSpline
210
0.0
220
0.0
230
1.0
 70
     8
 71
     3
 72
    14
 73
    10
 74
     0
 42
0.000000001
 43
0.00000001
 40
0.0
 40
0.0
 40
0.0
 40
0.0
 40
0.25
 40
0.25
 40
0.5
 40
0.5
 40
0.75
 40
0.75
 40
1.0
 40
1.0
 40
1.0
 40
1.0
 10
116.6433501724775
 20
514.358183148975
 30
0.0
 10
116.6433501724775
 20
514.2799817339532
 30
0.0
 10
116.6689088371576
 20
514.2042717866564
 30
0.0
 10
116.7690368657545
 20
514.0489913750093
 30
0.0
 10
116.8426010450589
 20
513.9719815254264
 30
0.0
 10
117.0281386807508
 20
513.8165580393988
 30
0.0
 10
117.1383036017102
 20
513.7396083224805
 30
0.0
 10
117.3809153583995
 20
513.5841783432312
 30
0.0
 10
117.5111647692226
 20
513.5070952346587
 30
0.0
 10
117.6433501724775
 20
513.4288938270936
 30
0.0
  0
SPLINE
  5
AA
330
1F
100
AcDbEntity
  8
0
  6
Continuous
 62
     7
370
    25
100
AcDbSpline
210
0.0
220
0.0
230
1.0
 70
     8
 71
     3
 72
    20
 73
    16
 74
     0
 42
0.000000001
 43
0.00000001
 40
0.0
 40
0.0
 40
0.0
 40
0.0
 40
0.1249999999999952
 40
0.1249999999999952
 40
0.2499999999999904
 40
0.2499999999999904
 40
0.3749999999999856
 40
0.3749999999999856
 40
0.4999999999999808
 40
0.4999999999999808
 40
0.7500000000000009
 40
0.7500000000000009
 40
0.8750000000000004
 40
0.8750000000000004
 40
1.0
 40
1.0
 40
1.0
 40
1.0
 10
707.8433501724775
 20
513.4288938270937
 30
0.0
 10
708.0017293601281
 20
513.4679345579483
 30
0.0
 10
708.1579750848199
 20
513.506453262148
 30
0.0
 10
708.4659669342363
 20
513.5838600134558
 30
0.0
 10
708.6186110417075
 20
513.6230044314426
 30
0.0
 10
708.9076953308946
 20
513.7001551853577
 30
0.0
 10
709.0454998690788
 20
513.7384827670988
 30
0.0
 10
709.3071185447175
 20
513.8160290875753
 30
0.0
 10
709.4298648514001
 20
513.8550052952439
 30
0.0
 10
709.7611892283477
 20
513.9705001516891
 30
0.0
 10
709.9402003523762
 20
514.0484125953593
 30
0.0
 10
710.1198154517572
 20
514.1638925207601
 30
0.0
 10
710.1660598006248
 20
514.2027583166252
 30
0.0
 10
710.2278131066361
 20
514.2805326502936
 30
0.0
 10
710.2433501724777
 20
514.3191424172484
 30
0.0
 10
710.2433501724774
 20
514.358183148975
 30
0.0
  0
SPLINE
  5
AB
330
1F
100
AcDbEntity
  8
0
  6
Continuous
 62
     7
370
    25
100
AcDbSpline
210
0.0
220
0.0
230
1.0
 70
     8
 71
     3
 72
    14
 73
    10
 74
     0
 42
0.000000001
 43
0.00000001
 40
0.0
 40
0.0
 40
0.0
 40
0.0
 40
0.2499999999999999
 40
0.2499999999999999
 40
0.4999999999999999
 40
0.4999999999999999
 40
0.7499999999999998
 40
0.7499999999999998
 40
1.0
 40
1.0
 40
1.0
 40
1.0
 10
707.8433501724775
 20
513.4288938270937
 30
0.0
 10
707.9755355883364
 20
513.5070952421154
 30
0.0
 10
708.1035176068699
 20
513.5828051894123
 30
0.0
 10
708.3461416318173
 20
513.7380856010593
 30
0.0
 10
708.4565838962274
 20
513.8150954506423
 30
0.0
 10
708.6425807934207
 20
513.9705189366697
 30
0.0
 10
708.7163817722591
 20
514.0474686535881
 30
0.0
 10
708.8172003566542
 20
514.2028986328373
 30
0.0
 10
708.8433501724774
 20
514.2799817414099
 30
0.0
 10
708.8433501724775
 20
514.358183148975
 30
0.0
  0
LINE
  5
AC
330
1F
100
AcDbEntity
  8
0
  6
Continuous
 62
     7
370
    25
100
AcDbLine
 10
710.2433501725
 20
514.358183149
 30
0.0
 11
708.8433501725
 21
514.358183149
 31
0.0
  0
SPLINE
  5
AD
330
1F
100
AcDbEntity
  8
0
  6
Continuous
 62
     7
370
    25
100
AcDbSpline
210
0.0
220
0.0
230
1.0
 70
     8
 71
     3
 72
    14
 73
    10
 74
     0
 42
0.000000001
 43
0.00000001
 40
0.0
 40
0.0
 40
0.0
 40
0.0
 40
0.2499999999999999
 40
0.2499999999999999
 40
0.4999999999999999
 40
0.4999999999999999
 40
0.7499999999999998
 40
0.7499999999999998
 40
1.0
 40
1.0
 40
1.0
 40
1.0
 10
707.8433501724775
 20
22.22889382709364
 30
0.0
 10
707.9215515874993
 20
22.09670841123462
 30
0.0
 10
707.997261534796
 20
21.96872639270109
 30
0.0
 10
708.1525419464433
 20
21.7261023677538
 30
0.0
 10
708.229551796026
 20
21.61566010334376
 30
0.0
 10
708.3849752820537
 20
21.42966320615064
 30
0.0
 10
708.4619249989719
 20
21.35586222731217
 30
0.0
 10
708.6173549782211
 20
21.25504364291708
 30
0.0
 10
708.6944380867936
 20
21.22889382709375
 30
0.0
 10
708.7726394943587
 20
21.22889382709364
 30
0.0
  0
LINE
  5
AE
330
1F
100
AcDbEntity
  8
0
  6
Continuous
 62
     7
370
    25
100
AcDbLine
 10
708.7726394944
 20
19.8288938271
 30
0.0
 11
708.7726394944
 21
21.2288938271
 31
0.0
  0
LINE
  5
AF
330
1F
100
AcDbEntity
  8
0
  6
Continuous
 62
     7
370
    25
100
AcDbLine
 10
710.2433501725
 20
21.2996045052
 30
0.0
 11
710.2433501725
 21
514.358183149
 31
0.0
  0
SPLINE
  5
B0
330
1F
100
AcDbEntity
  8
0
  6
Continuous
 62
     7
370
    25
100
AcDbSpline
210
0.0
220
0.0
230
1.0
 70
     8
 71
     3
 72
    20
 73
    16
 74
     0
 42
0.000000001
 43
0.00000001
 40
0.0
 40
0.0
 40
0.0
 40
0.0
 40
0.1250000000000024
 40
0.1250000000000024
 40
0.2500000000000048
 40
0.2500000000000048
 40
0.3750000000000072
 40
0.3750000000000072
 40
0.5000000000000097
 40
0.5000000000000097
 40
0.7499999999999997
 40
0.7499999999999997
 40
0.8749999999999999
 40
0.8749999999999999
 40
1.0
 40
1.0
 40
1.0
 40
1.0
 10
117.6433501724775
 20
513.4288938270936
 30
0.0
 10
117.604309441623
 20
513.5872730147441
 30
0.0
 10
117.5657907374231
 20
513.7435187394359
 30
0.0
 10
117.4883839861152
 20
514.0515105888526
 30
0.0
 10
117.4492395681286
 20
514.2041546963237
 30
0.0
 10
117.3720888142133
 20
514.4932389855109
 30
0.0
 10
117.3337612324724
 20
514.6310435236948
 30
0.0
 10
117.256214911996
 20
514.8926621993336
 30
0.0
 10
117.2172387043271
 20
515.0154085060163
 30
0.0
 10
117.1017438478822
 20
515.346732882964
 30
0.0
 10
117.023831404212
 20
515.5257440069923
 30
0.0
 10
116.9083514788111
 20
515.7053591063733
 30
0.0
 10
116.8694856829461
 20
515.7516034552408
 30
0.0
 10
116.7917113492776
 20
515.8133567612521
 30
0.0
 10
116.7531015823228
 20
515.8288938270936
 30
0.0
 10
116.7140608505962
 20
515.8288938270937
 30
0.0
  0
SPLINE
  5
B1
330
1F
100
AcDbEntity
  8
0
  6
Continuous
 62
     7
370
    25
100
AcDbSpline
210
0.0
220
0.0
230
1.0
 70
     8
 71
     3
 72
    14
 73
    10
 74
     0
 42
0.000000001
 43
0.00000001
 40
0.0
 40
0.0
 40
0.0
 40
0.0
 40
0.2500000000000001
 40
0.2500000000000001
 40
0.5000000000000001
 40
0.5000000000000001
 40
0.7500000000000002
 40
0.7500000000000002
 40
1.0
 40
1.0
 40
1.0
 40
1.0
 10
117.6433501724775
 20
513.4288938270936
 30
0.0
 10
117.5651487574558
 20
513.5610792429526
 30
0.0
 10
117.4894388101588
 20
513.689061261486
 30
0.0
 10
117.3341583985119
 20
513.9316852864335
 30
0.0
 10
117.2571485489289
 20
514.0421275508435
 30
0.0
 10
117.1017250629014
 20
514.2281244480367
 30
0.0
 10
117.0247753459829
 20
514.3019254268752
 30
0.0
 10
116.8693453667339
 20
514.4027440112702
 30
0.0
 10
116.7922622581612
 20
514.4288938270936
 30
0.0
 10
116.7140608505962
 20
514.4288938270936
 30
0.0
  0
LINE
  5
B2
330
1F
100
AcDbEntity
  8
0
  6
Continuous
 62
     7
370
    25
100
AcDbLine
 10
116.7140608506
 20
515.8288938271
 30
0.0
 11
116.7140608506
 21
514.4288938271
 31
0.0
  0
LINE
  5
B3
330
1F
100
AcDbEntity
  8
0
  6
Continuous
 62
     7
370
    25
100
AcDbLine
 10
708.7726394944
 20
515.8288938271
 30
0.0
 11
116.7140608506
 21
515.8288938271
 31
0.0
  0
SPLINE
  5
B4
330
1F
100
AcDbEntity
  8
0
  6
Continuous
 62
     7
370
    25
100
AcDbSpline
210
0.0
220
0.0
230
1.0
 70
     8
 71
     3
 72
    20
 73
    16
 74
     0
 42
0.000000001
 43
0.00000001
 40
0.0
 40
0.0
 40
0.0
 40
0.0
 40
0.1250000000000001
 40
0.1250000000000001
 40
0.2500000000000001
 40
0.2500000000000001
 40
0.3750000000000001
 40
0.3750000000000001
 40
0.5
 40
0.5
 40
0.75
 40
0.75
 40
0.8750000000000001
 40
0.8750000000000001
 40
1.0
 40
1.0
 40
1.0
 40
1.0
 10
708.7726394943587
 20
515.8288938270937
 30
0.0
 10
708.7335987635043
 20
515.8288938270937
 30
0.0
 10
708.6950800593044
 20
515.8133572666187
 30
0.0
 10
708.6176733079965
 20
515.7520389146581
 30
0.0
 10
708.5785288900099
 20
515.7056151690714
 30
0.0
 10
708.5013781360947
 20
515.5856642989173
 30
0.0
 10
708.4630505543536
 20
515.5120596546336
 30
0.0
 10
708.3855042338769
 20
515.3373292885381
 30
0.0
 10
708.3465280262085
 20
515.2364786596366
 30
0.0
 10
708.2310331697637
 20
514.9051933796527
 30
0.0
 10
708.1531207260933
 20
514.6375132182687
 30
0.0
 10
708.0376408006923
 20
514.2048391922134
 30
0.0
 10
707.9987750048273
 20
514.0533211053622
 30
0.0
 10
707.9210006711589
 20
513.7438953479761
 30
0.0
 10
707.8823909042042
 20
513.5872730182823
 30
0.0
 10
707.8433501724775
 20
513.4288938270937
 30
0.0
  0
LINE
  5
B5
330
1F
100
AcDbEntity
  8
0
  6
Continuous
 62
     7
370
    25
100
AcDbLine
 10
708.7726394944
 20
515.8288938271
 30
0.0
 11
708.7726394944
 21
514.4288938271
 31
0.0
  0
SPLINE
  5
B6
330
1F
100
AcDbEntity
  8
0
  6
Continuous
 62
     7
370
    25
100
AcDbSpline
210
0.0
220
0.0
230
1.0
 70
     8
 71
     3
 72
    14
 73
    10
 74
     0
 42
0.000000001
 43
0.00000001
 40
0.0
 40
0.0
 40
0.0
 40
0.0
 40
0.2499999999999998
 40
0.2499999999999998
 40
0.4999999999999999
 40
0.4999999999999999
 40
0.7499999999999999
 40
0.7499999999999999
 40
1.0
 40
1.0
 40
1.0
 40
1.0
 10
708.7726394943587
 20
514.4288938270936
 30
0.0
 10
708.6944380793371
 20
514.4288938270936
 30
0.0
 10
708.6187281320401
 20
514.4033351624132
 30
0.0
 10
708.4634477203931
 20
514.3032071338164
 30
0.0
 10
708.3864378708103
 20
514.2296429545122
 30
0.0
 10
708.2310143847827
 20
514.0441053188205
 30
0.0
 10
708.1540646678643
 20
513.933940397861
 30
0.0
 10
707.9986346886151
 20
513.6913286411715
 30
0.0
 10
707.9215515800425
 20
513.5610792303486
 30
0.0
 10
707.8433501724775
 20
513.4288938270937
 30
0.0
  0
LINE
  5
B7
330
1F
100
AcDbEntity
  8
0
  6
Continuous
 62
     7
370
    25
100
AcDbLine
 10
116.7140608506
 20
19.8288938271
 30
0.0
 11
116.7140608506
 21
21.2288938271
 31
0.0
  0
SPLINE
  5
B8
330
1F
100
AcDbEntity
  8
0
  6
Continuous
 62
     7
370
    25
100
AcDbSpline
210
0.0
220
0.0
230
1.0
 70
     8
 71
     3
 72
    14
 73
    10
 74
     0
 42
0.000000001
 43
0.00000001
 40
0.0
 40
0.0
 40
0.0
 40
0.0
 40
0.25
 40
0.25
 40
0.5
 40
0.5
 40
0.75
 40
0.75
 40
1.0
 40
1.0
 40
1.0
 40
1.0
 10
116.7140608505962
 20
21.22889382709364
 30
0.0
 10
116.7922622656178
 20
21.22889382709364
 30
0.0
 10
116.8679722129147
 20
21.25445249177388
 30
0.0
 10
117.0232526245619
 20
21.3545805203707
 30
0.0
 10
117.1002624741447
 20
21.42814469967486
 30
0.0
 10
117.2556859601722
 20
21.61368233536676
 30
0.0
 10
117.3326356770906
 20
21.72384725632626
 30
0.0
 10
117.4880656563397
 20
21.96645901301564
 30
0.0
 10
117.5651487649125
 20
22.09670842383871
 30
0.0
 10
117.6433501724775
 20
22.22889382709359
 30
0.0
  0
CIRCLE
  5
B9
330
1F
100
AcDbEntity
  8
0
  6
Continuous
 62
     7
370
    25
100
AcDbCircle
 10
171.2433501725
 20
467.8288938271
 30
0.0
 40
5.500000000000087
  0
ARC
  5
BA
330
1F
100
AcDbEntity
  8
0
  6
Continuous
 62
     7
370
    25
100
AcDbCircle
 10
173.4233600741
 20
468.8858299419
 30
0.0
 40
0.5050994627335197
100
AcDbArc
 50
298.8005827702
 51
112.9304972368
  0
ARC
  5
BB
330
1F
100
AcDbEntity
  8
0
  6
Continuous
 62
     7
370
    25
100
AcDbCircle
 10
171.2433501725
 20
467.8288938271
 30
0.0
 40
2.499999999999962
100
AcDbArc
 50
37.506301084
 51
74.2247789229
  0
ARC
  5
BC
330
1F
100
AcDbEntity
  8
0
  6
Continuous
 62
     7
370
    25
100
AcDbCircle
 10
171.4180215977
 20
470.2453058398
 30
0.0
 40
0.5050994627349352
100
AcDbArc
 50
358.800582771
 51
172.930497236
  0
ARC
  5
BD
330
1F
100
AcDbEntity
  8
0
  6
Continuous
 62
     7
370
    25
100
AcDbCircle
 10
171.2433501725
 20
467.8288938271
 30
0.0
 40
2.499999999999959
100
AcDbArc
 50
97.5063010841
 51
134.2247789229
  0
ARC
  5
BE
330
1F
100
AcDbEntity
  8
0
  6
Continuous
 62
     7
370
    25
100
AcDbCircle
 10
169.2380116961
 20
469.188369725
 30
0.0
 40
0.5050994627351901
100
AcDbArc
 50
58.8005827697
 51
232.9304972372
  0
ARC
  5
BF
330
1F
100
AcDbEntity
  8
0
  6
Continuous
 62
     7
370
    25
100
AcDbCircle
 10
171.2433501725
 20
467.8288938271
 30
0.0
 40
2.499999999999954
100
AcDbArc
 50
157.5063010841
 51
194.2247789229
  0
ARC
  5
C0
330
1F
100
AcDbEntity
  8
0
  6
Continuous
 62
     7
370
    25
100
AcDbCircle
 10
169.0633402709
 20
466.7719577123
 30
0.0
 40
0.5050994627332729
100
AcDbArc
 50
118.8005827707
 51
292.9304972361
  0
ARC
  5
C1
330
1F
100
AcDbEntity
  8
0
  6
Continuous
 62
     7
370
    25
100
AcDbCircle
 10
171.2433501725
 20
467.8288938271
 30
0.0
 40
2.499999999999956
100
AcDbArc
 50
217.506301084
 51
254.2247789229
  0
ARC
  5
C2
330
1F
100
AcDbEntity
  8
0
  6
Continuous
 62
     7
370
    25
100
AcDbCircle
 10
171.0686787473
 20
465.4124818144
 30
0.0
 40
0.5050994627366064
100
AcDbArc
 50
178.8005827716
 51
352.9304972354
  0
ARC
  5
C3
330
1F
100
AcDbEntity
  8
0
  6
Continuous
 62
     7
370
    25
100
AcDbCircle
 10
171.2433501725
 20
467.8288938271
 30
0.0
 40
2.499999999999981
100
AcDbArc
 50
277.5063010841
 51
314.2247789229
  0
ARC
  5
C4
330
1F
100
AcDbEntity
  8
0
  6
Continuous
 62
     7
370
    25
100
AcDbCircle
 10
173.2486886489
 20
466.4694179292
 30
0.0
 40
0.5050994627355738
100
AcDbArc
 50
238.8005827701
 51
52.9304972368
  0
ARC
  5
C5
330
1F
100
AcDbEntity
  8
0
  6
Continuous
 62
     7
370
    25
100
AcDbCircle
 10
171.2433501725
 20
467.8288938271
 30
0.0
 40
2.499999999999929
100
AcDbArc
 50
337.5063010841
 51
14.2247789229
  0
CIRCLE
  5
C6
330
1F
100
AcDbEntity
  8
0
  6
Continuous
 62
     7
370
    25
100
AcDbCircle
 10
654.2433501725
 20
467.8288938271
 30
0.0
 40
5.500000000000139
  0
ARC
  5
C7
330
1F
100
AcDbEntity
  8
0
  6
Continuous
 62
     7
370
    25
100
AcDbCircle
 10
654.2433501725
 20
467.8288938271
 30
0.0
 40
2.50000000000002
100
AcDbArc
 50
100.8681863767
 51
137.5866642156
  0
ARC
  5
C8
330
1F
100
AcDbEntity
  8
0
  6
Continuous
 62
     7
370
    25
100
AcDbCircle
 10
652.1617399655
 20
469.0684324784
 30
0.0
 40
0.5050994627349845
100
AcDbArc
 50
62.1624680637
 51
236.2923825287
  0
ARC
  5
C9
330
1F
100
AcDbEntity
  8
0
  6
Continuous
 62
     7
370
    25
100
AcDbCircle
 10
654.2433501725
 20
467.8288938271
 30
0.0
 40
2.499999999999925
100
AcDbArc
 50
160.8681863768
 51
197.5866642156
  0
ARC
  5
CA
330
1F
100
AcDbEntity
  8
0
  6
Continuous
 62
     7
370
    25
100
AcDbCircle
 10
652.129073108
 20
466.6459358327
 30
0.0
 40
0.5050994627351884
100
AcDbArc
 50
122.1624680624
 51
296.2923825299
  0
ARC
  5
CB
330
1F
100
AcDbEntity
  8
0
  6
Continuous
 62
     7
370
    25
100
AcDbCircle
 10
654.2433501725
 20
467.8288938271
 30
0.0
 40
2.499999999999949
100
AcDbArc
 50
220.8681863768
 51
257.5866642156
  0
ARC
  5
CC
330
1F
100
AcDbEntity
  8
0
  6
Continuous
 62
     7
370
    25
100
AcDbCircle
 10
654.210683315
 20
465.4063971814
 30
0.0
 40
0.5050994627333343
100
AcDbArc
 50
182.1624680634
 51
356.2923825288
  0
ARC
  5
CD
330
1F
100
AcDbEntity
  8
0
  6
Continuous
 62
     7
370
    25
100
AcDbCircle
 10
654.2433501725
 20
467.8288938271
 30
0.0
 40
2.499999999999934
100
AcDbArc
 50
280.8681863767
 51
317.5866642156
  0
ARC
  5
CE
330
1F
100
AcDbEntity
  8
0
  6
Continuous
 62
     7
370
    25
100
AcDbCircle
 10
656.3249603795
 20
466.5893551758
 30
0.0
 40
0.5050994627366893
100
AcDbArc
 50
242.1624680643
 51
56.2923825281
  0
ARC
  5
CF
330
1F
100
AcDbEntity
  8
0
  6
Continuous
 62
     7
370
    25
100
AcDbCircle
 10
656.357627237
 20
469.0118518215
 30
0.0
 40
0.5050994627355099
100
AcDbArc
 50
302.1624680628
 51
116.2923825295
  0
ARC
  5
D0
330
1F
100
AcDbEntity
  8
0
  6
Continuous
 62
     7
370
    25
100
AcDbCircle
 10
654.27601703
 20
470.2513904728
 30
0.0
 40
0.5050994627334843
100
AcDbArc
 50
2.1624680629
 51
176.2923825295
  0
ARC
  5
D1
330
1F
100
AcDbEntity
  8
0
  6
Continuous
 62
     7
370
    25
100
AcDbCircle
 10
654.2433501725
 20
467.8288938271
 30
0.0
 40
2.499999999999985
100
AcDbArc
 50
40.8681863768
 51
77.5866642156
  0
ARC
  5
D2
330
1F
100
AcDbEntity
  8
0
  6
Continuous
 62
     7
370
    25
100
AcDbCircle
 10
654.2433501725
 20
467.8288938271
 30
0.0
 40
2.499999999999999
100
AcDbArc
 50
340.8681863768
 51
17.5866642156
  0
CIRCLE
  5
D3
330
1F
100
AcDbEntity
  8
0
  6
Continuous
 62
     7
370
    25
100
AcDbCircle
 10
654.2433501725
 20
67.8288938271
 30
0.0
 40
5.500000000000113
  0
ARC
  5
D4
330
1F
100
AcDbEntity
  8
0
  6
Continuous
 62
     7
370
    25
100
AcDbCircle
 10
656.184580767
 20
66.3793487603
 30
0.0
 40
0.5050994627351528
100
AcDbArc
 50
236.1858115763
 51
50.3157260438
  0
ARC
  5
D5
330
1F
100
AcDbEntity
  8
0
  6
Continuous
 62
     7
370
    25
100
AcDbCircle
 10
654.2433501725
 20
67.8288938271
 30
0.0
 40
2.499999999999939
100
AcDbArc
 50
334.8915298906
 51
11.6100077295
  0
ARC
  5
D6
330
1F
100
AcDbEntity
  8
0
  6
Continuous
 62
     7
370
    25
100
AcDbCircle
 10
656.4693083215
 20
68.7852763032
 30
0.0
 40
0.5050994627333092
100
AcDbArc
 50
296.1858115773
 51
110.3157260427
  0
ARC
  5
D7
330
1F
100
AcDbEntity
  8
0
  6
Continuous
 62
     7
370
    25
100
AcDbCircle
 10
652.3021195779
 20
69.2784388939
 30
0.0
 40
0.5050994627355123
100
AcDbArc
 50
56.1858115767
 51
230.3157260434
  0
ARC
  5
D8
330
1F
100
AcDbEntity
  8
0
  6
Continuous
 62
     7
370
    25
100
AcDbCircle
 10
654.2433501725
 20
67.8288938271
 30
0.0
 40
2.499999999999944
100
AcDbArc
 50
154.8915298906
 51
191.6100077295
  0
ARC
  5
D9
330
1F
100
AcDbEntity
  8
0
  6
Continuous
 62
     7
370
    25
100
AcDbCircle
 10
654.528077727
 20
70.23482137
 30
0.0
 40
0.5050994627365983
100
AcDbArc
 50
356.1858115782
 51
170.315726042
  0
ARC
  5
DA
330
1F
100
AcDbEntity
  8
0
  6
Continuous
 62
     7
370
    25
100
AcDbCircle
 10
654.2433501725
 20
67.8288938271
 30
0.0
 40
2.499999999999951
100
AcDbArc
 50
94.8915298907
 51
131.6100077294
  0
ARC
  5
DB
330
1F
100
AcDbEntity
  8
0
  6
Continuous
 62
     7
370
    25
100
AcDbCircle
 10
653.958622618
 20
65.4229662842
 30
0.0
 40
0.5050994627349347
100
AcDbArc
 50
176.1858115776
 51
350.3157260426
  0
ARC
  5
DC
330
1F
100
AcDbEntity
  8
0
  6
Continuous
 62
     7
370
    25
100
AcDbCircle
 10
654.2433501725
 20
67.8288938271
 30
0.0
 40
2.499999999999941
100
AcDbArc
 50
274.8915298907
 51
311.6100077294
  0
ARC
  5
DD
330
1F
100
AcDbEntity
  8
0
  6
Continuous
 62
     7
370
    25
100
AcDbCircle
 10
654.2433501725
 20
67.8288938271
 30
0.0
 40
2.499999999999954
100
AcDbArc
 50
34.8915298906
 51
71.6100077295
  0
ARC
  5
DE
330
1F
100
AcDbEntity
  8
0
  6
Continuous
 62
     7
370
    25
100
AcDbCircle
 10
654.2433501725
 20
67.8288938271
 30
0.0
 40
2.500000000000021
100
AcDbArc
 50
214.8915298906
 51
251.6100077295
  0
ARC
  5
DF
330
1F
100
AcDbEntity
  8
0
  6
Continuous
 62
     7
370
    25
100
AcDbCircle
 10
652.0173920234
 20
66.872511351
 30
0.0
 40
0.5050994627334959
100
AcDbArc
 50
116.1858115767
 51
290.3157260433
  0
CIRCLE
  5
E0
330
1F
100
AcDbEntity
  8
0
  6
Continuous
 62
     7
370
    25
100
AcDbCircle
 10
171.2433501725
 20
67.8288938271
 30
0.0
 40
5.500000000000129
  0
ARC
  5
E1
330
1F
100
AcDbEntity
  8
0
  6
Continuous
 62
     7
370
    25
100
AcDbCircle
 10
173.4233600741
 20
68.8858299419
 30
0.0
 40
0.5050994627334912
100
AcDbArc
 50
298.8005827702
 51
112.9304972368
  0
ARC
  5
E2
330
1F
100
AcDbEntity
  8
0
  6
Continuous
 62
     7
370
    25
100
AcDbCircle
 10
171.2433501725
 20
67.8288938271
 30
0.0
 40
2.499999999999945
100
AcDbArc
 50
37.506301084
 51
74.2247789229
  0
ARC
  5
E3
330
1F
100
AcDbEntity
  8
0
  6
Continuous
 62
     7
370
    25
100
AcDbCircle
 10
171.4180215977
 20
70.2453058398
 30
0.0
 40
0.5050994627349352
100
AcDbArc
 50
358.800582771
 51
172.930497236
  0
ARC
  5
E4
330
1F
100
AcDbEntity
  8
0
  6
Continuous
 62
     7
370
    25
100
AcDbCircle
 10
171.2433501725
 20
67.8288938271
 30
0.0
 40
2.499999999999956
100
AcDbArc
 50
97.5063010841
 51
134.2247789229
  0
ARC
  5
E5
330
1F
100
AcDbEntity
  8
0
  6
Continuous
 62
     7
370
    25
100
AcDbCircle
 10
169.2380116961
 20
69.188369725
 30
0.0
 40
0.505099462735178
100
AcDbArc
 50
58.8005827697
 51
232.9304972372
  0
ARC
  5
E6
330
1F
100
AcDbEntity
  8
0
  6
Continuous
 62
     7
370
    25
100
AcDbCircle
 10
171.2433501725
 20
67.8288938271
 30
0.0
 40
2.499999999999938
100
AcDbArc
 50
157.5063010841
 51
194.2247789229
  0
ARC
  5
E7
330
1F
100
AcDbEntity
  8
0
  6
Continuous
 62
     7
370
    25
100
AcDbCircle
 10
169.0633402709
 20
66.7719577123
 30
0.0
 40
0.5050994627332748
100
AcDbArc
 50
118.8005827707
 51
292.9304972361
  0
ARC
  5
E8
330
1F
100
AcDbEntity
  8
0
  6
Continuous
 62
     7
370
    25
100
AcDbCircle
 10
171.2433501725
 20
67.8288938271
 30
0.0
 40
2.499999999999973
100
AcDbArc
 50
217.506301084
 51
254.2247789229
  0
ARC
  5
E9
330
1F
100
AcDbEntity
  8
0
  6
Continuous
 62
     7
370
    25
100
AcDbCircle
 10
171.0686787473
 20
65.4124818144
 30
0.0
 40
0.5050994627366082
100
AcDbArc
 50
178.8005827716
 51
352.9304972354
  0
ARC
  5
EA
330
1F
100
AcDbEntity
  8
0
  6
Continuous
 62
     7
370
    25
100
AcDbCircle
 10
171.2433501725
 20
67.8288938271
 30
0.0
 40
2.499999999999961
100
AcDbArc
 50
277.5063010841
 51
314.2247789229
  0
ARC
  5
EB
330
1F
100
AcDbEntity
  8
0
  6
Continuous
 62
     7
370
    25
100
AcDbCircle
 10
173.2486886489
 20
66.4694179292
 30
0.0
 40
0.5050994627355058
100
AcDbArc
 50
238.8005827701
 51
52.9304972368
  0
ARC
  5
EC
330
1F
100
AcDbEntity
  8
0
  6
Continuous
 62
     7
370
    25
100
AcDbCircle
 10
171.2433501725
 20
67.8288938271
 30
0.0
 40
2.499999999999952
100
AcDbArc
 50
337.5063010841
 51
14.2247789229
  0
LINE
  5
ED
330
1F
100
AcDbEntity
  8
0
  6
Continuous
 62
     7
370
    25
100
AcDbLine
 10
159.7433501725
 20
530.3288938271
 30
0.0
 11
160.5433501725
 21
530.3288938271
 31
0.0
  0
LINE
  5
EE
330
1F
100
AcDbEntity
  8
0
  6
Continuous
 62
     7
370
    25
100
AcDbLine
 10
159.7433501725
 20
530.3288938271
 30
0.0
 11
159.7433501725
 21
547.3288938271
 31
0.0
  0
LINE
  5
EF
330
1F
100
AcDbEntity
  8
0
  6
Continuous
 62
     7
370
    25
100
AcDbLine
 10
160.5433501725
 20
530.3288938271
 30
0.0
 11
160.5433501725
 21
547.3288938271
 31
0.0
  0
LINE
  5
F0
330
1F
100
AcDbEntity
  8
0
  6
Continuous
 62
     7
370
    25
100
AcDbLine
 10
159.7433501725
 20
550.3288938271
 30
0.0
 11
160.5433501725
 21
550.3288938271
 31
0.0
  0
LINE
  5
F1
330
1F
100
AcDbEntity
  8
0
  6
Continuous
 62
     7
370
    25
100
AcDbLine
 10
160.5433501725
 20
550.3288938271
 30
0.0
 11
160.5433501725
 21
547.3288938271
 31
0.0
  0
LINE
  5
F2
330
1F
100
AcDbEntity
  8
0
  6
Continuous
 62
     7
370
    25
100
AcDbLine
 10
159.7433501725
 20
547.3288938271
 30
0.0
 11
159.7433501725
 21
550.3288938271
 31
0.0
  0
LINE
  5
F3
330
1F
100
AcDbEntity
  8
0
  6
Continuous
 62
     7
370
    25
100
AcDbLine
 10
665.7433501725
 20
530.3288938271
 30
0.0
 11
664.9433501725
 21
530.3288938271
 31
0.0
  0
LINE
  5
F4
330
1F
100
AcDbEntity
  8
0
  6
Continuous
 62
     7
370
    25
100
AcDbLine
 10
664.9433501725
 20
547.3288938271
 30
0.0
 11
664.9433501725
 21
530.3288938271
 31
0.0
  0
LINE
  5
F5
330
1F
100
AcDbEntity
  8
0
  6
Continuous
 62
     7
370
    25
100
AcDbLine
 10
665.7433501725
 20
547.3288938271
 30
0.0
 11
665.7433501725
 21
530.3288938271
 31
0.0
  0
LINE
  5
F6
330
1F
100
AcDbEntity
  8
0
  6
Continuous
 62
     7
370
    25
100
AcDbLine
 10
664.9433501725
 20
550.3288938271
 30
0.0
 11
665.7433501725
 21
550.3288938271
 31
0.0
  0
LINE
  5
F7
330
1F
100
AcDbEntity
  8
0
  6
Continuous
 62
     7
370
    25
100
AcDbLine
 10
664.9433501725
 20
547.3288938271
 30
0.0
 11
664.9433501725
 21
550.3288938271
 31
0.0
  0
LINE
  5
F8
330
1F
100
AcDbEntity
  8
0
  6
Continuous
 62
     7
370
    25
100
AcDbLine
 10
665.7433501725
 20
550.3288938271
 30
0.0
 11
665.7433501725
 21
547.3288938271
 31
0.0
  0
LINE
  5
F9
330
1F
100
AcDbEntity
  8
0
  6
Continuous
 62
     7
370
    25
100
AcDbLine
 10
160.5433501725
 20
515.8288938271
 30
0.0
 11
160.5433501725
 21
527.1288938271
 31
0.0
  0
LINE
  5
FA
330
1F
100
AcDbEntity
  8
0
  6
Continuous
 62
     7
370
    25
100
AcDbLine
 10
160.5433501725
 20
528.8288938271
 30
0.0
 11
160.5433501725
 21
530.3288938271
 31
0.0
  0
LINE
  5
FB
330
1F
100
AcDbEntity
  8
0
  6
Continuous
 62
     7
370
    25
100
AcDbLine
 10
159.7433501725
 20
515.8288938271
 30
0.0
 11
159.7433501725
 21
530.3288938271
 31
0.0
  0
LINE
  5
FC
330
1F
100
AcDbEntity
  8
0
  6
Continuous
 62
     7
370
    25
100
AcDbLine
 10
664.9433501725
 20
530.3288938271
 30
0.0
 11
664.9433501725
 21
528.8288938271
 31
0.0
  0
LINE
  5
FD
330
1F
100
AcDbEntity
  8
0
  6
Continuous
 62
     7
370
    25
100
AcDbLine
 10
664.9433501725
 20
527.1288938271
 30
0.0
 11
664.9433501725
 21
515.8288938271
 31
0.0
  0
LINE
  5
FE
330
1F
100
AcDbEntity
  8
0
  6
Continuous
 62
     7
370
    25
100
AcDbLine
 10
665.7433501725
 20
530.3288938271
 30
0.0
 11
665.7433501725
 21
515.8288938271
 31
0.0
  0
LINE
  5
FF
330
1F
100
AcDbEntity
  8
0
  6
Continuous
 62
     7
370
    25
100
AcDbLine
 10
674.4021001725
 20
515.8288938271
 30
0.0
 11
674.4021001725
 21
521.8288938271
 31
0.0
  0
LINE
  5
100
330
1F
100
AcDbEntity
  8
0
  6
Continuous
 62
     7
370
    25
100
AcDbLine
 10
674.9433501725
 20
516.9445009114
 30
0.0
 11
674.9433501725
 21
521.2876438271
 31
0.0
  0
LINE
  5
101
330
1F
100
AcDbEntity
  8
0
  6
Continuous
 62
     7
370
    25
100
AcDbLine
 10
674.9433501725
 20
516.3701438271
 30
0.0
 11
674.9433501725
 21
516.9445009114
 31
0.0
  0
LINE
  5
102
330
1F
100
AcDbEntity
  8
0
  6
Continuous
 62
     7
370
    25
100
AcDbLine
 10
160.3224199399
 20
528.8288938271
 30
0.0
 11
665.164280405
 21
528.8288938271
 31
0.0
  0
LINE
  5
103
330
1F
100
AcDbEntity
  8
0
  6
Continuous
 62
     7
370
    25
100
AcDbLine
 10
160.3224199399
 20
527.1288938271
 30
0.0
 11
665.164280405
 21
527.1288938271
 31
0.0
  0
ELLIPSE
  5
104
330
1F
100
AcDbEntity
  8
0
  6
Continuous
 62
     7
370
    25
100
AcDbEllipse
 10
160.3224199399
 20
527.9788938271
 30
0.0
 11
0.0
 21
0.8500000000000227
 31
0.0
210
0.0
220
0.0
230
1.0
 40
0.0930232558
 41
0.0
 42
3.141592653589076
  0
ELLIPSE
  5
105
330
1F
100
AcDbEntity
  8
0
  6
Continuous
 62
     7
370
    25
100
AcDbEllipse
 10
665.164280405
 20
527.9788938271
 30
0.0
 11
0.0
 21
0.8499999999999091
 31
0.0
210
0.0
220
0.0
230
1.0
 40
0.0930232558
 41
3.141592653589792
 42
6.283185307179586
  0
LINE
  5
106
330
1F
100
AcDbEntity
  8
0
  6
Continuous
 62
     7
370
    25
100
AcDbLine
 10
664.2433501725
 20
527.0288938271
 30
0.0
 11
664.2433501725
 21
527.1288938271
 31
0.0
  0
LINE
  5
107
330
1F
100
AcDbEntity
  8
0
  6
Continuous
 62
     7
370
    25
100
AcDbLine
 10
161.2433501725
 20
527.1288938271
 30
0.0
 11
161.2433501725
 21
527.0288938271
 31
0.0
  0
LINE
  5
108
330
1F
100
AcDbEntity
  8
0
  6
Continuous
 62
     7
370
    25
100
AcDbLine
 10
664.2433501725
 20
515.8288938271
 30
0.0
 11
664.2433501725
 21
527.0288938271
 31
0.0
  0
LINE
  5
109
330
1F
100
AcDbEntity
  8
0
  6
Continuous
 62
     7
370
    25
100
AcDbLine
 10
161.2433501725
 20
527.0288938271
 30
0.0
 11
161.2433501725
 21
515.8288938271
 31
0.0
  0
LINE
  5
10A
330
1F
100
AcDbEntity
  8
0
  6
Continuous
 62
     7
370
    25
100
AcDbLine
 10
150.5433501725
 20
521.2876438271
 30
0.0
 11
150.5433501725
 21
516.3701438271
 31
0.0
  0
LINE
  5
10B
330
1F
100
AcDbEntity
  8
0
  6
Continuous
 62
     7
370
    25
100
AcDbLine
 10
151.0846001725
 20
520.1252596734
 30
0.0
 11
151.0846001725
 21
515.8288938271
 31
0.0
  0
LINE
  5
10C
330
1F
100
AcDbEntity
  8
0
  6
Continuous
 62
     7
370
    25
100
AcDbLine
 10
151.0846001725
 20
521.8288938271
 30
0.0
 11
151.0846001725
 21
520.1252596734
 31
0.0
  0
ARC
  5
10D
330
1F
100
AcDbEntity
  8
0
  6
Continuous
 62
     7
370
    25
100
AcDbCircle
 10
654.0688164876
 20
520.4051078377
 30
0.0
 40
12.03669752938908
100
AcDbArc
 50
186.2565722694
 51
191.9710500657
  0
ARC
  5
10E
330
1F
100
AcDbEntity
  8
0
  6
Continuous
 62
     7
370
    25
100
AcDbCircle
 10
642.6671361618
 20
528.6543601421
 30
0.0
 40
12.03669752933031
100
AcDbArc
 50
276.2565722693
 51
281.9710500657
  0
ARC
  5
10F
330
1F
100
AcDbEntity
  8
0
  6
Continuous
 62
     7
370
    25
100
AcDbCircle
 10
634.4178838575
 20
517.2526798165
 30
0.0
 40
12.03669752929936
100
AcDbArc
 50
6.2565722693
 51
11.9710500657
  0
LINE
  5
110
330
1F
100
AcDbEntity
  8
0
  6
Continuous
 62
     7
370
    25
100
AcDbLine
 10
644.5077940522
 20
520.9684325909
 30
0.0
 11
644.7407379174
 21
519.516356867
 31
0.0
  0
ARC
  5
111
330
1F
100
AcDbEntity
  8
0
  6
Continuous
 62
     7
370
    25
100
AcDbCircle
 10
645.8195641831
 20
509.0034275121
 30
0.0
 40
12.03669752931649
100
AcDbArc
 50
96.2565722693
 51
101.9710500657
  0
ARC
  5
112
330
1F
100
AcDbEntity
  8
0
  6
Continuous
 62
     7
370
    25
100
AcDbCircle
 10
644.2433501725
 20
518.8288938271
 30
0.0
 40
4.000000000000017
100
AcDbArc
 50
311.4096221093
 51
99.1138111675
  0
ARC
  5
113
330
1F
100
AcDbEntity
  8
0
  6
Continuous
 62
     7
370
    25
100
AcDbCircle
 10
644.2433501725
 20
518.8288938271
 30
0.0
 40
3.999999999999941
100
AcDbArc
 50
99.1138111675
 51
228.5903778907
  0
LINE
  5
114
330
1F
100
AcDbEntity
  8
0
  6
Continuous
 62
     7
370
    25
100
AcDbLine
 10
644.7407379174
 20
519.516356867
 30
0.0
 11
646.1928136414
 21
519.7493007321
 31
0.0
  0
LINE
  5
115
330
1F
100
AcDbEntity
  8
0
  6
Continuous
 62
     7
370
    25
100
AcDbLine
 10
642.1038114087
 20
519.0933377069
 30
0.0
 11
643.5558871326
 21
519.326281572
 31
0.0
  0
LINE
  5
116
330
1F
100
AcDbEntity
  8
0
  6
Continuous
 62
     7
370
    25
100
AcDbLine
 10
643.3229432674
 20
520.778357296
 30
0.0
 11
643.5558871326
 21
519.326281572
 31
0.0
  0
LINE
  5
117
330
1F
100
AcDbEntity
  8
0
  6
Continuous
 62
     7
370
    25
100
AcDbLine
 10
643.7459624275
 20
518.1414307872
 30
0.0
 11
643.9789062927
 21
516.6893550633
 31
0.0
  0
LINE
  5
118
330
1F
100
AcDbEntity
  8
0
  6
Continuous
 62
     7
370
    25
100
AcDbLine
 10
644.9308132123
 20
518.3315060821
 30
0.0
 11
646.3828889363
 21
518.5644499473
 31
0.0
  0
LINE
  5
119
330
1F
100
AcDbEntity
  8
0
  6
Continuous
 62
     7
370
    25
100
AcDbLine
 10
642.2938867036
 20
517.9084869221
 30
0.0
 11
643.7459624275
 21
518.1414307872
 31
0.0
  0
LINE
  5
11A
330
1F
100
AcDbEntity
  8
0
  6
Continuous
 62
     7
370
    25
100
AcDbLine
 10
644.9308132123
 20
518.3315060821
 30
0.0
 11
645.1637570775
 21
516.8794303582
 31
0.0
  0
LINE
  5
11B
330
1F
100
AcDbEntity
  8
0
  6
Continuous
 62
     7
370
    25
100
AcDbLine
 10
644.8888442655
 20
519.5401162788
 30
0.0
 11
645.0789195604
 21
518.355265494
 31
0.0
  0
LINE
  5
11C
330
1F
100
AcDbEntity
  8
0
  6
Continuous
 62
     7
370
    25
100
AcDbLine
 10
644.9545726242
 20
518.183399734
 30
0.0
 11
643.7697218394
 21
517.9933244391
 31
0.0
  0
LINE
  5
11D
330
1F
100
AcDbEntity
  8
0
  6
Continuous
 62
     7
370
    25
100
AcDbLine
 10
644.7169785056
 20
519.6644632151
 30
0.0
 11
643.5321277208
 21
519.4743879201
 31
0.0
  0
LINE
  5
11E
330
1F
100
AcDbEntity
  8
0
  6
Continuous
 62
     7
370
    25
100
AcDbLine
 10
643.4077807845
 20
519.3025221602
 30
0.0
 11
643.5978560794
 21
518.1176713754
 31
0.0
  0
LINE
  5
11F
330
1F
100
AcDbEntity
  8
0
  6
Continuous
 62
     7
370
    25
100
AcDbLine
 10
330.3229432674
 20
520.778357296
 30
0.0
 11
330.5558871326
 21
519.326281572
 31
0.0
  0
ARC
  5
120
330
1F
100
AcDbEntity
  8
0
  6
Continuous
 62
     7
370
    25
100
AcDbCircle
 10
341.0688164875
 20
520.4051078377
 30
0.0
 40
12.03669752928835
100
AcDbArc
 50
186.2565722693
 51
191.9710500657
  0
LINE
  5
121
330
1F
100
AcDbEntity
  8
0
  6
Continuous
 62
     7
370
    25
100
AcDbLine
 10
330.7459624275
 20
518.1414307872
 30
0.0
 11
330.9789062927
 21
516.6893550633
 31
0.0
  0
ARC
  5
122
330
1F
100
AcDbEntity
  8
0
  6
Continuous
 62
     7
370
    25
100
AcDbCircle
 10
329.6671361618
 20
528.6543601421
 30
0.0
 40
12.03669752932351
100
AcDbArc
 50
276.2565722693
 51
281.9710500657
  0
LINE
  5
123
330
1F
100
AcDbEntity
  8
0
  6
Continuous
 62
     7
370
    25
100
AcDbLine
 10
331.9308132123
 20
518.3315060821
 30
0.0
 11
332.1637570775
 21
516.8794303582
 31
0.0
  0
LINE
  5
124
330
1F
100
AcDbEntity
  8
0
  6
Continuous
 62
     7
370
    25
100
AcDbLine
 10
331.9308132123
 20
518.3315060821
 30
0.0
 11
333.3828889363
 21
518.5644499473
 31
0.0
  0
ARC
  5
125
330
1F
100
AcDbEntity
  8
0
  6
Continuous
 62
     7
370
    25
100
AcDbCircle
 10
321.4178838574
 20
517.2526798165
 30
0.0
 40
12.03669752932935
100
AcDbArc
 50
6.2565722693
 51
11.9710500657
  0
ARC
  5
126
330
1F
100
AcDbEntity
  8
0
  6
Continuous
 62
     7
370
    25
100
AcDbCircle
 10
332.8195641831
 20
509.0034275121
 30
0.0
 40
12.03669752932094
100
AcDbArc
 50
96.2565722693
 51
101.9710500657
  0
ARC
  5
127
330
1F
100
AcDbEntity
  8
0
  6
Continuous
 62
     7
370
    25
100
AcDbCircle
 10
331.2433501725
 20
518.8288938271
 30
0.0
 40
3.999999999999969
100
AcDbArc
 50
311.4096221093
 51
99.1138111675
  0
ARC
  5
128
330
1F
100
AcDbEntity
  8
0
  6
Continuous
 62
     7
370
    25
100
AcDbCircle
 10
331.2433501725
 20
518.8288938271
 30
0.0
 40
3.999999999999969
100
AcDbArc
 50
99.1138111675
 51
228.5903778907
  0
LINE
  5
129
330
1F
100
AcDbEntity
  8
0
  6
Continuous
 62
     7
370
    25
100
AcDbLine
 10
331.7407379174
 20
519.516356867
 30
0.0
 11
333.1928136414
 21
519.7493007321
 31
0.0
  0
LINE
  5
12A
330
1F
100
AcDbEntity
  8
0
  6
Continuous
 62
     7
370
    25
100
AcDbLine
 10
329.2938867036
 20
517.9084869221
 30
0.0
 11
330.7459624275
 21
518.1414307872
 31
0.0
  0
LINE
  5
12B
330
1F
100
AcDbEntity
  8
0
  6
Continuous
 62
     7
370
    25
100
AcDbLine
 10
331.5077940522
 20
520.9684325909
 30
0.0
 11
331.7407379174
 21
519.516356867
 31
0.0
  0
LINE
  5
12C
330
1F
100
AcDbEntity
  8
0
  6
Continuous
 62
     7
370
    25
100
AcDbLine
 10
329.1038114087
 20
519.0933377069
 30
0.0
 11
330.5558871326
 21
519.326281572
 31
0.0
  0
LINE
  5
12D
330
1F
100
AcDbEntity
  8
0
  6
Continuous
 62
     7
370
    25
100
AcDbLine
 10
331.8888442655
 20
519.5401162788
 30
0.0
 11
332.0789195604
 21
518.355265494
 31
0.0
  0
LINE
  5
12E
330
1F
100
AcDbEntity
  8
0
  6
Continuous
 62
     7
370
    25
100
AcDbLine
 10
331.9545726242
 20
518.183399734
 30
0.0
 11
330.7697218394
 21
517.9933244391
 31
0.0
  0
LINE
  5
12F
330
1F
100
AcDbEntity
  8
0
  6
Continuous
 62
     7
370
    25
100
AcDbLine
 10
331.7169785056
 20
519.6644632151
 30
0.0
 11
330.5321277208
 21
519.4743879201
 31
0.0
  0
LINE
  5
130
330
1F
100
AcDbEntity
  8
0
  6
Continuous
 62
     7
370
    25
100
AcDbLine
 10
330.4077807845
 20
519.3025221602
 30
0.0
 11
330.5978560794
 21
518.1176713754
 31
0.0
  0
LINE
  5
131
330
1F
100
AcDbEntity
  8
0
  6
Continuous
 62
     7
370
    25
100
AcDbLine
 10
492.1038114087
 20
519.0933377069
 30
0.0
 11
493.5558871326
 21
519.326281572
 31
0.0
  0
ARC
  5
132
330
1F
100
AcDbEntity
  8
0
  6
Continuous
 62
     7
370
    25
100
AcDbCircle
 10
504.0688164875
 20
520.4051078377
 30
0.0
 40
12.03669752931575
100
AcDbArc
 50
186.2565722693
 51
191.9710500657
  0
LINE
  5
133
330
1F
100
AcDbEntity
  8
0
  6
Continuous
 62
     7
370
    25
100
AcDbLine
 10
492.2938867036
 20
517.9084869221
 30
0.0
 11
493.7459624275
 21
518.1414307872
 31
0.0
  0
LINE
  5
134
330
1F
100
AcDbEntity
  8
0
  6
Continuous
 62
     7
370
    25
100
AcDbLine
 10
493.7459624275
 20
518.1414307872
 30
0.0
 11
493.9789062927
 21
516.6893550633
 31
0.0
  0
ARC
  5
135
330
1F
100
AcDbEntity
  8
0
  6
Continuous
 62
     7
370
    25
100
AcDbCircle
 10
492.6671361618
 20
528.6543601421
 30
0.0
 40
12.03669752932111
100
AcDbArc
 50
276.2565722693
 51
281.9710500657
  0
LINE
  5
136
330
1F
100
AcDbEntity
  8
0
  6
Continuous
 62
     7
370
    25
100
AcDbLine
 10
494.9308132123
 20
518.3315060821
 30
0.0
 11
495.1637570775
 21
516.8794303582
 31
0.0
  0
LINE
  5
137
330
1F
100
AcDbEntity
  8
0
  6
Continuous
 62
     7
370
    25
100
AcDbLine
 10
494.9308132123
 20
518.3315060821
 30
0.0
 11
496.3828889363
 21
518.5644499473
 31
0.0
  0
ARC
  5
138
330
1F
100
AcDbEntity
  8
0
  6
Continuous
 62
     7
370
    25
100
AcDbCircle
 10
484.4178838575
 20
517.2526798165
 30
0.0
 40
12.0366975293018
100
AcDbArc
 50
6.2565722693
 51
11.9710500657
  0
ARC
  5
139
330
1F
100
AcDbEntity
  8
0
  6
Continuous
 62
     7
370
    25
100
AcDbCircle
 10
495.8195641831
 20
509.0034275121
 30
0.0
 40
12.03669752932695
100
AcDbArc
 50
96.2565722693
 51
101.9710500657
  0
ARC
  5
13A
330
1F
100
AcDbEntity
  8
0
  6
Continuous
 62
     7
370
    25
100
AcDbCircle
 10
494.2433501725
 20
518.8288938271
 30
0.0
 40
4.000000000000006
100
AcDbArc
 50
311.4096221093
 51
99.1138111675
  0
ARC
  5
13B
330
1F
100
AcDbEntity
  8
0
  6
Continuous
 62
     7
370
    25
100
AcDbCircle
 10
494.2433501725
 20
518.8288938271
 30
0.0
 40
4.000000000000006
100
AcDbArc
 50
99.1138111675
 51
228.5903778907
  0
LINE
  5
13C
330
1F
100
AcDbEntity
  8
0
  6
Continuous
 62
     7
370
    25
100
AcDbLine
 10
493.3229432674
 20
520.778357296
 30
0.0
 11
493.5558871326
 21
519.326281572
 31
0.0
  0
LINE
  5
13D
330
1F
100
AcDbEntity
  8
0
  6
Continuous
 62
     7
370
    25
100
AcDbLine
 10
494.5077940522
 20
520.9684325909
 30
0.0
 11
494.7407379174
 21
519.516356867
 31
0.0
  0
LINE
  5
13E
330
1F
100
AcDbEntity
  8
0
  6
Continuous
 62
     7
370
    25
100
AcDbLine
 10
494.7407379174
 20
519.516356867
 30
0.0
 11
496.1928136414
 21
519.7493007321
 31
0.0
  0
LINE
  5
13F
330
1F
100
AcDbEntity
  8
0
  6
Continuous
 62
     7
370
    25
100
AcDbLine
 10
494.8888442655
 20
519.5401162788
 30
0.0
 11
495.0789195604
 21
518.355265494
 31
0.0
  0
LINE
  5
140
330
1F
100
AcDbEntity
  8
0
  6
Continuous
 62
     7
370
    25
100
AcDbLine
 10
494.7169785056
 20
519.6644632151
 30
0.0
 11
493.5321277208
 21
519.4743879201
 31
0.0
  0
LINE
  5
141
330
1F
100
AcDbEntity
  8
0
  6
Continuous
 62
     7
370
    25
100
AcDbLine
 10
494.9545726242
 20
518.183399734
 30
0.0
 11
493.7697218394
 21
517.9933244391
 31
0.0
  0
LINE
  5
142
330
1F
100
AcDbEntity
  8
0
  6
Continuous
 62
     7
370
    25
100
AcDbLine
 10
493.4077807845
 20
519.3025221602
 30
0.0
 11
493.5978560794
 21
518.1176713754
 31
0.0
  0
LINE
  5
143
330
1F
100
AcDbEntity
  8
0
  6
Continuous
 62
     7
370
    25
100
AcDbLine
 10
180.3229432674
 20
520.778357296
 30
0.0
 11
180.5558871326
 21
519.326281572
 31
0.0
  0
ARC
  5
144
330
1F
100
AcDbEntity
  8
0
  6
Continuous
 62
     7
370
    25
100
AcDbCircle
 10
191.0688164875
 20
520.4051078377
 30
0.0
 40
12.03669752932991
100
AcDbArc
 50
186.2565722693
 51
191.9710500657
  0
LINE
  5
145
330
1F
100
AcDbEntity
  8
0
  6
Continuous
 62
     7
370
    25
100
AcDbLine
 10
179.2938867036
 20
517.9084869221
 30
0.0
 11
180.7459624275
 21
518.1414307872
 31
0.0
  0
ARC
  5
146
330
1F
100
AcDbEntity
  8
0
  6
Continuous
 62
     7
370
    25
100
AcDbCircle
 10
179.6671361618
 20
528.6543601421
 30
0.0
 40
12.036697529328
100
AcDbArc
 50
276.2565722693
 51
281.9710500657
  0
ARC
  5
147
330
1F
100
AcDbEntity
  8
0
  6
Continuous
 62
     7
370
    25
100
AcDbCircle
 10
171.4178838574
 20
517.2526798165
 30
0.0
 40
12.03669752934961
100
AcDbArc
 50
6.2565722694
 51
11.9710500657
  0
LINE
  5
148
330
1F
100
AcDbEntity
  8
0
  6
Continuous
 62
     7
370
    25
100
AcDbLine
 10
181.7407379174
 20
519.516356867
 30
0.0
 11
183.1928136414
 21
519.7493007321
 31
0.0
  0
ARC
  5
149
330
1F
100
AcDbEntity
  8
0
  6
Continuous
 62
     7
370
    25
100
AcDbCircle
 10
182.8195641831
 20
509.0034275121
 30
0.0
 40
12.03669752932282
100
AcDbArc
 50
96.2565722693
 51
101.9710500657
  0
ARC
  5
14A
330
1F
100
AcDbEntity
  8
0
  6
Continuous
 62
     7
370
    25
100
AcDbCircle
 10
181.2433501725
 20
518.8288938271
 30
0.0
 40
3.99999999999995
100
AcDbArc
 50
311.4096221093
 51
99.1138111675
  0
ARC
  5
14B
330
1F
100
AcDbEntity
  8
0
  6
Continuous
 62
     7
370
    25
100
AcDbCircle
 10
181.2433501725
 20
518.8288938271
 30
0.0
 40
3.999999999999969
100
AcDbArc
 50
99.1138111675
 51
228.5903778907
  0
LINE
  5
14C
330
1F
100
AcDbEntity
  8
0
  6
Continuous
 62
     7
370
    25
100
AcDbLine
 10
181.9308132123
 20
518.3315060821
 30
0.0
 11
183.3828889363
 21
518.5644499473
 31
0.0
  0
LINE
  5
14D
330
1F
100
AcDbEntity
  8
0
  6
Continuous
 62
     7
370
    25
100
AcDbLine
 10
181.5077940522
 20
520.9684325909
 30
0.0
 11
181.7407379174
 21
519.516356867
 31
0.0
  0
LINE
  5
14E
330
1F
100
AcDbEntity
  8
0
  6
Continuous
 62
     7
370
    25
100
AcDbLine
 10
180.7459624275
 20
518.1414307872
 30
0.0
 11
180.9789062927
 21
516.6893550633
 31
0.0
  0
LINE
  5
14F
330
1F
100
AcDbEntity
  8
0
  6
Continuous
 62
     7
370
    25
100
AcDbLine
 10
179.1038114087
 20
519.0933377069
 30
0.0
 11
180.5558871326
 21
519.326281572
 31
0.0
  0
LINE
  5
150
330
1F
100
AcDbEntity
  8
0
  6
Continuous
 62
     7
370
    25
100
AcDbLine
 10
181.9308132123
 20
518.3315060821
 30
0.0
 11
182.1637570775
 21
516.8794303582
 31
0.0
  0
LINE
  5
151
330
1F
100
AcDbEntity
  8
0
  6
Continuous
 62
     7
370
    25
100
AcDbLine
 10
181.8888442655
 20
519.5401162788
 30
0.0
 11
182.0789195604
 21
518.355265494
 31
0.0
  0
LINE
  5
152
330
1F
100
AcDbEntity
  8
0
  6
Continuous
 62
     7
370
    25
100
AcDbLine
 10
181.9545726242
 20
518.183399734
 30
0.0
 11
180.7697218394
 21
517.9933244391
 31
0.0
  0
LINE
  5
153
330
1F
100
AcDbEntity
  8
0
  6
Continuous
 62
     7
370
    25
100
AcDbLine
 10
181.7169785056
 20
519.6644632151
 30
0.0
 11
180.5321277208
 21
519.4743879201
 31
0.0
  0
LINE
  5
154
330
1F
100
AcDbEntity
  8
0
  6
Continuous
 62
     7
370
    25
100
AcDbLine
 10
180.4077807845
 20
519.3025221602
 30
0.0
 11
180.5978560794
 21
518.1176713754
 31
0.0
  0
SPLINE
  5
155
330
1F
100
AcDbEntity
  8
0
  6
Continuous
 62
     7
370
    25
100
AcDbSpline
210
0.0
220
0.0
230
1.0
 70
    24
 71
     3
 72
    18
 73
    14
 74
     0
 42
0.000000001
 43
0.00000001
 40
0.0
 40
0.0
 40
0.0
 40
0.0
 40
0.1395442450004743
 40
0.2146633576115595
 40
0.2913766055701581
 40
0.3680898535287546
 40
0.4432089661398436
 40
0.5827532111403165
 40
0.7222974561407929
 40
0.797416568751879
 40
0.8741298167104772
 40
0.950843064669075
 40
1.0
 40
1.0
 40
1.0
 40
1.0
 10
161.5433501724777
 20
538.5983657703271
 30
0.0
 10
161.5433501724777
 20
538.9834966622526
 30
0.0
 10
161.5433501724777
 20
539.5759502627608
 30
0.0
 10
161.5433501724777
 20
540.8118644441455
 30
0.0
 10
161.5433501724776
 20
541.8878940565005
 30
0.0
 10
161.5433501724777
 20
543.0514221770493
 30
0.0
 10
161.5433501724778
 20
544.5718693680674
 30
0.0
 10
161.5433501724776
 20
546.3960593660742
 30
0.0
 10
161.5433501724777
 20
547.9112943206668
 30
0.0
 10
161.5433501724777
 20
548.8290416190965
 30
0.0
 10
161.5433501724776
 20
549.3326584374503
 30
0.0
 10
161.5433501724777
 20
549.6047955621901
 30
0.0
 10
161.5433501724776
 20
549.6028877193044
 30
0.0
 10
161.5433501724776
 20
549.6021426364982
 30
0.0
  0
SPLINE
  5
156
330
1F
100
AcDbEntity
  8
0
  6
Continuous
 62
     7
370
    25
100
AcDbSpline
210
0.0
220
0.0
230
1.0
 70
     8
 71
     3
 72
     8
 73
     4
 74
     0
 42
0.000000001
 43
0.00000001
 40
0.0
 40
0.0
 40
0.0
 40
0.0
 40
1.0
 40
1.0
 40
1.0
 40
1.0
 10
165.5433501724706
 20
541.0042244159611
 30
0.0
 10
165.5433501724706
 20
541.8172139876663
 30
0.0
 10
165.3690348720913
 20
542.607952383734
 30
0.0
 10
165.0967681850792
 20
543.3861873822108
 30
0.0
  0
SPLINE
  5
157
330
1F
100
AcDbEntity
  8
0
  6
Continuous
 62
     7
370
    25
100
AcDbSpline
210
0.0
220
0.0
230
1.0
 70
     8
 71
     3
 72
     8
 73
     4
 74
     0
 42
0.000000001
 43
0.00000001
 40
0.0
 40
0.0
 40
0.0
 40
0.0
 40
1.0
 40
1.0
 40
1.0
 40
1.0
 10
165.0967681850792
 20
538.6222614497113
 30
0.0
 10
165.3690348720906
 20
539.4004964481862
 30
0.0
 10
165.5433501724706
 20
540.191234844258
 30
0.0
 10
165.5433501724706
 20
541.0042244159611
 30
0.0
  0
LINE
  5
158
330
1F
100
AcDbEntity
  8
0
  6
Continuous
 62
     7
370
    25
100
AcDbLine
 10
161.5433501725
 20
538.6222614497
 30
0.0
 11
165.0967681851
 21
538.6222614497
 31
0.0
  0
LINE
  5
159
330
1F
100
AcDbEntity
  8
0
  6
Continuous
 62
     7
370
    25
100
AcDbLine
 10
165.0967681851
 20
543.3861873822
 30
0.0
 11
161.5433501725
 21
543.3861873822
 31
0.0
  0
SPLINE
  5
15A
330
1F
100
AcDbEntity
  8
0
  6
Continuous
 62
     7
370
    25
100
AcDbSpline
210
0.0
220
0.0
230
1.0
 70
     8
 71
     3
 72
     8
 73
     4
 74
     0
 42
0.000000001
 43
0.00000001
 40
0.0
 40
0.0
 40
0.0
 40
0.0
 40
1.0
 40
1.0
 40
1.0
 40
1.0
 10
165.5433501724705
 20
545.9895035709076
 30
0.0
 10
165.5433501724705
 20
546.8780433774634
 30
0.0
 10
165.3690348720911
 20
547.7422642308825
 30
0.0
 10
165.0967681850793
 20
548.5928197595975
 30
0.0
  0
SPLINE
  5
15B
330
1F
100
AcDbEntity
  8
0
  6
Continuous
 62
     7
370
    25
100
AcDbSpline
210
0.0
220
0.0
230
1.0
 70
     8
 71
     3
 72
     8
 73
     4
 74
     0
 42
0.000000001
 43
0.00000001
 40
0.0
 40
0.0
 40
0.0
 40
0.0
 40
1.0
 40
1.0
 40
1.0
 40
1.0
 10
165.0967681850792
 20
543.3861873822175
 30
0.0
 10
165.3690348720907
 20
544.2367429109314
 30
0.0
 10
165.5433501724705
 20
545.1009637643531
 30
0.0
 10
165.5433501724705
 20
545.9895035709076
 30
0.0
  0
LINE
  5
15C
330
1F
100
AcDbEntity
  8
0
  6
Continuous
 62
     7
370
    25
100
AcDbLine
 10
161.5433501725
 20
548.5928197596
 30
0.0
 11
165.0967681851
 21
548.5928197596
 31
0.0
  0
LINE
  5
15D
330
1F
100
AcDbEntity
  8
0
  6
Continuous
 62
     7
370
    25
100
AcDbLine
 10
165.5433501725
 20
541.004224416
 30
0.0
 11
165.5433501725
 21
545.9895035709
 31
0.0
  0
SPLINE
  5
15E
330
1F
100
AcDbEntity
  8
0
  6
Continuous
 62
     7
370
    25
100
AcDbSpline
210
0.0
220
0.0
230
1.0
 70
     8
 71
     3
 72
     8
 73
     4
 74
     0
 42
0.000000001
 43
0.00000001
 40
0.0
 40
0.0
 40
0.0
 40
0.0
 40
1.0
 40
1.0
 40
1.0
 40
1.0
 10
165.0967681850793
 20
548.5928197596012
 30
0.0
 10
165.3690348720908
 20
548.6651402898399
 30
0.0
 10
165.5433501724707
 20
548.7386227471904
 30
0.0
 10
165.5433501724707
 20
548.8141729820417
 30
0.0
  0
LINE
  5
15F
330
1F
100
AcDbEntity
  8
0
  6
Continuous
 62
     7
370
    25
100
AcDbLine
 10
165.5433501725
 20
545.9895035709
 30
0.0
 11
165.5433501725
 21
548.814172982
 31
0.0
  0
SPLINE
  5
160
330
1F
100
AcDbEntity
  8
0
  6
Continuous
 62
     7
370
    25
100
AcDbSpline
210
0.0
220
0.0
230
1.0
 70
     8
 71
     3
 72
     8
 73
     4
 74
     0
 42
0.000000001
 43
0.00000001
 40
0.0
 40
0.0
 40
0.0
 40
0.0
 40
1.0
 40
1.0
 40
1.0
 40
1.0
 10
165.5433501724707
 20
538.8436146721489
 30
0.0
 10
165.5433501724707
 20
538.7680644372977
 30
0.0
 10
165.3690348720912
 20
538.6945819799473
 30
0.0
 10
165.0967681850793
 20
538.6222614497085
 30
0.0
  0
LINE
  5
161
330
1F
100
AcDbEntity
  8
0
  6
Continuous
 62
     7
370
    25
100
AcDbLine
 10
165.5433501725
 20
541.004224416
 30
0.0
 11
165.5433501725
 21
538.8362213333
 31
0.0
  0
SPLINE
  5
162
330
1F
100
AcDbEntity
  8
0
  6
Continuous
 62
     7
370
    25
100
AcDbSpline
210
0.0
220
0.0
230
1.0
 70
     8
 71
     3
 72
     8
 73
     4
 74
     0
 42
0.000000001
 43
0.00000001
 40
0.0
 40
0.0
 40
0.0
 40
0.0
 40
1.0
 40
1.0
 40
1.0
 40
1.0
 10
165.5433501724707
 20
548.8141729820417
 30
0.0
 10
165.5433501724707
 20
548.889723216893
 30
0.0
 10
165.3690348720912
 20
548.9632056742432
 30
0.0
 10
165.0967681850793
 20
549.0355262044822
 30
0.0
  0
LINE
  5
163
330
1F
100
AcDbEntity
  8
0
  6
Continuous
 62
     7
370
    25
100
AcDbLine
 10
161.5433501725
 20
549.0355262045
 30
0.0
 11
165.0967681851
 21
549.0355262045
 31
0.0
  0
LINE
  5
164
330
1F
100
AcDbEntity
  8
0
  6
Continuous
 62
     7
370
    25
100
AcDbLine
 10
150.5433501725
 20
546.2876438271
 30
0.0
 11
150.5433501725
 21
541.3701438271
 31
0.0
  0
LINE
  5
165
330
1F
100
AcDbEntity
  8
0
  6
Continuous
 62
     7
370
    25
100
AcDbLine
 10
151.0846001725
 20
545.1252596734
 30
0.0
 11
151.0846001725
 21
540.8288938271
 31
0.0
  0
LINE
  5
166
330
1F
100
AcDbEntity
  8
0
  6
Continuous
 62
     7
370
    25
100
AcDbLine
 10
151.0846001725
 20
546.8288938271
 30
0.0
 11
151.0846001725
 21
545.1252596734
 31
0.0
  0
LINE
  5
167
330
1F
100
AcDbEntity
  8
0
  6
Continuous
 62
     7
370
    25
100
AcDbLine
 10
808.8422451857
 20
515.050267155
 30
0.0
 11
809.2051829641
 21
515.6788938271
 31
0.0
  0
LINE
  5
168
330
1F
100
AcDbEntity
  8
0
  6
Continuous
 62
     7
370
    25
100
AcDbLine
 10
809.2051829641
 20
521.9788938271
 30
0.0
 11
808.8422451857
 21
522.6075204992
 31
0.0
  0
ARC
  5
169
330
1F
100
AcDbEntity
  8
0
  6
Continuous
 62
     7
370
    25
100
AcDbCircle
 10
805.9769797338
 20
518.8288938271
 30
0.0
 40
8.000000000000066
100
AcDbArc
 50
330.0
 51
344.7252520003
  0
ARC
  5
16A
330
1F
100
AcDbEntity
  8
0
  6
Continuous
 62
     7
370
    25
100
AcDbCircle
 10
805.9769797338
 20
518.8288938271
 30
0.0
 40
8.000000000000066
100
AcDbArc
 50
15.2747479997
 51
30.0
  0
LINE
  5
16B
330
1F
100
AcDbEntity
  8
0
  6
Continuous
 62
     7
370
    25
100
AcDbLine
 10
810.9051829641
 20
514.8288938271
 30
0.0
 11
812.9051829641
 21
514.8288938271
 31
0.0
  0
LINE
  5
16C
330
1F
100
AcDbEntity
  8
0
  6
Continuous
 62
     7
370
    25
100
AcDbLine
 10
812.9051829641
 20
522.8288938271
 30
0.0
 11
810.9051829641
 21
522.8288938271
 31
0.0
  0
LINE
  5
16D
330
1F
100
AcDbEntity
  8
0
  6
Continuous
 62
     7
370
    25
100
AcDbLine
 10
809.2051829641
 20
516.8288938271
 30
0.0
 11
809.3051829641
 21
516.8288938271
 31
0.0
  0
LINE
  5
16E
330
1F
100
AcDbEntity
  8
0
  6
Continuous
 62
     7
370
    25
100
AcDbLine
 10
809.3051829641
 20
520.8288938271
 30
0.0
 11
809.2051829641
 21
520.8288938271
 31
0.0
  0
LINE
  5
16F
330
1F
100
AcDbEntity
  8
0
  6
Continuous
 62
     7
370
    25
100
AcDbLine
 10
816.2051829641
 20
514.358183149
 30
0.0
 11
816.2051829641
 21
21.2996045052
 31
0.0
  0
LINE
  5
170
330
1F
100
AcDbEntity
  8
0
  6
Continuous
 62
     7
370
    25
100
AcDbLine
 10
825.8051829641
 20
514.358183149
 30
0.0
 11
816.2051829641
 21
514.358183149
 31
0.0
  0
LINE
  5
171
330
1F
100
AcDbEntity
  8
0
  6
Continuous
 62
     7
370
    25
100
AcDbLine
 10
825.8051829641
 20
21.2996045052
 30
0.0
 11
816.2051829641
 21
21.2996045052
 31
0.0
  0
LINE
  5
172
330
1F
100
AcDbEntity
  8
0
  6
Continuous
 62
     7
370
    25
100
AcDbLine
 10
828.2051829641
 20
513.4288938271
 30
0.0
 11
828.2051829641
 21
22.2288938271
 31
0.0
  0
SPLINE
  5
173
330
1F
100
AcDbEntity
  8
0
  6
Continuous
 62
     7
370
    25
100
AcDbSpline
210
0.0
220
0.0
230
1.0
 70
     8
 71
     3
 72
    20
 73
    16
 74
     0
 42
0.000000001
 43
0.00000001
 40
0.0
 40
0.0
 40
0.0
 40
0.0
 40
0.1249999999999927
 40
0.1249999999999927
 40
0.2499999999999854
 40
0.2499999999999854
 40
0.3749999999999781
 40
0.3749999999999781
 40
0.4999999999999708
 40
0.4999999999999708
 40
0.7499999999999909
 40
0.7499999999999909
 40
0.8749999999999956
 40
0.8749999999999956
 40
1.0
 40
1.0
 40
1.0
 40
1.0
 10
828.2051829640782
 20
22.22889382709353
 30
0.0
 10
828.2051829640782
 20
22.189853096239
 30
0.0
 10
828.1896464036033
 20
22.15133439203926
 30
0.0
 10
828.1283280516427
 20
22.07392764073129
 30
0.0
 10
828.081904306056
 20
22.0347832227446
 30
0.0
 10
827.9619534359018
 20
21.95763246882937
 30
0.0
 10
827.8883487916185
 20
21.91930488708843
 30
0.0
 10
827.7136184255228
 20
21.84175856661197
 30
0.0
 10
827.6127677966213
 20
21.80278235894317
 30
0.0
 10
827.2814825166373
 20
21.68728750249815
 30
0.0
 10
827.0138023552535
 20
21.60937505882804
 30
0.0
 10
826.5811283291979
 20
21.49389513342709
 30
0.0
 10
826.4296102423468
 20
21.45502933756216
 30
0.0
 10
826.1201844849608
 20
21.3772550038937
 30
0.0
 10
825.963562155267
 20
21.33864523693896
 30
0.0
 10
825.8051829640782
 20
21.29960450521223
 30
0.0
  0
SPLINE
  5
174
330
1F
100
AcDbEntity
  8
0
  6
Continuous
 62
     7
370
    25
100
AcDbSpline
210
0.0
220
0.0
230
1.0
 70
     8
 71
     3
 72
    20
 73
    16
 74
     0
 42
0.000000001
 43
0.00000001
 40
0.0
 40
0.0
 40
0.0
 40
0.0
 40
0.1249999999999989
 40
0.1249999999999989
 40
0.2499999999999976
 40
0.2499999999999976
 40
0.3749999999999963
 40
0.3749999999999963
 40
0.4999999999999949
 40
0.4999999999999949
 40
0.7499999999999973
 40
0.7499999999999973
 40
0.8749999999999987
 40
0.8749999999999987
 40
1.0
 40
1.0
 40
1.0
 40
1.0
 10
825.8051829640782
 20
514.358183148975
 30
0.0
 10
825.963562151729
 20
514.3191424181204
 30
0.0
 10
826.1198078764206
 20
514.2806237139206
 30
0.0
 10
826.4277997258372
 20
514.2032169626126
 30
0.0
 10
826.5804438333083
 20
514.1640725446259
 30
0.0
 10
826.8695281224954
 20
514.0869217907108
 30
0.0
 10
827.0073326606795
 20
514.0485942089698
 30
0.0
 10
827.2689513363184
 20
513.9710478884933
 30
0.0
 10
827.3916976430011
 20
513.9320716808246
 30
0.0
 10
827.7230220199486
 20
513.8165768243796
 30
0.0
 10
827.902033143977
 20
513.7386643807093
 30
0.0
 10
828.0816482433578
 20
513.6231844553085
 30
0.0
 10
828.1278925922255
 20
513.5843186594435
 30
0.0
 10
828.1896458982368
 20
513.506544325775
 30
0.0
 10
828.2051829640782
 20
513.4679345588203
 30
0.0
 10
828.2051829640782
 20
513.4288938270936
 30
0.0
  0
SPLINE
  5
175
330
1F
100
AcDbEntity
  8
0
  6
Continuous
 62
     7
370
    25
100
AcDbSpline
210
0.0
220
0.0
230
1.0
 70
     8
 71
     3
 72
     9
 73
     5
 74
     0
 42
0.000000001
 43
0.00000001
 40
0.0
 40
0.0
 40
0.0
 40
0.0
 40
0.4825784287290447
 40
1.0
 40
1.0
 40
1.0
 40
1.0
 10
826.4177227032561
 20
514.2050640590401
 30
0.0
 10
826.3295883619398
 20
514.2688722521013
 30
0.0
 10
826.1469562008868
 20
514.4010957193406
 30
0.0
 10
825.9217233168424
 20
514.4194150237971
 30
0.0
 10
825.8051829640782
 20
514.4288938270936
 30
0.0
  0
LINE
  5
176
330
1F
100
AcDbEntity
  8
0
  6
Continuous
 62
     7
370
    25
100
AcDbLine
 10
825.8051829641
 20
515.8288938271
 30
0.0
 11
825.8051829641
 21
514.4288938271
 31
0.0
  0
SPLINE
  5
177
330
1F
100
AcDbEntity
  8
0
  6
Continuous
 62
     7
370
    25
100
AcDbSpline
210
0.0
220
0.0
230
1.0
 70
     8
 71
     3
 72
    20
 73
    16
 74
     0
 42
0.000000001
 43
0.00000001
 40
0.0
 40
0.0
 40
0.0
 40
0.0
 40
0.1250000000000024
 40
0.1250000000000024
 40
0.2500000000000048
 40
0.2500000000000048
 40
0.3750000000000072
 40
0.3750000000000072
 40
0.5000000000000097
 40
0.5000000000000097
 40
0.7499999999999997
 40
0.7499999999999997
 40
0.8749999999999999
 40
0.8749999999999999
 40
1.0
 40
1.0
 40
1.0
 40
1.0
 10
828.2051829640782
 20
513.4288938270936
 30
0.0
 10
828.2051829640782
 20
513.5872730147441
 30
0.0
 10
828.1896464036033
 20
513.7435187394359
 30
0.0
 10
828.1283280516427
 20
514.0515105888526
 30
0.0
 10
828.081904306056
 20
514.2041546963237
 30
0.0
 10
827.9619534359018
 20
514.4932389855109
 30
0.0
 10
827.8883487916185
 20
514.6310435236948
 30
0.0
 10
827.7136184255228
 20
514.8926621993336
 30
0.0
 10
827.6127677966213
 20
515.0154085060163
 30
0.0
 10
827.2814825166372
 20
515.346732882964
 30
0.0
 10
827.0138023552535
 20
515.5257440069923
 30
0.0
 10
826.581128329198
 20
515.7053591063733
 30
0.0
 10
826.4296102423468
 20
515.7516034552408
 30
0.0
 10
826.1201844849608
 20
515.8133567612521
 30
0.0
 10
825.9635621552669
 20
515.8288938270936
 30
0.0
 10
825.8051829640782
 20
515.8288938270937
 30
0.0
  0
LINE
  5
178
330
1F
100
AcDbEntity
  8
0
  6
Continuous
 62
     7
370
    25
100
AcDbLine
 10
825.8051829641
 20
19.8288938271
 30
0.0
 11
825.8051829641
 21
21.2288938271
 31
0.0
  0
SPLINE
  5
179
330
1F
100
AcDbEntity
  8
0
  6
Continuous
 62
     7
370
    25
100
AcDbSpline
210
0.0
220
0.0
230
1.0
 70
     8
 71
     3
 72
     9
 73
     5
 74
     0
 42
0.000000001
 43
0.00000001
 40
0.0
 40
0.0
 40
0.0
 40
0.0
 40
0.732937950727309
 40
1.0
 40
1.0
 40
1.0
 40
1.0
 10
825.8051829640782
 20
21.22889382709364
 30
0.0
 10
825.9565716057341
 20
21.24064847661133
 30
0.0
 10
826.1631220258694
 20
21.25668619099908
 30
0.0
 10
826.3184823679878
 20
21.38502349749299
 30
0.0
 10
826.3599732193297
 20
21.41929752156335
 30
0.0
  0
SPLINE
  5
17A
330
1F
100
AcDbEntity
  8
0
  6
Continuous
 62
     7
370
    25
100
AcDbSpline
210
0.0
220
0.0
230
1.0
 70
     8
 71
     3
 72
    20
 73
    16
 74
     0
 42
0.000000001
 43
0.00000001
 40
0.0
 40
0.0
 40
0.0
 40
0.0
 40
0.1249999999999937
 40
0.1249999999999937
 40
0.2499999999999875
 40
0.2499999999999875
 40
0.3749999999999812
 40
0.3749999999999812
 40
0.4999999999999749
 40
0.4999999999999749
 40
0.7499999999999875
 40
0.7499999999999875
 40
0.8749999999999937
 40
0.8749999999999937
 40
1.0
 40
1.0
 40
1.0
 40
1.0
 10
825.8051829640782
 20
19.82889382709363
 30
0.0
 10
825.963562151729
 20
19.82889382709357
 30
0.0
 10
826.1198078764207
 20
19.8444303875685
 30
0.0
 10
826.4277997258372
 20
19.90574873952905
 30
0.0
 10
826.5804438333084
 20
19.95217248511588
 30
0.0
 10
826.8695281224955
 20
20.07212335526998
 30
0.0
 10
827.0073326606795
 20
20.14572799955344
 30
0.0
 10
827.2689513363184
 20
20.32045836564905
 30
0.0
 10
827.3916976430011
 20
20.42130899455069
 30
0.0
 10
827.7230220199488
 20
20.75259427453463
 30
0.0
 10
827.902033143977
 20
21.02027443591847
 30
0.0
 10
828.0816482433578
 20
21.45294846197382
 30
0.0
 10
828.1278925922255
 20
21.60446654882492
 30
0.0
 10
828.1896458982368
 20
21.91389230621105
 30
0.0
 10
828.2051829640782
 20
22.07051463590476
 30
0.0
 10
828.2051829640782
 20
22.22889382709353
 30
0.0
  0
LINE
  5
17B
330
1F
100
AcDbEntity
  8
0
  6
Continuous
 62
     7
370
    25
100
AcDbLine
 10
825.8051829641
 20
514.4288938271
 30
0.0
 11
816.2051829641
 21
514.4288938271
 31
0.0
  0
LINE
  5
17C
330
1F
100
AcDbEntity
  8
0
  6
Continuous
 62
     7
370
    25
100
AcDbLine
 10
816.2051829641
 20
515.8288938271
 30
0.0
 11
816.2051829641
 21
514.4288938271
 31
0.0
  0
LINE
  5
17D
330
1F
100
AcDbEntity
  8
0
  6
Continuous
 62
     7
370
    25
100
AcDbLine
 10
825.8051829641
 20
515.8288938271
 30
0.0
 11
816.2051829641
 21
515.8288938271
 31
0.0
  0
LINE
  5
17E
330
1F
100
AcDbEntity
  8
0
  6
Continuous
 62
     7
370
    25
100
AcDbLine
 10
816.2051829641
 20
19.8288938271
 30
0.0
 11
816.2051829641
 21
21.2288938271
 31
0.0
  0
LINE
  5
17F
330
1F
100
AcDbEntity
  8
0
  6
Continuous
 62
     7
370
    25
100
AcDbLine
 10
825.8051829641
 20
21.2288938271
 30
0.0
 11
816.2051829641
 21
21.2288938271
 31
0.0
  0
LINE
  5
180
330
1F
100
AcDbEntity
  8
0
  6
Continuous
 62
     7
370
    25
100
AcDbLine
 10
825.8051829641
 20
19.8288938271
 30
0.0
 11
816.2051829641
 21
19.8288938271
 31
0.0
  0
LINE
  5
181
330
1F
100
AcDbEntity
  8
0
  6
Continuous
 62
     7
370
    25
100
AcDbLine
 10
808.1051829641
 20
530.3288938271
 30
0.0
 11
812.1051829641
 21
530.3288938271
 31
0.0
  0
LINE
  5
182
330
1F
100
AcDbEntity
  8
0
  6
Continuous
 62
     7
370
    25
100
AcDbLine
 10
808.1051829641
 20
513.1288938271
 30
0.0
 11
808.1051829641
 21
530.3288938271
 31
0.0
  0
LINE
  5
183
330
1F
100
AcDbEntity
  8
0
  6
Continuous
 62
     7
370
    25
100
AcDbLine
 10
789.1051829641
 20
547.3288938271
 30
0.0
 11
789.1051829641
 21
513.1288938271
 31
0.0
  0
ARC
  5
184
330
1F
100
AcDbEntity
  8
0
  6
Continuous
 62
     7
370
    25
100
AcDbCircle
 10
792.1051829641
 20
547.3288938271
 30
0.0
 40
3.0
100
AcDbArc
 50
90.0
 51
180.0
  0
LINE
  5
185
330
1F
100
AcDbEntity
  8
0
  6
Continuous
 62
     7
370
    25
100
AcDbLine
 10
809.1051829641
 20
550.3288938271
 30
0.0
 11
792.1051829641
 21
550.3288938271
 31
0.0
  0
ARC
  5
186
330
1F
100
AcDbEntity
  8
0
  6
Continuous
 62
     7
370
    25
100
AcDbCircle
 10
809.1051829641
 20
547.3288938271
 30
0.0
 40
3.0
100
AcDbArc
 50
0.0
 51
90.0
  0
LINE
  5
187
330
1F
100
AcDbEntity
  8
0
  6
Continuous
 62
     7
370
    25
100
AcDbLine
 10
812.1051829641
 20
530.3288938271
 30
0.0
 11
812.1051829641
 21
547.3288938271
 31
0.0
  0
CIRCLE
  5
188
330
1F
100
AcDbEntity
  8
0
  6
Continuous
 62
     7
370
    25
100
AcDbCircle
 10
797.6051829641
 20
543.8288938271
 30
0.0
 40
3.25
  0
CIRCLE
  5
189
330
1F
100
AcDbEntity
  8
0
  6
Continuous
 62
     7
370
    25
100
AcDbCircle
 10
797.6051829641
 20
518.8288938271
 30
0.0
 40
3.25
  0
LINE
  5
18A
330
1F
100
AcDbEntity
  8
0
  6
Continuous
 62
     7
370
    25
100
AcDbLine
 10
808.1051829641
 20
513.1288938271
 30
0.0
 11
808.1051829641
 21
511.3288938271
 31
0.0
  0
LINE
  5
18B
330
1F
100
AcDbEntity
  8
0
  6
Continuous
 62
     7
370
    25
100
AcDbLine
 10
808.1051829641
 20
511.3288938271
 30
0.0
 11
789.1051829641
 21
511.3288938271
 31
0.0
  0
LINE
  5
18C
330
1F
100
AcDbEntity
  8
0
  6
Continuous
 62
     7
370
    25
100
AcDbLine
 10
789.1051829641
 20
511.3288938271
 30
0.0
 11
789.1051829641
 21
513.1288938271
 31
0.0
  0
ARC
  5
18D
330
1F
100
AcDbEntity
  8
0
  6
Continuous
 62
     7
370
    25
100
AcDbCircle
 10
808.3051829641
 20
513.1288938271
 30
0.0
 40
1.800000000000068
100
AcDbArc
 50
270.0
 51
0.0
  0
ARC
  5
18E
330
1F
100
AcDbEntity
  8
0
  6
Continuous
 62
     7
370
    25
100
AcDbCircle
 10
808.3051829641
 20
513.1288938271
 30
0.0
 40
1.000000000000114
100
AcDbArc
 50
270.0
 51
0.0
  0
LINE
  5
18F
330
1F
100
AcDbEntity
  8
0
  6
Continuous
 62
     7
370
    25
100
AcDbLine
 10
808.1051829641
 20
512.1288938271
 30
0.0
 11
808.3051829641
 21
512.1288938271
 31
0.0
  0
LINE
  5
190
330
1F
100
AcDbEntity
  8
0
  6
Continuous
 62
     7
370
    25
100
AcDbLine
 10
808.1051829641
 20
511.3288938271
 30
0.0
 11
808.3051829641
 21
511.3288938271
 31
0.0
  0
LINE
  5
191
330
1F
100
AcDbEntity
  8
0
  6
Continuous
 62
     7
370
    25
100
AcDbLine
 10
809.3051829641
 20
523.3288938271
 30
0.0
 11
809.3051829641
 21
513.1288938271
 31
0.0
  0
LINE
  5
192
330
1F
100
AcDbEntity
  8
0
  6
Continuous
 62
     7
370
    25
100
AcDbLine
 10
810.1051829641
 20
523.3288938271
 30
0.0
 11
809.3051829641
 21
523.3288938271
 31
0.0
  0
LINE
  5
193
330
1F
100
AcDbEntity
  8
0
  6
Continuous
 62
     7
370
    25
100
AcDbLine
 10
765.1051829641
 20
511.3288938271
 30
0.0
 11
765.1051829641
 21
512.1288938271
 31
0.0
  0
LINE
  5
194
330
1F
100
AcDbEntity
  8
0
  6
Continuous
 62
     7
370
    25
100
AcDbLine
 10
765.1051829641
 20
512.1288938271
 30
0.0
 11
768.1051829641
 21
512.1288938271
 31
0.0
  0
LINE
  5
195
330
1F
100
AcDbEntity
  8
0
  6
Continuous
 62
     7
370
    25
100
AcDbLine
 10
768.1051829641
 20
511.3288938271
 30
0.0
 11
765.1051829641
 21
511.3288938271
 31
0.0
  0
LINE
  5
196
330
1F
100
AcDbEntity
  8
0
  6
Continuous
 62
     7
370
    25
100
AcDbLine
 10
768.1051829641
 20
512.1288938271
 30
0.0
 11
789.1051829641
 21
512.1288938271
 31
0.0
  0
LINE
  5
197
330
1F
100
AcDbEntity
  8
0
  6
Continuous
 62
     7
370
    25
100
AcDbLine
 10
768.1051829641
 20
511.3288938271
 30
0.0
 11
789.1051829641
 21
511.3288938271
 31
0.0
  0
LINE
  5
198
330
1F
100
AcDbEntity
  8
0
  6
Continuous
 62
     7
370
    25
100
AcDbLine
 10
769.2005695723
 20
515.5288938271
 30
0.0
 11
766.2005695723
 21
515.5288938271
 31
0.0
  0
LINE
  5
199
330
1F
100
AcDbEntity
  8
0
  6
Continuous
 62
     7
370
    25
100
AcDbLine
 10
766.2005695723
 20
515.5288938271
 30
0.0
 11
766.2005695723
 21
516.3288938271
 31
0.0
  0
LINE
  5
19A
330
1F
100
AcDbEntity
  8
0
  6
Continuous
 62
     7
370
    25
100
AcDbLine
 10
766.2005695723
 20
516.3288938271
 30
0.0
 11
769.2005695723
 21
516.3288938271
 31
0.0
  0
LINE
  5
19B
330
1F
100
AcDbEntity
  8
0
  6
Continuous
 62
     7
370
    25
100
AcDbLine
 10
783.2431321565
 20
512.2628684233
 30
0.0
 11
776.6182610259
 21
516.0877395539
 31
0.0
  0
LINE
  5
19C
330
1F
100
AcDbEntity
  8
0
  6
Continuous
 62
     7
370
    25
100
AcDbLine
 10
781.8751829641
 20
512.1288938271
 30
0.0
 11
776.2182610259
 21
515.3949192309
 31
0.0
  0
LINE
  5
19D
330
1F
100
AcDbEntity
  8
0
  6
Continuous
 62
     7
370
    25
100
AcDbLine
 10
769.2005695723
 20
516.3288938271
 30
0.0
 11
775.7182610259
 21
516.3288938271
 31
0.0
  0
LINE
  5
19E
330
1F
100
AcDbEntity
  8
0
  6
Continuous
 62
     7
370
    25
100
AcDbLine
 10
769.2005695723
 20
515.5288938271
 30
0.0
 11
775.7182610259
 21
515.5288938271
 31
0.0
  0
ARC
  5
19F
330
1F
100
AcDbEntity
  8
0
  6
Continuous
 62
     7
370
    25
100
AcDbCircle
 10
775.7182610259
 20
514.5288938271
 30
0.0
 40
1.800000000000075
100
AcDbArc
 50
60.0
 51
90.0
  0
ARC
  5
1A0
330
1F
100
AcDbEntity
  8
0
  6
Continuous
 62
     7
370
    25
100
AcDbCircle
 10
775.7182610259
 20
514.5288938271
 30
0.0
 40
1.000000000000082
100
AcDbArc
 50
60.0
 51
90.0
  0
ARC
  5
1A1
330
1F
100
AcDbEntity
  8
0
  6
Continuous
 62
     7
370
    25
100
AcDbCircle
 10
783.7431321565
 20
513.1288938271
 30
0.0
 40
1.000000000000082
100
AcDbArc
 50
240.0
 51
270.0
  0
LINE
  5
1A2
330
1F
100
AcDbEntity
  8
0
  6
Continuous
 62
     7
370
    25
100
AcDbLine
 10
808.1051829641
 20
520.269723149
 30
0.0
 11
808.6905029787
 21
520.269723149
 31
0.0
  0
SPLINE
  5
1A3
330
1F
100
AcDbEntity
  8
0
  6
Continuous
 62
     7
370
    25
100
AcDbSpline
210
0.0
220
0.0
230
1.0
 70
     8
 71
     3
 72
    14
 73
    10
 74
     0
 42
0.000000001
 43
0.00000001
 40
0.0
 40
0.0
 40
0.0
 40
0.0
 40
0.25
 40
0.25
 40
0.5
 40
0.5
 40
0.75
 40
0.75
 40
1.0
 40
1.0
 40
1.0
 40
1.0
 10
808.6905029786922
 20
520.2697231489641
 30
0.0
 10
808.7853775880028
 20
519.9452169196754
 30
0.0
 10
808.8649825128786
 20
519.6127576972812
 30
0.0
 10
808.9738191277728
 20
518.9461877823729
 30
0.0
 10
809.0031427334633
 20
518.6111115250975
 30
0.0
 10
809.0030779517176
 20
517.93676805487
 30
0.0
 10
808.9729217583913
 20
517.594988634191
 30
0.0
 10
808.8633365570256
 20
516.9285747145863
 30
0.0
 10
808.7847935832234
 20
516.6018006686336
 30
0.0
 10
808.6905029786922
 20
516.2792919515373
 30
0.0
  0
LINE
  5
1A4
330
1F
100
AcDbEntity
  8
0
  6
Continuous
 62
     7
370
    25
100
AcDbLine
 10
808.1051829641
 20
516.2792919515
 30
0.0
 11
808.6905029787
 21
516.2792919515
 31
0.0
  0
SPLINE
  5
1A5
330
1F
100
AcDbEntity
  8
0
  6
Continuous
 62
     7
370
    25
100
AcDbSpline
210
0.0
220
0.0
230
1.0
 70
     8
 71
     3
 72
    12
 73
     8
 74
     0
 42
0.000000001
 43
0.00000001
 40
0.0
 40
0.0
 40
0.0
 40
0.0
 40
0.4999999999999942
 40
0.4999999999999942
 40
0.7499999999999971
 40
0.7499999999999971
 40
1.0
 40
1.0
 40
1.0
 40
1.0
 10
808.6905029786932
 20
514.8384626296667
 30
0.0
 10
808.8809972681166
 20
515.0737224221098
 30
0.0
 10
809.0026716811791
 20
515.3125071149602
 30
0.0
 10
809.0033278717103
 20
515.6799986475173
 30
0.0
 10
808.973493869916
 20
515.8023708421666
 30
0.0
 10
808.8645639998083
 20
516.0427545273261
 30
0.0
 10
808.7858688127454
 20
516.1615154743877
 30
0.0
 10
808.6905029786927
 20
516.2792919515373
 30
0.0
  0
SPLINE
  5
1A6
330
1F
100
AcDbEntity
  8
0
  6
Continuous
 62
     7
370
    25
100
AcDbSpline
210
0.0
220
0.0
230
1.0
 70
     8
 71
     3
 72
    12
 73
     8
 74
     0
 42
0.000000001
 43
0.00000001
 40
0.0
 40
0.0
 40
0.0
 40
0.0
 40
0.5000000000000079
 40
0.5000000000000079
 40
0.7500000000000039
 40
0.7500000000000039
 40
1.0
 40
1.0
 40
1.0
 40
1.0
 10
808.6905029786932
 20
520.269723148964
 30
0.0
 10
808.8809972681166
 20
520.6860242326187
 30
0.0
 10
809.0026716811791
 20
521.1085627606069
 30
0.0
 10
809.0033278717103
 20
521.7588529000678
 30
0.0
 10
808.973493869916
 20
521.9753951179822
 30
0.0
 10
808.8645639998083
 20
522.4007631232225
 30
0.0
 10
808.7858688127454
 20
522.6109151022081
 30
0.0
 10
808.6905029786927
 20
522.8193250245206
 30
0.0
  0
LINE
  5
1A7
330
1F
100
AcDbEntity
  8
0
  6
Continuous
 62
     7
370
    25
100
AcDbLine
 10
808.6905029787
 20
522.8193250245
 30
0.0
 11
808.7883780159
 21
522.5764202742
 31
0.0
  0
LINE
  5
1A8
330
1F
100
AcDbEntity
  8
0
  6
Continuous
 62
     7
370
    25
100
AcDbLine
 10
809.2051829641
 20
518.3299461779
 30
0.0
 11
809.2051829641
 21
515.6788938271
 31
0.0
  0
LINE
  5
1A9
330
1F
100
AcDbEntity
  8
0
  6
Continuous
 62
     7
370
    25
100
AcDbLine
 10
809.2051829641
 20
521.9788938271
 30
0.0
 11
809.2051829641
 21
518.3299461779
 31
0.0
  0
LINE
  5
1AA
330
1F
100
AcDbEntity
  8
0
  6
Continuous
 62
     7
370
    25
100
AcDbLine
 10
808.1051829641
 20
522.8193250245
 30
0.0
 11
808.6905029787
 21
522.8193250245
 31
0.0
  0
LINE
  5
1AB
330
1F
100
AcDbEntity
  8
0
  6
Continuous
 62
     7
370
    25
100
AcDbLine
 10
808.1051829641
 20
514.8384626297
 30
0.0
 11
808.6905029787
 21
514.8384626297
 31
0.0
  0
LINE
  5
1AC
330
1F
100
AcDbEntity
  8
0
  6
Continuous
 62
     7
370
    25
100
AcDbLine
 10
811.9051829641
 20
508.8288938271
 30
0.0
 11
811.9051829641
 21
509.6288938271
 31
0.0
  0
LINE
  5
1AD
330
1F
100
AcDbEntity
  8
0
  6
Continuous
 62
     7
370
    25
100
AcDbLine
 10
816.2051829641
 20
509.6288938271
 30
0.0
 11
811.9051829641
 21
509.6288938271
 31
0.0
  0
LINE
  5
1AE
330
1F
100
AcDbEntity
  8
0
  6
Continuous
 62
     7
370
    25
100
AcDbLine
 10
816.2051829641
 20
508.8288938271
 30
0.0
 11
811.9051829641
 21
508.8288938271
 31
0.0
  0
LINE
  5
1AF
330
1F
100
AcDbEntity
  8
0
  6
Continuous
 62
     7
370
    25
100
AcDbLine
 10
816.6551829641
 20
527.1288938271
 30
0.0
 11
821.8051829641
 21
527.1288938271
 31
0.0
  0
LINE
  5
1B0
330
1F
100
AcDbEntity
  8
0
  6
Continuous
 62
     7
370
    25
100
AcDbLine
 10
816.6551829641
 20
527.9288938271
 30
0.0
 11
816.6551829641
 21
527.1288938271
 31
0.0
  0
LINE
  5
1B1
330
1F
100
AcDbEntity
  8
0
  6
Continuous
 62
     7
370
    25
100
AcDbLine
 10
816.6551829641
 20
527.9288938271
 30
0.0
 11
821.8051829641
 21
527.9288938271
 31
0.0
  0
LINE
  5
1B2
330
1F
100
AcDbEntity
  8
0
  6
Continuous
 62
     7
370
    25
100
AcDbLine
 10
821.8051829641
 20
527.9288938271
 30
0.0
 11
821.8051829641
 21
528.0288938271
 31
0.0
  0
LINE
  5
1B3
330
1F
100
AcDbEntity
  8
0
  6
Continuous
 62
     7
370
    25
100
AcDbLine
 10
811.9051829641
 20
528.0288938271
 30
0.0
 11
821.8051829641
 21
528.0288938271
 31
0.0
  0
LINE
  5
1B4
330
1F
100
AcDbEntity
  8
0
  6
Continuous
 62
     7
370
    25
100
AcDbLine
 10
811.9051829641
 20
528.0288938271
 30
0.0
 11
811.9051829641
 21
528.8288938271
 31
0.0
  0
LINE
  5
1B5
330
1F
100
AcDbEntity
  8
0
  6
Continuous
 62
     7
370
    25
100
AcDbLine
 10
821.8051829641
 20
528.8288938271
 30
0.0
 11
811.9051829641
 21
528.8288938271
 31
0.0
  0
ARC
  5
1B6
330
1F
100
AcDbEntity
  8
0
  6
Continuous
 62
     7
370
    25
100
AcDbCircle
 10
821.8051829641
 20
527.9788938271
 30
0.0
 40
0.8500000000000227
100
AcDbArc
 50
270.0
 51
90.0
  0
ARC
  5
1B7
330
1F
100
AcDbEntity
  8
0
  6
Continuous
 62
     7
370
    25
100
AcDbCircle
 10
811.9051829641
 20
527.0288938271
 30
0.0
 40
1.000000000000114
100
AcDbArc
 50
90.0
 51
180.0
  0
LINE
  5
1B8
330
1F
100
AcDbEntity
  8
0
  6
Continuous
 62
     7
370
    25
100
AcDbLine
 10
810.9051829641
 20
527.0288938271
 30
0.0
 11
810.9051829641
 21
510.6288938271
 31
0.0
  0
ARC
  5
1B9
330
1F
100
AcDbEntity
  8
0
  6
Continuous
 62
     7
370
    25
100
AcDbCircle
 10
811.9051829641
 20
510.6288938271
 30
0.0
 40
1.0
100
AcDbArc
 50
180.0
 51
270.0
  0
ARC
  5
1BA
330
1F
100
AcDbEntity
  8
0
  6
Continuous
 62
     7
370
    25
100
AcDbCircle
 10
811.9051829641
 20
510.6288938271
 30
0.0
 40
1.800000000000125
100
AcDbArc
 50
180.0
 51
270.0
  0
ARC
  5
1BB
330
1F
100
AcDbEntity
  8
0
  6
Continuous
 62
     7
370
    25
100
AcDbCircle
 10
811.9051829641
 20
527.0288938271
 30
0.0
 40
1.800000000000068
100
AcDbArc
 50
90.0
 51
180.0
  0
LINE
  5
1BC
330
1F
100
AcDbEntity
  8
0
  6
Continuous
 62
     7
370
    25
100
AcDbLine
 10
810.1051829641
 20
510.6288938271
 30
0.0
 11
810.1051829641
 21
527.0288938271
 31
0.0
  0
CIRCLE
  5
1BD
330
1F
100
AcDbEntity
  8
0
  6
Continuous
 62
     7
370
    25
100
AcDbCircle
 10
797.6051829641
 20
518.8288938271
 30
0.0
 40
2.458750000016599
  0
CIRCLE
  5
1BE
330
1F
100
AcDbEntity
  8
0
  6
Continuous
 62
     7
370
    25
100
AcDbCircle
 10
797.6051829641
 20
518.8288938271
 30
0.0
 40
3.000000000000015
  0
ARC
  5
1BF
330
1F
100
AcDbEntity
  8
0
  6
Continuous
 62
     7
370
    25
100
AcDbCircle
 10
806.1682030663
 20
518.7329558072
 30
0.0
 40
7.786288415098907
100
AcDbArc
 50
4.3702527064
 51
15.2299003794
  0
ARC
  5
1C0
330
1F
100
AcDbEntity
  8
0
  6
Continuous
 62
     7
370
    25
100
AcDbCircle
 10
813.4074595299
 20
519.6394094095
 30
0.0
 40
0.6107675350077074
100
AcDbArc
 50
296.6101963366
 51
329.1575418587
  0
ARC
  5
1C1
330
1F
100
AcDbEntity
  8
0
  6
Continuous
 62
     7
370
    25
100
AcDbCircle
 10
804.6013973884
 20
518.5009123145
 30
0.0
 40
9.098942710245971
100
AcDbArc
 50
356.2668736478
 51
3.7331263522
  0
ARC
  5
1C2
330
1F
100
AcDbEntity
  8
0
  6
Continuous
 62
     7
370
    25
100
AcDbCircle
 10
813.4074595299
 20
518.4545586247
 30
0.0
 40
0.6107675350079612
100
AcDbArc
 50
296.6101963367
 51
329.1575418587
  0
ARC
  5
1C3
330
1F
100
AcDbEntity
  8
0
  6
Continuous
 62
     7
370
    25
100
AcDbCircle
 10
806.1682030663
 20
518.734756552
 30
0.0
 40
7.786288415094091
100
AcDbArc
 50
344.7700996206
 51
355.6297472936
  0
ARC
  5
1C4
330
1F
100
AcDbEntity
  8
0
  6
Continuous
 62
     7
370
    25
100
AcDbCircle
 10
813.5479491855
 20
516.7632914503
 30
0.0
 40
0.1522432420556101
100
AcDbArc
 50
330.9451665851
 51
359.1449116546
  0
LWPOLYLINE
  5
1C5
330
1F
100
AcDbEntity
  8
0
  6
Continuous
 62
     7
370
    25
100
AcDbPolyline
 90
        3
 70
   128
 43
0.0
 10
813.9318524543
 20
518.3315060821
 10
813.9156276057
 20
518.1478077533
 10
813.9149854626
 20
518.1414307872
  0
ARC
  5
1C6
330
1F
100
AcDbEntity
  8
0
  6
Continuous
 62
     7
370
    25
100
AcDbCircle
 10
813.4074595299
 20
518.0183782446
 30
0.0
 40
0.6107675350083894
100
AcDbArc
 50
30.8424581413
 51
63.3898036633
  0
ARC
  5
1C7
330
1F
100
AcDbEntity
  8
0
  6
Continuous
 62
     7
370
    25
100
AcDbCircle
 10
804.5245256089
 20
519.159891196
 30
0.0
 40
9.175815043196751
100
AcDbArc
 50
357.9327321261
 51
359.6562101092
  0
ARC
  5
1C8
330
1F
100
AcDbEntity
  8
0
  6
Continuous
 62
     7
370
    25
100
AcDbCircle
 10
806.1682030663
 20
518.9230311022
 30
0.0
 40
7.786288415095216
100
AcDbArc
 50
4.3702527064
 51
15.2299003794
  0
ARC
  5
1C9
330
1F
100
AcDbEntity
  8
0
  6
Continuous
 62
     7
370
    25
100
AcDbCircle
 10
813.4599113991
 20
520.8733949434
 30
0.0
 40
0.2406805056719699
100
AcDbArc
 50
336.7420981705
 51
23.2579018295
  0
LINE
  5
1CA
330
1F
100
AcDbEntity
  8
0
  6
Continuous
 62
     7
370
    25
100
AcDbLine
 10
812.9051829641
 20
522.7783964431
 30
0.0
 11
812.9051829641
 21
522.8288938271
 31
0.0
  0
LINE
  5
1CB
330
1F
100
AcDbEntity
  8
0
  6
Continuous
 62
     7
370
    25
100
AcDbLine
 10
812.9051829641
 20
514.8288938271
 30
0.0
 11
812.9051829641
 21
522.7783964431
 31
0.0
  0
LINE
  5
1CC
330
1F
100
AcDbEntity
  8
0
  6
Continuous
 62
     7
370
    25
100
AcDbLine
 10
813.9318524543
 20
518.1414307872
 30
0.0
 11
813.6932967965
 21
518.1414307872
 31
0.0
  0
LINE
  5
1CD
330
1F
100
AcDbEntity
  8
0
  6
Continuous
 62
     7
370
    25
100
AcDbLine
 10
813.9318524543
 20
519.516356867
 30
0.0
 11
813.9149854626
 21
519.516356867
 31
0.0
  0
LINE
  5
1CE
330
1F
100
AcDbEntity
  8
0
  6
Continuous
 62
     7
370
    25
100
AcDbLine
 10
813.9318524543
 20
518.3315060821
 30
0.0
 11
813.698802138
 21
518.3315060821
 31
0.0
  0
ARC
  5
1CF
330
1F
100
AcDbEntity
  8
0
  6
Continuous
 62
     7
370
    25
100
AcDbCircle
 10
791.6466940749
 20
455.0843670035
 30
0.0
 40
1.94250856665536
100
AcDbArc
 50
181.8362067977
 51
271.7254354149
  0
LINE
  5
1D0
330
1F
100
AcDbEntity
  8
0
  6
Continuous
 62
     7
370
    25
100
AcDbLine
 10
789.7051829641
 20
455.0221244276
 30
0.0
 11
789.7051829641
 21
460.1632006645
 31
0.0
  0
LINE
  5
1D1
330
1F
100
AcDbEntity
  8
0
  6
Continuous
 62
     7
370
    25
100
AcDbLine
 10
805.7051829641
 20
460.1632006645
 30
0.0
 11
805.7051829641
 21
455.0221244276
 31
0.0
  0
ARC
  5
1D2
330
1F
100
AcDbEntity
  8
0
  6
Continuous
 62
     7
370
    25
100
AcDbCircle
 10
803.7636718533
 20
455.0843670035
 30
0.0
 40
1.942508566654912
100
AcDbArc
 50
268.2745645851
 51
358.1637932024
  0
LINE
  5
1D3
330
1F
100
AcDbEntity
  8
0
  6
Continuous
 62
     7
370
    25
100
AcDbLine
 10
803.7051829641
 20
453.142739186
 30
0.0
 11
791.7051829641
 21
453.142739186
 31
0.0
  0
LINE
  5
1D4
330
1F
100
AcDbEntity
  8
0
  6
Continuous
 62
     7
370
    25
100
AcDbLine
 10
789.7051829641
 20
454.338084141
 30
0.0
 11
789.7051829641
 21
455.0221244276
 31
0.0
  0
ARC
  5
1D5
330
1F
100
AcDbEntity
  8
0
  6
Continuous
 62
     7
370
    25
100
AcDbCircle
 10
791.6466940749
 20
454.4003267168
 30
0.0
 40
1.94250856665541
100
AcDbArc
 50
181.8362067977
 51
271.7254354149
  0
LINE
  5
1D6
330
1F
100
AcDbEntity
  8
0
  6
Continuous
 62
     7
370
    25
100
AcDbLine
 10
803.7051829641
 20
452.4586988994
 30
0.0
 11
791.7051829641
 21
452.4586988994
 31
0.0
  0
LINE
  5
1D7
330
1F
100
AcDbEntity
  8
0
  6
Continuous
 62
     7
370
    25
100
AcDbLine
 10
805.7051829641
 20
455.0221244276
 30
0.0
 11
805.7051829641
 21
454.338084141
 31
0.0
  0
ARC
  5
1D8
330
1F
100
AcDbEntity
  8
0
  6
Continuous
 62
     7
370
    25
100
AcDbCircle
 10
803.7636718533
 20
454.4003267168
 30
0.0
 40
1.942508566654912
100
AcDbArc
 50
268.2745645851
 51
358.1637932024
  0
LINE
  5
1D9
330
1F
100
AcDbEntity
  8
0
  6
Continuous
 62
     7
370
    25
100
AcDbLine
 10
805.7051829641
 20
460.1632006645
 30
0.0
 11
805.7051829641
 21
460.5052208078
 31
0.0
  0
LINE
  5
1DA
330
1F
100
AcDbEntity
  8
0
  6
Continuous
 62
     7
370
    25
100
AcDbLine
 10
789.7051829641
 20
460.5052208078
 30
0.0
 11
789.7051829641
 21
460.1632006645
 31
0.0
  0
LINE
  5
1DB
330
1F
100
AcDbEntity
  8
0
  6
Continuous
 62
     7
370
    25
100
AcDbLine
 10
805.7051829641
 20
460.3288938271
 30
0.0
 11
816.2051829641
 21
460.3288938271
 31
0.0
  0
LINE
  5
1DC
330
1F
100
AcDbEntity
  8
0
  6
Continuous
 62
     7
370
    25
100
AcDbLine
 10
789.7051829641
 20
473.3288938271
 30
0.0
 11
789.7051829641
 21
460.5052208078
 31
0.0
  0
ARC
  5
1DD
330
1F
100
AcDbEntity
  8
0
  6
Continuous
 62
     7
370
    25
100
AcDbCircle
 10
791.7051829641
 20
473.3288938271
 30
0.0
 40
2.0
100
AcDbArc
 50
90.0
 51
180.0
  0
LINE
  5
1DE
330
1F
100
AcDbEntity
  8
0
  6
Continuous
 62
     7
370
    25
100
AcDbLine
 10
816.2051829641
 20
475.3288938271
 30
0.0
 11
791.7051829641
 21
475.3288938271
 31
0.0
  0
CIRCLE
  5
1DF
330
1F
100
AcDbEntity
  8
0
  6
Continuous
 62
     7
370
    25
100
AcDbCircle
 10
797.6051829641
 20
467.8288938271
 30
0.0
 40
3.5
  0
CIRCLE
  5
1E0
330
1F
100
AcDbEntity
  8
0
  6
Continuous
 62
     7
370
    25
100
AcDbCircle
 10
797.6051829641
 20
67.8288938271
 30
0.0
 40
2.458750000016599
  0
CIRCLE
  5
1E1
330
1F
100
AcDbEntity
  8
0
  6
Continuous
 62
     7
370
    25
100
AcDbCircle
 10
797.6051829641
 20
67.8288938271
 30
0.0
 40
2.999999999999906
  0
LINE
  5
1E2
330
1F
100
AcDbEntity
  8
0
  6
Continuous
 62
     7
370
    25
100
AcDbLine
 10
789.7051829641
 20
75.4945869897
 30
0.0
 11
789.7051829641
 21
80.6356632266
 31
0.0
  0
ARC
  5
1E3
330
1F
100
AcDbEntity
  8
0
  6
Continuous
 62
     7
370
    25
100
AcDbCircle
 10
791.6466940749
 20
80.5734206507
 30
0.0
 40
1.942508566655591
100
AcDbArc
 50
88.2745645851
 51
178.1637932023
  0
LINE
  5
1E4
330
1F
100
AcDbEntity
  8
0
  6
Continuous
 62
     7
370
    25
100
AcDbLine
 10
791.7051829641
 20
82.5150484681
 30
0.0
 11
803.7051829641
 21
82.5150484681
 31
0.0
  0
ARC
  5
1E5
330
1F
100
AcDbEntity
  8
0
  6
Continuous
 62
     7
370
    25
100
AcDbCircle
 10
803.7636718533
 20
80.5734206507
 30
0.0
 40
1.942508566655147
100
AcDbArc
 50
1.8362067977
 51
91.7254354149
  0
LINE
  5
1E6
330
1F
100
AcDbEntity
  8
0
  6
Continuous
 62
     7
370
    25
100
AcDbLine
 10
805.7051829641
 20
80.6356632266
 30
0.0
 11
805.7051829641
 21
75.4945869897
 31
0.0
  0
LINE
  5
1E7
330
1F
100
AcDbEntity
  8
0
  6
Continuous
 62
     7
370
    25
100
AcDbLine
 10
791.7051829641
 20
83.1990887548
 30
0.0
 11
803.7051829641
 21
83.1990887548
 31
0.0
  0
LINE
  5
1E8
330
1F
100
AcDbEntity
  8
0
  6
Continuous
 62
     7
370
    25
100
AcDbLine
 10
789.7051829641
 20
80.6356632266
 30
0.0
 11
789.7051829641
 21
81.3197035132
 31
0.0
  0
ARC
  5
1E9
330
1F
100
AcDbEntity
  8
0
  6
Continuous
 62
     7
370
    25
100
AcDbCircle
 10
791.6466940749
 20
81.2574609374
 30
0.0
 40
1.942508566655588
100
AcDbArc
 50
88.2745645851
 51
178.1637932023
  0
LINE
  5
1EA
330
1F
100
AcDbEntity
  8
0
  6
Continuous
 62
     7
370
    25
100
AcDbLine
 10
805.7051829641
 20
81.3197035132
 30
0.0
 11
805.7051829641
 21
80.6356632266
 31
0.0
  0
ARC
  5
1EB
330
1F
100
AcDbEntity
  8
0
  6
Continuous
 62
     7
370
    25
100
AcDbCircle
 10
803.7636718533
 20
81.2574609374
 30
0.0
 40
1.942508566655218
100
AcDbArc
 50
1.8362067977
 51
91.7254354149
  0
LINE
  5
1EC
330
1F
100
AcDbEntity
  8
0
  6
Continuous
 62
     7
370
    25
100
AcDbLine
 10
789.7051829641
 20
75.4945869897
 30
0.0
 11
789.7051829641
 21
75.1525668464
 31
0.0
  0
LINE
  5
1ED
330
1F
100
AcDbEntity
  8
0
  6
Continuous
 62
     7
370
    25
100
AcDbLine
 10
805.7051829641
 20
75.1525668464
 30
0.0
 11
805.7051829641
 21
75.4945869897
 31
0.0
  0
LINE
  5
1EE
330
1F
100
AcDbEntity
  8
0
  6
Continuous
 62
     7
370
    25
100
AcDbLine
 10
816.2051829641
 20
75.3288938271
 30
0.0
 11
805.7051829641
 21
75.3288938271
 31
0.0
  0
LINE
  5
1EF
330
1F
100
AcDbEntity
  8
0
  6
Continuous
 62
     7
370
    25
100
AcDbLine
 10
791.7051829641
 20
60.3288938271
 30
0.0
 11
816.2051829641
 21
60.3288938271
 31
0.0
  0
CIRCLE
  5
1F0
330
1F
100
AcDbEntity
  8
0
  6
Continuous
 62
     7
370
    25
100
AcDbCircle
 10
797.6051829641
 20
67.8288938271
 30
0.0
 40
3.5
  0
ARC
  5
1F1
330
1F
100
AcDbEntity
  8
0
  6
Continuous
 62
     7
370
    25
100
AcDbCircle
 10
791.7051829641
 20
62.3288938271
 30
0.0
 40
2.0
100
AcDbArc
 50
180.0
 51
270.0
  0
LINE
  5
1F2
330
1F
100
AcDbEntity
  8
0
  6
Continuous
 62
     7
370
    25
100
AcDbLine
 10
789.7051829641
 20
75.1525668464
 30
0.0
 11
789.7051829641
 21
62.3288938271
 31
0.0
  0
CIRCLE
  5
1F3
330
1F
100
AcDbEntity
  8
0
  6
Continuous
 62
     7
370
    25
100
AcDbCircle
 10
797.6051829641
 20
543.8288938271
 30
0.0
 40
2.458750000016599
  0
CIRCLE
  5
1F4
330
1F
100
AcDbEntity
  8
0
  6
Continuous
 62
     7
370
    25
100
AcDbCircle
 10
797.6051829641
 20
543.8288938271
 30
0.0
 40
3.000000000000015
  0
CIRCLE
  5
1F5
330
1F
100
AcDbEntity
  8
0
  6
Continuous
 62
     7
370
    25
100
AcDbCircle
 10
797.6051829641
 20
467.8288938271
 30
0.0
 40
2.458750000016599
  0
CIRCLE
  5
1F6
330
1F
100
AcDbEntity
  8
0
  6
Continuous
 62
     7
370
    25
100
AcDbCircle
 10
797.6051829641
 20
467.8288938271
 30
0.0
 40
2.999999999999912
  0
ARC
  5
1F7
330
1F
100
AcDbEntity
  8
0
  6
Continuous
 62
     7
370
    25
100
AcDbCircle
 10
664.2433501725
 20
623.2716194875
 30
0.0
 40
0.5000000000001137
100
AcDbArc
 50
180.0
 51
0.0
  0
ARC
  5
1F8
330
1F
100
AcDbEntity
  8
0
  6
Continuous
 62
     7
370
    25
100
AcDbCircle
 10
664.2433501725
 20
634.8716194877
 30
0.0
 40
0.5000000000001137
100
AcDbArc
 50
0.0
 51
180.0
  0
LINE
  5
1F9
330
1F
100
AcDbEntity
  8
0
  6
Continuous
 62
     7
370
    25
100
AcDbLine
 10
659.9709316097
 20
634.4658020997
 30
0.0
 11
659.7433501725
 21
634.0716194876
 31
0.0
  0
LINE
  5
1FA
330
1F
100
AcDbEntity
  8
0
  6
Continuous
 62
     7
370
    25
100
AcDbLine
 10
674.2021001725
 20
626.0716194876
 30
0.0
 11
674.7433501725
 21
626.6128694876
 31
0.0
  0
LINE
  5
1FB
330
1F
100
AcDbEntity
  8
0
  6
Continuous
 62
     7
370
    25
100
AcDbLine
 10
674.7433501725
 20
631.5303694876
 30
0.0
 11
674.2021001725
 21
632.0716194876
 31
0.0
  0
LINE
  5
1FC
330
1F
100
AcDbEntity
  8
0
  6
Continuous
 62
     7
370
    25
100
AcDbLine
 10
674.2021001725
 20
632.0716194876
 30
0.0
 11
666.7433501725
 21
632.0716194876
 31
0.0
  0
LINE
  5
1FD
330
1F
100
AcDbEntity
  8
0
  6
Continuous
 62
     7
370
    25
100
AcDbLine
 10
666.7433501725
 20
626.0716194876
 30
0.0
 11
674.2021001725
 21
626.0716194876
 31
0.0
  0
LINE
  5
1FE
330
1F
100
AcDbEntity
  8
0
  6
Continuous
 62
     7
370
    25
100
AcDbLine
 10
659.7433501725
 20
624.0716194876
 30
0.0
 11
659.9709316097
 21
623.6774368755
 31
0.0
  0
LINE
  5
1FF
330
1F
100
AcDbEntity
  8
0
  6
Continuous
 62
     7
370
    25
100
AcDbLine
 10
651.3748974581
 20
647.1716194876
 30
0.0
 11
651.3748974581
 21
643.1716194876
 31
0.0
  0
LINE
  5
200
330
1F
100
AcDbEntity
  8
0
  6
Continuous
 62
     7
370
    25
100
AcDbLine
 10
651.3748974581
 20
643.1716194876
 30
0.0
 11
651.8748974581
 21
642.6716194876
 31
0.0
  0
LINE
  5
201
330
1F
100
AcDbEntity
  8
0
  6
Continuous
 62
     7
370
    25
100
AcDbLine
 10
657.1547342479
 20
643.1716194876
 30
0.0
 11
657.1547342479
 21
647.1716194876
 31
0.0
  0
LINE
  5
202
330
1F
100
AcDbEntity
  8
0
  6
Continuous
 62
     7
370
    25
100
AcDbLine
 10
656.6547342479
 20
642.6716194876
 30
0.0
 11
657.1547342479
 21
643.1716194876
 31
0.0
  0
LINE
  5
203
330
1F
100
AcDbEntity
  8
0
  6
Continuous
 62
     7
370
    25
100
AcDbLine
 10
651.4312394199
 20
643.1716194876
 30
0.0
 11
651.9312394199
 21
642.6716194876
 31
0.0
  0
LINE
  5
204
330
1F
100
AcDbEntity
  8
0
  6
Continuous
 62
     7
370
    25
100
AcDbLine
 10
651.4312394199
 20
647.1716194876
 30
0.0
 11
651.4312394199
 21
643.1716194876
 31
0.0
  0
LINE
  5
205
330
1F
100
AcDbEntity
  8
0
  6
Continuous
 62
     7
370
    25
100
AcDbLine
 10
173.5812351183
 20
642.6716194876
 30
0.0
 11
174.0812351183
 21
643.1716194876
 31
0.0
  0
LINE
  5
206
330
1F
100
AcDbEntity
  8
0
  6
Continuous
 62
     7
370
    25
100
AcDbLine
 10
174.0812351183
 20
643.1716194876
 30
0.0
 11
174.0812351183
 21
647.1716194876
 31
0.0
  0
LINE
  5
207
330
1F
100
AcDbEntity
  8
0
  6
Continuous
 62
     7
370
    25
100
AcDbLine
 10
168.351690434
 20
643.1716194876
 30
0.0
 11
168.851690434
 21
642.6716194876
 31
0.0
  0
LINE
  5
208
330
1F
100
AcDbEntity
  8
0
  6
Continuous
 62
     7
370
    25
100
AcDbLine
 10
168.351690434
 20
647.1716194876
 30
0.0
 11
168.351690434
 21
643.1716194876
 31
0.0
  0
LINE
  5
209
330
1F
100
AcDbEntity
  8
0
  6
Continuous
 62
     7
370
    25
100
AcDbLine
 10
674.4021001725
 20
632.0716194876
 30
0.0
 11
674.2021001725
 21
632.0716194876
 31
0.0
  0
LINE
  5
20A
330
1F
100
AcDbEntity
  8
0
  6
Continuous
 62
     7
370
    25
100
AcDbLine
 10
674.2021001725
 20
626.0716194876
 30
0.0
 11
674.4021001725
 21
626.0716194876
 31
0.0
  0
LINE
  5
20B
330
1F
100
AcDbEntity
  8
0
  6
Continuous
 62
     7
370
    25
100
AcDbLine
 10
674.4021001725
 20
626.0716194876
 30
0.0
 11
674.9433501725
 21
626.6128694876
 31
0.0
  0
LINE
  5
20C
330
1F
100
AcDbEntity
  8
0
  6
Continuous
 62
     7
370
    25
100
AcDbLine
 10
674.9433501725
 20
631.5303694876
 30
0.0
 11
674.4021001725
 21
632.0716194876
 31
0.0
  0
LINE
  5
20D
330
1F
100
AcDbEntity
  8
0
  6
Continuous
 62
     7
370
    25
100
AcDbLine
 10
151.0846001725
 20
626.0716194876
 30
0.0
 11
151.2846001725
 21
626.0716194876
 31
0.0
  0
LINE
  5
20E
330
1F
100
AcDbEntity
  8
0
  6
Continuous
 62
     7
370
    25
100
AcDbLine
 10
151.2846001725
 20
632.0716194876
 30
0.0
 11
151.0846001725
 21
632.0716194876
 31
0.0
  0
LINE
  5
20F
330
1F
100
AcDbEntity
  8
0
  6
Continuous
 62
     7
370
    25
100
AcDbLine
 10
151.0846001725
 20
632.0716194876
 30
0.0
 11
150.5433501725
 21
631.5303694876
 31
0.0
  0
LINE
  5
210
330
1F
100
AcDbEntity
  8
0
  6
Continuous
 62
     7
370
    25
100
AcDbLine
 10
150.5433501725
 20
626.6128694876
 30
0.0
 11
151.0846001725
 21
626.0716194876
 31
0.0
  0
ARC
  5
211
330
1F
100
AcDbEntity
  8
0
  6
Continuous
 62
     7
370
    25
100
AcDbCircle
 10
161.2433501725
 20
634.8716194877
 30
0.0
 40
0.5
100
AcDbArc
 50
0.0
 51
180.0
  0
ARC
  5
212
330
1F
100
AcDbEntity
  8
0
  6
Continuous
 62
     7
370
    25
100
AcDbCircle
 10
161.2433501725
 20
623.2716194875
 30
0.0
 40
0.5
100
AcDbArc
 50
180.0
 51
0.0
  0
LINE
  5
213
330
1F
100
AcDbEntity
  8
0
  6
Continuous
 62
     7
370
    25
100
AcDbLine
 10
151.2846001725
 20
626.0716194876
 30
0.0
 11
158.7433501725
 21
626.0716194876
 31
0.0
  0
LINE
  5
214
330
1F
100
AcDbEntity
  8
0
  6
Continuous
 62
     7
370
    25
100
AcDbLine
 10
158.7433501725
 20
632.0716194876
 30
0.0
 11
151.2846001725
 21
632.0716194876
 31
0.0
  0
LINE
  5
215
330
1F
100
AcDbEntity
  8
0
  6
Continuous
 62
     7
370
    25
100
AcDbLine
 10
151.2846001725
 20
632.0716194876
 30
0.0
 11
150.7433501725
 21
631.5303694876
 31
0.0
  0
LINE
  5
216
330
1F
100
AcDbEntity
  8
0
  6
Continuous
 62
     7
370
    25
100
AcDbLine
 10
150.7433501725
 20
626.6128694876
 30
0.0
 11
151.2846001725
 21
626.0716194876
 31
0.0
  0
LINE
  5
217
330
1F
100
AcDbEntity
  8
0
  6
Continuous
 62
     7
370
    25
100
AcDbLine
 10
165.7433501725
 20
634.0716194876
 30
0.0
 11
165.4138670767
 21
634.6423009497
 31
0.0
  0
LINE
  5
218
330
1F
100
AcDbEntity
  8
0
  6
Continuous
 62
     7
370
    25
100
AcDbLine
 10
165.4138670767
 20
623.5009380255
 30
0.0
 11
165.7433501725
 21
624.0716194876
 31
0.0
  0
LINE
  5
219
330
1F
100
AcDbEntity
  8
0
  6
Continuous
 62
     7
370
    25
100
AcDbLine
 10
158.2433501725
 20
652.2716194876
 30
0.0
 11
161.1827378638
 21
652.2716194876
 31
0.0
  0
LINE
  5
21A
330
1F
100
AcDbEntity
  8
0
  6
Continuous
 62
     7
370
    25
100
AcDbLine
 10
664.3039624811
 20
652.2716194876
 30
0.0
 11
667.2433501725
 21
652.2716194876
 31
0.0
  0
LINE
  5
21B
330
1F
100
AcDbEntity
  8
0
  6
Continuous
 62
     7
370
    25
100
AcDbLine
 10
152.2433501725
 20
652.2716194876
 30
0.0
 11
158.2433501725
 21
652.2716194876
 31
0.0
  0
LINE
  5
21C
330
1F
100
AcDbEntity
  8
0
  6
Continuous
 62
     7
370
    25
100
AcDbLine
 10
667.2433501725
 20
652.2716194876
 30
0.0
 11
673.2433501725
 21
652.2716194876
 31
0.0
  0
SPLINE
  5
21D
330
1F
100
AcDbEntity
  8
0
  6
Continuous
 62
     7
370
    25
100
AcDbSpline
210
0.0
220
0.0
230
1.0
 70
    24
 71
     3
 72
    19
 73
    15
 74
     0
 42
0.000000001
 43
0.00000001
 40
0.0
 40
0.0
 40
0.0
 40
0.0
 40
0.1260638187928854
 40
0.1939261817305609
 40
0.2632286813759837
 40
0.3325311810214082
 40
0.4003935439590837
 40
0.5264573627519686
 40
0.6525211815448528
 40
0.7203835444825296
 40
0.7896860441279531
 40
0.8589885437733759
 40
0.9268509067110525
 40
1.0
 40
1.0
 40
1.0
 40
1.0
 10
663.7433501724774
 20
634.7990078429664
 30
0.0
 10
663.7433501724774
 20
634.6074199320301
 30
0.0
 10
663.7433501724774
 20
634.3126968910387
 30
0.0
 10
663.7433501724774
 20
633.3854423681981
 30
0.0
 10
663.7433501724774
 20
632.4998863276656
 30
0.0
 10
663.7433501724774
 20
631.4634851181304
 30
0.0
 10
663.7433501724773
 20
630.019531745481
 30
0.0
 10
663.7433501724774
 20
628.1347041627724
 30
0.0
 10
663.7433501724774
 20
626.3616939609458
 30
0.0
 10
663.7433501724774
 20
625.1393903392056
 30
0.0
 10
663.7433501724774
 20
624.3387036239875
 30
0.0
 10
663.7433501724774
 20
623.7532130412144
 30
0.0
 10
663.7433501724774
 20
623.3253269026615
 30
0.0
 10
663.7433501724774
 20
623.3558391545641
 30
0.0
 10
663.7433501724774
 20
623.3716672554903
 30
0.0
  0
LINE
  5
21E
330
1F
100
AcDbEntity
  8
0
  6
Continuous
 62
     7
370
    25
100
AcDbLine
 10
659.7433501725
 20
632.953187668
 30
0.0
 11
659.7433501725
 21
628.2829216955
 31
0.0
  0
SPLINE
  5
21F
330
1F
100
AcDbEntity
  8
0
  6
Continuous
 62
     7
370
    25
100
AcDbSpline
210
0.0
220
0.0
230
1.0
 70
     8
 71
     3
 72
     8
 73
     4
 74
     0
 42
0.000000001
 43
0.00000001
 40
0.0
 40
0.0
 40
0.0
 40
0.0
 40
1.0
 40
1.0
 40
1.0
 40
1.0
 10
659.7433501724845
 20
632.953187668
 30
0.0
 10
659.7433501724845
 20
632.3321199917807
 30
0.0
 10
659.917665472864
 20
631.7280506712922
 30
0.0
 10
660.1899321598759
 20
631.133533079827
 30
0.0
  0
SPLINE
  5
220
330
1F
100
AcDbEntity
  8
0
  6
Continuous
 62
     7
370
    25
100
AcDbSpline
210
0.0
220
0.0
230
1.0
 70
     8
 71
     3
 72
     8
 73
     4
 74
     0
 42
0.000000001
 43
0.00000001
 40
0.0
 40
0.0
 40
0.0
 40
0.0
 40
1.0
 40
1.0
 40
1.0
 40
1.0
 10
660.1899321598759
 20
631.1335330798207
 30
0.0
 10
659.9176654728644
 20
630.2021812587643
 30
0.0
 10
659.7433501724846
 20
629.2558660113083
 30
0.0
 10
659.7433501724846
 20
628.2829216955304
 30
0.0
  0
SPLINE
  5
221
330
1F
100
AcDbEntity
  8
0
  6
Continuous
 62
     7
370
    25
100
AcDbSpline
210
0.0
220
0.0
230
1.0
 70
     8
 71
     3
 72
     8
 73
     4
 74
     0
 42
0.000000001
 43
0.00000001
 40
0.0
 40
0.0
 40
0.0
 40
0.0
 40
1.0
 40
1.0
 40
1.0
 40
1.0
 10
659.7433501724846
 20
628.2829216955304
 30
0.0
 10
659.7433501724846
 20
627.3099773797506
 30
0.0
 10
659.917665472864
 20
626.3636621322983
 30
0.0
 10
660.1899321598759
 20
625.4323103112401
 30
0.0
  0
LINE
  5
222
330
1F
100
AcDbEntity
  8
0
  6
Continuous
 62
     7
370
    25
100
AcDbLine
 10
663.7433501725
 20
631.1335330798
 30
0.0
 11
660.1899321599
 21
631.1335330798
 31
0.0
  0
LINE
  5
223
330
1F
100
AcDbEntity
  8
0
  6
Continuous
 62
     7
370
    25
100
AcDbLine
 10
663.7433501725
 20
625.4323103112
 30
0.0
 11
660.1899321599
 21
625.4323103112
 31
0.0
  0
SPLINE
  5
224
330
1F
100
AcDbEntity
  8
0
  6
Continuous
 62
     7
370
    25
100
AcDbSpline
210
0.0
220
0.0
230
1.0
 70
     8
 71
     3
 72
     8
 73
     4
 74
     0
 42
0.000000001
 43
0.00000001
 40
0.0
 40
0.0
 40
0.0
 40
0.0
 40
1.0
 40
1.0
 40
1.0
 40
1.0
 10
660.1899321598759
 20
634.7728422561731
 30
0.0
 10
659.9176654728644
 20
634.178324664709
 30
0.0
 10
659.7433501724845
 20
633.5742553442182
 30
0.0
 10
659.7433501724845
 20
632.953187668
 30
0.0
  0
LINE
  5
225
330
1F
100
AcDbEntity
  8
0
  6
Continuous
 62
     7
370
    25
100
AcDbLine
 10
663.7433501725
 20
634.7728422562
 30
0.0
 11
660.1899321599
 21
634.7728422562
 31
0.0
  0
LINE
  5
226
330
1F
100
AcDbEntity
  8
0
  6
Continuous
 62
     7
370
    25
100
AcDbLine
 10
659.7433501725
 20
628.2829216955
 30
0.0
 11
659.7433501725
 21
624.4013535151
 31
0.0
  0
SPLINE
  5
227
330
1F
100
AcDbEntity
  8
0
  6
Continuous
 62
     7
370
    25
100
AcDbSpline
210
0.0
220
0.0
230
1.0
 70
     8
 71
     3
 72
     8
 73
     4
 74
     0
 42
0.000000001
 43
0.00000001
 40
0.0
 40
0.0
 40
0.0
 40
0.0
 40
1.0
 40
1.0
 40
1.0
 40
1.0
 10
660.1899321598759
 20
625.432310311235
 30
0.0
 10
659.9176654728644
 20
625.0954760816427
 30
0.0
 10
659.7433501724844
 20
624.7532301546773
 30
0.0
 10
659.7433501724844
 20
624.4013535151175
 30
0.0
  0
SPLINE
  5
228
330
1F
100
AcDbEntity
  8
0
  6
Continuous
 62
     7
370
    25
100
AcDbSpline
210
0.0
220
0.0
230
1.0
 70
     8
 71
     3
 72
     8
 73
     4
 74
     0
 42
0.000000001
 43
0.00000001
 40
0.0
 40
0.0
 40
0.0
 40
0.0
 40
1.0
 40
1.0
 40
1.0
 40
1.0
 10
659.7433501724844
 20
624.4013535151175
 30
0.0
 10
659.7433501724844
 20
624.049476875557
 30
0.0
 10
659.9176654728639
 20
623.707230948593
 30
0.0
 10
660.1899321598759
 20
623.3703967189999
 30
0.0
  0
LINE
  5
229
330
1F
100
AcDbEntity
  8
0
  6
Continuous
 62
     7
370
    25
100
AcDbLine
 10
663.7433501725
 20
623.370396719
 30
0.0
 11
660.1899321599
 21
623.370396719
 31
0.0
  0
LINE
  5
22A
330
1F
100
AcDbEntity
  8
0
  6
Continuous
 62
     7
370
    25
100
AcDbLine
 10
660.0397259296
 20
634.4260836805
 30
0.0
 11
660.1899321599
 21
634.7728422562
 31
0.0
  0
LINE
  5
22B
330
1F
100
AcDbEntity
  8
0
  6
Continuous
 62
     7
370
    25
100
AcDbLine
 10
659.7433501725
 20
634.0716194876
 30
0.0
 11
659.7433501725
 21
632.953187668
 31
0.0
  0
LINE
  5
22C
330
1F
100
AcDbEntity
  8
0
  6
Continuous
 62
     7
370
    25
100
AcDbLine
 10
674.7433501725
 20
628.6837773483
 30
0.0
 11
674.7433501725
 21
631.5303694876
 31
0.0
  0
LINE
  5
22D
330
1F
100
AcDbEntity
  8
0
  6
Continuous
 62
     7
370
    25
100
AcDbLine
 10
674.7433501725
 20
626.6128694876
 30
0.0
 11
674.7433501725
 21
628.6837773483
 31
0.0
  0
LINE
  5
22E
330
1F
100
AcDbEntity
  8
0
  6
Continuous
 62
     7
370
    25
100
AcDbLine
 10
674.2021001725
 20
626.0716194876
 30
0.0
 11
674.2021001725
 21
632.0716194876
 31
0.0
  0
LINE
  5
22F
330
1F
100
AcDbEntity
  8
0
  6
Continuous
 62
     7
370
    25
100
AcDbLine
 10
659.7433501725
 20
624.4013535151
 30
0.0
 11
659.7433501725
 21
624.0716194876
 31
0.0
  0
LINE
  5
230
330
1F
100
AcDbEntity
  8
0
  6
Continuous
 62
     7
370
    25
100
AcDbLine
 10
175.9933501725
 20
647.1716194876
 30
0.0
 11
166.4933501725
 21
647.1716194876
 31
0.0
  0
LINE
  5
231
330
1F
100
AcDbEntity
  8
0
  6
Continuous
 62
     7
370
    25
100
AcDbLine
 10
166.4933501725
 20
647.1716194876
 30
0.0
 11
166.4933501725
 21
647.6716194876
 31
0.0
  0
LINE
  5
232
330
1F
100
AcDbEntity
  8
0
  6
Continuous
 62
     7
370
    25
100
AcDbLine
 10
175.9933501725
 20
647.6716194876
 30
0.0
 11
175.9933501725
 21
647.1716194876
 31
0.0
  0
ARC
  5
233
330
1F
100
AcDbEntity
  8
0
  6
Continuous
 62
     7
370
    25
100
AcDbCircle
 10
176.7567501725
 20
648.4082194876
 30
0.0
 40
1.236600000000067
100
AcDbArc
 50
270.0
 51
323.4399088994
  0
ARC
  5
234
330
1F
100
AcDbEntity
  8
0
  6
Continuous
 62
     7
370
    25
100
AcDbCircle
 10
165.7299501725
 20
648.4082194876
 30
0.0
 40
1.236599999999997
100
AcDbArc
 50
216.5600911006
 51
270.0
  0
LINE
  5
235
330
1F
100
AcDbEntity
  8
0
  6
Continuous
 62
     7
370
    25
100
AcDbLine
 10
166.4933501725
 20
647.1716194876
 30
0.0
 11
165.7299501725
 21
647.1716194876
 31
0.0
  0
LINE
  5
236
330
1F
100
AcDbEntity
  8
0
  6
Continuous
 62
     7
370
    25
100
AcDbLine
 10
176.7567501725
 20
647.1716194876
 30
0.0
 11
175.9933501725
 21
647.1716194876
 31
0.0
  0
ARC
  5
237
330
1F
100
AcDbEntity
  8
0
  6
Continuous
 62
     7
370
    25
100
AcDbCircle
 10
158.2433501725
 20
651.6716194876
 30
0.0
 40
3.0
100
AcDbArc
 50
0.0
 51
90.0
  0
LINE
  5
238
330
1F
100
AcDbEntity
  8
0
  6
Continuous
 62
     7
370
    25
100
AcDbLine
 10
146.2433501725
 20
654.6716194876
 30
0.0
 11
158.2433501725
 21
654.6716194876
 31
0.0
  0
ARC
  5
239
330
1F
100
AcDbEntity
  8
0
  6
Continuous
 62
     7
370
    25
100
AcDbCircle
 10
146.2433501725
 20
651.6716194876
 30
0.0
 40
3.0
100
AcDbArc
 50
90.0
 51
180.0
  0
LINE
  5
23A
330
1F
100
AcDbEntity
  8
0
  6
Continuous
 62
     7
370
    25
100
AcDbLine
 10
143.2433501725
 20
650.6716194876
 30
0.0
 11
143.2433501725
 21
651.6716194876
 31
0.0
  0
ARC
  5
23B
330
1F
100
AcDbEntity
  8
0
  6
Continuous
 62
     7
370
    25
100
AcDbCircle
 10
140.2433501725
 20
650.6716194876
 30
0.0
 40
3.0
100
AcDbArc
 50
270.0
 51
0.0
  0
LINE
  5
23C
330
1F
100
AcDbEntity
  8
0
  6
Continuous
 62
     7
370
    25
100
AcDbLine
 10
116.7140608506
 20
647.6716194876
 30
0.0
 11
140.2433501725
 21
647.6716194876
 31
0.0
  0
LINE
  5
23D
330
1F
100
AcDbEntity
  8
0
  6
Continuous
 62
     7
370
    25
100
AcDbLine
 10
116.7140608506
 20
657.2716194876
 30
0.0
 11
116.7140608506
 21
647.6716194876
 31
0.0
  0
LINE
  5
23E
330
1F
100
AcDbEntity
  8
0
  6
Continuous
 62
     7
370
    25
100
AcDbLine
 10
708.7726394944
 20
657.2716194876
 30
0.0
 11
708.7726394944
 21
647.6716194876
 31
0.0
  0
LINE
  5
23F
330
1F
100
AcDbEntity
  8
0
  6
Continuous
 62
     7
370
    25
100
AcDbLine
 10
685.2433501725
 20
647.6716194876
 30
0.0
 11
708.7726394944
 21
647.6716194876
 31
0.0
  0
ARC
  5
240
330
1F
100
AcDbEntity
  8
0
  6
Continuous
 62
     7
370
    25
100
AcDbCircle
 10
685.2433501725
 20
650.6716194876
 30
0.0
 40
3.0
100
AcDbArc
 50
180.0
 51
270.0
  0
LINE
  5
241
330
1F
100
AcDbEntity
  8
0
  6
Continuous
 62
     7
370
    25
100
AcDbLine
 10
682.2433501725
 20
650.6716194876
 30
0.0
 11
682.2433501725
 21
651.6716194876
 31
0.0
  0
ARC
  5
242
330
1F
100
AcDbEntity
  8
0
  6
Continuous
 62
     7
370
    25
100
AcDbCircle
 10
679.2433501725
 20
651.6716194876
 30
0.0
 40
3.0
100
AcDbArc
 50
0.0
 51
90.0
  0
LINE
  5
243
330
1F
100
AcDbEntity
  8
0
  6
Continuous
 62
     7
370
    25
100
AcDbLine
 10
679.2433501725
 20
654.6716194876
 30
0.0
 11
667.2433501725
 21
654.6716194876
 31
0.0
  0
ARC
  5
244
330
1F
100
AcDbEntity
  8
0
  6
Continuous
 62
     7
370
    25
100
AcDbCircle
 10
667.2433501725
 20
651.6716194876
 30
0.0
 40
3.0
100
AcDbArc
 50
90.0
 51
180.0
  0
LINE
  5
245
330
1F
100
AcDbEntity
  8
0
  6
Continuous
 62
     7
370
    25
100
AcDbLine
 10
664.2433501725
 20
650.6716194876
 30
0.0
 11
664.2433501725
 21
651.6716194876
 31
0.0
  0
ARC
  5
246
330
1F
100
AcDbEntity
  8
0
  6
Continuous
 62
     7
370
    25
100
AcDbCircle
 10
661.2433501725
 20
650.6716194876
 30
0.0
 40
3.0
100
AcDbArc
 50
270.0
 51
0.0
  0
LINE
  5
247
330
1F
100
AcDbEntity
  8
0
  6
Continuous
 62
     7
370
    25
100
AcDbLine
 10
164.2433501725
 20
647.6716194876
 30
0.0
 11
661.2433501725
 21
647.6716194876
 31
0.0
  0
LINE
  5
248
330
1F
100
AcDbEntity
  8
0
  6
Continuous
 62
     7
370
    25
100
AcDbLine
 10
161.2433501725
 20
650.6716194876
 30
0.0
 11
161.2433501725
 21
651.6716194876
 31
0.0
  0
ARC
  5
249
330
1F
100
AcDbEntity
  8
0
  6
Continuous
 62
     7
370
    25
100
AcDbCircle
 10
164.2433501725
 20
650.6716194876
 30
0.0
 40
3.0
100
AcDbArc
 50
180.0
 51
270.0
  0
SPLINE
  5
24A
330
1F
100
AcDbEntity
  8
0
  6
Continuous
 62
     7
370
    25
100
AcDbSpline
210
0.0
220
0.0
230
1.0
 70
     8
 71
     3
 72
    20
 73
    16
 74
     0
 42
0.000000001
 43
0.00000001
 40
0.0
 40
0.0
 40
0.0
 40
0.0
 40
0.125
 40
0.125
 40
0.2500000000000001
 40
0.2500000000000001
 40
0.3750000000000001
 40
0.3750000000000001
 40
0.5000000000000001
 40
0.5000000000000001
 40
0.7500000000000002
 40
0.7500000000000002
 40
0.8750000000000002
 40
0.8750000000000002
 40
1.0
 40
1.0
 40
1.0
 40
1.0
 10
707.8433501724775
 20
659.671619487587
 30
0.0
 10
707.8823909033321
 20
659.671619487587
 30
0.0
 10
707.9209096075318
 20
659.656082927112
 30
0.0
 10
707.9983163588399
 20
659.5947645751515
 30
0.0
 10
708.0374607768265
 20
659.5483408295647
 30
0.0
 10
708.1146115307419
 20
659.4283899594105
 30
0.0
 10
708.1529391124827
 20
659.3547853151273
 30
0.0
 10
708.2304854329592
 20
659.1800549490315
 30
0.0
 10
708.269461640628
 20
659.07920432013
 30
0.0
 10
708.384956497073
 20
658.747919040146
 30
0.0
 10
708.462868940743
 20
658.4802388787622
 30
0.0
 10
708.5783488661438
 20
658.0475648527067
 30
0.0
 10
708.6172146620089
 20
657.8960467658557
 30
0.0
 10
708.6949889956772
 20
657.5866210084696
 30
0.0
 10
708.7335987626321
 20
657.4299986787757
 30
0.0
 10
708.7726394943587
 20
657.2716194875869
 30
0.0
  0
LINE
  5
24B
330
1F
100
AcDbEntity
  8
0
  6
Continuous
 62
     7
370
    25
100
AcDbLine
 10
117.6433501725
 20
659.6716194876
 30
0.0
 11
707.8433501725
 21
659.6716194876
 31
0.0
  0
SPLINE
  5
24C
330
1F
100
AcDbEntity
  8
0
  6
Continuous
 62
     7
370
    25
100
AcDbSpline
210
0.0
220
0.0
230
1.0
 70
     8
 71
     3
 72
    20
 73
    16
 74
     0
 42
0.000000001
 43
0.00000001
 40
0.0
 40
0.0
 40
0.0
 40
0.0
 40
0.1249999999999937
 40
0.1249999999999937
 40
0.2499999999999875
 40
0.2499999999999875
 40
0.3749999999999812
 40
0.3749999999999812
 40
0.4999999999999749
 40
0.4999999999999749
 40
0.7499999999999875
 40
0.7499999999999875
 40
0.8749999999999937
 40
0.8749999999999937
 40
1.0
 40
1.0
 40
1.0
 40
1.0
 10
116.7140608505962
 20
657.271619487587
 30
0.0
 10
116.7531015814507
 20
657.4299986752378
 30
0.0
 10
116.7916202856505
 20
657.5862443999295
 30
0.0
 10
116.8690270369584
 20
657.894236249346
 30
0.0
 10
116.9081714549451
 20
658.0468803568173
 30
0.0
 10
116.9853222088603
 20
658.3359646460043
 30
0.0
 10
117.0236497906011
 20
658.4737691841883
 30
0.0
 10
117.1011961110778
 20
658.7353878598271
 30
0.0
 10
117.1401723187466
 20
658.8581341665098
 30
0.0
 10
117.2556671751914
 20
659.1894585434575
 30
0.0
 10
117.3335796188618
 20
659.3684696674858
 30
0.0
 10
117.4490595442624
 20
659.5480847668666
 30
0.0
 10
117.4879253401276
 20
659.5943291157344
 30
0.0
 10
117.565699673796
 20
659.6560824217455
 30
0.0
 10
117.6043094407508
 20
659.671619487587
 30
0.0
 10
117.6433501724775
 20
659.671619487587
 30
0.0
  0
LINE
  5
24D
330
1F
100
AcDbEntity
  8
0
  6
Continuous
 62
     7
370
    25
100
AcDbLine
 10
710.2433501725
 20
657.2716194876
 30
0.0
 11
708.8433501725
 21
657.2716194876
 31
0.0
  0
SPLINE
  5
24E
330
1F
100
AcDbEntity
  8
0
  6
Continuous
 62
     7
370
    25
100
AcDbSpline
210
0.0
220
0.0
230
1.0
 70
     8
 71
     3
 72
     9
 73
     5
 74
     0
 42
0.000000001
 43
0.00000001
 40
0.0
 40
0.0
 40
0.0
 40
0.0
 40
0.6784508005727087
 40
1.0
 40
1.0
 40
1.0
 40
1.0
 10
708.8433501724775
 20
657.2716194875869
 30
0.0
 10
708.830100602013
 20
657.4223266920403
 30
0.0
 10
708.8105714475728
 20
657.6444610079349
 30
0.0
 10
708.6697237939339
 20
657.811294112824
 30
0.0
 10
708.624434343665
 20
657.8649391641392
 30
0.0
  0
SPLINE
  5
24F
330
1F
100
AcDbEntity
  8
0
  6
Continuous
 62
     7
370
    25
100
AcDbSpline
210
0.0
220
0.0
230
1.0
 70
     8
 71
     3
 72
    20
 73
    16
 74
     0
 42
0.000000001
 43
0.00000001
 40
0.0
 40
0.0
 40
0.0
 40
0.0
 40
0.125
 40
0.125
 40
0.25
 40
0.25
 40
0.375
 40
0.375
 40
0.5
 40
0.5
 40
0.75
 40
0.75
 40
0.875
 40
0.875
 40
1.0
 40
1.0
 40
1.0
 40
1.0
 10
710.2433501724774
 20
657.271619487587
 30
0.0
 10
710.2433501724776
 20
657.4299986752377
 30
0.0
 10
710.2278136120026
 20
657.5862443999295
 30
0.0
 10
710.166495260042
 20
657.8942362493459
 30
0.0
 10
710.1200715144553
 20
658.0468803568172
 30
0.0
 10
710.0001206443011
 20
658.3359646460042
 30
0.0
 10
709.9265160000176
 20
658.4737691841882
 30
0.0
 10
709.7517856339222
 20
658.7353878598273
 30
0.0
 10
709.6509350050204
 20
658.8581341665099
 30
0.0
 10
709.3196497250365
 20
659.1894585434575
 30
0.0
 10
709.0519695636528
 20
659.3684696674858
 30
0.0
 10
708.6192955375974
 20
659.5480847668666
 30
0.0
 10
708.4677774507461
 20
659.5943291157344
 30
0.0
 10
708.1583516933599
 20
659.6560824217455
 30
0.0
 10
708.0017293636662
 20
659.671619487587
 30
0.0
 10
707.8433501724775
 20
659.671619487587
 30
0.0
  0
SPLINE
  5
250
330
1F
100
AcDbEntity
  8
0
  6
Continuous
 62
     7
370
    25
100
AcDbSpline
210
0.0
220
0.0
230
1.0
 70
     8
 71
     3
 72
     9
 73
     5
 74
     0
 42
0.000000001
 43
0.00000001
 40
0.0
 40
0.0
 40
0.0
 40
0.0
 40
0.4825784287292219
 40
1.0
 40
1.0
 40
1.0
 40
1.0
 10
116.8671799405311
 20
657.8841592267652
 30
0.0
 10
116.8033717474697
 20
657.7960248854488
 30
0.0
 10
116.6711482802306
 20
657.6133927243957
 30
0.0
 10
116.6528289757741
 20
657.3881598403511
 30
0.0
 10
116.6433501724775
 20
657.2716194875869
 30
0.0
  0
LINE
  5
251
330
1F
100
AcDbEntity
  8
0
  6
Continuous
 62
     7
370
    25
100
AcDbLine
 10
115.2433501725
 20
657.2716194876
 30
0.0
 11
116.6433501725
 21
657.2716194876
 31
0.0
  0
SPLINE
  5
252
330
1F
100
AcDbEntity
  8
0
  6
Continuous
 62
     7
370
    25
100
AcDbSpline
210
0.0
220
0.0
230
1.0
 70
     8
 71
     3
 72
    20
 73
    16
 74
     0
 42
0.000000001
 43
0.00000001
 40
0.0
 40
0.0
 40
0.0
 40
0.0
 40
0.1249999999999927
 40
0.1249999999999927
 40
0.2499999999999854
 40
0.2499999999999854
 40
0.3749999999999781
 40
0.3749999999999781
 40
0.4999999999999708
 40
0.4999999999999708
 40
0.7499999999999909
 40
0.7499999999999909
 40
0.8749999999999956
 40
0.8749999999999956
 40
1.0
 40
1.0
 40
1.0
 40
1.0
 10
117.6433501724775
 20
659.671619487587
 30
0.0
 10
117.4849709848267
 20
659.671619487587
 30
0.0
 10
117.328725260135
 20
659.6560829271122
 30
0.0
 10
117.0207334107184
 20
659.5947645751515
 30
0.0
 10
116.8680893032474
 20
659.5483408295647
 30
0.0
 10
116.5790050140604
 20
659.4283899594105
 30
0.0
 10
116.4412004758764
 20
659.3547853151272
 30
0.0
 10
116.1795818002376
 20
659.1800549490315
 30
0.0
 10
116.0568354935546
 20
659.07920432013
 30
0.0
 10
115.7255111166069
 20
658.747919040146
 30
0.0
 10
115.5464999925787
 20
658.4802388787622
 30
0.0
 10
115.3668848931978
 20
658.0475648527067
 30
0.0
 10
115.3206405443302
 20
657.8960467658557
 30
0.0
 10
115.2588872383189
 20
657.5866210084696
 30
0.0
 10
115.2433501724775
 20
657.4299986787757
 30
0.0
 10
115.2433501724775
 20
657.271619487587
 30
0.0
  0
LINE
  5
253
330
1F
100
AcDbEntity
  8
0
  6
Continuous
 62
     7
370
    25
100
AcDbLine
 10
115.2433501725
 20
647.6716194876
 30
0.0
 11
116.6433501725
 21
647.6716194876
 31
0.0
  0
LINE
  5
254
330
1F
100
AcDbEntity
  8
0
  6
Continuous
 62
     7
370
    25
100
AcDbLine
 10
115.2433501725
 20
657.2716194876
 30
0.0
 11
115.2433501725
 21
647.6716194876
 31
0.0
  0
LINE
  5
255
330
1F
100
AcDbEntity
  8
0
  6
Continuous
 62
     7
370
    25
100
AcDbLine
 10
116.6433501725
 20
657.2716194876
 30
0.0
 11
116.6433501725
 21
647.6716194876
 31
0.0
  0
LINE
  5
256
330
1F
100
AcDbEntity
  8
0
  6
Continuous
 62
     7
370
    25
100
AcDbLine
 10
708.8433501725
 20
657.2716194876
 30
0.0
 11
708.8433501725
 21
647.6716194876
 31
0.0
  0
LINE
  5
257
330
1F
100
AcDbEntity
  8
0
  6
Continuous
 62
     7
370
    25
100
AcDbLine
 10
710.2433501725
 20
657.2716194876
 30
0.0
 11
710.2433501725
 21
647.6716194876
 31
0.0
  0
LINE
  5
258
330
1F
100
AcDbEntity
  8
0
  6
Continuous
 62
     7
370
    25
100
AcDbLine
 10
710.2433501725
 20
647.6716194876
 30
0.0
 11
708.8433501725
 21
647.6716194876
 31
0.0
  0
LINE
  5
259
330
1F
100
AcDbEntity
  8
0
  6
Continuous
 62
     7
370
    25
100
AcDbLine
 10
651.3748974581
 20
643.1716194876
 30
0.0
 11
651.4312394199
 21
643.1716194876
 31
0.0
  0
LINE
  5
25A
330
1F
100
AcDbEntity
  8
0
  6
Continuous
 62
     7
370
    25
100
AcDbLine
 10
651.9312394199
 20
642.6716194876
 30
0.0
 11
651.8748974581
 21
642.6716194876
 31
0.0
  0
LINE
  5
25B
330
1F
100
AcDbEntity
  8
0
  6
Continuous
 62
     7
370
    25
100
AcDbLine
 10
652.3213086987
 20
643.1716194876
 30
0.0
 11
655.7682983547
 21
643.1716194876
 31
0.0
  0
LINE
  5
25C
330
1F
100
AcDbEntity
  8
0
  6
Continuous
 62
     7
370
    25
100
AcDbLine
 10
655.3622429784
 20
642.6716194876
 30
0.0
 11
652.7770007364
 21
642.6716194876
 31
0.0
  0
LINE
  5
25D
330
1F
100
AcDbEntity
  8
0
  6
Continuous
 62
     7
370
    25
100
AcDbLine
 10
655.7682983547
 20
643.1716194876
 30
0.0
 11
656.778955753
 21
643.1716194876
 31
0.0
  0
LINE
  5
25E
330
1F
100
AcDbEntity
  8
0
  6
Continuous
 62
     7
370
    25
100
AcDbLine
 10
656.3729003767
 20
642.6716194876
 30
0.0
 11
655.3622429784
 21
642.6716194876
 31
0.0
  0
LINE
  5
25F
330
1F
100
AcDbEntity
  8
0
  6
Continuous
 62
     7
370
    25
100
AcDbLine
 10
651.6084712691
 20
643.1716194876
 30
0.0
 11
652.3213086987
 21
643.1716194876
 31
0.0
  0
LINE
  5
260
330
1F
100
AcDbEntity
  8
0
  6
Continuous
 62
     7
370
    25
100
AcDbLine
 10
652.7770007364
 20
642.6716194876
 30
0.0
 11
652.0641633068
 21
642.6716194876
 31
0.0
  0
LINE
  5
261
330
1F
100
AcDbEntity
  8
0
  6
Continuous
 62
     7
370
    25
100
AcDbLine
 10
656.778955753
 20
643.1716194876
 30
0.0
 11
657.1547342479
 21
643.1716194876
 31
0.0
  0
LINE
  5
262
330
1F
100
AcDbEntity
  8
0
  6
Continuous
 62
     7
370
    25
100
AcDbLine
 10
656.6547342479
 20
642.6716194876
 30
0.0
 11
656.3729003767
 21
642.6716194876
 31
0.0
  0
LINE
  5
263
330
1F
100
AcDbEntity
  8
0
  6
Continuous
 62
     7
370
    25
100
AcDbLine
 10
651.4312394199
 20
643.1716194876
 30
0.0
 11
651.6084712691
 21
643.1716194876
 31
0.0
  0
LINE
  5
264
330
1F
100
AcDbEntity
  8
0
  6
Continuous
 62
     7
370
    25
100
AcDbLine
 10
652.0641633068
 20
642.6716194876
 30
0.0
 11
651.9312394199
 21
642.6716194876
 31
0.0
  0
LINE
  5
265
330
1F
100
AcDbEntity
  8
0
  6
Continuous
 62
     7
370
    25
100
AcDbLine
 10
173.5812351183
 20
642.6716194876
 30
0.0
 11
172.0005729294
 21
642.6716194876
 31
0.0
  0
LINE
  5
266
330
1F
100
AcDbEntity
  8
0
  6
Continuous
 62
     7
370
    25
100
AcDbLine
 10
171.9736855331
 20
643.1716194876
 30
0.0
 11
174.0812351183
 21
643.1716194876
 31
0.0
  0
LINE
  5
267
330
1F
100
AcDbEntity
  8
0
  6
Continuous
 62
     7
370
    25
100
AcDbLine
 10
170.2441408488
 20
643.1716194876
 30
0.0
 11
171.9736855331
 21
643.1716194876
 31
0.0
  0
LINE
  5
268
330
1F
100
AcDbEntity
  8
0
  6
Continuous
 62
     7
370
    25
100
AcDbLine
 10
172.0005729294
 20
642.6716194876
 30
0.0
 11
170.2710282451
 21
642.6716194876
 31
0.0
  0
LINE
  5
269
330
1F
100
AcDbEntity
  8
0
  6
Continuous
 62
     7
370
    25
100
AcDbLine
 10
170.2710282451
 20
642.6716194876
 30
0.0
 11
168.851690434
 21
642.6716194876
 31
0.0
  0
LINE
  5
26A
330
1F
100
AcDbEntity
  8
0
  6
Continuous
 62
     7
370
    25
100
AcDbLine
 10
168.351690434
 20
643.1716194876
 30
0.0
 11
170.2441408488
 21
643.1716194876
 31
0.0
  0
LINE
  5
26B
330
1F
100
AcDbEntity
  8
0
  6
Continuous
 62
     7
370
    25
100
AcDbLine
 10
662.7433501725
 20
639.5716194876
 30
0.0
 11
663.9433501725
 21
639.5716194876
 31
0.0
  0
LINE
  5
26C
330
1F
100
AcDbEntity
  8
0
  6
Continuous
 62
     7
370
    25
100
AcDbLine
 10
663.9433501725
 20
620.5716194876
 30
0.0
 11
660.7433501725
 21
620.5716194876
 31
0.0
  0
ARC
  5
26D
330
1F
100
AcDbEntity
  8
0
  6
Continuous
 62
     7
370
    25
100
AcDbCircle
 10
657.7433501725
 20
599.5716194876
 30
0.0
 40
3.0
100
AcDbArc
 50
270.0
 51
0.0
  0
LINE
  5
26E
330
1F
100
AcDbEntity
  8
0
  6
Continuous
 62
     7
370
    25
100
AcDbLine
 10
610.7433501725
 20
615.7016194876
 30
0.0
 11
608.2433501725
 21
615.7016194876
 31
0.0
  0
LINE
  5
26F
330
1F
100
AcDbEntity
  8
0
  6
Continuous
 62
     7
370
    25
100
AcDbLine
 10
608.2433501725
 20
615.20956868
 30
0.0
 11
608.2433501725
 21
615.7016194876
 31
0.0
  0
LINE
  5
270
330
1F
100
AcDbEntity
  8
0
  6
Continuous
 62
     7
370
    25
100
AcDbLine
 10
458.2433501725
 20
615.20956868
 30
0.0
 11
458.2433501725
 21
615.7016194876
 31
0.0
  0
LINE
  5
271
330
1F
100
AcDbEntity
  8
0
  6
Continuous
 62
     7
370
    25
100
AcDbLine
 10
458.2433501725
 20
615.7016194876
 30
0.0
 11
455.7433501725
 21
615.7016194876
 31
0.0
  0
LINE
  5
272
330
1F
100
AcDbEntity
  8
0
  6
Continuous
 62
     7
370
    25
100
AcDbLine
 10
455.7433501725
 20
615.7016194876
 30
0.0
 11
455.7433501725
 21
599.5716194876
 31
0.0
  0
LINE
  5
273
330
1F
100
AcDbEntity
  8
0
  6
Continuous
 62
     7
370
    25
100
AcDbLine
 10
452.7433501725
 20
596.5716194876
 30
0.0
 11
372.7433501725
 21
596.5716194876
 31
0.0
  0
LINE
  5
274
330
1F
100
AcDbEntity
  8
0
  6
Continuous
 62
     7
370
    25
100
AcDbLine
 10
369.7433501725
 20
615.7016194876
 30
0.0
 11
367.2433501725
 21
615.7016194876
 31
0.0
  0
LINE
  5
275
330
1F
100
AcDbEntity
  8
0
  6
Continuous
 62
     7
370
    25
100
AcDbLine
 10
367.2433501725
 20
615.20956868
 30
0.0
 11
367.2433501725
 21
615.7016194876
 31
0.0
  0
LINE
  5
276
330
1F
100
AcDbEntity
  8
0
  6
Continuous
 62
     7
370
    25
100
AcDbLine
 10
217.2433501725
 20
615.20956868
 30
0.0
 11
217.2433501725
 21
615.7016194876
 31
0.0
  0
LINE
  5
277
330
1F
100
AcDbEntity
  8
0
  6
Continuous
 62
     7
370
    25
100
AcDbLine
 10
217.2433501725
 20
615.7016194876
 30
0.0
 11
214.7433501725
 21
615.7016194876
 31
0.0
  0
ARC
  5
278
330
1F
100
AcDbEntity
  8
0
  6
Continuous
 62
     7
370
    25
100
AcDbCircle
 10
167.7433501725
 20
599.5716194876
 30
0.0
 40
3.0
100
AcDbArc
 50
180.0
 51
270.0
  0
LINE
  5
279
330
1F
100
AcDbEntity
  8
0
  6
Continuous
 62
     7
370
    25
100
AcDbLine
 10
164.7433501725
 20
620.5716194876
 30
0.0
 11
161.5433501725
 21
620.5716194876
 31
0.0
  0
LINE
  5
27A
330
1F
100
AcDbEntity
  8
0
  6
Continuous
 62
     7
370
    25
100
AcDbLine
 10
161.5433501725
 20
639.5716194876
 30
0.0
 11
162.7433501725
 21
639.5716194876
 31
0.0
  0
LINE
  5
27B
330
1F
100
AcDbEntity
  8
0
  6
Continuous
 62
     7
370
    25
100
AcDbLine
 10
162.7433501725
 20
639.5716194876
 30
0.0
 11
162.7433501725
 21
639.7716194876
 31
0.0
  0
LINE
  5
27C
330
1F
100
AcDbEntity
  8
0
  6
Continuous
 62
     7
370
    25
100
AcDbLine
 10
662.7433501725
 20
639.7716194876
 30
0.0
 11
662.7433501725
 21
639.5716194876
 31
0.0
  0
ARC
  5
27D
330
1F
100
AcDbEntity
  8
0
  6
Continuous
 62
     7
370
    25
100
AcDbCircle
 10
211.7433501725
 20
599.5716194876
 30
0.0
 40
3.0
100
AcDbArc
 50
270.0
 51
0.0
  0
LINE
  5
27E
330
1F
100
AcDbEntity
  8
0
  6
Continuous
 62
     7
370
    25
100
AcDbLine
 10
214.7433501725
 20
615.7016194876
 30
0.0
 11
214.7433501725
 21
599.5716194876
 31
0.0
  0
ARC
  5
27F
330
1F
100
AcDbEntity
  8
0
  6
Continuous
 62
     7
370
    25
100
AcDbCircle
 10
452.7433501725
 20
599.5716194876
 30
0.0
 40
3.0
100
AcDbArc
 50
270.0
 51
0.0
  0
ARC
  5
280
330
1F
100
AcDbEntity
  8
0
  6
Continuous
 62
     7
370
    25
100
AcDbCircle
 10
613.7433501725
 20
599.5716194876
 30
0.0
 40
3.0
100
AcDbArc
 50
180.0
 51
270.0
  0
LINE
  5
281
330
1F
100
AcDbEntity
  8
0
  6
Continuous
 62
     7
370
    25
100
AcDbLine
 10
369.7433501725
 20
599.5716194876
 30
0.0
 11
369.7433501725
 21
615.7016194876
 31
0.0
  0
LINE
  5
282
330
1F
100
AcDbEntity
  8
0
  6
Continuous
 62
     7
370
    25
100
AcDbLine
 10
657.7433501725
 20
596.5716194876
 30
0.0
 11
613.7433501725
 21
596.5716194876
 31
0.0
  0
LINE
  5
283
330
1F
100
AcDbEntity
  8
0
  6
Continuous
 62
     7
370
    25
100
AcDbLine
 10
660.7433501725
 20
620.5716194876
 30
0.0
 11
660.7433501725
 21
599.5716194876
 31
0.0
  0
LINE
  5
284
330
1F
100
AcDbEntity
  8
0
  6
Continuous
 62
     7
370
    25
100
AcDbLine
 10
211.7433501725
 20
596.5716194876
 30
0.0
 11
167.7433501725
 21
596.5716194876
 31
0.0
  0
LINE
  5
285
330
1F
100
AcDbEntity
  8
0
  6
Continuous
 62
     7
370
    25
100
AcDbLine
 10
164.7433501725
 20
599.5716194876
 30
0.0
 11
164.7433501725
 21
620.5716194876
 31
0.0
  0
LINE
  5
286
330
1F
100
AcDbEntity
  8
0
  6
Continuous
 62
     7
370
    25
100
AcDbLine
 10
610.7433501725
 20
599.5716194876
 30
0.0
 11
610.7433501725
 21
615.7016194876
 31
0.0
  0
ARC
  5
287
330
1F
100
AcDbEntity
  8
0
  6
Continuous
 62
     7
370
    25
100
AcDbCircle
 10
372.7433501725
 20
599.5716194876
 30
0.0
 40
3.0
100
AcDbArc
 50
180.0
 51
270.0
  0
LINE
  5
288
330
1F
100
AcDbEntity
  8
0
  6
Continuous
 62
     7
370
    25
100
AcDbLine
 10
458.2433501725
 20
614.30956868
 30
0.0
 11
458.2433501725
 21
615.20956868
 31
0.0
  0
LINE
  5
289
330
1F
100
AcDbEntity
  8
0
  6
Continuous
 62
     7
370
    25
100
AcDbLine
 10
608.2433501725
 20
615.20956868
 30
0.0
 11
608.2433501725
 21
614.30956868
 31
0.0
  0
LINE
  5
28A
330
1F
100
AcDbEntity
  8
0
  6
Continuous
 62
     7
370
    25
100
AcDbLine
 10
217.2433501725
 20
614.30956868
 30
0.0
 11
217.2433501725
 21
615.20956868
 31
0.0
  0
LINE
  5
28B
330
1F
100
AcDbEntity
  8
0
  6
Continuous
 62
     7
370
    25
100
AcDbLine
 10
367.2433501725
 20
615.20956868
 30
0.0
 11
367.2433501725
 21
614.30956868
 31
0.0
  0
LINE
  5
28C
330
1F
100
AcDbEntity
  8
0
  6
Continuous
 62
     7
370
    25
100
AcDbLine
 10
663.9433501725
 20
639.5716194876
 30
0.0
 11
664.7433501725
 21
639.5716194876
 31
0.0
  0
LINE
  5
28D
330
1F
100
AcDbEntity
  8
0
  6
Continuous
 62
     7
370
    25
100
AcDbLine
 10
665.7433501725
 20
620.5716194876
 30
0.0
 11
665.7433501725
 21
621.1716194876
 31
0.0
  0
LINE
  5
28E
330
1F
100
AcDbEntity
  8
0
  6
Continuous
 62
     7
370
    25
100
AcDbLine
 10
665.7433501725
 20
620.5716194876
 30
0.0
 11
663.9433501725
 21
620.5716194876
 31
0.0
  0
LINE
  5
28F
330
1F
100
AcDbEntity
  8
0
  6
Continuous
 62
     7
370
    25
100
AcDbLine
 10
159.7433501725
 20
620.5716194876
 30
0.0
 11
159.7433501725
 21
621.1716194876
 31
0.0
  0
LINE
  5
290
330
1F
100
AcDbEntity
  8
0
  6
Continuous
 62
     7
370
    25
100
AcDbLine
 10
160.7433501725
 20
639.5716194876
 30
0.0
 11
161.5433501725
 21
639.5716194876
 31
0.0
  0
LINE
  5
291
330
1F
100
AcDbEntity
  8
0
  6
Continuous
 62
     7
370
    25
100
AcDbLine
 10
161.5433501725
 20
620.5716194876
 30
0.0
 11
159.7433501725
 21
620.5716194876
 31
0.0
  0
LINE
  5
292
330
1F
100
AcDbEntity
  8
0
  6
Continuous
 62
     7
370
    25
100
AcDbLine
 10
162.7433501725
 20
639.7716194876
 30
0.0
 11
162.7433501725
 21
641.5716194876
 31
0.0
  0
LINE
  5
293
330
1F
100
AcDbEntity
  8
0
  6
Continuous
 62
     7
370
    25
100
AcDbLine
 10
662.7433501725
 20
641.5716194876
 30
0.0
 11
662.7433501725
 21
639.7716194876
 31
0.0
  0
LINE
  5
294
330
1F
100
AcDbEntity
  8
0
  6
Continuous
 62
     7
370
    25
100
AcDbLine
 10
217.2433501725
 20
614.30956868
 30
0.0
 11
217.2433501725
 21
607.6846975494
 31
0.0
  0
LINE
  5
295
330
1F
100
AcDbEntity
  8
0
  6
Continuous
 62
     7
370
    25
100
AcDbLine
 10
367.2433501725
 20
607.6846975494
 30
0.0
 11
367.2433501725
 21
614.30956868
 31
0.0
  0
LINE
  5
296
330
1F
100
AcDbEntity
  8
0
  6
Continuous
 62
     7
370
    25
100
AcDbLine
 10
458.2433501725
 20
614.30956868
 30
0.0
 11
458.2433501725
 21
607.6846975494
 31
0.0
  0
LINE
  5
297
330
1F
100
AcDbEntity
  8
0
  6
Continuous
 62
     7
370
    25
100
AcDbLine
 10
608.2433501725
 20
607.6846975494
 30
0.0
 11
608.2433501725
 21
614.30956868
 31
0.0
  0
LINE
  5
298
330
1F
100
AcDbEntity
  8
0
  6
Continuous
 62
     7
370
    25
100
AcDbLine
 10
608.2433501725
 20
607.1846975494
 30
0.0
 11
608.2433501725
 21
607.6846975494
 31
0.0
  0
LINE
  5
299
330
1F
100
AcDbEntity
  8
0
  6
Continuous
 62
     7
370
    25
100
AcDbLine
 10
458.2433501725
 20
607.6846975494
 30
0.0
 11
458.2433501725
 21
607.1846975494
 31
0.0
  0
LINE
  5
29A
330
1F
100
AcDbEntity
  8
0
  6
Continuous
 62
     7
370
    25
100
AcDbLine
 10
217.2433501725
 20
607.6846975494
 30
0.0
 11
217.2433501725
 21
607.1846975494
 31
0.0
  0
LINE
  5
29B
330
1F
100
AcDbEntity
  8
0
  6
Continuous
 62
     7
370
    25
100
AcDbLine
 10
367.2433501725
 20
607.1846975494
 30
0.0
 11
367.2433501725
 21
607.6846975494
 31
0.0
  0
ARC
  5
29C
330
1F
100
AcDbEntity
  8
0
  6
Continuous
 62
     7
370
    25
100
AcDbCircle
 10
461.2433501725
 20
600.6670060958
 30
0.0
 40
3.000000000000114
100
AcDbArc
 50
180.0
 51
270.0
  0
LINE
  5
29D
330
1F
100
AcDbEntity
  8
0
  6
Continuous
 62
     7
370
    25
100
AcDbLine
 10
458.2433501725
 20
600.6670060958
 30
0.0
 11
458.2433501725
 21
607.1846975494
 31
0.0
  0
LINE
  5
29E
330
1F
100
AcDbEntity
  8
0
  6
Continuous
 62
     7
370
    25
100
AcDbLine
 10
608.2433501725
 20
607.1846975494
 30
0.0
 11
608.2433501725
 21
600.6670060958
 31
0.0
  0
ARC
  5
29F
330
1F
100
AcDbEntity
  8
0
  6
Continuous
 62
     7
370
    25
100
AcDbCircle
 10
605.2433501725
 20
600.6670060958
 30
0.0
 40
3.0
100
AcDbArc
 50
270.0
 51
0.0
  0
LINE
  5
2A0
330
1F
100
AcDbEntity
  8
0
  6
Continuous
 62
     7
370
    25
100
AcDbLine
 10
605.2433501725
 20
597.6670060958
 30
0.0
 11
461.2433501725
 21
597.6670060958
 31
0.0
  0
ARC
  5
2A1
330
1F
100
AcDbEntity
  8
0
  6
Continuous
 62
     7
370
    25
100
AcDbCircle
 10
220.2433501725
 20
600.6670060958
 30
0.0
 40
3.0
100
AcDbArc
 50
180.0
 51
270.0
  0
LINE
  5
2A2
330
1F
100
AcDbEntity
  8
0
  6
Continuous
 62
     7
370
    25
100
AcDbLine
 10
217.2433501725
 20
600.6670060958
 30
0.0
 11
217.2433501725
 21
607.1846975494
 31
0.0
  0
LINE
  5
2A3
330
1F
100
AcDbEntity
  8
0
  6
Continuous
 62
     7
370
    25
100
AcDbLine
 10
367.2433501725
 20
607.1846975494
 30
0.0
 11
367.2433501725
 21
600.6670060958
 31
0.0
  0
ARC
  5
2A4
330
1F
100
AcDbEntity
  8
0
  6
Continuous
 62
     7
370
    25
100
AcDbCircle
 10
364.2433501725
 20
600.6670060958
 30
0.0
 40
3.0
100
AcDbArc
 50
270.0
 51
0.0
  0
LINE
  5
2A5
330
1F
100
AcDbEntity
  8
0
  6
Continuous
 62
     7
370
    25
100
AcDbLine
 10
364.2433501725
 20
597.6670060958
 30
0.0
 11
220.2433501725
 21
597.6670060958
 31
0.0
  0
LINE
  5
2A6
330
1F
100
AcDbEntity
  8
0
  6
Continuous
 62
     7
370
    25
100
AcDbLine
 10
674.4021001725
 20
626.0716194876
 30
0.0
 11
674.4021001725
 21
626.2716194876
 31
0.0
  0
LINE
  5
2A7
330
1F
100
AcDbEntity
  8
0
  6
Continuous
 62
     7
370
    25
100
AcDbLine
 10
674.4021001725
 20
631.8716194876
 30
0.0
 11
674.4021001725
 21
632.0716194876
 31
0.0
  0
LINE
  5
2A8
330
1F
100
AcDbEntity
  8
0
  6
Continuous
 62
     7
370
    25
100
AcDbLine
 10
674.9433501725
 20
630.6510228249
 30
0.0
 11
674.9433501725
 21
631.5303694876
 31
0.0
  0
LINE
  5
2A9
330
1F
100
AcDbEntity
  8
0
  6
Continuous
 62
     7
370
    25
100
AcDbLine
 10
674.9433501725
 20
626.6128694876
 30
0.0
 11
674.9433501725
 21
630.6510228249
 31
0.0
  0
LINE
  5
2AA
330
1F
100
AcDbEntity
  8
0
  6
Continuous
 62
     7
370
    25
100
AcDbLine
 10
664.2433501725
 20
643.3716194876
 30
0.0
 11
664.7433501725
 21
648.7466194876
 31
0.0
  0
LINE
  5
2AB
330
1F
100
AcDbEntity
  8
0
  6
Continuous
 62
     7
370
    25
100
AcDbLine
 10
160.7433501725
 20
648.7466194876
 30
0.0
 11
161.2433501725
 21
643.3716194876
 31
0.0
  0
LINE
  5
2AC
330
1F
100
AcDbEntity
  8
0
  6
Continuous
 62
     7
370
    25
100
AcDbLine
 10
664.2433501725
 20
643.3716194876
 30
0.0
 11
664.2433501725
 21
641.5716194876
 31
0.0
  0
LINE
  5
2AD
330
1F
100
AcDbEntity
  8
0
  6
Continuous
 62
     7
370
    25
100
AcDbLine
 10
664.2433501725
 20
641.5716194876
 30
0.0
 11
161.2433501725
 21
641.5716194876
 31
0.0
  0
LINE
  5
2AE
330
1F
100
AcDbEntity
  8
0
  6
Continuous
 62
     7
370
    25
100
AcDbLine
 10
161.2433501725
 20
641.5716194876
 30
0.0
 11
161.2433501725
 21
643.3716194876
 31
0.0
  0
LINE
  5
2AF
330
1F
100
AcDbEntity
  8
0
  6
Continuous
 62
     7
370
    25
100
AcDbLine
 10
151.0846001725
 20
632.0716194876
 30
0.0
 11
151.0846001725
 21
631.8716194876
 31
0.0
  0
LINE
  5
2B0
330
1F
100
AcDbEntity
  8
0
  6
Continuous
 62
     7
370
    25
100
AcDbLine
 10
151.0846001725
 20
626.2716194876
 30
0.0
 11
151.0846001725
 21
626.0716194876
 31
0.0
  0
LINE
  5
2B1
330
1F
100
AcDbEntity
  8
0
  6
Continuous
 62
     7
370
    25
100
AcDbLine
 10
150.5433501725
 20
626.8542814103
 30
0.0
 11
150.5433501725
 21
626.6128694876
 31
0.0
  0
LINE
  5
2B2
330
1F
100
AcDbEntity
  8
0
  6
Continuous
 62
     7
370
    25
100
AcDbLine
 10
150.5433501725
 20
631.5303694876
 30
0.0
 11
150.5433501725
 21
626.8542814103
 31
0.0
  0
SPLINE
  5
2B3
330
1F
100
AcDbEntity
  8
0
  6
Continuous
 62
     7
370
    25
100
AcDbSpline
210
0.0
220
0.0
230
1.0
 70
    24
 71
     3
 72
    15
 73
    11
 74
     0
 42
0.000000001
 43
0.00000001
 40
0.0
 40
0.0
 40
0.0
 40
0.0
 40
0.0346967497918673
 40
0.2211884951269657
 40
0.407680240462065
 40
0.5080720152630797
 40
0.6105942475634827
 40
0.7131164798638855
 40
0.8135082546649007
 40
1.0
 40
1.0
 40
1.0
 40
1.0
 10
161.7433501724773
 20
623.2983706781841
 30
0.0
 10
161.7433501724774
 20
623.2916495745527
 30
0.0
 10
161.7433501724773
 20
623.2488031751999
 30
0.0
 10
161.7433501724771
 20
623.7368441379584
 30
0.0
 10
161.7433501724773
 20
624.832755195427
 30
0.0
 10
161.7433501724772
 20
626.0516523278744
 30
0.0
 10
161.7433501724773
 20
627.1318275557314
 30
0.0
 10
161.7433501724773
 20
628.292304458197
 30
0.0
 10
161.7433501724772
 20
629.8228793533123
 30
0.0
 10
161.7433501724772
 20
630.8865052419624
 30
0.0
 10
161.7433501724773
 20
631.5779267926455
 30
0.0
  0
SPLINE
  5
2B4
330
1F
100
AcDbEntity
  8
0
  6
Continuous
 62
     7
370
    25
100
AcDbSpline
210
0.0
220
0.0
230
1.0
 70
    24
 71
     3
 72
    12
 73
     8
 74
     0
 42
0.000000001
 43
0.00000001
 40
0.0
 40
0.0
 40
0.0
 40
0.0
 40
0.3344405486782661
 40
0.5144757571369896
 40
0.6983315710265425
 40
0.8821873849160949
 40
1.0
 40
1.0
 40
1.0
 40
1.0
 10
161.7433501724773
 20
631.5779267926455
 30
0.0
 10
161.7433501724773
 20
632.2020723281473
 30
0.0
 10
161.7433501724774
 20
633.1622063436248
 30
0.0
 10
161.7433501724773
 20
634.0701172499201
 30
0.0
 10
161.7433501724773
 20
634.5758345878363
 30
0.0
 10
161.7433501724773
 20
634.8474543219745
 30
0.0
 10
161.7433501724772
 20
634.8455945905147
 30
0.0
 10
161.7433501724772
 20
634.8448682969898
 30
0.0
  0
LINE
  5
2B5
330
1F
100
AcDbEntity
  8
0
  6
Continuous
 62
     7
370
    25
100
AcDbLine
 10
165.7433501725
 20
628.6882244599
 30
0.0
 11
165.7433501725
 21
633.1973003669
 31
0.0
  0
SPLINE
  5
2B6
330
1F
100
AcDbEntity
  8
0
  6
Continuous
 62
     7
370
    25
100
AcDbSpline
210
0.0
220
0.0
230
1.0
 70
     8
 71
     3
 72
     8
 73
     4
 74
     0
 42
0.000000001
 43
0.00000001
 40
0.0
 40
0.0
 40
0.0
 40
0.0
 40
1.0
 40
1.0
 40
1.0
 40
1.0
 10
165.7433501724703
 20
628.6882244599004
 30
0.0
 10
165.7433501724703
 20
629.6706029044733
 30
0.0
 10
165.5690348720909
 20
630.626094072663
 30
0.0
 10
165.2967681850789
 20
631.5664767219906
 30
0.0
  0
SPLINE
  5
2B7
330
1F
100
AcDbEntity
  8
0
  6
Continuous
 62
     7
370
    25
100
AcDbSpline
210
0.0
220
0.0
230
1.0
 70
     8
 71
     3
 72
     8
 73
     4
 74
     0
 42
0.000000001
 43
0.00000001
 40
0.0
 40
0.0
 40
0.0
 40
0.0
 40
1.0
 40
1.0
 40
1.0
 40
1.0
 10
165.2967681850789
 20
631.5664767219968
 30
0.0
 10
165.5690348720903
 20
632.0992994630616
 30
0.0
 10
165.7433501724702
 20
632.6406827219562
 30
0.0
 10
165.7433501724702
 20
633.1973003668846
 30
0.0
  0
SPLINE
  5
2B8
330
1F
100
AcDbEntity
  8
0
  6
Continuous
 62
     7
370
    25
100
AcDbSpline
210
0.0
220
0.0
230
1.0
 70
     8
 71
     3
 72
     8
 73
     4
 74
     0
 42
0.000000001
 43
0.00000001
 40
0.0
 40
0.0
 40
0.0
 40
0.0
 40
1.0
 40
1.0
 40
1.0
 40
1.0
 10
165.2967681850789
 20
625.8099721978106
 30
0.0
 10
165.5690348720904
 20
626.7503548471362
 30
0.0
 10
165.7433501724703
 20
627.7058460153295
 30
0.0
 10
165.7433501724703
 20
628.6882244599004
 30
0.0
  0
LINE
  5
2B9
330
1F
100
AcDbEntity
  8
0
  6
Continuous
 62
     7
370
    25
100
AcDbLine
 10
161.7433501725
 20
625.8099721978
 30
0.0
 11
165.2967681851
 21
625.8099721978
 31
0.0
  0
LINE
  5
2BA
330
1F
100
AcDbEntity
  8
0
  6
Continuous
 62
     7
370
    25
100
AcDbLine
 10
161.7433501725
 20
631.566476722
 30
0.0
 11
165.2967681851
 21
631.566476722
 31
0.0
  0
LINE
  5
2BB
330
1F
100
AcDbEntity
  8
0
  6
Continuous
 62
     7
370
    25
100
AcDbLine
 10
165.7433501725
 20
624.5625435806
 30
0.0
 11
165.7433501725
 21
628.6882244599
 31
0.0
  0
SPLINE
  5
2BC
330
1F
100
AcDbEntity
  8
0
  6
Continuous
 62
     7
370
    25
100
AcDbSpline
210
0.0
220
0.0
230
1.0
 70
     8
 71
     3
 72
     8
 73
     4
 74
     0
 42
0.000000001
 43
0.00000001
 40
0.0
 40
0.0
 40
0.0
 40
0.0
 40
1.0
 40
1.0
 40
1.0
 40
1.0
 10
165.7433501724701
 20
624.562543580603
 30
0.0
 10
165.7433501724701
 20
624.9883043802462
 30
0.0
 10
165.5690348720908
 20
625.4024122895433
 30
0.0
 10
165.2967681850789
 20
625.809972197805
 30
0.0
  0
SPLINE
  5
2BD
330
1F
100
AcDbEntity
  8
0
  6
Continuous
 62
     7
370
    25
100
AcDbSpline
210
0.0
220
0.0
230
1.0
 70
     8
 71
     3
 72
     8
 73
     4
 74
     0
 42
0.000000001
 43
0.00000001
 40
0.0
 40
0.0
 40
0.0
 40
0.0
 40
1.0
 40
1.0
 40
1.0
 40
1.0
 10
165.7433501724702
 20
633.1973003668846
 30
0.0
 10
165.7433501724702
 20
633.7539180118143
 30
0.0
 10
165.569034872091
 20
634.2953012707063
 30
0.0
 10
165.2967681850789
 20
634.8281240117725
 30
0.0
  0
LINE
  5
2BE
330
1F
100
AcDbEntity
  8
0
  6
Continuous
 62
     7
370
    25
100
AcDbLine
 10
165.2967681851
 20
634.8281240118
 30
0.0
 11
161.7433501725
 21
634.8281240118
 31
0.0
  0
SPLINE
  5
2BF
330
1F
100
AcDbEntity
  8
0
  6
Continuous
 62
     7
370
    25
100
AcDbSpline
210
0.0
220
0.0
230
1.0
 70
     8
 71
     3
 72
     8
 73
     4
 74
     0
 42
0.000000001
 43
0.00000001
 40
0.0
 40
0.0
 40
0.0
 40
0.0
 40
1.0
 40
1.0
 40
1.0
 40
1.0
 10
165.2967681850788
 20
623.315114963401
 30
0.0
 10
165.5690348720902
 20
623.7226748716619
 30
0.0
 10
165.7433501724701
 20
624.1367827809605
 30
0.0
 10
165.7433501724701
 20
624.562543580603
 30
0.0
  0
LINE
  5
2C0
330
1F
100
AcDbEntity
  8
0
  6
Continuous
 62
     7
370
    25
100
AcDbLine
 10
161.7433501725
 20
623.3151149634
 30
0.0
 11
165.2967681851
 21
623.3151149634
 31
0.0
  0
LINE
  5
2C1
330
1F
100
AcDbEntity
  8
0
  6
Continuous
 62
     7
370
    25
100
AcDbLine
 10
151.2846001725
 20
632.0716194876
 30
0.0
 11
151.2846001725
 21
626.0716194876
 31
0.0
  0
LINE
  5
2C2
330
1F
100
AcDbEntity
  8
0
  6
Continuous
 62
     7
370
    25
100
AcDbLine
 10
150.7433501725
 20
626.8542814103
 30
0.0
 11
150.7433501725
 21
626.6128694876
 31
0.0
  0
LINE
  5
2C3
330
1F
100
AcDbEntity
  8
0
  6
Continuous
 62
     7
370
    25
100
AcDbLine
 10
150.7433501725
 20
631.5303694876
 30
0.0
 11
150.7433501725
 21
626.8542814103
 31
0.0
  0
LINE
  5
2C4
330
1F
100
AcDbEntity
  8
0
  6
Continuous
 62
     7
370
    25
100
AcDbLine
 10
165.2967681851
 20
634.8281240118
 30
0.0
 11
165.3719559406
 21
634.618103544
 31
0.0
  0
LINE
  5
2C5
330
1F
100
AcDbEntity
  8
0
  6
Continuous
 62
     7
370
    25
100
AcDbLine
 10
165.7433501725
 20
633.1973003669
 30
0.0
 11
165.7433501725
 21
634.0716194876
 31
0.0
  0
LINE
  5
2C6
330
1F
100
AcDbEntity
  8
0
  6
Continuous
 62
     7
370
    25
100
AcDbLine
 10
165.7433501725
 20
624.0716194876
 30
0.0
 11
165.7433501725
 21
624.5625435806
 31
0.0
  0
LINE
  5
2C7
330
1F
100
AcDbEntity
  8
0
  6
Continuous
 62
     7
370
    25
100
AcDbLine
 10
158.7433501725
 20
623.1716194876
 30
0.0
 11
158.7433501725
 21
652.1716194876
 31
0.0
  0
LINE
  5
2C8
330
1F
100
AcDbEntity
  8
0
  6
Continuous
 62
     7
370
    25
100
AcDbLine
 10
160.7433501725
 20
623.1716194876
 30
0.0
 11
160.7433501725
 21
652.1716194876
 31
0.0
  0
LINE
  5
2C9
330
1F
100
AcDbEntity
  8
0
  6
Continuous
 62
     7
370
    25
100
AcDbLine
 10
160.7433501725
 20
621.1716194876
 30
0.0
 11
158.7433501725
 21
621.1716194876
 31
0.0
  0
LINE
  5
2CA
330
1F
100
AcDbEntity
  8
0
  6
Continuous
 62
     7
370
    25
100
AcDbLine
 10
158.7433501725
 20
621.1716194876
 30
0.0
 11
158.7433501725
 21
623.1716194876
 31
0.0
  0
LINE
  5
2CB
330
1F
100
AcDbEntity
  8
0
  6
Continuous
 62
     7
370
    25
100
AcDbLine
 10
160.7433501725
 20
623.1716194876
 30
0.0
 11
160.7433501725
 21
621.1716194876
 31
0.0
  0
LINE
  5
2CC
330
1F
100
AcDbEntity
  8
0
  6
Continuous
 62
     7
370
    25
100
AcDbLine
 10
158.7450173024
 20
652.2716194876
 30
0.0
 11
158.7433501725
 21
652.1716194876
 31
0.0
  0
LINE
  5
2CD
330
1F
100
AcDbEntity
  8
0
  6
Continuous
 62
     7
370
    25
100
AcDbLine
 10
160.7483627354
 20
652.2716194876
 30
0.0
 11
160.7433501725
 21
652.1716194876
 31
0.0
  0
LINE
  5
2CE
330
1F
100
AcDbEntity
  8
0
  6
Continuous
 62
     7
370
    25
100
AcDbLine
 10
158.6830427933
 20
621.1716194876
 30
0.0
 11
158.7433501725
 21
621.1716194876
 31
0.0
  0
LINE
  5
2CF
330
1F
100
AcDbEntity
  8
0
  6
Continuous
 62
     7
370
    25
100
AcDbLine
 10
158.7433501725
 20
637.1716194876
 30
0.0
 11
158.6830427933
 21
637.1716194876
 31
0.0
  0
LINE
  5
2D0
330
1F
100
AcDbEntity
  8
0
  6
Continuous
 62
     7
370
    25
100
AcDbLine
 10
158.6830427933
 20
621.1716194876
 30
0.0
 11
156.811844071
 21
621.1716194876
 31
0.0
  0
LWPOLYLINE
  5
2D1
330
1F
100
AcDbEntity
  8
0
  6
Continuous
 62
     7
370
    25
100
AcDbPolyline
 90
        9
 70
   128
 43
0.0
 10
156.1278037843
 20
623.1716194876
 10
156.1409474266
 20
622.7814388436
 10
156.1798732507
 20
622.4062526229
 10
156.243085359
 20
622.0604790215
 10
156.3281545457
 20
621.7574059252
 10
156.4318116495
 20
621.508680263
 10
156.5500731862
 20
621.3238604226
 10
156.6783944312
 20
621.2100489268
 10
156.811844071
 20
621.1716194876
  0
LINE
  5
2D2
330
1F
100
AcDbEntity
  8
0
  6
Continuous
 62
     7
370
    25
100
AcDbLine
 10
156.1278037843
 20
623.1716194876
 30
0.0
 11
156.1278037843
 21
626.0716194876
 31
0.0
  0
LINE
  5
2D3
330
1F
100
AcDbEntity
  8
0
  6
Continuous
 62
     7
370
    25
100
AcDbLine
 10
156.1278037843
 20
632.0716194876
 30
0.0
 11
156.1278037843
 21
635.1716194876
 31
0.0
  0
LWPOLYLINE
  5
2D4
330
1F
100
AcDbEntity
  8
0
  6
Continuous
 62
     7
370
    25
100
AcDbPolyline
 90
        9
 70
   128
 43
0.0
 10
156.811844071
 20
637.1716194876
 10
156.6783944312
 20
637.1331900484
 10
156.5500731862
 20
637.0193785526
 10
156.4318116495
 20
636.8345587122
 10
156.3281545457
 20
636.58583305
 10
156.243085359
 20
636.2827599536
 10
156.1798732507
 20
635.9369863523
 10
156.1409474266
 20
635.5618001316
 10
156.1278037843
 20
635.1716194876
  0
LINE
  5
2D5
330
1F
100
AcDbEntity
  8
0
  6
Continuous
 62
     7
370
    25
100
AcDbLine
 10
156.811844071
 20
637.1716194876
 30
0.0
 11
158.6830427933
 21
637.1716194876
 31
0.0
  0
LINE
  5
2D6
330
1F
100
AcDbEntity
  8
0
  6
Continuous
 62
     7
370
    25
100
AcDbLine
 10
666.7433501725
 20
652.1716194876
 30
0.0
 11
666.7433501725
 21
623.1716194876
 31
0.0
  0
LINE
  5
2D7
330
1F
100
AcDbEntity
  8
0
  6
Continuous
 62
     7
370
    25
100
AcDbLine
 10
664.7433501725
 20
652.1716194876
 30
0.0
 11
664.7433501725
 21
623.1716194876
 31
0.0
  0
LINE
  5
2D8
330
1F
100
AcDbEntity
  8
0
  6
Continuous
 62
     7
370
    25
100
AcDbLine
 10
666.7433501725
 20
621.1716194876
 30
0.0
 11
664.7433501725
 21
621.1716194876
 31
0.0
  0
LINE
  5
2D9
330
1F
100
AcDbEntity
  8
0
  6
Continuous
 62
     7
370
    25
100
AcDbLine
 10
664.7433501725
 20
621.1716194876
 30
0.0
 11
664.7433501725
 21
623.1716194876
 31
0.0
  0
LINE
  5
2DA
330
1F
100
AcDbEntity
  8
0
  6
Continuous
 62
     7
370
    25
100
AcDbLine
 10
666.7433501725
 20
623.1716194876
 30
0.0
 11
666.7433501725
 21
621.1716194876
 31
0.0
  0
LINE
  5
2DB
330
1F
100
AcDbEntity
  8
0
  6
Continuous
 62
     7
370
    25
100
AcDbLine
 10
666.7433501725
 20
652.1716194876
 30
0.0
 11
666.7416830426
 21
652.2716194876
 31
0.0
  0
LINE
  5
2DC
330
1F
100
AcDbEntity
  8
0
  6
Continuous
 62
     7
370
    25
100
AcDbLine
 10
664.7433501725
 20
652.1716194876
 30
0.0
 11
664.7383376096
 21
652.2716194876
 31
0.0
  0
LINE
  5
2DD
330
1F
100
AcDbEntity
  8
0
  6
Continuous
 62
     7
370
    25
100
AcDbLine
 10
666.8036575517
 20
637.1716194876
 30
0.0
 11
666.7433501725
 21
637.1716194876
 31
0.0
  0
LINE
  5
2DE
330
1F
100
AcDbEntity
  8
0
  6
Continuous
 62
     7
370
    25
100
AcDbLine
 10
666.7433501725
 20
621.1716194876
 30
0.0
 11
666.8036575517
 21
621.1716194876
 31
0.0
  0
LWPOLYLINE
  5
2DF
330
1F
100
AcDbEntity
  8
0
  6
Continuous
 62
     7
370
    25
100
AcDbPolyline
 90
        9
 70
   128
 43
0.0
 10
668.674856274
 20
621.1716194876
 10
668.8083059138
 20
621.2100489268
 10
668.9366271588
 20
621.3238604226
 10
669.0548886955
 20
621.508680263
 10
669.1585457993
 20
621.7574059252
 10
669.2436149859
 20
622.0604790215
 10
669.3068270943
 20
622.4062526229
 10
669.3457529184
 20
622.7814388436
 10
669.3588965607
 20
623.1716194876
  0
LINE
  5
2E0
330
1F
100
AcDbEntity
  8
0
  6
Continuous
 62
     7
370
    25
100
AcDbLine
 10
668.674856274
 20
621.1716194876
 30
0.0
 11
666.8036575517
 21
621.1716194876
 31
0.0
  0
LINE
  5
2E1
330
1F
100
AcDbEntity
  8
0
  6
Continuous
 62
     7
370
    25
100
AcDbLine
 10
666.8036575517
 20
637.1716194876
 30
0.0
 11
668.674856274
 21
637.1716194876
 31
0.0
  0
LWPOLYLINE
  5
2E2
330
1F
100
AcDbEntity
  8
0
  6
Continuous
 62
     7
370
    25
100
AcDbPolyline
 90
        9
 70
   128
 43
0.0
 10
669.3588965607
 20
635.1716194876
 10
669.3457529184
 20
635.5618001316
 10
669.3068270943
 20
635.9369863523
 10
669.2436149859
 20
636.2827599536
 10
669.1585457993
 20
636.58583305
 10
669.0548886955
 20
636.8345587122
 10
668.9366271588
 20
637.0193785526
 10
668.8083059138
 20
637.1331900484
 10
668.674856274
 20
637.1716194876
  0
LINE
  5
2E3
330
1F
100
AcDbEntity
  8
0
  6
Continuous
 62
     7
370
    25
100
AcDbLine
 10
669.3588965607
 20
635.1716194876
 30
0.0
 11
669.3588965607
 21
632.0716194876
 31
0.0
  0
LINE
  5
2E4
330
1F
100
AcDbEntity
  8
0
  6
Continuous
 62
     7
370
    25
100
AcDbLine
 10
669.3588965607
 20
626.0716194876
 30
0.0
 11
669.3588965607
 21
623.1716194876
 31
0.0
  0
LINE
  5
2E5
330
1F
100
AcDbEntity
  8
0
  6
Continuous
 62
     7
370
    25
100
AcDbLine
 10
649.4933501725
 20
647.1716194876
 30
0.0
 11
649.4933501725
 21
647.6716194876
 31
0.0
  0
LINE
  5
2E6
330
1F
100
AcDbEntity
  8
0
  6
Continuous
 62
     7
370
    25
100
AcDbLine
 10
658.9933501725
 20
647.6716194876
 30
0.0
 11
658.9933501725
 21
647.1716194876
 31
0.0
  0
LINE
  5
2E7
330
1F
100
AcDbEntity
  8
0
  6
Continuous
 62
     7
370
    25
100
AcDbLine
 10
658.9933501725
 20
647.1716194876
 30
0.0
 11
649.4933501725
 21
647.1716194876
 31
0.0
  0
ARC
  5
2E8
330
1F
100
AcDbEntity
  8
0
  6
Continuous
 62
     7
370
    25
100
AcDbCircle
 10
659.7567501725
 20
648.4082194876
 30
0.0
 40
1.236600000000067
100
AcDbArc
 50
270.0
 51
323.4399088994
  0
ARC
  5
2E9
330
1F
100
AcDbEntity
  8
0
  6
Continuous
 62
     7
370
    25
100
AcDbCircle
 10
648.7299501725
 20
648.4082194876
 30
0.0
 40
1.236600000000133
100
AcDbArc
 50
216.5600911006
 51
270.0
  0
LINE
  5
2EA
330
1F
100
AcDbEntity
  8
0
  6
Continuous
 62
     7
370
    25
100
AcDbLine
 10
649.4933501725
 20
647.1716194876
 30
0.0
 11
648.7299501725
 21
647.1716194876
 31
0.0
  0
LINE
  5
2EB
330
1F
100
AcDbEntity
  8
0
  6
Continuous
 62
     7
370
    25
100
AcDbLine
 10
659.7567501725
 20
647.1716194876
 30
0.0
 11
658.9933501725
 21
647.1716194876
 31
0.0
  0
ARC
  5
2EC
330
1F
100
AcDbEntity
  8
0
  6
Continuous
 62
     7
370
    25
100
AcDbCircle
 10
152.2433501725
 20
658.2716194876
 30
0.0
 40
6.000000000000114
100
AcDbArc
 50
216.8698976459
 51
270.0
  0
ARC
  5
2ED
330
1F
100
AcDbEntity
  8
0
  6
Continuous
 62
     7
370
    25
100
AcDbCircle
 10
673.2433501725
 20
658.2716194876
 30
0.0
 40
6.000000000000114
100
AcDbArc
 50
270.0
 51
323.1301023541
  0
ARC
  5
2EE
330
1F
100
AcDbEntity
  8
0
  6
Continuous
 62
     7
370
    25
100
AcDbCircle
 10
664.4433501725
 20
-72.6022092219
 30
0.0
 40
0.5000000000001137
100
AcDbArc
 50
180.0
 51
0.0
  0
ARC
  5
2EF
330
1F
100
AcDbEntity
  8
0
  6
Continuous
 62
     7
370
    25
100
AcDbCircle
 10
664.4433501725
 20
-61.0022092217
 30
0.0
 40
0.5
100
AcDbArc
 50
0.0
 51
180.0
  0
LINE
  5
2F0
330
1F
100
AcDbEntity
  8
0
  6
Continuous
 62
     7
370
    25
100
AcDbLine
 10
674.4021001725
 20
-69.8022092218
 30
0.0
 11
674.9433501725
 21
-69.2609592218
 31
0.0
  0
LINE
  5
2F1
330
1F
100
AcDbEntity
  8
0
  6
Continuous
 62
     7
370
    25
100
AcDbLine
 10
674.9433501725
 20
-64.3434592218
 30
0.0
 11
674.4021001725
 21
-63.8022092218
 31
0.0
  0
LINE
  5
2F2
330
1F
100
AcDbEntity
  8
0
  6
Continuous
 62
     7
370
    25
100
AcDbLine
 10
674.4021001725
 20
-63.8022092218
 30
0.0
 11
665.7433501725
 21
-63.8022092218
 31
0.0
  0
LINE
  5
2F3
330
1F
100
AcDbEntity
  8
0
  6
Continuous
 62
     7
370
    25
100
AcDbLine
 10
665.7433501725
 20
-69.8022092218
 30
0.0
 11
674.4021001725
 21
-69.8022092218
 31
0.0
  0
LINE
  5
2F4
330
1F
100
AcDbEntity
  8
0
  6
Continuous
 62
     7
370
    25
100
AcDbLine
 10
647.7885647581
 20
-75.4303864692
 30
0.0
 11
647.3933501725
 21
-75.2022092218
 31
0.0
  0
LINE
  5
2F5
330
1F
100
AcDbEntity
  8
0
  6
Continuous
 62
     7
370
    25
100
AcDbLine
 10
641.0933501725
 20
-75.2022092218
 30
0.0
 11
640.6628118775
 21
-75.4507806223
 31
0.0
  0
LINE
  5
2F6
330
1F
100
AcDbEntity
  8
0
  6
Continuous
 62
     7
370
    25
100
AcDbLine
 10
640.6628118775
 20
-78.1536378213
 30
0.0
 11
641.0933501725
 21
-78.4022092218
 31
0.0
  0
LINE
  5
2F7
330
1F
100
AcDbEntity
  8
0
  6
Continuous
 62
     7
370
    25
100
AcDbLine
 10
647.3933501725
 20
-78.4022092218
 30
0.0
 11
647.7885647581
 21
-78.1740319744
 31
0.0
  0
LINE
  5
2F8
330
1F
100
AcDbEntity
  8
0
  6
Continuous
 62
     7
370
    25
100
AcDbLine
 10
327.6628118775
 20
-78.1536378213
 30
0.0
 11
328.0933501725
 21
-78.4022092218
 31
0.0
  0
LINE
  5
2F9
330
1F
100
AcDbEntity
  8
0
  6
Continuous
 62
     7
370
    25
100
AcDbLine
 10
334.3933501725
 20
-78.4022092218
 30
0.0
 11
334.7885647581
 21
-78.1740319744
 31
0.0
  0
LINE
  5
2FA
330
1F
100
AcDbEntity
  8
0
  6
Continuous
 62
     7
370
    25
100
AcDbLine
 10
334.7885647581
 20
-75.4303864692
 30
0.0
 11
334.3933501725
 21
-75.2022092218
 31
0.0
  0
LINE
  5
2FB
330
1F
100
AcDbEntity
  8
0
  6
Continuous
 62
     7
370
    25
100
AcDbLine
 10
328.0933501725
 20
-75.2022092218
 30
0.0
 11
327.6628118775
 21
-75.4507806223
 31
0.0
  0
LINE
  5
2FC
330
1F
100
AcDbEntity
  8
0
  6
Continuous
 62
     7
370
    25
100
AcDbLine
 10
497.7885647581
 20
-75.4303864692
 30
0.0
 11
497.3933501725
 21
-75.2022092218
 31
0.0
  0
LINE
  5
2FD
330
1F
100
AcDbEntity
  8
0
  6
Continuous
 62
     7
370
    25
100
AcDbLine
 10
491.0933501725
 20
-75.2022092218
 30
0.0
 11
490.6628118775
 21
-75.4507806223
 31
0.0
  0
LINE
  5
2FE
330
1F
100
AcDbEntity
  8
0
  6
Continuous
 62
     7
370
    25
100
AcDbLine
 10
490.6628118775
 20
-78.1536378213
 30
0.0
 11
491.0933501725
 21
-78.4022092218
 31
0.0
  0
LINE
  5
2FF
330
1F
100
AcDbEntity
  8
0
  6
Continuous
 62
     7
370
    25
100
AcDbLine
 10
497.3933501725
 20
-78.4022092218
 30
0.0
 11
497.7885647581
 21
-78.1740319744
 31
0.0
  0
LINE
  5
300
330
1F
100
AcDbEntity
  8
0
  6
Continuous
 62
     7
370
    25
100
AcDbLine
 10
177.6628118775
 20
-78.1536378213
 30
0.0
 11
178.0933501725
 21
-78.4022092218
 31
0.0
  0
LINE
  5
301
330
1F
100
AcDbEntity
  8
0
  6
Continuous
 62
     7
370
    25
100
AcDbLine
 10
184.3933501725
 20
-78.4022092218
 30
0.0
 11
184.7885647581
 21
-78.1740319744
 31
0.0
  0
LINE
  5
302
330
1F
100
AcDbEntity
  8
0
  6
Continuous
 62
     7
370
    25
100
AcDbLine
 10
184.7885647581
 20
-75.4303864692
 30
0.0
 11
184.3933501725
 21
-75.2022092218
 31
0.0
  0
LINE
  5
303
330
1F
100
AcDbEntity
  8
0
  6
Continuous
 62
     7
370
    25
100
AcDbLine
 10
178.0933501725
 20
-75.2022092218
 30
0.0
 11
177.6628118775
 21
-75.4507806223
 31
0.0
  0
LINE
  5
304
330
1F
100
AcDbEntity
  8
0
  6
Continuous
 62
     7
370
    25
100
AcDbLine
 10
160.2433501725
 20
-91.8522092218
 30
0.0
 11
665.2433501725
 21
-91.8522092218
 31
0.0
  0
LINE
  5
305
330
1F
100
AcDbEntity
  8
0
  6
Continuous
 62
     7
370
    25
100
AcDbLine
 10
642.2433501725
 20
-70.1022092218
 30
0.0
 11
642.2433501725
 21
-75.2022092218
 31
0.0
  0
LINE
  5
306
330
1F
100
AcDbEntity
  8
0
  6
Continuous
 62
     7
370
    25
100
AcDbLine
 10
642.2433501725
 20
-78.4022092218
 30
0.0
 11
642.2433501725
 21
-78.5022092218
 31
0.0
  0
LINE
  5
307
330
1F
100
AcDbEntity
  8
0
  6
Continuous
 62
     7
370
    25
100
AcDbLine
 10
646.2433501725
 20
-78.5022092218
 30
0.0
 11
646.2433501725
 21
-78.4022092218
 31
0.0
  0
LINE
  5
308
330
1F
100
AcDbEntity
  8
0
  6
Continuous
 62
     7
370
    25
100
AcDbLine
 10
646.2433501725
 20
-75.2022092218
 30
0.0
 11
646.2433501725
 21
-70.1022092218
 31
0.0
  0
LINE
  5
309
330
1F
100
AcDbEntity
  8
0
  6
Continuous
 62
     7
370
    25
100
AcDbLine
 10
329.2433501725
 20
-70.1022092218
 30
0.0
 11
329.2433501725
 21
-75.2022092218
 31
0.0
  0
LINE
  5
30A
330
1F
100
AcDbEntity
  8
0
  6
Continuous
 62
     7
370
    25
100
AcDbLine
 10
329.2433501725
 20
-78.4022092218
 30
0.0
 11
329.2433501725
 21
-78.5022092218
 31
0.0
  0
LINE
  5
30B
330
1F
100
AcDbEntity
  8
0
  6
Continuous
 62
     7
370
    25
100
AcDbLine
 10
333.2433501725
 20
-78.5022092218
 30
0.0
 11
333.2433501725
 21
-78.4022092218
 31
0.0
  0
LINE
  5
30C
330
1F
100
AcDbEntity
  8
0
  6
Continuous
 62
     7
370
    25
100
AcDbLine
 10
333.2433501725
 20
-75.2022092218
 30
0.0
 11
333.2433501725
 21
-70.1022092218
 31
0.0
  0
LINE
  5
30D
330
1F
100
AcDbEntity
  8
0
  6
Continuous
 62
     7
370
    25
100
AcDbLine
 10
492.2433501725
 20
-70.1022092218
 30
0.0
 11
492.2433501725
 21
-75.2022092218
 31
0.0
  0
LINE
  5
30E
330
1F
100
AcDbEntity
  8
0
  6
Continuous
 62
     7
370
    25
100
AcDbLine
 10
492.2433501725
 20
-78.4022092218
 30
0.0
 11
492.2433501725
 21
-78.5022092218
 31
0.0
  0
LINE
  5
30F
330
1F
100
AcDbEntity
  8
0
  6
Continuous
 62
     7
370
    25
100
AcDbLine
 10
496.2433501725
 20
-78.5022092218
 30
0.0
 11
496.2433501725
 21
-78.4022092218
 31
0.0
  0
LINE
  5
310
330
1F
100
AcDbEntity
  8
0
  6
Continuous
 62
     7
370
    25
100
AcDbLine
 10
496.2433501725
 20
-75.2022092218
 30
0.0
 11
496.2433501725
 21
-70.1022092218
 31
0.0
  0
LINE
  5
311
330
1F
100
AcDbEntity
  8
0
  6
Continuous
 62
     7
370
    25
100
AcDbLine
 10
179.2433501725
 20
-70.1022092218
 30
0.0
 11
179.2433501725
 21
-75.2022092218
 31
0.0
  0
LINE
  5
312
330
1F
100
AcDbEntity
  8
0
  6
Continuous
 62
     7
370
    25
100
AcDbLine
 10
179.2433501725
 20
-78.4022092218
 30
0.0
 11
179.2433501725
 21
-78.5022092218
 31
0.0
  0
LINE
  5
313
330
1F
100
AcDbEntity
  8
0
  6
Continuous
 62
     7
370
    25
100
AcDbLine
 10
183.2433501725
 20
-78.5022092218
 30
0.0
 11
183.2433501725
 21
-78.4022092218
 31
0.0
  0
LINE
  5
314
330
1F
100
AcDbEntity
  8
0
  6
Continuous
 62
     7
370
    25
100
AcDbLine
 10
183.2433501725
 20
-75.2022092218
 30
0.0
 11
183.2433501725
 21
-70.1022092218
 31
0.0
  0
ARC
  5
315
330
1F
100
AcDbEntity
  8
0
  6
Continuous
 62
     7
370
    25
100
AcDbCircle
 10
161.0433501725
 20
-61.0022092217
 30
0.0
 40
0.5000000000000284
100
AcDbArc
 50
0.0
 51
180.0
  0
ARC
  5
316
330
1F
100
AcDbEntity
  8
0
  6
Continuous
 62
     7
370
    25
100
AcDbCircle
 10
161.0433501725
 20
-72.6022092219
 30
0.0
 40
0.5
100
AcDbArc
 50
180.0
 51
360.0
  0
LINE
  5
317
330
1F
100
AcDbEntity
  8
0
  6
Continuous
 62
     7
370
    25
100
AcDbLine
 10
151.0846001725
 20
-69.8022092218
 30
0.0
 11
159.7433501725
 21
-69.8022092218
 31
0.0
  0
LINE
  5
318
330
1F
100
AcDbEntity
  8
0
  6
Continuous
 62
     7
370
    25
100
AcDbLine
 10
159.7433501725
 20
-63.8022092218
 30
0.0
 11
151.0846001725
 21
-63.8022092218
 31
0.0
  0
LINE
  5
319
330
1F
100
AcDbEntity
  8
0
  6
Continuous
 62
     7
370
    25
100
AcDbLine
 10
151.0846001725
 20
-63.8022092218
 30
0.0
 11
150.5433501725
 21
-64.3434592218
 31
0.0
  0
LINE
  5
31A
330
1F
100
AcDbEntity
  8
0
  6
Continuous
 62
     7
370
    25
100
AcDbLine
 10
150.5433501725
 20
-69.2609592218
 30
0.0
 11
151.0846001725
 21
-69.8022092218
 31
0.0
  0
LINE
  5
31B
330
1F
100
AcDbEntity
  8
0
  6
Continuous
 62
     7
370
    25
100
AcDbLine
 10
165.5433501725
 20
-61.8022092218
 30
0.0
 11
165.2138670767
 21
-61.2315277597
 31
0.0
  0
LINE
  5
31C
330
1F
100
AcDbEntity
  8
0
  6
Continuous
 62
     7
370
    25
100
AcDbLine
 10
165.2138670767
 20
-72.3728906839
 30
0.0
 11
165.5433501725
 21
-71.8022092218
 31
0.0
  0
LINE
  5
31D
330
1F
100
AcDbEntity
  8
0
  6
Continuous
 62
     7
370
    25
100
AcDbLine
 10
667.2433501725
 20
-90.0022092218
 30
0.0
 11
665.0712571492
 21
-90.0022092218
 31
0.0
  0
LINE
  5
31E
330
1F
100
AcDbEntity
  8
0
  6
Continuous
 62
     7
370
    25
100
AcDbLine
 10
160.4154431957
 20
-90.0022092218
 30
0.0
 11
158.2433501725
 21
-90.0022092218
 31
0.0
  0
LINE
  5
31F
330
1F
100
AcDbEntity
  8
0
  6
Continuous
 62
     7
370
    25
100
AcDbLine
 10
158.2433501725
 20
-90.0022092218
 30
0.0
 11
152.2433501725
 21
-90.0022092218
 31
0.0
  0
LINE
  5
320
330
1F
100
AcDbEntity
  8
0
  6
Continuous
 62
     7
370
    25
100
AcDbLine
 10
673.2433501725
 20
-90.0022092218
 30
0.0
 11
667.2433501725
 21
-90.0022092218
 31
0.0
  0
SPLINE
  5
321
330
1F
100
AcDbEntity
  8
0
  6
Continuous
 62
     7
370
    25
100
AcDbSpline
210
0.0
220
0.0
230
1.0
 70
    24
 71
     3
 72
     9
 73
     5
 74
     0
 42
0.000000001
 43
0.00000001
 40
0.0
 40
0.0
 40
0.0
 40
0.0
 40
0.5153941859554096
 40
1.0
 40
1.0
 40
1.0
 40
1.0
 10
664.9433501724766
 20
-61.127199221807
 30
0.0
 10
664.9433501724766
 20
-61.08345737375291
 30
0.0
 10
664.9433501724766
 20
-60.99858670728817
 30
0.0
 10
664.9433501724766
 20
-61.02134314253149
 30
0.0
 10
664.9433501724766
 20
-61.03237104335732
 30
0.0
  0
SPLINE
  5
322
330
1F
100
AcDbEntity
  8
0
  6
Continuous
 62
     7
370
    25
100
AcDbSpline
210
0.0
220
0.0
230
1.0
 70
    24
 71
     3
 72
    17
 73
    13
 74
     0
 42
0.000000001
 43
0.00000001
 40
0.0
 40
0.0
 40
0.0
 40
0.0
 40
0.0359921626376355
 40
0.1205930661280437
 40
0.2034359252874578
 40
0.3573281084250902
 40
0.5112202915627204
 40
0.5940631507221373
 40
0.678664054212545
 40
0.7632649577029524
 40
0.8461078168623694
 40
1.0
 40
1.0
 40
1.0
 40
1.0
 10
663.9433501724765
 20
-61.03237104334639
 30
0.0
 10
663.9433501724765
 20
-61.0252196563051
 30
0.0
 10
663.9433501724765
 20
-61.00125867071338
 30
0.0
 10
663.9433501724766
 20
-61.21926359694899
 30
0.0
 10
663.9433501724766
 20
-61.79105069403614
 30
0.0
 10
663.9433501724765
 20
-62.9880672701264
 30
0.0
 10
663.9433501724766
 20
-64.63412403000349
 30
0.0
 10
663.9433501724765
 20
-66.11931438221731
 30
0.0
 10
663.9433501724766
 20
-67.31534250659153
 30
0.0
 10
663.9433501724765
 20
-68.48510791938098
 30
0.0
 10
663.9433501724765
 20
-69.90705509996474
 30
0.0
 10
663.9433501724766
 20
-70.7193223798249
 30
0.0
 10
663.9433501724765
 20
-71.24734553928646
 30
0.0
  0
SPLINE
  5
323
330
1F
100
AcDbEntity
  8
0
  6
Continuous
 62
     7
370
    25
100
AcDbSpline
210
0.0
220
0.0
230
1.0
 70
     8
 71
     3
 72
     8
 73
     4
 74
     0
 42
0.000000001
 43
0.00000001
 40
0.0
 40
0.0
 40
0.0
 40
0.0
 40
1.0
 40
1.0
 40
1.0
 40
1.0
 10
659.9433501724836
 20
-68.51493004950883
 30
0.0
 10
659.9433501724836
 20
-69.44060162812912
 30
0.0
 10
660.117665472863
 20
-70.34093797294841
 30
0.0
 10
660.389932159875
 20
-71.2270379238576
 30
0.0
  0
SPLINE
  5
324
330
1F
100
AcDbEntity
  8
0
  6
Continuous
 62
     7
370
    25
100
AcDbSpline
210
0.0
220
0.0
230
1.0
 70
     8
 71
     3
 72
     8
 73
     4
 74
     0
 42
0.000000001
 43
0.00000001
 40
0.0
 40
0.0
 40
0.0
 40
0.0
 40
1.0
 40
1.0
 40
1.0
 40
1.0
 10
660.389932159875
 20
-65.80282217516014
 30
0.0
 10
660.1176654728635
 20
-66.68892212606765
 30
0.0
 10
659.9433501724836
 20
-67.5892584708903
 30
0.0
 10
659.9433501724836
 20
-68.51493004950883
 30
0.0
  0
LINE
  5
325
330
1F
100
AcDbEntity
  8
0
  6
Continuous
 62
     7
370
    25
100
AcDbLine
 10
663.9433501725
 20
-65.8028221752
 30
0.0
 11
660.3899321599
 21
-65.8028221752
 31
0.0
  0
LINE
  5
326
330
1F
100
AcDbEntity
  8
0
  6
Continuous
 62
     7
370
    25
100
AcDbLine
 10
663.9433501725
 20
-71.2270379239
 30
0.0
 11
660.3899321599
 21
-71.2270379239
 31
0.0
  0
SPLINE
  5
327
330
1F
100
AcDbEntity
  8
0
  6
Continuous
 62
     7
370
    25
100
AcDbSpline
210
0.0
220
0.0
230
1.0
 70
     8
 71
     3
 72
     8
 73
     4
 74
     0
 42
0.000000001
 43
0.00000001
 40
0.0
 40
0.0
 40
0.0
 40
0.0
 40
1.0
 40
1.0
 40
1.0
 40
1.0
 10
659.9433501724837
 20
-63.59040782413183
 30
0.0
 10
659.9433501724837
 20
-64.34552863043976
 30
0.0
 10
660.1176654728631
 20
-65.07998210438322
 30
0.0
 10
660.389932159875
 20
-65.80282217515354
 30
0.0
  0
SPLINE
  5
328
330
1F
100
AcDbEntity
  8
0
  6
Continuous
 62
     7
370
    25
100
AcDbSpline
210
0.0
220
0.0
230
1.0
 70
     8
 71
     3
 72
     8
 73
     4
 74
     0
 42
0.000000001
 43
0.00000001
 40
0.0
 40
0.0
 40
0.0
 40
0.0
 40
1.0
 40
1.0
 40
1.0
 40
1.0
 10
660.389932159875
 20
-61.37799347311004
 30
0.0
 10
660.1176654728636
 20
-62.1008335438793
 30
0.0
 10
659.9433501724837
 20
-62.83528701782501
 30
0.0
 10
659.9433501724837
 20
-63.59040782413183
 30
0.0
  0
LINE
  5
329
330
1F
100
AcDbEntity
  8
0
  6
Continuous
 62
     7
370
    25
100
AcDbLine
 10
660.3899321599
 20
-61.3779934731
 30
0.0
 11
663.9433501725
 21
-61.3779934731
 31
0.0
  0
LINE
  5
32A
330
1F
100
AcDbEntity
  8
0
  6
Continuous
 62
     7
370
    25
100
AcDbLine
 10
659.9433501725
 20
-63.5904078241
 30
0.0
 11
659.9433501725
 21
-68.5149300495
 31
0.0
  0
SPLINE
  5
32B
330
1F
100
AcDbEntity
  8
0
  6
Continuous
 62
     7
370
    25
100
AcDbSpline
210
0.0
220
0.0
230
1.0
 70
     8
 71
     3
 72
     8
 73
     4
 74
     0
 42
0.000000001
 43
0.00000001
 40
0.0
 40
0.0
 40
0.0
 40
0.0
 40
1.0
 40
1.0
 40
1.0
 40
1.0
 10
660.389932159875
 20
-71.22703792386203
 30
0.0
 10
660.1176654728636
 20
-71.39029780400044
 30
0.0
 10
659.9433501724837
 20
-71.55618067487684
 30
0.0
 10
659.9433501724837
 20
-71.72673144718871
 30
0.0
  0
LINE
  5
32C
330
1F
100
AcDbEntity
  8
0
  6
Continuous
 62
     7
370
    25
100
AcDbLine
 10
659.9433501725
 20
-68.5149300495
 30
0.0
 11
659.9433501725
 21
-71.7267314472
 31
0.0
  0
SPLINE
  5
32D
330
1F
100
AcDbEntity
  8
0
  6
Continuous
 62
     7
370
    25
100
AcDbSpline
210
0.0
220
0.0
230
1.0
 70
     8
 71
     3
 72
     8
 73
     4
 74
     0
 42
0.000000001
 43
0.00000001
 40
0.0
 40
0.0
 40
0.0
 40
0.0
 40
1.0
 40
1.0
 40
1.0
 40
1.0
 10
659.9433501724837
 20
-61.87768699643444
 30
0.0
 10
659.9433501724837
 20
-61.70713622412213
 30
0.0
 10
660.1176654728629
 20
-61.54125335324655
 30
0.0
 10
660.389932159875
 20
-61.37799347310773
 30
0.0
  0
LINE
  5
32E
330
1F
100
AcDbEntity
  8
0
  6
Continuous
 62
     7
370
    25
100
AcDbLine
 10
659.9433501725
 20
-63.5904078241
 30
0.0
 11
659.9433501725
 21
-61.8068472561
 31
0.0
  0
SPLINE
  5
32F
330
1F
100
AcDbEntity
  8
0
  6
Continuous
 62
     7
370
    25
100
AcDbSpline
210
0.0
220
0.0
230
1.0
 70
     8
 71
     3
 72
     8
 73
     4
 74
     0
 42
0.000000001
 43
0.00000001
 40
0.0
 40
0.0
 40
0.0
 40
0.0
 40
1.0
 40
1.0
 40
1.0
 40
1.0
 10
659.9433501724837
 20
-71.72673144718871
 30
0.0
 10
659.9433501724837
 20
-71.89728221950092
 30
0.0
 10
660.1176654728631
 20
-72.06316509037671
 30
0.0
 10
660.3899321598751
 20
-72.22642497051542
 30
0.0
  0
LINE
  5
330
330
1F
100
AcDbEntity
  8
0
  6
Continuous
 62
     7
370
    25
100
AcDbLine
 10
663.9433501725
 20
-72.2264249705
 30
0.0
 11
660.3899321599
 21
-72.2264249705
 31
0.0
  0
LINE
  5
331
330
1F
100
AcDbEntity
  8
0
  6
Continuous
 62
     7
370
    25
100
AcDbLine
 10
674.9433501725
 20
-69.2609592218
 30
0.0
 11
674.9433501725
 21
-64.3434592218
 31
0.0
  0
LINE
  5
332
330
1F
100
AcDbEntity
  8
0
  6
Continuous
 62
     7
370
    25
100
AcDbLine
 10
674.4021001725
 20
-64.8751283832
 30
0.0
 11
674.4021001725
 21
-63.8022092218
 31
0.0
  0
LINE
  5
333
330
1F
100
AcDbEntity
  8
0
  6
Continuous
 62
     7
370
    25
100
AcDbLine
 10
674.4021001725
 20
-69.8022092218
 30
0.0
 11
674.4021001725
 21
-64.8751283832
 31
0.0
  0
ARC
  5
334
330
1F
100
AcDbEntity
  8
0
  6
Continuous
 62
     7
370
    25
100
AcDbCircle
 10
667.2433501725
 20
-89.4022092218
 30
0.0
 40
3.0
100
AcDbArc
 50
227.6305369016
 51
270.0
  0
LINE
  5
335
330
1F
100
AcDbEntity
  8
0
  6
Continuous
 62
     7
370
    25
100
AcDbLine
 10
679.2433501725
 20
-92.4022092218
 30
0.0
 11
667.2433501725
 21
-92.4022092218
 31
0.0
  0
ARC
  5
336
330
1F
100
AcDbEntity
  8
0
  6
Continuous
 62
     7
370
    25
100
AcDbCircle
 10
679.2433501725
 20
-89.4022092218
 30
0.0
 40
3.000000000000114
100
AcDbArc
 50
270.0
 51
0.0
  0
LINE
  5
337
330
1F
100
AcDbEntity
  8
0
  6
Continuous
 62
     7
370
    25
100
AcDbLine
 10
682.2433501725
 20
-88.4022092218
 30
0.0
 11
682.2433501725
 21
-89.4022092218
 31
0.0
  0
LINE
  5
338
330
1F
100
AcDbEntity
  8
0
  6
Continuous
 62
     7
370
    25
100
AcDbLine
 10
708.7726394944
 20
-85.4022092218
 30
0.0
 11
685.2433501725
 21
-85.4022092218
 31
0.0
  0
LINE
  5
339
330
1F
100
AcDbEntity
  8
0
  6
Continuous
 62
     7
370
    25
100
AcDbLine
 10
708.7726394944
 20
-95.0022092218
 30
0.0
 11
708.7726394944
 21
-85.4022092218
 31
0.0
  0
LINE
  5
33A
330
1F
100
AcDbEntity
  8
0
  6
Continuous
 62
     7
370
    25
100
AcDbLine
 10
116.7140608506
 20
-95.0022092218
 30
0.0
 11
116.7140608506
 21
-85.4022092218
 31
0.0
  0
LINE
  5
33B
330
1F
100
AcDbEntity
  8
0
  6
Continuous
 62
     7
370
    25
100
AcDbLine
 10
140.2433501725
 20
-85.4022092218
 30
0.0
 11
116.7140608506
 21
-85.4022092218
 31
0.0
  0
ARC
  5
33C
330
1F
100
AcDbEntity
  8
0
  6
Continuous
 62
     7
370
    25
100
AcDbCircle
 10
140.2433501725
 20
-88.4022092218
 30
0.0
 40
2.999999999999986
100
AcDbArc
 50
0.0
 51
90.0
  0
LINE
  5
33D
330
1F
100
AcDbEntity
  8
0
  6
Continuous
 62
     7
370
    25
100
AcDbLine
 10
143.2433501725
 20
-88.4022092218
 30
0.0
 11
143.2433501725
 21
-89.4022092218
 31
0.0
  0
ARC
  5
33E
330
1F
100
AcDbEntity
  8
0
  6
Continuous
 62
     7
370
    25
100
AcDbCircle
 10
146.2433501725
 20
-89.4022092218
 30
0.0
 40
3.0
100
AcDbArc
 50
180.0
 51
270.0
  0
LINE
  5
33F
330
1F
100
AcDbEntity
  8
0
  6
Continuous
 62
     7
370
    25
100
AcDbLine
 10
146.2433501725
 20
-92.4022092218
 30
0.0
 11
158.2433501725
 21
-92.4022092218
 31
0.0
  0
ARC
  5
340
330
1F
100
AcDbEntity
  8
0
  6
Continuous
 62
     7
370
    25
100
AcDbCircle
 10
158.2433501725
 20
-89.4022092218
 30
0.0
 40
3.0
100
AcDbArc
 50
270.0
 51
312.3694630984
  0
ARC
  5
341
330
1F
100
AcDbEntity
  8
0
  6
Continuous
 62
     7
370
    25
100
AcDbCircle
 10
685.2433501725
 20
-88.4022092218
 30
0.0
 40
3.0
100
AcDbArc
 50
90.0
 51
180.0
  0
SPLINE
  5
342
330
1F
100
AcDbEntity
  8
0
  6
Continuous
 62
     7
370
    25
100
AcDbSpline
210
0.0
220
0.0
230
1.0
 70
     8
 71
     3
 72
    20
 73
    16
 74
     0
 42
0.000000001
 43
0.00000001
 40
0.0
 40
0.0
 40
0.0
 40
0.0
 40
0.1250000000000024
 40
0.1250000000000024
 40
0.2500000000000048
 40
0.2500000000000048
 40
0.3750000000000072
 40
0.3750000000000072
 40
0.5000000000000097
 40
0.5000000000000097
 40
0.7499999999999997
 40
0.7499999999999997
 40
0.8749999999999999
 40
0.8749999999999999
 40
1.0
 40
1.0
 40
1.0
 40
1.0
 10
117.6433501724775
 20
-97.402209221807
 30
0.0
 10
117.604309441623
 20
-97.402209221807
 30
0.0
 10
117.5657907374231
 20
-97.38667266133216
 30
0.0
 10
117.4883839861152
 20
-97.32535430937156
 30
0.0
 10
117.4492395681286
 20
-97.27893056378475
 30
0.0
 10
117.3720888142133
 20
-97.15897969363063
 30
0.0
 10
117.3337612324724
 20
-97.08537504934719
 30
0.0
 10
117.256214911996
 20
-96.91064468325159
 30
0.0
 10
117.2172387043271
 20
-96.80979405435004
 30
0.0
 10
117.1017438478822
 20
-96.47850877436606
 30
0.0
 10
117.023831404212
 20
-96.2108286129822
 30
0.0
 10
116.9083514788111
 20
-95.77815458692679
 30
0.0
 10
116.8694856829461
 20
-95.62663650007565
 30
0.0
 10
116.7917113492776
 20
-95.31721074268955
 30
0.0
 10
116.7531015823228
 20
-95.16058841299572
 30
0.0
 10
116.7140608505962
 20
-95.002209221807
 30
0.0
  0
LINE
  5
343
330
1F
100
AcDbEntity
  8
0
  6
Continuous
 62
     7
370
    25
100
AcDbLine
 10
707.8433501725
 20
-97.4022092218
 30
0.0
 11
117.6433501725
 21
-97.4022092218
 31
0.0
  0
SPLINE
  5
344
330
1F
100
AcDbEntity
  8
0
  6
Continuous
 62
     7
370
    25
100
AcDbSpline
210
0.0
220
0.0
230
1.0
 70
     8
 71
     3
 72
    20
 73
    16
 74
     0
 42
0.000000001
 43
0.00000001
 40
0.0
 40
0.0
 40
0.0
 40
0.0
 40
0.1250000000000001
 40
0.1250000000000001
 40
0.2500000000000001
 40
0.2500000000000001
 40
0.3750000000000001
 40
0.3750000000000001
 40
0.5
 40
0.5
 40
0.75
 40
0.75
 40
0.8750000000000001
 40
0.8750000000000001
 40
1.0
 40
1.0
 40
1.0
 40
1.0
 10
708.7726394943587
 20
-95.00220922180706
 30
0.0
 10
708.7335987635043
 20
-95.16058840945774
 30
0.0
 10
708.6950800593044
 20
-95.31683413414946
 30
0.0
 10
708.6176733079965
 20
-95.62482598356605
 30
0.0
 10
708.5785288900099
 20
-95.7774700910372
 30
0.0
 10
708.5013781360947
 20
-96.06655438022425
 30
0.0
 10
708.4630505543536
 20
-96.20435891840827
 30
0.0
 10
708.3855042338769
 20
-96.46597759404716
 30
0.0
 10
708.3465280262085
 20
-96.58872390072983
 30
0.0
 10
708.2310331697637
 20
-96.92004827767752
 30
0.0
 10
708.1531207260933
 20
-97.09905940170574
 30
0.0
 10
708.0376408006923
 20
-97.27867450108663
 30
0.0
 10
707.9987750048273
 20
-97.32491884995433
 30
0.0
 10
707.9210006711589
 20
-97.38667215596556
 30
0.0
 10
707.8823909042042
 20
-97.40220922180698
 30
0.0
 10
707.8433501724775
 20
-97.402209221807
 30
0.0
  0
SPLINE
  5
345
330
1F
100
AcDbEntity
  8
0
  6
Continuous
 62
     7
370
    25
100
AcDbSpline
210
0.0
220
0.0
230
1.0
 70
     8
 71
     3
 72
     9
 73
     5
 74
     0
 42
0.000000001
 43
0.00000001
 40
0.0
 40
0.0
 40
0.0
 40
0.0
 40
0.4825784287293078
 40
0.9999999999999999
 40
0.9999999999999999
 40
0.9999999999999999
 40
0.9999999999999999
 10
708.6195204044238
 20
-95.61474896098521
 30
0.0
 10
708.6833285974852
 20
-95.52661461966879
 30
0.0
 10
708.8155520647243
 20
-95.34398245861574
 30
0.0
 10
708.8338713691809
 20
-95.11874957457117
 30
0.0
 10
708.8433501724775
 20
-95.00220922180701
 30
0.0
  0
LINE
  5
346
330
1F
100
AcDbEntity
  8
0
  6
Continuous
 62
     7
370
    25
100
AcDbLine
 10
710.2433501725
 20
-95.0022092218
 30
0.0
 11
708.8433501725
 21
-95.0022092218
 31
0.0
  0
SPLINE
  5
347
330
1F
100
AcDbEntity
  8
0
  6
Continuous
 62
     7
370
    25
100
AcDbSpline
210
0.0
220
0.0
230
1.0
 70
     8
 71
     3
 72
    20
 73
    16
 74
     0
 42
0.000000001
 43
0.00000001
 40
0.0
 40
0.0
 40
0.0
 40
0.0
 40
0.1249999999999952
 40
0.1249999999999952
 40
0.2499999999999904
 40
0.2499999999999904
 40
0.3749999999999856
 40
0.3749999999999856
 40
0.4999999999999808
 40
0.4999999999999808
 40
0.7500000000000009
 40
0.7500000000000009
 40
0.8750000000000004
 40
0.8750000000000004
 40
1.0
 40
1.0
 40
1.0
 40
1.0
 10
707.8433501724775
 20
-97.40220922180701
 30
0.0
 10
708.0017293601281
 20
-97.40220922180701
 30
0.0
 10
708.1579750848199
 20
-97.38667266133217
 30
0.0
 10
708.4659669342363
 20
-97.32535430937156
 30
0.0
 10
708.6186110417075
 20
-97.27893056378473
 30
0.0
 10
708.9076953308946
 20
-97.1589796936306
 30
0.0
 10
709.0454998690788
 20
-97.08537504934718
 30
0.0
 10
709.3071185447175
 20
-96.91064468325156
 30
0.0
 10
709.4298648514001
 20
-96.80979405434998
 30
0.0
 10
709.7611892283477
 20
-96.47850877436606
 30
0.0
 10
709.9402003523762
 20
-96.2108286129822
 30
0.0
 10
710.1198154517572
 20
-95.77815458692679
 30
0.0
 10
710.1660598006248
 20
-95.62663650007565
 30
0.0
 10
710.2278131066361
 20
-95.31721074268954
 30
0.0
 10
710.2433501724777
 20
-95.16058841299575
 30
0.0
 10
710.2433501724774
 20
-95.00220922180702
 30
0.0
  0
SPLINE
  5
348
330
1F
100
AcDbEntity
  8
0
  6
Continuous
 62
     7
370
    25
100
AcDbSpline
210
0.0
220
0.0
230
1.0
 70
     8
 71
     3
 72
    20
 73
    16
 74
     0
 42
0.000000001
 43
0.00000001
 40
0.0
 40
0.0
 40
0.0
 40
0.0
 40
0.1249999999999989
 40
0.1249999999999989
 40
0.2499999999999976
 40
0.2499999999999976
 40
0.3749999999999963
 40
0.3749999999999963
 40
0.4999999999999949
 40
0.4999999999999949
 40
0.7499999999999973
 40
0.7499999999999973
 40
0.8749999999999987
 40
0.8749999999999987
 40
1.0
 40
1.0
 40
1.0
 40
1.0
 10
115.2433501724775
 20
-95.00220922180702
 30
0.0
 10
115.2433501724774
 20
-95.16058840945772
 30
0.0
 10
115.2588867329523
 20
-95.31683413414942
 30
0.0
 10
115.3202050849129
 20
-95.62482598356603
 30
0.0
 10
115.3666288304998
 20
-95.77747009103715
 30
0.0
 10
115.486579700654
 20
-96.0665543802242
 30
0.0
 10
115.5601843449373
 20
-96.20435891840827
 30
0.0
 10
115.7349147110329
 20
-96.46597759404719
 30
0.0
 10
115.8357653399346
 20
-96.58872390072979
 30
0.0
 10
116.1670506199187
 20
-96.92004827767745
 30
0.0
 10
116.4347307813024
 20
-97.09905940170574
 30
0.0
 10
116.8674048073578
 20
-97.27867450108663
 30
0.0
 10
117.0189228942088
 20
-97.32491884995434
 30
0.0
 10
117.3283486515949
 20
-97.38667215596556
 30
0.0
 10
117.4849709812887
 20
-97.40220922180701
 30
0.0
 10
117.6433501724775
 20
-97.40220922180701
 30
0.0
  0
LINE
  5
349
330
1F
100
AcDbEntity
  8
0
  6
Continuous
 62
     7
370
    25
100
AcDbLine
 10
115.2433501725
 20
-95.0022092218
 30
0.0
 11
116.6433501725
 21
-95.0022092218
 31
0.0
  0
SPLINE
  5
34A
330
1F
100
AcDbEntity
  8
0
  6
Continuous
 62
     7
370
    25
100
AcDbSpline
210
0.0
220
0.0
230
1.0
 70
     8
 71
     3
 72
     9
 73
     5
 74
     0
 42
0.000000001
 43
0.00000001
 40
0.0
 40
0.0
 40
0.0
 40
0.0
 40
0.6784508005727261
 40
1.0
 40
1.0
 40
1.0
 40
1.0
 10
116.6433501724775
 20
-95.00220922180701
 30
0.0
 10
116.656599742942
 20
-95.15291642626029
 30
0.0
 10
116.6761288973821
 20
-95.37505074215477
 30
0.0
 10
116.8169765510211
 20
-95.54188384704402
 30
0.0
 10
116.8622660012899
 20
-95.59552889835913
 30
0.0
  0
LINE
  5
34B
330
1F
100
AcDbEntity
  8
0
  6
Continuous
 62
     7
370
    25
100
AcDbLine
 10
708.8433501725
 20
-95.0022092218
 30
0.0
 11
708.8433501725
 21
-85.4022092218
 31
0.0
  0
LINE
  5
34C
330
1F
100
AcDbEntity
  8
0
  6
Continuous
 62
     7
370
    25
100
AcDbLine
 10
710.2433501725
 20
-85.4022092218
 30
0.0
 11
708.8433501725
 21
-85.4022092218
 31
0.0
  0
LINE
  5
34D
330
1F
100
AcDbEntity
  8
0
  6
Continuous
 62
     7
370
    25
100
AcDbLine
 10
710.2433501725
 20
-95.0022092218
 30
0.0
 11
710.2433501725
 21
-85.4022092218
 31
0.0
  0
LINE
  5
34E
330
1F
100
AcDbEntity
  8
0
  6
Continuous
 62
     7
370
    25
100
AcDbLine
 10
116.6433501725
 20
-95.0022092218
 30
0.0
 11
116.6433501725
 21
-85.4022092218
 31
0.0
  0
LINE
  5
34F
330
1F
100
AcDbEntity
  8
0
  6
Continuous
 62
     7
370
    25
100
AcDbLine
 10
115.2433501725
 20
-85.4022092218
 30
0.0
 11
116.6433501725
 21
-85.4022092218
 31
0.0
  0
LINE
  5
350
330
1F
100
AcDbEntity
  8
0
  6
Continuous
 62
     7
370
    25
100
AcDbLine
 10
115.2433501725
 20
-95.0022092218
 30
0.0
 11
115.2433501725
 21
-85.4022092218
 31
0.0
  0
LINE
  5
351
330
1F
100
AcDbEntity
  8
0
  6
Continuous
 62
     7
370
    25
100
AcDbLine
 10
160.5433501725
 20
-78.3022092218
 30
0.0
 11
160.5433501725
 21
-61.3022092218
 31
0.0
  0
LINE
  5
352
330
1F
100
AcDbEntity
  8
0
  6
Continuous
 62
     7
370
    25
100
AcDbLine
 10
159.7433501725
 20
-78.3022092218
 30
0.0
 11
159.7433501725
 21
-61.3022092218
 31
0.0
  0
LINE
  5
353
330
1F
100
AcDbEntity
  8
0
  6
Continuous
 62
     7
370
    25
100
AcDbLine
 10
664.9433501725
 20
-61.3022092218
 30
0.0
 11
664.9433501725
 21
-58.3022092218
 31
0.0
  0
LINE
  5
354
330
1F
100
AcDbEntity
  8
0
  6
Continuous
 62
     7
370
    25
100
AcDbLine
 10
664.9433501725
 20
-58.3022092218
 30
0.0
 11
665.7433501725
 21
-58.3022092218
 31
0.0
  0
LINE
  5
355
330
1F
100
AcDbEntity
  8
0
  6
Continuous
 62
     7
370
    25
100
AcDbLine
 10
665.7433501725
 20
-58.3022092218
 30
0.0
 11
665.7433501725
 21
-61.3022092218
 31
0.0
  0
LINE
  5
356
330
1F
100
AcDbEntity
  8
0
  6
Continuous
 62
     7
370
    25
100
AcDbLine
 10
159.7433501725
 20
-58.3022092218
 30
0.0
 11
160.5433501725
 21
-58.3022092218
 31
0.0
  0
LINE
  5
357
330
1F
100
AcDbEntity
  8
0
  6
Continuous
 62
     7
370
    25
100
AcDbLine
 10
160.5433501725
 20
-58.3022092218
 30
0.0
 11
160.5433501725
 21
-61.3022092218
 31
0.0
  0
LINE
  5
358
330
1F
100
AcDbEntity
  8
0
  6
Continuous
 62
     7
370
    25
100
AcDbLine
 10
159.7433501725
 20
-61.3022092218
 30
0.0
 11
159.7433501725
 21
-58.3022092218
 31
0.0
  0
LINE
  5
359
330
1F
100
AcDbEntity
  8
0
  6
Continuous
 62
     7
370
    25
100
AcDbLine
 10
665.7433501725
 20
-61.3022092218
 30
0.0
 11
665.7433501725
 21
-78.3022092218
 31
0.0
  0
LINE
  5
35A
330
1F
100
AcDbEntity
  8
0
  6
Continuous
 62
     7
370
    25
100
AcDbLine
 10
664.9433501725
 20
-61.3022092218
 30
0.0
 11
664.9433501725
 21
-78.3022092218
 31
0.0
  0
LINE
  5
35B
330
1F
100
AcDbEntity
  8
0
  6
Continuous
 62
     7
370
    25
100
AcDbLine
 10
665.7433501725
 20
-81.3022092218
 30
0.0
 11
664.9433501725
 21
-81.3022092218
 31
0.0
  0
LINE
  5
35C
330
1F
100
AcDbEntity
  8
0
  6
Continuous
 62
     7
370
    25
100
AcDbLine
 10
665.7433501725
 20
-78.3022092218
 30
0.0
 11
665.7433501725
 21
-81.3022092218
 31
0.0
  0
LINE
  5
35D
330
1F
100
AcDbEntity
  8
0
  6
Continuous
 62
     7
370
    25
100
AcDbLine
 10
664.9433501725
 20
-81.3022092218
 30
0.0
 11
664.9433501725
 21
-78.3022092218
 31
0.0
  0
LINE
  5
35E
330
1F
100
AcDbEntity
  8
0
  6
Continuous
 62
     7
370
    25
100
AcDbLine
 10
160.5433501725
 20
-81.3022092218
 30
0.0
 11
159.7433501725
 21
-81.3022092218
 31
0.0
  0
LINE
  5
35F
330
1F
100
AcDbEntity
  8
0
  6
Continuous
 62
     7
370
    25
100
AcDbLine
 10
160.5433501725
 20
-78.3022092218
 30
0.0
 11
160.5433501725
 21
-81.3022092218
 31
0.0
  0
LINE
  5
360
330
1F
100
AcDbEntity
  8
0
  6
Continuous
 62
     7
370
    25
100
AcDbLine
 10
159.7433501725
 20
-81.3022092218
 30
0.0
 11
159.7433501725
 21
-78.3022092218
 31
0.0
  0
LINE
  5
361
330
1F
100
AcDbEntity
  8
0
  6
Continuous
 62
     7
370
    25
100
AcDbLine
 10
662.7433501725
 20
-78.5022092218
 30
0.0
 11
162.7433501725
 21
-78.5022092218
 31
0.0
  0
LINE
  5
362
330
1F
100
AcDbEntity
  8
0
  6
Continuous
 62
     7
370
    25
100
AcDbLine
 10
662.7433501725
 20
-79.3022092218
 30
0.0
 11
662.7433501725
 21
-78.5022092218
 31
0.0
  0
LINE
  5
363
330
1F
100
AcDbEntity
  8
0
  6
Continuous
 62
     7
370
    25
100
AcDbLine
 10
162.7433501725
 20
-79.3022092218
 30
0.0
 11
162.7433501725
 21
-78.5022092218
 31
0.0
  0
LINE
  5
364
330
1F
100
AcDbEntity
  8
0
  6
Continuous
 62
     7
370
    25
100
AcDbLine
 10
458.2433501725
 20
-38.39759583
 30
0.0
 11
458.2433501725
 21
-44.9152872836
 31
0.0
  0
ARC
  5
365
330
1F
100
AcDbEntity
  8
0
  6
Continuous
 62
     7
370
    25
100
AcDbCircle
 10
461.2433501725
 20
-38.39759583
 30
0.0
 40
3.0
100
AcDbArc
 50
90.0
 51
180.0
  0
LINE
  5
366
330
1F
100
AcDbEntity
  8
0
  6
Continuous
 62
     7
370
    25
100
AcDbLine
 10
605.2433501725
 20
-35.39759583
 30
0.0
 11
461.2433501725
 21
-35.39759583
 31
0.0
  0
ARC
  5
367
330
1F
100
AcDbEntity
  8
0
  6
Continuous
 62
     7
370
    25
100
AcDbCircle
 10
605.2433501725
 20
-38.39759583
 30
0.0
 40
3.0
100
AcDbArc
 50
0.0
 51
90.0
  0
LINE
  5
368
330
1F
100
AcDbEntity
  8
0
  6
Continuous
 62
     7
370
    25
100
AcDbLine
 10
608.2433501725
 20
-44.9152872836
 30
0.0
 11
608.2433501725
 21
-38.39759583
 31
0.0
  0
LINE
  5
369
330
1F
100
AcDbEntity
  8
0
  6
Continuous
 62
     7
370
    25
100
AcDbLine
 10
217.2433501725
 20
-38.39759583
 30
0.0
 11
217.2433501725
 21
-44.9152872836
 31
0.0
  0
ARC
  5
36A
330
1F
100
AcDbEntity
  8
0
  6
Continuous
 62
     7
370
    25
100
AcDbCircle
 10
220.2433501725
 20
-38.39759583
 30
0.0
 40
3.0
100
AcDbArc
 50
90.0
 51
180.0
  0
ARC
  5
36B
330
1F
100
AcDbEntity
  8
0
  6
Continuous
 62
     7
370
    25
100
AcDbCircle
 10
364.2433501725
 20
-38.39759583
 30
0.0
 40
3.000000000000007
100
AcDbArc
 50
0.0
 51
90.0
  0
LINE
  5
36C
330
1F
100
AcDbEntity
  8
0
  6
Continuous
 62
     7
370
    25
100
AcDbLine
 10
367.2433501725
 20
-44.9152872836
 30
0.0
 11
367.2433501725
 21
-38.39759583
 31
0.0
  0
LINE
  5
36D
330
1F
100
AcDbEntity
  8
0
  6
Continuous
 62
     7
370
    25
100
AcDbLine
 10
364.2433501725
 20
-35.39759583
 30
0.0
 11
220.2433501725
 21
-35.39759583
 31
0.0
  0
LINE
  5
36E
330
1F
100
AcDbEntity
  8
0
  6
Continuous
 62
     7
370
    25
100
AcDbLine
 10
458.2433501725
 20
-45.8152872836
 30
0.0
 11
458.2433501725
 21
-44.9152872836
 31
0.0
  0
LINE
  5
36F
330
1F
100
AcDbEntity
  8
0
  6
Continuous
 62
     7
370
    25
100
AcDbLine
 10
608.2433501725
 20
-44.9152872836
 30
0.0
 11
608.2433501725
 21
-45.8152872836
 31
0.0
  0
LINE
  5
370
330
1F
100
AcDbEntity
  8
0
  6
Continuous
 62
     7
370
    25
100
AcDbLine
 10
217.2433501725
 20
-45.8152872836
 30
0.0
 11
217.2433501725
 21
-44.9152872836
 31
0.0
  0
LINE
  5
371
330
1F
100
AcDbEntity
  8
0
  6
Continuous
 62
     7
370
    25
100
AcDbLine
 10
367.2433501725
 20
-44.9152872836
 30
0.0
 11
367.2433501725
 21
-45.8152872836
 31
0.0
  0
LINE
  5
372
330
1F
100
AcDbEntity
  8
0
  6
Continuous
 62
     7
370
    25
100
AcDbLine
 10
608.2433501725
 20
-45.8152872836
 30
0.0
 11
608.2433501725
 21
-52.4401584142
 31
0.0
  0
LINE
  5
373
330
1F
100
AcDbEntity
  8
0
  6
Continuous
 62
     7
370
    25
100
AcDbLine
 10
458.2433501725
 20
-52.4401584142
 30
0.0
 11
458.2433501725
 21
-45.8152872836
 31
0.0
  0
LINE
  5
374
330
1F
100
AcDbEntity
  8
0
  6
Continuous
 62
     7
370
    25
100
AcDbLine
 10
367.2433501725
 20
-45.8152872836
 30
0.0
 11
367.2433501725
 21
-52.4401584142
 31
0.0
  0
LINE
  5
375
330
1F
100
AcDbEntity
  8
0
  6
Continuous
 62
     7
370
    25
100
AcDbLine
 10
217.2433501725
 20
-52.4401584142
 30
0.0
 11
217.2433501725
 21
-45.8152872836
 31
0.0
  0
LINE
  5
376
330
1F
100
AcDbEntity
  8
0
  6
Continuous
 62
     7
370
    25
100
AcDbLine
 10
664.9433501725
 20
-58.3022092218
 30
0.0
 11
663.9433501725
 21
-58.3022092218
 31
0.0
  0
LINE
  5
377
330
1F
100
AcDbEntity
  8
0
  6
Continuous
 62
     7
370
    25
100
AcDbLine
 10
663.9433501725
 20
-77.3022092218
 30
0.0
 11
664.9433501725
 21
-77.3022092218
 31
0.0
  0
LINE
  5
378
330
1F
100
AcDbEntity
  8
0
  6
Continuous
 62
     7
370
    25
100
AcDbLine
 10
160.5433501725
 20
-77.3022092218
 30
0.0
 11
161.5433501725
 21
-77.3022092218
 31
0.0
  0
LINE
  5
379
330
1F
100
AcDbEntity
  8
0
  6
Continuous
 62
     7
370
    25
100
AcDbLine
 10
161.5433501725
 20
-58.3022092218
 30
0.0
 11
160.5433501725
 21
-58.3022092218
 31
0.0
  0
LINE
  5
37A
330
1F
100
AcDbEntity
  8
0
  6
Continuous
 62
     7
370
    25
100
AcDbLine
 10
662.7433501725
 20
-78.5022092218
 30
0.0
 11
662.7433501725
 21
-77.5022092218
 31
0.0
  0
LINE
  5
37B
330
1F
100
AcDbEntity
  8
0
  6
Continuous
 62
     7
370
    25
100
AcDbLine
 10
162.7433501725
 20
-77.5022092218
 30
0.0
 11
162.7433501725
 21
-78.5022092218
 31
0.0
  0
LINE
  5
37C
330
1F
100
AcDbEntity
  8
0
  6
Continuous
 62
     7
370
    25
100
AcDbLine
 10
367.2433501725
 20
-52.9401584142
 30
0.0
 11
367.2433501725
 21
-52.4401584142
 31
0.0
  0
LINE
  5
37D
330
1F
100
AcDbEntity
  8
0
  6
Continuous
 62
     7
370
    25
100
AcDbLine
 10
217.2433501725
 20
-52.4401584142
 30
0.0
 11
217.2433501725
 21
-52.9401584142
 31
0.0
  0
LINE
  5
37E
330
1F
100
AcDbEntity
  8
0
  6
Continuous
 62
     7
370
    25
100
AcDbLine
 10
608.2433501725
 20
-52.9401584142
 30
0.0
 11
608.2433501725
 21
-52.4401584142
 31
0.0
  0
LINE
  5
37F
330
1F
100
AcDbEntity
  8
0
  6
Continuous
 62
     7
370
    25
100
AcDbLine
 10
458.2433501725
 20
-52.4401584142
 30
0.0
 11
458.2433501725
 21
-52.9401584142
 31
0.0
  0
LINE
  5
380
330
1F
100
AcDbEntity
  8
0
  6
Continuous
 62
     7
370
    25
100
AcDbLine
 10
162.7433501725
 20
-77.3022092218
 30
0.0
 11
162.7433501725
 21
-77.5022092218
 31
0.0
  0
LINE
  5
381
330
1F
100
AcDbEntity
  8
0
  6
Continuous
 62
     7
370
    25
100
AcDbLine
 10
161.5433501725
 20
-77.3022092218
 30
0.0
 11
162.7433501725
 21
-77.3022092218
 31
0.0
  0
LINE
  5
382
330
1F
100
AcDbEntity
  8
0
  6
Continuous
 62
     7
370
    25
100
AcDbLine
 10
164.7433501725
 20
-58.3022092218
 30
0.0
 11
161.5433501725
 21
-58.3022092218
 31
0.0
  0
LINE
  5
383
330
1F
100
AcDbEntity
  8
0
  6
Continuous
 62
     7
370
    25
100
AcDbLine
 10
164.7433501725
 20
-37.3022092218
 30
0.0
 11
164.7433501725
 21
-58.3022092218
 31
0.0
  0
ARC
  5
384
330
1F
100
AcDbEntity
  8
0
  6
Continuous
 62
     7
370
    25
100
AcDbCircle
 10
167.7433501725
 20
-37.3022092218
 30
0.0
 40
3.0
100
AcDbArc
 50
90.0
 51
180.0
  0
LINE
  5
385
330
1F
100
AcDbEntity
  8
0
  6
Continuous
 62
     7
370
    25
100
AcDbLine
 10
211.7433501725
 20
-34.3022092218
 30
0.0
 11
167.7433501725
 21
-34.3022092218
 31
0.0
  0
ARC
  5
386
330
1F
100
AcDbEntity
  8
0
  6
Continuous
 62
     7
370
    25
100
AcDbCircle
 10
211.7433501725
 20
-37.3022092218
 30
0.0
 40
3.0
100
AcDbArc
 50
0.0
 51
90.0
  0
LINE
  5
387
330
1F
100
AcDbEntity
  8
0
  6
Continuous
 62
     7
370
    25
100
AcDbLine
 10
214.7433501725
 20
-37.3022092218
 30
0.0
 11
214.7433501725
 21
-53.4322092218
 31
0.0
  0
LINE
  5
388
330
1F
100
AcDbEntity
  8
0
  6
Continuous
 62
     7
370
    25
100
AcDbLine
 10
214.7433501725
 20
-53.4322092218
 30
0.0
 11
217.2433501725
 21
-53.4322092218
 31
0.0
  0
LINE
  5
389
330
1F
100
AcDbEntity
  8
0
  6
Continuous
 62
     7
370
    25
100
AcDbLine
 10
217.2433501725
 20
-52.9401584142
 30
0.0
 11
217.2433501725
 21
-53.4322092218
 31
0.0
  0
LINE
  5
38A
330
1F
100
AcDbEntity
  8
0
  6
Continuous
 62
     7
370
    25
100
AcDbLine
 10
367.2433501725
 20
-52.9401584142
 30
0.0
 11
367.2433501725
 21
-53.4322092218
 31
0.0
  0
LINE
  5
38B
330
1F
100
AcDbEntity
  8
0
  6
Continuous
 62
     7
370
    25
100
AcDbLine
 10
367.2433501725
 20
-53.4322092218
 30
0.0
 11
369.7433501725
 21
-53.4322092218
 31
0.0
  0
LINE
  5
38C
330
1F
100
AcDbEntity
  8
0
  6
Continuous
 62
     7
370
    25
100
AcDbLine
 10
369.7433501725
 20
-53.4322092218
 30
0.0
 11
369.7433501725
 21
-37.3022092218
 31
0.0
  0
ARC
  5
38D
330
1F
100
AcDbEntity
  8
0
  6
Continuous
 62
     7
370
    25
100
AcDbCircle
 10
372.7433501725
 20
-37.3022092218
 30
0.0
 40
3.0
100
AcDbArc
 50
90.0
 51
180.0
  0
LINE
  5
38E
330
1F
100
AcDbEntity
  8
0
  6
Continuous
 62
     7
370
    25
100
AcDbLine
 10
452.7433501725
 20
-34.3022092218
 30
0.0
 11
372.7433501725
 21
-34.3022092218
 31
0.0
  0
ARC
  5
38F
330
1F
100
AcDbEntity
  8
0
  6
Continuous
 62
     7
370
    25
100
AcDbCircle
 10
452.7433501725
 20
-37.3022092218
 30
0.0
 40
3.0
100
AcDbArc
 50
0.0
 51
90.0
  0
LINE
  5
390
330
1F
100
AcDbEntity
  8
0
  6
Continuous
 62
     7
370
    25
100
AcDbLine
 10
455.7433501725
 20
-37.3022092218
 30
0.0
 11
455.7433501725
 21
-53.4322092218
 31
0.0
  0
LINE
  5
391
330
1F
100
AcDbEntity
  8
0
  6
Continuous
 62
     7
370
    25
100
AcDbLine
 10
455.7433501725
 20
-53.4322092218
 30
0.0
 11
458.2433501725
 21
-53.4322092218
 31
0.0
  0
LINE
  5
392
330
1F
100
AcDbEntity
  8
0
  6
Continuous
 62
     7
370
    25
100
AcDbLine
 10
458.2433501725
 20
-52.9401584142
 30
0.0
 11
458.2433501725
 21
-53.4322092218
 31
0.0
  0
LINE
  5
393
330
1F
100
AcDbEntity
  8
0
  6
Continuous
 62
     7
370
    25
100
AcDbLine
 10
608.2433501725
 20
-52.9401584142
 30
0.0
 11
608.2433501725
 21
-53.4322092218
 31
0.0
  0
LINE
  5
394
330
1F
100
AcDbEntity
  8
0
  6
Continuous
 62
     7
370
    25
100
AcDbLine
 10
608.2433501725
 20
-53.4322092218
 30
0.0
 11
610.7433501725
 21
-53.4322092218
 31
0.0
  0
LINE
  5
395
330
1F
100
AcDbEntity
  8
0
  6
Continuous
 62
     7
370
    25
100
AcDbLine
 10
610.7433501725
 20
-53.4322092218
 30
0.0
 11
610.7433501725
 21
-37.3022092218
 31
0.0
  0
ARC
  5
396
330
1F
100
AcDbEntity
  8
0
  6
Continuous
 62
     7
370
    25
100
AcDbCircle
 10
613.7433501725
 20
-37.3022092218
 30
0.0
 40
3.0
100
AcDbArc
 50
90.0
 51
180.0
  0
LINE
  5
397
330
1F
100
AcDbEntity
  8
0
  6
Continuous
 62
     7
370
    25
100
AcDbLine
 10
657.7433501725
 20
-34.3022092218
 30
0.0
 11
613.7433501725
 21
-34.3022092218
 31
0.0
  0
ARC
  5
398
330
1F
100
AcDbEntity
  8
0
  6
Continuous
 62
     7
370
    25
100
AcDbCircle
 10
657.7433501725
 20
-37.3022092218
 30
0.0
 40
3.0
100
AcDbArc
 50
0.0
 51
90.0
  0
LINE
  5
399
330
1F
100
AcDbEntity
  8
0
  6
Continuous
 62
     7
370
    25
100
AcDbLine
 10
660.7433501725
 20
-58.3022092218
 30
0.0
 11
660.7433501725
 21
-37.3022092218
 31
0.0
  0
LINE
  5
39A
330
1F
100
AcDbEntity
  8
0
  6
Continuous
 62
     7
370
    25
100
AcDbLine
 10
663.9433501725
 20
-58.3022092218
 30
0.0
 11
660.7433501725
 21
-58.3022092218
 31
0.0
  0
LINE
  5
39B
330
1F
100
AcDbEntity
  8
0
  6
Continuous
 62
     7
370
    25
100
AcDbLine
 10
662.7433501725
 20
-77.3022092218
 30
0.0
 11
663.9433501725
 21
-77.3022092218
 31
0.0
  0
LINE
  5
39C
330
1F
100
AcDbEntity
  8
0
  6
Continuous
 62
     7
370
    25
100
AcDbLine
 10
662.7433501725
 20
-77.5022092218
 30
0.0
 11
662.7433501725
 21
-77.3022092218
 31
0.0
  0
SPLINE
  5
39D
330
1F
100
AcDbEntity
  8
0
  6
Continuous
 62
     7
370
    25
100
AcDbSpline
210
0.0
220
0.0
230
1.0
 70
     8
 71
     3
 72
    12
 73
     8
 74
     0
 42
0.000000001
 43
0.00000001
 40
0.0
 40
0.0
 40
0.0
 40
0.0
 40
0.4999999999999906
 40
0.4999999999999906
 40
0.7499999999999952
 40
0.7499999999999952
 40
1.0
 40
1.0
 40
1.0
 40
1.0
 10
647.3790898953345
 20
-75.71688920719205
 30
0.0
 10
646.7625595054142
 20
-75.52639491776853
 30
0.0
 10
646.1367916329643
 20
-75.40472050470615
 30
0.0
 10
645.1737299235796
 20
-75.40406431417493
 30
0.0
 10
644.8530368884498
 20
-75.43389831596932
 30
0.0
 10
644.2230786384539
 20
-75.5428281860769
 30
0.0
 10
643.911849370423
 20
-75.62152337313978
 30
0.0
 10
643.6032000401383
 20
-75.71688920719252
 30
0.0
  0
LINE
  5
39E
330
1F
100
AcDbEntity
  8
0
  6
Continuous
 62
     7
370
    25
100
AcDbLine
 10
647.3790898953
 20
-75.7168892072
 30
0.0
 11
647.3790898953
 21
-77.8875292364
 31
0.0
  0
SPLINE
  5
39F
330
1F
100
AcDbEntity
  8
0
  6
Continuous
 62
     7
370
    25
100
AcDbSpline
210
0.0
220
0.0
230
1.0
 70
     8
 71
     3
 72
    12
 73
     8
 74
     0
 42
0.000000001
 43
0.00000001
 40
0.0
 40
0.0
 40
0.0
 40
0.0
 40
0.5000000000000094
 40
0.5000000000000094
 40
0.7500000000000047
 40
0.7500000000000047
 40
1.0
 40
1.0
 40
1.0
 40
1.0
 10
643.6032000401383
 20
-77.887529236422
 30
0.0
 10
644.2197304300586
 20
-78.07802352584551
 30
0.0
 10
644.8454983025083
 20
-78.19969793890789
 30
0.0
 10
645.8085600118932
 20
-78.20035412943912
 30
0.0
 10
646.1292530470229
 20
-78.17052012764474
 30
0.0
 10
646.7592112970189
 20
-78.06159025753715
 30
0.0
 10
647.0704405650497
 20
-77.98289507047426
 30
0.0
 10
647.3790898953345
 20
-77.88752923642151
 30
0.0
  0
LINE
  5
3A0
330
1F
100
AcDbEntity
  8
0
  6
Continuous
 62
     7
370
    25
100
AcDbLine
 10
643.6032000401
 20
-75.7168892072
 30
0.0
 11
643.6032000401
 21
-77.8875292364
 31
0.0
  0
SPLINE
  5
3A1
330
1F
100
AcDbEntity
  8
0
  6
Continuous
 62
     7
370
    25
100
AcDbSpline
210
0.0
220
0.0
230
1.0
 70
     8
 71
     3
 72
    14
 73
    10
 74
     0
 42
0.000000001
 43
0.00000001
 40
0.0
 40
0.0
 40
0.0
 40
0.0
 40
0.25
 40
0.25
 40
0.5
 40
0.5
 40
0.75
 40
0.75
 40
1.0
 40
1.0
 40
1.0
 40
1.0
 10
647.3790898953343
 20
-75.71688920719302
 30
0.0
 10
647.4311476042252
 20
-75.6220145978824
 30
0.0
 10
647.4844811425532
 20
-75.54240967300666
 30
0.0
 10
647.5914131501813
 20
-75.43357305811243
 30
0.0
 10
647.6451665166288
 20
-75.40424945242194
 30
0.0
 10
647.7533455680526
 20
-75.40431423416753
 30
0.0
 10
647.8081742646406
 20
-75.43447042749389
 30
0.0
 10
647.9150812473003
 20
-75.5440556288596
 30
0.0
 10
647.9675027622728
 20
-75.62259860266177
 30
0.0
 10
648.0192400276749
 20
-75.71688920719302
 30
0.0
  0
SPLINE
  5
3A2
330
1F
100
AcDbEntity
  8
0
  6
Continuous
 62
     7
370
    25
100
AcDbSpline
210
0.0
220
0.0
230
1.0
 70
     8
 71
     3
 72
    12
 73
     8
 74
     0
 42
0.000000001
 43
0.00000001
 40
0.0
 40
0.0
 40
0.0
 40
0.0
 40
0.5000000000000079
 40
0.5000000000000079
 40
0.7500000000000039
 40
0.7500000000000039
 40
1.0
 40
1.0
 40
1.0
 40
1.0
 10
643.6032000401385
 20
-75.71688920719204
 30
0.0
 10
643.0911938884336
 20
-75.52639491776851
 30
0.0
 10
642.5715163421654
 20
-75.40472050470616
 30
0.0
 10
641.7717284846028
 20
-75.4040643141749
 30
0.0
 10
641.5054045377549
 20
-75.4338983159693
 30
0.0
 10
640.9822470347535
 20
-75.5428281860769
 30
0.0
 10
640.7237824036051
 20
-75.62152337313977
 30
0.0
 10
640.467460317283
 20
-75.71688920719252
 30
0.0
  0
SPLINE
  5
3A3
330
1F
100
AcDbEntity
  8
0
  6
Continuous
 62
     7
370
    25
100
AcDbSpline
210
0.0
220
0.0
230
1.0
 70
     8
 71
     3
 72
     9
 73
     5
 74
     0
 42
0.000000001
 43
0.00000001
 40
0.0
 40
0.0
 40
0.0
 40
0.0
 40
0.3722348086954557
 40
1.0
 40
1.0
 40
1.0
 40
1.0
 10
640.4674603172831
 20
-75.71688920719303
 30
0.0
 10
640.4954265509548
 20
-75.66496489841946
 30
0.0
 10
640.5705571755457
 20
-75.52547147233294
 30
0.0
 10
640.6491010337022
 20
-75.51746274622784
 30
0.0
 10
640.6984081338438
 20
-75.51243514675235
 30
0.0
  0
LINE
  5
3A4
330
1F
100
AcDbEntity
  8
0
  6
Continuous
 62
     7
370
    25
100
AcDbLine
 10
647.3933501725
 20
-75.2022092218
 30
0.0
 11
641.0933501725
 21
-75.2022092218
 31
0.0
  0
SPLINE
  5
3A5
330
1F
100
AcDbEntity
  8
0
  6
Continuous
 62
     7
370
    25
100
AcDbSpline
210
0.0
220
0.0
230
1.0
 70
     8
 71
     3
 72
     9
 73
     5
 74
     0
 42
0.000000001
 43
0.00000001
 40
0.0
 40
0.0
 40
0.0
 40
0.0
 40
0.6277651913045446
 40
1.0
 40
1.0
 40
1.0
 40
1.0
 10
640.6984081338438
 20
-78.0919832968617
 30
0.0
 10
640.6491010337022
 20
-78.08695569738622
 30
0.0
 10
640.5705571755456
 20
-78.0789469712811
 30
0.0
 10
640.4954265509548
 20
-77.9394535451946
 30
0.0
 10
640.4674603172831
 20
-77.887529236421
 30
0.0
  0
SPLINE
  5
3A6
330
1F
100
AcDbEntity
  8
0
  6
Continuous
 62
     7
370
    25
100
AcDbSpline
210
0.0
220
0.0
230
1.0
 70
     8
 71
     3
 72
    12
 73
     8
 74
     0
 42
0.000000001
 43
0.00000001
 40
0.0
 40
0.0
 40
0.0
 40
0.0
 40
0.5000000000000079
 40
0.5000000000000079
 40
0.7500000000000039
 40
0.7500000000000039
 40
1.0
 40
1.0
 40
1.0
 40
1.0
 10
640.467460317283
 20
-77.887529236422
 30
0.0
 10
640.9794664689879
 20
-78.07802352584551
 30
0.0
 10
641.4991440152561
 20
-78.19969793890789
 30
0.0
 10
642.2989318728187
 20
-78.20035412943912
 30
0.0
 10
642.5652558196666
 20
-78.17052012764474
 30
0.0
 10
643.0884133226682
 20
-78.06159025753715
 30
0.0
 10
643.3468779538164
 20
-77.98289507047426
 30
0.0
 10
643.6032000401384
 20
-77.88752923642151
 30
0.0
  0
SPLINE
  5
3A7
330
1F
100
AcDbEntity
  8
0
  6
Continuous
 62
     7
370
    25
100
AcDbSpline
210
0.0
220
0.0
230
1.0
 70
     8
 71
     3
 72
    14
 73
    10
 74
     0
 42
0.000000001
 43
0.00000001
 40
0.0
 40
0.0
 40
0.0
 40
0.0
 40
0.25
 40
0.25
 40
0.5
 40
0.5
 40
0.75
 40
0.75
 40
1.0
 40
1.0
 40
1.0
 40
1.0
 10
647.3790898953343
 20
-77.88752923642103
 30
0.0
 10
647.4311476042252
 20
-77.98240384573164
 30
0.0
 10
647.4844811425532
 20
-78.0620087706074
 30
0.0
 10
647.5914131501813
 20
-78.17084538550162
 30
0.0
 10
647.6451665166288
 20
-78.20016899119211
 30
0.0
 10
647.7533455680526
 20
-78.20010420944651
 30
0.0
 10
647.8081742646406
 20
-78.16994801612014
 30
0.0
 10
647.9150812473003
 20
-78.06036281475444
 30
0.0
 10
647.9675027622728
 20
-77.98181984095227
 30
0.0
 10
648.0192400276749
 20
-77.88752923642102
 30
0.0
  0
LINE
  5
3A8
330
1F
100
AcDbEntity
  8
0
  6
Continuous
 62
     7
370
    25
100
AcDbLine
 10
647.3933501725
 20
-78.4022092218
 30
0.0
 11
641.0933501725
 21
-78.4022092218
 31
0.0
  0
LINE
  5
3A9
330
1F
100
AcDbEntity
  8
0
  6
Continuous
 62
     7
370
    25
100
AcDbLine
 10
640.4674603173
 20
-75.7168892072
 30
0.0
 11
640.4674603173
 21
-77.8875292364
 31
0.0
  0
LINE
  5
3AA
330
1F
100
AcDbEntity
  8
0
  6
Continuous
 62
     7
370
    25
100
AcDbLine
 10
648.0192400277
 20
-75.7168892072
 30
0.0
 11
648.0192400277
 21
-77.8875292364
 31
0.0
  0
SPLINE
  5
3AB
330
1F
100
AcDbEntity
  8
0
  6
Continuous
 62
     7
370
    25
100
AcDbSpline
210
0.0
220
0.0
230
1.0
 70
     8
 71
     3
 72
     9
 73
     5
 74
     0
 42
0.000000001
 43
0.00000001
 40
0.0
 40
0.0
 40
0.0
 40
0.0
 40
0.6277651913045457
 40
1.0
 40
1.0
 40
1.0
 40
1.0
 10
327.6984081338438
 20
-78.09198329686168
 30
0.0
 10
327.6491010337023
 20
-78.08695569738619
 30
0.0
 10
327.5705571755457
 20
-78.07894697128108
 30
0.0
 10
327.4954265509547
 20
-77.93945354519457
 30
0.0
 10
327.467460317283
 20
-77.88752923642099
 30
0.0
  0
SPLINE
  5
3AC
330
1F
100
AcDbEntity
  8
0
  6
Continuous
 62
     7
370
    25
100
AcDbSpline
210
0.0
220
0.0
230
1.0
 70
     8
 71
     3
 72
    12
 73
     8
 74
     0
 42
0.000000001
 43
0.00000001
 40
0.0
 40
0.0
 40
0.0
 40
0.0
 40
0.5
 40
0.5
 40
0.75
 40
0.75
 40
1.0
 40
1.0
 40
1.0
 40
1.0
 10
327.4674603172829
 20
-77.88752923642198
 30
0.0
 10
327.9794664689878
 20
-78.07802352584551
 30
0.0
 10
328.4991440152561
 20
-78.19969793890787
 30
0.0
 10
329.2989318728187
 20
-78.2003541294391
 30
0.0
 10
329.5652558196667
 20
-78.1705201276447
 30
0.0
 10
330.0884133226681
 20
-78.06159025753712
 30
0.0
 10
330.3468779538163
 20
-77.98289507047424
 30
0.0
 10
330.6032000401385
 20
-77.8875292364215
 30
0.0
  0
SPLINE
  5
3AD
330
1F
100
AcDbEntity
  8
0
  6
Continuous
 62
     7
370
    25
100
AcDbSpline
210
0.0
220
0.0
230
1.0
 70
     8
 71
     3
 72
    12
 73
     8
 74
     0
 42
0.000000001
 43
0.00000001
 40
0.0
 40
0.0
 40
0.0
 40
0.0
 40
0.4999999999999953
 40
0.4999999999999953
 40
0.7499999999999977
 40
0.7499999999999977
 40
1.0
 40
1.0
 40
1.0
 40
1.0
 10
330.6032000401382
 20
-77.88752923642198
 30
0.0
 10
331.2197304300585
 20
-78.07802352584551
 30
0.0
 10
331.8454983025083
 20
-78.19969793890787
 30
0.0
 10
332.8085600118932
 20
-78.2003541294391
 30
0.0
 10
333.1292530470229
 20
-78.1705201276447
 30
0.0
 10
333.7592112970189
 20
-78.06159025753712
 30
0.0
 10
334.0704405650497
 20
-77.98289507047423
 30
0.0
 10
334.3790898953344
 20
-77.8875292364215
 30
0.0
  0
SPLINE
  5
3AE
330
1F
100
AcDbEntity
  8
0
  6
Continuous
 62
     7
370
    25
100
AcDbSpline
210
0.0
220
0.0
230
1.0
 70
     8
 71
     3
 72
    14
 73
    10
 74
     0
 42
0.000000001
 43
0.00000001
 40
0.0
 40
0.0
 40
0.0
 40
0.0
 40
0.25
 40
0.25
 40
0.5
 40
0.5
 40
0.75
 40
0.75
 40
1.0
 40
1.0
 40
1.0
 40
1.0
 10
334.3790898953343
 20
-77.887529236421
 30
0.0
 10
334.4311476042251
 20
-77.98240384573161
 30
0.0
 10
334.4844811425532
 20
-78.06200877060738
 30
0.0
 10
334.5914131501814
 20
-78.17084538550161
 30
0.0
 10
334.6451665166288
 20
-78.20016899119209
 30
0.0
 10
334.7533455680526
 20
-78.2001042094465
 30
0.0
 10
334.8081742646406
 20
-78.16994801612013
 30
0.0
 10
334.9150812473003
 20
-78.06036281475443
 30
0.0
 10
334.9675027622727
 20
-77.98181984095226
 30
0.0
 10
335.0192400276749
 20
-77.887529236421
 30
0.0
  0
LINE
  5
3AF
330
1F
100
AcDbEntity
  8
0
  6
Continuous
 62
     7
370
    25
100
AcDbLine
 10
334.3933501725
 20
-78.4022092218
 30
0.0
 11
328.0933501725
 21
-78.4022092218
 31
0.0
  0
SPLINE
  5
3B0
330
1F
100
AcDbEntity
  8
0
  6
Continuous
 62
     7
370
    25
100
AcDbSpline
210
0.0
220
0.0
230
1.0
 70
     8
 71
     3
 72
    12
 73
     8
 74
     0
 42
0.000000001
 43
0.00000001
 40
0.0
 40
0.0
 40
0.0
 40
0.0
 40
0.5000000000000048
 40
0.5000000000000048
 40
0.7500000000000023
 40
0.7500000000000023
 40
1.0
 40
1.0
 40
1.0
 40
1.0
 10
334.3790898953345
 20
-75.71688920719203
 30
0.0
 10
333.7625595054142
 20
-75.5263949177685
 30
0.0
 10
333.1367916329644
 20
-75.40472050470613
 30
0.0
 10
332.1737299235795
 20
-75.40406431417492
 30
0.0
 10
331.8530368884498
 20
-75.43389831596929
 30
0.0
 10
331.2230786384538
 20
-75.5428281860769
 30
0.0
 10
330.9118493704229
 20
-75.62152337313977
 30
0.0
 10
330.6032000401383
 20
-75.71688920719251
 30
0.0
  0
LINE
  5
3B1
330
1F
100
AcDbEntity
  8
0
  6
Continuous
 62
     7
370
    25
100
AcDbLine
 10
334.3790898953
 20
-75.7168892072
 30
0.0
 11
334.3790898953
 21
-77.8875292364
 31
0.0
  0
LINE
  5
3B2
330
1F
100
AcDbEntity
  8
0
  6
Continuous
 62
     7
370
    25
100
AcDbLine
 10
330.6032000401
 20
-75.7168892072
 30
0.0
 11
330.6032000401
 21
-77.8875292364
 31
0.0
  0
SPLINE
  5
3B3
330
1F
100
AcDbEntity
  8
0
  6
Continuous
 62
     7
370
    25
100
AcDbSpline
210
0.0
220
0.0
230
1.0
 70
     8
 71
     3
 72
    14
 73
    10
 74
     0
 42
0.000000001
 43
0.00000001
 40
0.0
 40
0.0
 40
0.0
 40
0.0
 40
0.25
 40
0.25
 40
0.5
 40
0.5
 40
0.75
 40
0.75
 40
1.0
 40
1.0
 40
1.0
 40
1.0
 10
334.3790898953343
 20
-75.71688920719299
 30
0.0
 10
334.4311476042251
 20
-75.62201459788237
 30
0.0
 10
334.4844811425532
 20
-75.54240967300663
 30
0.0
 10
334.5914131501814
 20
-75.4335730581124
 30
0.0
 10
334.6451665166289
 20
-75.40424945242191
 30
0.0
 10
334.7533455680526
 20
-75.40431423416751
 30
0.0
 10
334.8081742646406
 20
-75.43447042749386
 30
0.0
 10
334.9150812473003
 20
-75.54405562885958
 30
0.0
 10
334.9675027622727
 20
-75.62259860266175
 30
0.0
 10
335.0192400276749
 20
-75.716889207193
 30
0.0
  0
SPLINE
  5
3B4
330
1F
100
AcDbEntity
  8
0
  6
Continuous
 62
     7
370
    25
100
AcDbSpline
210
0.0
220
0.0
230
1.0
 70
     8
 71
     3
 72
    12
 73
     8
 74
     0
 42
0.000000001
 43
0.00000001
 40
0.0
 40
0.0
 40
0.0
 40
0.0
 40
0.5
 40
0.5
 40
0.75
 40
0.75
 40
1.0
 40
1.0
 40
1.0
 40
1.0
 10
330.6032000401385
 20
-75.71688920719203
 30
0.0
 10
330.0911938884336
 20
-75.5263949177685
 30
0.0
 10
329.5715163421653
 20
-75.40472050470613
 30
0.0
 10
328.7717284846028
 20
-75.4040643141749
 30
0.0
 10
328.5054045377548
 20
-75.43389831596929
 30
0.0
 10
327.9822470347533
 20
-75.54282818607689
 30
0.0
 10
327.7237824036051
 20
-75.62152337313975
 30
0.0
 10
327.467460317283
 20
-75.71688920719251
 30
0.0
  0
SPLINE
  5
3B5
330
1F
100
AcDbEntity
  8
0
  6
Continuous
 62
     7
370
    25
100
AcDbSpline
210
0.0
220
0.0
230
1.0
 70
     8
 71
     3
 72
     9
 73
     5
 74
     0
 42
0.000000001
 43
0.00000001
 40
0.0
 40
0.0
 40
0.0
 40
0.0
 40
0.3722348086954546
 40
1.0
 40
1.0
 40
1.0
 40
1.0
 10
327.467460317283
 20
-75.716889207193
 30
0.0
 10
327.4954265509547
 20
-75.66496489841943
 30
0.0
 10
327.5705571755456
 20
-75.52547147233294
 30
0.0
 10
327.6491010337023
 20
-75.5174627462278
 30
0.0
 10
327.6984081338438
 20
-75.51243514675232
 30
0.0
  0
LINE
  5
3B6
330
1F
100
AcDbEntity
  8
0
  6
Continuous
 62
     7
370
    25
100
AcDbLine
 10
334.3933501725
 20
-75.2022092218
 30
0.0
 11
328.0933501725
 21
-75.2022092218
 31
0.0
  0
LINE
  5
3B7
330
1F
100
AcDbEntity
  8
0
  6
Continuous
 62
     7
370
    25
100
AcDbLine
 10
327.4674603173
 20
-75.7168892072
 30
0.0
 11
327.4674603173
 21
-77.8875292364
 31
0.0
  0
LINE
  5
3B8
330
1F
100
AcDbEntity
  8
0
  6
Continuous
 62
     7
370
    25
100
AcDbLine
 10
335.0192400277
 20
-75.7168892072
 30
0.0
 11
335.0192400277
 21
-77.8875292364
 31
0.0
  0
SPLINE
  5
3B9
330
1F
100
AcDbEntity
  8
0
  6
Continuous
 62
     7
370
    25
100
AcDbSpline
210
0.0
220
0.0
230
1.0
 70
     8
 71
     3
 72
    14
 73
    10
 74
     0
 42
0.000000001
 43
0.00000001
 40
0.0
 40
0.0
 40
0.0
 40
0.0
 40
0.25
 40
0.25
 40
0.5
 40
0.5
 40
0.75
 40
0.75
 40
1.0
 40
1.0
 40
1.0
 40
1.0
 10
497.3790898953343
 20
-75.71688920719302
 30
0.0
 10
497.4311476042251
 20
-75.6220145978824
 30
0.0
 10
497.4844811425533
 20
-75.54240967300666
 30
0.0
 10
497.5914131501813
 20
-75.43357305811243
 30
0.0
 10
497.6451665166289
 20
-75.40424945242194
 30
0.0
 10
497.7533455680526
 20
-75.40431423416753
 30
0.0
 10
497.8081742646406
 20
-75.43447042749389
 30
0.0
 10
497.9150812473005
 20
-75.5440556288596
 30
0.0
 10
497.9675027622728
 20
-75.62259860266177
 30
0.0
 10
498.0192400276749
 20
-75.71688920719302
 30
0.0
  0
SPLINE
  5
3BA
330
1F
100
AcDbEntity
  8
0
  6
Continuous
 62
     7
370
    25
100
AcDbSpline
210
0.0
220
0.0
230
1.0
 70
     8
 71
     3
 72
    12
 73
     8
 74
     0
 42
0.000000001
 43
0.00000001
 40
0.0
 40
0.0
 40
0.0
 40
0.0
 40
0.5000000000000048
 40
0.5000000000000048
 40
0.7500000000000023
 40
0.7500000000000023
 40
1.0
 40
1.0
 40
1.0
 40
1.0
 10
497.3790898953345
 20
-75.71688920719205
 30
0.0
 10
496.7625595054142
 20
-75.52639491776853
 30
0.0
 10
496.1367916329644
 20
-75.40472050470616
 30
0.0
 10
495.1737299235795
 20
-75.40406431417493
 30
0.0
 10
494.8530368884498
 20
-75.43389831596932
 30
0.0
 10
494.2230786384538
 20
-75.5428281860769
 30
0.0
 10
493.911849370423
 20
-75.62152337313978
 30
0.0
 10
493.6032000401383
 20
-75.71688920719252
 30
0.0
  0
SPLINE
  5
3BB
330
1F
100
AcDbEntity
  8
0
  6
Continuous
 62
     7
370
    25
100
AcDbSpline
210
0.0
220
0.0
230
1.0
 70
     8
 71
     3
 72
    12
 73
     8
 74
     0
 42
0.000000001
 43
0.00000001
 40
0.0
 40
0.0
 40
0.0
 40
0.0
 40
0.5
 40
0.5
 40
0.75
 40
0.75
 40
1.0
 40
1.0
 40
1.0
 40
1.0
 10
493.6032000401385
 20
-75.71688920719204
 30
0.0
 10
493.0911938884336
 20
-75.52639491776853
 30
0.0
 10
492.5715163421654
 20
-75.40472050470616
 30
0.0
 10
491.7717284846028
 20
-75.40406431417492
 30
0.0
 10
491.5054045377548
 20
-75.4338983159693
 30
0.0
 10
490.9822470347534
 20
-75.5428281860769
 30
0.0
 10
490.7237824036051
 20
-75.62152337313978
 30
0.0
 10
490.467460317283
 20
-75.71688920719252
 30
0.0
  0
SPLINE
  5
3BC
330
1F
100
AcDbEntity
  8
0
  6
Continuous
 62
     7
370
    25
100
AcDbSpline
210
0.0
220
0.0
230
1.0
 70
     8
 71
     3
 72
     9
 73
     5
 74
     0
 42
0.000000001
 43
0.00000001
 40
0.0
 40
0.0
 40
0.0
 40
0.0
 40
0.3722348086954546
 40
1.0
 40
1.0
 40
1.0
 40
1.0
 10
490.4674603172831
 20
-75.71688920719303
 30
0.0
 10
490.4954265509548
 20
-75.66496489841946
 30
0.0
 10
490.5705571755457
 20
-75.52547147233295
 30
0.0
 10
490.6491010337023
 20
-75.51746274622782
 30
0.0
 10
490.6984081338438
 20
-75.51243514675235
 30
0.0
  0
LINE
  5
3BD
330
1F
100
AcDbEntity
  8
0
  6
Continuous
 62
     7
370
    25
100
AcDbLine
 10
497.3933501725
 20
-75.2022092218
 30
0.0
 11
491.0933501725
 21
-75.2022092218
 31
0.0
  0
SPLINE
  5
3BE
330
1F
100
AcDbEntity
  8
0
  6
Continuous
 62
     7
370
    25
100
AcDbSpline
210
0.0
220
0.0
230
1.0
 70
     8
 71
     3
 72
     9
 73
     5
 74
     0
 42
0.000000001
 43
0.00000001
 40
0.0
 40
0.0
 40
0.0
 40
0.0
 40
0.6277651913045457
 40
1.0
 40
1.0
 40
1.0
 40
1.0
 10
490.6984081338438
 20
-78.0919832968617
 30
0.0
 10
490.6491010337023
 20
-78.08695569738622
 30
0.0
 10
490.5705571755457
 20
-78.0789469712811
 30
0.0
 10
490.4954265509548
 20
-77.9394535451946
 30
0.0
 10
490.467460317283
 20
-77.887529236421
 30
0.0
  0
SPLINE
  5
3BF
330
1F
100
AcDbEntity
  8
0
  6
Continuous
 62
     7
370
    25
100
AcDbSpline
210
0.0
220
0.0
230
1.0
 70
     8
 71
     3
 72
    12
 73
     8
 74
     0
 42
0.000000001
 43
0.00000001
 40
0.0
 40
0.0
 40
0.0
 40
0.0
 40
0.5
 40
0.5
 40
0.75
 40
0.75
 40
1.0
 40
1.0
 40
1.0
 40
1.0
 10
490.4674603172829
 20
-77.887529236422
 30
0.0
 10
490.9794664689879
 20
-78.07802352584552
 30
0.0
 10
491.4991440152561
 20
-78.1996979389079
 30
0.0
 10
492.2989318728186
 20
-78.20035412943912
 30
0.0
 10
492.5652558196667
 20
-78.17052012764474
 30
0.0
 10
493.0884133226681
 20
-78.06159025753715
 30
0.0
 10
493.3468779538164
 20
-77.98289507047427
 30
0.0
 10
493.6032000401385
 20
-77.88752923642151
 30
0.0
  0
SPLINE
  5
3C0
330
1F
100
AcDbEntity
  8
0
  6
Continuous
 62
     7
370
    25
100
AcDbSpline
210
0.0
220
0.0
230
1.0
 70
     8
 71
     3
 72
    12
 73
     8
 74
     0
 42
0.000000001
 43
0.00000001
 40
0.0
 40
0.0
 40
0.0
 40
0.0
 40
0.4999999999999953
 40
0.4999999999999953
 40
0.7499999999999977
 40
0.7499999999999977
 40
1.0
 40
1.0
 40
1.0
 40
1.0
 10
493.6032000401382
 20
-77.887529236422
 30
0.0
 10
494.2197304300586
 20
-78.07802352584552
 30
0.0
 10
494.8454983025083
 20
-78.19969793890789
 30
0.0
 10
495.8085600118932
 20
-78.20035412943912
 30
0.0
 10
496.1292530470229
 20
-78.17052012764474
 30
0.0
 10
496.7592112970189
 20
-78.06159025753715
 30
0.0
 10
497.0704405650498
 20
-77.98289507047426
 30
0.0
 10
497.3790898953344
 20
-77.88752923642151
 30
0.0
  0
SPLINE
  5
3C1
330
1F
100
AcDbEntity
  8
0
  6
Continuous
 62
     7
370
    25
100
AcDbSpline
210
0.0
220
0.0
230
1.0
 70
     8
 71
     3
 72
    14
 73
    10
 74
     0
 42
0.000000001
 43
0.00000001
 40
0.0
 40
0.0
 40
0.0
 40
0.0
 40
0.25
 40
0.25
 40
0.5
 40
0.5
 40
0.75
 40
0.75
 40
1.0
 40
1.0
 40
1.0
 40
1.0
 10
497.3790898953343
 20
-77.88752923642103
 30
0.0
 10
497.4311476042251
 20
-77.98240384573164
 30
0.0
 10
497.4844811425533
 20
-78.0620087706074
 30
0.0
 10
497.5914131501813
 20
-78.17084538550162
 30
0.0
 10
497.6451665166289
 20
-78.20016899119211
 30
0.0
 10
497.7533455680526
 20
-78.20010420944651
 30
0.0
 10
497.8081742646406
 20
-78.16994801612014
 30
0.0
 10
497.9150812473005
 20
-78.06036281475444
 30
0.0
 10
497.9675027622728
 20
-77.98181984095227
 30
0.0
 10
498.0192400276749
 20
-77.88752923642102
 30
0.0
  0
LINE
  5
3C2
330
1F
100
AcDbEntity
  8
0
  6
Continuous
 62
     7
370
    25
100
AcDbLine
 10
497.3933501725
 20
-78.4022092218
 30
0.0
 11
491.0933501725
 21
-78.4022092218
 31
0.0
  0
LINE
  5
3C3
330
1F
100
AcDbEntity
  8
0
  6
Continuous
 62
     7
370
    25
100
AcDbLine
 10
497.3790898953
 20
-75.7168892072
 30
0.0
 11
497.3790898953
 21
-77.8875292364
 31
0.0
  0
LINE
  5
3C4
330
1F
100
AcDbEntity
  8
0
  6
Continuous
 62
     7
370
    25
100
AcDbLine
 10
493.6032000401
 20
-75.7168892072
 30
0.0
 11
493.6032000401
 21
-77.8875292364
 31
0.0
  0
LINE
  5
3C5
330
1F
100
AcDbEntity
  8
0
  6
Continuous
 62
     7
370
    25
100
AcDbLine
 10
490.4674603173
 20
-75.7168892072
 30
0.0
 11
490.4674603173
 21
-77.8875292364
 31
0.0
  0
LINE
  5
3C6
330
1F
100
AcDbEntity
  8
0
  6
Continuous
 62
     7
370
    25
100
AcDbLine
 10
498.0192400277
 20
-75.7168892072
 30
0.0
 11
498.0192400277
 21
-77.8875292364
 31
0.0
  0
SPLINE
  5
3C7
330
1F
100
AcDbEntity
  8
0
  6
Continuous
 62
     7
370
    25
100
AcDbSpline
210
0.0
220
0.0
230
1.0
 70
     8
 71
     3
 72
     9
 73
     5
 74
     0
 42
0.000000001
 43
0.00000001
 40
0.0
 40
0.0
 40
0.0
 40
0.0
 40
0.6277651913045459
 40
1.0
 40
1.0
 40
1.0
 40
1.0
 10
177.6984081338438
 20
-78.09198329686167
 30
0.0
 10
177.6491010337023
 20
-78.08695569738617
 30
0.0
 10
177.5705571755456
 20
-78.07894697128106
 30
0.0
 10
177.4954265509548
 20
-77.93945354519455
 30
0.0
 10
177.467460317283
 20
-77.88752923642097
 30
0.0
  0
SPLINE
  5
3C8
330
1F
100
AcDbEntity
  8
0
  6
Continuous
 62
     7
370
    25
100
AcDbSpline
210
0.0
220
0.0
230
1.0
 70
     8
 71
     3
 72
    12
 73
     8
 74
     0
 42
0.000000001
 43
0.00000001
 40
0.0
 40
0.0
 40
0.0
 40
0.0
 40
0.5000000000000079
 40
0.5000000000000079
 40
0.7500000000000039
 40
0.7500000000000039
 40
1.0
 40
1.0
 40
1.0
 40
1.0
 10
177.4674603172829
 20
-77.88752923642197
 30
0.0
 10
177.9794664689878
 20
-78.0780235258455
 30
0.0
 10
178.499144015256
 20
-78.19969793890786
 30
0.0
 10
179.2989318728185
 20
-78.20035412943909
 30
0.0
 10
179.5652558196666
 20
-78.17052012764469
 30
0.0
 10
180.088413322668
 20
-78.0615902575371
 30
0.0
 10
180.3468779538162
 20
-77.98289507047421
 30
0.0
 10
180.6032000401384
 20
-77.88752923642147
 30
0.0
  0
SPLINE
  5
3C9
330
1F
100
AcDbEntity
  8
0
  6
Continuous
 62
     7
370
    25
100
AcDbSpline
210
0.0
220
0.0
230
1.0
 70
     8
 71
     3
 72
    12
 73
     8
 74
     0
 42
0.000000001
 43
0.00000001
 40
0.0
 40
0.0
 40
0.0
 40
0.0
 40
0.5000000000000094
 40
0.5000000000000094
 40
0.7500000000000047
 40
0.7500000000000047
 40
1.0
 40
1.0
 40
1.0
 40
1.0
 10
180.6032000401382
 20
-77.88752923642197
 30
0.0
 10
181.2197304300585
 20
-78.07802352584548
 30
0.0
 10
181.8454983025083
 20
-78.19969793890785
 30
0.0
 10
182.8085600118932
 20
-78.20035412943908
 30
0.0
 10
183.1292530470228
 20
-78.17052012764469
 30
0.0
 10
183.7592112970188
 20
-78.0615902575371
 30
0.0
 10
184.0704405650497
 20
-77.98289507047423
 30
0.0
 10
184.3790898953343
 20
-77.88752923642147
 30
0.0
  0
SPLINE
  5
3CA
330
1F
100
AcDbEntity
  8
0
  6
Continuous
 62
     7
370
    25
100
AcDbSpline
210
0.0
220
0.0
230
1.0
 70
     8
 71
     3
 72
    14
 73
    10
 74
     0
 42
0.000000001
 43
0.00000001
 40
0.0
 40
0.0
 40
0.0
 40
0.0
 40
0.25
 40
0.25
 40
0.5
 40
0.5
 40
0.75
 40
0.75
 40
1.0
 40
1.0
 40
1.0
 40
1.0
 10
184.3790898953343
 20
-77.88752923642099
 30
0.0
 10
184.4311476042251
 20
-77.9824038457316
 30
0.0
 10
184.4844811425532
 20
-78.06200877060736
 30
0.0
 10
184.5914131501814
 20
-78.17084538550158
 30
0.0
 10
184.6451665166288
 20
-78.20016899119207
 30
0.0
 10
184.7533455680526
 20
-78.20010420944648
 30
0.0
 10
184.8081742646405
 20
-78.16994801612012
 30
0.0
 10
184.9150812473003
 20
-78.0603628147544
 30
0.0
 10
184.9675027622727
 20
-77.98181984095223
 30
0.0
 10
185.0192400276749
 20
-77.88752923642097
 30
0.0
  0
LINE
  5
3CB
330
1F
100
AcDbEntity
  8
0
  6
Continuous
 62
     7
370
    25
100
AcDbLine
 10
184.3933501725
 20
-78.4022092218
 30
0.0
 11
178.0933501725
 21
-78.4022092218
 31
0.0
  0
SPLINE
  5
3CC
330
1F
100
AcDbEntity
  8
0
  6
Continuous
 62
     7
370
    25
100
AcDbSpline
210
0.0
220
0.0
230
1.0
 70
     8
 71
     3
 72
    14
 73
    10
 74
     0
 42
0.000000001
 43
0.00000001
 40
0.0
 40
0.0
 40
0.0
 40
0.0
 40
0.25
 40
0.25
 40
0.5
 40
0.5
 40
0.75
 40
0.75
 40
1.0
 40
1.0
 40
1.0
 40
1.0
 10
184.3790898953343
 20
-75.71688920719296
 30
0.0
 10
184.4311476042251
 20
-75.62201459788237
 30
0.0
 10
184.4844811425532
 20
-75.5424096730066
 30
0.0
 10
184.5914131501814
 20
-75.43357305811239
 30
0.0
 10
184.6451665166288
 20
-75.40424945242188
 30
0.0
 10
184.7533455680526
 20
-75.40431423416749
 30
0.0
 10
184.8081742646405
 20
-75.43447042749385
 30
0.0
 10
184.9150812473003
 20
-75.54405562885958
 30
0.0
 10
184.9675027622727
 20
-75.62259860266172
 30
0.0
 10
185.0192400276749
 20
-75.71688920719298
 30
0.0
  0
SPLINE
  5
3CD
330
1F
100
AcDbEntity
  8
0
  6
Continuous
 62
     7
370
    25
100
AcDbSpline
210
0.0
220
0.0
230
1.0
 70
     8
 71
     3
 72
    12
 73
     8
 74
     0
 42
0.000000001
 43
0.00000001
 40
0.0
 40
0.0
 40
0.0
 40
0.0
 40
0.4999999999999906
 40
0.4999999999999906
 40
0.7499999999999952
 40
0.7499999999999952
 40
1.0
 40
1.0
 40
1.0
 40
1.0
 10
184.3790898953344
 20
-75.716889207192
 30
0.0
 10
183.7625595054142
 20
-75.52639491776849
 30
0.0
 10
183.1367916329642
 20
-75.4047205047061
 30
0.0
 10
182.1737299235794
 20
-75.40406431417487
 30
0.0
 10
181.8530368884498
 20
-75.43389831596927
 30
0.0
 10
181.2230786384538
 20
-75.54282818607686
 30
0.0
 10
180.9118493704229
 20
-75.62152337313974
 30
0.0
 10
180.6032000401383
 20
-75.7168892071925
 30
0.0
  0
SPLINE
  5
3CE
330
1F
100
AcDbEntity
  8
0
  6
Continuous
 62
     7
370
    25
100
AcDbSpline
210
0.0
220
0.0
230
1.0
 70
     8
 71
     3
 72
    12
 73
     8
 74
     0
 42
0.000000001
 43
0.00000001
 40
0.0
 40
0.0
 40
0.0
 40
0.0
 40
0.5000000000000079
 40
0.5000000000000079
 40
0.7500000000000039
 40
0.7500000000000039
 40
1.0
 40
1.0
 40
1.0
 40
1.0
 10
180.6032000401385
 20
-75.716889207192
 30
0.0
 10
180.0911938884335
 20
-75.52639491776847
 30
0.0
 10
179.5715163421653
 20
-75.40472050470612
 30
0.0
 10
178.7717284846027
 20
-75.40406431417487
 30
0.0
 10
178.5054045377547
 20
-75.43389831596926
 30
0.0
 10
177.9822470347533
 20
-75.54282818607686
 30
0.0
 10
177.7237824036049
 20
-75.62152337313972
 30
0.0
 10
177.467460317283
 20
-75.71688920719248
 30
0.0
  0
SPLINE
  5
3CF
330
1F
100
AcDbEntity
  8
0
  6
Continuous
 62
     7
370
    25
100
AcDbSpline
210
0.0
220
0.0
230
1.0
 70
     8
 71
     3
 72
     9
 73
     5
 74
     0
 42
0.000000001
 43
0.00000001
 40
0.0
 40
0.0
 40
0.0
 40
0.0
 40
0.3722348086954557
 40
1.0
 40
1.0
 40
1.0
 40
1.0
 10
177.467460317283
 20
-75.71688920719299
 30
0.0
 10
177.4954265509547
 20
-75.66496489841941
 30
0.0
 10
177.5705571755456
 20
-75.52547147233291
 30
0.0
 10
177.6491010337023
 20
-75.51746274622779
 30
0.0
 10
177.6984081338437
 20
-75.51243514675231
 30
0.0
  0
LINE
  5
3D0
330
1F
100
AcDbEntity
  8
0
  6
Continuous
 62
     7
370
    25
100
AcDbLine
 10
184.3933501725
 20
-75.2022092218
 30
0.0
 11
178.0933501725
 21
-75.2022092218
 31
0.0
  0
LINE
  5
3D1
330
1F
100
AcDbEntity
  8
0
  6
Continuous
 62
     7
370
    25
100
AcDbLine
 10
184.3790898953
 20
-75.7168892072
 30
0.0
 11
184.3790898953
 21
-77.8875292364
 31
0.0
  0
LINE
  5
3D2
330
1F
100
AcDbEntity
  8
0
  6
Continuous
 62
     7
370
    25
100
AcDbLine
 10
180.6032000401
 20
-75.7168892072
 30
0.0
 11
180.6032000401
 21
-77.8875292364
 31
0.0
  0
LINE
  5
3D3
330
1F
100
AcDbEntity
  8
0
  6
Continuous
 62
     7
370
    25
100
AcDbLine
 10
177.4674603173
 20
-75.7168892072
 30
0.0
 11
177.4674603173
 21
-77.8875292364
 31
0.0
  0
LINE
  5
3D4
330
1F
100
AcDbEntity
  8
0
  6
Continuous
 62
     7
370
    25
100
AcDbLine
 10
185.0192400277
 20
-75.7168892072
 30
0.0
 11
185.0192400277
 21
-77.8875292364
 31
0.0
  0
LINE
  5
3D5
330
1F
100
AcDbEntity
  8
0
  6
Continuous
 62
     7
370
    25
100
AcDbLine
 10
160.3224199399
 20
-91.0022092218
 30
0.0
 11
161.2433501725
 21
-81.1022092218
 31
0.0
  0
LINE
  5
3D6
330
1F
100
AcDbEntity
  8
0
  6
Continuous
 62
     7
370
    25
100
AcDbLine
 10
664.2433501725
 20
-81.1022092218
 30
0.0
 11
665.164280405
 21
-91.0022092218
 31
0.0
  0
LINE
  5
3D7
330
1F
100
AcDbEntity
  8
0
  6
Continuous
 62
     7
370
    25
100
AcDbLine
 10
161.2433501725
 20
-79.3022092218
 30
0.0
 11
664.2433501725
 21
-79.3022092218
 31
0.0
  0
LINE
  5
3D8
330
1F
100
AcDbEntity
  8
0
  6
Continuous
 62
     7
370
    25
100
AcDbLine
 10
664.2433501725
 20
-79.3022092218
 30
0.0
 11
664.2433501725
 21
-81.1022092218
 31
0.0
  0
LINE
  5
3D9
330
1F
100
AcDbEntity
  8
0
  6
Continuous
 62
     7
370
    25
100
AcDbLine
 10
161.2433501725
 20
-81.1022092218
 30
0.0
 11
161.2433501725
 21
-79.3022092218
 31
0.0
  0
LINE
  5
3DA
330
1F
100
AcDbEntity
  8
0
  6
Continuous
 62
     7
370
    25
100
AcDbLine
 10
160.2433501725
 20
-91.8522092218
 30
0.0
 11
160.3224199399
 21
-91.0022092218
 31
0.0
  0
LINE
  5
3DB
330
1F
100
AcDbEntity
  8
0
  6
Continuous
 62
     7
370
    25
100
AcDbLine
 10
665.164280405
 20
-91.0022092218
 30
0.0
 11
665.2433501725
 21
-91.8522092218
 31
0.0
  0
LINE
  5
3DC
330
1F
100
AcDbEntity
  8
0
  6
Continuous
 62
     7
370
    25
100
AcDbLine
 10
643.9265580143
 20
-70.1022092218
 30
0.0
 11
646.2433501725
 21
-70.1022092218
 31
0.0
  0
LINE
  5
3DD
330
1F
100
AcDbEntity
  8
0
  6
Continuous
 62
     7
370
    25
100
AcDbLine
 10
642.2433501725
 20
-70.1022092218
 30
0.0
 11
643.9265580143
 21
-70.1022092218
 31
0.0
  0
LINE
  5
3DE
330
1F
100
AcDbEntity
  8
0
  6
Continuous
 62
     7
370
    25
100
AcDbLine
 10
330.9265580143
 20
-70.1022092218
 30
0.0
 11
333.2433501725
 21
-70.1022092218
 31
0.0
  0
LINE
  5
3DF
330
1F
100
AcDbEntity
  8
0
  6
Continuous
 62
     7
370
    25
100
AcDbLine
 10
329.2433501725
 20
-70.1022092218
 30
0.0
 11
330.9265580143
 21
-70.1022092218
 31
0.0
  0
LINE
  5
3E0
330
1F
100
AcDbEntity
  8
0
  6
Continuous
 62
     7
370
    25
100
AcDbLine
 10
493.9265580143
 20
-70.1022092218
 30
0.0
 11
496.2433501725
 21
-70.1022092218
 31
0.0
  0
LINE
  5
3E1
330
1F
100
AcDbEntity
  8
0
  6
Continuous
 62
     7
370
    25
100
AcDbLine
 10
492.2433501725
 20
-70.1022092218
 30
0.0
 11
493.9265580143
 21
-70.1022092218
 31
0.0
  0
LINE
  5
3E2
330
1F
100
AcDbEntity
  8
0
  6
Continuous
 62
     7
370
    25
100
AcDbLine
 10
180.9265580143
 20
-70.1022092218
 30
0.0
 11
183.2433501725
 21
-70.1022092218
 31
0.0
  0
LINE
  5
3E3
330
1F
100
AcDbEntity
  8
0
  6
Continuous
 62
     7
370
    25
100
AcDbLine
 10
179.2433501725
 20
-70.1022092218
 30
0.0
 11
180.9265580143
 21
-70.1022092218
 31
0.0
  0
LINE
  5
3E4
330
1F
100
AcDbEntity
  8
0
  6
Continuous
 62
     7
370
    25
100
AcDbLine
 10
664.7433501725
 20
-77.3022092218
 30
0.0
 11
664.7433501725
 21
-86.4772092218
 31
0.0
  0
LINE
  5
3E5
330
1F
100
AcDbEntity
  8
0
  6
Continuous
 62
     7
370
    25
100
AcDbLine
 10
666.7433501725
 20
-60.9022092218
 30
0.0
 11
666.7433501725
 21
-63.8022092218
 31
0.0
  0
LINE
  5
3E6
330
1F
100
AcDbEntity
  8
0
  6
Continuous
 62
     7
370
    25
100
AcDbLine
 10
666.7433501725
 20
-69.8022092218
 30
0.0
 11
666.7433501725
 21
-89.9022092218
 31
0.0
  0
LINE
  5
3E7
330
1F
100
AcDbEntity
  8
0
  6
Continuous
 62
     7
370
    25
100
AcDbLine
 10
665.7433501725
 20
-58.9022092218
 30
0.0
 11
666.7433501725
 21
-58.9022092218
 31
0.0
  0
LINE
  5
3E8
330
1F
100
AcDbEntity
  8
0
  6
Continuous
 62
     7
370
    25
100
AcDbLine
 10
666.7433501725
 20
-58.9022092218
 30
0.0
 11
666.7433501725
 21
-60.9022092218
 31
0.0
  0
LINE
  5
3E9
330
1F
100
AcDbEntity
  8
0
  6
Continuous
 62
     7
370
    25
100
AcDbLine
 10
666.7416830426
 20
-90.0022092218
 30
0.0
 11
666.7433501725
 21
-89.9022092218
 31
0.0
  0
LINE
  5
3EA
330
1F
100
AcDbEntity
  8
0
  6
Continuous
 62
     7
370
    25
100
AcDbLine
 10
666.7433501725
 20
-74.9022092218
 30
0.0
 11
666.8036575517
 21
-74.9022092218
 31
0.0
  0
LINE
  5
3EB
330
1F
100
AcDbEntity
  8
0
  6
Continuous
 62
     7
370
    25
100
AcDbLine
 10
666.8036575517
 20
-58.9022092218
 30
0.0
 11
666.7433501725
 21
-58.9022092218
 31
0.0
  0
LWPOLYLINE
  5
3EC
330
1F
100
AcDbEntity
  8
0
  6
Continuous
 62
     7
370
    25
100
AcDbPolyline
 90
        9
 70
   128
 43
0.0
 10
669.3588965607
 20
-60.9022092218
 10
669.3457529184
 20
-60.5120285778
 10
669.3068270943
 20
-60.1368423571
 10
669.2436149859
 20
-59.7910687558
 10
669.1585457993
 20
-59.4879956594
 10
669.0548886955
 20
-59.2392699972
 10
668.9366271588
 20
-59.0544501568
 10
668.8083059138
 20
-58.940638661
 10
668.674856274
 20
-58.9022092218
  0
LINE
  5
3ED
330
1F
100
AcDbEntity
  8
0
  6
Continuous
 62
     7
370
    25
100
AcDbLine
 10
669.3588965607
 20
-60.9022092218
 30
0.0
 11
669.3588965607
 21
-63.8022092218
 31
0.0
  0
LINE
  5
3EE
330
1F
100
AcDbEntity
  8
0
  6
Continuous
 62
     7
370
    25
100
AcDbLine
 10
669.3588965607
 20
-69.8022092218
 30
0.0
 11
669.3588965607
 21
-72.9022092218
 31
0.0
  0
LWPOLYLINE
  5
3EF
330
1F
100
AcDbEntity
  8
0
  6
Continuous
 62
     7
370
    25
100
AcDbPolyline
 90
        9
 70
   128
 43
0.0
 10
668.674856274
 20
-74.9022092218
 10
668.8083059138
 20
-74.8637797826
 10
668.9366271588
 20
-74.7499682868
 10
669.0548886955
 20
-74.5651484464
 10
669.1585457993
 20
-74.3164227842
 10
669.2436149859
 20
-74.0133496878
 10
669.3068270943
 20
-73.6675760865
 10
669.3457529184
 20
-73.2923898658
 10
669.3588965607
 20
-72.9022092218
  0
LINE
  5
3F0
330
1F
100
AcDbEntity
  8
0
  6
Continuous
 62
     7
370
    25
100
AcDbLine
 10
668.674856274
 20
-74.9022092218
 30
0.0
 11
666.8036575517
 21
-74.9022092218
 31
0.0
  0
LINE
  5
3F1
330
1F
100
AcDbEntity
  8
0
  6
Continuous
 62
     7
370
    25
100
AcDbLine
 10
666.8036575517
 20
-58.9022092218
 30
0.0
 11
668.674856274
 21
-58.9022092218
 31
0.0
  0
LINE
  5
3F2
330
1F
100
AcDbEntity
  8
0
  6
Continuous
 62
     7
370
    25
100
AcDbLine
 10
158.7433501725
 20
-58.9022092218
 30
0.0
 11
159.7433501725
 21
-58.9022092218
 31
0.0
  0
LINE
  5
3F3
330
1F
100
AcDbEntity
  8
0
  6
Continuous
 62
     7
370
    25
100
AcDbLine
 10
158.7433501725
 20
-60.9022092218
 30
0.0
 11
158.7433501725
 21
-58.9022092218
 31
0.0
  0
LINE
  5
3F4
330
1F
100
AcDbEntity
  8
0
  6
Continuous
 62
     7
370
    25
100
AcDbLine
 10
160.7433501725
 20
-86.4772092218
 30
0.0
 11
160.7433501725
 21
-77.3022092218
 31
0.0
  0
LINE
  5
3F5
330
1F
100
AcDbEntity
  8
0
  6
Continuous
 62
     7
370
    25
100
AcDbLine
 10
158.7433501725
 20
-89.9022092218
 30
0.0
 11
158.7433501725
 21
-69.8022092218
 31
0.0
  0
LINE
  5
3F6
330
1F
100
AcDbEntity
  8
0
  6
Continuous
 62
     7
370
    25
100
AcDbLine
 10
158.7433501725
 20
-63.8022092218
 30
0.0
 11
158.7433501725
 21
-60.9022092218
 31
0.0
  0
LINE
  5
3F7
330
1F
100
AcDbEntity
  8
0
  6
Continuous
 62
     7
370
    25
100
AcDbLine
 10
158.7433501725
 20
-89.9022092218
 30
0.0
 11
158.7450173024
 21
-90.0022092218
 31
0.0
  0
LINE
  5
3F8
330
1F
100
AcDbEntity
  8
0
  6
Continuous
 62
     7
370
    25
100
AcDbLine
 10
158.6830427933
 20
-74.9022092218
 30
0.0
 11
158.7433501725
 21
-74.9022092218
 31
0.0
  0
LINE
  5
3F9
330
1F
100
AcDbEntity
  8
0
  6
Continuous
 62
     7
370
    25
100
AcDbLine
 10
158.7433501725
 20
-58.9022092218
 30
0.0
 11
158.6830427933
 21
-58.9022092218
 31
0.0
  0
LWPOLYLINE
  5
3FA
330
1F
100
AcDbEntity
  8
0
  6
Continuous
 62
     7
370
    25
100
AcDbPolyline
 90
        9
 70
   128
 43
0.0
 10
156.811844071
 20
-58.9022092218
 10
156.6783944312
 20
-58.940638661
 10
156.5500731862
 20
-59.0544501568
 10
156.4318116495
 20
-59.2392699972
 10
156.3281545457
 20
-59.4879956594
 10
156.243085359
 20
-59.7910687558
 10
156.1798732507
 20
-60.1368423571
 10
156.1409474266
 20
-60.5120285778
 10
156.1278037843
 20
-60.9022092218
  0
LINE
  5
3FB
330
1F
100
AcDbEntity
  8
0
  6
Continuous
 62
     7
370
    25
100
AcDbLine
 10
156.811844071
 20
-58.9022092218
 30
0.0
 11
158.6830427933
 21
-58.9022092218
 31
0.0
  0
LINE
  5
3FC
330
1F
100
AcDbEntity
  8
0
  6
Continuous
 62
     7
370
    25
100
AcDbLine
 10
158.6830427933
 20
-74.9022092218
 30
0.0
 11
156.811844071
 21
-74.9022092218
 31
0.0
  0
LWPOLYLINE
  5
3FD
330
1F
100
AcDbEntity
  8
0
  6
Continuous
 62
     7
370
    25
100
AcDbPolyline
 90
        9
 70
   128
 43
0.0
 10
156.1278037843
 20
-72.9022092218
 10
156.1409474266
 20
-73.2923898658
 10
156.1798732507
 20
-73.6675760865
 10
156.243085359
 20
-74.0133496878
 10
156.3281545457
 20
-74.3164227842
 10
156.4318116495
 20
-74.5651484464
 10
156.5500731862
 20
-74.7499682868
 10
156.6783944312
 20
-74.8637797826
 10
156.811844071
 20
-74.9022092218
  0
LINE
  5
3FE
330
1F
100
AcDbEntity
  8
0
  6
Continuous
 62
     7
370
    25
100
AcDbLine
 10
156.1278037843
 20
-72.9022092218
 30
0.0
 11
156.1278037843
 21
-69.8022092218
 31
0.0
  0
LINE
  5
3FF
330
1F
100
AcDbEntity
  8
0
  6
Continuous
 62
     7
370
    25
100
AcDbLine
 10
156.1278037843
 20
-63.8022092218
 30
0.0
 11
156.1278037843
 21
-60.9022092218
 31
0.0
  0
SPLINE
  5
400
330
1F
100
AcDbEntity
  8
0
  6
Continuous
 62
     7
370
    25
100
AcDbSpline
210
0.0
220
0.0
230
1.0
 70
    24
 71
     3
 72
     9
 73
     5
 74
     0
 42
0.000000001
 43
0.00000001
 40
0.0
 40
0.0
 40
0.0
 40
0.0
 40
0.7059102712447504
 40
1.0
 40
1.0
 40
1.0
 40
1.0
 10
160.5433501724776
 20
-61.02896041241861
 30
0.0
 10
160.5433501724776
 20
-61.01870764312193
 30
0.0
 10
160.5433501724776
 20
-61.00418346106321
 30
0.0
 10
160.5433501724776
 20
-61.09923541767071
 30
0.0
 10
160.5433501724777
 20
-61.12718922180707
 30
0.0
  0
SPLINE
  5
401
330
1F
100
AcDbEntity
  8
0
  6
Continuous
 62
     7
370
    25
100
AcDbSpline
210
0.0
220
0.0
230
1.0
 70
    24
 71
     3
 72
    12
 73
     8
 74
     0
 42
0.000000001
 43
0.00000001
 40
0.0
 40
0.0
 40
0.0
 40
0.0
 40
0.3344405486782612
 40
0.5144757571369837
 40
0.6983315710265356
 40
0.8821873849160827
 40
1.0
 40
1.0
 40
1.0
 40
1.0
 10
161.5433501724777
 20
-64.2959019167521
 30
0.0
 10
161.5433501724777
 20
-63.67175638125025
 30
0.0
 10
161.5433501724777
 20
-62.71162236577266
 30
0.0
 10
161.5433501724777
 20
-61.80371145947739
 30
0.0
 10
161.5433501724776
 20
-61.29799412156124
 30
0.0
 10
161.5433501724777
 20
-61.02637438742305
 30
0.0
 10
161.5433501724777
 20
-61.02823411888279
 30
0.0
 10
161.5433501724777
 20
-61.02896041240767
 30
0.0
  0
SPLINE
  5
402
330
1F
100
AcDbEntity
  8
0
  6
Continuous
 62
     7
370
    25
100
AcDbSpline
210
0.0
220
0.0
230
1.0
 70
    24
 71
     3
 72
    15
 73
    11
 74
     0
 42
0.000000001
 43
0.00000001
 40
0.0
 40
0.0
 40
0.0
 40
0.0
 40
0.034696749791865
 40
0.2211884951269616
 40
0.4076802404620629
 40
0.508072015263078
 40
0.6105942475634824
 40
0.7131164798638862
 40
0.8135082546649005
 40
1.0
 40
1.0
 40
1.0
 40
1.0
 10
161.5433501724777
 20
-72.5754580312134
 30
0.0
 10
161.5433501724777
 20
-72.58217913484482
 30
0.0
 10
161.5433501724777
 20
-72.62502553419762
 30
0.0
 10
161.5433501724777
 20
-72.1369845714391
 30
0.0
 10
161.5433501724777
 20
-71.04107351397057
 30
0.0
 10
161.5433501724777
 20
-69.82217638152306
 30
0.0
 10
161.5433501724777
 20
-68.74200115366612
 30
0.0
 10
161.5433501724777
 20
-67.58152425120042
 30
0.0
 10
161.5433501724777
 20
-66.05094935608531
 30
0.0
 10
161.5433501724776
 20
-64.98732346743523
 30
0.0
 10
161.5433501724776
 20
-64.29590191675209
 30
0.0
  0
LINE
  5
403
330
1F
100
AcDbEntity
  8
0
  6
Continuous
 62
     7
370
    25
100
AcDbLine
 10
165.5433501725
 20
-67.1856042495
 30
0.0
 11
165.5433501725
 21
-62.6765283425
 31
0.0
  0
SPLINE
  5
404
330
1F
100
AcDbEntity
  8
0
  6
Continuous
 62
     7
370
    25
100
AcDbSpline
210
0.0
220
0.0
230
1.0
 70
     8
 71
     3
 72
     8
 73
     4
 74
     0
 42
0.000000001
 43
0.00000001
 40
0.0
 40
0.0
 40
0.0
 40
0.0
 40
1.0
 40
1.0
 40
1.0
 40
1.0
 10
165.5433501724707
 20
-67.185604249497
 30
0.0
 10
165.5433501724707
 20
-66.20322580492422
 30
0.0
 10
165.3690348720912
 20
-65.2477346367345
 30
0.0
 10
165.0967681850793
 20
-64.30735198740692
 30
0.0
  0
SPLINE
  5
405
330
1F
100
AcDbEntity
  8
0
  6
Continuous
 62
     7
370
    25
100
AcDbSpline
210
0.0
220
0.0
230
1.0
 70
     8
 71
     3
 72
     8
 73
     4
 74
     0
 42
0.000000001
 43
0.00000001
 40
0.0
 40
0.0
 40
0.0
 40
0.0
 40
1.0
 40
1.0
 40
1.0
 40
1.0
 10
165.0967681850792
 20
-64.30735198740079
 30
0.0
 10
165.3690348720906
 20
-63.77452924633597
 30
0.0
 10
165.5433501724705
 20
-63.23314598744134
 30
0.0
 10
165.5433501724705
 20
-62.67652834251292
 30
0.0
  0
SPLINE
  5
406
330
1F
100
AcDbEntity
  8
0
  6
Continuous
 62
     7
370
    25
100
AcDbSpline
210
0.0
220
0.0
230
1.0
 70
     8
 71
     3
 72
     8
 73
     4
 74
     0
 42
0.000000001
 43
0.00000001
 40
0.0
 40
0.0
 40
0.0
 40
0.0
 40
1.0
 40
1.0
 40
1.0
 40
1.0
 10
165.0967681850793
 20
-70.06385651158699
 30
0.0
 10
165.3690348720908
 20
-69.12347386226119
 30
0.0
 10
165.5433501724707
 20
-68.16798269406793
 30
0.0
 10
165.5433501724707
 20
-67.185604249497
 30
0.0
  0
LINE
  5
407
330
1F
100
AcDbEntity
  8
0
  6
Continuous
 62
     7
370
    25
100
AcDbLine
 10
161.5433501725
 20
-70.0638565116
 30
0.0
 11
165.0967681851
 21
-70.0638565116
 31
0.0
  0
LINE
  5
408
330
1F
100
AcDbEntity
  8
0
  6
Continuous
 62
     7
370
    25
100
AcDbLine
 10
161.5433501725
 20
-64.3073519874
 30
0.0
 11
165.0967681851
 21
-64.3073519874
 31
0.0
  0
LINE
  5
409
330
1F
100
AcDbEntity
  8
0
  6
Continuous
 62
     7
370
    25
100
AcDbLine
 10
165.5433501725
 20
-71.3112851288
 30
0.0
 11
165.5433501725
 21
-67.1856042495
 31
0.0
  0
SPLINE
  5
40A
330
1F
100
AcDbEntity
  8
0
  6
Continuous
 62
     7
370
    25
100
AcDbSpline
210
0.0
220
0.0
230
1.0
 70
     8
 71
     3
 72
     8
 73
     4
 74
     0
 42
0.000000001
 43
0.00000001
 40
0.0
 40
0.0
 40
0.0
 40
0.0
 40
1.0
 40
1.0
 40
1.0
 40
1.0
 10
165.5433501724705
 20
-71.31128512879452
 30
0.0
 10
165.5433501724705
 20
-70.88552432915131
 30
0.0
 10
165.3690348720911
 20
-70.47141641985425
 30
0.0
 10
165.0967681850793
 20
-70.06385651159258
 30
0.0
  0
SPLINE
  5
40B
330
1F
100
AcDbEntity
  8
0
  6
Continuous
 62
     7
370
    25
100
AcDbSpline
210
0.0
220
0.0
230
1.0
 70
     8
 71
     3
 72
     8
 73
     4
 74
     0
 42
0.000000001
 43
0.00000001
 40
0.0
 40
0.0
 40
0.0
 40
0.0
 40
1.0
 40
1.0
 40
1.0
 40
1.0
 10
165.5433501724705
 20
-62.67652834251292
 30
0.0
 10
165.5433501724705
 20
-62.11991069758346
 30
0.0
 10
165.3690348720911
 20
-61.57852743869086
 30
0.0
 10
165.0967681850792
 20
-61.04570469762505
 30
0.0
  0
LINE
  5
40C
330
1F
100
AcDbEntity
  8
0
  6
Continuous
 62
     7
370
    25
100
AcDbLine
 10
161.5433501725
 20
-61.0457046976
 30
0.0
 11
165.0967681851
 21
-61.0457046976
 31
0.0
  0
SPLINE
  5
40D
330
1F
100
AcDbEntity
  8
0
  6
Continuous
 62
     7
370
    25
100
AcDbSpline
210
0.0
220
0.0
230
1.0
 70
     8
 71
     3
 72
     8
 73
     4
 74
     0
 42
0.000000001
 43
0.00000001
 40
0.0
 40
0.0
 40
0.0
 40
0.0
 40
1.0
 40
1.0
 40
1.0
 40
1.0
 10
165.0967681850792
 20
-72.55871374599651
 30
0.0
 10
165.3690348720907
 20
-72.15115383773545
 30
0.0
 10
165.5433501724705
 20
-71.73704592843711
 30
0.0
 10
165.5433501724705
 20
-71.31128512879452
 30
0.0
  0
LINE
  5
40E
330
1F
100
AcDbEntity
  8
0
  6
Continuous
 62
     7
370
    25
100
AcDbLine
 10
165.0967681851
 20
-72.558713746
 30
0.0
 11
161.5433501725
 21
-72.558713746
 31
0.0
  0
LINE
  5
40F
330
1F
100
AcDbEntity
  8
0
  6
Continuous
 62
     7
370
    25
100
AcDbLine
 10
151.0846001725
 20
-69.507654766
 30
0.0
 11
151.0846001725
 21
-69.8022092218
 31
0.0
  0
LINE
  5
410
330
1F
100
AcDbEntity
  8
0
  6
Continuous
 62
     7
370
    25
100
AcDbLine
 10
151.0846001725
 20
-63.8022092218
 30
0.0
 11
151.0846001725
 21
-69.507654766
 31
0.0
  0
LINE
  5
411
330
1F
100
AcDbEntity
  8
0
  6
Continuous
 62
     7
370
    25
100
AcDbLine
 10
150.5433501725
 20
-64.3434592218
 30
0.0
 11
150.5433501725
 21
-69.2609592218
 31
0.0
  0
LINE
  5
412
330
1F
100
AcDbEntity
  8
0
  6
Continuous
 62
     7
370
    25
100
AcDbLine
 10
165.0967681851
 20
-61.0457046976
 30
0.0
 11
165.1719559406
 21
-61.2557251654
 31
0.0
  0
LINE
  5
413
330
1F
100
AcDbEntity
  8
0
  6
Continuous
 62
     7
370
    25
100
AcDbLine
 10
165.5433501725
 20
-62.6765283425
 30
0.0
 11
165.5433501725
 21
-61.8022092218
 31
0.0
  0
LINE
  5
414
330
1F
100
AcDbEntity
  8
0
  6
Continuous
 62
     7
370
    25
100
AcDbLine
 10
165.5433501725
 20
-71.8022092218
 30
0.0
 11
165.5433501725
 21
-71.3112851288
 31
0.0
  0
ARC
  5
415
330
1F
100
AcDbEntity
  8
0
  6
Continuous
 62
     7
370
    25
100
AcDbCircle
 10
152.2433501725
 20
-96.0022092218
 30
0.0
 40
6.00000000000002
100
AcDbArc
 50
90.0
 51
143.1301023541
  0
ARC
  5
416
330
1F
100
AcDbEntity
  8
0
  6
Continuous
 62
     7
370
    25
100
AcDbCircle
 10
673.2433501725
 20
-96.0022092218
 30
0.0
 40
6.0
100
AcDbArc
 50
36.8698976459
 51
90.0
  0
LINE
  5
417
330
1F
100
AcDbEntity
  8
0
  6
Continuous
 62
     7
370
    25
100
AcDbLine
 10
26.6568291825
 20
522.6075204992
 30
0.0
 11
26.2938914041
 21
521.9788938271
 31
0.0
  0
LINE
  5
418
330
1F
100
AcDbEntity
  8
0
  6
Continuous
 62
     7
370
    25
100
AcDbLine
 10
26.2938914041
 20
515.6788938271
 30
0.0
 11
26.6568291825
 21
515.050267155
 31
0.0
  0
ARC
  5
419
330
1F
100
AcDbEntity
  8
0
  6
Continuous
 62
     7
370
    25
100
AcDbCircle
 10
29.5220946344
 20
518.8288938271
 30
0.0
 40
8.000000000000064
100
AcDbArc
 50
195.2747479997
 51
210.0
  0
ARC
  5
41A
330
1F
100
AcDbEntity
  8
0
  6
Continuous
 62
     7
370
    25
100
AcDbCircle
 10
29.5220946344
 20
518.8288938271
 30
0.0
 40
8.000000000000007
100
AcDbArc
 50
150.0
 51
164.7252520003
  0
LINE
  5
41B
330
1F
100
AcDbEntity
  8
0
  6
Continuous
 62
     7
370
    25
100
AcDbLine
 10
24.5938914041
 20
522.8288938271
 30
0.0
 11
22.5938914041
 21
522.8288938271
 31
0.0
  0
LINE
  5
41C
330
1F
100
AcDbEntity
  8
0
  6
Continuous
 62
     7
370
    25
100
AcDbLine
 10
22.5938914041
 20
514.8288938271
 30
0.0
 11
24.5938914041
 21
514.8288938271
 31
0.0
  0
LINE
  5
41D
330
1F
100
AcDbEntity
  8
0
  6
Continuous
 62
     7
370
    25
100
AcDbLine
 10
26.2938914041
 20
520.8288938271
 30
0.0
 11
26.1938914041
 21
520.8288938271
 31
0.0
  0
LINE
  5
41E
330
1F
100
AcDbEntity
  8
0
  6
Continuous
 62
     7
370
    25
100
AcDbLine
 10
26.1938914041
 20
516.8288938271
 30
0.0
 11
26.2938914041
 21
516.8288938271
 31
0.0
  0
CIRCLE
  5
41F
330
1F
100
AcDbEntity
  8
0
  6
Continuous
 62
     7
370
    25
100
AcDbCircle
 10
37.8938914041
 20
67.8288938271
 30
0.0
 40
2.458750000016604
  0
CIRCLE
  5
420
330
1F
100
AcDbEntity
  8
0
  6
Continuous
 62
     7
370
    25
100
AcDbCircle
 10
37.8938914041
 20
67.8288938271
 30
0.0
 40
3.000000000000008
  0
CIRCLE
  5
421
330
1F
100
AcDbEntity
  8
0
  6
Continuous
 62
     7
370
    25
100
AcDbCircle
 10
37.8938914041
 20
543.8288938271
 30
0.0
 40
2.458750000016634
  0
CIRCLE
  5
422
330
1F
100
AcDbEntity
  8
0
  6
Continuous
 62
     7
370
    25
100
AcDbCircle
 10
37.8938914041
 20
543.8288938271
 30
0.0
 40
3.000000000000008
  0
LINE
  5
423
330
1F
100
AcDbEntity
  8
0
  6
Continuous
 62
     7
370
    25
100
AcDbLine
 10
19.2938914041
 20
21.2996045052
 30
0.0
 11
19.2938914041
 21
514.358183149
 31
0.0
  0
LINE
  5
424
330
1F
100
AcDbEntity
  8
0
  6
Continuous
 62
     7
370
    25
100
AcDbLine
 10
9.6938914041
 20
514.358183149
 30
0.0
 11
19.2938914041
 21
514.358183149
 31
0.0
  0
LINE
  5
425
330
1F
100
AcDbEntity
  8
0
  6
Continuous
 62
     7
370
    25
100
AcDbLine
 10
9.6938914041
 20
21.2996045052
 30
0.0
 11
19.2938914041
 21
21.2996045052
 31
0.0
  0
LINE
  5
426
330
1F
100
AcDbEntity
  8
0
  6
Continuous
 62
     7
370
    25
100
AcDbLine
 10
7.2938914041
 20
22.2288938271
 30
0.0
 11
7.2938914041
 21
513.4288938271
 31
0.0
  0
SPLINE
  5
427
330
1F
100
AcDbEntity
  8
0
  6
Continuous
 62
     7
370
    25
100
AcDbSpline
210
0.0
220
0.0
230
1.0
 70
     8
 71
     3
 72
    20
 73
    16
 74
     0
 42
0.000000001
 43
0.00000001
 40
0.0
 40
0.0
 40
0.0
 40
0.0
 40
0.1249999999999952
 40
0.1249999999999952
 40
0.2499999999999904
 40
0.2499999999999904
 40
0.3749999999999856
 40
0.3749999999999856
 40
0.4999999999999808
 40
0.4999999999999808
 40
0.7500000000000009
 40
0.7500000000000009
 40
0.8750000000000004
 40
0.8750000000000004
 40
1.0
 40
1.0
 40
1.0
 40
1.0
 10
7.2938914041379
 20
513.4288938270937
 30
0.0
 10
7.2938914041379
 20
513.4679345579483
 30
0.0
 10
7.309427964612744
 20
513.506453262148
 30
0.0
 10
7.370746316573348
 20
513.5838600134558
 30
0.0
 10
7.417170062160173
 20
513.6230044314426
 30
0.0
 10
7.53712093231429
 20
513.7001551853577
 30
0.0
 10
7.610725576597717
 20
513.7384827670988
 30
0.0
 10
7.785455942693344
 20
513.8160290875753
 30
0.0
 10
7.88630657159492
 20
513.8550052952439
 30
0.0
 10
8.217591851578842
 20
513.9705001516891
 30
0.0
 10
8.485272012962707
 20
514.0484125953593
 30
0.0
 10
8.917946039018108
 20
514.1638925207601
 30
0.0
 10
9.06946412586925
 20
514.2027583166252
 30
0.0
 10
9.378889883255374
 20
514.2805326502936
 30
0.0
 10
9.535512212949147
 20
514.3191424172484
 30
0.0
 10
9.693891404137887
 20
514.358183148975
 30
0.0
  0
SPLINE
  5
428
330
1F
100
AcDbEntity
  8
0
  6
Continuous
 62
     7
370
    25
100
AcDbSpline
210
0.0
220
0.0
230
1.0
 70
     8
 71
     3
 72
    20
 73
    16
 74
     0
 42
0.000000001
 43
0.00000001
 40
0.0
 40
0.0
 40
0.0
 40
0.0
 40
0.125
 40
0.125
 40
0.25
 40
0.25
 40
0.375
 40
0.375
 40
0.5
 40
0.5
 40
0.75
 40
0.75
 40
0.875
 40
0.875
 40
1.0
 40
1.0
 40
1.0
 40
1.0
 10
9.693891404137887
 20
21.29960450521229
 30
0.0
 10
9.535512216487179
 20
21.33864523606682
 30
0.0
 10
9.379266491795509
 20
21.37716394026656
 30
0.0
 10
9.07127464237889
 20
21.45457069157447
 30
0.0
 10
8.91863053490775
 20
21.49371510956122
 30
0.0
 10
8.629546245720695
 20
21.5708658634764
 30
0.0
 10
8.491741707536637
 20
21.60919344521745
 30
0.0
 10
8.23012303189773
 20
21.68673976569396
 30
0.0
 10
8.107376725215088
 20
21.72571597336265
 30
0.0
 10
7.776052348267413
 20
21.84121082980761
 30
0.0
 10
7.597041224239137
 20
21.91912327347773
 30
0.0
 10
7.41742612485824
 20
22.03460319887862
 30
0.0
 10
7.371181775990568
 20
22.07346899474372
 30
0.0
 10
7.309428469979354
 20
22.15124332841217
 30
0.0
 10
7.2938914041379
 20
22.18985309536692
 30
0.0
 10
7.2938914041379
 20
22.22889382709364
 30
0.0
  0
SPLINE
  5
429
330
1F
100
AcDbEntity
  8
0
  6
Continuous
 62
     7
370
    25
100
AcDbSpline
210
0.0
220
0.0
230
1.0
 70
     8
 71
     3
 72
    20
 73
    16
 74
     0
 42
0.000000001
 43
0.00000001
 40
0.0
 40
0.0
 40
0.0
 40
0.0
 40
0.125
 40
0.125
 40
0.2500000000000001
 40
0.2500000000000001
 40
0.3750000000000001
 40
0.3750000000000001
 40
0.5000000000000001
 40
0.5000000000000001
 40
0.7500000000000002
 40
0.7500000000000002
 40
0.8750000000000002
 40
0.8750000000000002
 40
1.0
 40
1.0
 40
1.0
 40
1.0
 10
7.293891404137907
 20
22.22889382709364
 30
0.0
 10
7.293891404137907
 20
22.07051463944298
 30
0.0
 10
7.309427964612751
 20
21.91426891475118
 30
0.0
 10
7.370746316573348
 20
21.60627706533463
 30
0.0
 10
7.417170062160159
 20
21.45363295786346
 30
0.0
 10
7.53712093231429
 20
21.16454866867629
 30
0.0
 10
7.610725576597685
 20
21.02674413049233
 30
0.0
 10
7.785455942693327
 20
20.76512545485343
 30
0.0
 10
7.886306571594864
 20
20.64237914817085
 30
0.0
 10
8.217591851578808
 20
20.31105477122314
 30
0.0
 10
8.485272012962703
 20
20.13204364719495
 30
0.0
 10
8.91794603901812
 20
19.95242854781398
 30
0.0
 10
9.069464125869251
 20
19.90618419894624
 30
0.0
 10
9.378889883255386
 20
19.84443089293514
 30
0.0
 10
9.535512212949172
 20
19.82889382709369
 30
0.0
 10
9.69389140413791
 20
19.82889382709363
 30
0.0
  0
SPLINE
  5
42A
330
1F
100
AcDbEntity
  8
0
  6
Continuous
 62
     7
370
    25
100
AcDbSpline
210
0.0
220
0.0
230
1.0
 70
     8
 71
     3
 72
     9
 73
     5
 74
     0
 42
0.000000001
 43
0.00000001
 40
0.0
 40
0.0
 40
0.0
 40
0.0
 40
0.4258694941526284
 40
0.9999999999999999
 40
0.9999999999999999
 40
0.9999999999999999
 40
0.9999999999999999
 10
9.13749997712857
 20
21.41897238977103
 30
0.0
 10
9.20790415373347
 20
21.3690507649264
 30
0.0
 10
9.373222819596089
 20
21.25182794072794
 30
0.0
 10
9.576934381852594
 20
21.2372585555663
 30
0.0
 10
9.69389140413788
 20
21.22889382709364
 30
0.0
  0
LINE
  5
42B
330
1F
100
AcDbEntity
  8
0
  6
Continuous
 62
     7
370
    25
100
AcDbLine
 10
9.6938914041
 20
19.8288938271
 30
0.0
 11
9.6938914041
 21
21.2288938271
 31
0.0
  0
LINE
  5
42C
330
1F
100
AcDbEntity
  8
0
  6
Continuous
 62
     7
370
    25
100
AcDbLine
 10
9.6938914041
 20
515.8288938271
 30
0.0
 11
9.6938914041
 21
514.4288938271
 31
0.0
  0
SPLINE
  5
42D
330
1F
100
AcDbEntity
  8
0
  6
Continuous
 62
     7
370
    25
100
AcDbSpline
210
0.0
220
0.0
230
1.0
 70
     8
 71
     3
 72
     9
 73
     5
 74
     0
 42
0.000000001
 43
0.00000001
 40
0.0
 40
0.0
 40
0.0
 40
0.0
 40
0.758455821437497
 40
1.0
 40
1.0
 40
1.0
 40
1.0
 10
9.69389140413788
 20
514.4288938270936
 30
0.0
 10
9.542183626201608
 20
514.4178392912602
 30
0.0
 10
9.342161721631422
 20
514.4032642355734
 30
0.0
 10
9.191607630240014
 20
514.2801678519735
 30
0.0
 10
9.155242165905651
 20
514.2504346371128
 30
0.0
  0
SPLINE
  5
42E
330
1F
100
AcDbEntity
  8
0
  6
Continuous
 62
     7
370
    25
100
AcDbSpline
210
0.0
220
0.0
230
1.0
 70
     8
 71
     3
 72
    20
 73
    16
 74
     0
 42
0.000000001
 43
0.00000001
 40
0.0
 40
0.0
 40
0.0
 40
0.0
 40
0.1250000000000001
 40
0.1250000000000001
 40
0.2500000000000001
 40
0.2500000000000001
 40
0.3750000000000001
 40
0.3750000000000001
 40
0.5
 40
0.5
 40
0.75
 40
0.75
 40
0.8750000000000001
 40
0.8750000000000001
 40
1.0
 40
1.0
 40
1.0
 40
1.0
 10
9.69389140413784
 20
515.8288938270937
 30
0.0
 10
9.535512216487147
 20
515.8288938270937
 30
0.0
 10
9.379266491795438
 20
515.8133572666187
 30
0.0
 10
9.07127464237885
 20
515.7520389146581
 30
0.0
 10
8.918630534907702
 20
515.7056151690714
 30
0.0
 10
8.629546245720647
 20
515.5856642989173
 30
0.0
 10
8.491741707536635
 20
515.5120596546336
 30
0.0
 10
8.230123031897737
 20
515.3373292885381
 30
0.0
 10
8.107376725215074
 20
515.2364786596366
 30
0.0
 10
7.776052348267365
 20
514.9051933796527
 30
0.0
 10
7.597041224239168
 20
514.6375132182687
 30
0.0
 10
7.417426124858281
 20
514.2048391922134
 30
0.0
 10
7.371181775990575
 20
514.0533211053622
 30
0.0
 10
7.309428469979354
 20
513.7438953479761
 30
0.0
 10
7.293891404137915
 20
513.5872730182823
 30
0.0
 10
7.293891404137907
 20
513.4288938270937
 30
0.0
  0
LINE
  5
42F
330
1F
100
AcDbEntity
  8
0
  6
Continuous
 62
     7
370
    25
100
AcDbLine
 10
9.6938914041
 20
515.8288938271
 30
0.0
 11
19.2938914041
 21
515.8288938271
 31
0.0
  0
LINE
  5
430
330
1F
100
AcDbEntity
  8
0
  6
Continuous
 62
     7
370
    25
100
AcDbLine
 10
19.2938914041
 20
515.8288938271
 30
0.0
 11
19.2938914041
 21
514.4288938271
 31
0.0
  0
LINE
  5
431
330
1F
100
AcDbEntity
  8
0
  6
Continuous
 62
     7
370
    25
100
AcDbLine
 10
9.6938914041
 20
514.4288938271
 30
0.0
 11
19.2938914041
 21
514.4288938271
 31
0.0
  0
LINE
  5
432
330
1F
100
AcDbEntity
  8
0
  6
Continuous
 62
     7
370
    25
100
AcDbLine
 10
9.6938914041
 20
19.8288938271
 30
0.0
 11
19.2938914041
 21
19.8288938271
 31
0.0
  0
LINE
  5
433
330
1F
100
AcDbEntity
  8
0
  6
Continuous
 62
     7
370
    25
100
AcDbLine
 10
19.2938914041
 20
19.8288938271
 30
0.0
 11
19.2938914041
 21
21.2288938271
 31
0.0
  0
LINE
  5
434
330
1F
100
AcDbEntity
  8
0
  6
Continuous
 62
     7
370
    25
100
AcDbLine
 10
9.6938914041
 20
21.2288938271
 30
0.0
 11
19.2938914041
 21
21.2288938271
 31
0.0
  0
ARC
  5
435
330
1F
100
AcDbEntity
  8
0
  6
Continuous
 62
     7
370
    25
100
AcDbCircle
 10
43.3938914041
 20
547.3288938271
 30
0.0
 40
3.0
100
AcDbArc
 50
0.0
 51
90.0
  0
LINE
  5
436
330
1F
100
AcDbEntity
  8
0
  6
Continuous
 62
     7
370
    25
100
AcDbLine
 10
46.3938914041
 20
513.1288938271
 30
0.0
 11
46.3938914041
 21
547.3288938271
 31
0.0
  0
LINE
  5
437
330
1F
100
AcDbEntity
  8
0
  6
Continuous
 62
     7
370
    25
100
AcDbLine
 10
27.3938914041
 20
530.3288938271
 30
0.0
 11
27.3938914041
 21
513.1288938271
 31
0.0
  0
LINE
  5
438
330
1F
100
AcDbEntity
  8
0
  6
Continuous
 62
     7
370
    25
100
AcDbLine
 10
23.3938914041
 20
530.3288938271
 30
0.0
 11
27.3938914041
 21
530.3288938271
 31
0.0
  0
LINE
  5
439
330
1F
100
AcDbEntity
  8
0
  6
Continuous
 62
     7
370
    25
100
AcDbLine
 10
23.3938914041
 20
547.3288938271
 30
0.0
 11
23.3938914041
 21
530.3288938271
 31
0.0
  0
ARC
  5
43A
330
1F
100
AcDbEntity
  8
0
  6
Continuous
 62
     7
370
    25
100
AcDbCircle
 10
26.3938914041
 20
547.3288938271
 30
0.0
 40
3.0
100
AcDbArc
 50
90.0
 51
180.0
  0
LINE
  5
43B
330
1F
100
AcDbEntity
  8
0
  6
Continuous
 62
     7
370
    25
100
AcDbLine
 10
43.3938914041
 20
550.3288938271
 30
0.0
 11
26.3938914041
 21
550.3288938271
 31
0.0
  0
CIRCLE
  5
43C
330
1F
100
AcDbEntity
  8
0
  6
Continuous
 62
     7
370
    25
100
AcDbCircle
 10
37.8938914041
 20
543.8288938271
 30
0.0
 40
3.25
  0
CIRCLE
  5
43D
330
1F
100
AcDbEntity
  8
0
  6
Continuous
 62
     7
370
    25
100
AcDbCircle
 10
37.8938914041
 20
518.8288938271
 30
0.0
 40
3.250000000000114
  0
LINE
  5
43E
330
1F
100
AcDbEntity
  8
0
  6
Continuous
 62
     7
370
    25
100
AcDbLine
 10
27.3938914041
 20
511.3288938271
 30
0.0
 11
27.3938914041
 21
513.1288938271
 31
0.0
  0
LINE
  5
43F
330
1F
100
AcDbEntity
  8
0
  6
Continuous
 62
     7
370
    25
100
AcDbLine
 10
46.3938914041
 20
513.1288938271
 30
0.0
 11
46.3938914041
 21
511.3288938271
 31
0.0
  0
LINE
  5
440
330
1F
100
AcDbEntity
  8
0
  6
Continuous
 62
     7
370
    25
100
AcDbLine
 10
46.3938914041
 20
511.3288938271
 30
0.0
 11
27.3938914041
 21
511.3288938271
 31
0.0
  0
ARC
  5
441
330
1F
100
AcDbEntity
  8
0
  6
Continuous
 62
     7
370
    25
100
AcDbCircle
 10
27.1938914041
 20
513.1288938271
 30
0.0
 40
1.800000000000068
100
AcDbArc
 50
180.0
 51
270.0
  0
ARC
  5
442
330
1F
100
AcDbEntity
  8
0
  6
Continuous
 62
     7
370
    25
100
AcDbCircle
 10
27.1938914041
 20
513.1288938271
 30
0.0
 40
1.000000000000114
100
AcDbArc
 50
180.0
 51
270.0
  0
LINE
  5
443
330
1F
100
AcDbEntity
  8
0
  6
Continuous
 62
     7
370
    25
100
AcDbLine
 10
27.1938914041
 20
511.3288938271
 30
0.0
 11
27.3938914041
 21
511.3288938271
 31
0.0
  0
LINE
  5
444
330
1F
100
AcDbEntity
  8
0
  6
Continuous
 62
     7
370
    25
100
AcDbLine
 10
27.1938914041
 20
512.1288938271
 30
0.0
 11
27.3938914041
 21
512.1288938271
 31
0.0
  0
LINE
  5
445
330
1F
100
AcDbEntity
  8
0
  6
Continuous
 62
     7
370
    25
100
AcDbLine
 10
25.3938914041
 20
523.3288938271
 30
0.0
 11
26.1938914041
 21
523.3288938271
 31
0.0
  0
LINE
  5
446
330
1F
100
AcDbEntity
  8
0
  6
Continuous
 62
     7
370
    25
100
AcDbLine
 10
26.1938914041
 20
513.1288938271
 30
0.0
 11
26.1938914041
 21
523.3288938271
 31
0.0
  0
LINE
  5
447
330
1F
100
AcDbEntity
  8
0
  6
Continuous
 62
     7
370
    25
100
AcDbLine
 10
70.3938914041
 20
512.1288938271
 30
0.0
 11
70.3938914041
 21
511.3288938271
 31
0.0
  0
LINE
  5
448
330
1F
100
AcDbEntity
  8
0
  6
Continuous
 62
     7
370
    25
100
AcDbLine
 10
70.3938914041
 20
511.3288938271
 30
0.0
 11
67.3938914041
 21
511.3288938271
 31
0.0
  0
LINE
  5
449
330
1F
100
AcDbEntity
  8
0
  6
Continuous
 62
     7
370
    25
100
AcDbLine
 10
67.3938914041
 20
512.1288938271
 30
0.0
 11
70.3938914041
 21
512.1288938271
 31
0.0
  0
LINE
  5
44A
330
1F
100
AcDbEntity
  8
0
  6
Continuous
 62
     7
370
    25
100
AcDbLine
 10
46.3938914041
 20
511.3288938271
 30
0.0
 11
67.3938914041
 21
511.3288938271
 31
0.0
  0
LINE
  5
44B
330
1F
100
AcDbEntity
  8
0
  6
Continuous
 62
     7
370
    25
100
AcDbLine
 10
46.3938914041
 20
512.1288938271
 30
0.0
 11
67.3938914041
 21
512.1288938271
 31
0.0
  0
LINE
  5
44C
330
1F
100
AcDbEntity
  8
0
  6
Continuous
 62
     7
370
    25
100
AcDbLine
 10
69.2985047959
 20
516.3288938271
 30
0.0
 11
69.2985047959
 21
515.5288938271
 31
0.0
  0
LINE
  5
44D
330
1F
100
AcDbEntity
  8
0
  6
Continuous
 62
     7
370
    25
100
AcDbLine
 10
66.2985047959
 20
516.3288938271
 30
0.0
 11
69.2985047959
 21
516.3288938271
 31
0.0
  0
LINE
  5
44E
330
1F
100
AcDbEntity
  8
0
  6
Continuous
 62
     7
370
    25
100
AcDbLine
 10
69.2985047959
 20
515.5288938271
 30
0.0
 11
66.2985047959
 21
515.5288938271
 31
0.0
  0
ARC
  5
44F
330
1F
100
AcDbEntity
  8
0
  6
Continuous
 62
     7
370
    25
100
AcDbCircle
 10
59.7808133423
 20
514.5288938271
 30
0.0
 40
1.00000000000005
100
AcDbArc
 50
90.0
 51
120.0
  0
ARC
  5
450
330
1F
100
AcDbEntity
  8
0
  6
Continuous
 62
     7
370
    25
100
AcDbCircle
 10
59.7808133423
 20
514.5288938271
 30
0.0
 40
1.800000000000068
100
AcDbArc
 50
90.0
 51
120.0
  0
LINE
  5
451
330
1F
100
AcDbEntity
  8
0
  6
Continuous
 62
     7
370
    25
100
AcDbLine
 10
58.8808133423
 20
516.0877395539
 30
0.0
 11
52.2559422117
 21
512.2628684233
 31
0.0
  0
LINE
  5
452
330
1F
100
AcDbEntity
  8
0
  6
Continuous
 62
     7
370
    25
100
AcDbLine
 10
59.2808133423
 20
515.3949192309
 30
0.0
 11
53.6238914041
 21
512.1288938271
 31
0.0
  0
LINE
  5
453
330
1F
100
AcDbEntity
  8
0
  6
Continuous
 62
     7
370
    25
100
AcDbLine
 10
59.7808133423
 20
516.3288938271
 30
0.0
 11
66.2985047959
 21
516.3288938271
 31
0.0
  0
LINE
  5
454
330
1F
100
AcDbEntity
  8
0
  6
Continuous
 62
     7
370
    25
100
AcDbLine
 10
59.7808133423
 20
515.5288938271
 30
0.0
 11
66.2985047959
 21
515.5288938271
 31
0.0
  0
ARC
  5
455
330
1F
100
AcDbEntity
  8
0
  6
Continuous
 62
     7
370
    25
100
AcDbCircle
 10
51.7559422117
 20
513.1288938271
 30
0.0
 40
1.0
100
AcDbArc
 50
270.0
 51
300.0
  0
CIRCLE
  5
456
330
1F
100
AcDbEntity
  8
0
  6
Continuous
 62
     7
370
    25
100
AcDbCircle
 10
37.8938914041
 20
518.8288938271
 30
0.0
 40
2.458750000016629
  0
CIRCLE
  5
457
330
1F
100
AcDbEntity
  8
0
  6
Continuous
 62
     7
370
    25
100
AcDbCircle
 10
37.8938914041
 20
518.8288938271
 30
0.0
 40
3.000000000000008
  0
SPLINE
  5
458
330
1F
100
AcDbEntity
  8
0
  6
Continuous
 62
     7
370
    25
100
AcDbSpline
210
0.0
220
0.0
230
1.0
 70
     8
 71
     3
 72
    12
 73
     8
 74
     0
 42
0.000000001
 43
0.00000001
 40
0.0
 40
0.0
 40
0.0
 40
0.0
 40
0.5000000000000142
 40
0.5000000000000142
 40
0.7500000000000071
 40
0.7500000000000071
 40
1.0
 40
1.0
 40
1.0
 40
1.0
 10
26.8085713895229
 20
517.3880645052234
 30
0.0
 10
26.61807710009938
 20
516.9717634215688
 30
0.0
 10
26.49640268703701
 20
516.5492248935803
 30
0.0
 10
26.49574649650577
 20
515.8989347541195
 30
0.0
 10
26.52558049830016
 20
515.682392536205
 30
0.0
 10
26.63451036840776
 20
515.2570245309647
 30
0.0
 10
26.71320555547064
 20
515.0468725519795
 30
0.0
 10
26.80857138952339
 20
514.8384626296668
 30
0.0
  0
LINE
  5
459
330
1F
100
AcDbEntity
  8
0
  6
Continuous
 62
     7
370
    25
100
AcDbLine
 10
26.8085713895
 20
514.8384626297
 30
0.0
 11
26.7106963523
 21
515.08136738
 31
0.0
  0
SPLINE
  5
45A
330
1F
100
AcDbEntity
  8
0
  6
Continuous
 62
     7
370
    25
100
AcDbSpline
210
0.0
220
0.0
230
1.0
 70
     8
 71
     3
 72
    12
 73
     8
 74
     0
 42
0.000000001
 43
0.00000001
 40
0.0
 40
0.0
 40
0.0
 40
0.0
 40
0.5000000000000094
 40
0.5000000000000094
 40
0.7500000000000047
 40
0.7500000000000047
 40
1.0
 40
1.0
 40
1.0
 40
1.0
 10
26.8085713895229
 20
522.8193250245207
 30
0.0
 10
26.61807710009938
 20
522.5840652320776
 30
0.0
 10
26.496402687037
 20
522.345280539227
 30
0.0
 10
26.49574649650577
 20
521.9777890066702
 30
0.0
 10
26.52558049830017
 20
521.8554168120207
 30
0.0
 10
26.63451036840776
 20
521.6150331268612
 30
0.0
 10
26.71320555547063
 20
521.4962721797997
 30
0.0
 10
26.80857138952338
 20
521.3784957026501
 30
0.0
  0
SPLINE
  5
45B
330
1F
100
AcDbEntity
  8
0
  6
Continuous
 62
     7
370
    25
100
AcDbSpline
210
0.0
220
0.0
230
1.0
 70
     8
 71
     3
 72
    14
 73
    10
 74
     0
 42
0.000000001
 43
0.00000001
 40
0.0
 40
0.0
 40
0.0
 40
0.0
 40
0.25
 40
0.25
 40
0.5
 40
0.5
 40
0.75
 40
0.75
 40
1.0
 40
1.0
 40
1.0
 40
1.0
 10
26.80857138952387
 20
521.3784957026502
 30
0.0
 10
26.71369678021326
 20
521.0539894733614
 30
0.0
 10
26.6340918553375
 20
520.721530250967
 30
0.0
 10
26.52525524044328
 20
520.0549603360589
 30
0.0
 10
26.49593163475279
 20
519.7198840787837
 30
0.0
 10
26.49599641649839
 20
519.0455406085562
 30
0.0
 10
26.52615260982475
 20
518.703761187877
 30
0.0
 10
26.63573781119047
 20
518.0373472682725
 30
0.0
 10
26.71428078499263
 20
517.7105732223196
 30
0.0
 10
26.80857138952388
 20
517.3880645052233
 30
0.0
  0
LINE
  5
45C
330
1F
100
AcDbEntity
  8
0
  6
Continuous
 62
     7
370
    25
100
AcDbLine
 10
26.2938914041
 20
515.6788938271
 30
0.0
 11
26.2938914041
 21
521.9788938271
 31
0.0
  0
LINE
  5
45D
330
1F
100
AcDbEntity
  8
0
  6
Continuous
 62
     7
370
    25
100
AcDbLine
 10
27.3938914041
 20
517.3880645052
 30
0.0
 11
26.8085713895
 21
517.3880645052
 31
0.0
  0
LINE
  5
45E
330
1F
100
AcDbEntity
  8
0
  6
Continuous
 62
     7
370
    25
100
AcDbLine
 10
27.3938914041
 20
521.3784957027
 30
0.0
 11
26.8085713895
 21
521.3784957027
 31
0.0
  0
LINE
  5
45F
330
1F
100
AcDbEntity
  8
0
  6
Continuous
 62
     7
370
    25
100
AcDbLine
 10
27.3938914041
 20
514.8384626297
 30
0.0
 11
26.8085713895
 21
514.8384626297
 31
0.0
  0
LINE
  5
460
330
1F
100
AcDbEntity
  8
0
  6
Continuous
 62
     7
370
    25
100
AcDbLine
 10
27.3938914041
 20
522.8193250245
 30
0.0
 11
26.8085713895
 21
522.8193250245
 31
0.0
  0
LINE
  5
461
330
1F
100
AcDbEntity
  8
0
  6
Continuous
 62
     7
370
    25
100
AcDbLine
 10
23.5938914041
 20
528.8288938271
 30
0.0
 11
13.6938914041
 21
528.8288938271
 31
0.0
  0
LINE
  5
462
330
1F
100
AcDbEntity
  8
0
  6
Continuous
 62
     7
370
    25
100
AcDbLine
 10
23.5938914041
 20
528.0288938271
 30
0.0
 11
23.5938914041
 21
528.8288938271
 31
0.0
  0
LINE
  5
463
330
1F
100
AcDbEntity
  8
0
  6
Continuous
 62
     7
370
    25
100
AcDbLine
 10
13.6938914041
 20
528.0288938271
 30
0.0
 11
23.5938914041
 21
528.0288938271
 31
0.0
  0
LINE
  5
464
330
1F
100
AcDbEntity
  8
0
  6
Continuous
 62
     7
370
    25
100
AcDbLine
 10
13.6938914041
 20
528.0288938271
 30
0.0
 11
13.6938914041
 21
527.9288938271
 31
0.0
  0
LINE
  5
465
330
1F
100
AcDbEntity
  8
0
  6
Continuous
 62
     7
370
    25
100
AcDbLine
 10
13.6938914041
 20
527.9288938271
 30
0.0
 11
18.8438914041
 21
527.9288938271
 31
0.0
  0
LINE
  5
466
330
1F
100
AcDbEntity
  8
0
  6
Continuous
 62
     7
370
    25
100
AcDbLine
 10
18.8438914041
 20
527.1288938271
 30
0.0
 11
18.8438914041
 21
527.9288938271
 31
0.0
  0
LINE
  5
467
330
1F
100
AcDbEntity
  8
0
  6
Continuous
 62
     7
370
    25
100
AcDbLine
 10
13.6938914041
 20
527.1288938271
 30
0.0
 11
18.8438914041
 21
527.1288938271
 31
0.0
  0
ARC
  5
468
330
1F
100
AcDbEntity
  8
0
  6
Continuous
 62
     7
370
    25
100
AcDbCircle
 10
13.6938914041
 20
527.9788938271
 30
0.0
 40
0.8500000000000227
100
AcDbArc
 50
90.0
 51
270.0
  0
LINE
  5
469
330
1F
100
AcDbEntity
  8
0
  6
Continuous
 62
     7
370
    25
100
AcDbLine
 10
23.5938914041
 20
509.6288938271
 30
0.0
 11
19.2938914041
 21
509.6288938271
 31
0.0
  0
LINE
  5
46A
330
1F
100
AcDbEntity
  8
0
  6
Continuous
 62
     7
370
    25
100
AcDbLine
 10
23.5938914041
 20
508.8288938271
 30
0.0
 11
23.5938914041
 21
509.6288938271
 31
0.0
  0
LINE
  5
46B
330
1F
100
AcDbEntity
  8
0
  6
Continuous
 62
     7
370
    25
100
AcDbLine
 10
23.5938914041
 20
508.8288938271
 30
0.0
 11
19.2938914041
 21
508.8288938271
 31
0.0
  0
LINE
  5
46C
330
1F
100
AcDbEntity
  8
0
  6
Continuous
 62
     7
370
    25
100
AcDbLine
 10
25.3938914041
 20
510.6288938271
 30
0.0
 11
25.3938914041
 21
527.0288938271
 31
0.0
  0
ARC
  5
46D
330
1F
100
AcDbEntity
  8
0
  6
Continuous
 62
     7
370
    25
100
AcDbCircle
 10
23.5938914041
 20
510.6288938271
 30
0.0
 40
1.800000000000125
100
AcDbArc
 50
270.0
 51
0.0
  0
LINE
  5
46E
330
1F
100
AcDbEntity
  8
0
  6
Continuous
 62
     7
370
    25
100
AcDbLine
 10
24.5938914041
 20
510.6288938271
 30
0.0
 11
24.5938914041
 21
527.0288938271
 31
0.0
  0
ARC
  5
46F
330
1F
100
AcDbEntity
  8
0
  6
Continuous
 62
     7
370
    25
100
AcDbCircle
 10
23.5938914041
 20
527.0288938271
 30
0.0
 40
1.800000000000068
100
AcDbArc
 50
0.0
 51
90.0
  0
ARC
  5
470
330
1F
100
AcDbEntity
  8
0
  6
Continuous
 62
     7
370
    25
100
AcDbCircle
 10
23.5938914041
 20
510.6288938271
 30
0.0
 40
1.000000000000028
100
AcDbArc
 50
270.0
 51
0.0
  0
ARC
  5
471
330
1F
100
AcDbEntity
  8
0
  6
Continuous
 62
     7
370
    25
100
AcDbCircle
 10
23.5938914041
 20
527.0288938271
 30
0.0
 40
1.0
100
AcDbArc
 50
0.0
 51
90.0
  0
LWPOLYLINE
  5
472
330
1F
100
AcDbEntity
  8
0
  6
Continuous
 62
     7
370
    25
100
AcDbPolyline
 90
        3
 70
   128
 43
0.0
 10
21.5878472881
 20
519.5526752352
 10
21.5834467626
 20
519.5099799009
 10
21.5672219139
 20
519.326281572
  0
ARC
  5
473
330
1F
100
AcDbEntity
  8
0
  6
Continuous
 62
     7
370
    25
100
AcDbCircle
 10
22.0916148383
 20
519.6394094095
 30
0.0
 40
0.6107675350075666
100
AcDbArc
 50
210.8424581413
 51
243.3898036633
  0
ARC
  5
474
330
1F
100
AcDbEntity
  8
0
  6
Continuous
 62
     7
370
    25
100
AcDbCircle
 10
30.9745487597
 20
518.4978964582
 30
0.0
 40
9.175815043615712
100
AcDbArc
 50
177.9327321288
 51
179.6562101052
  0
ARC
  5
475
330
1F
100
AcDbEntity
  8
0
  6
Continuous
 62
     7
370
    25
100
AcDbCircle
 10
29.3308713019
 20
518.734756552
 30
0.0
 40
7.786288415098001
100
AcDbArc
 50
184.3702527064
 51
195.2299003794
  0
ARC
  5
476
330
1F
100
AcDbEntity
  8
0
  6
Continuous
 62
     7
370
    25
100
AcDbCircle
 10
22.0391629691
 20
516.7843927108
 30
0.0
 40
0.240680505671921
100
AcDbArc
 50
156.7420981704
 51
203.2579018296
  0
ARC
  5
477
330
1F
100
AcDbEntity
  8
0
  6
Continuous
 62
     7
370
    25
100
AcDbCircle
 10
29.3308713019
 20
518.9248318469
 30
0.0
 40
7.786288415099357
100
AcDbArc
 50
184.3702527064
 51
195.2299003794
  0
ARC
  5
478
330
1F
100
AcDbEntity
  8
0
  6
Continuous
 62
     7
370
    25
100
AcDbCircle
 10
22.0916148383
 20
518.0183782446
 30
0.0
 40
0.6107675350078235
100
AcDbArc
 50
116.6101963367
 51
149.1575418587
  0
ARC
  5
479
330
1F
100
AcDbEntity
  8
0
  6
Continuous
 62
     7
370
    25
100
AcDbCircle
 10
30.8976769798
 20
519.1568753397
 30
0.0
 40
9.098942710250713
100
AcDbArc
 50
176.2668736478
 51
183.7331263522
  0
ARC
  5
47A
330
1F
100
AcDbEntity
  8
0
  6
Continuous
 62
     7
370
    25
100
AcDbCircle
 10
22.0916148383
 20
519.2032290294
 30
0.0
 40
0.610767535009764
100
AcDbArc
 50
116.6101963367
 51
149.1575418586
  0
ARC
  5
47B
330
1F
100
AcDbEntity
  8
0
  6
Continuous
 62
     7
370
    25
100
AcDbCircle
 10
29.3308713019
 20
518.9230311022
 30
0.0
 40
7.786288415098612
100
AcDbArc
 50
164.7700996206
 51
175.6297472936
  0
ARC
  5
47C
330
1F
100
AcDbEntity
  8
0
  6
Continuous
 62
     7
370
    25
100
AcDbCircle
 10
21.9511251828
 20
520.8944962039
 30
0.0
 40
0.1522432420662866
100
AcDbArc
 50
150.9451665858
 51
179.1449116601
  0
LINE
  5
47D
330
1F
100
AcDbEntity
  8
0
  6
Continuous
 62
     7
370
    25
100
AcDbLine
 10
22.5938914041
 20
522.8288938271
 30
0.0
 11
22.5938914041
 21
514.8288938271
 31
0.0
  0
LINE
  5
47E
330
1F
100
AcDbEntity
  8
0
  6
Continuous
 62
     7
370
    25
100
AcDbLine
 10
21.5672219139
 20
519.516356867
 30
0.0
 11
21.8057775717
 21
519.516356867
 31
0.0
  0
LINE
  5
47F
330
1F
100
AcDbEntity
  8
0
  6
Continuous
 62
     7
370
    25
100
AcDbLine
 10
21.5672219139
 20
518.1414307872
 30
0.0
 11
21.5840889056
 21
518.1414307872
 31
0.0
  0
LINE
  5
480
330
1F
100
AcDbEntity
  8
0
  6
Continuous
 62
     7
370
    25
100
AcDbLine
 10
21.5672219139
 20
519.326281572
 30
0.0
 11
21.8002722303
 21
519.326281572
 31
0.0
  0
ARC
  5
481
330
1F
100
AcDbEntity
  8
0
  6
Continuous
 62
     7
370
    25
100
AcDbCircle
 10
43.8523802934
 20
455.0843670035
 30
0.0
 40
1.942508566655227
100
AcDbArc
 50
268.2745645851
 51
358.1637932023
  0
LINE
  5
482
330
1F
100
AcDbEntity
  8
0
  6
Continuous
 62
     7
370
    25
100
AcDbLine
 10
45.7938914041
 20
455.0221244276
 30
0.0
 11
45.7938914041
 21
454.338084141
 31
0.0
  0
ARC
  5
483
330
1F
100
AcDbEntity
  8
0
  6
Continuous
 62
     7
370
    25
100
AcDbCircle
 10
43.8523802934
 20
454.4003267168
 30
0.0
 40
1.942508566655214
100
AcDbArc
 50
268.2745645851
 51
358.1637932023
  0
LINE
  5
484
330
1F
100
AcDbEntity
  8
0
  6
Continuous
 62
     7
370
    25
100
AcDbLine
 10
45.7938914041
 20
460.1632006645
 30
0.0
 11
45.7938914041
 21
455.0221244276
 31
0.0
  0
LINE
  5
485
330
1F
100
AcDbEntity
  8
0
  6
Continuous
 62
     7
370
    25
100
AcDbLine
 10
43.7938914041
 20
453.142739186
 30
0.0
 11
31.7938914041
 21
453.142739186
 31
0.0
  0
ARC
  5
486
330
1F
100
AcDbEntity
  8
0
  6
Continuous
 62
     7
370
    25
100
AcDbCircle
 10
31.7354025149
 20
455.0843670035
 30
0.0
 40
1.94250856665522
100
AcDbArc
 50
181.8362067977
 51
271.7254354149
  0
LINE
  5
487
330
1F
100
AcDbEntity
  8
0
  6
Continuous
 62
     7
370
    25
100
AcDbLine
 10
29.7938914041
 20
455.0221244276
 30
0.0
 11
29.7938914041
 21
460.1632006645
 31
0.0
  0
LINE
  5
488
330
1F
100
AcDbEntity
  8
0
  6
Continuous
 62
     7
370
    25
100
AcDbLine
 10
43.7938914041
 20
452.4586988994
 30
0.0
 11
31.7938914041
 21
452.4586988994
 31
0.0
  0
LINE
  5
489
330
1F
100
AcDbEntity
  8
0
  6
Continuous
 62
     7
370
    25
100
AcDbLine
 10
29.7938914041
 20
454.338084141
 30
0.0
 11
29.7938914041
 21
455.0221244276
 31
0.0
  0
ARC
  5
48A
330
1F
100
AcDbEntity
  8
0
  6
Continuous
 62
     7
370
    25
100
AcDbCircle
 10
31.7354025149
 20
454.4003267168
 30
0.0
 40
1.9425085666553
100
AcDbArc
 50
181.8362067977
 51
271.7254354149
  0
LINE
  5
48B
330
1F
100
AcDbEntity
  8
0
  6
Continuous
 62
     7
370
    25
100
AcDbLine
 10
45.7938914041
 20
460.1632006645
 30
0.0
 11
45.7938914041
 21
460.5052208078
 31
0.0
  0
LINE
  5
48C
330
1F
100
AcDbEntity
  8
0
  6
Continuous
 62
     7
370
    25
100
AcDbLine
 10
29.7938914041
 20
460.5052208078
 30
0.0
 11
29.7938914041
 21
460.1632006645
 31
0.0
  0
LINE
  5
48D
330
1F
100
AcDbEntity
  8
0
  6
Continuous
 62
     7
370
    25
100
AcDbLine
 10
19.2938914041
 20
460.3288938271
 30
0.0
 11
29.7938914041
 21
460.3288938271
 31
0.0
  0
LINE
  5
48E
330
1F
100
AcDbEntity
  8
0
  6
Continuous
 62
     7
370
    25
100
AcDbLine
 10
43.7938914041
 20
475.3288938271
 30
0.0
 11
19.2938914041
 21
475.3288938271
 31
0.0
  0
ARC
  5
48F
330
1F
100
AcDbEntity
  8
0
  6
Continuous
 62
     7
370
    25
100
AcDbCircle
 10
43.7938914041
 20
473.3288938271
 30
0.0
 40
2.000000000000007
100
AcDbArc
 50
0.0
 51
90.0
  0
LINE
  5
490
330
1F
100
AcDbEntity
  8
0
  6
Continuous
 62
     7
370
    25
100
AcDbLine
 10
45.7938914041
 20
460.5052208078
 30
0.0
 11
45.7938914041
 21
473.3288938271
 31
0.0
  0
CIRCLE
  5
491
330
1F
100
AcDbEntity
  8
0
  6
Continuous
 62
     7
370
    25
100
AcDbCircle
 10
37.8938914041
 20
467.8288938271
 30
0.0
 40
3.499999999999993
  0
LINE
  5
492
330
1F
100
AcDbEntity
  8
0
  6
Continuous
 62
     7
370
    25
100
AcDbLine
 10
31.7938914041
 20
82.5150484681
 30
0.0
 11
43.7938914041
 21
82.5150484681
 31
0.0
  0
LINE
  5
493
330
1F
100
AcDbEntity
  8
0
  6
Continuous
 62
     7
370
    25
100
AcDbLine
 10
31.7938914041
 20
83.1990887548
 30
0.0
 11
43.7938914041
 21
83.1990887548
 31
0.0
  0
LINE
  5
494
330
1F
100
AcDbEntity
  8
0
  6
Continuous
 62
     7
370
    25
100
AcDbLine
 10
45.7938914041
 20
81.3197035132
 30
0.0
 11
45.7938914041
 21
80.6356632266
 31
0.0
  0
ARC
  5
495
330
1F
100
AcDbEntity
  8
0
  6
Continuous
 62
     7
370
    25
100
AcDbCircle
 10
43.8523802934
 20
80.5734206507
 30
0.0
 40
1.942508566655287
100
AcDbArc
 50
1.8362067977
 51
91.7254354149
  0
ARC
  5
496
330
1F
100
AcDbEntity
  8
0
  6
Continuous
 62
     7
370
    25
100
AcDbCircle
 10
43.8523802934
 20
81.2574609374
 30
0.0
 40
1.942508566655298
100
AcDbArc
 50
1.8362067977
 51
91.7254354149
  0
ARC
  5
497
330
1F
100
AcDbEntity
  8
0
  6
Continuous
 62
     7
370
    25
100
AcDbCircle
 10
31.7354025149
 20
80.5734206507
 30
0.0
 40
1.942508566655229
100
AcDbArc
 50
88.2745645851
 51
178.1637932023
  0
LINE
  5
498
330
1F
100
AcDbEntity
  8
0
  6
Continuous
 62
     7
370
    25
100
AcDbLine
 10
29.7938914041
 20
80.6356632266
 30
0.0
 11
29.7938914041
 21
81.3197035132
 31
0.0
  0
ARC
  5
499
330
1F
100
AcDbEntity
  8
0
  6
Continuous
 62
     7
370
    25
100
AcDbCircle
 10
31.7354025149
 20
81.2574609374
 30
0.0
 40
1.942508566655215
100
AcDbArc
 50
88.2745645851
 51
178.1637932023
  0
LINE
  5
49A
330
1F
100
AcDbEntity
  8
0
  6
Continuous
 62
     7
370
    25
100
AcDbLine
 10
45.7938914041
 20
80.6356632266
 30
0.0
 11
45.7938914041
 21
75.4945869897
 31
0.0
  0
LINE
  5
49B
330
1F
100
AcDbEntity
  8
0
  6
Continuous
 62
     7
370
    25
100
AcDbLine
 10
29.7938914041
 20
75.4945869897
 30
0.0
 11
29.7938914041
 21
80.6356632266
 31
0.0
  0
LINE
  5
49C
330
1F
100
AcDbEntity
  8
0
  6
Continuous
 62
     7
370
    25
100
AcDbLine
 10
29.7938914041
 20
75.4945869897
 30
0.0
 11
29.7938914041
 21
75.1525668464
 31
0.0
  0
LINE
  5
49D
330
1F
100
AcDbEntity
  8
0
  6
Continuous
 62
     7
370
    25
100
AcDbLine
 10
45.7938914041
 20
75.1525668464
 30
0.0
 11
45.7938914041
 21
75.4945869897
 31
0.0
  0
LINE
  5
49E
330
1F
100
AcDbEntity
  8
0
  6
Continuous
 62
     7
370
    25
100
AcDbLine
 10
29.7938914041
 20
75.3288938271
 30
0.0
 11
19.2938914041
 21
75.3288938271
 31
0.0
  0
LINE
  5
49F
330
1F
100
AcDbEntity
  8
0
  6
Continuous
 62
     7
370
    25
100
AcDbLine
 10
45.7938914041
 20
62.3288938271
 30
0.0
 11
45.7938914041
 21
75.1525668464
 31
0.0
  0
ARC
  5
4A0
330
1F
100
AcDbEntity
  8
0
  6
Continuous
 62
     7
370
    25
100
AcDbCircle
 10
43.7938914041
 20
62.3288938271
 30
0.0
 40
2.0
100
AcDbArc
 50
270.0
 51
0.0
  0
LINE
  5
4A1
330
1F
100
AcDbEntity
  8
0
  6
Continuous
 62
     7
370
    25
100
AcDbLine
 10
19.2938914041
 20
60.3288938271
 30
0.0
 11
43.7938914041
 21
60.3288938271
 31
0.0
  0
CIRCLE
  5
4A2
330
1F
100
AcDbEntity
  8
0
  6
Continuous
 62
     7
370
    25
100
AcDbCircle
 10
37.8938914041
 20
67.8288938271
 30
0.0
 40
3.499999999999993
  0
CIRCLE
  5
4A3
330
1F
100
AcDbEntity
  8
0
  6
Continuous
 62
     7
370
    25
100
AcDbCircle
 10
37.8938914041
 20
467.8288938271
 30
0.0
 40
2.458750000016591
  0
CIRCLE
  5
4A4
330
1F
100
AcDbEntity
  8
0
  6
Continuous
 62
     7
370
    25
100
AcDbCircle
 10
37.8938914041
 20
467.8288938271
 30
0.0
 40
2.999999999999996
  0
ENDSEC
  0
SECTION
  2
OBJECTS
  0
DICTIONARY
  5
C
330
0
100
AcDbDictionary
281
     1
  3
ACAD_GROUP
350
D
  3
ACAD_LAYOUT
350
1A
  3
ACAD_MLINESTYLE
350
17
  3
ACAD_PLOTSETTINGS
350
19
  3
ACAD_PLOTSTYLENAME
350
E
  3
ACAD_SCALELIST
350
47
  0
DICTIONARY
  5
D
102
{ACAD_REACTORS
330
C
102
}
330
C
100
AcDbDictionary
281
     1
  0
DICTIONARY
  5
1A
102
{ACAD_REACTORS
330
C
102
}
330
C
100
AcDbDictionary
281
     1
  3
Layout1
350
1E
  3
Layout2
350
26
  3
Model
350
22
  0
DICTIONARY
  5
17
102
{ACAD_REACTORS
330
C
102
}
330
C
100
AcDbDictionary
281
     1
  3
Standard
350
18
  0
DICTIONARY
  5
19
102
{ACAD_REACTORS
330
C
102
}
330
C
100
AcDbDictionary
281
     1
  0
ACDBDICTIONARYWDFLT
  5
E
102
{ACAD_REACTORS
330
C
102
}
330
C
100
AcDbDictionary
281
     1
  3
Normal
350
F
100
AcDbDictionaryWithDefault
340
F
  0
DICTIONARY
  5
47
102
{ACAD_REACTORS
330
C
102
}
330
C
100
AcDbDictionary
281
     1
  3
A0
350
48
  3
A1
350
49
  3
A2
350
4A
  3
A3
350
4B
  3
A4
350
4C
  3
A5
350
4D
  3
A6
350
4E
  3
A7
350
4F
  3
A8
350
50
  3
A9
350
51
  3
B0
350
52
  3
B1
350
53
  3
B2
350
54
  3
B3
350
55
  3
B4
350
56
  3
B5
350
57
  3
B6
350
58
  3
B7
350
59
  3
B8
350
5A
  3
B9
350
5B
  3
C0
350
5C
  3
C1
350
5D
  3
C2
350
5E
  3
C3
350
5F
  3
C4
350
60
  3
C5
350
61
  3
C6
350
62
  3
C7
350
63
  3
C8
350
64
  3
C9
350
65
  3
D0
350
66
  3
D1
350
67
  3
D2
350
68
  0
LAYOUT
  5
1E
102
{ACAD_REACTORS
330
1A
102
}
330
1A
100
AcDbPlotSettings
  1

  2
none_device
  4

  6

 40
0.0
 41
0.0
 42
0.0
 43
0.0
 44
0.0
 45
0.0
 46
0.0
 47
0.0
 48
0.0
 49
0.0
140
0.0
141
0.0
142
1.0
143
1.0
 70
   688
 72
     1
 73
     0
 74
     5
  7

 75
    16
147
1.0
148
0.0
149
0.0
100
AcDbLayout
  1
Layout1
 70
     1
 71
     1
 10
0.0
 20
0.0
 11
420.0
 21
297.0
 12
0.0
 22
0.0
 32
0.0
 14
1.0000000000E+20
 24
1.0000000000E+20
 34
1.0000000000E+20
 15
-1.0000000000E+20
 25
-1.0000000000E+20
 35
-1.0000000000E+20
146
0.0
 13
0.0
 23
0.0
 33
0.0
 16
1.0
 26
0.0
 36
0.0
 17
0.0
 27
1.0
 37
0.0
 76
     0
330
1B
  0
LAYOUT
  5
26
102
{ACAD_REACTORS
330
1A
102
}
330
1A
100
AcDbPlotSettings
  1

  2
none_device
  4

  6

 40
0.0
 41
0.0
 42
0.0
 43
0.0
 44
0.0
 45
0.0
 46
0.0
 47
0.0
 48
0.0
 49
0.0
140
0.0
141
0.0
142
1.0
143
1.0
 70
   688
 72
     1
 73
     0
 74
     5
  7

 75
    16
147
1.0
148
0.0
149
0.0
100
AcDbLayout
  1
Layout2
 70
     1
 71
     2
 10
0.0
 20
0.0
 11
0.0
 21
0.0
 12
0.0
 22
0.0
 32
0.0
 14
0.0
 24
0.0
 34
0.0
 15
0.0
 25
0.0
 35
0.0
146
0.0
 13
0.0
 23
0.0
 33
0.0
 16
1.0
 26
0.0
 36
0.0
 17
0.0
 27
1.0
 37
0.0
 76
     0
330
23
  0
LAYOUT
  5
22
102
{ACAD_REACTORS
330
1A
102
}
330
1A
100
AcDbPlotSettings
  1

  2
none_device
  4
Letter_(8.50_x_11.00_Inches)
  6

 40
6.35
 41
6.35
 42
6.35000508
 43
6.35000508
 44
215.9
 45
279.4
 46
0.0
 47
0.0
 48
0.0
 49
0.0
140
0.0
141
0.0
142
1.0
143
1.0
 70
  1712
 72
     1
 73
     0
 74
     0
  7

 75
     0
147
1.0
148
0.0
149
0.0
100
AcDbLayout
  1
Model
 70
     1
 71
     0
 10
0.0
 20
0.0
 11
841.0
 21
594.0
 12
0.0
 22
0.0
 32
0.0
 14
0.0
 24
0.0
 34
0.0
 15
841.0
 25
594.0
 35
0.0
146
0.0
 13
0.0
 23
0.0
 33
0.0
 16
1.0
 26
0.0
 36
0.0
 17
0.0
 27
1.0
 37
0.0
 76
     0
330
1F
331
29
  0
MLINESTYLE
  5
18
102
{ACAD_REACTORS
330
17
102
}
330
17
100
AcDbMlineStyle
  2
Standard
 70
     0
  3

 62
   256
 51
90.0
 52
90.0
 71
     2
 49
0.5
 62
   256
  6
BYLAYER
 49
-0.5
 62
   256
  6
BYLAYER
  0
ACDBPLACEHOLDER
  5
F
102
{ACAD_REACTORS
330
E
102
}
330
E
  0
SCALE
  5
48
102
{ACAD_REACTORS
330
47
102
}
330
47
100
AcDbScale
 70
     0
300
1:1
140
1.0
141
1.0
290
     1
  0
SCALE
  5
49
102
{ACAD_REACTORS
330
47
102
}
330
47
100
AcDbScale
 70
     0
300
1:2
140
1.0
141
2.0
290
     0
  0
SCALE
  5
4A
102
{ACAD_REACTORS
330
47
102
}
330
47
100
AcDbScale
 70
     0
300
1:4
140
1.0
141
4.0
290
     0
  0
SCALE
  5
4B
102
{ACAD_REACTORS
330
47
102
}
330
47
100
AcDbScale
 70
     0
300
1:5
140
1.0
141
5.0
290
     0
  0
SCALE
  5
4C
102
{ACAD_REACTORS
330
47
102
}
330
47
100
AcDbScale
 70
     0
300
1:8
140
1.0
141
8.0
290
     0
  0
SCALE
  5
4D
102
{ACAD_REACTORS
330
47
102
}
330
47
100
AcDbScale
 70
     0
300
1:10
140
1.0
141
10.0
290
     0
  0
SCALE
  5
4E
102
{ACAD_REACTORS
330
47
102
}
330
47
100
AcDbScale
 70
     0
300
1:16
140
1.0
141
16.0
290
     0
  0
SCALE
  5
4F
102
{ACAD_REACTORS
330
47
102
}
330
47
100
AcDbScale
 70
     0
300
1:20
140
1.0
141
20.0
290
     0
  0
SCALE
  5
50
102
{ACAD_REACTORS
330
47
102
}
330
47
100
AcDbScale
 70
     0
300
1:30
140
1.0
141
30.0
290
     0
  0
SCALE
  5
51
102
{ACAD_REACTORS
330
47
102
}
330
47
100
AcDbScale
 70
     0
300
1:40
140
1.0
141
40.0
290
     0
  0
SCALE
  5
52
102
{ACAD_REACTORS
330
47
102
}
330
47
100
AcDbScale
 70
     0
300
1:50
140
1.0
141
50.0
290
     0
  0
SCALE
  5
53
102
{ACAD_REACTORS
330
47
102
}
330
47
100
AcDbScale
 70
     0
300
1:100
140
1.0
141
100.0
290
     0
  0
SCALE
  5
54
102
{ACAD_REACTORS
330
47
102
}
330
47
100
AcDbScale
 70
     0
300
2:1
140
2.0
141
1.0
290
     0
  0
SCALE
  5
55
102
{ACAD_REACTORS
330
47
102
}
330
47
100
AcDbScale
 70
     0
300
4:1
140
4.0
141
1.0
290
     0
  0
SCALE
  5
56
102
{ACAD_REACTORS
330
47
102
}
330
47
100
AcDbScale
 70
     0
300
8:1
140
8.0
141
1.0
290
     0
  0
SCALE
  5
57
102
{ACAD_REACTORS
330
47
102
}
330
47
100
AcDbScale
 70
     0
300
10:1
140
10.0
141
1.0
290
     0
  0
SCALE
  5
58
102
{ACAD_REACTORS
330
47
102
}
330
47
100
AcDbScale
 70
     0
300
100:1
140
100.0
141
1.0
290
     0
  0
SCALE
  5
59
102
{ACAD_REACTORS
330
47
102
}
330
47
100
AcDbScale
 70
     0
300
1/128" = 1'-0"
140
0.0078125
141
12.0
290
     0
  0
SCALE
  5
5A
102
{ACAD_REACTORS
330
47
102
}
330
47
100
AcDbScale
 70
     0
300
1/64" = 1'-0"
140
0.015625
141
12.0
290
     0
  0
SCALE
  5
5B
102
{ACAD_REACTORS
330
47
102
}
330
47
100
AcDbScale
 70
     0
300
1/32" = 1'-0"
140
0.03125
141
12.0
290
     0
  0
SCALE
  5
5C
102
{ACAD_REACTORS
330
47
102
}
330
47
100
AcDbScale
 70
     0
300
1/16" = 1'-0"
140
0.0625
141
12.0
290
     0
  0
SCALE
  5
5D
102
{ACAD_REACTORS
330
47
102
}
330
47
100
AcDbScale
 70
     0
300
3/32" = 1'-0"
140
0.09375
141
12.0
290
     0
  0
SCALE
  5
5E
102
{ACAD_REACTORS
330
47
102
}
330
47
100
AcDbScale
 70
     0
300
1/8" = 1'-0"
140
0.125
141
12.0
290
     0
  0
SCALE
  5
5F
102
{ACAD_REACTORS
330
47
102
}
330
47
100
AcDbScale
 70
     0
300
3/16" = 1'-0"
140
0.1875
141
12.0
290
     0
  0
SCALE
  5
60
102
{ACAD_REACTORS
330
47
102
}
330
47
100
AcDbScale
 70
     0
300
1/4" = 1'-0"
140
0.25
141
12.0
290
     0
  0
SCALE
  5
61
102
{ACAD_REACTORS
330
47
102
}
330
47
100
AcDbScale
 70
     0
300
3/8" = 1'-0"
140
0.375
141
12.0
290
     0
  0
SCALE
  5
62
102
{ACAD_REACTORS
330
47
102
}
330
47
100
AcDbScale
 70
     0
300
1/2" = 1'-0"
140
0.5
141
12.0
290
     0
  0
SCALE
  5
63
102
{ACAD_REACTORS
330
47
102
}
330
47
100
AcDbScale
 70
     0
300
3/4" = 1'-0"
140
0.75
141
12.0
290
     0
  0
SCALE
  5
64
102
{ACAD_REACTORS
330
47
102
}
330
47
100
AcDbScale
 70
     0
300
1" = 1'-0"
140
1.0
141
12.0
290
     0
  0
SCALE
  5
65
102
{ACAD_REACTORS
330
47
102
}
330
47
100
AcDbScale
 70
     0
300
1-1/2" = 1'-0"
140
1.5
141
12.0
290
     0
  0
SCALE
  5
66
102
{ACAD_REACTORS
330
47
102
}
330
47
100
AcDbScale
 70
     0
300
3" = 1'-0"
140
3.0
141
12.0
290
     0
  0
SCALE
  5
67
102
{ACAD_REACTORS
330
47
102
}
330
47
100
AcDbScale
 70
     0
300
6" = 1'-0"
140
6.0
141
12.0
290
     0
  0
SCALE
  5
68
102
{ACAD_REACTORS
330
47
102
}
330
47
100
AcDbScale
 70
     0
300
1'-0" = 1'-0"
140
12.0
141
12.0
290
     0
  0
ENDSEC
  0
EOF
