  0
SECTION
  2
HEADER
  9
$ACADVER
  1
AC1015
  9
$ACADMAINTVER
 70
     6
  9
$DWGCODEPAGE
  3
ANSI_1251
  9
$INSBASE
 10
0.0
 20
0.0
 30
0.0
  9
$EXTMIN
 10
0.0
 20
0.0
 30
0.0
  9
$EXTMAX
 10
2000.0
 20
2500.0
 30
0.0
  9
$LIMMIN
 10
0.0
 20
0.0
  9
$LIMMAX
 10
2000.0
 20
2500.0
  9
$ORTHOMODE
 70
     0
  9
$REGENMODE
 70
     1
  9
$FILLMODE
 70
     1
  9
$QTEXTMODE
 70
     0
  9
$MIRRTEXT
 70
     1
  9
$LTSCALE
 40
1.0
  9
$ATTMODE
 70
     1
  9
$TEXTSIZE
 40
5.0
  9
$TRACEWID
 40
1.0
  9
$TEXTSTYLE
  7
Standard
  9
$CLAYER
  8
0
  9
$CELTYPE
  6
ByLayer
  9
$CECOLOR
 62
   256
  9
$CELTSCALE
 40
1.0
  9
$DISPSILH
 70
     0
  9
$DIMSCALE
 40
1.0
  9
$DIMASZ
 40
5.0
  9
$DIMEXO
 40
0.0
  9
$DIMDLI
 40
3.75
  9
$DIMRND
 40
0.0
  9
$DIMDLE
 40
0.0
  9
$DIMEXE
 40
1.0
  9
$DIMTP
 40
0.0
  9
$DIMTM
 40
0.0
  9
$DIMTXT
 40
3.5
  9
$DIMCEN
 40
2.5
  9
$DIMTSZ
 40
0.0
  9
$DIMTOL
 70
     0
  9
$DIMLIM
 70
     0
  9
$DIMTIH
 70
     1
  9
$DIMTOH
 70
     1
  9
$DIMSE1
 70
     0
  9
$DIMSE2
 70
     0
  9
$DIMTAD
 70
     1
  9
$DIMZIN
 70
     0
  9
$DIMBLK
  1

  9
$DIMASO
 70
     1
  9
$DIMSHO
 70
     1
  9
$DIMPOST
  1

  9
$DIMAPOST
  1

  9
$DIMALT
 70
     0
  9
$DIMALTD
 70
     3
  9
$DIMALTF
 40
0.0393700787
  9
$DIMLFAC
 40
1.0
  9
$DIMTOFL
 70
     1
  9
$DIMTVP
 40
0.0
  9
$DIMTIX
 70
     0
  9
$DIMSOXD
 70
     0
  9
$DIMSAH
 70
     0
  9
$DIMBLK1
  1

  9
$DIMBLK2
  1

  9
$DIMSTYLE
  2
ISO-25
  9
$DIMCLRD
 70
     0
  9
$DIMCLRE
 70
     0
  9
$DIMCLRT
 70
     0
  9
$DIMTFAC
 40
1.0
  9
$DIMGAP
 40
1.5
  9
$DIMJUST
 70
     0
  9
$DIMSD1
 70
     0
  9
$DIMSD2
 70
     0
  9
$DIMTOLJ
 70
     0
  9
$DIMTZIN
 70
     0
  9
$DIMALTZ
 70
     0
  9
$DIMALTTZ
 70
     0
  9
$DIMUPT
 70
     0
  9
$DIMDEC
 70
     1
  9
$DIMTDEC
 70
     1
  9
$DIMALTU
 70
     2
  9
$DIMALTTD
 70
     3
  9
$DIMTXSTY
  7
Standard
  9
$DIMAUNIT
 70
     0
  9
$DIMADEC
 70
     2
  9
$DIMALTRND
 40
0.0
  9
$DIMAZIN
 70
     0
  9
$DIMDSEP
 70
    44
  9
$DIMATFIT
 70
     3
  9
$DIMFRAC
 70
     0
  9
$DIMLDRBLK
  1

  9
$DIMLUNIT
 70
     2
  9
$DIMLWD
 70
    -2
  9
$DIMLWE
 70
    -2
  9
$DIMTMOVE
 70
     0
  9
$LUNITS
 70
     2
  9
$LUPREC
 70
     1
  9
$SKETCHINC
 40
1.0
  9
$FILLETRAD
 40
0.0
  9
$AUNITS
 70
     0
  9
$AUPREC
 70
     2
  9
$MENU
  1
.
  9
$ELEVATION
 40
0.0
  9
$PELEVATION
 40
0.0
  9
$THICKNESS
 40
0.0
  9
$LIMCHECK
 70
     0
  9
$CHAMFERA
 40
0.0
  9
$CHAMFERB
 40
0.0
  9
$CHAMFERC
 40
0.0
  9
$CHAMFERD
 40
0.0
  9
$SKPOLY
 70
     0
  9
$TDCREATE
 40
2460213.636734537
  9
$TDUCREATE
 40
2460213.511734537
  9
$TDUPDATE
 40
2460213.636735151
  9
$TDUUPDATE
 40
2460213.511735151
  9
$TDINDWG
 40
0.0000000116
  9
$TDUSRTIMER
 40
0.0000000116
  9
$USRTIMER
 70
     1
  9
$ANGBASE
 50
0.0
  9
$ANGDIR
 70
     0
  9
$PDMODE
 70
     0
  9
$PDSIZE
 40
-1.0
  9
$PLINEWID
 40
0.0
  9
$SPLFRAME
 70
     0
  9
$SPLINETYPE
 70
     6
  9
$SPLINESEGS
 70
     8
  9
$HANDSEED
  5
53C
  9
$SURFTAB1
 70
     6
  9
$SURFTAB2
 70
     6
  9
$SURFTYPE
 70
     6
  9
$SURFU
 70
     6
  9
$SURFV
 70
     6
  9
$UCSBASE
  2

  9
$UCSNAME
  2

  9
$UCSORG
 10
0.0
 20
0.0
 30
0.0
  9
$UCSXDIR
 10
1.0
 20
0.0
 30
0.0
  9
$UCSYDIR
 10
0.0
 20
1.0
 30
0.0
  9
$UCSORTHOREF
  2

  9
$UCSORTHOVIEW
 70
     0
  9
$UCSORGTOP
 10
0.0
 20
0.0
 30
0.0
  9
$UCSORGBOTTOM
 10
0.0
 20
0.0
 30
0.0
  9
$UCSORGLEFT
 10
0.0
 20
0.0
 30
0.0
  9
$UCSORGRIGHT
 10
0.0
 20
0.0
 30
0.0
  9
$UCSORGFRONT
 10
0.0
 20
0.0
 30
0.0
  9
$UCSORGBACK
 10
0.0
 20
0.0
 30
0.0
  9
$PUCSBASE
  2

  9
$PUCSNAME
  2

  9
$PUCSORG
 10
0.0
 20
0.0
 30
0.0
  9
$PUCSXDIR
 10
1.0
 20
0.0
 30
0.0
  9
$PUCSYDIR
 10
0.0
 20
1.0
 30
0.0
  9
$PUCSORTHOREF
  2

  9
$PUCSORTHOVIEW
 70
     0
  9
$PUCSORGTOP
 10
0.0
 20
0.0
 30
0.0
  9
$PUCSORGBOTTOM
 10
0.0
 20
0.0
 30
0.0
  9
$PUCSORGLEFT
 10
0.0
 20
0.0
 30
0.0
  9
$PUCSORGRIGHT
 10
0.0
 20
0.0
 30
0.0
  9
$PUCSORGFRONT
 10
0.0
 20
0.0
 30
0.0
  9
$PUCSORGBACK
 10
0.0
 20
0.0
 30
0.0
  9
$USERI1
 70
     0
  9
$USERI2
 70
     0
  9
$USERI3
 70
     0
  9
$USERI4
 70
     0
  9
$USERI5
 70
     0
  9
$USERR1
 40
0.0
  9
$USERR2
 40
0.0
  9
$USERR3
 40
0.0
  9
$USERR4
 40
0.0
  9
$USERR5
 40
0.0
  9
$WORLDVIEW
 70
     1
  9
$SHADEDGE
 70
     3
  9
$SHADEDIF
 70
    70
  9
$TILEMODE
 70
     1
  9
$MAXACTVP
 70
    64
  9
$PINSBASE
 10
0.0
 20
0.0
 30
0.0
  9
$PLIMCHECK
 70
     0
  9
$PEXTMIN
 10
1.0000000000E+20
 20
1.0000000000E+20
 30
1.0000000000E+20
  9
$PEXTMAX
 10
-1.0000000000E+20
 20
-1.0000000000E+20
 30
-1.0000000000E+20
  9
$PLIMMIN
 10
0.0
 20
0.0
  9
$PLIMMAX
 10
420.0
 20
297.0
  9
$UNITMODE
 70
     0
  9
$VISRETAIN
 70
     1
  9
$PLINEGEN
 70
     0
  9
$PSLTSCALE
 70
     1
  9
$TREEDEPTH
 70
  3020
  9
$CMLSTYLE
  2
Standard
  9
$CMLJUST
 70
     0
  9
$CMLSCALE
 40
20.0
  9
$PROXYGRAPHICS
 70
     1
  9
$MEASUREMENT
 70
     1
  9
$CELWEIGHT
370
    -1
  9
$ENDCAPS
280
     0
  9
$JOINSTYLE
280
     0
  9
$LWDISPLAY
290
     1
  9
$INSUNITS
 70
     4
  9
$HYPERLINKBASE
  1

  9
$STYLESHEET
  1

  9
$XEDIT
290
     1
  9
$CEPSNTYPE
380
     0
  9
$PSTYLEMODE
290
     1
  9
$FINGERPRINTGUID
  2
{0b3c6909-0c65-4dd6-87e1-807082f111fc}
  9
$VERSIONGUID
  2
{FAEB1C32-E019-11D5-929B-00C0DF256EC4}
  9
$EXTNAMES
290
     1
  9
$PSVPSCALE
 40
0.0
  9
$OLESTARTUP
290
     0
  0
ENDSEC
  0
SECTION
  2
CLASSES
  0
CLASS
  1
ACDBDICTIONARYWDFLT
  2
AcDbDictionaryWithDefault
  3
ObjectDBX Classes
 90
        0
280
     0
281
     0
  0
CLASS
  1
VISUALSTYLE
  2
AcDbVisualStyle
  3
ObjectDBX Classes
 90
     4095
280
     0
281
     0
  0
CLASS
  1
MATERIAL
  2
AcDbMaterial
  3
ObjectDBX Classes
 90
     1153
280
     0
281
     0
  0
CLASS
  1
SCALE
  2
AcDbScale
  3
ObjectDBX Classes
 90
     1153
280
     0
281
     0
  0
CLASS
  1
TABLESTYLE
  2
AcDbTableStyle
  3
ObjectDBX Classes
 90
     4095
280
     0
281
     0
  0
CLASS
  1
MLEADERSTYLE
  2
AcDbMLeaderStyle
  3
ACDB_MLEADERSTYLE_CLASS
 90
     4095
280
     0
281
     0
  0
CLASS
  1
SUN
  2
AcDbSun
  3
SCENEOE
 90
     1153
280
     0
281
     0
  0
CLASS
  1
ACDBPLACEHOLDER
  2
AcDbPlaceHolder
  3
ObjectDBX Classes
 90
        0
280
     0
281
     0
  0
CLASS
  1
LAYOUT
  2
AcDbLayout
  3
ObjectDBX Classes
 90
        0
280
     0
281
     0
  0
ENDSEC
  0
SECTION
  2
TABLES
  0
TABLE
  2
VPORT
  5
8
330
0
100
AcDbSymbolTable
 70
     1
  0
VPORT
  5
29
330
8
100
AcDbSymbolTableRecord
100
AcDbViewportTableRecord
  2
*Active
 70
     0
 10
0.0
 20
0.0
 11
1.0
 21
1.0
 12
1000.0
 22
1250.0
 13
0.0
 23
0.0
 14
10.0
 24
10.0
 15
10.0
 25
10.0
 16
0.0
 26
0.0
 36
1.0
 17
0.0
 27
0.0
 37
0.0
 40
2500.0
 41
0.8
 42
50.0
 43
0.0
 44
0.0
 50
0.0
 51
0.0
 71
     0
 72
  2000
 73
     1
 74
     3
 75
     0
 76
     0
 77
     0
 78
     0
281
     0
 65
     1
110
0.0
120
0.0
130
0.0
111
1.0
121
0.0
131
0.0
112
0.0
122
1.0
132
0.0
 79
     0
146
0.0
  0
ENDTAB
  0
TABLE
  2
LTYPE
  5
5
330
0
100
AcDbSymbolTable
 70
     8
  0
LTYPE
  5
14
330
5
100
AcDbSymbolTableRecord
100
AcDbLinetypeTableRecord
  2
ByBlock
 70
     0
  3

 72
    65
 73
     0
 40
0.0
  0
LTYPE
  5
15
330
5
100
AcDbSymbolTableRecord
100
AcDbLinetypeTableRecord
  2
ByLayer
 70
     0
  3

 72
    65
 73
     0
 40
0.0
  0
LTYPE
  5
16
330
5
100
AcDbSymbolTableRecord
100
AcDbLinetypeTableRecord
  2
Continuous
 70
     0
  3
Solid line
 72
    65
 73
     0
 40
0.0
  0
LTYPE
  5
5E
330
5
100
AcDbSymbolTableRecord
100
AcDbLinetypeTableRecord
  2
SLD-Сплошная
 70
     0
  3
SolidWorks Line Style
 72
    65
 73
     0
 40
0.0
  0
LTYPE
  5
5F
330
5
100
AcDbSymbolTableRecord
100
AcDbLinetypeTableRecord
  2
SLD-Штриховая
 70
     0
  3
SolidWorks Line Style
 72
    65
 73
     2
 40
1.905
 49
1.27
 74
     0
 49
-0.635
 74
     0
  0
LTYPE
  5
60
330
5
100
AcDbSymbolTableRecord
100
AcDbLinetypeTableRecord
  2
SLD-Штрихпункт.-с-двумя-точками
 70
     0
  3
SolidWorks Line Style
 72
    65
 73
     6
 40
12.7
 49
6.35
 74
     0
 49
-1.27
 74
     0
 49
1.27
 74
     0
 49
-1.27
 74
     0
 49
1.27
 74
     0
 49
-1.27
 74
     0
  0
LTYPE
  5
61
330
5
100
AcDbSymbolTableRecord
100
AcDbLinetypeTableRecord
  2
SLD-Штрихпункт.-утолщ.
 70
     0
  3
SolidWorks Line Style
 72
    65
 73
     4
 40
10.16
 49
6.35
 74
     0
 49
-1.27
 74
     0
 49
1.27
 74
     0
 49
-1.27
 74
     0
  0
LTYPE
  5
62
330
5
100
AcDbSymbolTableRecord
100
AcDbLinetypeTableRecord
  2
SLD-Осевая
 70
     0
  3
SolidWorks Line Style
 72
    65
 73
     4
 40
19.05
 49
15.24
 74
     0
 49
-1.27
 74
     0
 49
1.27
 74
     0
 49
-1.27
 74
     0
  0
LTYPE
  5
63
330
5
100
AcDbSymbolTableRecord
100
AcDbLinetypeTableRecord
  2
SLD-Сшитая
 70
     0
  3
SolidWorks Line Style
 72
    65
 73
     2
 40
0.635
 49
0.0
 74
     0
 49
-0.635
 74
     0
  0
LTYPE
  5
64
330
5
100
AcDbSymbolTableRecord
100
AcDbLinetypeTableRecord
  2
SLD-Тонкая-Толстая
 70
     0
  3
SolidWorks Line Style
 72
    65
 73
     2
 40
5.080508
 49
0.000508
 74
     0
 49
-5.08
 74
     0
  0
ENDTAB
  0
TABLE
  2
LAYER
  5
2
330
0
100
AcDbSymbolTable
 70
     3
  0
LAYER
  5
10
330
2
100
AcDbSymbolTableRecord
100
AcDbLayerTableRecord
  2
0
 70
     0
 62
     7
  6
Continuous
370
    -3
390
F
  0
LAYER
  5
65
330
2
100
AcDbSymbolTableRecord
100
AcDbLayerTableRecord
  2
1
 70
     0
 62
     7
  6
SLD-Сплошная
370
    -1
390
F
  0
LAYER
  5
66
330
2
100
AcDbSymbolTableRecord
100
AcDbLayerTableRecord
  2
2
 70
     0
 62
     7
  6
SLD-Сплошная
370
    -3
390
F
  0
ENDTAB
  0
TABLE
  2
STYLE
  5
3
330
0
100
AcDbSymbolTable
 70
     1
  0
STYLE
  5
11
330
3
100
AcDbSymbolTableRecord
100
AcDbTextStyleTableRecord
  2
Standard
 70
     0
 40
0.0
 41
1.0
 50
0.0
 71
     0
 42
5.0
  3
txt
  4

  0
ENDTAB
  0
TABLE
  2
VIEW
  5
6
330
0
100
AcDbSymbolTable
 70
     0
  0
ENDTAB
  0
TABLE
  2
UCS
  5
7
330
0
100
AcDbSymbolTable
 70
     0
  0
ENDTAB
  0
TABLE
  2
APPID
  5
9
330
0
100
AcDbSymbolTable
 70
     1
  0
APPID
  5
12
330
9
100
AcDbSymbolTableRecord
100
AcDbRegAppTableRecord
  2
ACAD
 70
     0
  0
ENDTAB
  0
TABLE
  2
DIMSTYLE
  5
A
330
0
100
AcDbSymbolTable
 70
     1
100
AcDbDimStyleTable
  0
DIMSTYLE
105
27
330
A
100
AcDbSymbolTableRecord
100
AcDbDimStyleTableRecord
  2
ISO-25
 70
     0
 41
2.5
 42
0.625
 43
3.75
 44
1.25
 73
     0
 74
     0
 77
     1
 78
     8
140
2.5
141
2.5
143
0.0393700787
147
0.625
171
     3
172
     1
178
     0
271
     2
272
     2
274
     3
278
    44
283
     0
284
     8
340
11
  0
ENDTAB
  0
TABLE
  2
BLOCK_RECORD
  5
1
330
0
100
AcDbSymbolTable
 70
     1
  0
BLOCK_RECORD
  5
1F
330
1
100
AcDbSymbolTableRecord
100
AcDbBlockTableRecord
  2
*Model_Space
340
22
  0
BLOCK_RECORD
  5
1B
330
1
100
AcDbSymbolTableRecord
100
AcDbBlockTableRecord
  2
*Paper_Space
340
1E
  0
BLOCK_RECORD
  5
23
330
1
100
AcDbSymbolTableRecord
100
AcDbBlockTableRecord
  2
*Paper_Space0
340
26
  0
ENDTAB
  0
ENDSEC
  0
SECTION
  2
BLOCKS
  0
BLOCK
  5
20
330
1F
100
AcDbEntity
  8
0
100
AcDbBlockBegin
  2
*Model_Space
 70
     0
 10
0.0
 20
0.0
 30
0.0
  3
*Model_Space
  1

  0
ENDBLK
  5
21
330
1F
100
AcDbEntity
  8
0
100
AcDbBlockEnd
  0
BLOCK
  5
1C
330
1B
100
AcDbEntity
 67
     1
  8
0
100
AcDbBlockBegin
  2
*Paper_Space
 70
     0
 10
0.0
 20
0.0
 30
0.0
  3
*Paper_Space
  1

  0
ENDBLK
  5
1D
330
1B
100
AcDbEntity
 67
     1
  8
0
100
AcDbBlockEnd
  0
BLOCK
  5
24
330
23
100
AcDbEntity
  8
0
100
AcDbBlockBegin
  2
*Paper_Space0
 70
     0
 10
0.0
 20
0.0
 30
0.0
  3
*Paper_Space0
  1

  0
ENDBLK
  5
25
330
23
100
AcDbEntity
  8
0
100
AcDbBlockEnd
  0
ENDSEC
  0
SECTION
  2
ENTITIES
  0
ARC
  5
67
330
1F
100
AcDbEntity
  8
1
  6
SLD-Сплошная
100
AcDbCircle
 10
944.0062925134
 20
-60.3945224263
 30
0.0
 40
0.999999999999951
100
AcDbArc
 50
180.0
 51
257.5813184942
  0
ARC
  5
68
330
1F
100
AcDbEntity
  8
1
  6
SLD-Сплошная
100
AcDbCircle
 10
958.6062925134
 20
-60.3945224263
 30
0.0
 40
0.999999999999951
100
AcDbArc
 50
282.4186815058
 51
0.0
  0
LINE
  5
69
330
1F
100
AcDbEntity
  8
1
  6
SLD-Сплошная
100
AcDbLine
 10
943.0062925134
 20
-59.1887603687
 30
0.0
 11
943.0062925134
 21
-60.3945224263
 31
0.0
  0
LINE
  5
6A
330
1F
100
AcDbEntity
  8
1
  6
SLD-Сплошная
100
AcDbLine
 10
959.6062925134
 20
-60.3945224263
 30
0.0
 11
959.6062925134
 21
-59.1887603687
 31
0.0
  0
ARC
  5
6B
330
1F
100
AcDbEntity
  8
1
  6
SLD-Сплошная
100
AcDbCircle
 10
951.3062925134
 20
-27.2437603687
 30
0.0
 40
34.94500000000006
100
AcDbArc
 50
270.0104111827
 51
282.4186815058
  0
ARC
  5
6C
330
1F
100
AcDbEntity
  8
1
  6
SLD-Сплошная
100
AcDbCircle
 10
951.3062925134
 20
-27.2437603687
 30
0.0
 40
34.94500000000011
100
AcDbArc
 50
257.5813184942
 51
270.0104111827
  0
LINE
  5
6D
330
1F
100
AcDbEntity
  8
1
  6
SLD-Сплошная
100
AcDbLine
 10
372.4062925133
 20
1336.2112396313
 30
0.0
 11
370.9891352259
 21
1339.3112396313
 31
0.0
  0
LINE
  5
6E
330
1F
100
AcDbEntity
  8
1
  6
SLD-Сплошная
100
AcDbLine
 10
372.4062925133
 20
1336.2112396313
 30
0.0
 11
370.9891352259
 21
1337.9112396313
 31
0.0
  0
LINE
  5
6F
330
1F
100
AcDbEntity
  8
1
  6
SLD-Сплошная
100
AcDbLine
 10
370.9891352259
 20
1339.3112396313
 30
0.0
 11
370.9891352259
 21
1337.9112396313
 31
0.0
  0
LINE
  5
70
330
1F
100
AcDbEntity
  8
1
  6
SLD-Сплошная
100
AcDbLine
 10
369.3062925133
 20
1337.6283969189
 30
0.0
 11
372.4062925133
 21
1336.2112396313
 31
0.0
  0
LINE
  5
71
330
1F
100
AcDbEntity
  8
1
  6
SLD-Сплошная
100
AcDbLine
 10
369.3062925133
 20
1337.6283969189
 30
0.0
 11
370.7062925133
 21
1337.6283969189
 31
0.0
  0
LINE
  5
72
330
1F
100
AcDbEntity
  8
1
  6
SLD-Сплошная
100
AcDbLine
 10
370.7062925133
 20
1337.6283969189
 30
0.0
 11
372.4062925133
 21
1336.2112396313
 31
0.0
  0
LINE
  5
73
330
1F
100
AcDbEntity
  8
1
  6
SLD-Сплошная
100
AcDbLine
 10
370.9891352259
 20
1339.3112396313
 30
0.0
 11
962.6234498007
 21
1339.3112396313
 31
0.0
  0
LINE
  5
74
330
1F
100
AcDbEntity
  8
1
  6
SLD-Сплошная
100
AcDbLine
 10
961.2062925134
 20
1336.2112396314
 30
0.0
 11
962.6234498007
 21
1339.3112396313
 31
0.0
  0
LINE
  5
75
330
1F
100
AcDbEntity
  8
1
  6
SLD-Сплошная
100
AcDbLine
 10
369.3062925134
 20
-56.0059176564
 30
0.0
 11
372.4062925134
 21
-54.5887603688
 31
0.0
  0
LINE
  5
76
330
1F
100
AcDbEntity
  8
1
  6
SLD-Сплошная
100
AcDbLine
 10
369.3062925133
 20
1337.6283969189
 30
0.0
 11
369.3062925134
 21
-56.0059176564
 31
0.0
  0
LINE
  5
77
330
1F
100
AcDbEntity
  8
1
  6
SLD-Сплошная
100
AcDbLine
 10
370.989135226
 20
-57.6887603687
 30
0.0
 11
962.6234498008
 21
-57.6887603687
 31
0.0
  0
LINE
  5
78
330
1F
100
AcDbEntity
  8
1
  6
SLD-Сплошная
100
AcDbLine
 10
372.4062925134
 20
-54.5887603688
 30
0.0
 11
370.989135226
 21
-57.6887603687
 31
0.0
  0
LINE
  5
79
330
1F
100
AcDbEntity
  8
1
  6
SLD-Сплошная
100
AcDbLine
 10
961.2062925135
 20
-54.5887603688
 30
0.0
 11
962.6234498009
 21
-57.6887603687
 31
0.0
  0
LINE
  5
7A
330
1F
100
AcDbEntity
  8
1
  6
SLD-Сплошная
100
AcDbLine
 10
370.7062925134
 20
-56.0059176564
 30
0.0
 11
372.4062925135
 21
-54.5887603688
 31
0.0
  0
LINE
  5
7B
330
1F
100
AcDbEntity
  8
1
  6
SLD-Сплошная
100
AcDbLine
 10
369.3062925134
 20
-56.0059176564
 30
0.0
 11
370.7062925134
 21
-56.0059176564
 31
0.0
  0
LINE
  5
7C
330
1F
100
AcDbEntity
  8
1
  6
SLD-Сплошная
100
AcDbLine
 10
372.4062925134
 20
-54.5887603687
 30
0.0
 11
370.989135226
 21
-56.2887603687
 31
0.0
  0
LINE
  5
7D
330
1F
100
AcDbEntity
  8
1
  6
SLD-Сплошная
100
AcDbLine
 10
370.989135226
 20
-57.6887603687
 30
0.0
 11
370.989135226
 21
-56.2887603687
 31
0.0
  0
LINE
  5
7E
330
1F
100
AcDbEntity
  8
1
  6
SLD-Сплошная
100
AcDbLine
 10
961.2062925133
 20
1336.2112396313
 30
0.0
 11
962.6234498007
 21
1337.9112396313
 31
0.0
  0
LINE
  5
7F
330
1F
100
AcDbEntity
  8
1
  6
SLD-Сплошная
100
AcDbLine
 10
962.6234498007
 20
1339.3112396313
 30
0.0
 11
962.6234498007
 21
1337.9112396313
 31
0.0
  0
LINE
  5
80
330
1F
100
AcDbEntity
  8
1
  6
SLD-Сплошная
100
AcDbLine
 10
962.9062925134
 20
1337.628396919
 30
0.0
 11
961.2062925133
 21
1336.2112396313
 31
0.0
  0
LINE
  5
81
330
1F
100
AcDbEntity
  8
1
  6
SLD-Сплошная
100
AcDbLine
 10
964.3062925134
 20
1337.628396919
 30
0.0
 11
962.9062925134
 21
1337.628396919
 31
0.0
  0
LINE
  5
82
330
1F
100
AcDbEntity
  8
1
  6
SLD-Сплошная
100
AcDbLine
 10
964.3062925134
 20
1337.628396919
 30
0.0
 11
961.2062925134
 21
1336.2112396314
 31
0.0
  0
LINE
  5
83
330
1F
100
AcDbEntity
  8
1
  6
SLD-Сплошная
100
AcDbLine
 10
964.3062925134
 20
1337.628396919
 30
0.0
 11
964.3062925135
 21
-56.0059176564
 31
0.0
  0
LINE
  5
84
330
1F
100
AcDbEntity
  8
1
  6
SLD-Сплошная
100
AcDbLine
 10
964.3062925135
 20
-56.0059176564
 30
0.0
 11
961.2062925135
 21
-54.5887603688
 31
0.0
  0
LINE
  5
85
330
1F
100
AcDbEntity
  8
1
  6
SLD-Сплошная
100
AcDbLine
 10
964.3062925135
 20
-56.0059176564
 30
0.0
 11
962.9062925135
 21
-56.0059176564
 31
0.0
  0
LINE
  5
86
330
1F
100
AcDbEntity
  8
1
  6
SLD-Сплошная
100
AcDbLine
 10
962.9062925135
 20
-56.0059176564
 30
0.0
 11
961.2062925134
 21
-54.5887603687
 31
0.0
  0
LINE
  5
87
330
1F
100
AcDbEntity
  8
1
  6
SLD-Сплошная
100
AcDbLine
 10
961.2062925134
 20
-54.5887603687
 30
0.0
 11
962.6234498009
 21
-56.2887603687
 31
0.0
  0
LINE
  5
88
330
1F
100
AcDbEntity
  8
1
  6
SLD-Сплошная
100
AcDbLine
 10
962.6234498008
 20
-57.6887603687
 30
0.0
 11
962.6234498009
 21
-56.2887603687
 31
0.0
  0
LINE
  5
89
330
1F
100
AcDbEntity
  8
1
  6
SLD-Сплошная
100
AcDbLine
 10
369.4184245477
 20
-56.0059176564
 30
0.0
 11
368.7062925134
 21
-56.7180496906
 31
0.0
  0
LINE
  5
8A
330
1F
100
AcDbEntity
  8
1
  6
SLD-Сплошная
100
AcDbLine
 10
369.4184245477
 20
1337.6283969189
 30
0.0
 11
368.7062925134
 21
1338.3405289532
 31
0.0
  0
LINE
  5
8B
330
1F
100
AcDbEntity
  8
1
  6
SLD-Сплошная
100
AcDbLine
 10
963.9062925134
 20
-56.7180496907
 30
0.0
 11
963.1941604791
 21
-56.0059176564
 31
0.0
  0
LINE
  5
8C
330
1F
100
AcDbEntity
  8
1
  6
SLD-Сплошная
100
AcDbLine
 10
963.9062925134
 20
1338.3405289532
 30
0.0
 11
963.1941604792
 21
1337.628396919
 31
0.0
  0
LINE
  5
8D
330
1F
100
AcDbEntity
  8
1
  6
SLD-Сплошная
100
AcDbLine
 10
368.7770031916
 20
-56.7887603687
 30
0.0
 11
369.5598459039
 21
-56.0059176564
 31
0.0
  0
LINE
  5
8E
330
1F
100
AcDbEntity
  8
1
  6
SLD-Сплошная
100
AcDbLine
 10
963.052739123
 20
-56.0059176564
 30
0.0
 11
963.8355818354
 21
-56.7887603687
 31
0.0
  0
LINE
  5
8F
330
1F
100
AcDbEntity
  8
1
  6
SLD-Сплошная
100
AcDbLine
 10
368.7770031916
 20
1338.4112396313
 30
0.0
 11
369.5598459039
 21
1337.6283969189
 31
0.0
  0
LINE
  5
90
330
1F
100
AcDbEntity
  8
1
  6
SLD-Сплошная
100
AcDbLine
 10
963.0527391231
 20
1337.628396919
 30
0.0
 11
963.8355818354
 21
1338.4112396313
 31
0.0
  0
ELLIPSE
  5
91
330
1F
100
AcDbEntity
  8
1
  6
SLD-Сплошная
100
AcDbEllipse
 10
963.9062925134
 20
1338.4112396313
 30
0.0
 11
0.0
 21
1.0
 31
0.0
210
0.0
220
0.0
230
1.0
 40
0.070710678
 41
0.0
 42
1.570796326794897
  0
ELLIPSE
  5
92
330
1F
100
AcDbEntity
  8
1
  6
SLD-Сплошная
100
AcDbEllipse
 10
963.9062925134
 20
1338.4112396313
 30
0.0
 11
0.0
 21
2.399999999999864
 31
0.0
210
0.0
220
0.0
230
1.0
 40
0.0294627825
 41
0.0
 42
1.570796326794802
  0
LINE
  5
93
330
1F
100
AcDbEntity
  8
1
  6
SLD-Сплошная
100
AcDbLine
 10
963.9062925134
 20
1339.4112396313
 30
0.0
 11
963.9062925134
 21
1340.8112396313
 31
0.0
  0
ELLIPSE
  5
94
330
1F
100
AcDbEntity
  8
1
  6
SLD-Сплошная
100
AcDbEllipse
 10
368.7062925134
 20
1338.4112396313
 30
0.0
 11
0.0
 21
1.0
 31
0.0
210
0.0
220
0.0
230
1.0
 40
0.0707106781
 41
4.712388980384691
 42
6.283185307179586
  0
LINE
  5
95
330
1F
100
AcDbEntity
  8
1
  6
SLD-Сплошная
100
AcDbLine
 10
368.7062925134
 20
1340.8112396313
 30
0.0
 11
368.7062925134
 21
1339.4112396313
 31
0.0
  0
ELLIPSE
  5
96
330
1F
100
AcDbEntity
  8
1
  6
SLD-Сплошная
100
AcDbEllipse
 10
368.7062925134
 20
1338.4112396313
 30
0.0
 11
0.0
 21
2.399999999999864
 31
0.0
210
0.0
220
0.0
230
1.0
 40
0.0294627826
 41
4.712388980384785
 42
6.283185307179586
  0
ELLIPSE
  5
97
330
1F
100
AcDbEntity
  8
1
  6
SLD-Сплошная
100
AcDbEllipse
 10
963.9062925134
 20
-56.7887603687
 30
0.0
 11
0.0
 21
2.399999999999956
 31
0.0
210
0.0
220
0.0
230
1.0
 40
0.0294627825
 41
1.570796326794941
 42
3.141592653643328
  0
ELLIPSE
  5
98
330
1F
100
AcDbEntity
  8
1
  6
SLD-Сплошная
100
AcDbEllipse
 10
963.9062925134
 20
-56.7887603687
 30
0.0
 11
0.0
 21
1.0
 31
0.0
210
0.0
220
0.0
230
1.0
 40
0.070710678
 41
1.570796326794897
 42
3.141592653641441
  0
LINE
  5
99
330
1F
100
AcDbEntity
  8
1
  6
SLD-Сплошная
100
AcDbLine
 10
963.9062925134
 20
-57.7887603687
 30
0.0
 11
963.9062925134
 21
-59.1887603687
 31
0.0
  0
LINE
  5
9A
330
1F
100
AcDbEntity
  8
1
  6
SLD-Сплошная
100
AcDbLine
 10
368.7062925134
 20
1340.8112396313
 30
0.0
 11
963.9062925134
 21
1340.8112396313
 31
0.0
  0
ELLIPSE
  5
9B
330
1F
100
AcDbEntity
  8
1
  6
SLD-Сплошная
100
AcDbEllipse
 10
368.7062925134
 20
1338.4112396313
 30
0.0
 11
2.399999999999977
 21
0.0
 31
0.0
210
0.0
220
0.0
230
1.0
 40
0.0294627825
 41
3.141592653586578
 42
4.712388980384643
  0
ELLIPSE
  5
9C
330
1F
100
AcDbEntity
  8
1
  6
SLD-Сплошная
100
AcDbEllipse
 10
368.7062925134
 20
-56.7887603687
 30
0.0
 11
2.399999999999977
 21
0.0
 31
0.0
210
0.0
220
0.0
230
1.0
 40
0.0294627825
 41
1.570796326794944
 42
3.141592653591779
  0
LINE
  5
9D
330
1F
100
AcDbEntity
  8
1
  6
SLD-Сплошная
100
AcDbLine
 10
366.3062925134
 20
-56.7887603687
 30
0.0
 11
366.3062925134
 21
1338.4112396313
 31
0.0
  0
ELLIPSE
  5
9E
330
1F
100
AcDbEntity
  8
1
  6
SLD-Сплошная
100
AcDbEllipse
 10
963.9062925134
 20
-56.7887603687
 30
0.0
 11
2.399999999999977
 21
0.0
 31
0.0
210
0.0
220
0.0
230
1.0
 40
0.0294627825
 41
0.0
 42
1.570796326794802
  0
LINE
  5
9F
330
1F
100
AcDbEntity
  8
1
  6
SLD-Сплошная
100
AcDbLine
 10
966.3062925134
 20
-56.7887603687
 30
0.0
 11
964.9062925134
 21
-56.7887603687
 31
0.0
  0
ELLIPSE
  5
A0
330
1F
100
AcDbEntity
  8
1
  6
SLD-Сплошная
100
AcDbEllipse
 10
963.9062925134
 20
-56.7887603687
 30
0.0
 11
1.000000000000114
 21
0.0
 31
0.0
210
0.0
220
0.0
230
1.0
 40
0.070710678
 41
0.0
 42
1.570796326794783
  0
LINE
  5
A1
330
1F
100
AcDbEntity
  8
1
  6
SLD-Сплошная
100
AcDbLine
 10
370.2062925134
 20
-59.1887603687
 30
0.0
 11
963.9062925134
 21
-59.1887603687
 31
0.0
  0
LINE
  5
A2
330
1F
100
AcDbEntity
  8
1
  6
SLD-Сплошная
100
AcDbLine
 10
368.7062925134
 20
-59.1887603687
 30
0.0
 11
370.2062925134
 21
-59.1887603687
 31
0.0
  0
ELLIPSE
  5
A3
330
1F
100
AcDbEntity
  8
1
  6
SLD-Сплошная
100
AcDbEllipse
 10
368.7062925134
 20
-56.7887603687
 30
0.0
 11
0.0
 21
2.399999999999956
 31
0.0
210
0.0
220
0.0
230
1.0
 40
0.0294627826
 41
3.141592653643328
 42
4.712388980384551
  0
ELLIPSE
  5
A4
330
1F
100
AcDbEntity
  8
1
  6
SLD-Сплошная
100
AcDbEllipse
 10
368.7062925134
 20
-56.7887603687
 30
0.0
 11
1.0
 21
0.0
 31
0.0
210
0.0
220
0.0
230
1.0
 40
0.0707106781
 41
1.570796326794953
 42
3.141592653589791
  0
LINE
  5
A5
330
1F
100
AcDbEntity
  8
1
  6
SLD-Сплошная
100
AcDbLine
 10
367.7062925134
 20
-56.7887603687
 30
0.0
 11
366.3062925134
 21
-56.7887603687
 31
0.0
  0
LINE
  5
A6
330
1F
100
AcDbEntity
  8
1
  6
SLD-Сплошная
100
AcDbLine
 10
368.7062925134
 20
-59.1887603687
 30
0.0
 11
368.7062925134
 21
-58.6622597683
 31
0.0
  0
LINE
  5
A7
330
1F
100
AcDbEntity
  8
1
  6
SLD-Сплошная
100
AcDbLine
 10
368.7062925134
 20
-58.6622597683
 30
0.0
 11
368.7062925134
 21
-57.7887603687
 31
0.0
  0
ELLIPSE
  5
A8
330
1F
100
AcDbEntity
  8
1
  6
SLD-Сплошная
100
AcDbEllipse
 10
368.7062925134
 20
-56.7887603687
 30
0.0
 11
0.0
 21
1.0
 31
0.0
210
0.0
220
0.0
230
1.0
 40
0.0707106781
 41
3.141592653646264
 42
4.712388980384691
  0
ELLIPSE
  5
A9
330
1F
100
AcDbEntity
  8
1
  6
SLD-Сплошная
100
AcDbEllipse
 10
963.9062925134
 20
1338.4112396313
 30
0.0
 11
1.000000000000114
 21
0.0
 31
0.0
210
0.0
220
0.0
230
1.0
 40
0.070710678
 41
4.712388980384804
 42
6.283185307179586
  0
LINE
  5
AA
330
1F
100
AcDbEntity
  8
1
  6
SLD-Сплошная
100
AcDbLine
 10
966.3062925134
 20
1338.4112396313
 30
0.0
 11
964.9062925134
 21
1338.4112396313
 31
0.0
  0
ELLIPSE
  5
AB
330
1F
100
AcDbEntity
  8
1
  6
SLD-Сплошная
100
AcDbEllipse
 10
963.9062925134
 20
1338.4112396313
 30
0.0
 11
2.399999999999977
 21
0.0
 31
0.0
210
0.0
220
0.0
230
1.0
 40
0.0294627825
 41
4.712388980384785
 42
6.283185307179586
  0
LINE
  5
AC
330
1F
100
AcDbEntity
  8
1
  6
SLD-Сплошная
100
AcDbLine
 10
966.3062925134
 20
1338.4112396313
 30
0.0
 11
966.3062925134
 21
-56.7887603687
 31
0.0
  0
ELLIPSE
  5
AD
330
1F
100
AcDbEntity
  8
1
  6
SLD-Сплошная
100
AcDbEllipse
 10
368.7062925134
 20
1338.4112396313
 30
0.0
 11
1.0
 21
0.0
 31
0.0
210
0.0
220
0.0
230
1.0
 40
0.0707106781
 41
3.141592653589791
 42
4.712388980384634
  0
LINE
  5
AE
330
1F
100
AcDbEntity
  8
1
  6
SLD-Сплошная
100
AcDbLine
 10
367.7062925134
 20
1338.4112396313
 30
0.0
 11
366.3062925134
 21
1338.4112396313
 31
0.0
  0
LINE
  5
AF
330
1F
100
AcDbEntity
  8
1
  6
SLD-Сплошная
100
AcDbLine
 10
369.2062925134
 20
-56.3594710469
 30
0.0
 11
369.2062925134
 21
-56.2180496906
 31
0.0
  0
LINE
  5
B0
330
1F
100
AcDbEntity
  8
1
  6
SLD-Сплошная
100
AcDbLine
 10
367.8062925134
 20
-56.7887603687
 30
0.0
 11
367.8062925134
 21
-56.7579382987
 31
0.0
  0
ARC
  5
B1
330
1F
100
AcDbEntity
  8
1
  6
SLD-Сплошная
100
AcDbCircle
 10
370.2062925134
 20
-56.7887603687
 30
0.0
 40
2.40000000000008
100
AcDbArc
 50
180.0000000001
 51
231.3178125465
  0
ARC
  5
B2
330
1F
100
AcDbEntity
  8
1
  6
SLD-Сплошная
100
AcDbCircle
 10
368.7062925134
 20
1338.4112396313
 30
0.0
 40
1.000000000007958
100
AcDbArc
 50
90.0
 51
180.0
  0
ARC
  5
B3
330
1F
100
AcDbEntity
  8
1
  6
SLD-Сплошная
100
AcDbCircle
 10
368.7062925134
 20
1338.4112396313
 30
0.0
 40
2.400000000007822
100
AcDbArc
 50
90.0
 51
180.0
  0
ARC
  5
B4
330
1F
100
AcDbEntity
  8
1
  6
SLD-Сплошная
100
AcDbCircle
 10
963.9062925134
 20
1338.4112396313
 30
0.0
 40
2.399999999999864
100
AcDbArc
 50
0.0
 51
90.0
  0
ARC
  5
B5
330
1F
100
AcDbEntity
  8
1
  6
SLD-Сплошная
100
AcDbCircle
 10
963.9062925134
 20
1338.4112396313
 30
0.0
 40
1.0
100
AcDbArc
 50
0.0
 51
90.0
  0
ARC
  5
B6
330
1F
100
AcDbEntity
  8
1
  6
SLD-Сплошная
100
AcDbCircle
 10
963.9062925134
 20
-56.7887603687
 30
0.0
 40
1.0
100
AcDbArc
 50
270.0
 51
0.0
  0
ARC
  5
B7
330
1F
100
AcDbEntity
  8
1
  6
SLD-Сплошная
100
AcDbCircle
 10
963.9062925134
 20
-56.7887603687
 30
0.0
 40
2.399999999999956
100
AcDbArc
 50
270.0
 51
0.0
  0
LINE
  5
B8
330
1F
100
AcDbEntity
  8
1
  6
SLD-Сплошная
100
AcDbLine
 10
368.7062925134
 20
1339.4112396313
 30
0.0
 11
368.7062925134
 21
1338.4819503094
 31
0.0
  0
LINE
  5
B9
330
1F
100
AcDbEntity
  8
1
  6
SLD-Сплошная
100
AcDbLine
 10
963.9062925134
 20
1338.4819503093
 30
0.0
 11
963.9062925134
 21
1339.4112396313
 31
0.0
  0
LINE
  5
BA
330
1F
100
AcDbEntity
  8
1
  6
SLD-Сплошная
100
AcDbLine
 10
367.8062925134
 20
-56.7887603687
 30
0.0
 11
367.7062925134
 21
-56.7887603687
 31
0.0
  0
LINE
  5
BB
330
1F
100
AcDbEntity
  8
1
  6
SLD-Сплошная
100
AcDbLine
 10
368.6355818353
 20
1338.4112396313
 30
0.0
 11
367.7062925134
 21
1338.4112396313
 31
0.0
  0
LINE
  5
BC
330
1F
100
AcDbEntity
  8
1
  6
SLD-Сплошная
100
AcDbLine
 10
963.9062925134
 20
-56.8594710468
 30
0.0
 11
963.9062925134
 21
-57.7887603687
 31
0.0
  0
LINE
  5
BD
330
1F
100
AcDbEntity
  8
1
  6
SLD-Сплошная
100
AcDbLine
 10
964.9062925134
 20
1338.4112396313
 30
0.0
 11
963.9770031915
 21
1338.4112396313
 31
0.0
  0
LINE
  5
BE
330
1F
100
AcDbEntity
  8
1
  6
SLD-Сплошная
100
AcDbLine
 10
964.9062925134
 20
-56.7887603687
 30
0.0
 11
963.9770031915
 21
-56.7887603687
 31
0.0
  0
LINE
  5
BF
330
1F
100
AcDbEntity
  8
1
  6
SLD-Сплошная
100
AcDbLine
 10
863.3062925134
 20
-59.6887603687
 30
0.0
 11
469.3062925134
 21
-59.6887603687
 31
0.0
  0
LINE
  5
C0
330
1F
100
AcDbEntity
  8
1
  6
SLD-Сплошная
100
AcDbLine
 10
873.7979664014
 20
-59.6887603687
 30
0.0
 11
863.3062925134
 21
-59.6887603687
 31
0.0
  0
ARC
  5
C1
330
1F
100
AcDbEntity
  8
1
  6
SLD-Сплошная
100
AcDbCircle
 10
873.7979664014
 20
-57.2887603687
 30
0.0
 40
2.399999999999974
100
AcDbArc
 50
270.0
 51
307.6584620065
  0
LINE
  5
C2
330
1F
100
AcDbEntity
  8
1
  6
SLD-Сплошная
100
AcDbLine
 10
469.3062925134
 20
-59.6887603687
 30
0.0
 11
458.8146186255
 21
-59.6887603687
 31
0.0
  0
ARC
  5
C3
330
1F
100
AcDbEntity
  8
1
  6
SLD-Сплошная
100
AcDbCircle
 10
458.8146186255
 20
-57.2887603687
 30
0.0
 40
2.400000000000029
100
AcDbArc
 50
232.3415379935
 51
270.0
  0
CIRCLE
  5
C4
330
1F
100
AcDbEntity
  8
1
  6
SLD-Сплошная
100
AcDbCircle
 10
424.3062925133
 20
640.8112396313
 30
0.0
 40
14.0
  0
CIRCLE
  5
C5
330
1F
100
AcDbEntity
  8
1
  6
SLD-Сплошная
100
AcDbCircle
 10
424.3062925133
 20
640.8112396313
 30
0.0
 40
11.0
  0
CIRCLE
  5
C6
330
1F
100
AcDbEntity
  8
1
  6
SLD-Сплошная
100
AcDbCircle
 10
424.3062925133
 20
640.8112396313
 30
0.0
 40
8.0
  0
LINE
  5
C7
330
1F
100
AcDbEntity
  8
1
  6
SLD-Сплошная
100
AcDbLine
 10
420.0327898214
 20
639.9452142275
 30
0.0
 11
425.6930438593
 21
636.677265035
 31
0.0
  0
ARC
  5
C8
330
1F
100
AcDbEntity
  8
1
  6
SLD-Сплошная
100
AcDbCircle
 10
420.5327898214
 20
640.8112396313
 30
0.0
 40
1.00000000000011
100
AcDbArc
 50
120.0
 51
240.0
  0
LINE
  5
C9
330
1F
100
AcDbEntity
  8
1
  6
SLD-Сплошная
100
AcDbLine
 10
425.6930438593
 20
644.9452142275
 30
0.0
 11
420.0327898214
 21
641.677265035
 31
0.0
  0
ARC
  5
CA
330
1F
100
AcDbEntity
  8
1
  6
SLD-Сплошная
100
AcDbCircle
 10
426.1930438593
 20
644.0791888237
 30
0.0
 40
1.00000000000004
100
AcDbArc
 50
0.0
 51
120.0
  0
LINE
  5
CB
330
1F
100
AcDbEntity
  8
1
  6
SLD-Сплошная
100
AcDbLine
 10
427.1930438593
 20
637.5432904388
 30
0.0
 11
427.1930438593
 21
644.0791888237
 31
0.0
  0
ARC
  5
CC
330
1F
100
AcDbEntity
  8
1
  6
SLD-Сплошная
100
AcDbCircle
 10
426.1930438593
 20
637.5432904388
 30
0.0
 40
1.000000000000054
100
AcDbArc
 50
240.0
 51
0.0
  0
LINE
  5
CD
330
1F
100
AcDbEntity
  8
1
  6
SLD-Сплошная
100
AcDbLine
 10
1620.5795306228
 20
1476.9196762487
 30
0.0
 11
1620.5795306228
 21
2614.8847275565
 31
0.0
  0
LINE
  5
CE
330
1F
100
AcDbEntity
  8
1
  6
SLD-Сплошная
100
AcDbLine
 10
1619.6923195943
 20
2616.4213540984
 30
0.0
 11
1201.3386986729
 21
2857.9317587628
 31
0.0
  0
LINE
  5
CF
330
1F
100
AcDbEntity
  8
1
  6
SLD-Сплошная
100
AcDbLine
 10
1188.3006386829
 20
2849.6684591575
 30
0.0
 11
1188.300638683
 21
1712.3870170576
 31
0.0
  0
LINE
  5
D0
330
1F
100
AcDbEntity
  8
1
  6
SLD-Сплошная
100
AcDbLine
 10
1189.1421284241
 20
1710.9295930329
 30
0.0
 11
1606.9038736335
 21
1469.7608709442
 31
0.0
  0
LINE
  5
D1
330
1F
100
AcDbEntity
  8
1
  6
SLD-Сплошная
100
AcDbLine
 10
1890.9422395081
 20
1631.0743095327
 30
0.0
 11
1890.942239508
 21
2770.3120502757
 31
0.0
  0
LINE
  5
D2
330
1F
100
AcDbEntity
  8
1
  6
SLD-Сплошная
100
AcDbLine
 10
1889.845675061
 20
2772.2112195427
 30
0.0
 11
1468.9757188987
 21
3015.1742736211
 31
0.0
  0
LINE
  5
D3
330
1F
100
AcDbEntity
  8
1
  6
SLD-Сплошная
100
AcDbLine
 10
1204.9105412598
 20
2862.8110827102
 30
0.0
 11
1204.9105412598
 21
2855.8697779279
 31
0.0
  0
LINE
  5
D4
330
1F
100
AcDbEntity
  8
1
  6
SLD-Сплошная
100
AcDbLine
 10
1466.3259342572
 20
3015.1495195959
 30
0.0
 11
1206.1106387806
 21
2864.9304270205
 31
0.0
  0
LINE
  5
D5
330
1F
100
AcDbEntity
  8
1
  6
SLD-Сплошная
100
AcDbLine
 10
1629.3803999011
 20
1478.5725976596
 30
0.0
 11
1889.5956953778
 21
1628.791690235
 31
0.0
  0
LINE
  5
D6
330
1F
100
AcDbEntity
  8
1
  6
SLD-Сплошная
100
AcDbLine
 10
1620.5795306228
 20
1482.2678534358
 30
0.0
 11
1626.945242477
 21
1478.5930062037
 31
0.0
  0
LINE
  5
D7
330
1F
100
AcDbEntity
  8
1
  6
SLD-Сплошная
100
AcDbLine
 10
1215.3008478871
 20
2263.8831677593
 30
0.0
 11
1215.3008478871
 21
2261.4339434238
 31
0.0
  0
LINE
  5
D8
330
1F
100
AcDbEntity
  8
1
  6
SLD-Сплошная
100
AcDbLine
 10
1223.077758308
 20
2247.9624797877
 30
0.0
 11
1225.1987338774
 21
2246.7376685861
 31
0.0
  0
LINE
  5
D9
330
1F
100
AcDbEntity
  8
1
  6
SLD-Сплошная
100
AcDbLine
 10
1218.9080184764
 20
2270.7011991058
 30
0.0
 11
1218.2009116952
 21
2270.2929950499
 31
0.0
  0
LINE
  5
DA
330
1F
100
AcDbEntity
  8
1
  6
SLD-Сплошная
100
AcDbLine
 10
1232.1997739521
 20
2246.0436269032
 30
0.0
 11
1232.9068807333
 21
2246.4518309591
 31
0.0
  0
LINE
  5
DB
330
1F
100
AcDbEntity
  8
1
  6
SLD-Сплошная
100
AcDbLine
 10
1227.0344368611
 20
2253.8636686755
 30
0.0
 11
1228.6582832881
 21
2254.801095264
 31
0.0
  0
LINE
  5
DC
330
1F
100
AcDbEntity
  8
1
  6
SLD-Сплошная
100
AcDbLine
 10
1223.72917039
 20
2261.5544086769
 30
0.0
 11
1222.0321141151
 21
2260.5747189428
 31
0.0
  0
LINE
  5
DD
330
1F
100
AcDbEntity
  8
1
  6
SLD-Сплошная
100
AcDbLine
 10
1623.5235619051
 20
1527.2582863482
 30
0.0
 11
1624.9377754675
 21
1528.0746944601
 31
0.0
  0
LINE
  5
DE
330
1F
100
AcDbEntity
  8
1
  6
SLD-Сплошная
100
AcDbLine
 10
1621.2879223516
 20
2048.0006175687
 30
0.0
 11
1621.5707650641
 21
2048.1638991911
 31
0.0
  0
LINE
  5
DF
330
1F
100
AcDbEntity
  8
1
  6
SLD-Сплошная
100
AcDbLine
 10
1622.5236431725
 20
2050.2699853008
 30
0.0
 11
1622.5236431725
 21
2050.351626112
 31
0.0
  0
LINE
  5
E0
330
1F
100
AcDbEntity
  8
1
  6
SLD-Сплошная
100
AcDbLine
 10
1621.2879223516
 20
2546.0905128191
 30
0.0
 11
1621.5707650641
 21
2546.2537944414
 31
0.0
  0
LINE
  5
E1
330
1F
100
AcDbEntity
  8
1
  6
SLD-Сплошная
100
AcDbLine
 10
1622.5236431725
 20
2548.3598805512
 30
0.0
 11
1622.5236431725
 21
2548.4415213624
 31
0.0
  0
LINE
  5
E2
330
1F
100
AcDbEntity
  8
1
  6
SLD-Сплошная
100
AcDbLine
 10
1620.934368961
 20
1549.7066202905
 30
0.0
 11
1621.2172116735
 21
1549.8699019128
 31
0.0
  0
LINE
  5
E3
330
1F
100
AcDbEntity
  8
1
  6
SLD-Сплошная
100
AcDbLine
 10
1622.1700897819
 20
1551.9759880226
 30
0.0
 11
1622.1700897819
 21
1553.2993347975
 31
0.0
  0
LINE
  5
E4
330
1F
100
AcDbEntity
  8
1
  6
SLD-Сплошная
100
AcDbLine
 10
1622.1700897819
 20
1552.8447921842
 30
0.0
 11
1622.2250897545
 21
1552.8765429926
 31
0.0
  0
LINE
  5
E5
330
1F
100
AcDbEntity
  8
1
  6
SLD-Сплошная
100
AcDbLine
 10
1623.8771152957
 20
2025.5522836265
 30
0.0
 11
1624.9377754675
 21
2026.1645897104
 31
0.0
  0
LINE
  5
E6
330
1F
100
AcDbEntity
  8
1
  6
SLD-Сплошная
100
AcDbLine
 10
1623.8771152957
 20
2523.6421788769
 30
0.0
 11
1624.9377754675
 21
2524.2544849607
 31
0.0
  0
ELLIPSE
  5
E7
330
1F
100
AcDbEntity
  8
1
  6
SLD-Сплошная
100
AcDbEllipse
 10
1607.7451114456
 20
2608.4996705724
 30
0.0
 11
1.698791117368046
 21
0.8238102185364369
 31
0.0
210
0.0
220
0.0
230
1.0
 40
0.0778085159
 41
3.889276317886532
 42
5.460072644570205
  0
ELLIPSE
  5
E8
330
1F
100
AcDbEntity
  8
1
  6
SLD-Сплошная
100
AcDbEllipse
 10
1607.7451114456
 20
2608.4996705724
 30
0.0
 11
3.088985166008797
 21
0.8971444342078032
 31
0.0
210
0.0
220
0.0
230
1.0
 40
0.2910290434
 41
3.842666699163221
 42
5.413463025957762
  0
LINE
  5
E9
330
1F
100
AcDbEntity
  8
1
  6
SLD-Сплошная
100
AcDbLine
 10
1605.553080424
 20
2607.2342379991
 30
0.0
 11
1606.5430299176
 21
2607.8057236773
 31
0.0
  0
ELLIPSE
  5
EA
330
1F
100
AcDbEntity
  8
1
  6
SLD-Сплошная
100
AcDbEllipse
 10
1607.7451114457
 20
1472.8547094015
 30
0.0
 11
2.800161842832722
 21
-1.858004074990959
 31
0.0
210
0.0
220
0.0
230
1.0
 40
0.7158610781
 41
4.370437966003992
 42
5.941234292798866
  0
ELLIPSE
  5
EB
330
1F
100
AcDbEntity
  8
1
  6
SLD-Сплошная
100
AcDbEllipse
 10
1607.7451114456
 20
2608.4996705724
 30
0.0
 11
1.562801634021071
 21
1.059350639207423
 31
0.0
210
0.0
220
0.0
230
0.9999999999999998
 40
0.0779476132
 41
0.8230997739134213
 42
2.393896100683354
  0
ELLIPSE
  5
EC
330
1F
100
AcDbEntity
  8
1
  6
SLD-Сплошная
100
AcDbEllipse
 10
1607.7451114456
 20
2608.4996705724
 30
0.0
 11
2.321397040545435
 21
2.226629144113303
 31
0.0
210
0.0
220
0.0
230
1.0
 40
0.2911542338
 41
0.8696844210151758
 42
2.440480747783713
  0
ELLIPSE
  5
ED
330
1F
100
AcDbEntity
  8
1
  6
SLD-Сплошная
100
AcDbEllipse
 10
1191.400638683
 20
2848.8502186929
 30
0.0
 11
-0.2093886632487738
 21
3.354026486427756
 31
0.0
210
0.0
220
0.0
230
0.9999999999999999
 40
0.7158884623
 41
0.3417969454014841
 42
1.912593272170603
  0
LINE
  5
EE
330
1F
100
AcDbEntity
  8
1
  6
SLD-Сплошная
100
AcDbLine
 10
1620.1548354556
 20
1476.330658674
 30
0.0
 11
1609.9371424674
 21
1470.4321100661
 31
0.0
  0
LINE
  5
EF
330
1F
100
AcDbEntity
  8
1
  6
SLD-Сплошная
100
AcDbLine
 10
1620.1548354555
 20
2614.2899533691
 30
0.0
 11
1609.9371424673
 21
2608.3914047612
 31
0.0
  0
LINE
  5
F0
330
1F
100
AcDbEntity
  8
1
  6
SLD-Сплошная
100
AcDbLine
 10
1619.1648859618
 20
2614.8614390474
 30
0.0
 11
1608.9471929737
 21
2608.9628904394
 31
0.0
  0
LINE
  5
F1
330
1F
100
AcDbEntity
  8
1
  6
SLD-Сплошная
100
AcDbLine
 10
1620.1548354555
 20
2614.2899533691
 30
0.0
 11
1619.1648859618
 21
2614.8614390474
 31
0.0
  0
LINE
  5
F2
330
1F
100
AcDbEntity
  8
1
  6
SLD-Сплошная
100
AcDbLine
 10
1608.7471929736
 20
2609.3093006
 30
0.0
 11
1618.9648859617
 21
2615.2078492079
 31
0.0
  0
LINE
  5
F3
330
1F
100
AcDbEntity
  8
1
  6
SLD-Сплошная
100
AcDbLine
 10
1608.7471929736
 20
2610.4524577366
 30
0.0
 11
1618.9648859617
 21
2616.3510063445
 31
0.0
  0
LINE
  5
F4
330
1F
100
AcDbEntity
  8
1
  6
SLD-Сплошная
100
AcDbLine
 10
1618.9648859617
 20
2616.3510063445
 30
0.0
 11
1618.9648859617
 21
2615.2078492079
 31
0.0
  0
LINE
  5
F5
330
1F
100
AcDbEntity
  8
1
  6
SLD-Сплошная
100
AcDbLine
 10
1190.398557155
 20
2851.9599845624
 30
0.0
 11
1200.6162501432
 21
2857.8585331703
 31
0.0
  0
LINE
  5
F6
330
1F
100
AcDbEntity
  8
1
  6
SLD-Сплошная
100
AcDbLine
 10
1608.6964532313
 20
2609.2798101201
 30
0.0
 11
1608.7472791601
 21
2609.3091513043
 31
0.0
  0
SPLINE
  5
F7
330
1F
100
AcDbEntity
  8
1
  6
SLD-Сплошная
100
AcDbSpline
210
0.0
220
0.0
230
1.0
 70
     8
 71
     3
 72
     9
 73
     5
 74
     0
 42
0.00000001
 43
0.00000001
 40
0.0
 40
0.0
 40
0.0
 40
0.0
 40
0.5000000000000068
 40
1.0
 40
1.0
 40
1.0
 40
1.0
 10
1620.154835455567
 20
1476.33065867403
 30
0.0
 10
1620.276604436338
 20
1476.42051833993
 30
0.0
 10
1620.520142397881
 20
1476.600237671728
 30
0.0
 10
1620.559734547858
 20
1476.828724607513
 30
0.0
 10
1620.579530622846
 20
1476.942968075405
 30
0.0
  0
SPLINE
  5
F8
330
1F
100
AcDbEntity
  8
1
  6
SLD-Сплошная
100
AcDbSpline
210
0.0
220
0.0
230
1.0
 70
     8
 71
     3
 72
    11
 73
     7
 74
     0
 42
0.00000001
 43
0.00000001
 40
0.0
 40
0.0
 40
0.0
 40
0.0
 40
0.2500000000000067
 40
0.500000000000007
 40
0.7500000000000058
 40
1.0
 40
1.0
 40
1.0
 40
1.0
 10
1620.154835455472
 20
2615.432918090632
 30
0.0
 10
1620.27377642553
 20
2615.349862931499
 30
0.0
 10
1620.511658365645
 20
2615.183752613234
 30
0.0
 10
1620.613466751304
 20
2614.861435729857
 30
0.0
 10
1620.511658365645
 20
2614.539118846482
 30
0.0
 10
1620.273776425529
 20
2614.373008528216
 30
0.0
 10
1620.154835455472
 20
2614.289953369083
 30
0.0
  0
SPLINE
  5
F9
330
1F
100
AcDbEntity
  8
1
  6
SLD-Сплошная
100
AcDbSpline
210
0.0
220
0.0
230
1.0
 70
     8
 71
     3
 72
    12
 73
     8
 74
     0
 42
0.00000001
 43
0.00000001
 40
0.0
 40
0.0
 40
0.0
 40
0.0
 40
0.0834659538558578
 40
0.1770920931638604
 40
0.3986532115981097
 40
0.671859355744966
 40
1.0
 40
1.0
 40
1.0
 40
1.0
 10
1618.104225790031
 20
2614.248933913397
 30
0.0
 10
1618.159404613462
 20
2614.28950736944
 30
0.0
 10
1618.276479095791
 20
2614.375593227513
 30
0.0
 10
1618.57039934369
 20
2614.581500021324
 30
0.0
 10
1619.029541385574
 20
2614.868667260551
 30
0.0
 10
1619.652493816049
 20
2615.192143347767
 30
0.0
 10
1619.977491789055
 20
2615.34791642577
 30
0.0
 10
1620.154835455472
 20
2615.432918090632
 30
0.0
  0
SPLINE
  5
FA
330
1F
100
AcDbEntity
  8
1
  6
SLD-Сплошная
100
AcDbSpline
210
0.0
220
0.0
230
1.0
 70
     8
 71
     3
 72
    11
 73
     7
 74
     0
 42
0.00000001
 43
0.00000001
 40
0.0
 40
0.0
 40
0.0
 40
0.0
 40
0.2499999999992446
 40
0.4999999999987357
 40
0.7500000000006195
 40
0.9999999999999999
 40
0.9999999999999999
 40
0.9999999999999999
 40
0.9999999999999999
 10
1619.16488596181
 20
2614.861432412356
 30
0.0
 10
1619.168987374571
 20
2614.861853375652
 30
0.0
 10
1619.177190200092
 20
2614.862695302244
 30
0.0
 10
1619.180700834081
 20
2614.861435729857
 30
0.0
 10
1619.177190200092
 20
2614.860176157471
 30
0.0
 10
1619.168987374571
 20
2614.861018084063
 30
0.0
 10
1619.16488596181
 20
2614.861439047359
 30
0.0
  0
LINE
  5
FB
330
1F
100
AcDbEntity
  8
1
  6
SLD-Сплошная
100
AcDbLine
 10
1619.1648859618
 20
2614.8614324124
 30
0.0
 11
1619.8766517324
 21
2615.2723260456
 31
0.0
  0
SPLINE
  5
FC
330
1F
100
AcDbEntity
  8
1
  6
SLD-Сплошная
100
AcDbSpline
210
0.0
220
0.0
230
1.0
 70
     8
 71
     3
 72
    13
 73
     9
 74
     0
 42
0.00000001
 43
0.00000001
 40
0.0
 40
0.0
 40
0.0
 40
0.0
 40
0.1499458902011886
 40
0.3995771627309673
 40
0.5318844302123806
 40
0.6751152684828944
 40
0.8307676058594616
 40
1.0
 40
1.0
 40
1.0
 40
1.0
 10
1619.680818592466
 20
2615.62001876658
 30
0.0
 10
1619.616001621037
 20
2615.582311695749
 30
0.0
 10
1619.443276770053
 20
2615.481829552778
 30
0.0
 10
1619.130330692028
 20
2615.300468011624
 30
0.0
 10
1618.812169964592
 20
2615.092145873839
 30
0.0
 10
1618.537627602117
 20
2614.911697580653
 30
0.0
 10
1618.228983384132
 20
2614.728201793942
 30
0.0
 10
1618.015453477318
 20
2614.640847111304
 30
0.0
 10
1617.904225789941
 20
2614.595344073924
 30
0.0
  0
SPLINE
  5
FD
330
1F
100
AcDbEntity
  8
1
  6
SLD-Сплошная
100
AcDbSpline
210
0.0
220
0.0
230
1.0
 70
     8
 71
     3
 72
    11
 73
     7
 74
     0
 42
0.00000001
 43
0.00000001
 40
0.0
 40
0.0
 40
0.0
 40
0.0
 40
0.2499999999999958
 40
0.4999999999999985
 40
0.7500000000000036
 40
1.0
 40
1.0
 40
1.0
 40
1.0
 10
1618.96488596172
 20
2616.351006344526
 30
0.0
 10
1619.096292597745
 20
2616.412470336917
 30
0.0
 10
1619.359105869795
 20
2616.535398321697
 30
0.0
 10
1619.689176356467
 20
2616.462353649838
 30
0.0
 10
1619.91743845748
 20
2616.212971681898
 30
0.0
 10
1619.942369789414
 20
2615.923876061405
 30
0.0
 10
1619.954835455381
 20
2615.779328251158
 30
0.0
  0
SPLINE
  5
FE
330
1F
100
AcDbEntity
  8
1
  6
SLD-Сплошная
100
AcDbSpline
210
0.0
220
0.0
230
1.0
 70
     8
 71
     3
 72
     9
 73
     5
 74
     0
 42
0.00000001
 43
0.00000001
 40
0.0
 40
0.0
 40
0.0
 40
0.0
 40
0.4999489266172161
 40
1.0
 40
1.0
 40
1.0
 40
1.0
 10
1201.358858059361
 20
2857.920094968052
 30
0.0
 10
1201.250033759975
 20
2857.960080657303
 30
0.0
 10
1201.032362926831
 20
2858.040060205456
 30
0.0
 10
1200.754963849522
 20
2857.919046302406
 30
0.0
 10
1200.616250143158
 20
2857.858533170292
 30
0.0
  0
LINE
  5
FF
330
1F
100
AcDbEntity
  8
1
  6
SLD-Сплошная
100
AcDbLine
 10
1618.9648859617
 20
2615.2078425729
 30
0.0
 11
1619.9548354554
 21
2615.7793282512
 31
0.0
  0
SPLINE
  5
100
330
1F
100
AcDbEntity
  8
1
  6
SLD-Сплошная
100
AcDbSpline
210
0.0
220
0.0
230
1.0
 70
     8
 71
     3
 72
    11
 73
     7
 74
     0
 42
0.00000001
 43
0.00000001
 40
0.0
 40
0.0
 40
0.0
 40
0.0
 40
0.2500000000001479
 40
0.5000000000004777
 40
0.7499999999999939
 40
0.9999999999999999
 40
0.9999999999999999
 40
0.9999999999999999
 40
0.9999999999999999
 10
1618.96488596172
 20
2615.207849207886
 30
0.0
 10
1618.966572542579
 20
2615.211610856124
 30
0.0
 10
1618.969945704295
 20
2615.219134152601
 30
0.0
 10
1618.972793397855
 20
2615.221541971487
 30
0.0
 10
1618.972130457428
 20
2615.217869193957
 30
0.0
 10
1618.967300793623
 20
2615.211184779907
 30
0.0
 10
1618.96488596172
 20
2615.207842572882
 30
0.0
  0
ELLIPSE
  5
101
330
1F
100
AcDbEntity
  8
1
  6
SLD-Сплошная
100
AcDbEllipse
 10
1191.4006386829
 20
2848.850218693
 30
0.0
 11
2.800161842832949
 21
-1.858004074991641
 31
0.0
210
0.0
220
0.0
230
1.0
 40
0.7158610781
 41
2.79964163920915
 42
4.370437966004299
  0
ELLIPSE
  5
102
330
1F
100
AcDbEntity
  8
1
  6
SLD-Сплошная
100
AcDbEllipse
 10
1191.400638683
 20
1713.2052575221
 30
0.0
 11
3.088985166008569
 21
0.897144434207803
 31
0.0
210
0.0
220
0.0
230
0.9999999999999999
 40
0.2910290434
 41
3.057268535760965
 42
3.842666699162983
  0
LINE
  5
103
330
1F
100
AcDbEntity
  8
1
  6
SLD-Сплошная
100
AcDbLine
 10
1190.3744964664
 20
2851.9458713093
 30
0.0
 11
1189.2086076613
 21
2851.2728180284
 31
0.0
  0
ELLIPSE
  5
104
330
1F
100
AcDbEntity
  8
1
  6
SLD-Сплошная
100
AcDbEllipse
 10
1607.7451114457
 20
1472.8547094016
 30
0.0
 11
-0.2093886632490012
 21
3.354026486427984
 31
0.0
210
0.0
220
0.0
230
1.0
 40
0.7158884623
 41
1.91259327222514
 42
3.483389598991173
  0
ELLIPSE
  5
105
330
1F
100
AcDbEntity
  8
1
  6
SLD-Сплошная
100
AcDbEllipse
 10
1191.4006386831
 20
1713.2052575222
 30
0.0
 11
2.321397040545435
 21
2.226629144113303
 31
0.0
210
0.0
220
0.0
230
1.0
 40
0.2911542338
 41
2.440480747833208
 42
3.225960175266039
  0
LINE
  5
106
330
1F
100
AcDbEntity
  8
1
  6
SLD-Сплошная
100
AcDbLine
 10
1608.7471929736
 20
1469.7449435322
 30
0.0
 11
1609.9372391596
 21
1470.4319425722
 31
0.0
  0
ELLIPSE
  5
107
330
1F
100
AcDbEntity
  8
1
  6
SLD-Сплошная
100
AcDbEllipse
 10
1628.180497422
 20
1480.6511149294
 30
0.0
 11
2.399768740150648
 21
-0.05948959558759271
 31
0.0
210
0.0
220
0.0
230
1.0
 40
0.5600402737
 41
3.940873166797488
 42
5.511669493590429
  0
ELLIPSE
  5
108
330
1F
100
AcDbEntity
  8
1
  6
SLD-Сплошная
100
AcDbEllipse
 10
1628.180497422
 20
2619.8888556723
 30
0.0
 11
2.39970729315155
 21
0.06309763002900581
 31
0.0
210
0.0
220
0.0
230
0.9999999999999999
 40
0.5940332725
 41
3.911372643857101
 42
5.48216897065342
  0
ELLIPSE
  5
109
330
1F
100
AcDbEntity
  8
1
  6
SLD-Сплошная
100
AcDbEllipse
 10
1628.180497422
 20
2619.8888556723
 30
0.0
 11
0.9991743340499397
 21
0.06590621734585511
 31
0.0
210
0.0
220
0.0
230
1.0
 40
0.616454653
 41
3.886351437176385
 42
5.457147763973346
  0
LINE
  5
10A
330
1F
100
AcDbEntity
  8
1
  6
SLD-Сплошная
100
AcDbLine
 10
1629.8775536968
 20
2618.9091659382
 30
0.0
 11
1628.8876042032
 21
2619.4806516164
 31
0.0
  0
LINE
  5
10B
330
1F
100
AcDbEntity
  8
1
  6
SLD-Сплошная
100
AcDbLine
 10
1627.4733906408
 20
2619.422913462
 30
0.0
 11
1626.4834411471
 21
2618.8514277837
 31
0.0
  0
ELLIPSE
  5
10C
330
1F
100
AcDbEntity
  8
1
  6
SLD-Сплошная
100
AcDbEllipse
 10
1628.180497422
 20
2619.8888556724
 30
0.0
 11
1.254402255231753
 21
2.046717125657324
 31
0.0
210
0.0
220
0.0
230
0.9999999999999998
 40
0.5941271042
 41
0.8009376928950788
 42
2.371734019693381
  0
ELLIPSE
  5
10D
330
1F
100
AcDbEntity
  8
1
  6
SLD-Сплошная
100
AcDbEllipse
 10
1207.3105412598
 20
2862.8519097508
 30
0.0
 11
1.148266406730954
 21
2.108059026687442
 31
0.0
210
0.0
220
0.0
230
1.0
 40
0.5601341078
 41
0.7714323531102989
 42
2.342228679908913
  0
ARC
  5
10E
330
1F
100
AcDbEntity
  8
1
  6
SLD-Сплошная
100
AcDbCircle
 10
1886.4083305302
 20
2768.9605924681
 30
0.0
 40
3.688331538154458
100
AcDbArc
 50
2.6054784854
 51
57.3945216601
  0
ARC
  5
10F
330
1F
100
AcDbEntity
  8
1
  6
SLD-Сплошная
100
AcDbCircle
 10
1626.1930350536
 20
2618.7414998927
 30
0.0
 40
3.688331538173745
100
AcDbArc
 50
2.6054784857
 51
57.39452166
  0
ELLIPSE
  5
110
330
1F
100
AcDbEntity
  8
1
  6
SLD-Сплошная
100
AcDbEllipse
 10
1628.180497422
 20
2619.8888556724
 30
0.0
 11
0.5566258153000946
 21
0.8323823098448884
 31
0.0
210
0.0
220
0.0
230
1.0
 40
0.6165484624
 41
0.8259634570100216
 42
2.39675978381203
  0
LINE
  5
111
330
1F
100
AcDbEntity
  8
1
  6
SLD-Сплошная
100
AcDbLine
 10
1627.4233906408
 20
2619.509516002
 30
0.0
 11
1626.4334411472
 21
2618.9380303237
 31
0.0
  0
LINE
  5
112
330
1F
100
AcDbEntity
  8
1
  6
SLD-Сплошная
100
AcDbLine
 10
1628.180497422
 20
2620.7053964842
 30
0.0
 11
1628.180497422
 21
2621.8485536209
 31
0.0
  0
ARC
  5
113
330
1F
100
AcDbEntity
  8
1
  6
SLD-Сплошная
100
AcDbCircle
 10
1627.3523881018
 20
2619.4107907642
 30
0.0
 40
1.536804807572079
100
AcDbArc
 50
2.6054784857
 51
57.39452166
  0
LWPOLYLINE
  5
114
330
1F
100
AcDbEntity
  8
1
  6
SLD-Сплошная
100
AcDbPolyline
 90
       17
 70
   128
 43
0.0
 10
1691.8201077288
 20
1545.723764614
 10
1691.6848087037
 20
1545.6767358835
 10
1691.5701077288
 20
1545.6990223193
 10
1691.4934669876
 20
1545.7872310134
 10
1691.4665543382
 20
1545.9279329919
 10
1691.4934669876
 20
1546.099707654
 10
1691.5701077288
 20
1546.2764038645
 10
1691.6848087037
 20
1546.4311212271
 10
1691.8201077288
 20
1546.5403054258
 10
1691.9554067538
 20
1546.5873341563
 10
1692.0701077288
 20
1546.5650477205
 10
1692.14674847
 20
1546.4768390263
 10
1692.1736611194
 20
1546.3361370479
 10
1692.14674847
 20
1546.1643623858
 10
1692.0701077288
 20
1545.9876661753
 10
1691.9554067538
 20
1545.8329488127
 10
1691.8201077288
 20
1545.723764614
  0
LWPOLYLINE
  5
115
330
1F
100
AcDbEntity
  8
1
  6
SLD-Сплошная
100
AcDbPolyline
 90
       17
 70
   128
 43
0.0
 10
1656.4647686694
 20
1533.4789699372
 10
1656.3294696444
 20
1533.4319412068
 10
1656.2147686694
 20
1533.4542276426
 10
1656.1381279282
 20
1533.5424363367
 10
1656.1112152789
 20
1533.6831383152
 10
1656.1381279282
 20
1533.8549129773
 10
1656.2147686694
 20
1534.0316091878
 10
1656.3294696444
 20
1534.1863265504
 10
1656.4647686694
 20
1534.2955107491
 10
1656.6000676945
 20
1534.3425394796
 10
1656.7147686694
 20
1534.3202530438
 10
1656.7914094107
 20
1534.2320443496
 10
1656.81832206
 20
1534.0913423711
 10
1656.7914094107
 20
1533.9195677091
 10
1656.7147686694
 20
1533.7428714986
 10
1656.6000676945
 20
1533.588154136
 10
1656.4647686694
 20
1533.4789699372
  0
LWPOLYLINE
  5
116
330
1F
100
AcDbEntity
  8
1
  6
SLD-Сплошная
100
AcDbPolyline
 90
       17
 70
   128
 43
0.0
 10
1656.4647686694
 20
2595.7985662006
 10
1656.6000676945
 20
2595.8455949311
 10
1656.7147686694
 20
2595.8233084953
 10
1656.7914094107
 20
2595.7350998011
 10
1656.81832206
 20
2595.5943978226
 10
1656.7914094107
 20
2595.4226231606
 10
1656.7147686694
 20
2595.2459269501
 10
1656.6000676945
 20
2595.0912095875
 10
1656.4647686694
 20
2594.9820253887
 10
1656.3294696444
 20
2594.9349966583
 10
1656.2147686694
 20
2594.957283094
 10
1656.1381279282
 20
2595.0454917882
 10
1656.1112152789
 20
2595.1861937667
 10
1656.1381279282
 20
2595.3579684288
 10
1656.2147686694
 20
2595.5346646392
 10
1656.3294696444
 20
2595.6893820018
 10
1656.4647686694
 20
2595.7985662006
  0
LWPOLYLINE
  5
117
330
1F
100
AcDbEntity
  8
1
  6
SLD-Сплошная
100
AcDbPolyline
 90
       17
 70
   128
 43
0.0
 10
1656.4647686694
 20
2064.230497663
 10
1656.3294696444
 20
2064.1834689325
 10
1656.2147686694
 20
2064.2057553683
 10
1656.1381279282
 20
2064.2939640625
 10
1656.1112152789
 20
2064.434666041
 10
1656.1381279282
 20
2064.606440703
 10
1656.2147686694
 20
2064.7831369135
 10
1656.3294696444
 20
2064.9378542761
 10
1656.4647686694
 20
2065.0470384749
 10
1656.6000676945
 20
2065.0940672053
 10
1656.7147686694
 20
2065.0717807696
 10
1656.7914094107
 20
2064.9835720754
 10
1656.81832206
 20
2064.8428700969
 10
1656.7914094107
 20
2064.6710954348
 10
1656.7147686694
 20
2064.4943992244
 10
1656.6000676945
 20
2064.3396818618
 10
1656.4647686694
 20
2064.230497663
  0
LINE
  5
118
330
1F
100
AcDbEntity
  8
1
  6
SLD-Сплошная
100
AcDbLine
 10
1622.1800280019
 20
1552.7747030081
 30
0.0
 11
1622.2490039006
 21
1552.9415073427
 31
0.0
  0
LINE
  5
119
330
1F
100
AcDbEntity
  8
1
  6
SLD-Сплошная
100
AcDbLine
 10
1626.4834411471
 20
1479.7291633496
 30
0.0
 11
1620.5795306228
 21
1489.955036311
 31
0.0
  0
LINE
  5
11A
330
1F
100
AcDbEntity
  8
1
  6
SLD-Сплошная
100
AcDbLine
 10
1626.4834411471
 20
2618.8514277837
 30
0.0
 11
1620.3224071068
 21
2615.2935823204
 31
0.0
  0
LINE
  5
11B
330
1F
100
AcDbEntity
  8
1
  6
SLD-Сплошная
100
AcDbLine
 10
1620.2404494381
 20
2615.3617300936
 30
0.0
 11
1626.4334411472
 21
2618.9380303237
 31
0.0
  0
LINE
  5
11C
330
1F
100
AcDbEntity
  8
1
  6
SLD-Сплошная
100
AcDbLine
 10
1205.6634849849
 20
2861.843355631
 30
0.0
 11
1211.2128854782
 21
2852.2315120533
 31
0.0
  0
LINE
  5
11D
330
1F
100
AcDbEntity
  8
1
  6
SLD-Сплошная
100
AcDbLine
 10
1620.2405812929
 20
2615.3616204564
 30
0.0
 11
1627.4233906408
 21
2619.509516002
 31
0.0
  0
LINE
  5
11E
330
1F
100
AcDbEntity
  8
1
  6
SLD-Сплошная
100
AcDbLine
 10
1621.3517457572
 20
2616.0030915257
 30
0.0
 11
1621.3515733841
 21
2616.0031910346
 31
0.0
  0
LINE
  5
11F
330
1F
100
AcDbEntity
  8
1
  6
SLD-Сплошная
100
AcDbLine
 10
1620.3617962635
 20
2615.4316058475
 30
0.0
 11
1621.3517457572
 21
2616.0030915257
 31
0.0
  0
LINE
  5
120
330
1F
100
AcDbEntity
  8
1
  6
SLD-Сплошная
100
AcDbLine
 10
1620.2407225659
 20
2615.361502988
 30
0.0
 11
1621.3517457572
 21
2616.0030915257
 31
0.0
  0
ELLIPSE
  5
121
330
1F
100
AcDbEntity
  8
1
  6
SLD-Сплошная
100
AcDbEllipse
 10
1613.9883617983
 20
2611.7514361187
 30
0.0
 11
1.83847691421829
 21
0.006790717397961997
 31
0.0
210
0.0
220
0.0
230
1.0
 40
0.2390824169
 41
1.281602512667846
 42
1.710795336198113
  0
ELLIPSE
  5
122
330
1F
100
AcDbEntity
  8
1
  6
SLD-Сплошная
100
AcDbEllipse
 10
1888.042239508
 20
2769.8460417153
 30
0.0
 11
2.890365856587096
 21
0.9290073015790766
 31
0.0
210
0.0
220
0.0
230
0.9999999999999998
 40
0.2542379796
 41
0.313554833860201
 42
0.7038633921486386
  0
ARC
  5
123
330
1F
100
AcDbEntity
  8
1
  6
SLD-Сплошная
100
AcDbCircle
 10
1889.5106807995
 20
1631.2048550366
 30
0.0
 40
1.437498683376679
100
AcDbArc
 50
293.8903166264
 51
354.7895424153
  0
LWPOLYLINE
  5
124
330
1F
100
AcDbEntity
  8
1
  6
SLD-Сплошная
100
AcDbPolyline
 90
        9
 70
   128
 43
0.0
 10
1890.0928491735
 20
2769.1282585135
 10
1890.3720574573
 20
2769.3151714536
 10
1890.6006277094
 20
2769.5237513148
 10
1890.7735920104
 20
2769.7494646638
 10
1890.8871910229
 20
2769.9874056756
 10
1890.9389556997
 20
2770.2324027596
 10
1890.927760948
 20
2770.4791309631
 10
1890.853850083
 20
2770.7222277082
 10
1890.7188295397
 20
2770.9564093456
  0
LINE
  5
125
330
1F
100
AcDbEntity
  8
1
  6
SLD-Сплошная
100
AcDbLine
 10
1890.7188295397
 20
2770.9564093456
 30
0.0
 11
1889.6523778697
 21
2770.6996730513
 31
0.0
  0
LINE
  5
126
330
1F
100
AcDbEntity
  8
1
  6
SLD-Сплошная
100
AcDbLine
 10
1890.2921797085
 20
2771.695388528
 30
0.0
 11
1889.536596994
 21
2770.9002319229
 31
0.0
  0
LWPOLYLINE
  5
127
330
1F
100
AcDbEntity
  8
1
  6
SLD-Сплошная
100
AcDbPolyline
 90
        9
 70
   128
 43
0.0
 10
1890.2921797085
 20
2771.695388528
 10
1890.1568607562
 20
2771.9294486311
 10
1889.9832654182
 20
2772.1150452033
 10
1889.7751667476
 20
2772.248144348
 10
1889.5370877187
 20
2772.3258531871
 10
1889.2742029218
 20
2772.3464827379
 10
1888.9922260948
 20
2772.3095846221
 10
1888.697285936
 20
2772.2159608112
 10
1888.3957928986
 20
2772.0676461963
  0
ELLIPSE
  5
128
330
1F
100
AcDbEntity
  8
1
  6
SLD-Сплошная
100
AcDbEllipse
 10
1887.9922395081
 20
2769.9326442553
 30
0.0
 11
2.249684805107563
 21
2.038688334745984
 31
0.0
210
0.0
220
0.0
230
1.0
 40
0.2543661535
 41
5.579287862044402
 42
5.969596420338265
  0
ARC
  5
129
330
1F
100
AcDbEntity
  8
1
  6
SLD-Сплошная
100
AcDbCircle
 10
1468.3729086876
 20
3013.8691426375
 30
0.0
 40
1.437618529025727
100
AcDbArc
 50
65.2088626956
 51
126.1015957336
  0
LINE
  5
12A
330
1F
100
AcDbEntity
  8
1
  6
SLD-Сплошная
100
AcDbLine
 10
1890.0928491735
 20
2771.0298334774
 30
0.0
 11
1889.6206580325
 21
2770.7572433339
 31
0.0
  0
LINE
  5
12B
330
1F
100
AcDbEntity
  8
1
  6
SLD-Сплошная
100
AcDbLine
 10
1890.0428491735
 20
2771.1164360175
 30
0.0
 11
1889.5706633782
 21
2770.84384896
 31
0.0
  0
LINE
  5
12C
330
1F
100
AcDbEntity
  8
1
  6
SLD-Сплошная
100
AcDbLine
 10
1889.5707025416
 20
2770.8437829626
 30
0.0
 11
1890.0428491735
 21
2771.1164360175
 31
0.0
  0
LINE
  5
12D
330
1F
100
AcDbEntity
  8
1
  6
SLD-Сплошная
100
AcDbLine
 10
1211.1128854782
 20
2852.2892408245
 30
0.0
 11
1205.6134849849
 21
2861.8144818621
 31
0.0
  0
LINE
  5
12E
330
1F
100
AcDbEntity
  8
1
  6
SLD-Сплошная
100
AcDbLine
 10
1205.6634890481
 20
2861.8433485933
 30
0.0
 11
1205.6134849849
 21
2861.8144818621
 31
0.0
  0
ELLIPSE
  5
12F
330
1F
100
AcDbEntity
  8
1
  6
SLD-Сплошная
100
AcDbEllipse
 10
1207.3105412598
 20
2862.8519097508
 30
0.0
 11
2.399707293151096
 21
0.06309763007811854
 31
0.0
210
0.0
220
0.0
230
1.0
 40
0.5940332725
 41
2.340576317050253
 42
3.911372643844768
  0
LINE
  5
130
330
1F
100
AcDbEntity
  8
1
  6
SLD-Сплошная
100
AcDbLine
 10
1206.1458019589
 20
2863.5242994369
 30
0.0
 11
1205.6134849849
 21
2863.831599485
 31
0.0
  0
ARC
  5
131
330
1F
100
AcDbEntity
  8
1
  6
SLD-Сплошная
100
AcDbCircle
 10
1466.8228286048
 20
3014.0493850848
 30
0.0
 40
1.207145366161303
100
AcDbArc
 50
54.3824225247
 51
114.3071190462
  0
ARC
  5
132
330
1F
100
AcDbEntity
  8
1
  6
SLD-Сплошная
100
AcDbCircle
 10
1206.6480634667
 20
2863.9994247575
 30
0.0
 40
1.048102073832622
100
AcDbArc
 50
50.7967147648
 51
189.2140369902
  0
LINE
  5
133
330
1F
100
AcDbEntity
  8
1
  6
SLD-Сплошная
100
AcDbLine
 10
1620.5795306228
 20
1489.8395600021
 30
0.0
 11
1626.4334411472
 21
1479.7002895807
 31
0.0
  0
LINE
  5
134
330
1F
100
AcDbEntity
  8
1
  6
SLD-Сплошная
100
AcDbLine
 10
1626.4834492742
 20
1479.729158658
 30
0.0
 11
1626.4334411472
 21
1479.7002895807
 31
0.0
  0
ARC
  5
135
330
1F
100
AcDbEntity
  8
1
  6
SLD-Сплошная
100
AcDbCircle
 10
1628.842975215
 20
1479.5035999226
 30
0.0
 40
1.04810207382852
100
AcDbArc
 50
230.7967147643
 51
9.2140369905
  0
LINE
  5
136
330
1F
100
AcDbEntity
  8
1
  6
SLD-Сплошная
100
AcDbLine
 10
1628.180497422
 20
1479.3064514609
 30
0.0
 11
1628.180497422
 21
1478.6914169808
 31
0.0
  0
ARC
  5
137
330
1F
100
AcDbEntity
  8
1
  6
SLD-Сплошная
100
AcDbCircle
 10
1888.9168446458
 20
1629.7607095837
 30
0.0
 40
1.183146996117628
100
AcDbArc
 50
305.0133318454
 51
6.298848548
  0
ELLIPSE
  5
138
330
1F
100
AcDbEntity
  8
1
  6
SLD-Сплошная
100
AcDbEllipse
 10
1628.180497422
 20
1480.6511149294
 30
0.0
 11
1.254402255231753
 21
2.046717125657551
 31
0.0
210
0.0
220
0.0
230
0.9999999999999996
 40
0.5941271042
 41
2.3717340196931
 42
3.942530346488064
  0
LWPOLYLINE
  5
139
330
1F
100
AcDbEntity
  8
1
  6
SLD-Сплошная
100
AcDbPolyline
 90
       21
 70
   128
 43
0.0
 10
1225.2003428237
 20
2269.5998823429
 10
1226.7883334863
 20
2268.5351189997
 10
1228.3351960249
 20
2267.201860774
 10
1229.8008675123
 20
2265.6346383538
 10
1231.1473878267
 20
2263.8740419763
 10
1232.3398827994
 20
2261.965670163
 10
1233.347467437
 20
2259.9589487414
 10
1234.1440458266
 20
2257.9058507424
 10
1234.7089870063
 20
2255.8595503255
 10
1235.0276592964
 20
2253.8730455967
 10
1235.0918092518
 20
2251.9977859851
 10
1234.8997754225
 20
2250.2823397295
 10
1234.4565313838
 20
2248.7711359869
 10
1233.7735569234
 20
2247.5033141405
 10
1232.8685407212
 20
2246.51171011
 10
1231.7649222213
 20
2245.8220059191
 10
1230.4912845632
 20
2245.4520645439
 10
1229.0806142933
 20
2245.4114672718
 10
1227.5694470306
 20
2245.7012655507
 10
1225.9969212133
 20
2246.3139537576
 10
1225.1987338774
 20
2246.7376685861
  0
LWPOLYLINE
  5
13A
330
1F
100
AcDbEntity
  8
1
  6
SLD-Сплошная
100
AcDbPolyline
 90
       11
 70
   128
 43
0.0
 10
1215.3008478871
 20
2263.8831677593
 10
1215.373026351
 20
2265.2194236816
 10
1215.6916986411
 20
2266.8379972159
 10
1216.2566398208
 20
2268.2320304306
 10
1217.0532182104
 20
2269.3654185976
 10
1218.0608028479
 20
2270.2088075589
 10
1219.2532978207
 20
2270.7403539832
 10
1220.5998181351
 20
2270.9462910975
 10
1222.0654896225
 20
2270.8212852386
 10
1223.6123521611
 20
2270.3685739926
 10
1225.2003428237
 20
2269.5998823429
  0
LWPOLYLINE
  5
13B
330
1F
100
AcDbEntity
  8
1
  6
SLD-Сплошная
100
AcDbPolyline
 90
       36
 70
   128
 43
0.0
 10
1223.0790224801
 20
2265.9256477396
 10
1224.4678691827
 20
2264.9795399897
 10
1225.8120772094
 20
2263.7751536924
 10
1227.0684426085
 20
2262.3511988142
 10
1228.196584762
 20
2260.7534424365
 10
1229.1602442531
 20
2259.0332377639
 10
1229.9284482728
 20
2257.2458735901
 10
1230.4765061117
 20
2255.4487972701
 10
1230.7868027401
 20
2253.6997683157
 10
1230.8493649689
 20
2252.0550019563
 10
1230.6621819967
 20
2250.5673623363
 10
1230.2312700382
 20
2249.2846634169
 10
1229.5704789583
 20
2248.2481321969
 10
1228.7010471259
 20
2247.4910836426
 10
1227.6509187957
 20
2247.0378499173
 10
1226.4538459561
 20
2246.902998326
 10
1225.1483035131
 20
2247.0908631097
 10
1223.7762526752
 20
2247.5954061397
 10
1222.3817922851
 20
2248.4004109879
 10
1221.0097414471
 20
2249.4800041361
 10
1219.7041990042
 20
2250.7994865722
 10
1218.5071261646
 20
2252.3164490451
 10
1217.4569978343
 20
2253.9821351327
 10
1216.587566002
 20
2255.7430083137
 10
1215.9267749221
 20
2257.5424726751
 10
1215.4958629635
 20
2259.3226919517
 10
1215.3086799913
 20
2261.0264484313
 10
1215.3712422202
 20
2262.5989819787
 10
1215.6815388485
 20
2263.9897500719
 10
1216.2295966875
 20
2265.15405228
 10
1216.9978007072
 20
2266.054466972
 10
1217.9614601982
 20
2266.6620540788
 10
1219.0896023518
 20
2266.957285251
 10
1220.3459677508
 20
2266.9306715158
 10
1221.6901757776
 20
2266.5830682604
 10
1223.0790224801
 20
2265.9256477396
  0
LWPOLYLINE
  5
13C
330
1F
100
AcDbEntity
  8
1
  6
SLD-Сплошная
100
AcDbPolyline
 90
       16
 70
   128
 43
0.0
 10
1225.9074496049
 20
2270.0080863989
 10
1227.4954402675
 20
2268.9433230556
 10
1229.0423028061
 20
2267.61006483
 10
1230.5079742935
 20
2266.0428424097
 10
1231.8544946079
 20
2264.2822460322
 10
1233.0469895806
 20
2262.3738742189
 10
1234.0545742182
 20
2260.3671527973
 10
1234.8511526078
 20
2258.3140547983
 10
1235.4160937875
 20
2256.2677543814
 10
1235.7347660775
 20
2254.2812496526
 10
1235.798916033
 20
2252.405990041
 10
1235.6068822037
 20
2250.6905437854
 10
1235.163638165
 20
2249.1793400429
 10
1234.4806637046
 20
2247.9115181964
 10
1233.5756475024
 20
2246.9199141659
 10
1232.9068807333
 20
2246.4518309591
  0
ARC
  5
13D
330
1F
100
AcDbEntity
  8
1
  6
SLD-Сплошная
100
AcDbCircle
 10
1221.7975556897
 20
2264.1927281015
 30
0.0
 40
7.121068748507864
100
AcDbArc
 50
54.7499671021
 51
113.9395744688
  0
LWPOLYLINE
  5
13E
330
1F
100
AcDbEntity
  8
1
  6
SLD-Сплошная
100
AcDbPolyline
 90
       30
 70
   128
 43
0.0
 10
1223.0790224801
 20
2263.4760253039
 10
1224.2950789284
 20
2262.6212886958
 10
1225.4542739286
 20
2261.5010742947
 10
1226.502404811
 20
2260.1677620811
 10
1227.3904621405
 20
2258.6836962521
 10
1228.0769213432
 20
2257.1182700766
 10
1228.5296843499
 20
2255.5446811426
 10
1228.7275804655
 20
2254.0365087198
 10
1228.6613562877
 20
2252.6642732744
 10
1228.3341083853
 20
2251.4921390108
 10
1227.7611385066
 20
2250.5749136244
 10
1226.9692380863
 20
2249.9554855548
 10
1225.995435508
 20
2249.6628185701
 10
1224.8852646978
 20
2249.7105974533
 10
1223.690636009
 20
2250.0965881168
 10
1222.4674089513
 20
2250.8027420663
 10
1221.2727802625
 20
2251.7960403278
 10
1220.1626094523
 20
2253.0300373788
 10
1219.1888068739
 20
2254.4470328884
 10
1218.3969064537
 20
2255.9807697217
 10
1217.823936575
 20
2257.5595320489
 10
1217.4966886726
 20
2259.1094986982
 10
1217.4304644947
 20
2260.5581949518
 10
1217.6283606104
 20
2261.8378813829
 10
1218.081123617
 20
2262.8887212764
 10
1218.7675828198
 20
2263.6615785268
 10
1219.6556401492
 20
2264.1203151879
 10
1220.7037710317
 20
2264.2434812433
 10
1221.8629660319
 20
2264.0253175853
 10
1223.0790224801
 20
2263.4760253039
  0
LWPOLYLINE
  5
13F
330
1F
100
AcDbEntity
  8
1
  6
SLD-Сплошная
100
AcDbPolyline
 90
       12
 70
   128
 43
0.0
 10
1228.5029773801
 20
2251.9574357555
 10
1227.5090126274
 20
2252.3008900187
 10
1226.2857855697
 20
2253.0070439682
 10
1225.0911568809
 20
2254.0003422297
 10
1223.9809860707
 20
2255.2343392807
 10
1223.0071834924
 20
2256.6513347903
 10
1222.2152830721
 20
2258.1850716236
 10
1221.6423131934
 20
2259.7638339508
 10
1221.315065291
 20
2261.3138006001
 10
1221.2488411131
 20
2262.7624968537
 10
1221.4467372288
 20
2264.0421832849
 10
1221.4734441986
 20
2264.134263764
  0
LINE
  5
140
330
1F
100
AcDbEntity
  8
1
  6
SLD-Сплошная
100
AcDbLine
 10
1223.8755763657
 20
2261.5996069288
 30
0.0
 11
1225.2500301304
 21
2261.7225038071
 31
0.0
  0
LINE
  5
141
330
1F
100
AcDbEntity
  8
1
  6
SLD-Сплошная
100
AcDbLine
 10
1223.8755763657
 20
2261.5996069288
 30
0.0
 11
1223.72917039
 21
2261.5544086769
 31
0.0
  0
LWPOLYLINE
  5
142
330
1F
100
AcDbEntity
  8
1
  6
SLD-Сплошная
100
AcDbPolyline
 90
        9
 70
   128
 43
0.0
 10
1226.1809241042
 20
2254.2266744795
 10
1226.3514647929
 20
2254.0466506634
 10
1226.5344774948
 20
2253.913176726
 10
1226.7174901967
 20
2253.8353486955
 10
1226.8880308854
 20
2253.8184704236
 10
1227.0344774948
 20
2253.8636921366
 10
1227.1468499305
 20
2253.9679320496
 10
1227.2174901967
 20
2254.1240863846
 10
1227.241584276
 20
2254.3215134819
  0
LINE
  5
143
330
1F
100
AcDbEntity
  8
1
  6
SLD-Сплошная
100
AcDbLine
 10
1222.1785200908
 20
2259.205627022
 30
0.0
 11
1226.1809241042
 21
2254.2266744795
 31
0.0
  0
LWPOLYLINE
  5
144
330
1F
100
AcDbEntity
  8
1
  6
SLD-Сплошная
100
AcDbPolyline
 90
        9
 70
   128
 43
0.0
 10
1222.1785200908
 20
2260.6199171946
 10
1222.0320734814
 20
2260.5746954816
 10
1221.9197010457
 20
2260.4704555687
 10
1221.8490607795
 20
2260.3143012336
 10
1221.8249667002
 20
2260.1168741363
 10
1221.8490607795
 20
2259.8916286072
 10
1221.9197010457
 20
2259.6539147568
 10
1222.0320734814
 20
2259.4199323912
 10
1222.1785200908
 20
2259.205627022
  0
LINE
  5
145
330
1F
100
AcDbEntity
  8
1
  6
SLD-Сплошная
100
AcDbLine
 10
1225.9184623892
 20
2260.9543243933
 30
0.0
 11
1222.1785200908
 21
2260.6199171946
 31
0.0
  0
LINE
  5
146
330
1F
100
AcDbEntity
  8
1
  6
SLD-Сплошная
100
AcDbLine
 10
1227.241584276
 20
2254.3215134819
 30
0.0
 11
1227.241584276
 21
2258.9640756633
 31
0.0
  0
ARC
  5
147
330
1F
100
AcDbEntity
  8
1
  6
SLD-Сплошная
100
AcDbCircle
 10
1621.1787140846
 20
1574.1207556665
 30
0.0
 40
2.603316187517185
100
AcDbArc
 50
37.9787348638
 51
58.8941006487
  0
ARC
  5
148
330
1F
100
AcDbEntity
  8
1
  6
SLD-Сплошная
100
AcDbCircle
 10
1622.2816380945
 20
1574.5769478341
 30
0.0
 40
3.073609615144334
100
AcDbArc
 50
2.6054784857
 51
57.39452166
  0
SPLINE
  5
149
330
1F
100
AcDbEntity
  8
1
  6
SLD-Сплошная
100
AcDbSpline
210
0.0
220
0.0
230
1.0
 70
     8
 71
     3
 72
    12
 73
     8
 74
     0
 42
0.00000001
 43
0.00000001
 40
0.0
 40
0.0
 40
0.0
 40
0.0
 40
0.0038128522419178
 40
0.1589839410707606
 40
0.5234324970001016
 40
0.7821768889117814
 40
1.0
 40
1.0
 40
1.0
 40
1.0
 10
1624.644963516019
 20
1574.308465482696
 30
0.0
 10
1624.643744277904
 20
1574.309751763614
 30
0.0
 10
1624.592905884948
 20
1574.363385630539
 30
0.0
 10
1624.407247156878
 20
1574.550384556147
 30
0.0
 10
1624.053523522816
 20
1574.882028457268
 30
0.0
 10
1623.592519682536
 20
1575.312029221841
 30
0.0
 10
1623.344233353689
 20
1575.593915046412
 30
0.0
 10
1623.230749953646
 20
1575.722755655336
 30
0.0
  0
SPLINE
  5
14A
330
1F
100
AcDbEntity
  8
1
  6
SLD-Сплошная
100
AcDbSpline
210
0.0
220
0.0
230
1.0
 70
     8
 71
     3
 72
    12
 73
     8
 74
     0
 42
0.00000001
 43
0.00000001
 40
0.0
 40
0.0
 40
0.0
 40
0.0
 40
0.2178231110881945
 40
0.4765675029999188
 40
0.8410160589292734
 40
0.996187147758082
 40
1.0
 40
1.0
 40
1.0
 40
1.0
 10
1623.230749953643
 20
1527.167889844456
 30
0.0
 10
1623.344233353685
 20
1527.19730551682
 30
0.0
 10
1623.592519682533
 20
1527.261663029011
 30
0.0
 10
1624.053523522812
 20
1527.639689315448
 30
0.0
 10
1624.407247156875
 20
1528.108277699857
 30
0.0
 10
1624.592905884944
 20
1528.46736180638
 30
0.0
 10
1624.643744277901
 20
1528.579490867861
 30
0.0
 10
1624.644963516016
 20
1528.582180017096
 30
0.0
  0
LWPOLYLINE
  5
14B
330
1F
100
AcDbEntity
  8
1
  6
SLD-Сплошная
100
AcDbPolyline
 90
       10
 70
   128
 43
0.0
 10
1620.5795306228
 20
1556.3914065793
 10
1621.1077804501
 20
1555.6795366112
 10
1621.7321127855
 20
1554.5471619094
 10
1622.152934933
 20
1553.3663857516
 10
1622.3390364389
 20
1552.2247809038
 10
1622.2766150058
 20
1551.207014975
 10
1621.9703001461
 20
1550.3885710082
 10
1621.4428098313
 20
1549.8301492483
 10
1620.7332656052
 20
1549.5731652825
 10
1620.5929640214
 20
1549.5609085034
  0
ARC
  5
14C
330
1F
100
AcDbEntity
  8
1
  6
SLD-Сплошная
100
AcDbCircle
 10
1623.1802660727
 20
1528.3940018719
 30
0.0
 40
1.227150897872595
100
AcDbArc
 50
237.6507184098
 51
272.3577620583
  0
LINE
  5
14D
330
1F
100
AcDbEntity
  8
1
  6
SLD-Сплошная
100
AcDbLine
 10
1620.5795306228
 20
1528.479614735
 30
0.0
 11
1622.5236431725
 21
1527.3573024492
 31
0.0
  0
LINE
  5
14E
330
1F
100
AcDbEntity
  8
1
  6
SLD-Сплошная
100
AcDbLine
 10
1620.5795306228
 20
1577.4720634482
 30
0.0
 11
1622.5236431725
 21
1576.3497511624
 31
0.0
  0
LINE
  5
14F
330
1F
100
AcDbEntity
  8
1
  6
SLD-Сплошная
100
AcDbLine
 10
1620.5795306228
 20
1579.1048796718
 30
0.0
 11
1623.9378567348
 21
1577.1661592742
 31
0.0
  0
LINE
  5
150
330
1F
100
AcDbEntity
  8
1
  6
SLD-Сплошная
100
AcDbLine
 10
1625.3520702972
 20
1528.990384073
 30
0.0
 11
1625.3520702972
 21
1574.7166695386
 31
0.0
  0
LINE
  5
151
330
1F
100
AcDbEntity
  8
1
  6
SLD-Сплошная
100
AcDbLine
 10
1622.1800283097
 20
1552.7747036324
 30
0.0
 11
1622.2490038074
 21
1552.9415070704
 31
0.0
  0
ARC
  5
152
330
1F
100
AcDbEntity
  8
1
  6
SLD-Сплошная
100
AcDbCircle
 10
1624.4006991862
 20
1528.8692560154
 30
0.0
 40
0.9590510920475537
100
AcDbArc
 50
304.0563508028
 51
7.2558295906
  0
LWPOLYLINE
  5
153
330
1F
100
AcDbEntity
  8
1
  6
SLD-Сплошная
100
AcDbPolyline
 90
        9
 70
   128
 43
0.0
 10
1620.5795306228
 20
2047.7899138402
 10
1621.2881092666
 20
2048.00072549
 10
1621.8429279866
 20
2048.5362893275
 10
1622.1664662722
 20
2049.3512020148
 10
1622.2325129756
 20
2050.3794441724
 10
1622.0357173858
 20
2051.5377137359
 10
1621.5920227109
 20
2052.7321745938
 10
1620.9373744549
 20
2053.866058631
 10
1620.5795306228
 20
2054.3415548437
  0
LWPOLYLINE
  5
154
330
1F
100
AcDbEntity
  8
1
  6
SLD-Сплошная
100
AcDbPolyline
 90
        8
 70
   128
 43
0.0
 10
1621.570951979
 20
2048.1640071123
 10
1622.1257706991
 20
2048.6995709499
 10
1622.4493089847
 20
2049.5144836371
 10
1622.5153556881
 20
2050.5427257948
 10
1622.3185600983
 20
2051.7009953583
 10
1621.8748654234
 20
2052.8954562161
 10
1621.2202171673
 20
2054.0293402534
 10
1620.5795306228
 20
2054.8310149263
  0
LWPOLYLINE
  5
155
330
1F
100
AcDbEntity
  8
1
  6
SLD-Сплошная
100
AcDbPolyline
 90
        9
 70
   128
 43
0.0
 10
1620.5795306228
 20
2545.8798090906
 10
1621.2881092665
 20
2546.0906207403
 10
1621.8429279866
 20
2546.6261845778
 10
1622.1664662722
 20
2547.4410972651
 10
1622.2325129756
 20
2548.4693394227
 10
1622.0357173857
 20
2549.6276089863
 10
1621.5920227109
 20
2550.8220698441
 10
1620.9373744548
 20
2551.9559538814
 10
1620.5795306228
 20
2552.4314500941
  0
LWPOLYLINE
  5
156
330
1F
100
AcDbEntity
  8
1
  6
SLD-Сплошная
100
AcDbPolyline
 90
        8
 70
   128
 43
0.0
 10
1621.570951979
 20
2546.2539023627
 10
1622.125770699
 20
2546.7894662002
 10
1622.4493089847
 20
2547.6043788875
 10
1622.5153556881
 20
2548.6326210451
 10
1622.3185600982
 20
2549.7908906086
 10
1621.8748654234
 20
2550.9853514665
 10
1621.2202171673
 20
2552.1192355037
 10
1620.5795306228
 20
2552.9209101767
  0
LWPOLYLINE
  5
157
330
1F
100
AcDbEntity
  8
1
  6
SLD-Сплошная
100
AcDbPolyline
 90
        9
 70
   128
 43
0.0
 10
1620.5795306228
 20
1549.5570294109
 10
1620.9345558759
 20
1549.7067282117
 10
1621.489374596
 20
1550.2422920492
 10
1621.8129128816
 20
1551.0572047365
 10
1621.878959585
 20
1552.0854468941
 10
1621.6821639952
 20
1553.2437164576
 10
1621.2384693203
 20
1554.4381773155
 10
1620.5838210642
 20
1555.5720613527
 10
1620.5795306228
 20
1555.5782406605
  0
LWPOLYLINE
  5
158
330
1F
100
AcDbEntity
  8
1
  6
SLD-Сплошная
100
AcDbPolyline
 90
        8
 70
   128
 43
0.0
 10
1621.2173985884
 20
1549.8700098341
 10
1621.7722173085
 20
1550.4055736716
 10
1622.0957555941
 20
1551.2204863589
 10
1622.1618022975
 20
1552.2487285165
 10
1621.9650067076
 20
1553.40699808
 10
1621.5213120328
 20
1554.6014589379
 10
1620.8666637767
 20
1555.7353429751
 10
1620.5795306228
 20
1556.122854157
  0
ARC
  5
159
330
1F
100
AcDbEntity
  8
1
  6
SLD-Сплошная
100
AcDbCircle
 10
1621.5322674752
 20
2072.4147529447
 30
0.0
 40
2.603316187504467
100
AcDbArc
 50
37.9787348637
 51
58.8941006488
  0
ARC
  5
15A
330
1F
100
AcDbEntity
  8
1
  6
SLD-Сплошная
100
AcDbCircle
 10
1622.2816380945
 20
2072.6668430844
 30
0.0
 40
3.07360961514765
100
AcDbArc
 50
2.6054784857
 51
57.39452166
  0
SPLINE
  5
15B
330
1F
100
AcDbEntity
  8
1
  6
SLD-Сплошная
100
AcDbSpline
210
0.0
220
0.0
230
1.0
 70
     8
 71
     3
 72
    12
 73
     8
 74
     0
 42
0.00000001
 43
0.00000001
 40
0.0
 40
0.0
 40
0.0
 40
0.0
 40
0.0038128522419035
 40
0.1589839410707366
 40
0.5234324970000713
 40
0.7821768889117872
 40
1.0
 40
1.0
 40
1.0
 40
1.0
 10
1624.998516906646
 20
2072.602462760966
 30
0.0
 10
1624.997297668532
 20
2072.603749041884
 30
0.0
 10
1624.946459275575
 20
2072.657382908808
 30
0.0
 10
1624.760800547504
 20
2072.844381834418
 30
0.0
 10
1624.407076913443
 20
2073.176025735538
 30
0.0
 10
1623.946073073163
 20
2073.606026500112
 30
0.0
 10
1623.697786744316
 20
2073.887912324682
 30
0.0
 10
1623.584303344273
 20
2074.016752933605
 30
0.0
  0
SPLINE
  5
15C
330
1F
100
AcDbEntity
  8
1
  6
SLD-Сплошная
100
AcDbSpline
210
0.0
220
0.0
230
1.0
 70
     8
 71
     3
 72
    12
 73
     8
 74
     0
 42
0.00000001
 43
0.00000001
 40
0.0
 40
0.0
 40
0.0
 40
0.0
 40
0.2178231110881979
 40
0.4765675029999281
 40
0.8410160589292641
 40
0.9961871477580991
 40
1.0
 40
1.0
 40
1.0
 40
1.0
 10
1623.584303344273
 20
2025.461887122724
 30
0.0
 10
1623.697786744315
 20
2025.491302795088
 30
0.0
 10
1623.946073073163
 20
2025.555660307279
 30
0.0
 10
1624.407076913443
 20
2025.933686593716
 30
0.0
 10
1624.760800547505
 20
2026.402274978125
 30
0.0
 10
1624.946459275574
 20
2026.761359084648
 30
0.0
 10
1624.997297668532
 20
2026.873488146129
 30
0.0
 10
1624.998516906646
 20
2026.876177295364
 30
0.0
  0
ARC
  5
15D
330
1F
100
AcDbEntity
  8
1
  6
SLD-Сплошная
100
AcDbCircle
 10
1623.5338194633
 20
2026.6879991502
 30
0.0
 40
1.227150897874304
100
AcDbArc
 50
237.6507184098
 51
272.3577620583
  0
LINE
  5
15E
330
1F
100
AcDbEntity
  8
1
  6
SLD-Сплошная
100
AcDbLine
 10
1620.5795306228
 20
2026.9777140413
 30
0.0
 11
1622.8771965631
 21
2025.6512997275
 31
0.0
  0
LINE
  5
15F
330
1F
100
AcDbEntity
  8
1
  6
SLD-Сплошная
100
AcDbLine
 10
1620.5795306228
 20
2075.9701627545
 30
0.0
 11
1622.8771965631
 21
2074.6437484406
 31
0.0
  0
LINE
  5
160
330
1F
100
AcDbEntity
  8
1
  6
SLD-Сплошная
100
AcDbLine
 10
1620.5795306228
 20
2077.1947749222
 30
0.0
 11
1623.9378567349
 21
2075.2560545245
 31
0.0
  0
LINE
  5
161
330
1F
100
AcDbEntity
  8
1
  6
SLD-Сплошная
100
AcDbLine
 10
1625.3520702972
 20
2027.0802793233
 30
0.0
 11
1625.3520702972
 21
2072.8065647889
 31
0.0
  0
ARC
  5
162
330
1F
100
AcDbEntity
  8
1
  6
SLD-Сплошная
100
AcDbCircle
 10
1624.4006991853
 20
2026.9591512662
 30
0.0
 40
0.9590510929296671
100
AcDbArc
 50
304.0563508352
 51
7.2558295581
  0
ARC
  5
163
330
1F
100
AcDbEntity
  8
1
  6
SLD-Сплошная
100
AcDbCircle
 10
1621.5322674752
 20
2570.5046481951
 30
0.0
 40
2.603316187514033
100
AcDbArc
 50
37.9787348638
 51
58.8941006487
  0
ARC
  5
164
330
1F
100
AcDbEntity
  8
1
  6
SLD-Сплошная
100
AcDbCircle
 10
1622.2816380945
 20
2570.7567383348
 30
0.0
 40
3.073609615142744
100
AcDbArc
 50
2.6054784857
 51
57.39452166
  0
SPLINE
  5
165
330
1F
100
AcDbEntity
  8
1
  6
SLD-Сплошная
100
AcDbSpline
210
0.0
220
0.0
230
1.0
 70
     8
 71
     3
 72
    12
 73
     8
 74
     0
 42
0.00000001
 43
0.00000001
 40
0.0
 40
0.0
 40
0.0
 40
0.0
 40
0.0038128522419178
 40
0.1589839410707605
 40
0.5234324970000668
 40
0.7821768889117835
 40
1.0
 40
1.0
 40
1.0
 40
1.0
 10
1624.998516906609
 20
2570.692358011321
 30
0.0
 10
1624.997297668495
 20
2570.693644292239
 30
0.0
 10
1624.946459275536
 20
2570.747278159163
 30
0.0
 10
1624.760800547469
 20
2570.934277084774
 30
0.0
 10
1624.407076913405
 20
2571.265920985893
 30
0.0
 10
1623.946073073126
 20
2571.695921750467
 30
0.0
 10
1623.697786744279
 20
2571.977807575037
 30
0.0
 10
1623.584303344236
 20
2572.106648183961
 30
0.0
  0
SPLINE
  5
166
330
1F
100
AcDbEntity
  8
1
  6
SLD-Сплошная
100
AcDbSpline
210
0.0
220
0.0
230
1.0
 70
     8
 71
     3
 72
    12
 73
     8
 74
     0
 42
0.00000001
 43
0.00000001
 40
0.0
 40
0.0
 40
0.0
 40
0.0
 40
0.2178231110881975
 40
0.47656750299992
 40
0.8410160589292729
 40
0.9961871477581207
 40
1.0
 40
1.0
 40
1.0
 40
1.0
 10
1623.58430334424
 20
2523.551782373077
 30
0.0
 10
1623.697786744282
 20
2523.581198045441
 30
0.0
 10
1623.946073073129
 20
2523.645555557632
 30
0.0
 10
1624.407076913409
 20
2524.023581844069
 30
0.0
 10
1624.760800547472
 20
2524.492170228481
 30
0.0
 10
1624.94645927554
 20
2524.851254334999
 30
0.0
 10
1624.997297668498
 20
2524.963383396483
 30
0.0
 10
1624.998516906612
 20
2524.966072545717
 30
0.0
  0
ARC
  5
167
330
1F
100
AcDbEntity
  8
1
  6
SLD-Сплошная
100
AcDbCircle
 10
1623.5338194633
 20
2524.7778944006
 30
0.0
 40
1.227150897875169
100
AcDbArc
 50
237.6507184099
 51
272.3577620583
  0
LINE
  5
168
330
1F
100
AcDbEntity
  8
1
  6
SLD-Сплошная
100
AcDbLine
 10
1620.5795306228
 20
2525.0676092917
 30
0.0
 11
1622.8771965631
 21
2523.7411949779
 31
0.0
  0
LINE
  5
169
330
1F
100
AcDbEntity
  8
1
  6
SLD-Сплошная
100
AcDbLine
 10
1620.5795306228
 20
2574.0600580048
 30
0.0
 11
1622.877196563
 21
2572.733643691
 31
0.0
  0
LINE
  5
16A
330
1F
100
AcDbEntity
  8
1
  6
SLD-Сплошная
100
AcDbLine
 10
1620.5795306228
 20
2575.2846701725
 30
0.0
 11
1623.9378567348
 21
2573.3459497749
 31
0.0
  0
LINE
  5
16B
330
1F
100
AcDbEntity
  8
1
  6
SLD-Сплошная
100
AcDbLine
 10
1625.3520702972
 20
2525.1701745737
 30
0.0
 11
1625.3520702972
 21
2570.8964600393
 31
0.0
  0
ARC
  5
16C
330
1F
100
AcDbEntity
  8
1
  6
SLD-Сплошная
100
AcDbCircle
 10
1624.4006991828
 20
2525.0490465176
 30
0.0
 40
0.9590510952010239
100
AcDbArc
 50
304.0563509187
 51
7.2558294747
  0
LINE
  5
16D
330
1F
100
AcDbEntity
  8
0
  6
SLD-Сплошная
 62
     8
370
    18
100
AcDbLine
 10
1609.9371424673
 20
2608.3914047613
 30
0.0
 11
1608.9471929737
 21
2608.9628904395
 31
0.0
  0
LINE
  5
16E
330
1F
100
AcDbEntity
  8
0
  6
SLD-Сплошная
 62
     8
370
    18
100
AcDbLine
 10
1609.9371424673
 20
2608.3914047613
 30
0.0
 11
1609.9371424674
 21
1470.432110066
 31
0.0
  0
LINE
  5
16F
330
1F
100
AcDbEntity
  8
0
  6
SLD-Сплошная
 62
     8
370
    18
100
AcDbLine
 10
1605.553080424
 20
2607.2342379991
 30
0.0
 11
1605.5530804241
 21
1471.5892768282
 31
0.0
  0
LINE
  5
170
330
1F
100
AcDbEntity
  8
0
  6
SLD-Сплошная
 62
     8
370
    18
100
AcDbLine
 10
1608.7471929736
 20
2610.4524577366
 30
0.0
 11
1608.7471929736
 21
2609.3093006
 31
0.0
  0
LINE
  5
171
330
1F
100
AcDbEntity
  8
0
  6
SLD-Сплошная
 62
     8
370
    18
100
AcDbLine
 10
1189.2086076613
 20
2847.5847861197
 30
0.0
 11
1605.553080424
 21
2607.2342379991
 31
0.0
  0
LINE
  5
172
330
1F
100
AcDbEntity
  8
0
  6
SLD-Сплошная
 62
     8
370
    18
100
AcDbLine
 10
1190.398557155
 20
2851.9599845624
 30
0.0
 11
1608.7471929736
 21
2610.4524577366
 31
0.0
  0
LINE
  5
173
330
1F
100
AcDbEntity
  8
0
  6
SLD-Сплошная
 62
     8
370
    18
100
AcDbLine
 10
1620.1548354555
 20
2614.2899533691
 30
0.0
 11
1620.1548354556
 21
1476.330658674
 31
0.0
  0
LINE
  5
174
330
1F
100
AcDbEntity
  8
0
  6
SLD-Сплошная
 62
     8
370
    18
100
AcDbLine
 10
1200.6162501432
 20
2857.8585331703
 30
0.0
 11
1618.9648859617
 21
2616.3510063445
 31
0.0
  0
LINE
  5
175
330
1F
100
AcDbEntity
  8
0
  6
SLD-Сплошная
 62
     8
370
    18
100
AcDbLine
 10
1189.2086076613
 20
1711.9398249488
 30
0.0
 11
1605.5530804241
 21
1471.5892768282
 31
0.0
  0
LINE
  5
176
330
1F
100
AcDbEntity
  8
0
  6
SLD-Сплошная
 62
     8
370
    18
100
AcDbLine
 10
1189.2086076613
 20
2847.5847861197
 30
0.0
 11
1189.2086076613
 21
1711.9398249488
 31
0.0
  0
LINE
  5
177
330
1F
100
AcDbEntity
  8
0
  6
SLD-Сплошная
 62
     8
370
    18
100
AcDbLine
 10
1189.2086076613
 20
2851.2728180285
 30
0.0
 11
1189.5352261707
 21
2851.0842651764
 31
0.0
  0
LINE
  5
178
330
1F
100
AcDbEntity
  8
0
  6
SLD-Сплошная
 62
     8
370
    18
100
AcDbLine
 10
1608.7471929736
 20
1469.7449435322
 30
0.0
 11
1608.7471929736
 21
1470.1223860731
 31
0.0
  0
LINE
  5
179
330
1F
100
AcDbEntity
  8
0
  6
SLD-Сплошная
 62
     8
370
    18
100
AcDbLine
 10
1629.8775536968
 20
2618.9091659382
 30
0.0
 11
1629.8775536968
 21
1479.6714251952
 31
0.0
  0
LINE
  5
17A
330
1F
100
AcDbEntity
  8
0
  6
SLD-Сплошная
 62
     8
370
    18
100
AcDbLine
 10
1626.4834411471
 20
1479.7291633496
 30
0.0
 11
1626.4834411471
 21
2618.8514277837
 31
0.0
  0
LINE
  5
17B
330
1F
100
AcDbEntity
  8
0
  6
SLD-Сплошная
 62
     8
370
    18
100
AcDbLine
 10
1207.3105412598
 20
2864.8116076993
 30
0.0
 11
1628.180497422
 21
2621.8485536209
 31
0.0
  0
LINE
  5
17C
330
1F
100
AcDbEntity
  8
0
  6
SLD-Сплошная
 62
     8
370
    18
100
AcDbLine
 10
1626.4334411472
 20
2618.9380303237
 30
0.0
 11
1205.6634849849
 21
2861.843355631
 31
0.0
  0
LINE
  5
17D
330
1F
100
AcDbEntity
  8
0
  6
SLD-Сплошная
 62
     8
370
    18
100
AcDbLine
 10
1888.3957928986
 20
2772.0676461963
 30
0.0
 11
1628.180497422
 21
2621.8485536209
 31
0.0
  0
LINE
  5
17E
330
1F
100
AcDbEntity
  8
0
  6
SLD-Сплошная
 62
     8
370
    18
100
AcDbLine
 10
1890.0928491735
 20
2769.1282585135
 30
0.0
 11
1629.8775536968
 21
2618.9091659382
 31
0.0
  0
LINE
  5
17F
330
1F
100
AcDbEntity
  8
0
  6
SLD-Сплошная
 62
     8
370
    18
100
AcDbLine
 10
1890.0928491735
 20
2769.1282585135
 30
0.0
 11
1890.0928491735
 21
1629.8905177705
 31
0.0
  0
LINE
  5
180
330
1F
100
AcDbEntity
  8
0
  6
SLD-Сплошная
 62
     8
370
    18
100
AcDbLine
 10
1890.0928491735
 20
1629.8905177705
 30
0.0
 11
1629.8775536968
 21
1479.6714251952
 31
0.0
  0
LINE
  5
181
330
1F
100
AcDbEntity
  8
0
  6
SLD-Сплошная
 62
     8
370
    18
100
AcDbLine
 10
1467.5258367364
 20
3015.0307002747
 30
0.0
 11
1207.3105412598
 21
2864.8116076993
 31
0.0
  0
LINE
  5
182
330
1F
100
AcDbEntity
  8
0
  6
SLD-Сплошная
 62
     8
370
    18
100
AcDbLine
 10
1467.5258367364
 20
3015.0307002747
 30
0.0
 11
1888.3957928986
 21
2772.0676461963
 31
0.0
  0
LINE
  5
183
330
1F
100
AcDbEntity
  8
0
  6
SLD-Сплошная
 62
     8
370
    18
100
AcDbLine
 10
1614.5900972583
 20
2612.2204697435
 30
0.0
 11
1614.1902371511
 21
2612.4513040699
 31
0.0
  0
LINE
  5
184
330
1F
100
AcDbEntity
  8
0
  6
SLD-Сплошная
 62
     8
370
    18
100
AcDbLine
 10
1612.2913055235
 20
2610.8934055223
 30
0.0
 11
1612.2913055235
 21
2611.3550741752
 31
0.0
  0
LINE
  5
185
330
1F
100
AcDbEntity
  8
0
  6
SLD-Сплошная
 62
     8
370
    18
100
AcDbLine
 10
1205.6134849849
 20
2861.8144818621
 30
0.0
 11
1205.6134849849
 21
2855.4639771531
 31
0.0
  0
LINE
  5
186
330
1F
100
AcDbEntity
  8
0
  6
SLD-Сплошная
 62
     8
370
    18
100
AcDbLine
 10
1626.4334411472
 20
1479.7002895807
 30
0.0
 11
1620.5795306228
 21
1483.0796801941
 31
0.0
  0
LINE
  5
187
330
1F
100
AcDbEntity
  8
0
  6
SLD-Сплошная
 62
     8
370
    18
100
AcDbLine
 10
1227.241584276
 20
2254.3215134819
 30
0.0
 11
1228.611468452
 21
2255.1123307837
 31
0.0
  0
LINE
  5
188
330
1F
100
AcDbEntity
  8
0
  6
SLD-Сплошная
 62
     8
370
    18
100
AcDbLine
 10
1223.8755763657
 20
2261.5996069288
 30
0.0
 11
1222.1785200908
 21
2260.6199171946
 31
0.0
  0
LINE
  5
189
330
1F
100
AcDbEntity
  8
0
  6
SLD-Сплошная
 62
     8
370
    18
100
AcDbLine
 10
1622.5236431725
 20
1576.3497511624
 30
0.0
 11
1623.9378567348
 21
1577.1661592742
 31
0.0
  0
LINE
  5
18A
330
1F
100
AcDbEntity
  8
0
  6
SLD-Сплошная
 62
     8
370
    18
100
AcDbLine
 10
1625.3520702972
 20
1574.7166695386
 30
0.0
 11
1624.644963516
 21
1574.3084654827
 31
0.0
  0
LINE
  5
18B
330
1F
100
AcDbEntity
  8
0
  6
SLD-Сплошная
 62
     8
370
    18
100
AcDbLine
 10
1623.2307499536
 20
1575.7227556553
 30
0.0
 11
1623.2307499536
 21
1527.1678898445
 31
0.0
  0
LINE
  5
18C
330
1F
100
AcDbEntity
  8
0
  6
SLD-Сплошная
 62
     8
370
    18
100
AcDbLine
 10
1624.644963516
 20
1574.3084654827
 30
0.0
 11
1624.644963516
 21
1528.5821800171
 31
0.0
  0
LINE
  5
18D
330
1F
100
AcDbEntity
  8
0
  6
SLD-Сплошная
 62
     8
370
    18
100
AcDbLine
 10
1624.644963516
 20
1528.5821800171
 30
0.0
 11
1625.3520702972
 21
1528.990384073
 31
0.0
  0
LINE
  5
18E
330
1F
100
AcDbEntity
  8
0
  6
SLD-Сплошная
 62
     8
370
    18
100
AcDbLine
 10
1622.8771965631
 20
2074.6437484406
 30
0.0
 11
1623.9378567349
 21
2075.2560545245
 31
0.0
  0
LINE
  5
18F
330
1F
100
AcDbEntity
  8
0
  6
SLD-Сплошная
 62
     8
370
    18
100
AcDbLine
 10
1625.3520702972
 20
2072.8065647889
 30
0.0
 11
1624.9985169066
 21
2072.602462761
 31
0.0
  0
LINE
  5
190
330
1F
100
AcDbEntity
  8
0
  6
SLD-Сплошная
 62
     8
370
    18
100
AcDbLine
 10
1623.5843033443
 20
2074.0167529336
 30
0.0
 11
1623.5843033443
 21
2025.4618871227
 31
0.0
  0
LINE
  5
191
330
1F
100
AcDbEntity
  8
0
  6
SLD-Сплошная
 62
     8
370
    18
100
AcDbLine
 10
1624.9985169066
 20
2072.602462761
 30
0.0
 11
1624.9985169066
 21
2026.8761772954
 31
0.0
  0
LINE
  5
192
330
1F
100
AcDbEntity
  8
0
  6
SLD-Сплошная
 62
     8
370
    18
100
AcDbLine
 10
1624.9985169066
 20
2026.8761772954
 30
0.0
 11
1625.3520702972
 21
2027.0802793233
 31
0.0
  0
LINE
  5
193
330
1F
100
AcDbEntity
  8
0
  6
SLD-Сплошная
 62
     8
370
    18
100
AcDbLine
 10
1622.877196563
 20
2572.733643691
 30
0.0
 11
1623.9378567348
 21
2573.3459497749
 31
0.0
  0
LINE
  5
194
330
1F
100
AcDbEntity
  8
0
  6
SLD-Сплошная
 62
     8
370
    18
100
AcDbLine
 10
1625.3520702972
 20
2570.8964600393
 30
0.0
 11
1624.9985169066
 21
2570.6923580113
 31
0.0
  0
LINE
  5
195
330
1F
100
AcDbEntity
  8
0
  6
SLD-Сплошная
 62
     8
370
    18
100
AcDbLine
 10
1623.5843033442
 20
2572.106648184
 30
0.0
 11
1623.5843033442
 21
2523.5517823731
 31
0.0
  0
LINE
  5
196
330
1F
100
AcDbEntity
  8
0
  6
SLD-Сплошная
 62
     8
370
    18
100
AcDbLine
 10
1624.9985169066
 20
2570.6923580113
 30
0.0
 11
1624.9985169066
 21
2524.9660725457
 31
0.0
  0
LINE
  5
197
330
1F
100
AcDbEntity
  8
0
  6
SLD-Сплошная
 62
     8
370
    18
100
AcDbLine
 10
1624.9985169066
 20
2524.9660725457
 30
0.0
 11
1625.3520702972
 21
2525.1701745737
 31
0.0
  0
LINE
  5
198
330
1F
100
AcDbEntity
  8
1
  6
SLD-Сплошная
100
AcDbLine
 10
370.985610226
 20
2299.0341783852
 30
0.0
 11
962.6269748009
 21
2299.0341783852
 31
0.0
  0
LINE
  5
199
330
1F
100
AcDbEntity
  8
1
  6
SLD-Сплошная
100
AcDbLine
 10
382.3562925134
 20
2291.1341783852
 30
0.0
 11
382.3562925134
 21
2292.299554424
 31
0.0
  0
LINE
  5
19A
330
1F
100
AcDbEntity
  8
1
  6
SLD-Сплошная
100
AcDbLine
 10
372.2562925134
 20
2292.2995544239
 30
0.0
 11
372.2562925134
 21
2291.1341783852
 31
0.0
  0
ARC
  5
19B
330
1F
100
AcDbEntity
  8
1
  6
SLD-Сплошная
100
AcDbCircle
 10
382.1562925134
 20
2292.299554424
 30
0.0
 40
0.2000000000003525
100
AcDbArc
 50
0.0
 51
68.1849373759
  0
ARC
  5
19C
330
1F
100
AcDbEntity
  8
1
  6
SLD-Сплошная
100
AcDbCircle
 10
372.4562925134
 20
2292.2995544239
 30
0.0
 40
0.2000000000000455
100
AcDbArc
 50
111.8150626241
 51
180.0
  0
ARC
  5
19D
330
1F
100
AcDbEntity
  8
1
  6
SLD-Сплошная
100
AcDbCircle
 10
377.3062925134
 20
2280.1829283852
 30
0.0
 40
13.25125000000034
100
AcDbArc
 50
68.1849373759
 51
90.0
  0
ARC
  5
19E
330
1F
100
AcDbEntity
  8
1
  6
SLD-Сплошная
100
AcDbCircle
 10
377.3062925134
 20
2280.1829283852
 30
0.0
 40
13.25125000000025
100
AcDbArc
 50
90.0
 51
111.8150626241
  0
LINE
  5
19F
330
1F
100
AcDbEntity
  8
1
  6
SLD-Сплошная
100
AcDbLine
 10
438.3062925133
 20
2318.0341783852
 30
0.0
 11
438.3062925133
 21
2319.0341783852
 31
0.0
  0
LINE
  5
1A0
330
1F
100
AcDbEntity
  8
1
  6
SLD-Сплошная
100
AcDbLine
 10
410.3062925133
 20
2319.0341783852
 30
0.0
 11
410.3062925133
 21
2318.0341783852
 31
0.0
  0
LINE
  5
1A1
330
1F
100
AcDbEntity
  8
1
  6
SLD-Сплошная
100
AcDbLine
 10
438.3062925133
 20
2319.0341783852
 30
0.0
 11
435.3062925133
 21
2322.0341783852
 31
0.0
  0
LINE
  5
1A2
330
1F
100
AcDbEntity
  8
1
  6
SLD-Сплошная
100
AcDbLine
 10
413.3062925133
 20
2322.0341783852
 30
0.0
 11
410.3062925133
 21
2319.0341783852
 31
0.0
  0
LINE
  5
1A3
330
1F
100
AcDbEntity
  8
1
  6
SLD-Сплошная
100
AcDbLine
 10
950.7062925134
 20
2293.2341783852
 30
0.0
 11
950.8062925134
 21
2293.1341783852
 31
0.0
  0
LINE
  5
1A4
330
1F
100
AcDbEntity
  8
1
  6
SLD-Сплошная
100
AcDbLine
 10
959.8062925134
 20
2293.1341783852
 30
0.0
 11
959.9062925134
 21
2293.2341783852
 31
0.0
  0
LINE
  5
1A5
330
1F
100
AcDbEntity
  8
1
  6
SLD-Сплошная
100
AcDbLine
 10
950.7062925134
 20
2293.6341783852
 30
0.0
 11
950.7062925134
 21
2293.2341783852
 31
0.0
  0
LINE
  5
1A6
330
1F
100
AcDbEntity
  8
1
  6
SLD-Сплошная
100
AcDbLine
 10
959.9062925134
 20
2293.2341783852
 30
0.0
 11
959.9062925134
 21
2293.6341783852
 31
0.0
  0
LINE
  5
1A7
330
1F
100
AcDbEntity
  8
1
  6
SLD-Сплошная
100
AcDbLine
 10
367.8062925134
 20
2255.1341783852
 30
0.0
 11
367.7062925134
 21
2255.1341783852
 31
0.0
  0
LINE
  5
1A8
330
1F
100
AcDbEntity
  8
1
  6
SLD-Сплошная
100
AcDbLine
 10
367.7062925134
 20
2247.1341783852
 30
0.0
 11
367.8062925134
 21
2247.1341783852
 31
0.0
  0
LINE
  5
1A9
330
1F
100
AcDbEntity
  8
1
  6
SLD-Сплошная
100
AcDbLine
 10
367.7062925134
 20
2197.5841783852
 30
0.0
 11
367.8062925134
 21
2197.5841783852
 31
0.0
  0
LINE
  5
1AA
330
1F
100
AcDbEntity
  8
1
  6
SLD-Сплошная
100
AcDbLine
 10
367.8062925134
 20
2204.6841783852
 30
0.0
 11
367.7062925134
 21
2204.6841783852
 31
0.0
  0
LINE
  5
1AB
330
1F
100
AcDbEntity
  8
1
  6
SLD-Сплошная
100
AcDbLine
 10
370.989135226
 20
2314.9341783852
 30
0.0
 11
370.989135226
 21
2300.4841783852
 31
0.0
  0
LINE
  5
1AC
330
1F
100
AcDbEntity
  8
1
  6
SLD-Сплошная
100
AcDbLine
 10
962.6234498008
 20
2314.9341783852
 30
0.0
 11
962.6234498008
 21
2300.4841783852
 31
0.0
  0
SPLINE
  5
1AD
330
1F
100
AcDbEntity
  8
1
  6
SLD-Сплошная
100
AcDbSpline
210
0.0
220
0.0
230
1.0
 70
     8
 71
     3
 72
    11
 73
     7
 74
     0
 42
0.00000001
 43
0.00000001
 40
0.0
 40
0.0
 40
0.0
 40
0.0
 40
0.2500000000000092
 40
0.5000000000000305
 40
0.7499999999999929
 40
1.0
 40
1.0
 40
1.0
 40
1.0
 10
962.5734498008809
 20
2299.034178385216
 30
0.0
 10
962.5776164675475
 20
2299.055974165758
 30
0.0
 10
962.5859498008808
 20
2299.099565726841
 30
0.0
 10
962.5984498008811
 20
2299.434877085868
 30
0.0
 10
962.610949800881
 20
2299.914167244659
 30
0.0
 10
962.6192831342142
 20
2300.294174671697
 30
0.0
 10
962.623449800881
 20
2300.484178385216
 30
0.0
  0
SPLINE
  5
1AE
330
1F
100
AcDbEntity
  8
1
  6
SLD-Сплошная
100
AcDbSpline
210
0.0
220
0.0
230
1.0
 70
     8
 71
     3
 72
    11
 73
     7
 74
     0
 42
0.00000001
 43
0.00000001
 40
0.0
 40
0.0
 40
0.0
 40
0.0
 40
0.2499999999999944
 40
0.5000000000000039
 40
0.7499999999999863
 40
1.0
 40
1.0
 40
1.0
 40
1.0
 10
370.9891352259868
 20
2300.484178385216
 30
0.0
 10
370.9933018926535
 20
2300.294174671697
 30
0.0
 10
371.0016352259868
 20
2299.914167244659
 30
0.0
 10
371.0141352259869
 20
2299.434877085869
 30
0.0
 10
371.0266352259868
 20
2299.099565726841
 30
0.0
 10
371.0349685593201
 20
2299.055974165758
 30
0.0
 10
371.0391352259867
 20
2299.034178385216
 30
0.0
  0
ELLIPSE
  5
1AF
330
1F
100
AcDbEntity
  8
1
  6
SLD-Сплошная
100
AcDbEllipse
 10
372.4062925134
 20
2314.9341783852
 30
0.0
 11
0.0
 21
3.099999999999909
 31
0.0
210
0.0
220
0.0
230
1.0
 40
0.4571475121
 41
0.0
 42
1.570796326794897
  0
LINE
  5
1B0
330
1F
100
AcDbEntity
  8
1
  6
SLD-Сплошная
100
AcDbLine
 10
372.4062925134
 20
2318.0341783852
 30
0.0
 11
961.2062925135
 21
2318.0341783852
 31
0.0
  0
ELLIPSE
  5
1B1
330
1F
100
AcDbEntity
  8
1
  6
SLD-Сплошная
100
AcDbEllipse
 10
961.2062925134
 20
2314.9341783852
 30
0.0
 11
0.0
 21
3.099999999999909
 31
0.0
210
0.0
220
0.0
230
1.0
 40
0.4571475121
 41
4.712388980384696
 42
6.283185307179586
  0
SPLINE
  5
1B2
330
1F
100
AcDbEntity
  8
1
  6
SLD-Сплошная
100
AcDbSpline
210
0.0
220
0.0
230
1.0
 70
     8
 71
     3
 72
    11
 73
     7
 74
     0
 42
0.00000001
 43
0.00000001
 40
0.0
 40
0.0
 40
0.0
 40
0.0
 40
0.2500000000000058
 40
0.4999999999999966
 40
0.7499999999999969
 40
1.0
 40
1.0
 40
1.0
 40
1.0
 10
370.7562925133843
 20
2299.034178385216
 30
0.0
 10
370.5662887998634
 20
2299.055974165756
 30
0.0
 10
370.1862813728216
 20
2299.099565726834
 30
0.0
 10
369.7069912140242
 20
2299.434877085861
 30
0.0
 10
369.3716798549913
 20
2299.914167244654
 30
0.0
 10
369.3280882939073
 20
2300.294174671696
 30
0.0
 10
369.3062925133653
 20
2300.484178385216
 30
0.0
  0
LINE
  5
1B3
330
1F
100
AcDbEntity
  8
1
  6
SLD-Сплошная
100
AcDbLine
 10
369.3062925134
 20
2300.4841783852
 30
0.0
 11
370.7062925134
 21
2300.4841783852
 31
0.0
  0
SPLINE
  5
1B4
330
1F
100
AcDbEntity
  8
1
  6
SLD-Сплошная
100
AcDbSpline
210
0.0
220
0.0
230
1.0
 70
     8
 71
     3
 72
    11
 73
     7
 74
     0
 42
0.00000001
 43
0.00000001
 40
0.0
 40
0.0
 40
0.0
 40
0.0
 40
0.2500000000006729
 40
0.4999999999988166
 40
0.7499999999993731
 40
1.0
 40
1.0
 40
1.0
 40
1.0
 10
370.756292513366
 20
2300.434178385216
 30
0.0
 10
370.7497406611756
 20
2300.434929963855
 30
0.0
 10
370.7366369567949
 20
2300.436433121134
 30
0.0
 10
370.7201097099396
 20
2300.447995581791
 30
0.0
 10
370.7085472492834
 20
2300.464522828645
 30
0.0
 10
370.7070440920047
 20
2300.477626533026
 30
0.0
 10
370.7062925133653
 20
2300.484178385216
 30
0.0
  0
LINE
  5
1B5
330
1F
100
AcDbEntity
  8
1
  6
SLD-Сплошная
100
AcDbLine
 10
370.7562925134
 20
2300.4341783852
 30
0.0
 11
370.7562925134
 21
2299.0341783852
 31
0.0
  0
LINE
  5
1B6
330
1F
100
AcDbEntity
  8
1
  6
SLD-Сплошная
100
AcDbLine
 10
370.7062925134
 20
2300.4841783852
 30
0.0
 11
370.7062925134
 21
2314.9341783852
 31
0.0
  0
LINE
  5
1B7
330
1F
100
AcDbEntity
  8
1
  6
SLD-Сплошная
100
AcDbLine
 10
369.3062925134
 20
2300.4841783852
 30
0.0
 11
369.3062925134
 21
2314.9341783852
 31
0.0
  0
LINE
  5
1B8
330
1F
100
AcDbEntity
  8
1
  6
SLD-Сплошная
100
AcDbLine
 10
964.3062925135
 20
2300.4841783852
 30
0.0
 11
964.3062925135
 21
2314.9341783852
 31
0.0
  0
LINE
  5
1B9
330
1F
100
AcDbEntity
  8
1
  6
SLD-Сплошная
100
AcDbLine
 10
964.3062925135
 20
2300.4841783852
 30
0.0
 11
962.9062925135
 21
2300.4841783852
 31
0.0
  0
LINE
  5
1BA
330
1F
100
AcDbEntity
  8
1
  6
SLD-Сплошная
100
AcDbLine
 10
962.9062925135
 20
2300.4841783852
 30
0.0
 11
962.9062925135
 21
2314.9341783852
 31
0.0
  0
LINE
  5
1BB
330
1F
100
AcDbEntity
  8
1
  6
SLD-Сплошная
100
AcDbLine
 10
962.8562925135
 20
2300.4341783852
 30
0.0
 11
962.8562925135
 21
2299.0341783852
 31
0.0
  0
SPLINE
  5
1BC
330
1F
100
AcDbEntity
  8
1
  6
SLD-Сплошная
100
AcDbSpline
210
0.0
220
0.0
230
1.0
 70
     8
 71
     3
 72
    11
 73
     7
 74
     0
 42
0.00000001
 43
0.00000001
 40
0.0
 40
0.0
 40
0.0
 40
0.0
 40
0.2500000000000301
 40
0.4999999999999279
 40
0.749999999999998
 40
0.9999999999999999
 40
0.9999999999999999
 40
0.9999999999999999
 40
0.9999999999999999
 10
962.9062925135025
 20
2300.484178385216
 30
0.0
 10
962.9055409348631
 20
2300.477626533026
 30
0.0
 10
962.9040377775843
 20
2300.464522828644
 30
0.0
 10
962.8924753169281
 20
2300.44799558179
 30
0.0
 10
962.8759480700729
 20
2300.436433121134
 30
0.0
 10
962.8628443656921
 20
2300.434929963855
 30
0.0
 10
962.8562925135018
 20
2300.434178385216
 30
0.0
  0
SPLINE
  5
1BD
330
1F
100
AcDbEntity
  8
1
  6
SLD-Сплошная
100
AcDbSpline
210
0.0
220
0.0
230
1.0
 70
     8
 71
     3
 72
    11
 73
     7
 74
     0
 42
0.00000001
 43
0.00000001
 40
0.0
 40
0.0
 40
0.0
 40
0.0
 40
0.2500000000000007
 40
0.4999999999999946
 40
0.7499999999999869
 40
0.9999999999999999
 40
0.9999999999999999
 40
0.9999999999999999
 40
0.9999999999999999
 10
964.3062925135025
 20
2300.484178385216
 30
0.0
 10
964.2844967329604
 20
2300.294174671696
 30
0.0
 10
964.2409051718765
 20
2299.914167244654
 30
0.0
 10
963.9055938128433
 20
2299.434877085861
 30
0.0
 10
963.426303654046
 20
2299.099565726834
 30
0.0
 10
963.0462962270038
 20
2299.055974165755
 30
0.0
 10
962.8562925134829
 20
2299.034178385216
 30
0.0
  0
ARC
  5
1BE
330
1F
100
AcDbEntity
  8
1
  6
SLD-Сплошная
100
AcDbCircle
 10
372.4062925134
 20
2314.9341783852
 30
0.0
 40
1.699999999999818
100
AcDbArc
 50
141.6088531285
 51
180.0
  0
ARC
  5
1BF
330
1F
100
AcDbEntity
  8
1
  6
SLD-Сплошная
100
AcDbCircle
 10
372.4062925134
 20
2314.9341783852
 30
0.0
 40
3.099999999999909
100
AcDbArc
 50
90.0
 51
180.0
  0
ARC
  5
1C0
330
1F
100
AcDbEntity
  8
1
  6
SLD-Сплошная
100
AcDbCircle
 10
961.2062925135
 20
2314.9341783852
 30
0.0
 40
3.100000000000023
100
AcDbArc
 50
0.0
 51
90.0
  0
ARC
  5
1C1
330
1F
100
AcDbEntity
  8
1
  6
SLD-Сплошная
100
AcDbCircle
 10
961.2062925135
 20
2314.9341783852
 30
0.0
 40
1.700000000000021
100
AcDbArc
 50
0.0
 51
38.391146871
  0
LINE
  5
1C2
330
1F
100
AcDbEntity
  8
1
  6
SLD-Сплошная
100
AcDbLine
 10
370.989135226
 20
2300.4841783852
 30
0.0
 11
370.8062925134
 21
2300.4841783852
 31
0.0
  0
LINE
  5
1C3
330
1F
100
AcDbEntity
  8
1
  6
SLD-Сплошная
100
AcDbLine
 10
371.0391352259
 20
2299.1013862638
 30
0.0
 11
370.7562925134
 21
2299.0341783852
 31
0.0
  0
SPLINE
  5
1C4
330
1F
100
AcDbEntity
  8
1
  6
SLD-Сплошная
100
AcDbSpline
210
0.0
220
0.0
230
1.0
 70
     8
 71
     3
 72
    10
 73
     6
 74
     0
 42
0.00000001
 43
0.00000001
 40
0.0
 40
0.0
 40
0.0
 40
0.0
 40
0.0337192307698444
 40
0.2911090361244257
 40
1.0
 40
1.0
 40
1.0
 40
1.0
 10
370.8062925133653
 20
2300.484178385216
 30
0.0
 10
370.8061128750054
 20
2300.481548518295
 30
0.0
 10
370.8045619988849
 20
2300.458844025722
 30
0.0
 10
370.7871754014985
 20
2300.446627935096
 30
0.0
 10
370.7693613826066
 20
2300.439446724718
 30
0.0
 10
370.756292513366
 20
2300.434178385216
 30
0.0
  0
LINE
  5
1C5
330
1F
100
AcDbEntity
  8
1
  6
SLD-Сплошная
100
AcDbLine
 10
962.6234498008
 20
2300.4841783852
 30
0.0
 11
962.8062925135
 21
2300.4841783852
 31
0.0
  0
SPLINE
  5
1C6
330
1F
100
AcDbEntity
  8
1
  6
SLD-Сплошная
100
AcDbSpline
210
0.0
220
0.0
230
1.0
 70
     8
 71
     3
 72
    11
 73
     7
 74
     0
 42
0.00000001
 43
0.00000001
 40
0.0
 40
0.0
 40
0.0
 40
0.0
 40
0.7088676281992582
 40
0.9065679869070689
 40
0.9662818792190723
 40
0.9999999999999999
 40
0.9999999999999999
 40
0.9999999999999999
 40
0.9999999999999999
 10
962.8562925135018
 20
2300.434178385216
 30
0.0
 10
962.8427327528202
 20
2300.435867996041
 30
0.0
 10
962.8253912288811
 20
2300.438028832598
 30
0.0
 10
962.8104258815846
 20
2300.463386040448
 30
0.0
 10
962.806920507887
 20
2300.473900122976
 30
0.0
 10
962.8064590472674
 20
2300.481452759398
 30
0.0
 10
962.8062925135024
 20
2300.484178385216
 30
0.0
  0
LINE
  5
1C7
330
1F
100
AcDbEntity
  8
1
  6
SLD-Сплошная
100
AcDbLine
 10
962.8562925135
 20
2299.0341783852
 30
0.0
 11
962.5734498008
 21
2299.1013862639
 31
0.0
  0
LINE
  5
1C8
330
1F
100
AcDbEntity
  8
1
  6
SLD-Сплошная
100
AcDbLine
 10
370.989135226
 20
2314.1241783852
 30
0.0
 11
370.8062925134
 21
2314.1241783852
 31
0.0
  0
LINE
  5
1C9
330
1F
100
AcDbEntity
  8
1
  6
SLD-Сплошная
100
AcDbLine
 10
370.8062925134
 20
2300.4841783852
 30
0.0
 11
370.8062925134
 21
2314.1241783852
 31
0.0
  0
LINE
  5
1CA
330
1F
100
AcDbEntity
  8
1
  6
SLD-Сплошная
100
AcDbLine
 10
962.6234498008
 20
2314.1241783852
 30
0.0
 11
962.8062925135
 21
2314.1241783852
 31
0.0
  0
LINE
  5
1CB
330
1F
100
AcDbEntity
  8
1
  6
SLD-Сплошная
100
AcDbLine
 10
962.8062925135
 20
2300.4841783852
 30
0.0
 11
962.8062925135
 21
2314.1241783852
 31
0.0
  0
ARC
  5
1CC
330
1F
100
AcDbEntity
  8
1
  6
SLD-Сплошная
100
AcDbCircle
 10
373.2162925134
 20
2314.1241783852
 30
0.0
 40
2.409999999999991
100
AcDbArc
 50
157.3217650276
 51
180.0
  0
ARC
  5
1CD
330
1F
100
AcDbEntity
  8
1
  6
SLD-Сплошная
100
AcDbCircle
 10
960.3962925135
 20
2314.1241783852
 30
0.0
 40
2.409999999999972
100
AcDbArc
 50
0.0
 51
22.6782349874
  0
LINE
  5
1CE
330
1F
100
AcDbEntity
  8
1
  6
SLD-Сплошная
100
AcDbLine
 10
966.3062925134
 20
1920.7341783852
 30
0.0
 11
966.3062925134
 21
2288.7341783852
 31
0.0
  0
LINE
  5
1CF
330
1F
100
AcDbEntity
  8
1
  6
SLD-Сплошная
100
AcDbLine
 10
963.9062925134
 20
2288.7341783852
 30
0.0
 11
966.3062925134
 21
2288.7341783852
 31
0.0
  0
LINE
  5
1D0
330
1F
100
AcDbEntity
  8
1
  6
SLD-Сплошная
100
AcDbLine
 10
963.9062925134
 20
1920.7341783852
 30
0.0
 11
966.3062925134
 21
1920.7341783852
 31
0.0
  0
ELLIPSE
  5
1D1
330
1F
100
AcDbEntity
  8
1
  6
SLD-Сплошная
100
AcDbEllipse
 10
369.2770031916
 20
1920.7341783852
 30
0.0
 11
0.0
 21
2.899999999999864
 31
0.0
210
0.0
220
0.0
230
1.0
 40
0.5172413793
 41
2.751284095243673
 42
3.141592653589793
  0
LINE
  5
1D2
330
1F
100
AcDbEntity
  8
1
  6
SLD-Сплошная
100
AcDbLine
 10
368.7062925134
 20
1920.7341783852
 30
0.0
 11
368.7062925134
 21
1918.0522824392
 31
0.0
  0
LINE
  5
1D3
330
1F
100
AcDbEntity
  8
1
  6
SLD-Сплошная
100
AcDbLine
 10
368.7062925134
 20
1920.7341783852
 30
0.0
 11
370.2062925134
 21
1920.7341783852
 31
0.0
  0
ELLIPSE
  5
1D4
330
1F
100
AcDbEntity
  8
1
  6
SLD-Сплошная
100
AcDbEllipse
 10
963.3355818354
 20
1920.7341783852
 30
0.0
 11
0.0
 21
2.899999999999864
 31
0.0
210
0.0
220
0.0
230
1.0
 40
0.5172413793
 41
3.141592653589565
 42
3.53190121188342
  0
LINE
  5
1D5
330
1F
100
AcDbEntity
  8
1
  6
SLD-Сплошная
100
AcDbLine
 10
369.2770031916
 20
1917.8341783852
 30
0.0
 11
963.3355818354
 21
1917.8341783852
 31
0.0
  0
LINE
  5
1D6
330
1F
100
AcDbEntity
  8
1
  6
SLD-Сплошная
100
AcDbLine
 10
963.9062925134
 20
1918.0522824391
 30
0.0
 11
963.9062925134
 21
1920.7341783852
 31
0.0
  0
LINE
  5
1D7
330
1F
100
AcDbEntity
  8
1
  6
SLD-Сплошная
100
AcDbLine
 10
368.7062925134
 20
2288.7341783852
 30
0.0
 11
368.7770031916
 21
2291.1341783852
 31
0.0
  0
LINE
  5
1D8
330
1F
100
AcDbEntity
  8
1
  6
SLD-Сплошная
100
AcDbLine
 10
963.8355818354
 20
2291.1341783852
 30
0.0
 11
368.7770031916
 21
2291.1341783852
 31
0.0
  0
LINE
  5
1D9
330
1F
100
AcDbEntity
  8
1
  6
SLD-Сплошная
100
AcDbLine
 10
963.8355818354
 20
2291.1341783852
 30
0.0
 11
963.9062925134
 21
2288.7341783852
 31
0.0
  0
LINE
  5
1DA
330
1F
100
AcDbEntity
  8
1
  6
SLD-Сплошная
100
AcDbLine
 10
368.7062925134
 20
2288.7341783852
 30
0.0
 11
370.2062925134
 21
2288.7341783852
 31
0.0
  0
LINE
  5
1DB
330
1F
100
AcDbEntity
  8
1
  6
SLD-Сплошная
100
AcDbLine
 10
368.7062925134
 20
1920.7341783852
 30
0.0
 11
367.8062925134
 21
1920.7341783852
 31
0.0
  0
LINE
  5
1DC
330
1F
100
AcDbEntity
  8
1
  6
SLD-Сплошная
100
AcDbLine
 10
367.8062925134
 20
1920.7341783852
 30
0.0
 11
367.8062925134
 21
2288.7341783852
 31
0.0
  0
LINE
  5
1DD
330
1F
100
AcDbEntity
  8
1
  6
SLD-Сплошная
100
AcDbLine
 10
367.8062925134
 20
2288.7341783852
 30
0.0
 11
368.7062925134
 21
2288.7341783852
 31
0.0
  0
LINE
  5
1DE
330
1F
100
AcDbEntity
  8
1
  6
SLD-Сплошная
100
AcDbLine
 10
367.7062925134
 20
2288.7341783852
 30
0.0
 11
366.3062925134
 21
2288.7341783852
 31
0.0
  0
LINE
  5
1DF
330
1F
100
AcDbEntity
  8
1
  6
SLD-Сплошная
100
AcDbLine
 10
367.7062925134
 20
1920.7341783852
 30
0.0
 11
367.7062925134
 21
2288.7341783852
 31
0.0
  0
LINE
  5
1E0
330
1F
100
AcDbEntity
  8
1
  6
SLD-Сплошная
100
AcDbLine
 10
366.3062925134
 20
1920.7341783852
 30
0.0
 11
366.3062925134
 21
2288.7341783852
 31
0.0
  0
LINE
  5
1E1
330
1F
100
AcDbEntity
  8
1
  6
SLD-Сплошная
100
AcDbLine
 10
964.509666491
 20
1918.0522824391
 30
0.0
 11
963.9770031915
 21
1919.3469908269
 31
0.0
  0
ARC
  5
1E2
330
1F
100
AcDbEntity
  8
1
  6
SLD-Сплошная
100
AcDbCircle
 10
963.4062925134
 20
1920.7341783852
 30
0.0
 40
1.500000000000114
100
AcDbArc
 50
292.3630330978
 51
0.0
  0
ARC
  5
1E3
330
1F
100
AcDbEntity
  8
1
  6
SLD-Сплошная
100
AcDbCircle
 10
963.4062925134
 20
1920.7341783852
 30
0.0
 40
2.900000000000271
100
AcDbArc
 50
292.3630330978
 51
0.0
  0
ARC
  5
1E4
330
1F
100
AcDbEntity
  8
1
  6
SLD-Сплошная
100
AcDbCircle
 10
369.2062925134
 20
1920.7341783852
 30
0.0
 40
1.500000000001023
100
AcDbArc
 50
180.0
 51
247.6369668997
  0
LINE
  5
1E5
330
1F
100
AcDbEntity
  8
1
  6
SLD-Сплошная
100
AcDbLine
 10
368.1029185357
 20
1918.0522824392
 30
0.0
 11
368.6355818353
 21
1919.3469908269
 31
0.0
  0
ARC
  5
1E6
330
1F
100
AcDbEntity
  8
1
  6
SLD-Сплошная
100
AcDbCircle
 10
369.2062925134
 20
1920.7341783852
 30
0.0
 40
2.900000000000297
100
AcDbArc
 50
180.0
 51
247.6369668997
  0
LINE
  5
1E7
330
1F
100
AcDbEntity
  8
1
  6
SLD-Сплошная
100
AcDbLine
 10
963.4062925134
 20
1917.8341783852
 30
0.0
 11
963.4062925134
 21
1917.8374023996
 31
0.0
  0
ARC
  5
1E8
330
1F
100
AcDbEntity
  8
1
  6
SLD-Сплошная
100
AcDbCircle
 10
963.4062925134
 20
1920.7341783852
 30
0.0
 40
2.900000000000271
100
AcDbArc
 50
270.0
 51
292.3630330978
  0
ARC
  5
1E9
330
1F
100
AcDbEntity
  8
1
  6
SLD-Сплошная
100
AcDbCircle
 10
369.2062925134
 20
1920.7341783852
 30
0.0
 40
2.900000000000318
100
AcDbArc
 50
247.6369668997
 51
270.0
  0
LINE
  5
1EA
330
1F
100
AcDbEntity
  8
1
  6
SLD-Сплошная
100
AcDbLine
 10
369.2062925134
 20
1917.8341783852
 30
0.0
 11
369.2062925134
 21
1917.8374023996
 31
0.0
  0
LINE
  5
1EB
330
1F
100
AcDbEntity
  8
1
  6
SLD-Сплошная
100
AcDbLine
 10
368.7062925134
 20
2289.7341783852
 30
0.0
 11
368.7062925134
 21
2291.1341783852
 31
0.0
  0
ARC
  5
1EC
330
1F
100
AcDbEntity
  8
1
  6
SLD-Сплошная
100
AcDbCircle
 10
368.7062925134
 20
2288.7341783852
 30
0.0
 40
1.0
100
AcDbArc
 50
90.0
 51
180.0
  0
ARC
  5
1ED
330
1F
100
AcDbEntity
  8
1
  6
SLD-Сплошная
100
AcDbCircle
 10
368.7062925134
 20
2288.7341783852
 30
0.0
 40
2.400000000000091
100
AcDbArc
 50
90.0
 51
180.0
  0
ARC
  5
1EE
330
1F
100
AcDbEntity
  8
1
  6
SLD-Сплошная
100
AcDbCircle
 10
963.9062925134
 20
2288.7341783852
 30
0.0
 40
2.400000000000091
100
AcDbArc
 50
0.0
 51
90.0
  0
ARC
  5
1EF
330
1F
100
AcDbEntity
  8
1
  6
SLD-Сплошная
100
AcDbCircle
 10
963.9062925134
 20
2288.7341783852
 30
0.0
 40
1.000000000000114
100
AcDbArc
 50
0.0
 51
90.0
  0
LINE
  5
1F0
330
1F
100
AcDbEntity
  8
1
  6
SLD-Сплошная
100
AcDbLine
 10
963.9062925134
 20
2289.7341783852
 30
0.0
 11
963.9062925134
 21
2291.1341783852
 31
0.0
  0
LINE
  5
1F1
330
1F
100
AcDbEntity
  8
1
  6
SLD-Сплошная
100
AcDbLine
 10
963.9062925134
 20
2291.1341783852
 30
0.0
 11
963.8355818354
 21
2291.1341783852
 31
0.0
  0
LINE
  5
1F2
330
1F
100
AcDbEntity
  8
1
  6
SLD-Сплошная
100
AcDbLine
 10
963.9062925134
 20
2289.7341783852
 30
0.0
 11
963.8768297309
 21
2289.7341783852
 31
0.0
  0
LINE
  5
1F3
330
1F
100
AcDbEntity
  8
1
  6
SLD-Сплошная
100
AcDbLine
 10
368.735755296
 20
2289.7341783852
 30
0.0
 11
368.7062925134
 21
2289.7341783852
 31
0.0
  0
LINE
  5
1F4
330
1F
100
AcDbEntity
  8
1
  6
SLD-Сплошная
100
AcDbLine
 10
368.7770031916
 20
2291.1341783852
 30
0.0
 11
368.7062925134
 21
2291.1341783852
 31
0.0
  0
LINE
  5
1F5
330
1F
100
AcDbEntity
  8
1
  6
SLD-Сплошная
100
AcDbLine
 10
963.4062925134
 20
1917.8341783852
 30
0.0
 11
963.3355818354
 21
1917.8341783852
 31
0.0
  0
LINE
  5
1F6
330
1F
100
AcDbEntity
  8
1
  6
SLD-Сплошная
100
AcDbLine
 10
369.2770031916
 20
1917.8341783852
 30
0.0
 11
369.2062925134
 21
1917.8341783852
 31
0.0
  0
ELLIPSE
  5
1F7
330
1F
100
AcDbEntity
  8
1
  6
SLD-Сплошная
100
AcDbEllipse
 10
947.2355818354
 20
2292.1341783852
 30
0.0
 11
2.399999999999864
 21
0.0
 31
0.0
210
0.0
220
0.0
230
1.0
 40
0.4166666667
 41
3.141592653589793
 42
4.712388980384695
  0
ELLIPSE
  5
1F8
330
1F
100
AcDbEntity
  8
1
  6
SLD-Сплошная
100
AcDbEllipse
 10
385.3770031916
 20
2292.1341783852
 30
0.0
 11
2.400000000000034
 21
0.0
 31
0.0
210
0.0
220
0.0
230
1.0
 40
0.4166666667
 41
4.712388980384885
 42
6.283185307179586
  0
ARC
  5
1F9
330
1F
100
AcDbEntity
  8
1
  6
SLD-Сплошная
100
AcDbCircle
 10
947.3062925134
 20
2292.1341783852
 30
0.0
 40
1.000000000000455
100
AcDbArc
 50
180.0
 51
270.0
  0
ARC
  5
1FA
330
1F
100
AcDbEntity
  8
1
  6
SLD-Сплошная
100
AcDbCircle
 10
947.3062925134
 20
2292.1341783852
 30
0.0
 40
2.400000000000045
100
AcDbArc
 50
180.0
 51
186.3209984362
  0
ARC
  5
1FB
330
1F
100
AcDbEntity
  8
1
  6
SLD-Сплошная
100
AcDbCircle
 10
385.3062925134
 20
2292.1341783852
 30
0.0
 40
1.000000000000455
100
AcDbArc
 50
270.0
 51
0.0
  0
ARC
  5
1FC
330
1F
100
AcDbEntity
  8
1
  6
SLD-Сплошная
100
AcDbCircle
 10
385.3062925134
 20
2292.1341783852
 30
0.0
 40
2.399999999999983
100
AcDbArc
 50
353.6790015594
 51
0.0
  0
LINE
  5
1FD
330
1F
100
AcDbEntity
  8
1
  6
SLD-Сплошная
100
AcDbLine
 10
944.8355818354
 20
2292.1341783852
 30
0.0
 11
944.8355818354
 21
2299.0341783852
 31
0.0
  0
LINE
  5
1FE
330
1F
100
AcDbEntity
  8
1
  6
SLD-Сплошная
100
AcDbLine
 10
387.7770031916
 20
2299.0341783852
 30
0.0
 11
387.7770031916
 21
2292.1341783852
 31
0.0
  0
LINE
  5
1FF
330
1F
100
AcDbEntity
  8
1
  6
SLD-Сплошная
100
AcDbLine
 10
946.3062925134
 20
2299.0341783852
 30
0.0
 11
946.3062925134
 21
2292.1341783852
 31
0.0
  0
LINE
  5
200
330
1F
100
AcDbEntity
  8
1
  6
SLD-Сплошная
100
AcDbLine
 10
944.9062925134
 20
2299.0341783852
 30
0.0
 11
944.9062925134
 21
2292.1341783852
 31
0.0
  0
LINE
  5
201
330
1F
100
AcDbEntity
  8
1
  6
SLD-Сплошная
100
AcDbLine
 10
386.3062925134
 20
2292.1341783852
 30
0.0
 11
386.3062925134
 21
2299.0341783852
 31
0.0
  0
LINE
  5
202
330
1F
100
AcDbEntity
  8
1
  6
SLD-Сплошная
100
AcDbLine
 10
387.7062925134
 20
2292.1341783852
 30
0.0
 11
387.7062925134
 21
2299.0341783852
 31
0.0
  0
LINE
  5
203
330
1F
100
AcDbEntity
  8
1
  6
SLD-Сплошная
100
AcDbLine
 10
367.7062925134
 20
2288.7341783852
 30
0.0
 11
367.8062925134
 21
2288.7341783852
 31
0.0
  0
LINE
  5
204
330
1F
100
AcDbEntity
  8
1
  6
SLD-Сплошная
100
AcDbLine
 10
871.3062925134
 20
2114.5841783852
 30
0.0
 11
461.3062925134
 21
2114.5841783852
 31
0.0
  0
ARC
  5
205
330
1F
100
AcDbEntity
  8
1
  6
SLD-Сплошная
100
AcDbCircle
 10
871.3062925134
 20
2097.0841783852
 30
0.0
 40
17.5
100
AcDbArc
 50
0.0
 51
90.0
  0
LINE
  5
206
330
1F
100
AcDbEntity
  8
1
  6
SLD-Сплошная
100
AcDbLine
 10
888.8062925134
 20
1962.0841783852
 30
0.0
 11
888.8062925134
 21
2097.0841783852
 31
0.0
  0
LINE
  5
207
330
1F
100
AcDbEntity
  8
1
  6
SLD-Сплошная
100
AcDbLine
 10
443.8062925134
 20
2097.0841783852
 30
0.0
 11
443.8062925134
 21
1962.0841783852
 31
0.0
  0
ARC
  5
208
330
1F
100
AcDbEntity
  8
1
  6
SLD-Сплошная
100
AcDbCircle
 10
461.3062925134
 20
2097.0841783852
 30
0.0
 40
17.5
100
AcDbArc
 50
90.0
 51
180.0
  0
ARC
  5
209
330
1F
100
AcDbEntity
  8
1
  6
SLD-Сплошная
100
AcDbCircle
 10
461.3062925134
 20
1962.0841783852
 30
0.0
 40
17.50000000000006
100
AcDbArc
 50
180.0
 51
270.0
  0
LINE
  5
20A
330
1F
100
AcDbEntity
  8
1
  6
SLD-Сплошная
100
AcDbLine
 10
461.3062925134
 20
1944.5841783852
 30
0.0
 11
871.3062925134
 21
1944.5841783852
 31
0.0
  0
ARC
  5
20B
330
1F
100
AcDbEntity
  8
1
  6
SLD-Сплошная
100
AcDbCircle
 10
871.3062925134
 20
1962.0841783852
 30
0.0
 40
17.5
100
AcDbArc
 50
270.0
 51
0.0
  0
ELLIPSE
  5
20C
330
1F
100
AcDbEntity
  8
1
  6
SLD-Сплошная
100
AcDbEllipse
 10
665.7498490972
 20
1950.4973918392
 30
0.0
 11
0.2145091096840588
 21
-0.3520440699442134
 31
0.0
210
0.0
220
0.0
230
1.0
 40
0.9702875252
 41
5.512866274279241
 42
7.053504340080424
  0
SPLINE
  5
20D
330
1F
100
AcDbEntity
  8
1
  6
SLD-Сплошная
100
AcDbSpline
210
0.0
220
0.0
230
1.0
 70
     8
 71
     3
 72
    12
 73
     8
 74
     0
 42
0.00000001
 43
0.00000001
 40
0.0
 40
0.0
 40
0.0
 40
0.0
 40
0.2187857887072112
 40
0.4375776469535069
 40
0.6562353658864037
 40
0.8748419359491062
 40
1.0
 40
1.0
 40
1.0
 40
1.0
 10
665.4892310924405
 20
1950.389792008853
 30
0.0
 10
665.5334276819551
 20
1950.385147497601
 30
0.0
 10
665.6218220870827
 20
1950.375858346249
 30
0.0
 10
665.7531822207636
 20
1950.417729026746
 30
0.0
 10
665.8640654759619
 20
1950.496240895342
 30
0.0
 10
665.9342280170098
 20
1950.590375347189
 30
0.0
 10
665.9567609935776
 20
1950.655835491571
 30
0.0
 10
665.9649648151598
 20
1950.67966826589
 30
0.0
  0
ELLIPSE
  5
20E
330
1F
100
AcDbEntity
  8
1
  6
SLD-Сплошная
100
AcDbEllipse
 10
667.2195059674
 20
1950.1406218015
 30
0.0
 11
-0.352044069943986
 21
-0.2145091096842862
 31
0.0
210
0.0
220
0.0
230
1.0
 40
0.9702875252
 41
5.512866274278795
 42
7.053504340080384
  0
SPLINE
  5
20F
330
1F
100
AcDbEntity
  8
1
  6
SLD-Сплошная
100
AcDbSpline
210
0.0
220
0.0
230
1.0
 70
     8
 71
     3
 72
    12
 73
     8
 74
     0
 42
0.00000001
 43
0.00000001
 40
0.0
 40
0.0
 40
0.0
 40
0.0
 40
0.2187857887071978
 40
0.4375776469534994
 40
0.6562353658863852
 40
0.87484193594909
 40
1.0
 40
1.0
 40
1.0
 40
1.0
 10
667.1119061370716
 20
1950.401239806212
 30
0.0
 10
667.1072616258194
 20
1950.357043216697
 30
0.0
 10
667.0979724744674
 20
1950.26864881157
 30
0.0
 10
667.1398431549637
 20
1950.137288677889
 30
0.0
 10
667.2183550235601
 20
1950.02640542269
 30
0.0
 10
667.3124894754072
 20
1949.956242881643
 30
0.0
 10
667.3779496197898
 20
1949.933709905075
 30
0.0
 10
667.4017823941081
 20
1949.925506083493
 30
0.0
  0
ELLIPSE
  5
210
330
1F
100
AcDbEntity
  8
1
  6
SLD-Сплошная
100
AcDbEllipse
 10
665.3930790595
 20
1949.0277349689
 30
0.0
 11
0.352044069943986
 21
0.2145091096842862
 31
0.0
210
0.0
220
0.0
230
1.0
 40
0.9702875252
 41
5.51286627427842
 42
7.0535043400807
  0
SPLINE
  5
211
330
1F
100
AcDbEntity
  8
1
  6
SLD-Сплошная
100
AcDbSpline
210
0.0
220
0.0
230
1.0
 70
     8
 71
     3
 72
    12
 73
     8
 74
     0
 42
0.00000001
 43
0.00000001
 40
0.0
 40
0.0
 40
0.0
 40
0.0
 40
0.2187857887072017
 40
0.4375776469535071
 40
0.6562353658864011
 40
0.8748419359490882
 40
1.0
 40
1.0
 40
1.0
 40
1.0
 10
665.500678889799
 20
1948.767116964222
 30
0.0
 10
665.5053234010513
 20
1948.811313553737
 30
0.0
 10
665.5146125524033
 20
1948.899707958864
 30
0.0
 10
665.4727418719068
 20
1949.031068092546
 30
0.0
 10
665.3942300033107
 20
1949.141951347744
 30
0.0
 10
665.3000955514635
 20
1949.212113888791
 30
0.0
 10
665.2346354070809
 20
1949.234646865359
 30
0.0
 10
665.2108026327627
 20
1949.242850686941
 30
0.0
  0
ARC
  5
212
330
1F
100
AcDbEntity
  8
1
  6
SLD-Сплошная
100
AcDbCircle
 10
642.6061430345
 20
1955.3375643584
 30
0.0
 40
26.56195549587946
100
AcDbArc
 50
345.2366779053
 51
347.4732803565
  0
ARC
  5
213
330
1F
100
AcDbEntity
  8
1
  6
SLD-Сплошная
100
AcDbCircle
 10
661.0828503564
 20
1927.3824646407
 30
0.0
 40
23.41191191659601
100
AcDbArc
 50
71.4374562222
 51
74.3415387414
  0
ARC
  5
214
330
1F
100
AcDbEntity
  8
1
  6
SLD-Сплошная
100
AcDbCircle
 10
644.180774923
 20
1955.1214983584
 30
0.0
 40
23.41191191592412
100
AcDbArc
 50
348.3684195203
 51
351.2725020396
  0
ARC
  5
215
330
1F
100
AcDbEntity
  8
1
  6
SLD-Сплошная
100
AcDbCircle
 10
660.5529065401
 20
1925.8840289056
 30
0.0
 40
26.56195549657875
100
AcDbArc
 50
75.2366779053
 51
77.4732803564
  0
ARC
  5
216
330
1F
100
AcDbEntity
  8
1
  6
SLD-Сплошная
100
AcDbCircle
 10
688.5080062576
 20
1944.3607362283
 30
0.0
 40
23.41191191619858
100
AcDbArc
 50
161.4374562222
 51
164.3415387414
  0
ARC
  5
217
330
1F
100
AcDbEntity
  8
1
  6
SLD-Сплошная
100
AcDbCircle
 10
660.7689725401
 20
1927.4586607941
 30
0.0
 40
23.41191191661678
100
AcDbArc
 50
78.3684195203
 51
81.2725020395
  0
ARC
  5
218
330
1F
100
AcDbEntity
  8
1
  6
SLD-Сплошная
100
AcDbCircle
 10
690.0064419921
 20
1943.8307924121
 30
0.0
 40
26.56195549559056
100
AcDbArc
 50
165.2366779053
 51
167.4732803565
  0
ARC
  5
219
330
1F
100
AcDbEntity
  8
1
  6
SLD-Сплошная
100
AcDbCircle
 10
671.5297346705
 20
1971.78589213
 30
0.0
 40
23.41191191681364
100
AcDbArc
 50
251.4374562222
 51
254.3415387414
  0
ARC
  5
21A
330
1F
100
AcDbEntity
  8
1
  6
SLD-Сплошная
100
AcDbCircle
 10
688.4318101041
 20
1944.046858412
 30
0.0
 40
23.41191191608933
100
AcDbArc
 50
168.3684195203
 51
171.2725020396
  0
ARC
  5
21B
330
1F
100
AcDbEntity
  8
1
  6
SLD-Сплошная
100
AcDbCircle
 10
672.0596784865
 20
1973.2843278636
 30
0.0
 40
26.56195549534372
100
AcDbArc
 50
255.2366779052
 51
257.4732803565
  0
ARC
  5
21C
330
1F
100
AcDbEntity
  8
1
  6
SLD-Сплошная
100
AcDbCircle
 10
644.1045787692
 20
1954.8076205421
 30
0.0
 40
23.41191191622321
100
AcDbArc
 50
341.4374562222
 51
344.3415387415
  0
SPLINE
  5
21D
330
1F
100
AcDbEntity
  8
1
  6
SLD-Сплошная
100
AcDbSpline
210
0.0
220
0.0
230
1.0
 70
     8
 71
     3
 72
    12
 73
     8
 74
     0
 42
0.00000001
 43
0.00000001
 40
0.0
 40
0.0
 40
0.0
 40
0.0
 40
0.2187857887072083
 40
0.4375776469535004
 40
0.6562353658863893
 40
0.8748419359491084
 40
1.0
 40
1.0
 40
1.0
 40
1.0
 10
667.1233539344302
 20
1948.778564761581
 30
0.0
 10
667.0791573449155
 20
1948.783209272833
 30
0.0
 10
666.9907629397878
 20
1948.792498424185
 30
0.0
 10
666.8594028061071
 20
1948.750627743688
 30
0.0
 10
666.7485195509088
 20
1948.672115875092
 30
0.0
 10
666.678357009861
 20
1948.577981423245
 30
0.0
 10
666.6558240332931
 20
1948.512521278862
 30
0.0
 10
666.6476202117109
 20
1948.488688504544
 30
0.0
  0
ARC
  5
21E
330
1F
100
AcDbEntity
  8
1
  6
SLD-Сплошная
100
AcDbCircle
 10
671.8436124867
 20
1971.7096959761
 30
0.0
 40
23.41191191637448
100
AcDbArc
 50
258.3684195203
 51
261.2725020395
  0
CIRCLE
  5
21F
330
1F
100
AcDbEntity
  8
1
  6
SLD-Сплошная
100
AcDbCircle
 10
666.3062925134
 20
1949.5841783852
 30
0.0
 40
3.499999999999937
  0
ELLIPSE
  5
220
330
1F
100
AcDbEntity
  8
1
  6
SLD-Сплошная
100
AcDbEllipse
 10
666.8627359297
 20
1948.6709649313
 30
0.0
 11
-0.2145091096841725
 21
0.3520440699442133
 31
0.0
210
0.0
220
0.0
230
1.0
 40
0.9702875252
 41
5.512866274279202
 42
7.053504340080382
  0
LINE
  5
221
330
1F
100
AcDbEntity
  8
1
  6
SLD-Сплошная
100
AcDbLine
 10
668.5357902572
 20
1949.5764121585
 30
0.0
 11
668.3324114027
 21
1949.4524884207
 31
0.0
  0
LINE
  5
222
330
1F
100
AcDbEntity
  8
1
  6
SLD-Сплошная
100
AcDbLine
 10
668.3324114027
 20
1949.4524884207
 30
0.0
 11
667.1117861003
 21
1949.7488042097
 31
0.0
  0
LINE
  5
223
330
1F
100
AcDbEntity
  8
1
  6
SLD-Сплошная
100
AcDbLine
 10
666.2985262867
 20
1947.3546806414
 30
0.0
 11
666.1746025489
 21
1947.558059496
 31
0.0
  0
LINE
  5
224
330
1F
100
AcDbEntity
  8
1
  6
SLD-Сплошная
100
AcDbLine
 10
666.1746025489
 20
1947.558059496
 30
0.0
 11
666.4709183379
 21
1948.7786847984
 31
0.0
  0
LINE
  5
225
330
1F
100
AcDbEntity
  8
1
  6
SLD-Сплошная
100
AcDbLine
 10
665.29098054
 20
1947.5992697978
 30
0.0
 11
665.4943593946
 21
1947.7231935356
 31
0.0
  0
LINE
  5
226
330
1F
100
AcDbEntity
  8
1
  6
SLD-Сплошная
100
AcDbLine
 10
665.7906751837
 20
1948.943818838
 30
0.0
 11
665.4943593946
 21
1947.7231935356
 31
0.0
  0
LINE
  5
227
330
1F
100
AcDbEntity
  8
1
  6
SLD-Сплошная
100
AcDbLine
 10
668.2912011009
 20
1948.5688664118
 30
0.0
 11
668.1672773631
 21
1948.7722452664
 31
0.0
  0
LINE
  5
228
330
1F
100
AcDbEntity
  8
1
  6
SLD-Сплошная
100
AcDbLine
 10
666.9466520607
 20
1949.0685610554
 30
0.0
 11
668.1672773631
 21
1948.7722452664
 31
0.0
  0
LINE
  5
229
330
1F
100
AcDbEntity
  8
1
  6
SLD-Сплошная
100
AcDbLine
 10
664.321383926
 20
1950.5994903586
 30
0.0
 11
664.4453076638
 21
1950.396111504
 31
0.0
  0
LINE
  5
22A
330
1F
100
AcDbEntity
  8
1
  6
SLD-Сплошная
100
AcDbLine
 10
665.6659329662
 20
1950.099795715
 30
0.0
 11
664.4453076638
 21
1950.396111504
 31
0.0
  0
LINE
  5
22B
330
1F
100
AcDbEntity
  8
1
  6
SLD-Сплошная
100
AcDbLine
 10
666.3140587401
 20
1951.813676129
 30
0.0
 11
666.437982478
 21
1951.6102972744
 31
0.0
  0
LINE
  5
22C
330
1F
100
AcDbEntity
  8
1
  6
SLD-Сплошная
100
AcDbLine
 10
666.437982478
 20
1951.6102972744
 30
0.0
 11
666.1416666889
 21
1950.389671972
 31
0.0
  0
LINE
  5
22D
330
1F
100
AcDbEntity
  8
1
  6
SLD-Сплошная
100
AcDbLine
 10
667.3216044868
 20
1951.5690869727
 30
0.0
 11
667.1182256323
 21
1951.4451632348
 31
0.0
  0
LINE
  5
22E
330
1F
100
AcDbEntity
  8
1
  6
SLD-Сплошная
100
AcDbLine
 10
666.8219098432
 20
1950.2245379324
 30
0.0
 11
667.1182256323
 21
1951.4451632348
 31
0.0
  0
LINE
  5
22F
330
1F
100
AcDbEntity
  8
1
  6
SLD-Сплошная
100
AcDbLine
 10
664.0767947696
 20
1949.5919446119
 30
0.0
 11
664.2801736242
 21
1949.7158683497
 31
0.0
  0
LINE
  5
230
330
1F
100
AcDbEntity
  8
1
  6
SLD-Сплошная
100
AcDbLine
 10
664.2801736242
 20
1949.7158683497
 30
0.0
 11
665.5007989266
 21
1949.4195525607
 31
0.0
  0
LINE
  5
231
330
1F
100
AcDbEntity
  8
1
  6
SLD-Сплошная
100
AcDbLine
 10
665.4943593946
 20
1947.7231935356
 30
0.0
 11
666.1746025489
 21
1947.558059496
 31
0.0
  0
LINE
  5
232
330
1F
100
AcDbEntity
  8
1
  6
SLD-Сплошная
100
AcDbLine
 10
668.1672773631
 20
1948.7722452664
 30
0.0
 11
668.3324114027
 21
1949.4524884207
 31
0.0
  0
LINE
  5
233
330
1F
100
AcDbEntity
  8
1
  6
SLD-Сплошная
100
AcDbLine
 10
664.4453076638
 20
1950.396111504
 30
0.0
 11
664.2801736242
 21
1949.7158683497
 31
0.0
  0
LINE
  5
234
330
1F
100
AcDbEntity
  8
1
  6
SLD-Сплошная
100
AcDbLine
 10
667.1182256323
 20
1951.4451632348
 30
0.0
 11
666.437982478
 21
1951.6102972744
 31
0.0
  0
CIRCLE
  5
235
330
1F
100
AcDbEntity
  8
1
  6
SLD-Сплошная
100
AcDbCircle
 10
666.3062925134
 20
1949.5841783852
 30
0.0
 40
5.000000000000028
  0
ELLIPSE
  5
236
330
1F
100
AcDbEntity
  8
1
  6
SLD-Сплошная
100
AcDbEllipse
 10
865.2369057322
 20
2109.5841783852
 30
0.0
 11
0.4122489361055841
 21
0.0
 31
0.0
210
0.0
220
0.0
230
1.0
 40
0.9702875252
 41
5.51286627427867
 42
7.053504340081332
  0
SPLINE
  5
237
330
1F
100
AcDbEntity
  8
1
  6
SLD-Сплошная
100
AcDbSpline
210
0.0
220
0.0
230
1.0
 70
     8
 71
     3
 72
    12
 73
     8
 74
     0
 42
0.00000001
 43
0.00000001
 40
0.0
 40
0.0
 40
0.0
 40
0.0
 40
0.2187857887071777
 40
0.4375776469534916
 40
0.6562353658863723
 40
0.8748419359491184
 40
1.0
 40
1.0
 40
1.0
 40
1.0
 10
865.193182019623
 20
2109.305632689089
 30
0.0
 10
865.220145445695
 20
2109.340958085958
 30
0.0
 10
865.2740730458564
 20
2109.411609859691
 30
0.0
 10
865.3066689348298
 20
2109.545573088332
 30
0.0
 10
865.2973198035875
 20
2109.681115714611
 30
0.0
 10
865.2534410455057
 20
2109.790013518905
 30
0.0
 10
865.2092654872193
 20
2109.843317229711
 30
0.0
 10
865.193182019623
 20
2109.862724081345
 30
0.0
  0
ARC
  5
238
330
1F
100
AcDbEntity
  8
1
  6
SLD-Сплошная
100
AcDbCircle
 10
883.5515604942
 20
2126.829446366
 30
0.0
 40
26.56195549538713
100
AcDbArc
 50
223.8816987744
 51
226.1183012256
  0
ARC
  5
239
330
1F
100
AcDbEntity
  8
1
  6
SLD-Сплошная
100
AcDbCircle
 10
850.0648782773
 20
2125.5972013591
 30
0.0
 40
23.41191191632901
100
AcDbArc
 50
310.0824770913
 51
312.9865596106
  0
SPLINE
  5
23A
330
1F
100
AcDbEntity
  8
1
  6
SLD-Сплошная
100
AcDbSpline
210
0.0
220
0.0
230
1.0
 70
     8
 71
     3
 72
    12
 73
     8
 74
     0
 42
0.00000001
 43
0.00000001
 40
0.0
 40
0.0
 40
0.0
 40
0.0
 40
0.2187857887072156
 40
0.4375776469534864
 40
0.6562353658864128
 40
0.8748419359491181
 40
1.0
 40
1.0
 40
1.0
 40
1.0
 10
866.5848382095634
 20
2108.471067891405
 30
0.0
 10
866.5495128126943
 20
2108.498031317477
 30
0.0
 10
866.478861038962
 20
2108.551958917638
 30
0.0
 10
866.344897810321
 20
2108.584554806611
 30
0.0
 10
866.209355184041
 20
2108.575205675369
 30
0.0
 10
866.1004573797469
 20
2108.531326917288
 30
0.0
 10
866.0471536689412
 20
2108.487151359001
 30
0.0
 10
866.0277468173073
 20
2108.471067891405
 30
0.0
  0
ARC
  5
23B
330
1F
100
AcDbEntity
  8
1
  6
SLD-Сплошная
100
AcDbCircle
 10
882.5477067498
 20
2125.5972013593
 30
0.0
 40
23.4119119166148
100
AcDbArc
 50
227.0134403895
 51
229.9175229087
  0
ARC
  5
23C
330
1F
100
AcDbEntity
  8
1
  6
SLD-Сплошная
100
AcDbCircle
 10
849.0610245326
 20
2126.8294463661
 30
0.0
 40
26.56195549557512
100
AcDbArc
 50
313.8816987744
 51
316.1183012256
  0
ARC
  5
23D
330
1F
100
AcDbEntity
  8
1
  6
SLD-Сплошная
100
AcDbCircle
 10
850.2932695398
 20
2093.3427641493
 30
0.0
 40
23.41191191600287
100
AcDbArc
 50
40.0824770913
 51
42.9865596106
  0
SPLINE
  5
23E
330
1F
100
AcDbEntity
  8
1
  6
SLD-Сплошная
100
AcDbSpline
210
0.0
220
0.0
230
1.0
 70
     8
 71
     3
 72
    12
 73
     8
 74
     0
 42
0.00000001
 43
0.00000001
 40
0.0
 40
0.0
 40
0.0
 40
0.0
 40
0.2187857887072251
 40
0.4375776469534808
 40
0.6562353658863884
 40
0.8748419359490995
 40
0.9999999999999999
 40
0.9999999999999999
 40
0.9999999999999999
 40
0.9999999999999999
 10
867.4194030072476
 20
2109.862724081345
 30
0.0
 10
867.3924395811755
 20
2109.827398684476
 30
0.0
 10
867.338511981014
 20
2109.756746910744
 30
0.0
 10
867.3059160920409
 20
2109.622783682103
 30
0.0
 10
867.315265223283
 20
2109.487241055823
 30
0.0
 10
867.3591439813648
 20
2109.378343251529
 30
0.0
 10
867.4033195396513
 20
2109.325039540723
 30
0.0
 10
867.4194030072475
 20
2109.305632689089
 30
0.0
  0
ARC
  5
23F
330
1F
100
AcDbEntity
  8
1
  6
SLD-Сплошная
100
AcDbCircle
 10
850.2932695396
 20
2125.8255926213
 30
0.0
 40
23.41191191625498
100
AcDbArc
 50
317.0134403894
 51
319.9175229087
  0
ARC
  5
240
330
1F
100
AcDbEntity
  8
1
  6
SLD-Сплошная
100
AcDbCircle
 10
849.0610245327
 20
2092.3389104045
 30
0.0
 40
26.56195549531817
100
AcDbArc
 50
43.8816987744
 51
46.1183012256
  0
ARC
  5
241
330
1F
100
AcDbEntity
  8
1
  6
SLD-Сплошная
100
AcDbCircle
 10
882.5477067498
 20
2093.5711554111
 30
0.0
 40
23.41191191661238
100
AcDbArc
 50
130.0824770913
 51
132.9865596105
  0
SPLINE
  5
242
330
1F
100
AcDbEntity
  8
1
  6
SLD-Сплошная
100
AcDbSpline
210
0.0
220
0.0
230
1.0
 70
     8
 71
     3
 72
    12
 73
     8
 74
     0
 42
0.00000001
 43
0.00000001
 40
0.0
 40
0.0
 40
0.0
 40
0.0
 40
0.2187857887071872
 40
0.4375776469534861
 40
0.6562353658863479
 40
0.8748419359491
 40
1.0
 40
1.0
 40
1.0
 40
1.0
 10
866.0277468173073
 20
2110.69728887903
 30
0.0
 10
866.0630722141763
 20
2110.670325452958
 30
0.0
 10
866.1337239879085
 20
2110.616397852796
 30
0.0
 10
866.2676872165496
 20
2110.583801963823
 30
0.0
 10
866.4032298428297
 20
2110.593151095065
 30
0.0
 10
866.5121276471236
 20
2110.637029853147
 30
0.0
 10
866.5654313579295
 20
2110.681205411433
 30
0.0
 10
866.5848382095634
 20
2110.69728887903
 30
0.0
  0
ARC
  5
243
330
1F
100
AcDbEntity
  8
1
  6
SLD-Сплошная
100
AcDbCircle
 10
850.0648782767
 20
2093.5711554107
 30
0.0
 40
23.41191191720132
100
AcDbArc
 50
47.0134403895
 51
49.9175229086
  0
ARC
  5
244
330
1F
100
AcDbEntity
  8
1
  6
SLD-Сплошная
100
AcDbCircle
 10
883.551560494
 20
2092.3389104047
 30
0.0
 40
26.56195549512985
100
AcDbArc
 50
133.8816987744
 51
136.1183012256
  0
ARC
  5
245
330
1F
100
AcDbEntity
  8
1
  6
SLD-Сплошная
100
AcDbCircle
 10
882.3193154872
 20
2125.8255926213
 30
0.0
 40
23.41191191617752
100
AcDbArc
 50
220.0824770913
 51
222.9865596106
  0
ARC
  5
246
330
1F
100
AcDbEntity
  8
1
  6
SLD-Сплошная
100
AcDbCircle
 10
882.3193154871
 20
2093.3427641493
 30
0.0
 40
23.41191191604062
100
AcDbArc
 50
137.0134403894
 51
139.9175229087
  0
CIRCLE
  5
247
330
1F
100
AcDbEntity
  8
1
  6
SLD-Сплошная
100
AcDbCircle
 10
866.3062925134
 20
2109.5841783852
 30
0.0
 40
3.500000000000028
  0
ELLIPSE
  5
248
330
1F
100
AcDbEntity
  8
1
  6
SLD-Сплошная
100
AcDbEllipse
 10
867.3756792947
 20
2109.5841783852
 30
0.0
 11
-0.4122489361056978
 21
0.0
 31
0.0
210
0.0
220
0.0
230
1.0
 40
0.9702875252
 41
5.512866274278284
 42
7.053504340080086
  0
ELLIPSE
  5
249
330
1F
100
AcDbEntity
  8
1
  6
SLD-Сплошная
100
AcDbEllipse
 10
866.3062925134
 20
2110.6535651665
 30
0.0
 11
0.0
 21
-0.4122489361056978
 31
0.0
210
0.0
220
0.0
230
1.0
 40
0.9702875252
 41
5.512866274278742
 42
7.053504340080444
  0
ELLIPSE
  5
24A
330
1F
100
AcDbEntity
  8
1
  6
SLD-Сплошная
100
AcDbEllipse
 10
866.3062925134
 20
2108.5147916039
 30
0.0
 11
0.0
 21
0.4122489361056978
 31
0.0
210
0.0
220
0.0
230
1.0
 40
0.9702875252
 41
5.512866274277832
 42
7.053504340081354
  0
LINE
  5
24B
330
1F
100
AcDbEntity
  8
1
  6
SLD-Сплошная
100
AcDbLine
 10
867.4730187024
 20
2111.484039039
 30
0.0
 11
867.4730187024
 21
2111.245879321
 31
0.0
  0
LINE
  5
24C
330
1F
100
AcDbEntity
  8
1
  6
SLD-Сплошная
100
AcDbLine
 10
867.4730187024
 20
2111.245879321
 30
0.0
 11
866.5848382096
 21
2110.3576988282
 31
0.0
  0
LINE
  5
24D
330
1F
100
AcDbEntity
  8
1
  6
SLD-Сплошная
100
AcDbLine
 10
867.4730187024
 20
2107.6843177314
 30
0.0
 11
867.4730187024
 21
2107.9224774494
 31
0.0
  0
LINE
  5
24E
330
1F
100
AcDbEntity
  8
1
  6
SLD-Сплошная
100
AcDbLine
 10
866.5848382096
 20
2108.8106579423
 30
0.0
 11
867.4730187024
 21
2107.9224774494
 31
0.0
  0
LINE
  5
24F
330
1F
100
AcDbEntity
  8
1
  6
SLD-Сплошная
100
AcDbLine
 10
865.1395663245
 20
2107.6843177314
 30
0.0
 11
865.1395663245
 21
2107.9224774494
 31
0.0
  0
LINE
  5
250
330
1F
100
AcDbEntity
  8
1
  6
SLD-Сплошная
100
AcDbLine
 10
865.1395663245
 20
2107.9224774494
 30
0.0
 11
866.0277468173
 21
2108.8106579423
 31
0.0
  0
LINE
  5
251
330
1F
100
AcDbEntity
  8
1
  6
SLD-Сплошная
100
AcDbLine
 10
868.2061531672
 20
2108.4174521963
 30
0.0
 11
867.9679934492
 21
2108.4174521963
 31
0.0
  0
LINE
  5
252
330
1F
100
AcDbEntity
  8
1
  6
SLD-Сплошная
100
AcDbLine
 10
867.9679934492
 20
2108.4174521963
 30
0.0
 11
867.0798129564
 21
2109.3056326891
 31
0.0
  0
LINE
  5
253
330
1F
100
AcDbEntity
  8
1
  6
SLD-Сплошная
100
AcDbLine
 10
868.2061531672
 20
2110.7509045742
 30
0.0
 11
867.9679934492
 21
2110.7509045742
 31
0.0
  0
LINE
  5
254
330
1F
100
AcDbEntity
  8
1
  6
SLD-Сплошная
100
AcDbLine
 10
867.0798129564
 20
2109.8627240813
 30
0.0
 11
867.9679934492
 21
2110.7509045742
 31
0.0
  0
LINE
  5
255
330
1F
100
AcDbEntity
  8
1
  6
SLD-Сплошная
100
AcDbLine
 10
865.1395663245
 20
2111.484039039
 30
0.0
 11
865.1395663245
 21
2111.245879321
 31
0.0
  0
LINE
  5
256
330
1F
100
AcDbEntity
  8
1
  6
SLD-Сплошная
100
AcDbLine
 10
866.0277468173
 20
2110.3576988282
 30
0.0
 11
865.1395663245
 21
2111.245879321
 31
0.0
  0
LINE
  5
257
330
1F
100
AcDbEntity
  8
1
  6
SLD-Сплошная
100
AcDbLine
 10
864.4064318596
 20
2108.4174521963
 30
0.0
 11
864.6445915776
 21
2108.4174521963
 31
0.0
  0
LINE
  5
258
330
1F
100
AcDbEntity
  8
1
  6
SLD-Сплошная
100
AcDbLine
 10
865.5327720705
 20
2109.3056326891
 30
0.0
 11
864.6445915776
 21
2108.4174521963
 31
0.0
  0
LINE
  5
259
330
1F
100
AcDbEntity
  8
1
  6
SLD-Сплошная
100
AcDbLine
 10
864.4064318596
 20
2110.7509045742
 30
0.0
 11
864.6445915776
 21
2110.7509045742
 31
0.0
  0
LINE
  5
25A
330
1F
100
AcDbEntity
  8
1
  6
SLD-Сплошная
100
AcDbLine
 10
864.6445915776
 20
2110.7509045742
 30
0.0
 11
865.5327720705
 21
2109.8627240813
 31
0.0
  0
LINE
  5
25B
330
1F
100
AcDbEntity
  8
1
  6
SLD-Сплошная
100
AcDbLine
 10
867.9679934492
 20
2110.7509045742
 30
0.0
 11
867.4730187024
 21
2111.245879321
 31
0.0
  0
LINE
  5
25C
330
1F
100
AcDbEntity
  8
1
  6
SLD-Сплошная
100
AcDbLine
 10
864.6445915776
 20
2108.4174521963
 30
0.0
 11
865.1395663245
 21
2107.9224774494
 31
0.0
  0
LINE
  5
25D
330
1F
100
AcDbEntity
  8
1
  6
SLD-Сплошная
100
AcDbLine
 10
865.1395663245
 20
2111.245879321
 30
0.0
 11
864.6445915776
 21
2110.7509045742
 31
0.0
  0
LINE
  5
25E
330
1F
100
AcDbEntity
  8
1
  6
SLD-Сплошная
100
AcDbLine
 10
867.4730187024
 20
2107.9224774494
 30
0.0
 11
867.9679934492
 21
2108.4174521963
 31
0.0
  0
CIRCLE
  5
25F
330
1F
100
AcDbEntity
  8
1
  6
SLD-Сплошная
100
AcDbCircle
 10
866.3062925134
 20
2109.5841783852
 30
0.0
 40
4.999999999999718
  0
ELLIPSE
  5
260
330
1F
100
AcDbEntity
  8
1
  6
SLD-Сплошная
100
AcDbEllipse
 10
665.3930790595
 20
2110.1406218015
 30
0.0
 11
0.3520440699439859
 21
-0.2145091096840588
 31
0.0
210
0.0
220
0.0
230
1.0
 40
0.9702875252
 41
5.512866274278718
 42
7.053504340080198
  0
SPLINE
  5
261
330
1F
100
AcDbEntity
  8
1
  6
SLD-Сплошная
100
AcDbSpline
210
0.0
220
0.0
230
1.0
 70
     8
 71
     3
 72
    12
 73
     8
 74
     0
 42
0.00000001
 43
0.00000001
 40
0.0
 40
0.0
 40
0.0
 40
0.0
 40
0.2187857887072072
 40
0.4375776469534887
 40
0.6562353658864066
 40
0.8748419359491021
 40
1.0
 40
1.0
 40
1.0
 40
1.0
 10
665.2108026327626
 20
2109.925506083493
 30
0.0
 10
665.2522094920425
 20
2109.941642440394
 30
0.0
 10
665.3350243593085
 20
2109.973915601851
 30
0.0
 10
665.4325662055134
 20
2110.071353925138
 30
0.0
 10
665.4951105073088
 20
2110.19196661148
 30
0.0
 10
665.5143035573655
 20
2110.307792791683
 30
0.0
 10
665.5043153889974
 20
2110.376298280721
 30
0.0
 10
665.500678889799
 20
2110.401239806212
 30
0.0
  0
ELLIPSE
  5
262
330
1F
100
AcDbEntity
  8
1
  6
SLD-Сплошная
100
AcDbEllipse
 10
667.2195059674
 20
2109.0277349689
 30
0.0
 11
-0.3520440699438723
 21
0.2145091096845136
 31
0.0
210
0.0
220
0.0
230
1.0
 40
0.9702875252
 41
5.51286627427915
 42
7.053504340081881
  0
SPLINE
  5
263
330
1F
100
AcDbEntity
  8
1
  6
SLD-Сплошная
100
AcDbSpline
210
0.0
220
0.0
230
1.0
 70
     8
 71
     3
 72
    12
 73
     8
 74
     0
 42
0.00000001
 43
0.00000001
 40
0.0
 40
0.0
 40
0.0
 40
0.0
 40
0.2187857887071942
 40
0.437577646953462
 40
0.6562353658863628
 40
0.8748419359490655
 40
0.9999999999999999
 40
0.9999999999999999
 40
0.9999999999999999
 40
0.9999999999999999
 10
667.4017823941081
 20
2109.242850686941
 30
0.0
 10
667.3603755348281
 20
2109.22671433004
 30
0.0
 10
667.2775606675622
 20
2109.194441168583
 30
0.0
 10
667.1800188213573
 20
2109.097002845296
 30
0.0
 10
667.1174745195618
 20
2108.976390158954
 30
0.0
 10
667.0982814695052
 20
2108.860563978751
 30
0.0
 10
667.1082696378733
 20
2108.792058489714
 30
0.0
 10
667.1119061370716
 20
2108.767116964222
 30
0.0
  0
ARC
  5
264
330
1F
100
AcDbEntity
  8
1
  6
SLD-Сплошная
100
AcDbCircle
 10
690.0064419918
 20
2115.3375643583
 30
0.0
 40
26.56195549526873
100
AcDbArc
 50
192.5267196435
 51
194.7633220948
  0
ARC
  5
265
330
1F
100
AcDbEntity
  8
1
  6
SLD-Сплошная
100
AcDbCircle
 10
660.7689725402
 20
2131.7096959759
 30
0.0
 40
23.41191191615774
100
AcDbArc
 50
278.7274979604
 51
281.6315804797
  0
SPLINE
  5
266
330
1F
100
AcDbEntity
  8
1
  6
SLD-Сплошная
100
AcDbSpline
210
0.0
220
0.0
230
1.0
 70
     8
 71
     3
 72
    12
 73
     8
 74
     0
 42
0.00000001
 43
0.00000001
 40
0.0
 40
0.0
 40
0.0
 40
0.0
 40
0.2187857887072228
 40
0.4375776469534773
 40
0.6562353658863977
 40
0.8748419359490989
 40
1.0
 40
1.0
 40
1.0
 40
1.0
 10
665.9649648151598
 20
2108.488688504544
 30
0.0
 10
665.9488284582579
 20
2108.530095363824
 30
0.0
 10
665.916555296801
 20
2108.61291023109
 30
0.0
 10
665.8191169735147
 20
2108.710452077295
 30
0.0
 10
665.6985042871721
 20
2108.77299637909
 30
0.0
 10
665.5826781069694
 20
2108.792189429147
 30
0.0
 10
665.5141726179319
 20
2108.782201260779
 30
0.0
 10
665.4892310924405
 20
2108.778564761581
 30
0.0
  0
ARC
  5
267
330
1F
100
AcDbEntity
  8
1
  6
SLD-Сплошная
100
AcDbCircle
 10
688.5080062575
 20
2114.8076205421
 30
0.0
 40
23.41191191603434
100
AcDbArc
 50
195.6584612585
 51
198.5625437778
  0
ARC
  5
268
330
1F
100
AcDbEntity
  8
1
  6
SLD-Сплошная
100
AcDbCircle
 10
660.55290654
 20
2133.284327865
 30
0.0
 40
26.56195549676419
100
AcDbArc
 50
282.5267196436
 51
284.7633220947
  0
ARC
  5
269
330
1F
100
AcDbEntity
  8
1
  6
SLD-Сплошная
100
AcDbCircle
 10
644.1807749229
 20
2104.046858412
 30
0.0
 40
23.41191191599052
100
AcDbArc
 50
8.7274979604
 51
11.6315804797
  0
ARC
  5
26A
330
1F
100
AcDbEntity
  8
1
  6
SLD-Сплошная
100
AcDbCircle
 10
661.0828503563
 20
2131.7858921302
 30
0.0
 40
23.41191191702622
100
AcDbArc
 50
285.6584612586
 51
288.5625437778
  0
ARC
  5
26B
330
1F
100
AcDbEntity
  8
1
  6
SLD-Сплошная
100
AcDbCircle
 10
642.6061430346
 20
2103.8307924121
 30
0.0
 40
26.56195549579606
100
AcDbArc
 50
12.5267196435
 51
14.7633220947
  0
ARC
  5
26C
330
1F
100
AcDbEntity
  8
1
  6
SLD-Сплошная
100
AcDbCircle
 10
671.8436124866
 20
2087.4586607947
 30
0.0
 40
23.41191191595628
100
AcDbArc
 50
98.7274979604
 51
101.6315804797
  0
SPLINE
  5
26D
330
1F
100
AcDbEntity
  8
1
  6
SLD-Сплошная
100
AcDbSpline
210
0.0
220
0.0
230
1.0
 70
     8
 71
     3
 72
    12
 73
     8
 74
     0
 42
0.00000001
 43
0.00000001
 40
0.0
 40
0.0
 40
0.0
 40
0.0
 40
0.2187857887072138
 40
0.4375776469534918
 40
0.6562353658863795
 40
0.8748419359490993
 40
1.0
 40
1.0
 40
1.0
 40
1.0
 10
666.6476202117109
 20
2110.67966826589
 30
0.0
 10
666.6637565686126
 20
2110.63826140661
 30
0.0
 10
666.6960297300698
 20
2110.555446539344
 30
0.0
 10
666.7934680533559
 20
2110.457904693139
 30
0.0
 10
666.9140807396986
 20
2110.395360391343
 30
0.0
 10
667.0299069199012
 20
2110.376167341287
 30
0.0
 10
667.0984124089388
 20
2110.386155509655
 30
0.0
 10
667.1233539344302
 20
2110.389792008853
 30
0.0
  0
ARC
  5
26E
330
1F
100
AcDbEntity
  8
1
  6
SLD-Сплошная
100
AcDbCircle
 10
644.1045787692
 20
2104.3607362283
 30
0.0
 40
23.41191191625748
100
AcDbArc
 50
15.6584612586
 51
18.5625437778
  0
ARC
  5
26F
330
1F
100
AcDbEntity
  8
1
  6
SLD-Сплошная
100
AcDbCircle
 10
672.0596784864
 20
2085.8840289073
 30
0.0
 40
26.56195549489741
100
AcDbArc
 50
102.5267196435
 51
104.7633220948
  0
ARC
  5
270
330
1F
100
AcDbEntity
  8
1
  6
SLD-Сплошная
100
AcDbCircle
 10
688.431810104
 20
2115.1214983584
 30
0.0
 40
23.4119119160261
100
AcDbArc
 50
188.7274979604
 51
191.6315804797
  0
ARC
  5
271
330
1F
100
AcDbEntity
  8
1
  6
SLD-Сплошная
100
AcDbCircle
 10
671.5297346703
 20
2087.3824646411
 30
0.0
 40
23.41191191616392
100
AcDbArc
 50
105.6584612585
 51
108.5625437778
  0
CIRCLE
  5
272
330
1F
100
AcDbEntity
  8
1
  6
SLD-Сплошная
100
AcDbCircle
 10
666.3062925134
 20
2109.5841783852
 30
0.0
 40
3.499999999999991
  0
ELLIPSE
  5
273
330
1F
100
AcDbEntity
  8
1
  6
SLD-Сплошная
100
AcDbEllipse
 10
665.7498490972
 20
2108.6709649313
 30
0.0
 11
0.2145091096840588
 21
0.3520440699439859
 31
0.0
210
0.0
220
0.0
230
1.0
 40
0.9702875252
 41
5.512866274278108
 42
7.05350434008044
  0
ELLIPSE
  5
274
330
1F
100
AcDbEntity
  8
1
  6
SLD-Сплошная
100
AcDbEllipse
 10
666.8627359297
 20
2110.4973918392
 30
0.0
 11
-0.2145091096841724
 21
-0.352044069943986
 31
0.0
210
0.0
220
0.0
230
1.0
 40
0.9702875252
 41
5.512866274277728
 42
7.05350434008048
  0
LINE
  5
275
330
1F
100
AcDbEntity
  8
1
  6
SLD-Сплошная
100
AcDbLine
 10
668.2912011009
 20
2110.5994903586
 30
0.0
 11
668.1672773631
 21
2110.396111504
 31
0.0
  0
LINE
  5
276
330
1F
100
AcDbEntity
  8
1
  6
SLD-Сплошная
100
AcDbLine
 10
668.1672773631
 20
2110.396111504
 30
0.0
 11
666.9466520607
 21
2110.099795715
 31
0.0
  0
LINE
  5
277
330
1F
100
AcDbEntity
  8
1
  6
SLD-Сплошная
100
AcDbLine
 10
668.5357902572
 20
2109.5919446119
 30
0.0
 11
668.3324114027
 21
2109.7158683497
 31
0.0
  0
LINE
  5
278
330
1F
100
AcDbEntity
  8
1
  6
SLD-Сплошная
100
AcDbLine
 10
667.1117861003
 20
2109.4195525607
 30
0.0
 11
668.3324114027
 21
2109.7158683497
 31
0.0
  0
LINE
  5
279
330
1F
100
AcDbEntity
  8
1
  6
SLD-Сплошная
100
AcDbLine
 10
666.3140587401
 20
2107.3546806414
 30
0.0
 11
666.437982478
 21
2107.558059496
 31
0.0
  0
LINE
  5
27A
330
1F
100
AcDbEntity
  8
1
  6
SLD-Сплошная
100
AcDbLine
 10
666.1416666889
 20
2108.7786847984
 30
0.0
 11
666.437982478
 21
2107.558059496
 31
0.0
  0
LINE
  5
27B
330
1F
100
AcDbEntity
  8
1
  6
SLD-Сплошная
100
AcDbLine
 10
666.2985262867
 20
2111.813676129
 30
0.0
 11
666.1746025489
 21
2111.6102972744
 31
0.0
  0
LINE
  5
27C
330
1F
100
AcDbEntity
  8
1
  6
SLD-Сплошная
100
AcDbLine
 10
666.4709183379
 20
2110.389671972
 30
0.0
 11
666.1746025489
 21
2111.6102972744
 31
0.0
  0
LINE
  5
27D
330
1F
100
AcDbEntity
  8
1
  6
SLD-Сплошная
100
AcDbLine
 10
664.0767947696
 20
2109.5764121585
 30
0.0
 11
664.2801736242
 21
2109.4524884207
 31
0.0
  0
LINE
  5
27E
330
1F
100
AcDbEntity
  8
1
  6
SLD-Сплошная
100
AcDbLine
 10
665.5007989266
 20
2109.7488042097
 30
0.0
 11
664.2801736242
 21
2109.4524884207
 31
0.0
  0
LINE
  5
27F
330
1F
100
AcDbEntity
  8
1
  6
SLD-Сплошная
100
AcDbLine
 10
664.321383926
 20
2108.5688664118
 30
0.0
 11
664.4453076638
 21
2108.7722452664
 31
0.0
  0
LINE
  5
280
330
1F
100
AcDbEntity
  8
1
  6
SLD-Сплошная
100
AcDbLine
 10
664.4453076638
 20
2108.7722452664
 30
0.0
 11
665.6659329662
 21
2109.0685610554
 31
0.0
  0
LINE
  5
281
330
1F
100
AcDbEntity
  8
1
  6
SLD-Сплошная
100
AcDbLine
 10
667.3216044868
 20
2107.5992697978
 30
0.0
 11
667.1182256323
 21
2107.7231935356
 31
0.0
  0
LINE
  5
282
330
1F
100
AcDbEntity
  8
1
  6
SLD-Сплошная
100
AcDbLine
 10
667.1182256323
 20
2107.7231935356
 30
0.0
 11
666.8219098432
 21
2108.943818838
 31
0.0
  0
LINE
  5
283
330
1F
100
AcDbEntity
  8
1
  6
SLD-Сплошная
100
AcDbLine
 10
665.29098054
 20
2111.5690869727
 30
0.0
 11
665.4943593946
 21
2111.4451632348
 31
0.0
  0
LINE
  5
284
330
1F
100
AcDbEntity
  8
1
  6
SLD-Сплошная
100
AcDbLine
 10
665.4943593946
 20
2111.4451632348
 30
0.0
 11
665.7906751837
 21
2110.2245379324
 31
0.0
  0
LINE
  5
285
330
1F
100
AcDbEntity
  8
1
  6
SLD-Сплошная
100
AcDbLine
 10
664.2801736242
 20
2109.4524884207
 30
0.0
 11
664.4453076638
 21
2108.7722452664
 31
0.0
  0
LINE
  5
286
330
1F
100
AcDbEntity
  8
1
  6
SLD-Сплошная
100
AcDbLine
 10
666.1746025489
 20
2111.6102972744
 30
0.0
 11
665.4943593946
 21
2111.4451632348
 31
0.0
  0
LINE
  5
287
330
1F
100
AcDbEntity
  8
1
  6
SLD-Сплошная
100
AcDbLine
 10
668.3324114027
 20
2109.7158683497
 30
0.0
 11
668.1672773631
 21
2110.396111504
 31
0.0
  0
LINE
  5
288
330
1F
100
AcDbEntity
  8
1
  6
SLD-Сплошная
100
AcDbLine
 10
666.437982478
 20
2107.558059496
 30
0.0
 11
667.1182256323
 21
2107.7231935356
 31
0.0
  0
CIRCLE
  5
289
330
1F
100
AcDbEntity
  8
1
  6
SLD-Сплошная
100
AcDbCircle
 10
666.3062925134
 20
2109.5841783852
 30
0.0
 40
4.999999999999972
  0
ELLIPSE
  5
28A
330
1F
100
AcDbEntity
  8
1
  6
SLD-Сплошная
100
AcDbEllipse
 10
467.3756792947
 20
2109.5841783852
 30
0.0
 11
-0.4122489361056409
 21
0.0
 31
0.0
210
0.0
220
0.0
230
1.0
 40
0.9702875252
 41
5.512866274278354
 42
7.053504340080017
  0
SPLINE
  5
28B
330
1F
100
AcDbEntity
  8
1
  6
SLD-Сплошная
100
AcDbSpline
210
0.0
220
0.0
230
1.0
 70
     8
 71
     3
 72
    12
 73
     8
 74
     0
 42
0.00000001
 43
0.00000001
 40
0.0
 40
0.0
 40
0.0
 40
0.0
 40
0.2187857887072251
 40
0.4375776469534808
 40
0.6562353658863884
 40
0.8748419359490995
 40
0.9999999999999999
 40
0.9999999999999999
 40
0.9999999999999999
 40
0.9999999999999999
 10
467.4194030072476
 20
2109.862724081345
 30
0.0
 10
467.3924395811755
 20
2109.827398684476
 30
0.0
 10
467.338511981014
 20
2109.756746910744
 30
0.0
 10
467.3059160920409
 20
2109.622783682103
 30
0.0
 10
467.3152652232831
 20
2109.487241055823
 30
0.0
 10
467.3591439813649
 20
2109.378343251529
 30
0.0
 10
467.4033195396514
 20
2109.325039540723
 30
0.0
 10
467.4194030072476
 20
2109.305632689089
 30
0.0
  0
ARC
  5
28C
330
1F
100
AcDbEntity
  8
1
  6
SLD-Сплошная
100
AcDbCircle
 10
483.5515604941
 20
2126.8294463659
 30
0.0
 40
26.56195549528174
100
AcDbArc
 50
223.8816987744
 51
226.1183012256
  0
ARC
  5
28D
330
1F
100
AcDbEntity
  8
1
  6
SLD-Сплошная
100
AcDbCircle
 10
450.0648782777
 20
2125.5972013586
 30
0.0
 40
23.41191191572945
100
AcDbArc
 50
310.0824770913
 51
312.9865596106
  0
SPLINE
  5
28E
330
1F
100
AcDbEntity
  8
1
  6
SLD-Сплошная
100
AcDbSpline
210
0.0
220
0.0
230
1.0
 70
     8
 71
     3
 72
    12
 73
     8
 74
     0
 42
0.00000001
 43
0.00000001
 40
0.0
 40
0.0
 40
0.0
 40
0.0
 40
0.2187857887072156
 40
0.4375776469534864
 40
0.6562353658864128
 40
0.8748419359491181
 40
1.0
 40
1.0
 40
1.0
 40
1.0
 10
466.5848382095633
 20
2108.471067891405
 30
0.0
 10
466.5495128126944
 20
2108.498031317477
 30
0.0
 10
466.478861038962
 20
2108.551958917638
 30
0.0
 10
466.3448978103209
 20
2108.584554806611
 30
0.0
 10
466.2093551840409
 20
2108.575205675369
 30
0.0
 10
466.1004573797471
 20
2108.531326917288
 30
0.0
 10
466.0471536689411
 20
2108.487151359001
 30
0.0
 10
466.0277468173073
 20
2108.471067891405
 30
0.0
  0
ARC
  5
28F
330
1F
100
AcDbEntity
  8
1
  6
SLD-Сплошная
100
AcDbCircle
 10
482.5477067496
 20
2125.5972013591
 30
0.0
 40
23.41191191632005
100
AcDbArc
 50
227.0134403894
 51
229.9175229087
  0
ARC
  5
290
330
1F
100
AcDbEntity
  8
1
  6
SLD-Сплошная
100
AcDbCircle
 10
449.0610245325
 20
2126.8294463661
 30
0.0
 40
26.56195549561276
100
AcDbArc
 50
313.8816987744
 51
316.1183012256
  0
ARC
  5
291
330
1F
100
AcDbEntity
  8
1
  6
SLD-Сплошная
100
AcDbCircle
 10
450.2932695398
 20
2093.3427641493
 30
0.0
 40
23.4119119160467
100
AcDbArc
 50
40.0824770913
 51
42.9865596106
  0
ARC
  5
292
330
1F
100
AcDbEntity
  8
1
  6
SLD-Сплошная
100
AcDbCircle
 10
450.2932695396
 20
2125.8255926214
 30
0.0
 40
23.41191191635827
100
AcDbArc
 50
317.0134403894
 51
319.9175229087
  0
ARC
  5
293
330
1F
100
AcDbEntity
  8
1
  6
SLD-Сплошная
100
AcDbCircle
 10
449.0610245318
 20
2092.3389104036
 30
0.0
 40
26.56195549660642
100
AcDbArc
 50
43.8816987744
 51
46.1183012256
  0
ARC
  5
294
330
1F
100
AcDbEntity
  8
1
  6
SLD-Сплошная
100
AcDbCircle
 10
482.5477067498
 20
2093.5711554111
 30
0.0
 40
23.41191191667572
100
AcDbArc
 50
130.0824770914
 51
132.9865596106
  0
SPLINE
  5
295
330
1F
100
AcDbEntity
  8
1
  6
SLD-Сплошная
100
AcDbSpline
210
0.0
220
0.0
230
1.0
 70
     8
 71
     3
 72
    12
 73
     8
 74
     0
 42
0.00000001
 43
0.00000001
 40
0.0
 40
0.0
 40
0.0
 40
0.0
 40
0.2187857887071872
 40
0.4375776469534861
 40
0.6562353658863479
 40
0.8748419359491
 40
1.0
 40
1.0
 40
1.0
 40
1.0
 10
466.0277468173073
 20
2110.697288879029
 30
0.0
 10
466.0630722141763
 20
2110.670325452958
 30
0.0
 10
466.1337239879086
 20
2110.616397852796
 30
0.0
 10
466.2676872165497
 20
2110.583801963823
 30
0.0
 10
466.4032298428296
 20
2110.593151095065
 30
0.0
 10
466.5121276471236
 20
2110.637029853147
 30
0.0
 10
466.5654313579295
 20
2110.681205411433
 30
0.0
 10
466.5848382095633
 20
2110.697288879029
 30
0.0
  0
ARC
  5
296
330
1F
100
AcDbEntity
  8
1
  6
SLD-Сплошная
100
AcDbCircle
 10
450.0648782772
 20
2093.5711554112
 30
0.0
 40
23.41191191651024
100
AcDbArc
 50
47.0134403894
 51
49.9175229087
  0
ARC
  5
297
330
1F
100
AcDbEntity
  8
1
  6
SLD-Сплошная
100
AcDbCircle
 10
483.5515604946
 20
2092.3389104041
 30
0.0
 40
26.56195549591482
100
AcDbArc
 50
133.8816987744
 51
136.1183012256
  0
ARC
  5
298
330
1F
100
AcDbEntity
  8
1
  6
SLD-Сплошная
100
AcDbCircle
 10
482.3193154872
 20
2125.8255926212
 30
0.0
 40
23.41191191617182
100
AcDbArc
 50
220.0824770913
 51
222.9865596106
  0
SPLINE
  5
299
330
1F
100
AcDbEntity
  8
1
  6
SLD-Сплошная
100
AcDbSpline
210
0.0
220
0.0
230
1.0
 70
     8
 71
     3
 72
    12
 73
     8
 74
     0
 42
0.00000001
 43
0.00000001
 40
0.0
 40
0.0
 40
0.0
 40
0.0
 40
0.2187857887071777
 40
0.4375776469534916
 40
0.6562353658863723
 40
0.8748419359491184
 40
1.0
 40
1.0
 40
1.0
 40
1.0
 10
465.1931820196231
 20
2109.305632689089
 30
0.0
 10
465.2201454456951
 20
2109.340958085958
 30
0.0
 10
465.2740730458567
 20
2109.411609859691
 30
0.0
 10
465.3066689348296
 20
2109.545573088331
 30
0.0
 10
465.2973198035876
 20
2109.681115714611
 30
0.0
 10
465.2534410455058
 20
2109.790013518905
 30
0.0
 10
465.2092654872192
 20
2109.843317229711
 30
0.0
 10
465.1931820196231
 20
2109.862724081345
 30
0.0
  0
ARC
  5
29A
330
1F
100
AcDbEntity
  8
1
  6
SLD-Сплошная
100
AcDbCircle
 10
482.3193154869
 20
2093.3427641494
 30
0.0
 40
23.41191191583616
100
AcDbArc
 50
137.0134403894
 51
139.9175229087
  0
CIRCLE
  5
29B
330
1F
100
AcDbEntity
  8
1
  6
SLD-Сплошная
100
AcDbCircle
 10
466.3062925134
 20
2109.5841783852
 30
0.0
 40
3.500000000000028
  0
ELLIPSE
  5
29C
330
1F
100
AcDbEntity
  8
1
  6
SLD-Сплошная
100
AcDbEllipse
 10
465.2369057322
 20
2109.5841783852
 30
0.0
 11
0.4122489361056978
 21
0.0
 31
0.0
210
0.0
220
0.0
230
1.0
 40
0.9702875252
 41
5.512866274278436
 42
7.053504340081566
  0
ELLIPSE
  5
29D
330
1F
100
AcDbEntity
  8
1
  6
SLD-Сплошная
100
AcDbEllipse
 10
466.3062925134
 20
2110.6535651665
 30
0.0
 11
0.0
 21
-0.412248936105243
 31
0.0
210
0.0
220
0.0
230
1.0
 40
0.9702875252
 41
5.512866274278566
 42
7.053504340080314
  0
ELLIPSE
  5
29E
330
1F
100
AcDbEntity
  8
1
  6
SLD-Сплошная
100
AcDbEllipse
 10
466.3062925134
 20
2108.5147916039
 30
0.0
 11
0.0
 21
0.4122489361056978
 31
0.0
210
0.0
220
0.0
230
1.0
 40
0.9702875252
 41
5.512866274278107
 42
7.053504340081385
  0
LINE
  5
29F
330
1F
100
AcDbEntity
  8
1
  6
SLD-Сплошная
100
AcDbLine
 10
464.4064318596
 20
2108.4174521963
 30
0.0
 11
464.6445915776
 21
2108.4174521963
 31
0.0
  0
LINE
  5
2A0
330
1F
100
AcDbEntity
  8
1
  6
SLD-Сплошная
100
AcDbLine
 10
465.5327720705
 20
2109.3056326891
 30
0.0
 11
464.6445915776
 21
2108.4174521963
 31
0.0
  0
LINE
  5
2A1
330
1F
100
AcDbEntity
  8
1
  6
SLD-Сплошная
100
AcDbLine
 10
467.4730187024
 20
2107.6843177314
 30
0.0
 11
467.4730187024
 21
2107.9224774494
 31
0.0
  0
LINE
  5
2A2
330
1F
100
AcDbEntity
  8
1
  6
SLD-Сплошная
100
AcDbLine
 10
466.5848382096
 20
2108.8106579423
 30
0.0
 11
467.4730187024
 21
2107.9224774494
 31
0.0
  0
LINE
  5
2A3
330
1F
100
AcDbEntity
  8
1
  6
SLD-Сплошная
100
AcDbLine
 10
468.2061531672
 20
2110.7509045742
 30
0.0
 11
467.9679934492
 21
2110.7509045742
 31
0.0
  0
LINE
  5
2A4
330
1F
100
AcDbEntity
  8
1
  6
SLD-Сплошная
100
AcDbLine
 10
467.0798129564
 20
2109.8627240813
 30
0.0
 11
467.9679934492
 21
2110.7509045742
 31
0.0
  0
LINE
  5
2A5
330
1F
100
AcDbEntity
  8
1
  6
SLD-Сплошная
100
AcDbLine
 10
464.4064318596
 20
2110.7509045742
 30
0.0
 11
464.6445915776
 21
2110.7509045742
 31
0.0
  0
LINE
  5
2A6
330
1F
100
AcDbEntity
  8
1
  6
SLD-Сплошная
100
AcDbLine
 10
464.6445915776
 20
2110.7509045742
 30
0.0
 11
465.5327720705
 21
2109.8627240813
 31
0.0
  0
LINE
  5
2A7
330
1F
100
AcDbEntity
  8
1
  6
SLD-Сплошная
100
AcDbLine
 10
465.1395663245
 20
2107.6843177314
 30
0.0
 11
465.1395663245
 21
2107.9224774494
 31
0.0
  0
LINE
  5
2A8
330
1F
100
AcDbEntity
  8
1
  6
SLD-Сплошная
100
AcDbLine
 10
465.1395663245
 20
2107.9224774494
 30
0.0
 11
466.0277468173
 21
2108.8106579423
 31
0.0
  0
LINE
  5
2A9
330
1F
100
AcDbEntity
  8
1
  6
SLD-Сплошная
100
AcDbLine
 10
465.1395663245
 20
2111.484039039
 30
0.0
 11
465.1395663245
 21
2111.245879321
 31
0.0
  0
LINE
  5
2AA
330
1F
100
AcDbEntity
  8
1
  6
SLD-Сплошная
100
AcDbLine
 10
466.0277468173
 20
2110.3576988282
 30
0.0
 11
465.1395663245
 21
2111.245879321
 31
0.0
  0
LINE
  5
2AB
330
1F
100
AcDbEntity
  8
1
  6
SLD-Сплошная
100
AcDbLine
 10
467.4730187024
 20
2111.484039039
 30
0.0
 11
467.4730187024
 21
2111.245879321
 31
0.0
  0
LINE
  5
2AC
330
1F
100
AcDbEntity
  8
1
  6
SLD-Сплошная
100
AcDbLine
 10
467.4730187024
 20
2111.245879321
 30
0.0
 11
466.5848382096
 21
2110.3576988282
 31
0.0
  0
LINE
  5
2AD
330
1F
100
AcDbEntity
  8
1
  6
SLD-Сплошная
100
AcDbLine
 10
468.2061531672
 20
2108.4174521963
 30
0.0
 11
467.9679934492
 21
2108.4174521963
 31
0.0
  0
LINE
  5
2AE
330
1F
100
AcDbEntity
  8
1
  6
SLD-Сплошная
100
AcDbLine
 10
467.9679934492
 20
2108.4174521963
 30
0.0
 11
467.0798129564
 21
2109.3056326891
 31
0.0
  0
LINE
  5
2AF
330
1F
100
AcDbEntity
  8
1
  6
SLD-Сплошная
100
AcDbLine
 10
464.6445915776
 20
2108.4174521963
 30
0.0
 11
465.1395663245
 21
2107.9224774494
 31
0.0
  0
LINE
  5
2B0
330
1F
100
AcDbEntity
  8
1
  6
SLD-Сплошная
100
AcDbLine
 10
465.1395663245
 20
2111.245879321
 30
0.0
 11
464.6445915776
 21
2110.7509045742
 31
0.0
  0
LINE
  5
2B1
330
1F
100
AcDbEntity
  8
1
  6
SLD-Сплошная
100
AcDbLine
 10
467.9679934492
 20
2110.7509045742
 30
0.0
 11
467.4730187024
 21
2111.245879321
 31
0.0
  0
LINE
  5
2B2
330
1F
100
AcDbEntity
  8
1
  6
SLD-Сплошная
100
AcDbLine
 10
467.4730187024
 20
2107.9224774494
 30
0.0
 11
467.9679934492
 21
2108.4174521963
 31
0.0
  0
CIRCLE
  5
2B3
330
1F
100
AcDbEntity
  8
1
  6
SLD-Сплошная
100
AcDbCircle
 10
466.3062925134
 20
2109.5841783852
 30
0.0
 40
4.999999999999799
  0
ELLIPSE
  5
2B4
330
1F
100
AcDbEntity
  8
1
  6
SLD-Сплошная
100
AcDbEllipse
 10
766.3062925134
 20
2108.5147916039
 30
0.0
 11
0.0
 21
0.4122489361056978
 31
0.0
210
0.0
220
0.0
230
1.0
 40
0.9702875252
 41
5.512866274278179
 42
7.053504340081211
  0
SPLINE
  5
2B5
330
1F
100
AcDbEntity
  8
1
  6
SLD-Сплошная
100
AcDbSpline
210
0.0
220
0.0
230
1.0
 70
     8
 71
     3
 72
    12
 73
     8
 74
     0
 42
0.00000001
 43
0.00000001
 40
0.0
 40
0.0
 40
0.0
 40
0.0
 40
0.218785788707216
 40
0.4375776469534873
 40
0.6562353658863915
 40
0.8748419359491179
 40
1.0
 40
1.0
 40
1.0
 40
1.0
 10
766.5848382095634
 20
2108.471067891405
 30
0.0
 10
766.5495128126945
 20
2108.498031317477
 30
0.0
 10
766.478861038962
 20
2108.551958917638
 30
0.0
 10
766.3448978103208
 20
2108.584554806611
 30
0.0
 10
766.209355184041
 20
2108.575205675369
 30
0.0
 10
766.100457379747
 20
2108.531326917288
 30
0.0
 10
766.0471536689412
 20
2108.487151359001
 30
0.0
 10
766.0277468173074
 20
2108.471067891405
 30
0.0
  0
ELLIPSE
  5
2B6
330
1F
100
AcDbEntity
  8
1
  6
SLD-Сплошная
100
AcDbEllipse
 10
767.3756792947
 20
2109.5841783852
 30
0.0
 11
-0.4122489361055841
 21
0.0
 31
0.0
210
0.0
220
0.0
230
1.0
 40
0.9702875252
 41
5.512866274278423
 42
7.053504340079948
  0
SPLINE
  5
2B7
330
1F
100
AcDbEntity
  8
1
  6
SLD-Сплошная
100
AcDbSpline
210
0.0
220
0.0
230
1.0
 70
     8
 71
     3
 72
    12
 73
     8
 74
     0
 42
0.00000001
 43
0.00000001
 40
0.0
 40
0.0
 40
0.0
 40
0.0
 40
0.2187857887072159
 40
0.4375776469534802
 40
0.6562353658863924
 40
0.8748419359490979
 40
1.0
 40
1.0
 40
1.0
 40
1.0
 10
767.4194030072476
 20
2109.862724081345
 30
0.0
 10
767.3924395811755
 20
2109.827398684476
 30
0.0
 10
767.3385119810141
 20
2109.756746910744
 30
0.0
 10
767.3059160920409
 20
2109.622783682103
 30
0.0
 10
767.3152652232831
 20
2109.487241055822
 30
0.0
 10
767.3591439813648
 20
2109.378343251529
 30
0.0
 10
767.4033195396513
 20
2109.325039540723
 30
0.0
 10
767.4194030072476
 20
2109.305632689089
 30
0.0
  0
ELLIPSE
  5
2B8
330
1F
100
AcDbEntity
  8
1
  6
SLD-Сплошная
100
AcDbEllipse
 10
766.3062925134
 20
2110.6535651665
 30
0.0
 11
0.0
 21
-0.412248936105243
 31
0.0
210
0.0
220
0.0
230
1.0
 40
0.9702875252
 41
5.512866274278668
 42
7.053504340080314
  0
SPLINE
  5
2B9
330
1F
100
AcDbEntity
  8
1
  6
SLD-Сплошная
100
AcDbSpline
210
0.0
220
0.0
230
1.0
 70
     8
 71
     3
 72
    12
 73
     8
 74
     0
 42
0.00000001
 43
0.00000001
 40
0.0
 40
0.0
 40
0.0
 40
0.0
 40
0.2187857887072251
 40
0.4375776469534808
 40
0.6562353658863884
 40
0.8748419359490995
 40
0.9999999999999999
 40
0.9999999999999999
 40
0.9999999999999999
 40
0.9999999999999999
 10
766.0277468173074
 20
2110.697288879029
 30
0.0
 10
766.0630722141763
 20
2110.670325452958
 30
0.0
 10
766.1337239879086
 20
2110.616397852796
 30
0.0
 10
766.2676872165497
 20
2110.583801963823
 30
0.0
 10
766.4032298428297
 20
2110.593151095065
 30
0.0
 10
766.5121276471236
 20
2110.637029853147
 30
0.0
 10
766.5654313579296
 20
2110.681205411433
 30
0.0
 10
766.5848382095634
 20
2110.697288879029
 30
0.0
  0
ELLIPSE
  5
2BA
330
1F
100
AcDbEntity
  8
1
  6
SLD-Сплошная
100
AcDbEllipse
 10
765.2369057322
 20
2109.5841783852
 30
0.0
 11
0.4122489361056978
 21
0.0
 31
0.0
210
0.0
220
0.0
230
1.0
 40
0.9702875252
 41
5.512866274278532
 42
7.05350434008147
  0
SPLINE
  5
2BB
330
1F
100
AcDbEntity
  8
1
  6
SLD-Сплошная
100
AcDbSpline
210
0.0
220
0.0
230
1.0
 70
     8
 71
     3
 72
    12
 73
     8
 74
     0
 42
0.00000001
 43
0.00000001
 40
0.0
 40
0.0
 40
0.0
 40
0.0
 40
0.2187857887071817
 40
0.4375776469534929
 40
0.6562353658863669
 40
0.8748419359490961
 40
1.0
 40
1.0
 40
1.0
 40
1.0
 10
765.193182019623
 20
2109.305632689089
 30
0.0
 10
765.220145445695
 20
2109.340958085958
 30
0.0
 10
765.2740730458567
 20
2109.411609859691
 30
0.0
 10
765.3066689348296
 20
2109.545573088331
 30
0.0
 10
765.2973198035875
 20
2109.681115714611
 30
0.0
 10
765.2534410455058
 20
2109.790013518905
 30
0.0
 10
765.2092654872193
 20
2109.843317229711
 30
0.0
 10
765.193182019623
 20
2109.862724081345
 30
0.0
  0
ARC
  5
2BC
330
1F
100
AcDbEntity
  8
1
  6
SLD-Сплошная
100
AcDbCircle
 10
783.5515604951
 20
2126.8294463668
 30
0.0
 40
26.56195549662456
100
AcDbArc
 50
223.8816987744
 51
226.1183012256
  0
ARC
  5
2BD
330
1F
100
AcDbEntity
  8
1
  6
SLD-Сплошная
100
AcDbCircle
 10
750.0648782772
 20
2125.5972013592
 30
0.0
 40
23.41191191649359
100
AcDbArc
 50
310.0824770913
 51
312.9865596106
  0
ARC
  5
2BE
330
1F
100
AcDbEntity
  8
1
  6
SLD-Сплошная
100
AcDbCircle
 10
782.5477067491
 20
2125.5972013586
 30
0.0
 40
23.41191191567944
100
AcDbArc
 50
227.0134403894
 51
229.9175229087
  0
ARC
  5
2BF
330
1F
100
AcDbEntity
  8
1
  6
SLD-Сплошная
100
AcDbCircle
 10
749.0610245326
 20
2126.8294463661
 30
0.0
 40
26.56195549557504
100
AcDbArc
 50
313.8816987744
 51
316.1183012256
  0
ARC
  5
2C0
330
1F
100
AcDbEntity
  8
1
  6
SLD-Сплошная
100
AcDbCircle
 10
750.2932695399
 20
2093.3427641494
 30
0.0
 40
23.41191191592229
100
AcDbArc
 50
40.0824770913
 51
42.9865596106
  0
ARC
  5
2C1
330
1F
100
AcDbEntity
  8
1
  6
SLD-Сплошная
100
AcDbCircle
 10
750.2932695397
 20
2125.8255926213
 30
0.0
 40
23.41191191617479
100
AcDbArc
 50
317.0134403894
 51
319.9175229087
  0
ARC
  5
2C2
330
1F
100
AcDbEntity
  8
1
  6
SLD-Сплошная
100
AcDbCircle
 10
749.0610245314
 20
2092.3389104032
 30
0.0
 40
26.56195549719433
100
AcDbArc
 50
43.8816987745
 51
46.1183012255
  0
ARC
  5
2C3
330
1F
100
AcDbEntity
  8
1
  6
SLD-Сплошная
100
AcDbCircle
 10
782.5477067497
 20
2093.5711554113
 30
0.0
 40
23.41191191645949
100
AcDbArc
 50
130.0824770913
 51
132.9865596106
  0
ARC
  5
2C4
330
1F
100
AcDbEntity
  8
1
  6
SLD-Сплошная
100
AcDbCircle
 10
750.0648782771
 20
2093.5711554112
 30
0.0
 40
23.41191191660639
100
AcDbArc
 50
47.0134403894
 51
49.9175229086
  0
ARC
  5
2C5
330
1F
100
AcDbEntity
  8
1
  6
SLD-Сплошная
100
AcDbCircle
 10
783.5515604955
 20
2092.3389104032
 30
0.0
 40
26.56195549724529
100
AcDbArc
 50
133.8816987745
 51
136.1183012255
  0
ARC
  5
2C6
330
1F
100
AcDbEntity
  8
1
  6
SLD-Сплошная
100
AcDbCircle
 10
782.3193154872
 20
2125.8255926213
 30
0.0
 40
23.41191191620443
100
AcDbArc
 50
220.0824770913
 51
222.9865596106
  0
ARC
  5
2C7
330
1F
100
AcDbEntity
  8
1
  6
SLD-Сплошная
100
AcDbCircle
 10
782.319315487
 20
2093.3427641493
 30
0.0
 40
23.41191191595202
100
AcDbArc
 50
137.0134403894
 51
139.9175229087
  0
CIRCLE
  5
2C8
330
1F
100
AcDbEntity
  8
1
  6
SLD-Сплошная
100
AcDbCircle
 10
766.3062925134
 20
2109.5841783852
 30
0.0
 40
3.500000000000028
  0
LINE
  5
2C9
330
1F
100
AcDbEntity
  8
1
  6
SLD-Сплошная
100
AcDbLine
 10
768.2061531672
 20
2108.4174521963
 30
0.0
 11
767.9679934492
 21
2108.4174521963
 31
0.0
  0
LINE
  5
2CA
330
1F
100
AcDbEntity
  8
1
  6
SLD-Сплошная
100
AcDbLine
 10
767.9679934492
 20
2108.4174521963
 30
0.0
 11
767.0798129564
 21
2109.3056326891
 31
0.0
  0
LINE
  5
2CB
330
1F
100
AcDbEntity
  8
1
  6
SLD-Сплошная
100
AcDbLine
 10
767.4730187024
 20
2111.484039039
 30
0.0
 11
767.4730187024
 21
2111.245879321
 31
0.0
  0
LINE
  5
2CC
330
1F
100
AcDbEntity
  8
1
  6
SLD-Сплошная
100
AcDbLine
 10
767.4730187024
 20
2111.245879321
 30
0.0
 11
766.5848382096
 21
2110.3576988282
 31
0.0
  0
LINE
  5
2CD
330
1F
100
AcDbEntity
  8
1
  6
SLD-Сплошная
100
AcDbLine
 10
764.4064318596
 20
2110.7509045742
 30
0.0
 11
764.6445915776
 21
2110.7509045742
 31
0.0
  0
LINE
  5
2CE
330
1F
100
AcDbEntity
  8
1
  6
SLD-Сплошная
100
AcDbLine
 10
764.6445915776
 20
2110.7509045742
 30
0.0
 11
765.5327720705
 21
2109.8627240813
 31
0.0
  0
LINE
  5
2CF
330
1F
100
AcDbEntity
  8
1
  6
SLD-Сплошная
100
AcDbLine
 10
764.4064318596
 20
2108.4174521963
 30
0.0
 11
764.6445915776
 21
2108.4174521963
 31
0.0
  0
LINE
  5
2D0
330
1F
100
AcDbEntity
  8
1
  6
SLD-Сплошная
100
AcDbLine
 10
765.5327720705
 20
2109.3056326891
 30
0.0
 11
764.6445915776
 21
2108.4174521963
 31
0.0
  0
LINE
  5
2D1
330
1F
100
AcDbEntity
  8
1
  6
SLD-Сплошная
100
AcDbLine
 10
768.2061531672
 20
2110.7509045742
 30
0.0
 11
767.9679934492
 21
2110.7509045742
 31
0.0
  0
LINE
  5
2D2
330
1F
100
AcDbEntity
  8
1
  6
SLD-Сплошная
100
AcDbLine
 10
767.0798129564
 20
2109.8627240813
 30
0.0
 11
767.9679934492
 21
2110.7509045742
 31
0.0
  0
LINE
  5
2D3
330
1F
100
AcDbEntity
  8
1
  6
SLD-Сплошная
100
AcDbLine
 10
765.1395663245
 20
2111.484039039
 30
0.0
 11
765.1395663245
 21
2111.245879321
 31
0.0
  0
LINE
  5
2D4
330
1F
100
AcDbEntity
  8
1
  6
SLD-Сплошная
100
AcDbLine
 10
766.0277468173
 20
2110.3576988282
 30
0.0
 11
765.1395663245
 21
2111.245879321
 31
0.0
  0
LINE
  5
2D5
330
1F
100
AcDbEntity
  8
1
  6
SLD-Сплошная
100
AcDbLine
 10
767.4730187024
 20
2107.6843177314
 30
0.0
 11
767.4730187024
 21
2107.9224774494
 31
0.0
  0
LINE
  5
2D6
330
1F
100
AcDbEntity
  8
1
  6
SLD-Сплошная
100
AcDbLine
 10
766.5848382096
 20
2108.8106579423
 30
0.0
 11
767.4730187024
 21
2107.9224774494
 31
0.0
  0
LINE
  5
2D7
330
1F
100
AcDbEntity
  8
1
  6
SLD-Сплошная
100
AcDbLine
 10
765.1395663245
 20
2107.6843177314
 30
0.0
 11
765.1395663245
 21
2107.9224774494
 31
0.0
  0
LINE
  5
2D8
330
1F
100
AcDbEntity
  8
1
  6
SLD-Сплошная
100
AcDbLine
 10
765.1395663245
 20
2107.9224774494
 30
0.0
 11
766.0277468173
 21
2108.8106579423
 31
0.0
  0
LINE
  5
2D9
330
1F
100
AcDbEntity
  8
1
  6
SLD-Сплошная
100
AcDbLine
 10
767.9679934492
 20
2110.7509045742
 30
0.0
 11
767.4730187024
 21
2111.245879321
 31
0.0
  0
LINE
  5
2DA
330
1F
100
AcDbEntity
  8
1
  6
SLD-Сплошная
100
AcDbLine
 10
765.1395663245
 20
2111.245879321
 30
0.0
 11
764.6445915776
 21
2110.7509045742
 31
0.0
  0
LINE
  5
2DB
330
1F
100
AcDbEntity
  8
1
  6
SLD-Сплошная
100
AcDbLine
 10
767.4730187024
 20
2107.9224774494
 30
0.0
 11
767.9679934492
 21
2108.4174521963
 31
0.0
  0
LINE
  5
2DC
330
1F
100
AcDbEntity
  8
1
  6
SLD-Сплошная
100
AcDbLine
 10
764.6445915776
 20
2108.4174521963
 30
0.0
 11
765.1395663245
 21
2107.9224774494
 31
0.0
  0
CIRCLE
  5
2DD
330
1F
100
AcDbEntity
  8
1
  6
SLD-Сплошная
100
AcDbCircle
 10
766.3062925134
 20
2109.5841783852
 30
0.0
 40
4.999999999999879
  0
ELLIPSE
  5
2DE
330
1F
100
AcDbEntity
  8
1
  6
SLD-Сплошная
100
AcDbEllipse
 10
884.8756792947
 20
2092.0841783852
 30
0.0
 11
-0.4122489361055841
 21
0.0
 31
0.0
210
0.0
220
0.0
230
1.0
 40
0.9702875252
 41
5.512866274278423
 42
7.053504340079948
  0
SPLINE
  5
2DF
330
1F
100
AcDbEntity
  8
1
  6
SLD-Сплошная
100
AcDbSpline
210
0.0
220
0.0
230
1.0
 70
     8
 71
     3
 72
    12
 73
     8
 74
     0
 42
0.00000001
 43
0.00000001
 40
0.0
 40
0.0
 40
0.0
 40
0.0
 40
0.2187857887072251
 40
0.4375776469534808
 40
0.6562353658863884
 40
0.8748419359490995
 40
0.9999999999999999
 40
0.9999999999999999
 40
0.9999999999999999
 40
0.9999999999999999
 10
884.9194030072476
 20
2092.362724081345
 30
0.0
 10
884.8924395811755
 20
2092.327398684476
 30
0.0
 10
884.838511981014
 20
2092.256746910744
 30
0.0
 10
884.805916092041
 20
2092.122783682103
 30
0.0
 10
884.8152652232831
 20
2091.987241055823
 30
0.0
 10
884.8591439813648
 20
2091.878343251529
 30
0.0
 10
884.9033195396514
 20
2091.825039540723
 30
0.0
 10
884.9194030072476
 20
2091.805632689089
 30
0.0
  0
ELLIPSE
  5
2E0
330
1F
100
AcDbEntity
  8
1
  6
SLD-Сплошная
100
AcDbEllipse
 10
882.7369057322
 20
2092.0841783852
 30
0.0
 11
0.4122489361056978
 21
0.0
 31
0.0
210
0.0
220
0.0
230
1.0
 40
0.9702875252
 41
5.512866274278339
 42
7.053504340081662
  0
SPLINE
  5
2E1
330
1F
100
AcDbEntity
  8
1
  6
SLD-Сплошная
100
AcDbSpline
210
0.0
220
0.0
230
1.0
 70
     8
 71
     3
 72
    12
 73
     8
 74
     0
 42
0.00000001
 43
0.00000001
 40
0.0
 40
0.0
 40
0.0
 40
0.0
 40
0.2187857887071777
 40
0.4375776469534916
 40
0.6562353658863723
 40
0.8748419359491184
 40
1.0
 40
1.0
 40
1.0
 40
1.0
 10
882.693182019623
 20
2091.805632689089
 30
0.0
 10
882.720145445695
 20
2091.840958085958
 30
0.0
 10
882.7740730458565
 20
2091.911609859691
 30
0.0
 10
882.8066689348298
 20
2092.045573088332
 30
0.0
 10
882.7973198035875
 20
2092.181115714612
 30
0.0
 10
882.7534410455058
 20
2092.290013518905
 30
0.0
 10
882.7092654872193
 20
2092.343317229711
 30
0.0
 10
882.693182019623
 20
2092.362724081345
 30
0.0
  0
ELLIPSE
  5
2E2
330
1F
100
AcDbEntity
  8
1
  6
SLD-Сплошная
100
AcDbEllipse
 10
883.8062925134
 20
2093.1535651665
 30
0.0
 11
0.0
 21
-0.4122489361056978
 31
0.0
210
0.0
220
0.0
230
1.0
 40
0.9702875252
 41
5.512866274278884
 42
7.053504340080098
  0
SPLINE
  5
2E3
330
1F
100
AcDbEntity
  8
1
  6
SLD-Сплошная
100
AcDbSpline
210
0.0
220
0.0
230
1.0
 70
     8
 71
     3
 72
    12
 73
     8
 74
     0
 42
0.00000001
 43
0.00000001
 40
0.0
 40
0.0
 40
0.0
 40
0.0
 40
0.2187857887071872
 40
0.4375776469534861
 40
0.6562353658863479
 40
0.8748419359491
 40
1.0
 40
1.0
 40
1.0
 40
1.0
 10
883.5277468173073
 20
2093.19728887903
 30
0.0
 10
883.5630722141761
 20
2093.170325452957
 30
0.0
 10
883.6337239879086
 20
2093.116397852796
 30
0.0
 10
883.7676872165497
 20
2093.083801963823
 30
0.0
 10
883.9032298428297
 20
2093.093151095065
 30
0.0
 10
884.0121276471235
 20
2093.137029853146
 30
0.0
 10
884.0654313579295
 20
2093.181205411433
 30
0.0
 10
884.0848382095633
 20
2093.19728887903
 30
0.0
  0
ELLIPSE
  5
2E4
330
1F
100
AcDbEntity
  8
1
  6
SLD-Сплошная
100
AcDbEllipse
 10
883.8062925134
 20
2091.0147916039
 30
0.0
 11
0.0
 21
0.4122489361056978
 31
0.0
210
0.0
220
0.0
230
1.0
 40
0.9702875252
 41
5.512866274278179
 42
7.053504340081211
  0
SPLINE
  5
2E5
330
1F
100
AcDbEntity
  8
1
  6
SLD-Сплошная
100
AcDbSpline
210
0.0
220
0.0
230
1.0
 70
     8
 71
     3
 72
    12
 73
     8
 74
     0
 42
0.00000001
 43
0.00000001
 40
0.0
 40
0.0
 40
0.0
 40
0.0
 40
0.2187857887072156
 40
0.4375776469534864
 40
0.6562353658864128
 40
0.8748419359491181
 40
1.0
 40
1.0
 40
1.0
 40
1.0
 10
884.0848382095633
 20
2090.971067891405
 30
0.0
 10
884.0495128126944
 20
2090.998031317477
 30
0.0
 10
883.9788610389619
 20
2091.051958917638
 30
0.0
 10
883.8448978103211
 20
2091.084554806612
 30
0.0
 10
883.7093551840409
 20
2091.075205675369
 30
0.0
 10
883.6004573797469
 20
2091.031326917288
 30
0.0
 10
883.5471536689411
 20
2090.987151359001
 30
0.0
 10
883.5277468173073
 20
2090.971067891405
 30
0.0
  0
ARC
  5
2E6
330
1F
100
AcDbEntity
  8
1
  6
SLD-Сплошная
100
AcDbCircle
 10
901.051560495
 20
2109.3294463668
 30
0.0
 40
26.56195549659662
100
AcDbArc
 50
223.8816987745
 51
226.1183012256
  0
ARC
  5
2E7
330
1F
100
AcDbEntity
  8
1
  6
SLD-Сплошная
100
AcDbCircle
 10
867.5648782778
 20
2108.0972013585
 30
0.0
 40
23.41191191561711
100
AcDbArc
 50
310.0824770913
 51
312.9865596106
  0
ARC
  5
2E8
330
1F
100
AcDbEntity
  8
1
  6
SLD-Сплошная
100
AcDbCircle
 10
900.0477067491
 20
2108.0972013586
 30
0.0
 40
23.41191191566307
100
AcDbArc
 50
227.0134403894
 51
229.9175229087
  0
ARC
  5
2E9
330
1F
100
AcDbEntity
  8
1
  6
SLD-Сплошная
100
AcDbCircle
 10
866.5610245322
 20
2109.3294463664
 30
0.0
 40
26.56195549606914
100
AcDbArc
 50
313.8816987744
 51
316.1183012256
  0
ARC
  5
2EA
330
1F
100
AcDbEntity
  8
1
  6
SLD-Сплошная
100
AcDbCircle
 10
867.7932695399
 20
2075.8427641494
 30
0.0
 40
23.41191191587363
100
AcDbArc
 50
40.0824770913
 51
42.9865596106
  0
ARC
  5
2EB
330
1F
100
AcDbEntity
  8
1
  6
SLD-Сплошная
100
AcDbCircle
 10
867.7932695396
 20
2108.3255926213
 30
0.0
 40
23.41191191624521
100
AcDbArc
 50
317.0134403894
 51
319.9175229087
  0
ARC
  5
2EC
330
1F
100
AcDbEntity
  8
1
  6
SLD-Сплошная
100
AcDbCircle
 10
866.5610245331
 20
2074.8389104049
 30
0.0
 40
26.56195549474812
100
AcDbArc
 50
43.8816987744
 51
46.1183012257
  0
ARC
  5
2ED
330
1F
100
AcDbEntity
  8
1
  6
SLD-Сплошная
100
AcDbCircle
 10
900.0477067494
 20
2076.0711554115
 30
0.0
 40
23.41191191608784
100
AcDbArc
 50
130.0824770913
 51
132.9865596106
  0
ARC
  5
2EE
330
1F
100
AcDbEntity
  8
1
  6
SLD-Сплошная
100
AcDbCircle
 10
867.5648782775
 20
2076.0711554116
 30
0.0
 40
23.41191191604174
100
AcDbArc
 50
47.0134403894
 51
49.9175229087
  0
ARC
  5
2EF
330
1F
100
AcDbEntity
  8
1
  6
SLD-Сплошная
100
AcDbCircle
 10
901.0515604941
 20
2074.8389104045
 30
0.0
 40
26.56195549527553
100
AcDbArc
 50
133.8816987744
 51
136.1183012256
  0
ARC
  5
2F0
330
1F
100
AcDbEntity
  8
1
  6
SLD-Сплошная
100
AcDbCircle
 10
899.8193154873
 20
2108.3255926214
 30
0.0
 40
23.41191191634621
100
AcDbArc
 50
220.0824770913
 51
222.9865596106
  0
ARC
  5
2F1
330
1F
100
AcDbEntity
  8
1
  6
SLD-Сплошная
100
AcDbCircle
 10
899.8193154871
 20
2075.8427641492
 30
0.0
 40
23.41191191609401
100
AcDbArc
 50
137.0134403894
 51
139.9175229087
  0
CIRCLE
  5
2F2
330
1F
100
AcDbEntity
  8
1
  6
SLD-Сплошная
100
AcDbCircle
 10
883.8062925134
 20
2092.0841783852
 30
0.0
 40
3.500000000000028
  0
LINE
  5
2F3
330
1F
100
AcDbEntity
  8
1
  6
SLD-Сплошная
100
AcDbLine
 10
882.6395663245
 20
2090.1843177314
 30
0.0
 11
882.6395663245
 21
2090.4224774494
 31
0.0
  0
LINE
  5
2F4
330
1F
100
AcDbEntity
  8
1
  6
SLD-Сплошная
100
AcDbLine
 10
882.6395663245
 20
2090.4224774494
 30
0.0
 11
883.5277468173
 21
2091.3106579423
 31
0.0
  0
LINE
  5
2F5
330
1F
100
AcDbEntity
  8
1
  6
SLD-Сплошная
100
AcDbLine
 10
884.9730187024
 20
2090.1843177314
 30
0.0
 11
884.9730187024
 21
2090.4224774494
 31
0.0
  0
LINE
  5
2F6
330
1F
100
AcDbEntity
  8
1
  6
SLD-Сплошная
100
AcDbLine
 10
884.0848382096
 20
2091.3106579423
 30
0.0
 11
884.9730187024
 21
2090.4224774494
 31
0.0
  0
LINE
  5
2F7
330
1F
100
AcDbEntity
  8
1
  6
SLD-Сплошная
100
AcDbLine
 10
881.9064318596
 20
2093.2509045742
 30
0.0
 11
882.1445915776
 21
2093.2509045742
 31
0.0
  0
LINE
  5
2F8
330
1F
100
AcDbEntity
  8
1
  6
SLD-Сплошная
100
AcDbLine
 10
882.1445915776
 20
2093.2509045742
 30
0.0
 11
883.0327720705
 21
2092.3627240813
 31
0.0
  0
LINE
  5
2F9
330
1F
100
AcDbEntity
  8
1
  6
SLD-Сплошная
100
AcDbLine
 10
884.9730187024
 20
2093.984039039
 30
0.0
 11
884.9730187024
 21
2093.745879321
 31
0.0
  0
LINE
  5
2FA
330
1F
100
AcDbEntity
  8
1
  6
SLD-Сплошная
100
AcDbLine
 10
884.9730187024
 20
2093.745879321
 30
0.0
 11
884.0848382096
 21
2092.8576988282
 31
0.0
  0
LINE
  5
2FB
330
1F
100
AcDbEntity
  8
1
  6
SLD-Сплошная
100
AcDbLine
 10
885.7061531672
 20
2093.2509045742
 30
0.0
 11
885.4679934492
 21
2093.2509045742
 31
0.0
  0
LINE
  5
2FC
330
1F
100
AcDbEntity
  8
1
  6
SLD-Сплошная
100
AcDbLine
 10
884.5798129564
 20
2092.3627240813
 30
0.0
 11
885.4679934492
 21
2093.2509045742
 31
0.0
  0
LINE
  5
2FD
330
1F
100
AcDbEntity
  8
1
  6
SLD-Сплошная
100
AcDbLine
 10
881.9064318596
 20
2090.9174521963
 30
0.0
 11
882.1445915776
 21
2090.9174521963
 31
0.0
  0
LINE
  5
2FE
330
1F
100
AcDbEntity
  8
1
  6
SLD-Сплошная
100
AcDbLine
 10
883.0327720705
 20
2091.8056326891
 30
0.0
 11
882.1445915776
 21
2090.9174521963
 31
0.0
  0
LINE
  5
2FF
330
1F
100
AcDbEntity
  8
1
  6
SLD-Сплошная
100
AcDbLine
 10
882.6395663245
 20
2093.984039039
 30
0.0
 11
882.6395663245
 21
2093.745879321
 31
0.0
  0
LINE
  5
300
330
1F
100
AcDbEntity
  8
1
  6
SLD-Сплошная
100
AcDbLine
 10
883.5277468173
 20
2092.8576988282
 30
0.0
 11
882.6395663245
 21
2093.745879321
 31
0.0
  0
LINE
  5
301
330
1F
100
AcDbEntity
  8
1
  6
SLD-Сплошная
100
AcDbLine
 10
885.7061531672
 20
2090.9174521963
 30
0.0
 11
885.4679934492
 21
2090.9174521963
 31
0.0
  0
LINE
  5
302
330
1F
100
AcDbEntity
  8
1
  6
SLD-Сплошная
100
AcDbLine
 10
885.4679934492
 20
2090.9174521963
 30
0.0
 11
884.5798129564
 21
2091.8056326891
 31
0.0
  0
LINE
  5
303
330
1F
100
AcDbEntity
  8
1
  6
SLD-Сплошная
100
AcDbLine
 10
882.1445915776
 20
2090.9174521963
 30
0.0
 11
882.6395663245
 21
2090.4224774494
 31
0.0
  0
LINE
  5
304
330
1F
100
AcDbEntity
  8
1
  6
SLD-Сплошная
100
AcDbLine
 10
882.6395663245
 20
2093.745879321
 30
0.0
 11
882.1445915776
 21
2093.2509045742
 31
0.0
  0
LINE
  5
305
330
1F
100
AcDbEntity
  8
1
  6
SLD-Сплошная
100
AcDbLine
 10
884.9730187024
 20
2090.4224774494
 30
0.0
 11
885.4679934492
 21
2090.9174521963
 31
0.0
  0
LINE
  5
306
330
1F
100
AcDbEntity
  8
1
  6
SLD-Сплошная
100
AcDbLine
 10
885.4679934492
 20
2093.2509045742
 30
0.0
 11
884.9730187024
 21
2093.745879321
 31
0.0
  0
CIRCLE
  5
307
330
1F
100
AcDbEntity
  8
1
  6
SLD-Сплошная
100
AcDbCircle
 10
883.8062925134
 20
2092.0841783852
 30
0.0
 40
4.999999999999799
  0
ELLIPSE
  5
308
330
1F
100
AcDbEntity
  8
1
  6
SLD-Сплошная
100
AcDbEllipse
 10
466.3062925134
 20
1950.6535651665
 30
0.0
 11
0.0
 21
-0.4122489361056978
 31
0.0
210
0.0
220
0.0
230
1.0
 40
0.9702875252
 41
5.512866274278398
 42
7.053504340080481
  0
SPLINE
  5
309
330
1F
100
AcDbEntity
  8
1
  6
SLD-Сплошная
100
AcDbSpline
210
0.0
220
0.0
230
1.0
 70
     8
 71
     3
 72
    12
 73
     8
 74
     0
 42
0.00000001
 43
0.00000001
 40
0.0
 40
0.0
 40
0.0
 40
0.0
 40
0.2187857887072126
 40
0.4375776469535009
 40
0.6562353658863674
 40
0.8748419359490994
 40
1.0
 40
1.0
 40
1.0
 40
1.0
 10
466.0277468173073
 20
1950.697288879029
 30
0.0
 10
466.0630722141763
 20
1950.670325452957
 30
0.0
 10
466.1337239879086
 20
1950.616397852796
 30
0.0
 10
466.2676872165496
 20
1950.583801963822
 30
0.0
 10
466.4032298428297
 20
1950.593151095065
 30
0.0
 10
466.5121276471236
 20
1950.637029853146
 30
0.0
 10
466.5654313579295
 20
1950.681205411433
 30
0.0
 10
466.5848382095633
 20
1950.697288879029
 30
0.0
  0
ELLIPSE
  5
30A
330
1F
100
AcDbEntity
  8
1
  6
SLD-Сплошная
100
AcDbEllipse
 10
467.3756792947
 20
1949.5841783852
 30
0.0
 11
-0.4122489361056409
 21
0.0
 31
0.0
210
0.0
220
0.0
230
1.0
 40
0.9702875252
 41
5.512866274278762
 42
7.053504340080424
  0
SPLINE
  5
30B
330
1F
100
AcDbEntity
  8
1
  6
SLD-Сплошная
100
AcDbSpline
210
0.0
220
0.0
230
1.0
 70
     8
 71
     3
 72
    12
 73
     8
 74
     0
 42
0.00000001
 43
0.00000001
 40
0.0
 40
0.0
 40
0.0
 40
0.0
 40
0.2187857887071878
 40
0.4375776469534872
 40
0.6562353658863948
 40
0.8748419359490643
 40
1.0
 40
1.0
 40
1.0
 40
1.0
 10
467.4194030072476
 20
1949.862724081345
 30
0.0
 10
467.3924395811756
 20
1949.827398684476
 30
0.0
 10
467.338511981014
 20
1949.756746910744
 30
0.0
 10
467.305916092041
 20
1949.622783682102
 30
0.0
 10
467.315265223283
 20
1949.487241055822
 30
0.0
 10
467.3591439813648
 20
1949.378343251529
 30
0.0
 10
467.4033195396514
 20
1949.325039540723
 30
0.0
 10
467.4194030072476
 20
1949.305632689089
 30
0.0
  0
ARC
  5
30C
330
1F
100
AcDbEntity
  8
1
  6
SLD-Сплошная
100
AcDbCircle
 10
449.0610245324
 20
1966.8294463663
 30
0.0
 40
26.56195549585319
100
AcDbArc
 50
313.8816987744
 51
316.1183012256
  0
ARC
  5
30D
330
1F
100
AcDbEntity
  8
1
  6
SLD-Сплошная
100
AcDbCircle
 10
450.2932695397
 20
1933.3427641492
 30
0.0
 40
23.41191191617285
100
AcDbArc
 50
40.0824770913
 51
42.9865596106
  0
ARC
  5
30E
330
1F
100
AcDbEntity
  8
1
  6
SLD-Сплошная
100
AcDbCircle
 10
450.2932695395
 20
1965.8255926214
 30
0.0
 40
23.41191191643556
100
AcDbArc
 50
317.0134403894
 51
319.9175229087
  0
ARC
  5
30F
330
1F
100
AcDbEntity
  8
1
  6
SLD-Сплошная
100
AcDbCircle
 10
449.0610245314
 20
1932.3389104032
 30
0.0
 40
26.56195549719945
100
AcDbArc
 50
43.8816987745
 51
46.1183012255
  0
ARC
  5
310
330
1F
100
AcDbEntity
  8
1
  6
SLD-Сплошная
100
AcDbCircle
 10
482.5477067497
 20
1933.5711554112
 30
0.0
 40
23.41191191651935
100
AcDbArc
 50
130.0824770913
 51
132.9865596106
  0
ARC
  5
311
330
1F
100
AcDbEntity
  8
1
  6
SLD-Сплошная
100
AcDbCircle
 10
450.0648782774
 20
1933.5711554115
 30
0.0
 40
23.41191191611475
100
AcDbArc
 50
47.0134403894
 51
49.9175229087
  0
ARC
  5
312
330
1F
100
AcDbEntity
  8
1
  6
SLD-Сплошная
100
AcDbCircle
 10
483.5515604953
 20
1932.3389104034
 30
0.0
 40
26.56195549693888
100
AcDbArc
 50
133.8816987744
 51
136.1183012256
  0
ARC
  5
313
330
1F
100
AcDbEntity
  8
1
  6
SLD-Сплошная
100
AcDbCircle
 10
482.3193154872
 20
1965.8255926212
 30
0.0
 40
23.4119119161657
100
AcDbArc
 50
220.0824770913
 51
222.9865596106
  0
SPLINE
  5
314
330
1F
100
AcDbEntity
  8
1
  6
SLD-Сплошная
100
AcDbSpline
210
0.0
220
0.0
230
1.0
 70
     8
 71
     3
 72
    12
 73
     8
 74
     0
 42
0.00000001
 43
0.00000001
 40
0.0
 40
0.0
 40
0.0
 40
0.0
 40
0.2187857887071734
 40
0.437577646953483
 40
0.6562353658864045
 40
0.8748419359491292
 40
1.0
 40
1.0
 40
1.0
 40
1.0
 10
465.193182019623
 20
1949.305632689089
 30
0.0
 10
465.220145445695
 20
1949.340958085958
 30
0.0
 10
465.2740730458566
 20
1949.41160985969
 30
0.0
 10
465.3066689348296
 20
1949.545573088331
 30
0.0
 10
465.2973198035877
 20
1949.681115714611
 30
0.0
 10
465.2534410455058
 20
1949.790013518905
 30
0.0
 10
465.2092654872193
 20
1949.843317229711
 30
0.0
 10
465.1931820196231
 20
1949.862724081345
 30
0.0
  0
ARC
  5
315
330
1F
100
AcDbEntity
  8
1
  6
SLD-Сплошная
100
AcDbCircle
 10
482.3193154871
 20
1933.3427641493
 30
0.0
 40
23.41191191604583
100
AcDbArc
 50
137.0134403894
 51
139.9175229087
  0
ARC
  5
316
330
1F
100
AcDbEntity
  8
1
  6
SLD-Сплошная
100
AcDbCircle
 10
483.5515604943
 20
1966.8294463661
 30
0.0
 40
26.56195549555892
100
AcDbArc
 50
223.8816987744
 51
226.1183012256
  0
ARC
  5
317
330
1F
100
AcDbEntity
  8
1
  6
SLD-Сплошная
100
AcDbCircle
 10
450.0648782774
 20
1965.597201359
 30
0.0
 40
23.41191191619425
100
AcDbArc
 50
310.0824770913
 51
312.9865596106
  0
SPLINE
  5
318
330
1F
100
AcDbEntity
  8
1
  6
SLD-Сплошная
100
AcDbSpline
210
0.0
220
0.0
230
1.0
 70
     8
 71
     3
 72
    12
 73
     8
 74
     0
 42
0.00000001
 43
0.00000001
 40
0.0
 40
0.0
 40
0.0
 40
0.0
 40
0.2187857887072202
 40
0.4375776469534843
 40
0.6562353658864116
 40
0.8748419359491424
 40
1.0
 40
1.0
 40
1.0
 40
1.0
 10
466.5848382095633
 20
1948.471067891405
 30
0.0
 10
466.5495128126944
 20
1948.498031317477
 30
0.0
 10
466.4788610389621
 20
1948.551958917638
 30
0.0
 10
466.3448978103208
 20
1948.584554806611
 30
0.0
 10
466.209355184041
 20
1948.575205675369
 30
0.0
 10
466.100457379747
 20
1948.531326917287
 30
0.0
 10
466.0471536689411
 20
1948.487151359001
 30
0.0
 10
466.0277468173073
 20
1948.471067891405
 30
0.0
  0
ARC
  5
319
330
1F
100
AcDbEntity
  8
1
  6
SLD-Сплошная
100
AcDbCircle
 10
482.5477067496
 20
1965.5972013591
 30
0.0
 40
23.41191191632185
100
AcDbArc
 50
227.0134403894
 51
229.9175229087
  0
CIRCLE
  5
31A
330
1F
100
AcDbEntity
  8
1
  6
SLD-Сплошная
100
AcDbCircle
 10
466.3062925134
 20
1949.5841783852
 30
0.0
 40
3.499999999999948
  0
ELLIPSE
  5
31B
330
1F
100
AcDbEntity
  8
1
  6
SLD-Сплошная
100
AcDbEllipse
 10
466.3062925134
 20
1948.5147916039
 30
0.0
 11
0.0
 21
0.4122489361059252
 31
0.0
210
0.0
220
0.0
230
1.0
 40
0.9702875252
 41
5.5128662742786
 42
7.053504340080893
  0
ELLIPSE
  5
31C
330
1F
100
AcDbEntity
  8
1
  6
SLD-Сплошная
100
AcDbEllipse
 10
465.2369057322
 20
1949.5841783852
 30
0.0
 11
0.4122489361056978
 21
0.0
 31
0.0
210
0.0
220
0.0
230
1.0
 40
0.9702875252
 41
5.512866274278597
 42
7.05350434008059
  0
LINE
  5
31D
330
1F
100
AcDbEntity
  8
1
  6
SLD-Сплошная
100
AcDbLine
 10
464.4064318596
 20
1948.4174521963
 30
0.0
 11
464.6445915776
 21
1948.4174521963
 31
0.0
  0
LINE
  5
31E
330
1F
100
AcDbEntity
  8
1
  6
SLD-Сплошная
100
AcDbLine
 10
465.5327720705
 20
1949.3056326891
 30
0.0
 11
464.6445915776
 21
1948.4174521963
 31
0.0
  0
LINE
  5
31F
330
1F
100
AcDbEntity
  8
1
  6
SLD-Сплошная
100
AcDbLine
 10
468.2061531672
 20
1948.4174521963
 30
0.0
 11
467.9679934492
 21
1948.4174521963
 31
0.0
  0
LINE
  5
320
330
1F
100
AcDbEntity
  8
1
  6
SLD-Сплошная
100
AcDbLine
 10
467.9679934492
 20
1948.4174521963
 30
0.0
 11
467.0798129564
 21
1949.3056326891
 31
0.0
  0
LINE
  5
321
330
1F
100
AcDbEntity
  8
1
  6
SLD-Сплошная
100
AcDbLine
 10
467.4730187024
 20
1951.484039039
 30
0.0
 11
467.4730187024
 21
1951.245879321
 31
0.0
  0
LINE
  5
322
330
1F
100
AcDbEntity
  8
1
  6
SLD-Сплошная
100
AcDbLine
 10
467.4730187024
 20
1951.245879321
 30
0.0
 11
466.5848382096
 21
1950.3576988282
 31
0.0
  0
LINE
  5
323
330
1F
100
AcDbEntity
  8
1
  6
SLD-Сплошная
100
AcDbLine
 10
467.4730187024
 20
1947.6843177314
 30
0.0
 11
467.4730187024
 21
1947.9224774494
 31
0.0
  0
LINE
  5
324
330
1F
100
AcDbEntity
  8
1
  6
SLD-Сплошная
100
AcDbLine
 10
466.5848382096
 20
1948.8106579423
 30
0.0
 11
467.4730187024
 21
1947.9224774494
 31
0.0
  0
LINE
  5
325
330
1F
100
AcDbEntity
  8
1
  6
SLD-Сплошная
100
AcDbLine
 10
465.1395663245
 20
1951.484039039
 30
0.0
 11
465.1395663245
 21
1951.245879321
 31
0.0
  0
LINE
  5
326
330
1F
100
AcDbEntity
  8
1
  6
SLD-Сплошная
100
AcDbLine
 10
466.0277468173
 20
1950.3576988282
 30
0.0
 11
465.1395663245
 21
1951.245879321
 31
0.0
  0
LINE
  5
327
330
1F
100
AcDbEntity
  8
1
  6
SLD-Сплошная
100
AcDbLine
 10
465.1395663245
 20
1947.6843177314
 30
0.0
 11
465.1395663245
 21
1947.9224774494
 31
0.0
  0
LINE
  5
328
330
1F
100
AcDbEntity
  8
1
  6
SLD-Сплошная
100
AcDbLine
 10
465.1395663245
 20
1947.9224774494
 30
0.0
 11
466.0277468173
 21
1948.8106579423
 31
0.0
  0
LINE
  5
329
330
1F
100
AcDbEntity
  8
1
  6
SLD-Сплошная
100
AcDbLine
 10
468.2061531672
 20
1950.7509045742
 30
0.0
 11
467.9679934492
 21
1950.7509045742
 31
0.0
  0
LINE
  5
32A
330
1F
100
AcDbEntity
  8
1
  6
SLD-Сплошная
100
AcDbLine
 10
467.0798129564
 20
1949.8627240813
 30
0.0
 11
467.9679934492
 21
1950.7509045742
 31
0.0
  0
LINE
  5
32B
330
1F
100
AcDbEntity
  8
1
  6
SLD-Сплошная
100
AcDbLine
 10
464.4064318596
 20
1950.7509045742
 30
0.0
 11
464.6445915776
 21
1950.7509045742
 31
0.0
  0
LINE
  5
32C
330
1F
100
AcDbEntity
  8
1
  6
SLD-Сплошная
100
AcDbLine
 10
464.6445915776
 20
1950.7509045742
 30
0.0
 11
465.5327720705
 21
1949.8627240813
 31
0.0
  0
LINE
  5
32D
330
1F
100
AcDbEntity
  8
1
  6
SLD-Сплошная
100
AcDbLine
 10
464.6445915776
 20
1948.4174521963
 30
0.0
 11
465.1395663245
 21
1947.9224774494
 31
0.0
  0
LINE
  5
32E
330
1F
100
AcDbEntity
  8
1
  6
SLD-Сплошная
100
AcDbLine
 10
467.9679934492
 20
1950.7509045742
 30
0.0
 11
467.4730187024
 21
1951.245879321
 31
0.0
  0
LINE
  5
32F
330
1F
100
AcDbEntity
  8
1
  6
SLD-Сплошная
100
AcDbLine
 10
465.1395663245
 20
1951.245879321
 30
0.0
 11
464.6445915776
 21
1950.7509045742
 31
0.0
  0
LINE
  5
330
330
1F
100
AcDbEntity
  8
1
  6
SLD-Сплошная
100
AcDbLine
 10
467.4730187024
 20
1947.9224774494
 30
0.0
 11
467.9679934492
 21
1948.4174521963
 31
0.0
  0
CIRCLE
  5
331
330
1F
100
AcDbEntity
  8
1
  6
SLD-Сплошная
100
AcDbCircle
 10
466.3062925134
 20
1949.5841783852
 30
0.0
 40
5.000000000000041
  0
ELLIPSE
  5
332
330
1F
100
AcDbEntity
  8
1
  6
SLD-Сплошная
100
AcDbEllipse
 10
566.3062925134
 20
1948.5147916039
 30
0.0
 11
0.0
 21
0.4122489361056978
 31
0.0
210
0.0
220
0.0
230
1.0
 40
0.9702875252
 41
5.512866274278501
 42
7.053504340080481
  0
SPLINE
  5
333
330
1F
100
AcDbEntity
  8
1
  6
SLD-Сплошная
100
AcDbSpline
210
0.0
220
0.0
230
1.0
 70
     8
 71
     3
 72
    12
 73
     8
 74
     0
 42
0.00000001
 43
0.00000001
 40
0.0
 40
0.0
 40
0.0
 40
0.0
 40
0.2187857887072018
 40
0.4375776469534662
 40
0.6562353658863938
 40
0.8748419359491246
 40
1.0
 40
1.0
 40
1.0
 40
1.0
 10
566.5848382095633
 20
1948.471067891405
 30
0.0
 10
566.5495128126944
 20
1948.498031317477
 30
0.0
 10
566.478861038962
 20
1948.551958917639
 30
0.0
 10
566.344897810321
 20
1948.584554806611
 30
0.0
 10
566.209355184041
 20
1948.575205675369
 30
0.0
 10
566.1004573797471
 20
1948.531326917288
 30
0.0
 10
566.0471536689412
 20
1948.487151359001
 30
0.0
 10
566.0277468173074
 20
1948.471067891405
 30
0.0
  0
ELLIPSE
  5
334
330
1F
100
AcDbEntity
  8
1
  6
SLD-Сплошная
100
AcDbEllipse
 10
565.2369057322
 20
1949.5841783852
 30
0.0
 11
0.4122489361055841
 21
0.0
 31
0.0
210
0.0
220
0.0
230
1.0
 40
0.9702875252
 41
5.512866274278355
 42
7.053504340080831
  0
SPLINE
  5
335
330
1F
100
AcDbEntity
  8
1
  6
SLD-Сплошная
100
AcDbSpline
210
0.0
220
0.0
230
1.0
 70
     8
 71
     3
 72
    12
 73
     8
 74
     0
 42
0.00000001
 43
0.00000001
 40
0.0
 40
0.0
 40
0.0
 40
0.0
 40
0.2187857887071779
 40
0.4375776469534854
 40
0.6562353658863993
 40
0.8748419359491335
 40
1.0
 40
1.0
 40
1.0
 40
1.0
 10
565.1931820196231
 20
1949.305632689089
 30
0.0
 10
565.2201454456952
 20
1949.340958085958
 30
0.0
 10
565.2740730458567
 20
1949.41160985969
 30
0.0
 10
565.3066689348296
 20
1949.545573088331
 30
0.0
 10
565.2973198035877
 20
1949.681115714611
 30
0.0
 10
565.2534410455058
 20
1949.790013518905
 30
0.0
 10
565.2092654872192
 20
1949.843317229711
 30
0.0
 10
565.1931820196231
 20
1949.862724081345
 30
0.0
  0
ELLIPSE
  5
336
330
1F
100
AcDbEntity
  8
1
  6
SLD-Сплошная
100
AcDbEllipse
 10
567.3756792947
 20
1949.5841783852
 30
0.0
 11
-0.4122489361056978
 21
0.0
 31
0.0
210
0.0
220
0.0
230
1.0
 40
0.9702875252
 41
5.512866274278693
 42
7.053504340080494
  0
SPLINE
  5
337
330
1F
100
AcDbEntity
  8
1
  6
SLD-Сплошная
100
AcDbSpline
210
0.0
220
0.0
230
1.0
 70
     8
 71
     3
 72
    12
 73
     8
 74
     0
 42
0.00000001
 43
0.00000001
 40
0.0
 40
0.0
 40
0.0
 40
0.0
 40
0.21878578870718
 40
0.437577646953484
 40
0.6562353658863962
 40
0.8748419359490618
 40
1.0
 40
1.0
 40
1.0
 40
1.0
 10
567.4194030072475
 20
1949.862724081345
 30
0.0
 10
567.3924395811756
 20
1949.827398684476
 30
0.0
 10
567.338511981014
 20
1949.756746910744
 30
0.0
 10
567.305916092041
 20
1949.622783682102
 30
0.0
 10
567.3152652232832
 20
1949.487241055823
 30
0.0
 10
567.3591439813649
 20
1949.378343251529
 30
0.0
 10
567.4033195396514
 20
1949.325039540723
 30
0.0
 10
567.4194030072475
 20
1949.305632689089
 30
0.0
  0
ELLIPSE
  5
338
330
1F
100
AcDbEntity
  8
1
  6
SLD-Сплошная
100
AcDbEllipse
 10
566.3062925134
 20
1950.6535651665
 30
0.0
 11
0.0
 21
-0.4122489361059252
 31
0.0
210
0.0
220
0.0
230
1.0
 40
0.9702875252
 41
5.512866274278671
 42
7.053504340080719
  0
SPLINE
  5
339
330
1F
100
AcDbEntity
  8
1
  6
SLD-Сплошная
100
AcDbSpline
210
0.0
220
0.0
230
1.0
 70
     8
 71
     3
 72
    12
 73
     8
 74
     0
 42
0.00000001
 43
0.00000001
 40
0.0
 40
0.0
 40
0.0
 40
0.0
 40
0.218785788707232
 40
0.4375776469534776
 40
0.6562353658863901
 40
0.8748419359490814
 40
1.0
 40
1.0
 40
1.0
 40
1.0
 10
566.0277468173074
 20
1950.697288879029
 30
0.0
 10
566.0630722141763
 20
1950.670325452957
 30
0.0
 10
566.1337239879086
 20
1950.616397852796
 30
0.0
 10
566.2676872165497
 20
1950.583801963823
 30
0.0
 10
566.4032298428298
 20
1950.593151095065
 30
0.0
 10
566.5121276471236
 20
1950.637029853146
 30
0.0
 10
566.5654313579296
 20
1950.681205411433
 30
0.0
 10
566.5848382095634
 20
1950.697288879029
 30
0.0
  0
ARC
  5
33A
330
1F
100
AcDbEntity
  8
1
  6
SLD-Сплошная
100
AcDbCircle
 10
549.0610245321
 20
1966.8294463666
 30
0.0
 40
26.56195549625512
100
AcDbArc
 50
313.8816987744
 51
316.1183012256
  0
ARC
  5
33B
330
1F
100
AcDbEntity
  8
1
  6
SLD-Сплошная
100
AcDbCircle
 10
550.29326954
 20
1933.3427641494
 30
0.0
 40
23.41191191580521
100
AcDbArc
 50
40.0824770913
 51
42.9865596106
  0
ARC
  5
33C
330
1F
100
AcDbEntity
  8
1
  6
SLD-Сплошная
100
AcDbCircle
 10
550.2932695398
 20
1965.8255926211
 30
0.0
 40
23.41191191600857
100
AcDbArc
 50
317.0134403894
 51
319.9175229087
  0
ARC
  5
33D
330
1F
100
AcDbEntity
  8
1
  6
SLD-Сплошная
100
AcDbCircle
 10
549.0610245322
 20
1932.3389104039
 30
0.0
 40
26.56195549612403
100
AcDbArc
 50
43.8816987744
 51
46.1183012256
  0
ARC
  5
33E
330
1F
100
AcDbEntity
  8
1
  6
SLD-Сплошная
100
AcDbCircle
 10
582.5477067495
 20
1933.5711554114
 30
0.0
 40
23.41191191629098
100
AcDbArc
 50
130.0824770913
 51
132.9865596106
  0
ARC
  5
33F
330
1F
100
AcDbEntity
  8
1
  6
SLD-Сплошная
100
AcDbCircle
 10
550.0648782775
 20
1933.5711554116
 30
0.0
 40
23.41191191600568
100
AcDbArc
 50
47.0134403894
 51
49.9175229087
  0
ARC
  5
340
330
1F
100
AcDbEntity
  8
1
  6
SLD-Сплошная
100
AcDbCircle
 10
583.5515604945
 20
1932.3389104042
 30
0.0
 40
26.56195549580399
100
AcDbArc
 50
133.8816987744
 51
136.1183012256
  0
ARC
  5
341
330
1F
100
AcDbEntity
  8
1
  6
SLD-Сплошная
100
AcDbCircle
 10
582.3193154871
 20
1965.8255926211
 30
0.0
 40
23.41191191600865
100
AcDbArc
 50
220.0824770913
 51
222.9865596106
  0
ARC
  5
342
330
1F
100
AcDbEntity
  8
1
  6
SLD-Сплошная
100
AcDbCircle
 10
582.3193154869
 20
1933.3427641494
 30
0.0
 40
23.41191191580521
100
AcDbArc
 50
137.0134403894
 51
139.9175229087
  0
ARC
  5
343
330
1F
100
AcDbEntity
  8
1
  6
SLD-Сплошная
100
AcDbCircle
 10
583.5515604944
 20
1966.8294463662
 30
0.0
 40
26.5619554956561
100
AcDbArc
 50
223.8816987744
 51
226.1183012256
  0
ARC
  5
344
330
1F
100
AcDbEntity
  8
1
  6
SLD-Сплошная
100
AcDbCircle
 10
550.0648782773
 20
1965.597201359
 30
0.0
 40
23.41191191627802
100
AcDbArc
 50
310.0824770913
 51
312.9865596106
  0
ARC
  5
345
330
1F
100
AcDbEntity
  8
1
  6
SLD-Сплошная
100
AcDbCircle
 10
582.5477067495
 20
1965.597201359
 30
0.0
 40
23.41191191626154
100
AcDbArc
 50
227.0134403894
 51
229.9175229087
  0
CIRCLE
  5
346
330
1F
100
AcDbEntity
  8
1
  6
SLD-Сплошная
100
AcDbCircle
 10
566.3062925134
 20
1949.5841783852
 30
0.0
 40
3.499999999999948
  0
LINE
  5
347
330
1F
100
AcDbEntity
  8
1
  6
SLD-Сплошная
100
AcDbLine
 10
565.1395663245
 20
1947.6843177314
 30
0.0
 11
565.1395663245
 21
1947.9224774494
 31
0.0
  0
LINE
  5
348
330
1F
100
AcDbEntity
  8
1
  6
SLD-Сплошная
100
AcDbLine
 10
565.1395663245
 20
1947.9224774494
 30
0.0
 11
566.0277468173
 21
1948.8106579423
 31
0.0
  0
LINE
  5
349
330
1F
100
AcDbEntity
  8
1
  6
SLD-Сплошная
100
AcDbLine
 10
567.4730187024
 20
1951.484039039
 30
0.0
 11
567.4730187024
 21
1951.245879321
 31
0.0
  0
LINE
  5
34A
330
1F
100
AcDbEntity
  8
1
  6
SLD-Сплошная
100
AcDbLine
 10
567.4730187024
 20
1951.245879321
 30
0.0
 11
566.5848382096
 21
1950.3576988282
 31
0.0
  0
LINE
  5
34B
330
1F
100
AcDbEntity
  8
1
  6
SLD-Сплошная
100
AcDbLine
 10
568.2061531672
 20
1948.4174521963
 30
0.0
 11
567.9679934492
 21
1948.4174521963
 31
0.0
  0
LINE
  5
34C
330
1F
100
AcDbEntity
  8
1
  6
SLD-Сплошная
100
AcDbLine
 10
567.9679934492
 20
1948.4174521963
 30
0.0
 11
567.0798129564
 21
1949.3056326891
 31
0.0
  0
LINE
  5
34D
330
1F
100
AcDbEntity
  8
1
  6
SLD-Сплошная
100
AcDbLine
 10
567.4730187024
 20
1947.6843177314
 30
0.0
 11
567.4730187024
 21
1947.9224774494
 31
0.0
  0
LINE
  5
34E
330
1F
100
AcDbEntity
  8
1
  6
SLD-Сплошная
100
AcDbLine
 10
566.5848382096
 20
1948.8106579423
 30
0.0
 11
567.4730187024
 21
1947.9224774494
 31
0.0
  0
LINE
  5
34F
330
1F
100
AcDbEntity
  8
1
  6
SLD-Сплошная
100
AcDbLine
 10
568.2061531672
 20
1950.7509045742
 30
0.0
 11
567.9679934492
 21
1950.7509045742
 31
0.0
  0
LINE
  5
350
330
1F
100
AcDbEntity
  8
1
  6
SLD-Сплошная
100
AcDbLine
 10
567.0798129564
 20
1949.8627240813
 30
0.0
 11
567.9679934492
 21
1950.7509045742
 31
0.0
  0
LINE
  5
351
330
1F
100
AcDbEntity
  8
1
  6
SLD-Сплошная
100
AcDbLine
 10
564.4064318596
 20
1950.7509045742
 30
0.0
 11
564.6445915776
 21
1950.7509045742
 31
0.0
  0
LINE
  5
352
330
1F
100
AcDbEntity
  8
1
  6
SLD-Сплошная
100
AcDbLine
 10
564.6445915776
 20
1950.7509045742
 30
0.0
 11
565.5327720705
 21
1949.8627240813
 31
0.0
  0
LINE
  5
353
330
1F
100
AcDbEntity
  8
1
  6
SLD-Сплошная
100
AcDbLine
 10
565.1395663245
 20
1951.484039039
 30
0.0
 11
565.1395663245
 21
1951.245879321
 31
0.0
  0
LINE
  5
354
330
1F
100
AcDbEntity
  8
1
  6
SLD-Сплошная
100
AcDbLine
 10
566.0277468173
 20
1950.3576988282
 30
0.0
 11
565.1395663245
 21
1951.245879321
 31
0.0
  0
LINE
  5
355
330
1F
100
AcDbEntity
  8
1
  6
SLD-Сплошная
100
AcDbLine
 10
564.4064318596
 20
1948.4174521963
 30
0.0
 11
564.6445915776
 21
1948.4174521963
 31
0.0
  0
LINE
  5
356
330
1F
100
AcDbEntity
  8
1
  6
SLD-Сплошная
100
AcDbLine
 10
565.5327720705
 20
1949.3056326891
 30
0.0
 11
564.6445915776
 21
1948.4174521963
 31
0.0
  0
LINE
  5
357
330
1F
100
AcDbEntity
  8
1
  6
SLD-Сплошная
100
AcDbLine
 10
567.9679934492
 20
1950.7509045742
 30
0.0
 11
567.4730187024
 21
1951.245879321
 31
0.0
  0
LINE
  5
358
330
1F
100
AcDbEntity
  8
1
  6
SLD-Сплошная
100
AcDbLine
 10
564.6445915776
 20
1948.4174521963
 30
0.0
 11
565.1395663245
 21
1947.9224774494
 31
0.0
  0
LINE
  5
359
330
1F
100
AcDbEntity
  8
1
  6
SLD-Сплошная
100
AcDbLine
 10
567.4730187024
 20
1947.9224774494
 30
0.0
 11
567.9679934492
 21
1948.4174521963
 31
0.0
  0
LINE
  5
35A
330
1F
100
AcDbEntity
  8
1
  6
SLD-Сплошная
100
AcDbLine
 10
565.1395663245
 20
1951.245879321
 30
0.0
 11
564.6445915776
 21
1950.7509045742
 31
0.0
  0
CIRCLE
  5
35B
330
1F
100
AcDbEntity
  8
1
  6
SLD-Сплошная
100
AcDbCircle
 10
566.3062925134
 20
1949.5841783852
 30
0.0
 40
4.99999999999996
  0
ARC
  5
35C
330
1F
100
AcDbEntity
  8
1
  6
SLD-Сплошная
100
AcDbCircle
 10
749.0610245322
 20
1966.8294463665
 30
0.0
 40
26.56195549613998
100
AcDbArc
 50
313.8816987744
 51
316.1183012256
  0
ARC
  5
35D
330
1F
100
AcDbEntity
  8
1
  6
SLD-Сплошная
100
AcDbCircle
 10
750.2932695399
 20
1933.3427641493
 30
0.0
 40
23.41191191593311
100
AcDbArc
 50
40.0824770913
 51
42.9865596106
  0
SPLINE
  5
35E
330
1F
100
AcDbEntity
  8
1
  6
SLD-Сплошная
100
AcDbSpline
210
0.0
220
0.0
230
1.0
 70
     8
 71
     3
 72
    12
 73
     8
 74
     0
 42
0.00000001
 43
0.00000001
 40
0.0
 40
0.0
 40
0.0
 40
0.0
 40
0.21878578870718
 40
0.437577646953484
 40
0.6562353658863962
 40
0.8748419359490618
 40
1.0
 40
1.0
 40
1.0
 40
1.0
 10
767.4194030072476
 20
1949.862724081345
 30
0.0
 10
767.3924395811755
 20
1949.827398684476
 30
0.0
 10
767.3385119810141
 20
1949.756746910744
 30
0.0
 10
767.305916092041
 20
1949.622783682102
 30
0.0
 10
767.3152652232831
 20
1949.487241055823
 30
0.0
 10
767.3591439813649
 20
1949.378343251529
 30
0.0
 10
767.4033195396513
 20
1949.325039540723
 30
0.0
 10
767.4194030072476
 20
1949.305632689089
 30
0.0
  0
ARC
  5
35F
330
1F
100
AcDbEntity
  8
1
  6
SLD-Сплошная
100
AcDbCircle
 10
750.2932695397
 20
1965.8255926212
 30
0.0
 40
23.41191191613647
100
AcDbArc
 50
317.0134403894
 51
319.9175229087
  0
ARC
  5
360
330
1F
100
AcDbEntity
  8
1
  6
SLD-Сплошная
100
AcDbCircle
 10
749.0610245322
 20
1932.338910404
 30
0.0
 40
26.56195549600923
100
AcDbArc
 50
43.8816987744
 51
46.1183012256
  0
ARC
  5
361
330
1F
100
AcDbEntity
  8
1
  6
SLD-Сплошная
100
AcDbCircle
 10
782.5477067495
 20
1933.5711554114
 30
0.0
 40
23.41191191625243
100
AcDbArc
 50
130.0824770913
 51
132.9865596106
  0
SPLINE
  5
362
330
1F
100
AcDbEntity
  8
1
  6
SLD-Сплошная
100
AcDbSpline
210
0.0
220
0.0
230
1.0
 70
     8
 71
     3
 72
    12
 73
     8
 74
     0
 42
0.00000001
 43
0.00000001
 40
0.0
 40
0.0
 40
0.0
 40
0.0
 40
0.218785788707232
 40
0.4375776469534776
 40
0.6562353658863901
 40
0.8748419359490814
 40
1.0
 40
1.0
 40
1.0
 40
1.0
 10
766.0277468173074
 20
1950.697288879029
 30
0.0
 10
766.0630722141764
 20
1950.670325452957
 30
0.0
 10
766.1337239879086
 20
1950.616397852796
 30
0.0
 10
766.2676872165497
 20
1950.583801963823
 30
0.0
 10
766.4032298428297
 20
1950.593151095065
 30
0.0
 10
766.5121276471236
 20
1950.637029853146
 30
0.0
 10
766.5654313579296
 20
1950.681205411433
 30
0.0
 10
766.5848382095634
 20
1950.697288879029
 30
0.0
  0
ARC
  5
363
330
1F
100
AcDbEntity
  8
1
  6
SLD-Сплошная
100
AcDbCircle
 10
750.0648782775
 20
1933.5711554116
 30
0.0
 40
23.41191191605057
100
AcDbArc
 50
47.0134403894
 51
49.9175229087
  0
ARC
  5
364
330
1F
100
AcDbEntity
  8
1
  6
SLD-Сплошная
100
AcDbCircle
 10
783.5515604949
 20
1932.3389104038
 30
0.0
 40
26.56195549638657
100
AcDbArc
 50
133.8816987744
 51
136.1183012256
  0
ARC
  5
365
330
1F
100
AcDbEntity
  8
1
  6
SLD-Сплошная
100
AcDbCircle
 10
782.3193154874
 20
1965.8255926215
 30
0.0
 40
23.41191191648929
100
AcDbArc
 50
220.0824770913
 51
222.9865596106
  0
SPLINE
  5
366
330
1F
100
AcDbEntity
  8
1
  6
SLD-Сплошная
100
AcDbSpline
210
0.0
220
0.0
230
1.0
 70
     8
 71
     3
 72
    12
 73
     8
 74
     0
 42
0.00000001
 43
0.00000001
 40
0.0
 40
0.0
 40
0.0
 40
0.0
 40
0.2187857887071779
 40
0.4375776469534854
 40
0.6562353658863993
 40
0.8748419359491335
 40
1.0
 40
1.0
 40
1.0
 40
1.0
 10
765.193182019623
 20
1949.305632689089
 30
0.0
 10
765.2201454456952
 20
1949.340958085958
 30
0.0
 10
765.2740730458567
 20
1949.41160985969
 30
0.0
 10
765.3066689348298
 20
1949.545573088331
 30
0.0
 10
765.2973198035876
 20
1949.681115714611
 30
0.0
 10
765.2534410455058
 20
1949.790013518905
 30
0.0
 10
765.2092654872193
 20
1949.843317229711
 30
0.0
 10
765.193182019623
 20
1949.862724081345
 30
0.0
  0
ARC
  5
367
330
1F
100
AcDbEntity
  8
1
  6
SLD-Сплошная
100
AcDbCircle
 10
782.3193154873
 20
1933.3427641491
 30
0.0
 40
23.41191191628599
100
AcDbArc
 50
137.0134403894
 51
139.9175229087
  0
ARC
  5
368
330
1F
100
AcDbEntity
  8
1
  6
SLD-Сплошная
100
AcDbCircle
 10
783.5515604948
 20
1966.8294463666
 30
0.0
 40
26.56195549623892
100
AcDbArc
 50
223.8816987744
 51
226.1183012256
  0
ARC
  5
369
330
1F
100
AcDbEntity
  8
1
  6
SLD-Сплошная
100
AcDbCircle
 10
750.0648782774
 20
1965.5972013589
 30
0.0
 40
23.41191191611569
100
AcDbArc
 50
310.0824770913
 51
312.9865596106
  0
SPLINE
  5
36A
330
1F
100
AcDbEntity
  8
1
  6
SLD-Сплошная
100
AcDbSpline
210
0.0
220
0.0
230
1.0
 70
     8
 71
     3
 72
    12
 73
     8
 74
     0
 42
0.00000001
 43
0.00000001
 40
0.0
 40
0.0
 40
0.0
 40
0.0
 40
0.2187857887072018
 40
0.4375776469534662
 40
0.6562353658863938
 40
0.8748419359491246
 40
1.0
 40
1.0
 40
1.0
 40
1.0
 10
766.5848382095634
 20
1948.471067891405
 30
0.0
 10
766.5495128126945
 20
1948.498031317477
 30
0.0
 10
766.478861038962
 20
1948.551958917639
 30
0.0
 10
766.3448978103211
 20
1948.584554806611
 30
0.0
 10
766.209355184041
 20
1948.575205675369
 30
0.0
 10
766.1004573797471
 20
1948.531326917288
 30
0.0
 10
766.0471536689412
 20
1948.487151359001
 30
0.0
 10
766.0277468173074
 20
1948.471067891405
 30
0.0
  0
ARC
  5
36B
330
1F
100
AcDbEntity
  8
1
  6
SLD-Сплошная
100
AcDbCircle
 10
782.5477067493
 20
1965.5972013588
 30
0.0
 40
23.41191191596903
100
AcDbArc
 50
227.0134403894
 51
229.9175229087
  0
CIRCLE
  5
36C
330
1F
100
AcDbEntity
  8
1
  6
SLD-Сплошная
100
AcDbCircle
 10
766.3062925134
 20
1949.5841783852
 30
0.0
 40
3.499999999999948
  0
ELLIPSE
  5
36D
330
1F
100
AcDbEntity
  8
1
  6
SLD-Сплошная
100
AcDbEllipse
 10
767.3756792947
 20
1949.5841783852
 30
0.0
 11
-0.4122489361055841
 21
0.0
 31
0.0
210
0.0
220
0.0
230
1.0
 40
0.9702875252
 41
5.512866274278831
 42
7.053504340080355
  0
ELLIPSE
  5
36E
330
1F
100
AcDbEntity
  8
1
  6
SLD-Сплошная
100
AcDbEllipse
 10
766.3062925134
 20
1948.5147916039
 30
0.0
 11
0.0
 21
0.4122489361056978
 31
0.0
210
0.0
220
0.0
230
1.0
 40
0.9702875252
 41
5.512866274278562
 42
7.053504340080828
  0
ELLIPSE
  5
36F
330
1F
100
AcDbEntity
  8
1
  6
SLD-Сплошная
100
AcDbEllipse
 10
766.3062925134
 20
1950.6535651665
 30
0.0
 11
0.0
 21
-0.4122489361059252
 31
0.0
210
0.0
220
0.0
230
1.0
 40
0.9702875252
 41
5.512866274278609
 42
7.053504340080373
  0
ELLIPSE
  5
370
330
1F
100
AcDbEntity
  8
1
  6
SLD-Сплошная
100
AcDbEllipse
 10
765.2369057322
 20
1949.5841783852
 30
0.0
 11
0.4122489361056978
 21
0.0
 31
0.0
210
0.0
220
0.0
230
1.0
 40
0.9702875252
 41
5.512866274278409
 42
7.053504340080777
  0
LINE
  5
371
330
1F
100
AcDbEntity
  8
1
  6
SLD-Сплошная
100
AcDbLine
 10
767.4730187024
 20
1947.6843177314
 30
0.0
 11
767.4730187024
 21
1947.9224774494
 31
0.0
  0
LINE
  5
372
330
1F
100
AcDbEntity
  8
1
  6
SLD-Сплошная
100
AcDbLine
 10
766.5848382096
 20
1948.8106579423
 30
0.0
 11
767.4730187024
 21
1947.9224774494
 31
0.0
  0
LINE
  5
373
330
1F
100
AcDbEntity
  8
1
  6
SLD-Сплошная
100
AcDbLine
 10
768.2061531672
 20
1948.4174521963
 30
0.0
 11
767.9679934492
 21
1948.4174521963
 31
0.0
  0
LINE
  5
374
330
1F
100
AcDbEntity
  8
1
  6
SLD-Сплошная
100
AcDbLine
 10
767.9679934492
 20
1948.4174521963
 30
0.0
 11
767.0798129564
 21
1949.3056326891
 31
0.0
  0
LINE
  5
375
330
1F
100
AcDbEntity
  8
1
  6
SLD-Сплошная
100
AcDbLine
 10
764.4064318596
 20
1950.7509045742
 30
0.0
 11
764.6445915776
 21
1950.7509045742
 31
0.0
  0
LINE
  5
376
330
1F
100
AcDbEntity
  8
1
  6
SLD-Сплошная
100
AcDbLine
 10
764.6445915776
 20
1950.7509045742
 30
0.0
 11
765.5327720705
 21
1949.8627240813
 31
0.0
  0
LINE
  5
377
330
1F
100
AcDbEntity
  8
1
  6
SLD-Сплошная
100
AcDbLine
 10
765.1395663245
 20
1951.484039039
 30
0.0
 11
765.1395663245
 21
1951.245879321
 31
0.0
  0
LINE
  5
378
330
1F
100
AcDbEntity
  8
1
  6
SLD-Сплошная
100
AcDbLine
 10
766.0277468173
 20
1950.3576988282
 30
0.0
 11
765.1395663245
 21
1951.245879321
 31
0.0
  0
LINE
  5
379
330
1F
100
AcDbEntity
  8
1
  6
SLD-Сплошная
100
AcDbLine
 10
767.4730187024
 20
1951.484039039
 30
0.0
 11
767.4730187024
 21
1951.245879321
 31
0.0
  0
LINE
  5
37A
330
1F
100
AcDbEntity
  8
1
  6
SLD-Сплошная
100
AcDbLine
 10
767.4730187024
 20
1951.245879321
 30
0.0
 11
766.5848382096
 21
1950.3576988282
 31
0.0
  0
LINE
  5
37B
330
1F
100
AcDbEntity
  8
1
  6
SLD-Сплошная
100
AcDbLine
 10
765.1395663245
 20
1947.6843177314
 30
0.0
 11
765.1395663245
 21
1947.9224774494
 31
0.0
  0
LINE
  5
37C
330
1F
100
AcDbEntity
  8
1
  6
SLD-Сплошная
100
AcDbLine
 10
765.1395663245
 20
1947.9224774494
 30
0.0
 11
766.0277468173
 21
1948.8106579423
 31
0.0
  0
LINE
  5
37D
330
1F
100
AcDbEntity
  8
1
  6
SLD-Сплошная
100
AcDbLine
 10
764.4064318596
 20
1948.4174521963
 30
0.0
 11
764.6445915776
 21
1948.4174521963
 31
0.0
  0
LINE
  5
37E
330
1F
100
AcDbEntity
  8
1
  6
SLD-Сплошная
100
AcDbLine
 10
765.5327720705
 20
1949.3056326891
 30
0.0
 11
764.6445915776
 21
1948.4174521963
 31
0.0
  0
LINE
  5
37F
330
1F
100
AcDbEntity
  8
1
  6
SLD-Сплошная
100
AcDbLine
 10
768.2061531672
 20
1950.7509045742
 30
0.0
 11
767.9679934492
 21
1950.7509045742
 31
0.0
  0
LINE
  5
380
330
1F
100
AcDbEntity
  8
1
  6
SLD-Сплошная
100
AcDbLine
 10
767.0798129564
 20
1949.8627240813
 30
0.0
 11
767.9679934492
 21
1950.7509045742
 31
0.0
  0
LINE
  5
381
330
1F
100
AcDbEntity
  8
1
  6
SLD-Сплошная
100
AcDbLine
 10
767.4730187024
 20
1947.9224774494
 30
0.0
 11
767.9679934492
 21
1948.4174521963
 31
0.0
  0
LINE
  5
382
330
1F
100
AcDbEntity
  8
1
  6
SLD-Сплошная
100
AcDbLine
 10
767.9679934492
 20
1950.7509045742
 30
0.0
 11
767.4730187024
 21
1951.245879321
 31
0.0
  0
LINE
  5
383
330
1F
100
AcDbEntity
  8
1
  6
SLD-Сплошная
100
AcDbLine
 10
764.6445915776
 20
1948.4174521963
 30
0.0
 11
765.1395663245
 21
1947.9224774494
 31
0.0
  0
LINE
  5
384
330
1F
100
AcDbEntity
  8
1
  6
SLD-Сплошная
100
AcDbLine
 10
765.1395663245
 20
1951.245879321
 30
0.0
 11
764.6445915776
 21
1950.7509045742
 31
0.0
  0
CIRCLE
  5
385
330
1F
100
AcDbEntity
  8
1
  6
SLD-Сплошная
100
AcDbCircle
 10
766.3062925134
 20
1949.5841783852
 30
0.0
 40
4.999999999999879
  0
ELLIPSE
  5
386
330
1F
100
AcDbEntity
  8
1
  6
SLD-Сплошная
100
AcDbEllipse
 10
566.3062925134
 20
2110.6535651665
 30
0.0
 11
0.0
 21
-0.412248936105243
 31
0.0
210
0.0
220
0.0
230
1.0
 40
0.9702875252
 41
5.512866274278668
 42
7.053504340080314
  0
SPLINE
  5
387
330
1F
100
AcDbEntity
  8
1
  6
SLD-Сплошная
100
AcDbSpline
210
0.0
220
0.0
230
1.0
 70
     8
 71
     3
 72
    12
 73
     8
 74
     0
 42
0.00000001
 43
0.00000001
 40
0.0
 40
0.0
 40
0.0
 40
0.0
 40
0.2187857887072251
 40
0.4375776469534808
 40
0.6562353658863884
 40
0.8748419359490995
 40
0.9999999999999999
 40
0.9999999999999999
 40
0.9999999999999999
 40
0.9999999999999999
 10
566.0277468173073
 20
2110.697288879029
 30
0.0
 10
566.0630722141761
 20
2110.670325452958
 30
0.0
 10
566.1337239879086
 20
2110.616397852796
 30
0.0
 10
566.2676872165496
 20
2110.583801963823
 30
0.0
 10
566.4032298428297
 20
2110.593151095065
 30
0.0
 10
566.5121276471235
 20
2110.637029853147
 30
0.0
 10
566.5654313579295
 20
2110.681205411433
 30
0.0
 10
566.5848382095633
 20
2110.697288879029
 30
0.0
  0
ELLIPSE
  5
388
330
1F
100
AcDbEntity
  8
1
  6
SLD-Сплошная
100
AcDbEllipse
 10
565.2369057322
 20
2109.5841783852
 30
0.0
 11
0.4122489361056978
 21
0.0
 31
0.0
210
0.0
220
0.0
230
1.0
 40
0.9702875252
 41
5.512866274278339
 42
7.053504340081662
  0
SPLINE
  5
389
330
1F
100
AcDbEntity
  8
1
  6
SLD-Сплошная
100
AcDbSpline
210
0.0
220
0.0
230
1.0
 70
     8
 71
     3
 72
    12
 73
     8
 74
     0
 42
0.00000001
 43
0.00000001
 40
0.0
 40
0.0
 40
0.0
 40
0.0
 40
0.2187857887071817
 40
0.4375776469534929
 40
0.6562353658863669
 40
0.8748419359490961
 40
1.0
 40
1.0
 40
1.0
 40
1.0
 10
565.193182019623
 20
2109.305632689089
 30
0.0
 10
565.2201454456952
 20
2109.340958085958
 30
0.0
 10
565.2740730458567
 20
2109.411609859691
 30
0.0
 10
565.3066689348298
 20
2109.545573088331
 30
0.0
 10
565.2973198035876
 20
2109.681115714611
 30
0.0
 10
565.2534410455058
 20
2109.790013518905
 30
0.0
 10
565.2092654872192
 20
2109.843317229711
 30
0.0
 10
565.193182019623
 20
2109.862724081345
 30
0.0
  0
ARC
  5
38A
330
1F
100
AcDbEntity
  8
1
  6
SLD-Сплошная
100
AcDbCircle
 10
583.551560495
 20
2126.8294463667
 30
0.0
 40
26.56195549648374
100
AcDbArc
 50
223.8816987744
 51
226.1183012256
  0
ARC
  5
38B
330
1F
100
AcDbEntity
  8
1
  6
SLD-Сплошная
100
AcDbCircle
 10
550.0648782772
 20
2125.5972013592
 30
0.0
 40
23.41191191644755
100
AcDbArc
 50
310.0824770913
 51
312.9865596106
  0
SPLINE
  5
38C
330
1F
100
AcDbEntity
  8
1
  6
SLD-Сплошная
100
AcDbSpline
210
0.0
220
0.0
230
1.0
 70
     8
 71
     3
 72
    12
 73
     8
 74
     0
 42
0.00000001
 43
0.00000001
 40
0.0
 40
0.0
 40
0.0
 40
0.0
 40
0.218785788707216
 40
0.4375776469534873
 40
0.6562353658863915
 40
0.8748419359491179
 40
1.0
 40
1.0
 40
1.0
 40
1.0
 10
566.5848382095633
 20
2108.471067891405
 30
0.0
 10
566.5495128126944
 20
2108.498031317477
 30
0.0
 10
566.4788610389619
 20
2108.551958917638
 30
0.0
 10
566.3448978103211
 20
2108.584554806611
 30
0.0
 10
566.2093551840409
 20
2108.575205675369
 30
0.0
 10
566.100457379747
 20
2108.531326917288
 30
0.0
 10
566.0471536689411
 20
2108.487151359001
 30
0.0
 10
566.0277468173073
 20
2108.471067891405
 30
0.0
  0
ARC
  5
38D
330
1F
100
AcDbEntity
  8
1
  6
SLD-Сплошная
100
AcDbCircle
 10
582.5477067492
 20
2125.5972013587
 30
0.0
 40
23.41191191582626
100
AcDbArc
 50
227.0134403894
 51
229.9175229087
  0
ARC
  5
38E
330
1F
100
AcDbEntity
  8
1
  6
SLD-Сплошная
100
AcDbCircle
 10
549.0610245328
 20
2126.8294463659
 30
0.0
 40
26.5619554952484
100
AcDbArc
 50
313.8816987744
 51
316.1183012256
  0
ARC
  5
38F
330
1F
100
AcDbEntity
  8
1
  6
SLD-Сплошная
100
AcDbCircle
 10
550.2932695401
 20
2093.3427641495
 30
0.0
 40
23.4119119156793
100
AcDbArc
 50
40.0824770913
 51
42.9865596106
  0
SPLINE
  5
390
330
1F
100
AcDbEntity
  8
1
  6
SLD-Сплошная
100
AcDbSpline
210
0.0
220
0.0
230
1.0
 70
     8
 71
     3
 72
    12
 73
     8
 74
     0
 42
0.00000001
 43
0.00000001
 40
0.0
 40
0.0
 40
0.0
 40
0.0
 40
0.2187857887072159
 40
0.4375776469534802
 40
0.6562353658863924
 40
0.8748419359490979
 40
1.0
 40
1.0
 40
1.0
 40
1.0
 10
567.4194030072475
 20
2109.862724081345
 30
0.0
 10
567.3924395811756
 20
2109.827398684476
 30
0.0
 10
567.338511981014
 20
2109.756746910744
 30
0.0
 10
567.305916092041
 20
2109.622783682103
 30
0.0
 10
567.3152652232832
 20
2109.487241055822
 30
0.0
 10
567.3591439813648
 20
2109.378343251529
 30
0.0
 10
567.4033195396513
 20
2109.325039540723
 30
0.0
 10
567.4194030072475
 20
2109.305632689089
 30
0.0
  0
ARC
  5
391
330
1F
100
AcDbEntity
  8
1
  6
SLD-Сплошная
100
AcDbCircle
 10
550.2932695398
 20
2125.8255926212
 30
0.0
 40
23.41191191604719
100
AcDbArc
 50
317.0134403894
 51
319.9175229087
  0
ARC
  5
392
330
1F
100
AcDbEntity
  8
1
  6
SLD-Сплошная
100
AcDbCircle
 10
549.0610245315
 20
2092.3389104033
 30
0.0
 40
26.56195549705585
100
AcDbArc
 50
43.8816987744
 51
46.1183012255
  0
ARC
  5
393
330
1F
100
AcDbEntity
  8
1
  6
SLD-Сплошная
100
AcDbCircle
 10
582.5477067499
 20
2093.571155411
 30
0.0
 40
23.41191191681524
100
AcDbArc
 50
130.0824770914
 51
132.9865596105
  0
ARC
  5
394
330
1F
100
AcDbEntity
  8
1
  6
SLD-Сплошная
100
AcDbCircle
 10
550.0648782771
 20
2093.5711554112
 30
0.0
 40
23.41191191656002
100
AcDbArc
 50
47.0134403894
 51
49.9175229086
  0
ARC
  5
395
330
1F
100
AcDbEntity
  8
1
  6
SLD-Сплошная
100
AcDbCircle
 10
583.5515604955
 20
2092.3389104032
 30
0.0
 40
26.56195549724174
100
AcDbArc
 50
133.8816987745
 51
136.1183012255
  0
ARC
  5
396
330
1F
100
AcDbEntity
  8
1
  6
SLD-Сплошная
100
AcDbCircle
 10
582.3193154871
 20
2125.8255926212
 30
0.0
 40
23.41191191608866
100
AcDbArc
 50
220.0824770913
 51
222.9865596106
  0
ARC
  5
397
330
1F
100
AcDbEntity
  8
1
  6
SLD-Сплошная
100
AcDbCircle
 10
582.3193154869
 20
2093.3427641494
 30
0.0
 40
23.41191191583646
100
AcDbArc
 50
137.0134403894
 51
139.9175229087
  0
CIRCLE
  5
398
330
1F
100
AcDbEntity
  8
1
  6
SLD-Сплошная
100
AcDbCircle
 10
566.3062925134
 20
2109.5841783852
 30
0.0
 40
3.499999999999948
  0
ELLIPSE
  5
399
330
1F
100
AcDbEntity
  8
1
  6
SLD-Сплошная
100
AcDbEllipse
 10
567.3756792947
 20
2109.5841783852
 30
0.0
 11
-0.4122489361055841
 21
0.0
 31
0.0
210
0.0
220
0.0
230
1.0
 40
0.9702875252
 41
5.512866274278423
 42
7.053504340079948
  0
ELLIPSE
  5
39A
330
1F
100
AcDbEntity
  8
1
  6
SLD-Сплошная
100
AcDbEllipse
 10
566.3062925134
 20
2108.5147916039
 30
0.0
 11
0.0
 21
0.4122489361056978
 31
0.0
210
0.0
220
0.0
230
1.0
 40
0.9702875252
 41
5.512866274278179
 42
7.053504340081211
  0
LINE
  5
39B
330
1F
100
AcDbEntity
  8
1
  6
SLD-Сплошная
100
AcDbLine
 10
567.4730187024
 20
2107.6843177314
 30
0.0
 11
567.4730187024
 21
2107.9224774494
 31
0.0
  0
LINE
  5
39C
330
1F
100
AcDbEntity
  8
1
  6
SLD-Сплошная
100
AcDbLine
 10
566.5848382096
 20
2108.8106579423
 30
0.0
 11
567.4730187024
 21
2107.9224774494
 31
0.0
  0
LINE
  5
39D
330
1F
100
AcDbEntity
  8
1
  6
SLD-Сплошная
100
AcDbLine
 10
564.4064318596
 20
2108.4174521963
 30
0.0
 11
564.6445915776
 21
2108.4174521963
 31
0.0
  0
LINE
  5
39E
330
1F
100
AcDbEntity
  8
1
  6
SLD-Сплошная
100
AcDbLine
 10
565.5327720705
 20
2109.3056326891
 30
0.0
 11
564.6445915776
 21
2108.4174521963
 31
0.0
  0
LINE
  5
39F
330
1F
100
AcDbEntity
  8
1
  6
SLD-Сплошная
100
AcDbLine
 10
565.1395663245
 20
2107.6843177314
 30
0.0
 11
565.1395663245
 21
2107.9224774494
 31
0.0
  0
LINE
  5
3A0
330
1F
100
AcDbEntity
  8
1
  6
SLD-Сплошная
100
AcDbLine
 10
565.1395663245
 20
2107.9224774494
 30
0.0
 11
566.0277468173
 21
2108.8106579423
 31
0.0
  0
LINE
  5
3A1
330
1F
100
AcDbEntity
  8
1
  6
SLD-Сплошная
100
AcDbLine
 10
568.2061531672
 20
2108.4174521963
 30
0.0
 11
567.9679934492
 21
2108.4174521963
 31
0.0
  0
LINE
  5
3A2
330
1F
100
AcDbEntity
  8
1
  6
SLD-Сплошная
100
AcDbLine
 10
567.9679934492
 20
2108.4174521963
 30
0.0
 11
567.0798129564
 21
2109.3056326891
 31
0.0
  0
LINE
  5
3A3
330
1F
100
AcDbEntity
  8
1
  6
SLD-Сплошная
100
AcDbLine
 10
568.2061531672
 20
2110.7509045742
 30
0.0
 11
567.9679934492
 21
2110.7509045742
 31
0.0
  0
LINE
  5
3A4
330
1F
100
AcDbEntity
  8
1
  6
SLD-Сплошная
100
AcDbLine
 10
567.0798129564
 20
2109.8627240813
 30
0.0
 11
567.9679934492
 21
2110.7509045742
 31
0.0
  0
LINE
  5
3A5
330
1F
100
AcDbEntity
  8
1
  6
SLD-Сплошная
100
AcDbLine
 10
565.1395663245
 20
2111.484039039
 30
0.0
 11
565.1395663245
 21
2111.245879321
 31
0.0
  0
LINE
  5
3A6
330
1F
100
AcDbEntity
  8
1
  6
SLD-Сплошная
100
AcDbLine
 10
566.0277468173
 20
2110.3576988282
 30
0.0
 11
565.1395663245
 21
2111.245879321
 31
0.0
  0
LINE
  5
3A7
330
1F
100
AcDbEntity
  8
1
  6
SLD-Сплошная
100
AcDbLine
 10
564.4064318596
 20
2110.7509045742
 30
0.0
 11
564.6445915776
 21
2110.7509045742
 31
0.0
  0
LINE
  5
3A8
330
1F
100
AcDbEntity
  8
1
  6
SLD-Сплошная
100
AcDbLine
 10
564.6445915776
 20
2110.7509045742
 30
0.0
 11
565.5327720705
 21
2109.8627240813
 31
0.0
  0
LINE
  5
3A9
330
1F
100
AcDbEntity
  8
1
  6
SLD-Сплошная
100
AcDbLine
 10
567.4730187024
 20
2111.484039039
 30
0.0
 11
567.4730187024
 21
2111.245879321
 31
0.0
  0
LINE
  5
3AA
330
1F
100
AcDbEntity
  8
1
  6
SLD-Сплошная
100
AcDbLine
 10
567.4730187024
 20
2111.245879321
 30
0.0
 11
566.5848382096
 21
2110.3576988282
 31
0.0
  0
LINE
  5
3AB
330
1F
100
AcDbEntity
  8
1
  6
SLD-Сплошная
100
AcDbLine
 10
564.6445915776
 20
2108.4174521963
 30
0.0
 11
565.1395663245
 21
2107.9224774494
 31
0.0
  0
LINE
  5
3AC
330
1F
100
AcDbEntity
  8
1
  6
SLD-Сплошная
100
AcDbLine
 10
567.4730187024
 20
2107.9224774494
 30
0.0
 11
567.9679934492
 21
2108.4174521963
 31
0.0
  0
LINE
  5
3AD
330
1F
100
AcDbEntity
  8
1
  6
SLD-Сплошная
100
AcDbLine
 10
565.1395663245
 20
2111.245879321
 30
0.0
 11
564.6445915776
 21
2110.7509045742
 31
0.0
  0
LINE
  5
3AE
330
1F
100
AcDbEntity
  8
1
  6
SLD-Сплошная
100
AcDbLine
 10
567.9679934492
 20
2110.7509045742
 30
0.0
 11
567.4730187024
 21
2111.245879321
 31
0.0
  0
CIRCLE
  5
3AF
330
1F
100
AcDbEntity
  8
1
  6
SLD-Сплошная
100
AcDbCircle
 10
566.3062925134
 20
2109.5841783852
 30
0.0
 40
4.999999999999799
  0
ELLIPSE
  5
3B0
330
1F
100
AcDbEntity
  8
1
  6
SLD-Сплошная
100
AcDbEllipse
 10
882.7369057322
 20
2029.5841783852
 30
0.0
 11
0.4122489361056978
 21
0.0
 31
0.0
210
0.0
220
0.0
230
1.0
 40
0.9702875252
 41
5.512866274278217
 42
7.05350434008097
  0
SPLINE
  5
3B1
330
1F
100
AcDbEntity
  8
1
  6
SLD-Сплошная
100
AcDbSpline
210
0.0
220
0.0
230
1.0
 70
     8
 71
     3
 72
    12
 73
     8
 74
     0
 42
0.00000001
 43
0.00000001
 40
0.0
 40
0.0
 40
0.0
 40
0.0
 40
0.2187857887071782
 40
0.4375776469534927
 40
0.656235365886419
 40
0.8748419359490827
 40
0.9999999999999999
 40
0.9999999999999999
 40
0.9999999999999999
 40
0.9999999999999999
 10
882.6931820196231
 20
2029.305632689089
 30
0.0
 10
882.7201454456952
 20
2029.340958085958
 30
0.0
 10
882.7740730458567
 20
2029.41160985969
 30
0.0
 10
882.8066689348295
 20
2029.545573088332
 30
0.0
 10
882.7973198035877
 20
2029.681115714611
 30
0.0
 10
882.7534410455057
 20
2029.790013518905
 30
0.0
 10
882.7092654872193
 20
2029.843317229711
 30
0.0
 10
882.693182019623
 20
2029.862724081345
 30
0.0
  0
ELLIPSE
  5
3B2
330
1F
100
AcDbEntity
  8
1
  6
SLD-Сплошная
100
AcDbEllipse
 10
883.8062925134
 20
2028.5147916039
 30
0.0
 11
0.0
 21
0.4122489361056978
 31
0.0
210
0.0
220
0.0
230
1.0
 40
0.9702875252
 41
5.512866274278947
 42
7.053504340080444
  0
SPLINE
  5
3B3
330
1F
100
AcDbEntity
  8
1
  6
SLD-Сплошная
100
AcDbSpline
210
0.0
220
0.0
230
1.0
 70
     8
 71
     3
 72
    12
 73
     8
 74
     0
 42
0.00000001
 43
0.00000001
 40
0.0
 40
0.0
 40
0.0
 40
0.0
 40
0.2187857887072505
 40
0.4375776469534957
 40
0.656235365886408
 40
0.8748419359490991
 40
1.0
 40
1.0
 40
1.0
 40
1.0
 10
884.0848382095633
 20
2028.471067891405
 30
0.0
 10
884.0495128126944
 20
2028.498031317477
 30
0.0
 10
883.9788610389619
 20
2028.551958917638
 30
0.0
 10
883.8448978103208
 20
2028.584554806611
 30
0.0
 10
883.7093551840409
 20
2028.575205675369
 30
0.0
 10
883.600457379747
 20
2028.531326917288
 30
0.0
 10
883.547153668941
 20
2028.487151359001
 30
0.0
 10
883.5277468173073
 20
2028.471067891405
 30
0.0
  0
ELLIPSE
  5
3B4
330
1F
100
AcDbEntity
  8
1
  6
SLD-Сплошная
100
AcDbEllipse
 10
883.8062925134
 20
2030.6535651665
 30
0.0
 11
0.0
 21
-0.4122489361056978
 31
0.0
210
0.0
220
0.0
230
1.0
 40
0.9702875252
 41
5.512866274278884
 42
7.053504340080098
  0
SPLINE
  5
3B5
330
1F
100
AcDbEntity
  8
1
  6
SLD-Сплошная
100
AcDbSpline
210
0.0
220
0.0
230
1.0
 70
     8
 71
     3
 72
    12
 73
     8
 74
     0
 42
0.00000001
 43
0.00000001
 40
0.0
 40
0.0
 40
0.0
 40
0.0
 40
0.2187857887071824
 40
0.4375776469534896
 40
0.6562353658863712
 40
0.8748419359491427
 40
1.0
 40
1.0
 40
1.0
 40
1.0
 10
883.5277468173073
 20
2030.69728887903
 30
0.0
 10
883.5630722141761
 20
2030.670325452957
 30
0.0
 10
883.6337239879086
 20
2030.616397852796
 30
0.0
 10
883.7676872165497
 20
2030.583801963823
 30
0.0
 10
883.9032298428297
 20
2030.593151095065
 30
0.0
 10
884.0121276471235
 20
2030.637029853147
 30
0.0
 10
884.0654313579295
 20
2030.681205411433
 30
0.0
 10
884.0848382095633
 20
2030.69728887903
 30
0.0
  0
ARC
  5
3B6
330
1F
100
AcDbEntity
  8
1
  6
SLD-Сплошная
100
AcDbCircle
 10
901.0515604945
 20
2046.8294463663
 30
0.0
 40
26.56195549580784
100
AcDbArc
 50
223.8816987744
 51
226.1183012256
  0
ARC
  5
3B7
330
1F
100
AcDbEntity
  8
1
  6
SLD-Сплошная
100
AcDbCircle
 10
867.5648782768
 20
2045.5972013596
 30
0.0
 40
23.41191191703117
100
AcDbArc
 50
310.0824770914
 51
312.9865596105
  0
ARC
  5
3B8
330
1F
100
AcDbEntity
  8
1
  6
SLD-Сплошная
100
AcDbCircle
 10
900.0477067497
 20
2045.5972013593
 30
0.0
 40
23.41191191660241
100
AcDbArc
 50
227.0134403895
 51
229.9175229087
  0
ARC
  5
3B9
330
1F
100
AcDbEntity
  8
1
  6
SLD-Сплошная
100
AcDbCircle
 10
866.5610245328
 20
2046.8294463659
 30
0.0
 40
26.56195549528011
100
AcDbArc
 50
313.8816987744
 51
316.1183012256
  0
ARC
  5
3BA
330
1F
100
AcDbEntity
  8
1
  6
SLD-Сплошная
100
AcDbCircle
 10
867.7932695399
 20
2013.3427641494
 30
0.0
 40
23.41191191591012
100
AcDbArc
 50
40.0824770913
 51
42.9865596106
  0
SPLINE
  5
3BB
330
1F
100
AcDbEntity
  8
1
  6
SLD-Сплошная
100
AcDbSpline
210
0.0
220
0.0
230
1.0
 70
     8
 71
     3
 72
    12
 73
     8
 74
     0
 42
0.00000001
 43
0.00000001
 40
0.0
 40
0.0
 40
0.0
 40
0.0
 40
0.2187857887071878
 40
0.4375776469534872
 40
0.6562353658863948
 40
0.8748419359490643
 40
1.0
 40
1.0
 40
1.0
 40
1.0
 10
884.9194030072476
 20
2029.862724081345
 30
0.0
 10
884.8924395811755
 20
2029.827398684476
 30
0.0
 10
884.838511981014
 20
2029.756746910744
 30
0.0
 10
884.8059160920409
 20
2029.622783682103
 30
0.0
 10
884.8152652232831
 20
2029.487241055823
 30
0.0
 10
884.8591439813649
 20
2029.378343251529
 30
0.0
 10
884.9033195396513
 20
2029.325039540723
 30
0.0
 10
884.9194030072476
 20
2029.305632689089
 30
0.0
  0
ARC
  5
3BC
330
1F
100
AcDbEntity
  8
1
  6
SLD-Сплошная
100
AcDbCircle
 10
867.7932695396
 20
2045.8255926213
 30
0.0
 40
23.41191191632268
100
AcDbArc
 50
317.0134403894
 51
319.9175229087
  0
ARC
  5
3BD
330
1F
100
AcDbEntity
  8
1
  6
SLD-Сплошная
100
AcDbCircle
 10
866.561024533
 20
2012.3389104048
 30
0.0
 40
26.56195549489585
100
AcDbArc
 50
43.8816987744
 51
46.1183012256
  0
ARC
  5
3BE
330
1F
100
AcDbEntity
  8
1
  6
SLD-Сплошная
100
AcDbCircle
 10
900.0477067497
 20
2013.5711554112
 30
0.0
 40
23.41191191659645
100
AcDbArc
 50
130.0824770913
 51
132.9865596105
  0
ARC
  5
3BF
330
1F
100
AcDbEntity
  8
1
  6
SLD-Сплошная
100
AcDbCircle
 10
867.5648782772
 20
2013.5711554112
 30
0.0
 40
23.41191191654992
100
AcDbArc
 50
47.0134403895
 51
49.9175229087
  0
ARC
  5
3C0
330
1F
100
AcDbEntity
  8
1
  6
SLD-Сплошная
100
AcDbCircle
 10
901.0515604942
 20
2012.3389104044
 30
0.0
 40
26.5619554954231
100
AcDbArc
 50
133.8816987744
 51
136.1183012256
  0
ARC
  5
3C1
330
1F
100
AcDbEntity
  8
1
  6
SLD-Сплошная
100
AcDbCircle
 10
899.8193154874
 20
2045.8255926214
 30
0.0
 40
23.41191191642352
100
AcDbArc
 50
220.0824770913
 51
222.9865596106
  0
ARC
  5
3C2
330
1F
100
AcDbEntity
  8
1
  6
SLD-Сплошная
100
AcDbCircle
 10
899.8193154871
 20
2013.3427641492
 30
0.0
 40
23.41191191612996
100
AcDbArc
 50
137.0134403894
 51
139.9175229087
  0
CIRCLE
  5
3C3
330
1F
100
AcDbEntity
  8
1
  6
SLD-Сплошная
100
AcDbCircle
 10
883.8062925134
 20
2029.5841783852
 30
0.0
 40
3.500000000000028
  0
ELLIPSE
  5
3C4
330
1F
100
AcDbEntity
  8
1
  6
SLD-Сплошная
100
AcDbEllipse
 10
884.8756792947
 20
2029.5841783852
 30
0.0
 11
-0.4122489361055841
 21
0.0
 31
0.0
210
0.0
220
0.0
230
1.0
 40
0.9702875252
 41
5.512866274278831
 42
7.053504340080355
  0
LINE
  5
3C5
330
1F
100
AcDbEntity
  8
1
  6
SLD-Сплошная
100
AcDbLine
 10
881.9064318596
 20
2028.4174521963
 30
0.0
 11
882.1445915776
 21
2028.4174521963
 31
0.0
  0
LINE
  5
3C6
330
1F
100
AcDbEntity
  8
1
  6
SLD-Сплошная
100
AcDbLine
 10
883.0327720705
 20
2029.3056326891
 30
0.0
 11
882.1445915776
 21
2028.4174521963
 31
0.0
  0
LINE
  5
3C7
330
1F
100
AcDbEntity
  8
1
  6
SLD-Сплошная
100
AcDbLine
 10
885.7061531672
 20
2028.4174521963
 30
0.0
 11
885.4679934492
 21
2028.4174521963
 31
0.0
  0
LINE
  5
3C8
330
1F
100
AcDbEntity
  8
1
  6
SLD-Сплошная
100
AcDbLine
 10
885.4679934492
 20
2028.4174521963
 30
0.0
 11
884.5798129564
 21
2029.3056326891
 31
0.0
  0
LINE
  5
3C9
330
1F
100
AcDbEntity
  8
1
  6
SLD-Сплошная
100
AcDbLine
 10
882.6395663245
 20
2027.6843177314
 30
0.0
 11
882.6395663245
 21
2027.9224774494
 31
0.0
  0
LINE
  5
3CA
330
1F
100
AcDbEntity
  8
1
  6
SLD-Сплошная
100
AcDbLine
 10
882.6395663245
 20
2027.9224774494
 30
0.0
 11
883.5277468173
 21
2028.8106579423
 31
0.0
  0
LINE
  5
3CB
330
1F
100
AcDbEntity
  8
1
  6
SLD-Сплошная
100
AcDbLine
 10
882.6395663245
 20
2031.484039039
 30
0.0
 11
882.6395663245
 21
2031.245879321
 31
0.0
  0
LINE
  5
3CC
330
1F
100
AcDbEntity
  8
1
  6
SLD-Сплошная
100
AcDbLine
 10
883.5277468173
 20
2030.3576988282
 30
0.0
 11
882.6395663245
 21
2031.245879321
 31
0.0
  0
LINE
  5
3CD
330
1F
100
AcDbEntity
  8
1
  6
SLD-Сплошная
100
AcDbLine
 10
884.9730187024
 20
2031.484039039
 30
0.0
 11
884.9730187024
 21
2031.245879321
 31
0.0
  0
LINE
  5
3CE
330
1F
100
AcDbEntity
  8
1
  6
SLD-Сплошная
100
AcDbLine
 10
884.9730187024
 20
2031.245879321
 30
0.0
 11
884.0848382096
 21
2030.3576988282
 31
0.0
  0
LINE
  5
3CF
330
1F
100
AcDbEntity
  8
1
  6
SLD-Сплошная
100
AcDbLine
 10
884.9730187024
 20
2027.6843177314
 30
0.0
 11
884.9730187024
 21
2027.9224774494
 31
0.0
  0
LINE
  5
3D0
330
1F
100
AcDbEntity
  8
1
  6
SLD-Сплошная
100
AcDbLine
 10
884.0848382096
 20
2028.8106579423
 30
0.0
 11
884.9730187024
 21
2027.9224774494
 31
0.0
  0
LINE
  5
3D1
330
1F
100
AcDbEntity
  8
1
  6
SLD-Сплошная
100
AcDbLine
 10
885.7061531672
 20
2030.7509045742
 30
0.0
 11
885.4679934492
 21
2030.7509045742
 31
0.0
  0
LINE
  5
3D2
330
1F
100
AcDbEntity
  8
1
  6
SLD-Сплошная
100
AcDbLine
 10
884.5798129564
 20
2029.8627240813
 30
0.0
 11
885.4679934492
 21
2030.7509045742
 31
0.0
  0
LINE
  5
3D3
330
1F
100
AcDbEntity
  8
1
  6
SLD-Сплошная
100
AcDbLine
 10
881.9064318596
 20
2030.7509045742
 30
0.0
 11
882.1445915776
 21
2030.7509045742
 31
0.0
  0
LINE
  5
3D4
330
1F
100
AcDbEntity
  8
1
  6
SLD-Сплошная
100
AcDbLine
 10
882.1445915776
 20
2030.7509045742
 30
0.0
 11
883.0327720705
 21
2029.8627240813
 31
0.0
  0
LINE
  5
3D5
330
1F
100
AcDbEntity
  8
1
  6
SLD-Сплошная
100
AcDbLine
 10
882.6395663245
 20
2031.245879321
 30
0.0
 11
882.1445915776
 21
2030.7509045742
 31
0.0
  0
LINE
  5
3D6
330
1F
100
AcDbEntity
  8
1
  6
SLD-Сплошная
100
AcDbLine
 10
882.1445915776
 20
2028.4174521963
 30
0.0
 11
882.6395663245
 21
2027.9224774494
 31
0.0
  0
LINE
  5
3D7
330
1F
100
AcDbEntity
  8
1
  6
SLD-Сплошная
100
AcDbLine
 10
884.9730187024
 20
2027.9224774494
 30
0.0
 11
885.4679934492
 21
2028.4174521963
 31
0.0
  0
LINE
  5
3D8
330
1F
100
AcDbEntity
  8
1
  6
SLD-Сплошная
100
AcDbLine
 10
885.4679934492
 20
2030.7509045742
 30
0.0
 11
884.9730187024
 21
2031.245879321
 31
0.0
  0
CIRCLE
  5
3D9
330
1F
100
AcDbEntity
  8
1
  6
SLD-Сплошная
100
AcDbCircle
 10
883.8062925134
 20
2029.5841783852
 30
0.0
 40
4.99999999999996
  0
ELLIPSE
  5
3DA
330
1F
100
AcDbEntity
  8
1
  6
SLD-Сплошная
100
AcDbEllipse
 10
449.8756792947
 20
2092.0841783852
 30
0.0
 11
-0.4122489361056409
 21
0.0
 31
0.0
210
0.0
220
0.0
230
1.0
 40
0.9702875252
 41
5.512866274278258
 42
7.053504340080113
  0
SPLINE
  5
3DB
330
1F
100
AcDbEntity
  8
1
  6
SLD-Сплошная
100
AcDbSpline
210
0.0
220
0.0
230
1.0
 70
     8
 71
     3
 72
    12
 73
     8
 74
     0
 42
0.00000001
 43
0.00000001
 40
0.0
 40
0.0
 40
0.0
 40
0.0
 40
0.2187857887072251
 40
0.4375776469534808
 40
0.6562353658863884
 40
0.8748419359490995
 40
0.9999999999999999
 40
0.9999999999999999
 40
0.9999999999999999
 40
0.9999999999999999
 10
449.9194030072476
 20
2092.362724081345
 30
0.0
 10
449.8924395811756
 20
2092.327398684476
 30
0.0
 10
449.8385119810141
 20
2092.256746910744
 30
0.0
 10
449.8059160920409
 20
2092.122783682103
 30
0.0
 10
449.8152652232831
 20
2091.987241055823
 30
0.0
 10
449.8591439813649
 20
2091.878343251529
 30
0.0
 10
449.9033195396514
 20
2091.825039540723
 30
0.0
 10
449.9194030072476
 20
2091.805632689089
 30
0.0
  0
ELLIPSE
  5
3DC
330
1F
100
AcDbEntity
  8
1
  6
SLD-Сплошная
100
AcDbEllipse
 10
447.7369057322
 20
2092.0841783852
 30
0.0
 11
0.4122489361056409
 21
0.0
 31
0.0
210
0.0
220
0.0
230
1.0
 40
0.9702875252
 41
5.512866274278505
 42
7.053504340081497
  0
SPLINE
  5
3DD
330
1F
100
AcDbEntity
  8
1
  6
SLD-Сплошная
100
AcDbSpline
210
0.0
220
0.0
230
1.0
 70
     8
 71
     3
 72
    12
 73
     8
 74
     0
 42
0.00000001
 43
0.00000001
 40
0.0
 40
0.0
 40
0.0
 40
0.0
 40
0.2187857887071777
 40
0.4375776469534916
 40
0.6562353658863723
 40
0.8748419359491184
 40
1.0
 40
1.0
 40
1.0
 40
1.0
 10
447.6931820196231
 20
2091.805632689089
 30
0.0
 10
447.7201454456952
 20
2091.840958085958
 30
0.0
 10
447.7740730458567
 20
2091.911609859691
 30
0.0
 10
447.8066689348297
 20
2092.045573088331
 30
0.0
 10
447.7973198035876
 20
2092.181115714611
 30
0.0
 10
447.7534410455058
 20
2092.290013518905
 30
0.0
 10
447.7092654872193
 20
2092.343317229711
 30
0.0
 10
447.6931820196231
 20
2092.362724081345
 30
0.0
  0
ELLIPSE
  5
3DE
330
1F
100
AcDbEntity
  8
1
  6
SLD-Сплошная
100
AcDbEllipse
 10
448.8062925134
 20
2091.0147916039
 30
0.0
 11
0.0
 21
0.4122489361061525
 31
0.0
210
0.0
220
0.0
230
1.0
 40
0.9702875252
 41
5.512866274278262
 42
7.053504340080822
  0
SPLINE
  5
3DF
330
1F
100
AcDbEntity
  8
1
  6
SLD-Сплошная
100
AcDbSpline
210
0.0
220
0.0
230
1.0
 70
     8
 71
     3
 72
    12
 73
     8
 74
     0
 42
0.00000001
 43
0.00000001
 40
0.0
 40
0.0
 40
0.0
 40
0.0
 40
0.2187857887072156
 40
0.4375776469534864
 40
0.6562353658864128
 40
0.8748419359491181
 40
1.0
 40
1.0
 40
1.0
 40
1.0
 10
449.0848382095634
 20
2090.971067891405
 30
0.0
 10
449.0495128126944
 20
2090.998031317477
 30
0.0
 10
448.978861038962
 20
2091.051958917638
 30
0.0
 10
448.8448978103209
 20
2091.084554806611
 30
0.0
 10
448.709355184041
 20
2091.075205675369
 30
0.0
 10
448.6004573797471
 20
2091.031326917288
 30
0.0
 10
448.5471536689412
 20
2090.987151359001
 30
0.0
 10
448.5277468173073
 20
2090.971067891405
 30
0.0
  0
ARC
  5
3E0
330
1F
100
AcDbEntity
  8
1
  6
SLD-Сплошная
100
AcDbCircle
 10
466.0515604943
 20
2109.3294463661
 30
0.0
 40
26.56195549557605
100
AcDbArc
 50
223.8816987744
 51
226.1183012256
  0
ARC
  5
3E1
330
1F
100
AcDbEntity
  8
1
  6
SLD-Сплошная
100
AcDbCircle
 10
432.5648782774
 20
2108.097201359
 30
0.0
 40
23.41191191621679
100
AcDbArc
 50
310.0824770913
 51
312.9865596106
  0
ARC
  5
3E2
330
1F
100
AcDbEntity
  8
1
  6
SLD-Сплошная
100
AcDbCircle
 10
465.0477067495
 20
2108.097201359
 30
0.0
 40
23.41191191619222
100
AcDbArc
 50
227.0134403894
 51
229.9175229087
  0
ARC
  5
3E3
330
1F
100
AcDbEntity
  8
1
  6
SLD-Сплошная
100
AcDbCircle
 10
431.5610245327
 20
2109.3294463659
 30
0.0
 40
26.56195549531809
100
AcDbArc
 50
313.8816987744
 51
316.1183012256
  0
ARC
  5
3E4
330
1F
100
AcDbEntity
  8
1
  6
SLD-Сплошная
100
AcDbCircle
 10
432.7932695399
 20
2075.8427641493
 30
0.0
 40
23.41191191593888
100
AcDbArc
 50
40.0824770913
 51
42.9865596106
  0
ARC
  5
3E5
330
1F
100
AcDbEntity
  8
1
  6
SLD-Сплошная
100
AcDbCircle
 10
432.7932695396
 20
2108.3255926213
 30
0.0
 40
23.4119119162501
100
AcDbArc
 50
317.0134403894
 51
319.9175229087
  0
ARC
  5
3E6
330
1F
100
AcDbEntity
  8
1
  6
SLD-Сплошная
100
AcDbCircle
 10
431.5610245331
 20
2074.8389104049
 30
0.0
 40
26.56195549475487
100
AcDbArc
 50
43.8816987744
 51
46.1183012257
  0
ARC
  5
3E7
330
1F
100
AcDbEntity
  8
1
  6
SLD-Сплошная
100
AcDbCircle
 10
465.0477067493
 20
2076.0711554116
 30
0.0
 40
23.41191191599099
100
AcDbArc
 50
130.0824770913
 51
132.9865596106
  0
SPLINE
  5
3E8
330
1F
100
AcDbEntity
  8
1
  6
SLD-Сплошная
100
AcDbSpline
210
0.0
220
0.0
230
1.0
 70
     8
 71
     3
 72
    12
 73
     8
 74
     0
 42
0.00000001
 43
0.00000001
 40
0.0
 40
0.0
 40
0.0
 40
0.0
 40
0.2187857887071872
 40
0.4375776469534861
 40
0.6562353658863479
 40
0.8748419359491
 40
1.0
 40
1.0
 40
1.0
 40
1.0
 10
448.5277468173073
 20
2093.19728887903
 30
0.0
 10
448.5630722141763
 20
2093.170325452957
 30
0.0
 10
448.6337239879087
 20
2093.116397852796
 30
0.0
 10
448.7676872165497
 20
2093.083801963823
 30
0.0
 10
448.9032298428297
 20
2093.093151095065
 30
0.0
 10
449.0121276471236
 20
2093.137029853146
 30
0.0
 10
449.0654313579295
 20
2093.181205411433
 30
0.0
 10
449.0848382095634
 20
2093.19728887903
 30
0.0
  0
ARC
  5
3E9
330
1F
100
AcDbEntity
  8
1
  6
SLD-Сплошная
100
AcDbCircle
 10
432.5648782772
 20
2076.0711554112
 30
0.0
 40
23.41191191649615
100
AcDbArc
 50
47.0134403895
 51
49.9175229087
  0
ARC
  5
3EA
330
1F
100
AcDbEntity
  8
1
  6
SLD-Сплошная
100
AcDbCircle
 10
466.051560494
 20
2074.8389104046
 30
0.0
 40
26.56195549514446
100
AcDbArc
 50
133.8816987744
 51
136.1183012256
  0
ARC
  5
3EB
330
1F
100
AcDbEntity
  8
1
  6
SLD-Сплошная
100
AcDbCircle
 10
464.8193154873
 20
2108.3255926214
 30
0.0
 40
23.41191191635852
100
AcDbArc
 50
220.0824770913
 51
222.9865596106
  0
ARC
  5
3EC
330
1F
100
AcDbEntity
  8
1
  6
SLD-Сплошная
100
AcDbCircle
 10
464.8193154871
 20
2075.8427641492
 30
0.0
 40
23.41191191608218
100
AcDbArc
 50
137.0134403894
 51
139.9175229087
  0
CIRCLE
  5
3ED
330
1F
100
AcDbEntity
  8
1
  6
SLD-Сплошная
100
AcDbCircle
 10
448.8062925134
 20
2092.0841783852
 30
0.0
 40
3.499999999999988
  0
ELLIPSE
  5
3EE
330
1F
100
AcDbEntity
  8
1
  6
SLD-Сплошная
100
AcDbEllipse
 10
448.8062925134
 20
2093.1535651665
 30
0.0
 11
0.0
 21
-0.4122489361056978
 31
0.0
210
0.0
220
0.0
230
1.0
 40
0.9702875252
 41
5.512866274278844
 42
7.053504340080444
  0
LINE
  5
3EF
330
1F
100
AcDbEntity
  8
1
  6
SLD-Сплошная
100
AcDbLine
 10
450.7061531672
 20
2093.2509045742
 30
0.0
 11
450.4679934492
 21
2093.2509045742
 31
0.0
  0
LINE
  5
3F0
330
1F
100
AcDbEntity
  8
1
  6
SLD-Сплошная
100
AcDbLine
 10
449.5798129564
 20
2092.3627240813
 30
0.0
 11
450.4679934492
 21
2093.2509045742
 31
0.0
  0
LINE
  5
3F1
330
1F
100
AcDbEntity
  8
1
  6
SLD-Сплошная
100
AcDbLine
 10
450.7061531672
 20
2090.9174521963
 30
0.0
 11
450.4679934492
 21
2090.9174521963
 31
0.0
  0
LINE
  5
3F2
330
1F
100
AcDbEntity
  8
1
  6
SLD-Сплошная
100
AcDbLine
 10
450.4679934492
 20
2090.9174521963
 30
0.0
 11
449.5798129564
 21
2091.8056326891
 31
0.0
  0
LINE
  5
3F3
330
1F
100
AcDbEntity
  8
1
  6
SLD-Сплошная
100
AcDbLine
 10
447.6395663245
 20
2090.1843177314
 30
0.0
 11
447.6395663245
 21
2090.4224774494
 31
0.0
  0
LINE
  5
3F4
330
1F
100
AcDbEntity
  8
1
  6
SLD-Сплошная
100
AcDbLine
 10
447.6395663245
 20
2090.4224774494
 30
0.0
 11
448.5277468173
 21
2091.3106579423
 31
0.0
  0
LINE
  5
3F5
330
1F
100
AcDbEntity
  8
1
  6
SLD-Сплошная
100
AcDbLine
 10
449.9730187024
 20
2090.1843177314
 30
0.0
 11
449.9730187024
 21
2090.4224774494
 31
0.0
  0
LINE
  5
3F6
330
1F
100
AcDbEntity
  8
1
  6
SLD-Сплошная
100
AcDbLine
 10
449.0848382096
 20
2091.3106579423
 30
0.0
 11
449.9730187024
 21
2090.4224774494
 31
0.0
  0
LINE
  5
3F7
330
1F
100
AcDbEntity
  8
1
  6
SLD-Сплошная
100
AcDbLine
 10
446.9064318596
 20
2090.9174521963
 30
0.0
 11
447.1445915776
 21
2090.9174521963
 31
0.0
  0
LINE
  5
3F8
330
1F
100
AcDbEntity
  8
1
  6
SLD-Сплошная
100
AcDbLine
 10
448.0327720705
 20
2091.8056326891
 30
0.0
 11
447.1445915776
 21
2090.9174521963
 31
0.0
  0
LINE
  5
3F9
330
1F
100
AcDbEntity
  8
1
  6
SLD-Сплошная
100
AcDbLine
 10
447.6395663245
 20
2093.984039039
 30
0.0
 11
447.6395663245
 21
2093.745879321
 31
0.0
  0
LINE
  5
3FA
330
1F
100
AcDbEntity
  8
1
  6
SLD-Сплошная
100
AcDbLine
 10
448.5277468173
 20
2092.8576988282
 30
0.0
 11
447.6395663245
 21
2093.745879321
 31
0.0
  0
LINE
  5
3FB
330
1F
100
AcDbEntity
  8
1
  6
SLD-Сплошная
100
AcDbLine
 10
449.9730187024
 20
2093.984039039
 30
0.0
 11
449.9730187024
 21
2093.745879321
 31
0.0
  0
LINE
  5
3FC
330
1F
100
AcDbEntity
  8
1
  6
SLD-Сплошная
100
AcDbLine
 10
449.9730187024
 20
2093.745879321
 30
0.0
 11
449.0848382096
 21
2092.8576988282
 31
0.0
  0
LINE
  5
3FD
330
1F
100
AcDbEntity
  8
1
  6
SLD-Сплошная
100
AcDbLine
 10
446.9064318596
 20
2093.2509045742
 30
0.0
 11
447.1445915776
 21
2093.2509045742
 31
0.0
  0
LINE
  5
3FE
330
1F
100
AcDbEntity
  8
1
  6
SLD-Сплошная
100
AcDbLine
 10
447.1445915776
 20
2093.2509045742
 30
0.0
 11
448.0327720705
 21
2092.3627240813
 31
0.0
  0
LINE
  5
3FF
330
1F
100
AcDbEntity
  8
1
  6
SLD-Сплошная
100
AcDbLine
 10
450.4679934492
 20
2093.2509045742
 30
0.0
 11
449.9730187024
 21
2093.745879321
 31
0.0
  0
LINE
  5
400
330
1F
100
AcDbEntity
  8
1
  6
SLD-Сплошная
100
AcDbLine
 10
447.6395663245
 20
2093.745879321
 30
0.0
 11
447.1445915776
 21
2093.2509045742
 31
0.0
  0
LINE
  5
401
330
1F
100
AcDbEntity
  8
1
  6
SLD-Сплошная
100
AcDbLine
 10
447.1445915776
 20
2090.9174521963
 30
0.0
 11
447.6395663245
 21
2090.4224774494
 31
0.0
  0
LINE
  5
402
330
1F
100
AcDbEntity
  8
1
  6
SLD-Сплошная
100
AcDbLine
 10
449.9730187024
 20
2090.4224774494
 30
0.0
 11
450.4679934492
 21
2090.9174521963
 31
0.0
  0
CIRCLE
  5
403
330
1F
100
AcDbEntity
  8
1
  6
SLD-Сплошная
100
AcDbCircle
 10
448.8062925134
 20
2092.0841783852
 30
0.0
 40
4.999999999999718
  0
ELLIPSE
  5
404
330
1F
100
AcDbEntity
  8
1
  6
SLD-Сплошная
100
AcDbEllipse
 10
448.8062925134
 20
1968.1535651665
 30
0.0
 11
0.0
 21
-0.4122489361054704
 31
0.0
210
0.0
220
0.0
230
1.0
 40
0.9702875252
 41
5.512866274278736
 42
7.053504340080551
  0
SPLINE
  5
405
330
1F
100
AcDbEntity
  8
1
  6
SLD-Сплошная
100
AcDbSpline
210
0.0
220
0.0
230
1.0
 70
     8
 71
     3
 72
    12
 73
     8
 74
     0
 42
0.00000001
 43
0.00000001
 40
0.0
 40
0.0
 40
0.0
 40
0.0
 40
0.2187857887072126
 40
0.4375776469535009
 40
0.6562353658863674
 40
0.8748419359490994
 40
1.0
 40
1.0
 40
1.0
 40
1.0
 10
448.5277468173073
 20
1968.197288879029
 30
0.0
 10
448.5630722141763
 20
1968.170325452957
 30
0.0
 10
448.6337239879086
 20
1968.116397852796
 30
0.0
 10
448.7676872165497
 20
1968.083801963822
 30
0.0
 10
448.9032298428297
 20
1968.093151095065
 30
0.0
 10
449.0121276471236
 20
1968.137029853146
 30
0.0
 10
449.0654313579295
 20
1968.181205411433
 30
0.0
 10
449.0848382095634
 20
1968.197288879029
 30
0.0
  0
ELLIPSE
  5
406
330
1F
100
AcDbEntity
  8
1
  6
SLD-Сплошная
100
AcDbEllipse
 10
447.7369057322
 20
1967.0841783852
 30
0.0
 11
0.4122489361056409
 21
0.0
 31
0.0
210
0.0
220
0.0
230
1.0
 40
0.9702875252
 41
5.512866274278789
 42
7.053504340081213
  0
SPLINE
  5
407
330
1F
100
AcDbEntity
  8
1
  6
SLD-Сплошная
100
AcDbSpline
210
0.0
220
0.0
230
1.0
 70
     8
 71
     3
 72
    12
 73
     8
 74
     0
 42
0.00000001
 43
0.00000001
 40
0.0
 40
0.0
 40
0.0
 40
0.0
 40
0.2187857887071734
 40
0.437577646953483
 40
0.6562353658864045
 40
0.8748419359491292
 40
1.0
 40
1.0
 40
1.0
 40
1.0
 10
447.6931820196231
 20
1966.805632689089
 30
0.0
 10
447.720145445695
 20
1966.840958085958
 30
0.0
 10
447.7740730458566
 20
1966.91160985969
 30
0.0
 10
447.8066689348296
 20
1967.045573088331
 30
0.0
 10
447.7973198035876
 20
1967.181115714611
 30
0.0
 10
447.7534410455058
 20
1967.290013518905
 30
0.0
 10
447.7092654872193
 20
1967.343317229711
 30
0.0
 10
447.6931820196231
 20
1967.362724081345
 30
0.0
  0
ARC
  5
408
330
1F
100
AcDbEntity
  8
1
  6
SLD-Сплошная
100
AcDbCircle
 10
431.5610245325
 20
1984.3294463661
 30
0.0
 40
26.56195549558168
100
AcDbArc
 50
313.8816987744
 51
316.1183012256
  0
ARC
  5
409
330
1F
100
AcDbEntity
  8
1
  6
SLD-Сплошная
100
AcDbCircle
 10
432.7932695397
 20
1950.8427641492
 30
0.0
 40
23.41191191617594
100
AcDbArc
 50
40.0824770913
 51
42.9865596106
  0
SPLINE
  5
40A
330
1F
100
AcDbEntity
  8
1
  6
SLD-Сплошная
100
AcDbSpline
210
0.0
220
0.0
230
1.0
 70
     8
 71
     3
 72
    12
 73
     8
 74
     0
 42
0.00000001
 43
0.00000001
 40
0.0
 40
0.0
 40
0.0
 40
0.0
 40
0.2187857887071878
 40
0.4375776469534872
 40
0.6562353658863948
 40
0.8748419359490643
 40
1.0
 40
1.0
 40
1.0
 40
1.0
 10
449.9194030072476
 20
1967.362724081345
 30
0.0
 10
449.8924395811756
 20
1967.327398684476
 30
0.0
 10
449.838511981014
 20
1967.256746910744
 30
0.0
 10
449.805916092041
 20
1967.122783682103
 30
0.0
 10
449.815265223283
 20
1966.987241055823
 30
0.0
 10
449.8591439813649
 20
1966.878343251528
 30
0.0
 10
449.9033195396514
 20
1966.825039540723
 30
0.0
 10
449.9194030072476
 20
1966.805632689089
 30
0.0
  0
ARC
  5
40B
330
1F
100
AcDbEntity
  8
1
  6
SLD-Сплошная
100
AcDbCircle
 10
432.7932695397
 20
1983.3255926213
 30
0.0
 40
23.41191191623481
100
AcDbArc
 50
317.0134403894
 51
319.9175229087
  0
ARC
  5
40C
330
1F
100
AcDbEntity
  8
1
  6
SLD-Сплошная
100
AcDbCircle
 10
431.5610245322
 20
1949.838910404
 30
0.0
 40
26.56195549608598
100
AcDbArc
 50
43.8816987744
 51
46.1183012256
  0
ARC
  5
40D
330
1F
100
AcDbEntity
  8
1
  6
SLD-Сплошная
100
AcDbCircle
 10
465.0477067496
 20
1951.0711554113
 30
0.0
 40
23.41191191635339
100
AcDbArc
 50
130.0824770913
 51
132.9865596106
  0
ARC
  5
40E
330
1F
100
AcDbEntity
  8
1
  6
SLD-Сплошная
100
AcDbCircle
 10
432.5648782773
 20
1951.0711554113
 30
0.0
 40
23.41191191637761
100
AcDbArc
 50
47.0134403894
 51
49.9175229087
  0
ARC
  5
40F
330
1F
100
AcDbEntity
  8
1
  6
SLD-Сплошная
100
AcDbCircle
 10
466.0515604949
 20
1949.8389104038
 30
0.0
 40
26.56195549634361
100
AcDbArc
 50
133.8816987744
 51
136.1183012256
  0
ARC
  5
410
330
1F
100
AcDbEntity
  8
1
  6
SLD-Сплошная
100
AcDbCircle
 10
464.8193154872
 20
1983.3255926213
 30
0.0
 40
23.41191191625936
100
AcDbArc
 50
220.0824770913
 51
222.9865596106
  0
ARC
  5
411
330
1F
100
AcDbEntity
  8
1
  6
SLD-Сплошная
100
AcDbCircle
 10
464.8193154874
 20
1950.842764149
 30
0.0
 40
23.41191191649997
100
AcDbArc
 50
137.0134403894
 51
139.9175229087
  0
ARC
  5
412
330
1F
100
AcDbEntity
  8
1
  6
SLD-Сплошная
100
AcDbCircle
 10
466.0515604945
 20
1984.3294463663
 30
0.0
 40
26.56195549580574
100
AcDbArc
 50
223.8816987744
 51
226.1183012256
  0
ARC
  5
413
330
1F
100
AcDbEntity
  8
1
  6
SLD-Сплошная
100
AcDbCircle
 10
432.5648782772
 20
1983.0972013592
 30
0.0
 40
23.41191191655236
100
AcDbArc
 50
310.0824770913
 51
312.9865596106
  0
SPLINE
  5
414
330
1F
100
AcDbEntity
  8
1
  6
SLD-Сплошная
100
AcDbSpline
210
0.0
220
0.0
230
1.0
 70
     8
 71
     3
 72
    12
 73
     8
 74
     0
 42
0.00000001
 43
0.00000001
 40
0.0
 40
0.0
 40
0.0
 40
0.0
 40
0.2187857887072202
 40
0.4375776469534843
 40
0.6562353658864116
 40
0.8748419359491424
 40
1.0
 40
1.0
 40
1.0
 40
1.0
 10
449.0848382095634
 20
1965.971067891405
 30
0.0
 10
449.0495128126944
 20
1965.998031317477
 30
0.0
 10
448.978861038962
 20
1966.051958917638
 30
0.0
 10
448.8448978103209
 20
1966.084554806611
 30
0.0
 10
448.709355184041
 20
1966.075205675369
 30
0.0
 10
448.600457379747
 20
1966.031326917287
 30
0.0
 10
448.5471536689412
 20
1965.987151359001
 30
0.0
 10
448.5277468173073
 20
1965.971067891405
 30
0.0
  0
ARC
  5
415
330
1F
100
AcDbEntity
  8
1
  6
SLD-Сплошная
100
AcDbCircle
 10
465.0477067497
 20
1983.0972013592
 30
0.0
 40
23.41191191652801
100
AcDbArc
 50
227.0134403894
 51
229.9175229087
  0
CIRCLE
  5
416
330
1F
100
AcDbEntity
  8
1
  6
SLD-Сплошная
100
AcDbCircle
 10
448.8062925134
 20
1967.0841783852
 30
0.0
 40
3.499999999999988
  0
ELLIPSE
  5
417
330
1F
100
AcDbEntity
  8
1
  6
SLD-Сплошная
100
AcDbEllipse
 10
449.8756792947
 20
1967.0841783852
 30
0.0
 11
-0.4122489361056409
 21
0.0
 31
0.0
210
0.0
220
0.0
230
1.0
 40
0.9702875252
 41
5.512866274278258
 42
7.053504340080113
  0
ELLIPSE
  5
418
330
1F
100
AcDbEntity
  8
1
  6
SLD-Сплошная
100
AcDbEllipse
 10
448.8062925134
 20
1966.0147916039
 30
0.0
 11
0.0
 21
0.4122489361054704
 31
0.0
210
0.0
220
0.0
230
1.0
 40
0.9702875252
 41
5.512866274279089
 42
7.053504340079995
  0
LINE
  5
419
330
1F
100
AcDbEntity
  8
1
  6
SLD-Сплошная
100
AcDbLine
 10
449.9730187024
 20
1965.1843177314
 30
0.0
 11
449.9730187024
 21
1965.4224774494
 31
0.0
  0
LINE
  5
41A
330
1F
100
AcDbEntity
  8
1
  6
SLD-Сплошная
100
AcDbLine
 10
449.0848382096
 20
1966.3106579423
 30
0.0
 11
449.9730187024
 21
1965.4224774494
 31
0.0
  0
LINE
  5
41B
330
1F
100
AcDbEntity
  8
1
  6
SLD-Сплошная
100
AcDbLine
 10
449.9730187024
 20
1968.984039039
 30
0.0
 11
449.9730187024
 21
1968.745879321
 31
0.0
  0
LINE
  5
41C
330
1F
100
AcDbEntity
  8
1
  6
SLD-Сплошная
100
AcDbLine
 10
449.9730187024
 20
1968.745879321
 30
0.0
 11
449.0848382096
 21
1967.8576988282
 31
0.0
  0
LINE
  5
41D
330
1F
100
AcDbEntity
  8
1
  6
SLD-Сплошная
100
AcDbLine
 10
446.9064318596
 20
1968.2509045742
 30
0.0
 11
447.1445915776
 21
1968.2509045742
 31
0.0
  0
LINE
  5
41E
330
1F
100
AcDbEntity
  8
1
  6
SLD-Сплошная
100
AcDbLine
 10
447.1445915776
 20
1968.2509045742
 30
0.0
 11
448.0327720705
 21
1967.3627240813
 31
0.0
  0
LINE
  5
41F
330
1F
100
AcDbEntity
  8
1
  6
SLD-Сплошная
100
AcDbLine
 10
450.7061531672
 20
1968.2509045742
 30
0.0
 11
450.4679934492
 21
1968.2509045742
 31
0.0
  0
LINE
  5
420
330
1F
100
AcDbEntity
  8
1
  6
SLD-Сплошная
100
AcDbLine
 10
449.5798129564
 20
1967.3627240813
 30
0.0
 11
450.4679934492
 21
1968.2509045742
 31
0.0
  0
LINE
  5
421
330
1F
100
AcDbEntity
  8
1
  6
SLD-Сплошная
100
AcDbLine
 10
446.9064318596
 20
1965.9174521963
 30
0.0
 11
447.1445915776
 21
1965.9174521963
 31
0.0
  0
LINE
  5
422
330
1F
100
AcDbEntity
  8
1
  6
SLD-Сплошная
100
AcDbLine
 10
448.0327720705
 20
1966.8056326891
 30
0.0
 11
447.1445915776
 21
1965.9174521963
 31
0.0
  0
LINE
  5
423
330
1F
100
AcDbEntity
  8
1
  6
SLD-Сплошная
100
AcDbLine
 10
450.7061531672
 20
1965.9174521963
 30
0.0
 11
450.4679934492
 21
1965.9174521963
 31
0.0
  0
LINE
  5
424
330
1F
100
AcDbEntity
  8
1
  6
SLD-Сплошная
100
AcDbLine
 10
450.4679934492
 20
1965.9174521963
 30
0.0
 11
449.5798129564
 21
1966.8056326891
 31
0.0
  0
LINE
  5
425
330
1F
100
AcDbEntity
  8
1
  6
SLD-Сплошная
100
AcDbLine
 10
447.6395663245
 20
1968.984039039
 30
0.0
 11
447.6395663245
 21
1968.745879321
 31
0.0
  0
LINE
  5
426
330
1F
100
AcDbEntity
  8
1
  6
SLD-Сплошная
100
AcDbLine
 10
448.5277468173
 20
1967.8576988282
 30
0.0
 11
447.6395663245
 21
1968.745879321
 31
0.0
  0
LINE
  5
427
330
1F
100
AcDbEntity
  8
1
  6
SLD-Сплошная
100
AcDbLine
 10
447.6395663245
 20
1965.1843177314
 30
0.0
 11
447.6395663245
 21
1965.4224774494
 31
0.0
  0
LINE
  5
428
330
1F
100
AcDbEntity
  8
1
  6
SLD-Сплошная
100
AcDbLine
 10
447.6395663245
 20
1965.4224774494
 30
0.0
 11
448.5277468173
 21
1966.3106579423
 31
0.0
  0
LINE
  5
429
330
1F
100
AcDbEntity
  8
1
  6
SLD-Сплошная
100
AcDbLine
 10
447.1445915776
 20
1965.9174521963
 30
0.0
 11
447.6395663245
 21
1965.4224774494
 31
0.0
  0
LINE
  5
42A
330
1F
100
AcDbEntity
  8
1
  6
SLD-Сплошная
100
AcDbLine
 10
449.9730187024
 20
1965.4224774494
 30
0.0
 11
450.4679934492
 21
1965.9174521963
 31
0.0
  0
LINE
  5
42B
330
1F
100
AcDbEntity
  8
1
  6
SLD-Сплошная
100
AcDbLine
 10
447.6395663245
 20
1968.745879321
 30
0.0
 11
447.1445915776
 21
1968.2509045742
 31
0.0
  0
LINE
  5
42C
330
1F
100
AcDbEntity
  8
1
  6
SLD-Сплошная
100
AcDbLine
 10
450.4679934492
 20
1968.2509045742
 30
0.0
 11
449.9730187024
 21
1968.745879321
 31
0.0
  0
CIRCLE
  5
42D
330
1F
100
AcDbEntity
  8
1
  6
SLD-Сплошная
100
AcDbCircle
 10
448.8062925134
 20
1967.0841783852
 30
0.0
 40
4.99999999999992
  0
ELLIPSE
  5
42E
330
1F
100
AcDbEntity
  8
1
  6
SLD-Сплошная
100
AcDbEllipse
 10
447.939503221
 20
2028.95786823
 30
0.0
 11
0.334147541256641
 21
0.2414427592461834
 31
0.0
210
0.0
220
0.0
230
1.0
 40
0.9702875252
 41
5.512866274278466
 42
7.053504340080632
  0
SPLINE
  5
42F
330
1F
100
AcDbEntity
  8
1
  6
SLD-Сплошная
100
AcDbSpline
210
0.0
220
0.0
230
1.0
 70
     8
 71
     3
 72
    12
 73
     8
 74
     0
 42
0.00000001
 43
0.00000001
 40
0.0
 40
0.0
 40
0.0
 40
0.0
 40
0.218785788707192
 40
0.437577646953508
 40
0.6562353658863783
 40
0.8748419359490933
 40
1.0
 40
1.0
 40
1.0
 40
1.0
 10
448.0671995370327
 20
2028.70648581461
 30
0.0
 10
448.0683655830603
 20
2028.750910473823
 30
0.0
 10
448.0706977074639
 20
2028.839761024673
 30
0.0
 10
448.018659694685
 20
2028.967435156086
 30
0.0
 10
447.9316982212594
 20
2029.071823430971
 30
0.0
 10
447.8323539613133
 20
2029.134391755278
 30
0.0
 10
447.7653290480141
 20
2029.151724571923
 30
0.0
 10
447.7409265715543
 20
2029.15803511571
 30
0.0
  0
ELLIPSE
  5
430
330
1F
100
AcDbEntity
  8
1
  6
SLD-Сплошная
100
AcDbEllipse
 10
448.1799823582
 20
2030.4509676776
 30
0.0
 11
0.2414427592460129
 21
-0.3341475412571526
 31
0.0
210
0.0
220
0.0
230
0.9999999999999998
 40
0.9702875252
 41
5.512866274279239
 42
7.053504340081231
  0
SPLINE
  5
431
330
1F
100
AcDbEntity
  8
1
  6
SLD-Сплошная
100
AcDbSpline
210
0.0
220
0.0
230
1.0
 70
     8
 71
     3
 72
    12
 73
     8
 74
     0
 42
0.00000001
 43
0.00000001
 40
0.0
 40
0.0
 40
0.0
 40
0.0
 40
0.2187857887072043
 40
0.4375776469534926
 40
0.6562353658863735
 40
0.8748419359490851
 40
1.0
 40
1.0
 40
1.0
 40
1.0
 10
447.9285999428283
 20
2030.323271361619
 30
0.0
 10
447.9730246020409
 20
2030.322105315592
 30
0.0
 10
448.0618751528915
 20
2030.319773191188
 30
0.0
 10
448.189549284304
 20
2030.371811203967
 30
0.0
 10
448.293937559189
 20
2030.458772677393
 30
0.0
 10
448.3565058834961
 20
2030.558116937339
 30
0.0
 10
448.3738387001414
 20
2030.625141850639
 30
0.0
 10
448.380149243928
 20
2030.649544327098
 30
0.0
  0
ELLIPSE
  5
432
330
1F
100
AcDbEntity
  8
1
  6
SLD-Сплошная
100
AcDbEllipse
 10
449.4326026687
 20
2028.7173890928
 30
0.0
 11
-0.2414427592460697
 21
0.3341475412571527
 31
0.0
210
0.0
220
0.0
230
1.0
 40
0.9702875252
 41
5.51286627427903
 42
7.053504340081217
  0
SPLINE
  5
433
330
1F
100
AcDbEntity
  8
1
  6
SLD-Сплошная
100
AcDbSpline
210
0.0
220
0.0
230
1.0
 70
     8
 71
     3
 72
    12
 73
     8
 74
     0
 42
0.00000001
 43
0.00000001
 40
0.0
 40
0.0
 40
0.0
 40
0.0
 40
0.2187857887071913
 40
0.4375776469534665
 40
0.6562353658863381
 40
0.8748419359490927
 40
1.0
 40
1.0
 40
1.0
 40
1.0
 10
449.6839850840423
 20
2028.845085408814
 30
0.0
 10
449.6395604248298
 20
2028.846251454842
 30
0.0
 10
449.550709873979
 20
2028.848583579246
 30
0.0
 10
449.4230357425667
 20
2028.796545566467
 30
0.0
 10
449.3186474676816
 20
2028.709584093041
 30
0.0
 10
449.2560791433744
 20
2028.610239833095
 30
0.0
 10
449.2387463267292
 20
2028.543214919796
 30
0.0
 10
449.2324357829426
 20
2028.518812443336
 30
0.0
  0
ARC
  5
434
330
1F
100
AcDbEntity
  8
1
  6
SLD-Сплошная
100
AcDbCircle
 10
452.6843348052
 20
2053.6623702504
 30
0.0
 40
26.56195549654592
100
AcDbArc
 50
259.732193907
 51
261.9687963581
  0
ARC
  5
435
330
1F
100
AcDbEntity
  8
1
  6
SLD-Сплошная
100
AcDbCircle
 10
426.2634639695
 20
2033.0513562536
 30
0.0
 40
23.411911915931
100
AcDbArc
 50
345.9329722238
 51
348.8370547431
  0
ARC
  5
436
330
1F
100
AcDbEntity
  8
1
  6
SLD-Сплошная
100
AcDbCircle
 10
452.5923548805
 20
2052.0756472768
 30
0.0
 40
23.41191191627108
100
AcDbArc
 50
262.863935522
 51
265.7680180412
  0
ARC
  5
437
330
1F
100
AcDbEntity
  8
1
  6
SLD-Сплошная
100
AcDbCircle
 10
424.7281006489
 20
2033.4622206769
 30
0.0
 40
26.5619554959388
100
AcDbArc
 50
349.7321939069
 51
351.9687963581
  0
ARC
  5
438
330
1F
100
AcDbEntity
  8
1
  6
SLD-Сплошная
100
AcDbCircle
 10
445.3391146449
 20
2007.0413498409
 30
0.0
 40
23.41191191635593
100
AcDbArc
 50
75.9329722238
 51
78.8370547431
  0
SPLINE
  5
439
330
1F
100
AcDbEntity
  8
1
  6
SLD-Сплошная
100
AcDbSpline
210
0.0
220
0.0
230
1.0
 70
     8
 71
     3
 72
    12
 73
     8
 74
     0
 42
0.00000001
 43
0.00000001
 40
0.0
 40
0.0
 40
0.0
 40
0.0
 40
0.2187857887072712
 40
0.4375776469535115
 40
0.6562353658863702
 40
0.8748419359490979
 40
1.0
 40
1.0
 40
1.0
 40
1.0
 10
449.5453854898379
 20
2030.461870955824
 30
0.0
 10
449.5442194438102
 20
2030.417446296612
 30
0.0
 10
449.5418873194066
 20
2030.328595745761
 30
0.0
 10
449.5939253321856
 20
2030.200921614349
 30
0.0
 10
449.6808868056112
 20
2030.096533339463
 30
0.0
 10
449.7802310655574
 20
2030.033965015156
 30
0.0
 10
449.8472559788564
 20
2030.016632198511
 30
0.0
 10
449.8716584553163
 20
2030.010321654725
 30
0.0
  0
ARC
  5
43A
330
1F
100
AcDbEntity
  8
1
  6
SLD-Сплошная
100
AcDbCircle
 10
426.3148236219
 20
2033.3702407523
 30
0.0
 40
23.41191191626136
100
AcDbArc
 50
352.8639355219
 51
355.7680180412
  0
ARC
  5
43B
330
1F
100
AcDbEntity
  8
1
  6
SLD-Сплошная
100
AcDbCircle
 10
444.9282502217
 20
2005.5059865201
 30
0.0
 40
26.56195549645954
100
AcDbArc
 50
79.732193907
 51
81.9687963581
  0
ARC
  5
43C
330
1F
100
AcDbEntity
  8
1
  6
SLD-Сплошная
100
AcDbCircle
 10
471.3491210578
 20
2026.1170005167
 30
0.0
 40
23.41191191636019
100
AcDbArc
 50
165.9329722238
 51
168.8370547431
  0
ARC
  5
43D
330
1F
100
AcDbEntity
  8
1
  6
SLD-Сплошная
100
AcDbCircle
 10
445.0202301465
 20
2007.0927094946
 30
0.0
 40
23.41191191525367
100
AcDbArc
 50
82.8639355219
 51
85.7680180413
  0
ARC
  5
43E
330
1F
100
AcDbEntity
  8
1
  6
SLD-Сплошная
100
AcDbCircle
 10
472.8844843778
 20
2025.7061360936
 30
0.0
 40
26.56195549578594
100
AcDbArc
 50
169.7321939069
 51
171.9687963581
  0
ARC
  5
43F
330
1F
100
AcDbEntity
  8
1
  6
SLD-Сплошная
100
AcDbCircle
 10
452.2734703818
 20
2052.1270069292
 30
0.0
 40
23.41191191595776
100
AcDbArc
 50
255.9329722238
 51
258.8370547431
  0
ARC
  5
440
330
1F
100
AcDbEntity
  8
1
  6
SLD-Сплошная
100
AcDbCircle
 10
471.297761405
 20
2025.7981160181
 30
0.0
 40
23.41191191623784
100
AcDbArc
 50
172.8639355219
 51
175.7680180412
  0
CIRCLE
  5
441
330
1F
100
AcDbEntity
  8
1
  6
SLD-Сплошная
100
AcDbCircle
 10
448.8062925134
 20
2029.5841783852
 30
0.0
 40
3.499999999999779
  0
ELLIPSE
  5
442
330
1F
100
AcDbEntity
  8
1
  6
SLD-Сплошная
100
AcDbEllipse
 10
449.6730818058
 20
2030.2104885405
 30
0.0
 11
-0.3341475412566979
 21
-0.2414427592461834
 31
0.0
210
0.0
220
0.0
230
0.9999999999999999
 40
0.9702875252
 41
5.512866274277671
 42
7.053504340080148
  0
LINE
  5
443
330
1F
100
AcDbEntity
  8
1
  6
SLD-Сплошная
100
AcDbLine
 10
447.9496834481
 20
2027.5257951816
 30
0.0
 11
448.1427233258
 21
2027.6652787179
 31
0.0
  0
LINE
  5
444
330
1F
100
AcDbEntity
  8
1
  6
SLD-Сплошная
100
AcDbLine
 10
448.3424535658
 20
2028.9053742815
 30
0.0
 11
448.1427233258
 21
2027.6652787179
 31
0.0
  0
LINE
  5
445
330
1F
100
AcDbEntity
  8
1
  6
SLD-Сплошная
100
AcDbLine
 10
450.8646757171
 20
2028.7275693199
 30
0.0
 11
450.7251921807
 21
2028.9206091975
 31
0.0
  0
LINE
  5
446
330
1F
100
AcDbEntity
  8
1
  6
SLD-Сплошная
100
AcDbLine
 10
449.4850966171
 20
2029.1203394376
 30
0.0
 11
450.7251921807
 21
2028.9206091975
 31
0.0
  0
LINE
  5
447
330
1F
100
AcDbEntity
  8
1
  6
SLD-Сплошная
100
AcDbLine
 10
449.6629015788
 20
2031.6425615889
 30
0.0
 11
449.4698617011
 21
2031.5030780525
 31
0.0
  0
LINE
  5
448
330
1F
100
AcDbEntity
  8
1
  6
SLD-Сплошная
100
AcDbLine
 10
449.270131461
 20
2030.2629824889
 30
0.0
 11
449.4698617011
 21
2031.5030780525
 31
0.0
  0
LINE
  5
449
330
1F
100
AcDbEntity
  8
1
  6
SLD-Сплошная
100
AcDbLine
 10
446.583045159
 20
2029.4171702864
 30
0.0
 11
446.7760850367
 21
2029.5566538227
 31
0.0
  0
LINE
  5
44A
330
1F
100
AcDbEntity
  8
1
  6
SLD-Сплошная
100
AcDbLine
 10
446.7760850367
 20
2029.5566538227
 30
0.0
 11
448.0161806003
 21
2029.3569235826
 31
0.0
  0
LINE
  5
44B
330
1F
100
AcDbEntity
  8
1
  6
SLD-Сплошная
100
AcDbLine
 10
448.6392844146
 20
2031.8074257396
 30
0.0
 11
448.7787679509
 21
2031.6143858619
 31
0.0
  0
LINE
  5
44C
330
1F
100
AcDbEntity
  8
1
  6
SLD-Сплошная
100
AcDbLine
 10
448.7787679509
 20
2031.6143858619
 30
0.0
 11
448.5790377108
 21
2030.3742902983
 31
0.0
  0
LINE
  5
44D
330
1F
100
AcDbEntity
  8
1
  6
SLD-Сплошная
100
AcDbLine
 10
448.9733006123
 20
2027.3609310308
 30
0.0
 11
448.833817076
 21
2027.5539709085
 31
0.0
  0
LINE
  5
44E
330
1F
100
AcDbEntity
  8
1
  6
SLD-Сплошная
100
AcDbLine
 10
448.833817076
 20
2027.5539709085
 30
0.0
 11
449.033547316
 21
2028.7940664721
 31
0.0
  0
LINE
  5
44F
330
1F
100
AcDbEntity
  8
1
  6
SLD-Сплошная
100
AcDbLine
 10
451.0295398678
 20
2029.7511864841
 30
0.0
 11
450.8364999901
 21
2029.6117029477
 31
0.0
  0
LINE
  5
450
330
1F
100
AcDbEntity
  8
1
  6
SLD-Сплошная
100
AcDbLine
 10
450.8364999901
 20
2029.6117029477
 30
0.0
 11
449.5964044265
 21
2029.8114331878
 31
0.0
  0
LINE
  5
451
330
1F
100
AcDbEntity
  8
1
  6
SLD-Сплошная
100
AcDbLine
 10
446.7479093098
 20
2030.4407874506
 30
0.0
 11
446.8873928461
 21
2030.2477475729
 31
0.0
  0
LINE
  5
452
330
1F
100
AcDbEntity
  8
1
  6
SLD-Сплошная
100
AcDbLine
 10
448.1274884097
 20
2030.0480173328
 30
0.0
 11
446.8873928461
 21
2030.2477475729
 31
0.0
  0
LINE
  5
453
330
1F
100
AcDbEntity
  8
1
  6
SLD-Сплошная
100
AcDbLine
 10
449.4698617011
 20
2031.5030780525
 30
0.0
 11
448.7787679509
 21
2031.6143858619
 31
0.0
  0
LINE
  5
454
330
1F
100
AcDbEntity
  8
1
  6
SLD-Сплошная
100
AcDbLine
 10
448.1427233258
 20
2027.6652787179
 30
0.0
 11
448.833817076
 21
2027.5539709085
 31
0.0
  0
LINE
  5
455
330
1F
100
AcDbEntity
  8
1
  6
SLD-Сплошная
100
AcDbLine
 10
446.8873928461
 20
2030.2477475729
 30
0.0
 11
446.7760850367
 21
2029.5566538227
 31
0.0
  0
LINE
  5
456
330
1F
100
AcDbEntity
  8
1
  6
SLD-Сплошная
100
AcDbLine
 10
450.7251921807
 20
2028.9206091975
 30
0.0
 11
450.8364999901
 21
2029.6117029477
 31
0.0
  0
CIRCLE
  5
457
330
1F
100
AcDbEntity
  8
1
  6
SLD-Сплошная
100
AcDbCircle
 10
448.8062925134
 20
2029.5841783852
 30
0.0
 40
5.000000000000197
  0
ELLIPSE
  5
458
330
1F
100
AcDbEntity
  8
1
  6
SLD-Сплошная
100
AcDbEllipse
 10
865.2369057322
 20
1949.5841783852
 30
0.0
 11
0.4122489361055841
 21
0.0
 31
0.0
210
0.0
220
0.0
230
1.0
 40
0.9702875252
 41
5.512866274278546
 42
7.053504340080639
  0
SPLINE
  5
459
330
1F
100
AcDbEntity
  8
1
  6
SLD-Сплошная
100
AcDbSpline
210
0.0
220
0.0
230
1.0
 70
     8
 71
     3
 72
    12
 73
     8
 74
     0
 42
0.00000001
 43
0.00000001
 40
0.0
 40
0.0
 40
0.0
 40
0.0
 40
0.2187857887071734
 40
0.437577646953483
 40
0.6562353658864045
 40
0.8748419359491292
 40
1.0
 40
1.0
 40
1.0
 40
1.0
 10
865.193182019623
 20
1949.305632689089
 30
0.0
 10
865.2201454456952
 20
1949.340958085958
 30
0.0
 10
865.2740730458565
 20
1949.41160985969
 30
0.0
 10
865.3066689348298
 20
1949.545573088331
 30
0.0
 10
865.2973198035875
 20
1949.681115714612
 30
0.0
 10
865.2534410455058
 20
1949.790013518905
 30
0.0
 10
865.2092654872192
 20
1949.843317229711
 30
0.0
 10
865.193182019623
 20
1949.862724081345
 30
0.0
  0
ELLIPSE
  5
45A
330
1F
100
AcDbEntity
  8
1
  6
SLD-Сплошная
100
AcDbEllipse
 10
867.3756792947
 20
1949.5841783852
 30
0.0
 11
-0.4122489361056978
 21
0.0
 31
0.0
210
0.0
220
0.0
230
1.0
 40
0.9702875252
 41
5.512866274278693
 42
7.053504340080494
  0
SPLINE
  5
45B
330
1F
100
AcDbEntity
  8
1
  6
SLD-Сплошная
100
AcDbSpline
210
0.0
220
0.0
230
1.0
 70
     8
 71
     3
 72
    12
 73
     8
 74
     0
 42
0.00000001
 43
0.00000001
 40
0.0
 40
0.0
 40
0.0
 40
0.0
 40
0.2187857887071878
 40
0.4375776469534872
 40
0.6562353658863948
 40
0.8748419359490643
 40
1.0
 40
1.0
 40
1.0
 40
1.0
 10
867.4194030072475
 20
1949.862724081345
 30
0.0
 10
867.3924395811754
 20
1949.827398684476
 30
0.0
 10
867.338511981014
 20
1949.756746910744
 30
0.0
 10
867.3059160920409
 20
1949.622783682103
 30
0.0
 10
867.3152652232831
 20
1949.487241055823
 30
0.0
 10
867.3591439813648
 20
1949.378343251529
 30
0.0
 10
867.4033195396513
 20
1949.325039540723
 30
0.0
 10
867.4194030072475
 20
1949.305632689089
 30
0.0
  0
ARC
  5
45C
330
1F
100
AcDbEntity
  8
1
  6
SLD-Сплошная
100
AcDbCircle
 10
849.061024532
 20
1966.8294463666
 30
0.0
 40
26.56195549632837
100
AcDbArc
 50
313.8816987744
 51
316.1183012256
  0
ARC
  5
45D
330
1F
100
AcDbEntity
  8
1
  6
SLD-Сплошная
100
AcDbCircle
 10
850.2932695397
 20
1933.3427641492
 30
0.0
 40
23.41191191612878
100
AcDbArc
 50
40.0824770913
 51
42.9865596106
  0
ARC
  5
45E
330
1F
100
AcDbEntity
  8
1
  6
SLD-Сплошная
100
AcDbCircle
 10
850.2932695396
 20
1965.8255926214
 30
0.0
 40
23.41191191633215
100
AcDbArc
 50
317.0134403894
 51
319.9175229087
  0
ARC
  5
45F
330
1F
100
AcDbEntity
  8
1
  6
SLD-Сплошная
100
AcDbCircle
 10
849.0610245321
 20
1932.3389104039
 30
0.0
 40
26.5619554961973
100
AcDbArc
 50
43.8816987744
 51
46.1183012256
  0
ARC
  5
460
330
1F
100
AcDbEntity
  8
1
  6
SLD-Сплошная
100
AcDbCircle
 10
882.5477067494
 20
1933.5711554115
 30
0.0
 40
23.41191191614431
100
AcDbArc
 50
130.0824770913
 51
132.9865596106
  0
SPLINE
  5
461
330
1F
100
AcDbEntity
  8
1
  6
SLD-Сплошная
100
AcDbSpline
210
0.0
220
0.0
230
1.0
 70
     8
 71
     3
 72
    12
 73
     8
 74
     0
 42
0.00000001
 43
0.00000001
 40
0.0
 40
0.0
 40
0.0
 40
0.0
 40
0.2187857887072126
 40
0.4375776469535009
 40
0.6562353658863674
 40
0.8748419359490994
 40
1.0
 40
1.0
 40
1.0
 40
1.0
 10
866.0277468173073
 20
1950.697288879029
 30
0.0
 10
866.0630722141763
 20
1950.670325452957
 30
0.0
 10
866.1337239879085
 20
1950.616397852796
 30
0.0
 10
866.2676872165497
 20
1950.583801963823
 30
0.0
 10
866.4032298428297
 20
1950.593151095065
 30
0.0
 10
866.5121276471236
 20
1950.637029853146
 30
0.0
 10
866.5654313579295
 20
1950.681205411433
 30
0.0
 10
866.5848382095634
 20
1950.697288879029
 30
0.0
  0
ARC
  5
462
330
1F
100
AcDbEntity
  8
1
  6
SLD-Сплошная
100
AcDbCircle
 10
850.0648782776
 20
1933.5711554117
 30
0.0
 40
23.41191191590375
100
AcDbArc
 50
47.0134403894
 51
49.9175229087
  0
ARC
  5
463
330
1F
100
AcDbEntity
  8
1
  6
SLD-Сплошная
100
AcDbCircle
 10
883.5515604946
 20
1932.338910404
 30
0.0
 40
26.56195549600923
100
AcDbArc
 50
133.8816987744
 51
136.1183012256
  0
ARC
  5
464
330
1F
100
AcDbEntity
  8
1
  6
SLD-Сплошная
100
AcDbCircle
 10
882.3193154873
 20
1965.8255926214
 30
0.0
 40
23.41191191637013
100
AcDbArc
 50
220.0824770913
 51
222.9865596106
  0
ARC
  5
465
330
1F
100
AcDbEntity
  8
1
  6
SLD-Сплошная
100
AcDbCircle
 10
882.3193154871
 20
1933.3427641493
 30
0.0
 40
23.41191191605099
100
AcDbArc
 50
137.0134403894
 51
139.9175229087
  0
ARC
  5
466
330
1F
100
AcDbEntity
  8
1
  6
SLD-Сплошная
100
AcDbCircle
 10
883.5515604944
 20
1966.8294463662
 30
0.0
 40
26.56195549572043
100
AcDbArc
 50
223.8816987744
 51
226.1183012256
  0
ARC
  5
467
330
1F
100
AcDbEntity
  8
1
  6
SLD-Сплошная
100
AcDbCircle
 10
850.0648782774
 20
1965.5972013589
 30
0.0
 40
23.4119119161554
100
AcDbArc
 50
310.0824770913
 51
312.9865596106
  0
SPLINE
  5
468
330
1F
100
AcDbEntity
  8
1
  6
SLD-Сплошная
100
AcDbSpline
210
0.0
220
0.0
230
1.0
 70
     8
 71
     3
 72
    12
 73
     8
 74
     0
 42
0.00000001
 43
0.00000001
 40
0.0
 40
0.0
 40
0.0
 40
0.0
 40
0.2187857887072202
 40
0.4375776469534843
 40
0.6562353658864116
 40
0.8748419359491424
 40
1.0
 40
1.0
 40
1.0
 40
1.0
 10
866.5848382095634
 20
1948.471067891405
 30
0.0
 10
866.5495128126943
 20
1948.498031317477
 30
0.0
 10
866.478861038962
 20
1948.551958917638
 30
0.0
 10
866.344897810321
 20
1948.584554806611
 30
0.0
 10
866.2093551840409
 20
1948.575205675369
 30
0.0
 10
866.100457379747
 20
1948.531326917288
 30
0.0
 10
866.0471536689412
 20
1948.487151359001
 30
0.0
 10
866.0277468173073
 20
1948.471067891405
 30
0.0
  0
ARC
  5
469
330
1F
100
AcDbEntity
  8
1
  6
SLD-Сплошная
100
AcDbCircle
 10
882.5477067493
 20
1965.5972013588
 30
0.0
 40
23.41191191596903
100
AcDbArc
 50
227.0134403894
 51
229.9175229087
  0
CIRCLE
  5
46A
330
1F
100
AcDbEntity
  8
1
  6
SLD-Сплошная
100
AcDbCircle
 10
866.3062925134
 20
1949.5841783852
 30
0.0
 40
3.499999999999948
  0
ELLIPSE
  5
46B
330
1F
100
AcDbEntity
  8
1
  6
SLD-Сплошная
100
AcDbEllipse
 10
866.3062925134
 20
1950.6535651665
 30
0.0
 11
0.0
 21
-0.4122489361059252
 31
0.0
210
0.0
220
0.0
230
1.0
 40
0.9702875252
 41
5.512866274278466
 42
7.053504340080719
  0
ELLIPSE
  5
46C
330
1F
100
AcDbEntity
  8
1
  6
SLD-Сплошная
100
AcDbEllipse
 10
866.3062925134
 20
1948.5147916039
 30
0.0
 11
0.0
 21
0.4122489361056978
 31
0.0
210
0.0
220
0.0
230
1.0
 40
0.9702875252
 41
5.512866274278217
 42
7.05350434008097
  0
LINE
  5
46D
330
1F
100
AcDbEntity
  8
1
  6
SLD-Сплошная
100
AcDbLine
 10
867.4730187024
 20
1951.484039039
 30
0.0
 11
867.4730187024
 21
1951.245879321
 31
0.0
  0
LINE
  5
46E
330
1F
100
AcDbEntity
  8
1
  6
SLD-Сплошная
100
AcDbLine
 10
867.4730187024
 20
1951.245879321
 30
0.0
 11
866.5848382096
 21
1950.3576988282
 31
0.0
  0
LINE
  5
46F
330
1F
100
AcDbEntity
  8
1
  6
SLD-Сплошная
100
AcDbLine
 10
868.2061531672
 20
1948.4174521963
 30
0.0
 11
867.9679934492
 21
1948.4174521963
 31
0.0
  0
LINE
  5
470
330
1F
100
AcDbEntity
  8
1
  6
SLD-Сплошная
100
AcDbLine
 10
867.9679934492
 20
1948.4174521963
 30
0.0
 11
867.0798129564
 21
1949.3056326891
 31
0.0
  0
LINE
  5
471
330
1F
100
AcDbEntity
  8
1
  6
SLD-Сплошная
100
AcDbLine
 10
868.2061531672
 20
1950.7509045742
 30
0.0
 11
867.9679934492
 21
1950.7509045742
 31
0.0
  0
LINE
  5
472
330
1F
100
AcDbEntity
  8
1
  6
SLD-Сплошная
100
AcDbLine
 10
867.0798129564
 20
1949.8627240813
 30
0.0
 11
867.9679934492
 21
1950.7509045742
 31
0.0
  0
LINE
  5
473
330
1F
100
AcDbEntity
  8
1
  6
SLD-Сплошная
100
AcDbLine
 10
867.4730187024
 20
1947.6843177314
 30
0.0
 11
867.4730187024
 21
1947.9224774494
 31
0.0
  0
LINE
  5
474
330
1F
100
AcDbEntity
  8
1
  6
SLD-Сплошная
100
AcDbLine
 10
866.5848382096
 20
1948.8106579423
 30
0.0
 11
867.4730187024
 21
1947.9224774494
 31
0.0
  0
LINE
  5
475
330
1F
100
AcDbEntity
  8
1
  6
SLD-Сплошная
100
AcDbLine
 10
864.4064318596
 20
1948.4174521963
 30
0.0
 11
864.6445915776
 21
1948.4174521963
 31
0.0
  0
LINE
  5
476
330
1F
100
AcDbEntity
  8
1
  6
SLD-Сплошная
100
AcDbLine
 10
865.5327720705
 20
1949.3056326891
 30
0.0
 11
864.6445915776
 21
1948.4174521963
 31
0.0
  0
LINE
  5
477
330
1F
100
AcDbEntity
  8
1
  6
SLD-Сплошная
100
AcDbLine
 10
864.4064318596
 20
1950.7509045742
 30
0.0
 11
864.6445915776
 21
1950.7509045742
 31
0.0
  0
LINE
  5
478
330
1F
100
AcDbEntity
  8
1
  6
SLD-Сплошная
100
AcDbLine
 10
864.6445915776
 20
1950.7509045742
 30
0.0
 11
865.5327720705
 21
1949.8627240813
 31
0.0
  0
LINE
  5
479
330
1F
100
AcDbEntity
  8
1
  6
SLD-Сплошная
100
AcDbLine
 10
865.1395663245
 20
1947.6843177314
 30
0.0
 11
865.1395663245
 21
1947.9224774494
 31
0.0
  0
LINE
  5
47A
330
1F
100
AcDbEntity
  8
1
  6
SLD-Сплошная
100
AcDbLine
 10
865.1395663245
 20
1947.9224774494
 30
0.0
 11
866.0277468173
 21
1948.8106579423
 31
0.0
  0
LINE
  5
47B
330
1F
100
AcDbEntity
  8
1
  6
SLD-Сплошная
100
AcDbLine
 10
865.1395663245
 20
1951.484039039
 30
0.0
 11
865.1395663245
 21
1951.245879321
 31
0.0
  0
LINE
  5
47C
330
1F
100
AcDbEntity
  8
1
  6
SLD-Сплошная
100
AcDbLine
 10
866.0277468173
 20
1950.3576988282
 30
0.0
 11
865.1395663245
 21
1951.245879321
 31
0.0
  0
LINE
  5
47D
330
1F
100
AcDbEntity
  8
1
  6
SLD-Сплошная
100
AcDbLine
 10
867.4730187024
 20
1947.9224774494
 30
0.0
 11
867.9679934492
 21
1948.4174521963
 31
0.0
  0
LINE
  5
47E
330
1F
100
AcDbEntity
  8
1
  6
SLD-Сплошная
100
AcDbLine
 10
864.6445915776
 20
1948.4174521963
 30
0.0
 11
865.1395663245
 21
1947.9224774494
 31
0.0
  0
LINE
  5
47F
330
1F
100
AcDbEntity
  8
1
  6
SLD-Сплошная
100
AcDbLine
 10
865.1395663245
 20
1951.245879321
 30
0.0
 11
864.6445915776
 21
1950.7509045742
 31
0.0
  0
LINE
  5
480
330
1F
100
AcDbEntity
  8
1
  6
SLD-Сплошная
100
AcDbLine
 10
867.9679934492
 20
1950.7509045742
 30
0.0
 11
867.4730187024
 21
1951.245879321
 31
0.0
  0
CIRCLE
  5
481
330
1F
100
AcDbEntity
  8
1
  6
SLD-Сплошная
100
AcDbCircle
 10
866.3062925134
 20
1949.5841783852
 30
0.0
 40
4.999999999999879
  0
ARC
  5
482
330
1F
100
AcDbEntity
  8
1
  6
SLD-Сплошная
100
AcDbCircle
 10
866.5610245326
 20
1984.3294463661
 30
0.0
 40
26.56195549555419
100
AcDbArc
 50
313.8816987744
 51
316.1183012256
  0
ARC
  5
483
330
1F
100
AcDbEntity
  8
1
  6
SLD-Сплошная
100
AcDbCircle
 10
867.7932695399
 20
1950.8427641494
 30
0.0
 40
23.41191191591017
100
AcDbArc
 50
40.0824770913
 51
42.9865596106
  0
SPLINE
  5
484
330
1F
100
AcDbEntity
  8
1
  6
SLD-Сплошная
100
AcDbSpline
210
0.0
220
0.0
230
1.0
 70
     8
 71
     3
 72
    12
 73
     8
 74
     0
 42
0.00000001
 43
0.00000001
 40
0.0
 40
0.0
 40
0.0
 40
0.0
 40
0.2187857887071878
 40
0.4375776469534872
 40
0.6562353658863948
 40
0.8748419359490643
 40
1.0
 40
1.0
 40
1.0
 40
1.0
 10
884.9194030072476
 20
1967.362724081345
 30
0.0
 10
884.8924395811755
 20
1967.327398684476
 30
0.0
 10
884.838511981014
 20
1967.256746910744
 30
0.0
 10
884.8059160920409
 20
1967.122783682103
 30
0.0
 10
884.8152652232831
 20
1966.987241055823
 30
0.0
 10
884.8591439813649
 20
1966.878343251529
 30
0.0
 10
884.9033195396513
 20
1966.825039540723
 30
0.0
 10
884.9194030072476
 20
1966.805632689089
 30
0.0
  0
ARC
  5
485
330
1F
100
AcDbEntity
  8
1
  6
SLD-Сплошная
100
AcDbCircle
 10
867.7932695396
 20
1983.3255926213
 30
0.0
 40
23.41191191632252
100
AcDbArc
 50
317.0134403894
 51
319.9175229087
  0
ARC
  5
486
330
1F
100
AcDbEntity
  8
1
  6
SLD-Сплошная
100
AcDbCircle
 10
866.561024533
 20
1949.8389104048
 30
0.0
 40
26.56195549489568
100
AcDbArc
 50
43.8816987744
 51
46.1183012256
  0
ARC
  5
487
330
1F
100
AcDbEntity
  8
1
  6
SLD-Сплошная
100
AcDbCircle
 10
900.0477067497
 20
1951.0711554112
 30
0.0
 40
23.41191191660354
100
AcDbArc
 50
130.0824770913
 51
132.9865596105
  0
SPLINE
  5
488
330
1F
100
AcDbEntity
  8
1
  6
SLD-Сплошная
100
AcDbSpline
210
0.0
220
0.0
230
1.0
 70
     8
 71
     3
 72
    12
 73
     8
 74
     0
 42
0.00000001
 43
0.00000001
 40
0.0
 40
0.0
 40
0.0
 40
0.0
 40
0.2187857887072126
 40
0.4375776469535009
 40
0.6562353658863674
 40
0.8748419359490994
 40
1.0
 40
1.0
 40
1.0
 40
1.0
 10
883.5277468173073
 20
1968.19728887903
 30
0.0
 10
883.5630722141763
 20
1968.170325452957
 30
0.0
 10
883.6337239879086
 20
1968.116397852796
 30
0.0
 10
883.7676872165497
 20
1968.083801963823
 30
0.0
 10
883.9032298428297
 20
1968.093151095065
 30
0.0
 10
884.0121276471235
 20
1968.137029853147
 30
0.0
 10
884.0654313579295
 20
1968.181205411433
 30
0.0
 10
884.0848382095633
 20
1968.19728887903
 30
0.0
  0
ARC
  5
489
330
1F
100
AcDbEntity
  8
1
  6
SLD-Сплошная
100
AcDbCircle
 10
867.5648782773
 20
1951.0711554114
 30
0.0
 40
23.41191191631897
100
AcDbArc
 50
47.0134403894
 51
49.9175229087
  0
ARC
  5
48A
330
1F
100
AcDbEntity
  8
1
  6
SLD-Сплошная
100
AcDbCircle
 10
901.0515604942
 20
1949.8389104044
 30
0.0
 40
26.56195549542325
100
AcDbArc
 50
133.8816987744
 51
136.1183012256
  0
ARC
  5
48B
330
1F
100
AcDbEntity
  8
1
  6
SLD-Сплошная
100
AcDbCircle
 10
899.8193154874
 20
1983.3255926214
 30
0.0
 40
23.41191191642352
100
AcDbArc
 50
220.0824770913
 51
222.9865596106
  0
SPLINE
  5
48C
330
1F
100
AcDbEntity
  8
1
  6
SLD-Сплошная
100
AcDbSpline
210
0.0
220
0.0
230
1.0
 70
     8
 71
     3
 72
    12
 73
     8
 74
     0
 42
0.00000001
 43
0.00000001
 40
0.0
 40
0.0
 40
0.0
 40
0.0
 40
0.2187857887071734
 40
0.437577646953483
 40
0.6562353658864045
 40
0.8748419359491292
 40
1.0
 40
1.0
 40
1.0
 40
1.0
 10
882.6931820196231
 20
1966.805632689089
 30
0.0
 10
882.7201454456953
 20
1966.840958085958
 30
0.0
 10
882.7740730458567
 20
1966.91160985969
 30
0.0
 10
882.8066689348298
 20
1967.045573088331
 30
0.0
 10
882.7973198035875
 20
1967.181115714612
 30
0.0
 10
882.7534410455058
 20
1967.290013518905
 30
0.0
 10
882.7092654872193
 20
1967.343317229711
 30
0.0
 10
882.693182019623
 20
1967.362724081345
 30
0.0
  0
ARC
  5
48D
330
1F
100
AcDbEntity
  8
1
  6
SLD-Сплошная
100
AcDbCircle
 10
899.8193154871
 20
1950.8427641492
 30
0.0
 40
23.41191191613011
100
AcDbArc
 50
137.0134403894
 51
139.9175229087
  0
ARC
  5
48E
330
1F
100
AcDbEntity
  8
1
  6
SLD-Сплошная
100
AcDbCircle
 10
901.0515604942
 20
1984.329446366
 30
0.0
 40
26.56195549547252
100
AcDbArc
 50
223.8816987744
 51
226.1183012256
  0
ARC
  5
48F
330
1F
100
AcDbEntity
  8
1
  6
SLD-Сплошная
100
AcDbCircle
 10
867.5648782772
 20
1983.0972013592
 30
0.0
 40
23.41191191647977
100
AcDbArc
 50
310.0824770913
 51
312.9865596106
  0
SPLINE
  5
490
330
1F
100
AcDbEntity
  8
1
  6
SLD-Сплошная
100
AcDbSpline
210
0.0
220
0.0
230
1.0
 70
     8
 71
     3
 72
    12
 73
     8
 74
     0
 42
0.00000001
 43
0.00000001
 40
0.0
 40
0.0
 40
0.0
 40
0.0
 40
0.2187857887072202
 40
0.4375776469534843
 40
0.6562353658864116
 40
0.8748419359491424
 40
1.0
 40
1.0
 40
1.0
 40
1.0
 10
884.0848382095633
 20
1965.971067891405
 30
0.0
 10
884.0495128126944
 20
1965.998031317477
 30
0.0
 10
883.9788610389619
 20
1966.051958917638
 30
0.0
 10
883.8448978103211
 20
1966.084554806611
 30
0.0
 10
883.7093551840408
 20
1966.07520567537
 30
0.0
 10
883.6004573797471
 20
1966.031326917288
 30
0.0
 10
883.5471536689411
 20
1965.987151359001
 30
0.0
 10
883.5277468173073
 20
1965.971067891405
 30
0.0
  0
ARC
  5
491
330
1F
100
AcDbEntity
  8
1
  6
SLD-Сплошная
100
AcDbCircle
 10
900.0477067497
 20
1983.0972013592
 30
0.0
 40
23.41191191652614
100
AcDbArc
 50
227.0134403895
 51
229.9175229087
  0
CIRCLE
  5
492
330
1F
100
AcDbEntity
  8
1
  6
SLD-Сплошная
100
AcDbCircle
 10
883.8062925134
 20
1967.0841783852
 30
0.0
 40
3.499999999999948
  0
ELLIPSE
  5
493
330
1F
100
AcDbEntity
  8
1
  6
SLD-Сплошная
100
AcDbEllipse
 10
883.8062925134
 20
1968.1535651665
 30
0.0
 11
0.0
 21
-0.4122489361056978
 31
0.0
210
0.0
220
0.0
230
1.0
 40
0.9702875252
 41
5.512866274278884
 42
7.053504340080098
  0
ELLIPSE
  5
494
330
1F
100
AcDbEntity
  8
1
  6
SLD-Сплошная
100
AcDbEllipse
 10
883.8062925134
 20
1966.0147916039
 30
0.0
 11
0.0
 21
0.4122489361054704
 31
0.0
210
0.0
220
0.0
230
1.0
 40
0.9702875252
 41
5.512866274278838
 42
7.053504340080551
  0
ELLIPSE
  5
495
330
1F
100
AcDbEntity
  8
1
  6
SLD-Сплошная
100
AcDbEllipse
 10
884.8756792947
 20
1967.0841783852
 30
0.0
 11
-0.4122489361055841
 21
0.0
 31
0.0
210
0.0
220
0.0
230
1.0
 40
0.9702875252
 41
5.512866274278831
 42
7.053504340080355
  0
ELLIPSE
  5
496
330
1F
100
AcDbEntity
  8
1
  6
SLD-Сплошная
100
AcDbEllipse
 10
882.7369057322
 20
1967.0841783852
 30
0.0
 11
0.4122489361056978
 21
0.0
 31
0.0
210
0.0
220
0.0
230
1.0
 40
0.9702875252
 41
5.512866274278217
 42
7.05350434008097
  0
LINE
  5
497
330
1F
100
AcDbEntity
  8
1
  6
SLD-Сплошная
100
AcDbLine
 10
882.6395663245
 20
1965.1843177314
 30
0.0
 11
882.6395663245
 21
1965.4224774494
 31
0.0
  0
LINE
  5
498
330
1F
100
AcDbEntity
  8
1
  6
SLD-Сплошная
100
AcDbLine
 10
882.6395663245
 20
1965.4224774494
 30
0.0
 11
883.5277468173
 21
1966.3106579423
 31
0.0
  0
LINE
  5
499
330
1F
100
AcDbEntity
  8
1
  6
SLD-Сплошная
100
AcDbLine
 10
881.9064318596
 20
1968.2509045742
 30
0.0
 11
882.1445915776
 21
1968.2509045742
 31
0.0
  0
LINE
  5
49A
330
1F
100
AcDbEntity
  8
1
  6
SLD-Сплошная
100
AcDbLine
 10
882.1445915776
 20
1968.2509045742
 30
0.0
 11
883.0327720705
 21
1967.3627240813
 31
0.0
  0
LINE
  5
49B
330
1F
100
AcDbEntity
  8
1
  6
SLD-Сплошная
100
AcDbLine
 10
885.7061531672
 20
1965.9174521963
 30
0.0
 11
885.4679934492
 21
1965.9174521963
 31
0.0
  0
LINE
  5
49C
330
1F
100
AcDbEntity
  8
1
  6
SLD-Сплошная
100
AcDbLine
 10
885.4679934492
 20
1965.9174521963
 30
0.0
 11
884.5798129564
 21
1966.8056326891
 31
0.0
  0
LINE
  5
49D
330
1F
100
AcDbEntity
  8
1
  6
SLD-Сплошная
100
AcDbLine
 10
882.6395663245
 20
1968.984039039
 30
0.0
 11
882.6395663245
 21
1968.745879321
 31
0.0
  0
LINE
  5
49E
330
1F
100
AcDbEntity
  8
1
  6
SLD-Сплошная
100
AcDbLine
 10
883.5277468173
 20
1967.8576988282
 30
0.0
 11
882.6395663245
 21
1968.745879321
 31
0.0
  0
LINE
  5
49F
330
1F
100
AcDbEntity
  8
1
  6
SLD-Сплошная
100
AcDbLine
 10
884.9730187024
 20
1965.1843177314
 30
0.0
 11
884.9730187024
 21
1965.4224774494
 31
0.0
  0
LINE
  5
4A0
330
1F
100
AcDbEntity
  8
1
  6
SLD-Сплошная
100
AcDbLine
 10
884.0848382096
 20
1966.3106579423
 30
0.0
 11
884.9730187024
 21
1965.4224774494
 31
0.0
  0
LINE
  5
4A1
330
1F
100
AcDbEntity
  8
1
  6
SLD-Сплошная
100
AcDbLine
 10
885.7061531672
 20
1968.2509045742
 30
0.0
 11
885.4679934492
 21
1968.2509045742
 31
0.0
  0
LINE
  5
4A2
330
1F
100
AcDbEntity
  8
1
  6
SLD-Сплошная
100
AcDbLine
 10
884.5798129564
 20
1967.3627240813
 30
0.0
 11
885.4679934492
 21
1968.2509045742
 31
0.0
  0
LINE
  5
4A3
330
1F
100
AcDbEntity
  8
1
  6
SLD-Сплошная
100
AcDbLine
 10
884.9730187024
 20
1968.984039039
 30
0.0
 11
884.9730187024
 21
1968.745879321
 31
0.0
  0
LINE
  5
4A4
330
1F
100
AcDbEntity
  8
1
  6
SLD-Сплошная
100
AcDbLine
 10
884.9730187024
 20
1968.745879321
 30
0.0
 11
884.0848382096
 21
1967.8576988282
 31
0.0
  0
LINE
  5
4A5
330
1F
100
AcDbEntity
  8
1
  6
SLD-Сплошная
100
AcDbLine
 10
881.9064318596
 20
1965.9174521963
 30
0.0
 11
882.1445915776
 21
1965.9174521963
 31
0.0
  0
LINE
  5
4A6
330
1F
100
AcDbEntity
  8
1
  6
SLD-Сплошная
100
AcDbLine
 10
883.0327720705
 20
1966.8056326891
 30
0.0
 11
882.1445915776
 21
1965.9174521963
 31
0.0
  0
LINE
  5
4A7
330
1F
100
AcDbEntity
  8
1
  6
SLD-Сплошная
100
AcDbLine
 10
885.4679934492
 20
1968.2509045742
 30
0.0
 11
884.9730187024
 21
1968.745879321
 31
0.0
  0
LINE
  5
4A8
330
1F
100
AcDbEntity
  8
1
  6
SLD-Сплошная
100
AcDbLine
 10
882.1445915776
 20
1965.9174521963
 30
0.0
 11
882.6395663245
 21
1965.4224774494
 31
0.0
  0
LINE
  5
4A9
330
1F
100
AcDbEntity
  8
1
  6
SLD-Сплошная
100
AcDbLine
 10
884.9730187024
 20
1965.4224774494
 30
0.0
 11
885.4679934492
 21
1965.9174521963
 31
0.0
  0
LINE
  5
4AA
330
1F
100
AcDbEntity
  8
1
  6
SLD-Сплошная
100
AcDbLine
 10
882.6395663245
 20
1968.745879321
 30
0.0
 11
882.1445915776
 21
1968.2509045742
 31
0.0
  0
CIRCLE
  5
4AB
330
1F
100
AcDbEntity
  8
1
  6
SLD-Сплошная
100
AcDbCircle
 10
883.8062925134
 20
1967.0841783852
 30
0.0
 40
4.999999999999879
  0
CIRCLE
  5
4AC
330
1F
100
AcDbEntity
  8
1
  6
SLD-Сплошная
100
AcDbCircle
 10
951.3062925134
 20
2276.1341783852
 30
0.0
 40
8.300000000000182
  0
LINE
  5
4AD
330
1F
100
AcDbEntity
  8
1
  6
SLD-Сплошная
100
AcDbLine
 10
438.3062925133
 20
2319.0341783852
 30
0.0
 11
410.3062925133
 21
2319.0341783852
 31
0.0
  0
LINE
  5
4AE
330
1F
100
AcDbEntity
  8
1
  6
SLD-Сплошная
100
AcDbLine
 10
435.3062925133
 20
2322.0341783852
 30
0.0
 11
413.3062925133
 21
2322.0341783852
 31
0.0
  0
LINE
  5
4AF
330
1F
100
AcDbEntity
  8
1
  6
SLD-Сплошная
100
AcDbLine
 10
962.3062925134
 20
2292.1341783852
 30
0.0
 11
962.3062925134
 21
2291.1341783852
 31
0.0
  0
LINE
  5
4B0
330
1F
100
AcDbEntity
  8
1
  6
SLD-Сплошная
100
AcDbLine
 10
960.3062925134
 20
2293.1341783852
 30
0.0
 11
961.3062925134
 21
2293.1341783852
 31
0.0
  0
SPLINE
  5
4B1
330
1F
100
AcDbEntity
  8
1
  6
SLD-Сплошная
100
AcDbSpline
210
0.0
220
0.0
230
1.0
 70
     8
 71
     3
 72
    12
 73
     8
 74
     0
 42
0.00000001
 43
0.00000001
 40
0.0
 40
0.0
 40
0.0
 40
0.0
 40
0.2178231110881945
 40
0.4765675029999188
 40
0.8410160589292734
 40
0.996187147758082
 40
1.0
 40
1.0
 40
1.0
 40
1.0
 10
961.3062925133826
 20
2293.134178385217
 30
0.0
 10
961.4474290834162
 20
2293.114825191806
 30
0.0
 10
961.7562168076703
 20
2293.072483022452
 30
0.0
 10
962.1140269360307
 20
2292.778335267583
 30
0.0
 10
962.2802772020549
 20
2292.444344772984
 30
0.0
 10
962.3061661068705
 20
2292.207672586592
 30
0.0
 10
962.3062895528249
 20
2292.135899687736
 30
0.0
 10
962.3062925133828
 20
2292.134178385217
 30
0.0
  0
LINE
  5
4B2
330
1F
100
AcDbEntity
  8
1
  6
SLD-Сплошная
100
AcDbLine
 10
949.8062925134
 20
2293.1341783852
 30
0.0
 11
960.3062925134
 21
2293.1341783852
 31
0.0
  0
ARC
  5
4B3
330
1F
100
AcDbEntity
  8
1
  6
SLD-Сплошная
100
AcDbCircle
 10
949.8062925134
 20
2294.1341783852
 30
0.0
 40
1.0
100
AcDbArc
 50
180.0
 51
270.0
  0
ARC
  5
4B4
330
1F
100
AcDbEntity
  8
1
  6
SLD-Сплошная
100
AcDbCircle
 10
949.8062925134
 20
2294.1341783852
 30
0.0
 40
3.0
100
AcDbArc
 50
180.0
 51
270.0
  0
LINE
  5
4B5
330
1F
100
AcDbEntity
  8
1
  6
SLD-Сплошная
100
AcDbLine
 10
946.8062925134
 20
2299.0341783852
 30
0.0
 11
946.8062925134
 21
2294.1341783852
 31
0.0
  0
LINE
  5
4B6
330
1F
100
AcDbEntity
  8
1
  6
SLD-Сплошная
100
AcDbLine
 10
948.8062925134
 20
2299.0341783852
 30
0.0
 11
948.8062925134
 21
2294.1341783852
 31
0.0
  0
LINE
  5
4B7
330
1F
100
AcDbEntity
  8
1
  6
SLD-Сплошная
100
AcDbLine
 10
958.5589837068
 20
2293.2341783852
 30
0.0
 11
959.9062925134
 21
2293.2341783852
 31
0.0
  0
LINE
  5
4B8
330
1F
100
AcDbEntity
  8
1
  6
SLD-Сплошная
100
AcDbLine
 10
950.7062925134
 20
2293.2341783852
 30
0.0
 11
958.5589837068
 21
2293.2341783852
 31
0.0
  0
LINE
  5
4B9
330
1F
100
AcDbEntity
  8
1
  6
SLD-Сплошная
100
AcDbLine
 10
958.5589837068
 20
2293.6341783852
 30
0.0
 11
959.9062925134
 21
2293.6341783852
 31
0.0
  0
LINE
  5
4BA
330
1F
100
AcDbEntity
  8
1
  6
SLD-Сплошная
100
AcDbLine
 10
950.7062925134
 20
2293.6341783852
 30
0.0
 11
958.5589837068
 21
2293.6341783852
 31
0.0
  0
ARC
  5
4BB
330
1F
100
AcDbEntity
  8
1
  6
SLD-Сплошная
100
AcDbCircle
 10
949.3062925134
 20
2293.6341783852
 30
0.0
 40
2.5
100
AcDbArc
 50
180.0
 51
270.0
  0
LINE
  5
4BC
330
1F
100
AcDbEntity
  8
1
  6
SLD-Сплошная
100
AcDbLine
 10
946.8062925134
 20
2294.1341783852
 30
0.0
 11
946.8062925134
 21
2293.6341783852
 31
0.0
  0
LINE
  5
4BD
330
1F
100
AcDbEntity
  8
1
  6
SLD-Сплошная
100
AcDbLine
 10
1636.5604357325
 20
1337.6319219188
 30
0.0
 11
1636.5604357325
 21
-56.0094426563
 31
0.0
  0
LINE
  5
4BE
330
1F
100
AcDbEntity
  8
1
  6
SLD-Сплошная
100
AcDbLine
 10
1628.6604357325
 20
1245.7612396313
 30
0.0
 11
1629.8258117712
 21
1245.7612396313
 31
0.0
  0
LINE
  5
4BF
330
1F
100
AcDbEntity
  8
1
  6
SLD-Сплошная
100
AcDbLine
 10
1629.8258117712
 20
1255.8612396313
 30
0.0
 11
1628.6604357325
 21
1255.8612396313
 31
0.0
  0
ARC
  5
4C0
330
1F
100
AcDbEntity
  8
1
  6
SLD-Сплошная
100
AcDbCircle
 10
1629.8258117712
 20
1245.9612396313
 30
0.0
 40
0.2000000000001625
100
AcDbArc
 50
270.0
 51
338.1849373759
  0
ARC
  5
4C1
330
1F
100
AcDbEntity
  8
1
  6
SLD-Сплошная
100
AcDbCircle
 10
1629.8258117712
 20
1255.6612396313
 30
0.0
 40
0.2000000000001625
100
AcDbArc
 50
21.8150626241
 51
90.0
  0
ARC
  5
4C2
330
1F
100
AcDbEntity
  8
1
  6
SLD-Сплошная
100
AcDbCircle
 10
1617.7091857325
 20
1250.8112396313
 30
0.0
 40
13.25125000000011
100
AcDbArc
 50
338.1849373759
 51
0.0
  0
ARC
  5
4C3
330
1F
100
AcDbEntity
  8
1
  6
SLD-Сплошная
100
AcDbCircle
 10
1617.7091857325
 20
1250.8112396313
 30
0.0
 40
13.2512500000002
100
AcDbArc
 50
0.0
 51
21.8150626241
  0
LINE
  5
4C4
330
1F
100
AcDbEntity
  8
1
  6
SLD-Сплошная
100
AcDbLine
 10
1628.6604357325
 20
25.7612396313
 30
0.0
 11
1629.8258117712
 21
25.7612396313
 31
0.0
  0
LINE
  5
4C5
330
1F
100
AcDbEntity
  8
1
  6
SLD-Сплошная
100
AcDbLine
 10
1629.8258117712
 20
35.8612396313
 30
0.0
 11
1628.6604357325
 21
35.8612396313
 31
0.0
  0
ARC
  5
4C6
330
1F
100
AcDbEntity
  8
1
  6
SLD-Сплошная
100
AcDbCircle
 10
1629.8258117712
 20
25.9612396313
 30
0.0
 40
0.2000000000001308
100
AcDbArc
 50
270.0
 51
338.1849373759
  0
ARC
  5
4C7
330
1F
100
AcDbEntity
  8
1
  6
SLD-Сплошная
100
AcDbCircle
 10
1629.8258117712
 20
35.6612396313
 30
0.0
 40
0.2000000000001308
100
AcDbArc
 50
21.8150626241
 51
90.0
  0
ARC
  5
4C8
330
1F
100
AcDbEntity
  8
1
  6
SLD-Сплошная
100
AcDbCircle
 10
1617.7091857325
 20
30.8112396313
 30
0.0
 40
13.25125000000012
100
AcDbArc
 50
338.1849373759
 51
0.0
  0
ARC
  5
4C9
330
1F
100
AcDbEntity
  8
1
  6
SLD-Сплошная
100
AcDbCircle
 10
1617.7091857325
 20
30.8112396313
 30
0.0
 40
13.25125000000012
100
AcDbArc
 50
0.0
 51
21.8150626241
  0
LINE
  5
4CA
330
1F
100
AcDbEntity
  8
1
  6
SLD-Сплошная
100
AcDbLine
 10
1628.6604357324
 20
635.7612396313
 30
0.0
 11
1629.8258117711
 21
635.7612396313
 31
0.0
  0
LINE
  5
4CB
330
1F
100
AcDbEntity
  8
1
  6
SLD-Сплошная
100
AcDbLine
 10
1629.8258117711
 20
645.8612396313
 30
0.0
 11
1628.6604357324
 21
645.8612396313
 31
0.0
  0
ARC
  5
4CC
330
1F
100
AcDbEntity
  8
1
  6
SLD-Сплошная
100
AcDbCircle
 10
1629.8258117711
 20
635.9612396313
 30
0.0
 40
0.1999999999999318
100
AcDbArc
 50
270.0
 51
338.1849373759
  0
ARC
  5
4CD
330
1F
100
AcDbEntity
  8
1
  6
SLD-Сплошная
100
AcDbCircle
 10
1629.8258117711
 20
645.6612396313
 30
0.0
 40
0.2000000000000455
100
AcDbArc
 50
21.8150626241
 51
90.0
  0
ARC
  5
4CE
330
1F
100
AcDbEntity
  8
1
  6
SLD-Сплошная
100
AcDbCircle
 10
1617.7091857324
 20
640.8112396313
 30
0.0
 40
13.25125000000003
100
AcDbArc
 50
338.1849373759
 51
0.0
  0
ARC
  5
4CF
330
1F
100
AcDbEntity
  8
1
  6
SLD-Сплошная
100
AcDbCircle
 10
1617.7091857324
 20
640.8112396313
 30
0.0
 40
13.25125000000003
100
AcDbArc
 50
0.0
 51
21.8150626241
  0
LINE
  5
4D0
330
1F
100
AcDbEntity
  8
1
  6
SLD-Сплошная
100
AcDbLine
 10
1605.3604357325
 20
-59.1887603687
 30
0.0
 11
1605.3604357325
 21
-60.3945224263
 31
0.0
  0
LINE
  5
4D1
330
1F
100
AcDbEntity
  8
1
  6
SLD-Сплошная
100
AcDbLine
 10
1621.9604357325
 20
-60.3945224263
 30
0.0
 11
1621.9604357325
 21
-59.1887603687
 31
0.0
  0
ARC
  5
4D2
330
1F
100
AcDbEntity
  8
1
  6
SLD-Сплошная
100
AcDbCircle
 10
1606.3604357325
 20
-60.3945224263
 30
0.0
 40
1.0
100
AcDbArc
 50
180.0
 51
257.5813184942
  0
ARC
  5
4D3
330
1F
100
AcDbEntity
  8
1
  6
SLD-Сплошная
100
AcDbCircle
 10
1620.9604357325
 20
-60.3945224263
 30
0.0
 40
1.0
100
AcDbArc
 50
282.4186815058
 51
0.0
  0
ARC
  5
4D4
330
1F
100
AcDbEntity
  8
1
  6
SLD-Сплошная
100
AcDbCircle
 10
1613.6604357325
 20
-27.2437603687
 30
0.0
 40
34.94500000000014
100
AcDbArc
 50
270.0104111827
 51
282.4186815058
  0
ARC
  5
4D5
330
1F
100
AcDbEntity
  8
1
  6
SLD-Сплошная
100
AcDbCircle
 10
1613.6604357325
 20
-27.2437603687
 30
0.0
 40
34.94500000000006
100
AcDbArc
 50
257.5813184942
 51
270.0104111827
  0
LINE
  5
4D6
330
1F
100
AcDbEntity
  8
1
  6
SLD-Сплошная
100
AcDbLine
 10
1655.5604357325
 20
626.8112396313
 30
0.0
 11
1656.5604357325
 21
626.8112396313
 31
0.0
  0
LINE
  5
4D7
330
1F
100
AcDbEntity
  8
1
  6
SLD-Сплошная
100
AcDbLine
 10
1656.5604357325
 20
654.8112396313
 30
0.0
 11
1655.5604357325
 21
654.8112396313
 31
0.0
  0
LINE
  5
4D8
330
1F
100
AcDbEntity
  8
1
  6
SLD-Сплошная
100
AcDbLine
 10
1656.5604357325
 20
626.8112396313
 30
0.0
 11
1659.5604357325
 21
629.8112396313
 31
0.0
  0
LINE
  5
4D9
330
1F
100
AcDbEntity
  8
1
  6
SLD-Сплошная
100
AcDbLine
 10
1659.5604357325
 20
651.8112396313
 30
0.0
 11
1656.5604357325
 21
654.8112396313
 31
0.0
  0
SPLINE
  5
4DA
330
1F
100
AcDbEntity
  8
1
  6
SLD-Сплошная
100
AcDbSpline
210
0.0
220
0.0
230
1.0
 70
     8
 71
     3
 72
    11
 73
     7
 74
     0
 42
0.00000001
 43
0.00000001
 40
0.0
 40
0.0
 40
0.0
 40
0.0
 40
0.2500000000000008
 40
0.5000000000000051
 40
0.7500000000000105
 40
1.0
 40
1.0
 40
1.0
 40
1.0
 10
1638.010435732495
 20
1337.628396918807
 30
0.0
 10
1637.820432018976
 20
1337.62423025214
 30
0.0
 10
1637.440424591938
 20
1337.615896918807
 30
0.0
 10
1636.961134433147
 20
1337.603396918807
 30
0.0
 10
1636.62582307412
 20
1337.590896918806
 30
0.0
 10
1636.582231513037
 20
1337.582563585473
 30
0.0
 10
1636.560435732495
 20
1337.578396918806
 30
0.0
  0
SPLINE
  5
4DB
330
1F
100
AcDbEntity
  8
1
  6
SLD-Сплошная
100
AcDbSpline
210
0.0
220
0.0
230
1.0
 70
     8
 71
     3
 72
    11
 73
     7
 74
     0
 42
0.00000001
 43
0.00000001
 40
0.0
 40
0.0
 40
0.0
 40
0.0
 40
0.2500000000000058
 40
0.4999999999999966
 40
0.7499999999999969
 40
1.0
 40
1.0
 40
1.0
 40
1.0
 10
1636.560435732495
 20
-55.9559176562986
 30
0.0
 10
1636.582231513034
 20
-55.9600843229654
 30
0.0
 10
1636.625823074113
 20
-55.96841765629923
 30
0.0
 10
1636.96113443314
 20
-55.98091765629854
 30
0.0
 10
1637.440424591933
 20
-55.99341765629973
 30
0.0
 10
1637.820432018974
 20
-56.00175098963312
 30
0.0
 10
1638.010435732495
 20
-56.00591765629992
 30
0.0
  0
LINE
  5
4DC
330
1F
100
AcDbEntity
  8
1
  6
SLD-Сплошная
100
AcDbLine
 10
1638.0104357325
 20
-56.0059176563
 30
0.0
 11
1652.4604357325
 21
-56.0059176563
 31
0.0
  0
LINE
  5
4DD
330
1F
100
AcDbEntity
  8
1
  6
SLD-Сплошная
100
AcDbLine
 10
1638.0104357325
 20
1337.6283969188
 30
0.0
 11
1652.4604357325
 21
1337.6283969188
 31
0.0
  0
ELLIPSE
  5
4DE
330
1F
100
AcDbEntity
  8
1
  6
SLD-Сплошная
100
AcDbEllipse
 10
1652.4604357325
 20
1336.2112396313
 30
0.0
 11
3.099999999999909
 21
0.0
 31
0.0
210
0.0
220
0.0
230
1.0
 40
0.4571475121
 41
0.0
 42
1.570796326794897
  0
LINE
  5
4DF
330
1F
100
AcDbEntity
  8
1
  6
SLD-Сплошная
100
AcDbLine
 10
1655.5604357325
 20
1336.2112396313
 30
0.0
 11
1655.5604357325
 21
-54.5887603688
 31
0.0
  0
ELLIPSE
  5
4E0
330
1F
100
AcDbEntity
  8
1
  6
SLD-Сплошная
100
AcDbEllipse
 10
1652.4604357325
 20
-54.5887603688
 30
0.0
 11
3.100000000000136
 21
0.0
 31
0.0
210
0.0
220
0.0
230
1.0
 40
0.4571475121
 41
4.712388980384696
 42
6.283185307179586
  0
LINE
  5
4E1
330
1F
100
AcDbEntity
  8
1
  6
SLD-Сплошная
100
AcDbLine
 10
1637.9604357325
 20
1337.8612396313
 30
0.0
 11
1636.5604357325
 21
1337.8612396313
 31
0.0
  0
SPLINE
  5
4E2
330
1F
100
AcDbEntity
  8
1
  6
SLD-Сплошная
100
AcDbSpline
210
0.0
220
0.0
230
1.0
 70
     8
 71
     3
 72
    11
 73
     7
 74
     0
 42
0.00000001
 43
0.00000001
 40
0.0
 40
0.0
 40
0.0
 40
0.0
 40
0.2500000000000102
 40
0.5000000000000296
 40
0.749999999999993
 40
1.0
 40
1.0
 40
1.0
 40
1.0
 10
1636.560435732495
 20
1337.861239631254
 30
0.0
 10
1636.582231513037
 20
1338.051243344773
 30
0.0
 10
1636.62582307412
 20
1338.431250771811
 30
0.0
 10
1636.961134433147
 20
1338.910540930602
 30
0.0
 10
1637.440424591938
 20
1339.245852289629
 30
0.0
 10
1637.820432018976
 20
1339.289443850712
 30
0.0
 10
1638.010435732495
 20
1339.311239631254
 30
0.0
  0
LINE
  5
4E3
330
1F
100
AcDbEntity
  8
1
  6
SLD-Сплошная
100
AcDbLine
 10
1638.0104357325
 20
1339.3112396313
 30
0.0
 11
1638.0104357325
 21
1337.9112396313
 31
0.0
  0
SPLINE
  5
4E4
330
1F
100
AcDbEntity
  8
1
  6
SLD-Сплошная
100
AcDbSpline
210
0.0
220
0.0
230
1.0
 70
     8
 71
     3
 72
    11
 73
     7
 74
     0
 42
0.00000001
 43
0.00000001
 40
0.0
 40
0.0
 40
0.0
 40
0.0
 40
0.2500000000004477
 40
0.5000000000000825
 40
0.7500000000000565
 40
1.0
 40
1.0
 40
1.0
 40
1.0
 10
1637.960435732495
 20
1337.861239631254
 30
0.0
 10
1637.961187311134
 20
1337.867791483444
 30
0.0
 10
1637.962690468413
 20
1337.880895187825
 30
0.0
 10
1637.974252929069
 20
1337.89742243468
 30
0.0
 10
1637.990780175924
 20
1337.908984895336
 30
0.0
 10
1638.003883880305
 20
1337.910488052614
 30
0.0
 10
1638.010435732495
 20
1337.911239631254
 30
0.0
  0
LINE
  5
4E5
330
1F
100
AcDbEntity
  8
1
  6
SLD-Сплошная
100
AcDbLine
 10
1652.4604357325
 20
1337.9112396313
 30
0.0
 11
1638.0104357325
 21
1337.9112396313
 31
0.0
  0
LINE
  5
4E6
330
1F
100
AcDbEntity
  8
1
  6
SLD-Сплошная
100
AcDbLine
 10
1652.4604357325
 20
1339.3112396313
 30
0.0
 11
1638.0104357325
 21
1339.3112396313
 31
0.0
  0
LINE
  5
4E7
330
1F
100
AcDbEntity
  8
1
  6
SLD-Сплошная
100
AcDbLine
 10
1638.0104357325
 20
-57.6887603687
 30
0.0
 11
1638.0104357325
 21
-56.2887603687
 31
0.0
  0
LINE
  5
4E8
330
1F
100
AcDbEntity
  8
1
  6
SLD-Сплошная
100
AcDbLine
 10
1637.9604357325
 20
-56.2387603687
 30
0.0
 11
1636.5604357325
 21
-56.2387603687
 31
0.0
  0
SPLINE
  5
4E9
330
1F
100
AcDbEntity
  8
1
  6
SLD-Сплошная
100
AcDbSpline
210
0.0
220
0.0
230
1.0
 70
     8
 71
     3
 72
    11
 73
     7
 74
     0
 42
0.00000001
 43
0.00000001
 40
0.0
 40
0.0
 40
0.0
 40
0.0
 40
0.2499999999995393
 40
0.5000000000006377
 40
0.7500000000004058
 40
1.0
 40
1.0
 40
1.0
 40
1.0
 10
1638.010435732495
 20
-56.28876036874608
 30
0.0
 10
1638.003883880305
 20
-56.28800879010664
 30
0.0
 10
1637.990780175924
 20
-56.28650563282811
 30
0.0
 10
1637.974252929069
 20
-56.27494317217175
 30
0.0
 10
1637.962690468413
 20
-56.25841592531711
 30
0.0
 10
1637.961187311134
 20
-56.24531222093643
 30
0.0
 10
1637.960435732495
 20
-56.23876036874598
 30
0.0
  0
SPLINE
  5
4EA
330
1F
100
AcDbEntity
  8
1
  6
SLD-Сплошная
100
AcDbSpline
210
0.0
220
0.0
230
1.0
 70
     8
 71
     3
 72
    11
 73
     7
 74
     0
 42
0.00000001
 43
0.00000001
 40
0.0
 40
0.0
 40
0.0
 40
0.0
 40
0.2499999999999944
 40
0.5000000000000039
 40
0.7499999999999863
 40
1.0
 40
1.0
 40
1.0
 40
1.0
 10
1638.010435732495
 20
-57.68876036874615
 30
0.0
 10
1637.820432018976
 20
-57.66696458820453
 30
0.0
 10
1637.440424591938
 20
-57.62337302712128
 30
0.0
 10
1636.961134433147
 20
-57.28806166809353
 30
0.0
 10
1636.62582307412
 20
-56.80877150930319
 30
0.0
 10
1636.582231513037
 20
-56.42876408226516
 30
0.0
 10
1636.560435732495
 20
-56.23876036874609
 30
0.0
  0
LINE
  5
4EB
330
1F
100
AcDbEntity
  8
1
  6
SLD-Сплошная
100
AcDbLine
 10
1652.4604357325
 20
-57.6887603687
 30
0.0
 11
1638.0104357325
 21
-57.6887603687
 31
0.0
  0
LINE
  5
4EC
330
1F
100
AcDbEntity
  8
1
  6
SLD-Сплошная
100
AcDbLine
 10
1652.4604357325
 20
-56.2887603687
 30
0.0
 11
1638.0104357325
 21
-56.2887603687
 31
0.0
  0
ARC
  5
4ED
330
1F
100
AcDbEntity
  8
1
  6
SLD-Сплошная
100
AcDbCircle
 10
1652.4604357325
 20
1336.2112396313
 30
0.0
 40
3.099999999999909
100
AcDbArc
 50
0.0000000015
 51
90.0
  0
ARC
  5
4EE
330
1F
100
AcDbEntity
  8
1
  6
SLD-Сплошная
100
AcDbCircle
 10
1652.4604357325
 20
1336.2112396313
 30
0.0
 40
1.699999999999922
100
AcDbArc
 50
51.6088531468
 51
90.0
  0
ARC
  5
4EF
330
1F
100
AcDbEntity
  8
1
  6
SLD-Сплошная
100
AcDbCircle
 10
1652.4604357325
 20
-54.5887603687
 30
0.0
 40
3.100000000000215
100
AcDbArc
 50
270.0
 51
359.9999999985
  0
ARC
  5
4F0
330
1F
100
AcDbEntity
  8
1
  6
SLD-Сплошная
100
AcDbCircle
 10
1652.4604357325
 20
-54.5887603687
 30
0.0
 40
1.700000000000211
100
AcDbArc
 50
270.0
 51
308.3911468523
  0
LINE
  5
4F1
330
1F
100
AcDbEntity
  8
1
  6
SLD-Сплошная
100
AcDbLine
 10
1638.0104357325
 20
1337.6283969188
 30
0.0
 11
1638.0104357325
 21
1337.8112396313
 31
0.0
  0
SPLINE
  5
4F2
330
1F
100
AcDbEntity
  8
1
  6
SLD-Сплошная
100
AcDbSpline
210
0.0
220
0.0
230
1.0
 70
     8
 71
     3
 72
     9
 73
     5
 74
     0
 42
0.00000001
 43
0.00000001
 40
0.0
 40
0.0
 40
0.0
 40
0.0
 40
0.3631393845137429
 40
1.0
 40
1.0
 40
1.0
 40
1.0
 10
1638.010435732495
 20
1337.811239631254
 30
0.0
 10
1637.995815228999
 20
1337.817092184937
 30
0.0
 10
1637.955553819414
 20
1337.833208733934
 30
0.0
 10
1637.958536304932
 20
1337.850333525779
 30
0.0
 10
1637.960435732495
 20
1337.861239631254
 30
0.0
  0
LINE
  5
4F3
330
1F
100
AcDbEntity
  8
1
  6
SLD-Сплошная
100
AcDbLine
 10
1636.6176324552
 20
1337.5783969189
 30
0.0
 11
1636.5604357325
 21
1337.8612396313
 31
0.0
  0
LINE
  5
4F4
330
1F
100
AcDbEntity
  8
1
  6
SLD-Сплошная
100
AcDbLine
 10
1638.0104357325
 20
-56.0059176563
 30
0.0
 11
1638.0104357325
 21
-56.1887603687
 31
0.0
  0
SPLINE
  5
4F5
330
1F
100
AcDbEntity
  8
1
  6
SLD-Сплошная
100
AcDbSpline
210
0.0
220
0.0
230
1.0
 70
     8
 71
     3
 72
     9
 73
     5
 74
     0
 42
0.00000001
 43
0.00000001
 40
0.0
 40
0.0
 40
0.0
 40
0.0
 40
0.6368606154863405
 40
1.0
 40
1.0
 40
1.0
 40
1.0
 10
1637.960435732495
 20
-56.23876036874598
 30
0.0
 10
1637.958536304932
 20
-56.2278542632716
 30
0.0
 10
1637.955553819414
 20
-56.21072947142658
 30
0.0
 10
1637.995815228999
 20
-56.19461292242922
 30
0.0
 10
1638.010435732495
 20
-56.18876036874598
 30
0.0
  0
LINE
  5
4F6
330
1F
100
AcDbEntity
  8
1
  6
SLD-Сплошная
100
AcDbLine
 10
1636.5604357325
 20
-56.2387603687
 30
0.0
 11
1636.6227691509
 21
-55.9304772517
 31
0.0
  0
LINE
  5
4F7
330
1F
100
AcDbEntity
  8
1
  6
SLD-Сплошная
100
AcDbLine
 10
1651.6504357325
 20
1337.8112396313
 30
0.0
 11
1638.0104357325
 21
1337.8112396313
 31
0.0
  0
LINE
  5
4F8
330
1F
100
AcDbEntity
  8
1
  6
SLD-Сплошная
100
AcDbLine
 10
1651.6504357325
 20
1337.6283969189
 30
0.0
 11
1651.6504357325
 21
1337.8112396313
 31
0.0
  0
LINE
  5
4F9
330
1F
100
AcDbEntity
  8
1
  6
SLD-Сплошная
100
AcDbLine
 10
1651.6504357325
 20
-56.1887603687
 30
0.0
 11
1638.0104357325
 21
-56.1887603687
 31
0.0
  0
LINE
  5
4FA
330
1F
100
AcDbEntity
  8
1
  6
SLD-Сплошная
100
AcDbLine
 10
1651.6504357325
 20
-56.0059176563
 30
0.0
 11
1651.6504357325
 21
-56.1887603687
 31
0.0
  0
ARC
  5
4FB
330
1F
100
AcDbEntity
  8
1
  6
SLD-Сплошная
100
AcDbCircle
 10
1651.6504357325
 20
1335.4012396313
 30
0.0
 40
2.410000000000211
100
AcDbArc
 50
67.4791675667
 51
90.0
  0
ARC
  5
4FC
330
1F
100
AcDbEntity
  8
1
  6
SLD-Сплошная
100
AcDbCircle
 10
1651.6504357325
 20
-53.7787603687
 30
0.0
 40
2.410000000000004
100
AcDbArc
 50
270.0
 51
292.5208324419
  0
LINE
  5
4FD
330
1F
100
AcDbEntity
  8
1
  6
SLD-Сплошная
100
AcDbLine
 10
1258.2604357325
 20
-56.7887603687
 30
0.0
 11
1626.2604357325
 21
-56.7887603687
 31
0.0
  0
CIRCLE
  5
4FE
330
1F
100
AcDbEntity
  8
1
  6
SLD-Сплошная
100
AcDbCircle
 10
1588.6604357325
 20
-9.1887603687
 30
0.0
 40
0.4999999999999432
  0
CIRCLE
  5
4FF
330
1F
100
AcDbEntity
  8
1
  6
SLD-Сплошная
100
AcDbCircle
 10
1588.6604357325
 20
1290.8112396313
 30
0.0
 40
0.4999999999997726
  0
CIRCLE
  5
500
330
1F
100
AcDbEntity
  8
1
  6
SLD-Сплошная
100
AcDbCircle
 10
1588.6604357325
 20
640.8112396313
 30
0.0
 40
0.5
  0
CIRCLE
  5
501
330
1F
100
AcDbEntity
  8
1
  6
SLD-Сплошная
100
AcDbCircle
 10
1538.6604357325
 20
1300.8112396313
 30
0.0
 40
0.5
  0
LINE
  5
502
330
1F
100
AcDbEntity
  8
1
  6
SLD-Сплошная
100
AcDbLine
 10
1258.2604357325
 20
1338.4112396313
 30
0.0
 11
1258.2604357325
 21
1340.8112396313
 31
0.0
  0
LINE
  5
503
330
1F
100
AcDbEntity
  8
1
  6
SLD-Сплошная
100
AcDbLine
 10
1258.2604357325
 20
1340.8112396313
 30
0.0
 11
1626.2604357325
 21
1340.8112396313
 31
0.0
  0
LINE
  5
504
330
1F
100
AcDbEntity
  8
1
  6
SLD-Сплошная
100
AcDbLine
 10
1626.2604357325
 20
1338.4112396313
 30
0.0
 11
1626.2604357325
 21
1340.8112396313
 31
0.0
  0
ELLIPSE
  5
505
330
1F
100
AcDbEntity
  8
1
  6
SLD-Сплошная
100
AcDbEllipse
 10
1258.2604357325
 20
1337.8405289531
 30
0.0
 11
2.899999999999864
 21
0.0
 31
0.0
210
0.0
220
0.0
230
1.0
 40
0.5172413793
 41
2.751284095256779
 42
3.141592653590124
  0
LINE
  5
506
330
1F
100
AcDbEntity
  8
1
  6
SLD-Сплошная
100
AcDbLine
 10
1255.5785397865
 20
-56.7887603687
 30
0.0
 11
1258.2604357325
 21
-56.7887603687
 31
0.0
  0
ELLIPSE
  5
507
330
1F
100
AcDbEntity
  8
1
  6
SLD-Сплошная
100
AcDbEllipse
 10
1258.2604357325
 20
-56.2180496906
 30
0.0
 11
2.899999999999864
 21
0.0
 31
0.0
210
0.0
220
0.0
230
1.0
 40
0.5172413793
 41
3.1415926535895
 42
3.531901211922774
  0
LINE
  5
508
330
1F
100
AcDbEntity
  8
1
  6
SLD-Сплошная
100
AcDbLine
 10
1255.3604357325
 20
-56.2180496906
 30
0.0
 11
1255.3604357325
 21
1337.8405289531
 31
0.0
  0
LINE
  5
509
330
1F
100
AcDbEntity
  8
1
  6
SLD-Сплошная
100
AcDbLine
 10
1255.5785397865
 20
1338.4112396313
 30
0.0
 11
1258.2604357325
 21
1338.4112396313
 31
0.0
  0
LINE
  5
50A
330
1F
100
AcDbEntity
  8
1
  6
SLD-Сплошная
100
AcDbLine
 10
1628.6604357325
 20
1338.3405289532
 30
0.0
 11
1626.2604357325
 21
1338.4112396313
 31
0.0
  0
LINE
  5
50B
330
1F
100
AcDbEntity
  8
1
  6
SLD-Сплошная
100
AcDbLine
 10
1628.6604357325
 20
1338.3405289532
 30
0.0
 11
1628.6604357325
 21
-56.7180496906
 31
0.0
  0
LINE
  5
50C
330
1F
100
AcDbEntity
  8
1
  6
SLD-Сплошная
100
AcDbLine
 10
1628.6604357325
 20
-56.7180496906
 30
0.0
 11
1626.2604357325
 21
-56.7887603687
 31
0.0
  0
LINE
  5
50D
330
1F
100
AcDbEntity
  8
1
  6
SLD-Сплошная
100
AcDbLine
 10
1258.2604357325
 20
-58.6622597683
 30
0.0
 11
1258.2604357325
 21
-56.7887603687
 31
0.0
  0
LINE
  5
50E
330
1F
100
AcDbEntity
  8
1
  6
SLD-Сплошная
100
AcDbLine
 10
1626.2604357325
 20
-56.7887603687
 30
0.0
 11
1626.2604357325
 21
-58.6622597683
 31
0.0
  0
LINE
  5
50F
330
1F
100
AcDbEntity
  8
1
  6
SLD-Сплошная
100
AcDbLine
 10
1626.2604357325
 20
-59.1887603687
 30
0.0
 11
1258.2604357325
 21
-59.1887603687
 31
0.0
  0
LINE
  5
510
330
1F
100
AcDbEntity
  8
1
  6
SLD-Сплошная
100
AcDbLine
 10
1258.2604357325
 20
-58.6622597683
 30
0.0
 11
1258.2604357325
 21
-59.1887603687
 31
0.0
  0
ARC
  5
511
330
1F
100
AcDbEntity
  8
1
  6
SLD-Сплошная
100
AcDbCircle
 10
1258.2604357325
 20
-56.2887603687
 30
0.0
 40
2.90000000000002
100
AcDbArc
 50
202.3630331011
 51
270.0
  0
LINE
  5
512
330
1F
100
AcDbEntity
  8
1
  6
SLD-Сплошная
100
AcDbLine
 10
1255.5785397865
 20
-57.3921343465
 30
0.0
 11
1256.8732481742
 21
-56.8594710469
 31
0.0
  0
ARC
  5
513
330
1F
100
AcDbEntity
  8
1
  6
SLD-Сплошная
100
AcDbCircle
 10
1258.2604357325
 20
-56.2887603687
 30
0.0
 40
1.500000000000057
100
AcDbArc
 50
202.3630331011
 51
270.0
  0
LINE
  5
514
330
1F
100
AcDbEntity
  8
1
  6
SLD-Сплошная
100
AcDbLine
 10
1255.5785397865
 20
1339.014613609
 30
0.0
 11
1256.8732481742
 21
1338.4819503094
 31
0.0
  0
ARC
  5
515
330
1F
100
AcDbEntity
  8
1
  6
SLD-Сплошная
100
AcDbCircle
 10
1258.2604357325
 20
1337.9112396313
 30
0.0
 40
2.90000000000006
100
AcDbArc
 50
90.0
 51
157.6369668989
  0
ARC
  5
516
330
1F
100
AcDbEntity
  8
1
  6
SLD-Сплошная
100
AcDbCircle
 10
1258.2604357325
 20
1337.9112396313
 30
0.0
 40
1.5
100
AcDbArc
 50
90.0
 51
157.6369668989
  0
LINE
  5
517
330
1F
100
AcDbEntity
  8
1
  6
SLD-Сплошная
100
AcDbLine
 10
1255.3604357325
 20
-56.2887603687
 30
0.0
 11
1255.3636597468
 21
-56.2887603687
 31
0.0
  0
ARC
  5
518
330
1F
100
AcDbEntity
  8
1
  6
SLD-Сплошная
100
AcDbCircle
 10
1258.2604357325
 20
-56.2887603687
 30
0.0
 40
2.900000000000091
100
AcDbArc
 50
180.0
 51
202.3630331011
  0
LINE
  5
519
330
1F
100
AcDbEntity
  8
1
  6
SLD-Сплошная
100
AcDbLine
 10
1255.3604357325
 20
1337.9112396313
 30
0.0
 11
1255.3636597468
 21
1337.9112396313
 31
0.0
  0
ARC
  5
51A
330
1F
100
AcDbEntity
  8
1
  6
SLD-Сплошная
100
AcDbCircle
 10
1258.2604357325
 20
1337.9112396313
 30
0.0
 40
2.900000000000091
100
AcDbArc
 50
157.6369668989
 51
180.0
  0
ARC
  5
51B
330
1F
100
AcDbEntity
  8
1
  6
SLD-Сплошная
100
AcDbCircle
 10
1626.2604357325
 20
-56.7887603687
 30
0.0
 40
1.000000000000007
100
AcDbArc
 50
270.0
 51
0.0
  0
LINE
  5
51C
330
1F
100
AcDbEntity
  8
1
  6
SLD-Сплошная
100
AcDbLine
 10
1627.2604357325
 20
-56.7887603687
 30
0.0
 11
1628.6604357325
 21
-56.7887603687
 31
0.0
  0
LINE
  5
51D
330
1F
100
AcDbEntity
  8
1
  6
SLD-Сплошная
100
AcDbLine
 10
1626.2604357325
 20
-59.1887603687
 30
0.0
 11
1626.2604357325
 21
-58.6622597683
 31
0.0
  0
ARC
  5
51E
330
1F
100
AcDbEntity
  8
1
  6
SLD-Сплошная
100
AcDbCircle
 10
1626.2604357325
 20
-56.7887603687
 30
0.0
 40
2.400000000000091
100
AcDbArc
 50
270.0
 51
360.0
  0
ARC
  5
51F
330
1F
100
AcDbEntity
  8
1
  6
SLD-Сплошная
100
AcDbCircle
 10
1626.2604357325
 20
1338.4112396313
 30
0.0
 40
2.400000000000091
100
AcDbArc
 50
0.0
 51
90.0
  0
LINE
  5
520
330
1F
100
AcDbEntity
  8
1
  6
SLD-Сплошная
100
AcDbLine
 10
1627.2604357325
 20
1338.4112396313
 30
0.0
 11
1628.6604357325
 21
1338.4112396313
 31
0.0
  0
ARC
  5
521
330
1F
100
AcDbEntity
  8
1
  6
SLD-Сплошная
100
AcDbCircle
 10
1626.2604357325
 20
1338.4112396313
 30
0.0
 40
1.0
100
AcDbArc
 50
0.0
 51
90.0
  0
LINE
  5
522
330
1F
100
AcDbEntity
  8
1
  6
SLD-Сплошная
100
AcDbLine
 10
1627.2604357325
 20
1338.4112396313
 30
0.0
 11
1627.2604357325
 21
1338.3817768487
 31
0.0
  0
LINE
  5
523
330
1F
100
AcDbEntity
  8
1
  6
SLD-Сплошная
100
AcDbLine
 10
1628.6604357325
 20
1338.4112396313
 30
0.0
 11
1628.6604357325
 21
1338.3405289532
 31
0.0
  0
LINE
  5
524
330
1F
100
AcDbEntity
  8
1
  6
SLD-Сплошная
100
AcDbLine
 10
1628.6604357325
 20
-56.7887603687
 30
0.0
 11
1628.6604357325
 21
-56.7180496907
 31
0.0
  0
LINE
  5
525
330
1F
100
AcDbEntity
  8
1
  6
SLD-Сплошная
100
AcDbLine
 10
1627.2604357325
 20
-56.7887603687
 30
0.0
 11
1627.2604357325
 21
-56.7592975862
 31
0.0
  0
LINE
  5
526
330
1F
100
AcDbEntity
  8
1
  6
SLD-Сплошная
100
AcDbLine
 10
1255.3604357325
 20
1337.9112396313
 30
0.0
 11
1255.3604357325
 21
1337.8405289532
 31
0.0
  0
LINE
  5
527
330
1F
100
AcDbEntity
  8
1
  6
SLD-Сплошная
100
AcDbLine
 10
1255.3604357325
 20
-56.2887603687
 30
0.0
 11
1255.3604357325
 21
-56.2180496907
 31
0.0
  0
ELLIPSE
  5
528
330
1F
100
AcDbEntity
  8
1
  6
SLD-Сплошная
100
AcDbEllipse
 10
1629.6604357325
 20
1321.7405289532
 30
0.0
 11
0.0
 21
2.400000000000091
 31
0.0
210
0.0
220
0.0
230
1.0
 40
0.4166666667
 41
1.570796326794897
 42
3.141592653589793
  0
ELLIPSE
  5
529
330
1F
100
AcDbEntity
  8
1
  6
SLD-Сплошная
100
AcDbEllipse
 10
1629.6604357325
 20
-40.1180496906
 30
0.0
 11
0.0
 21
2.399999999999849
 31
0.0
210
0.0
220
0.0
230
1.0
 40
0.4166666667
 41
0.0
 42
1.570796326794897
  0
ARC
  5
52A
330
1F
100
AcDbEntity
  8
1
  6
SLD-Сплошная
100
AcDbCircle
 10
1629.6604357325
 20
1321.8112396313
 30
0.0
 40
2.400000000000091
100
AcDbArc
 50
263.6790015528
 51
270.0
  0
ARC
  5
52B
330
1F
100
AcDbEntity
  8
1
  6
SLD-Сплошная
100
AcDbCircle
 10
1629.6604357325
 20
1321.8112396313
 30
0.0
 40
1.0
100
AcDbArc
 50
180.0
 51
270.0
  0
ARC
  5
52C
330
1F
100
AcDbEntity
  8
1
  6
SLD-Сплошная
100
AcDbCircle
 10
1629.6604357325
 20
-40.1887603687
 30
0.0
 40
1.000000000000107
100
AcDbArc
 50
90.0
 51
180.0
  0
ARC
  5
52D
330
1F
100
AcDbEntity
  8
1
  6
SLD-Сплошная
100
AcDbCircle
 10
1629.6604357325
 20
-40.1887603687
 30
0.0
 40
2.400000000000091
100
AcDbArc
 50
90.0
 51
96.3209984378
  0
LINE
  5
52E
330
1F
100
AcDbEntity
  8
1
  6
SLD-Сплошная
100
AcDbLine
 10
1629.6604357325
 20
-37.7180496906
 30
0.0
 11
1636.5604357325
 21
-37.7180496906
 31
0.0
  0
LINE
  5
52F
330
1F
100
AcDbEntity
  8
1
  6
SLD-Сплошная
100
AcDbLine
 10
1629.6604357325
 20
1319.3405289532
 30
0.0
 11
1636.5604357325
 21
1319.3405289532
 31
0.0
  0
LINE
  5
530
330
1F
100
AcDbEntity
  8
1
  6
SLD-Сплошная
100
AcDbLine
 10
1636.5604357325
 20
1320.8112396313
 30
0.0
 11
1629.6604357325
 21
1320.8112396313
 31
0.0
  0
LINE
  5
531
330
1F
100
AcDbEntity
  8
1
  6
SLD-Сплошная
100
AcDbLine
 10
1636.5604357325
 20
1319.4112396313
 30
0.0
 11
1629.6604357325
 21
1319.4112396313
 31
0.0
  0
LINE
  5
532
330
1F
100
AcDbEntity
  8
1
  6
SLD-Сплошная
100
AcDbLine
 10
1636.5604357325
 20
-39.1887603687
 30
0.0
 11
1629.6604357325
 21
-39.1887603687
 31
0.0
  0
LINE
  5
533
330
1F
100
AcDbEntity
  8
1
  6
SLD-Сплошная
100
AcDbLine
 10
1636.5604357325
 20
-37.7887603687
 30
0.0
 11
1629.6604357325
 21
-37.7887603687
 31
0.0
  0
LINE
  5
534
330
1F
100
AcDbEntity
  8
1
  6
SLD-Сплошная
100
AcDbLine
 10
1307.6104357325
 20
-59.6887603687
 30
0.0
 11
1297.1187618446
 21
-59.6887603687
 31
0.0
  0
ARC
  5
535
330
1F
100
AcDbEntity
  8
1
  6
SLD-Сплошная
100
AcDbCircle
 10
1297.1187618446
 20
-57.2887603687
 30
0.0
 40
2.399999999999981
100
AcDbArc
 50
232.3415379936
 51
270.0
  0
LINE
  5
536
330
1F
100
AcDbEntity
  8
1
  6
SLD-Сплошная
100
AcDbLine
 10
1426.6104357325
 20
-59.6887603687
 30
0.0
 11
1307.6104357325
 21
-59.6887603687
 31
0.0
  0
LINE
  5
537
330
1F
100
AcDbEntity
  8
1
  6
SLD-Сплошная
100
AcDbLine
 10
1437.1021096204
 20
-59.6887603687
 30
0.0
 11
1426.6104357325
 21
-59.6887603687
 31
0.0
  0
ARC
  5
538
330
1F
100
AcDbEntity
  8
1
  6
SLD-Сплошная
100
AcDbCircle
 10
1437.1021096204
 20
-57.2887603687
 30
0.0
 40
2.399999999999981
100
AcDbArc
 50
270.0
 51
307.6584620064
  0
LINE
  5
539
330
1F
100
AcDbEntity
  8
1
  6
SLD-Сплошная
100
AcDbLine
 10
1656.5604357325
 20
626.8112396313
 30
0.0
 11
1656.5604357325
 21
654.8112396313
 31
0.0
  0
LINE
  5
53A
330
1F
100
AcDbEntity
  8
1
  6
SLD-Сплошная
100
AcDbLine
 10
1659.5604357325
 20
629.8112396313
 30
0.0
 11
1659.5604357325
 21
651.8112396313
 31
0.0
  0
ENDSEC
  0
SECTION
  2
OBJECTS
  0
DICTIONARY
  5
C
330
0
100
AcDbDictionary
281
     1
  3
ACAD_GROUP
350
D
  3
ACAD_LAYOUT
350
1A
  3
ACAD_MLINESTYLE
350
17
  3
ACAD_PLOTSETTINGS
350
19
  3
ACAD_PLOTSTYLENAME
350
E
  3
ACAD_SCALELIST
350
47
  3
DWGPROPS
350
53B
  0
DICTIONARY
  5
D
102
{ACAD_REACTORS
330
C
102
}
330
C
100
AcDbDictionary
281
     1
  0
DICTIONARY
  5
1A
102
{ACAD_REACTORS
330
C
102
}
330
C
100
AcDbDictionary
281
     1
  3
Layout1
350
1E
  3
Layout2
350
26
  3
Model
350
22
  0
DICTIONARY
  5
17
102
{ACAD_REACTORS
330
C
102
}
330
C
100
AcDbDictionary
281
     1
  3
Standard
350
18
  0
DICTIONARY
  5
19
102
{ACAD_REACTORS
330
C
102
}
330
C
100
AcDbDictionary
281
     1
  0
ACDBDICTIONARYWDFLT
  5
E
102
{ACAD_REACTORS
330
C
102
}
330
C
100
AcDbDictionary
281
     1
  3
Normal
350
F
100
AcDbDictionaryWithDefault
340
F
  0
DICTIONARY
  5
47
102
{ACAD_REACTORS
330
C
102
}
330
C
100
AcDbDictionary
281
     1
  3
A0
350
48
  3
A1
350
49
  3
A2
350
4A
  3
A3
350
4B
  3
A4
350
4C
  3
A5
350
4D
  3
A6
350
4E
  3
A7
350
4F
  3
A8
350
50
  3
A9
350
51
  3
B0
350
52
  3
B1
350
53
  3
B2
350
54
  3
B3
350
55
  3
B4
350
56
  3
B5
350
57
  3
B6
350
58
  0
XRECORD
  5
53B
102
{ACAD_REACTORS
330
C
102
}
330
C
100
AcDbXrecord
280
     1
  1
DWGPROPS COOKIE
  2

  3

  4

  6

  7

  8
ignatieved
  9

300
=
301
=
302
=
303
=
304
=
305
=
306
=
307
=
308
=
309
=
 40
0.0
 41
2460213.511734537
 42
2460213.511735151
  1

 90
        0
  0
LAYOUT
  5
1E
102
{ACAD_REACTORS
330
1A
102
}
330
1A
100
AcDbPlotSettings
  1

  2
none_device
  4

  6

 40
0.0
 41
0.0
 42
0.0
 43
0.0
 44
0.0
 45
0.0
 46
0.0
 47
0.0
 48
0.0
 49
0.0
140
0.0
141
0.0
142
1.0
143
1.0
 70
   688
 72
     1
 73
     0
 74
     5
  7

 75
    16
147
1.0
148
0.0
149
0.0
100
AcDbLayout
  1
Layout1
 70
     1
 71
     1
 10
0.0
 20
0.0
 11
420.0
 21
297.0
 12
0.0
 22
0.0
 32
0.0
 14
1.0000000000E+20
 24
1.0000000000E+20
 34
1.0000000000E+20
 15
-1.0000000000E+20
 25
-1.0000000000E+20
 35
-1.0000000000E+20
146
0.0
 13
0.0
 23
0.0
 33
0.0
 16
1.0
 26
0.0
 36
0.0
 17
0.0
 27
1.0
 37
0.0
 76
     0
330
1B
  0
LAYOUT
  5
26
102
{ACAD_REACTORS
330
1A
102
}
330
1A
100
AcDbPlotSettings
  1

  2
none_device
  4

  6

 40
0.0
 41
0.0
 42
0.0
 43
0.0
 44
0.0
 45
0.0
 46
0.0
 47
0.0
 48
0.0
 49
0.0
140
0.0
141
0.0
142
1.0
143
1.0
 70
   688
 72
     1
 73
     0
 74
     5
  7

 75
    16
147
1.0
148
0.0
149
0.0
100
AcDbLayout
  1
Layout2
 70
     1
 71
     2
 10
0.0
 20
0.0
 11
0.0
 21
0.0
 12
0.0
 22
0.0
 32
0.0
 14
0.0
 24
0.0
 34
0.0
 15
0.0
 25
0.0
 35
0.0
146
0.0
 13
0.0
 23
0.0
 33
0.0
 16
1.0
 26
0.0
 36
0.0
 17
0.0
 27
1.0
 37
0.0
 76
     0
330
23
  0
LAYOUT
  5
22
102
{ACAD_REACTORS
330
1A
102
}
330
1A
100
AcDbPlotSettings
  1

  2
none_device
  4
Letter_(8.50_x_11.00_Inches)
  6

 40
6.35
 41
6.35
 42
6.35000508
 43
6.35000508
 44
215.9
 45
279.4
 46
0.0
 47
0.0
 48
0.0
 49
0.0
140
0.0
141
0.0
142
1.0
143
1.0
 70
  1712
 72
     1
 73
     0
 74
     0
  7

 75
     0
147
1.0
148
0.0
149
0.0
100
AcDbLayout
  1
Model
 70
     1
 71
     0
 10
0.0
 20
0.0
 11
2000.0
 21
2500.0
 12
0.0
 22
0.0
 32
0.0
 14
0.0
 24
0.0
 34
0.0
 15
2000.0
 25
2500.0
 35
0.0
146
0.0
 13
0.0
 23
0.0
 33
0.0
 16
1.0
 26
0.0
 36
0.0
 17
0.0
 27
1.0
 37
0.0
 76
     0
330
1F
331
29
  0
MLINESTYLE
  5
18
102
{ACAD_REACTORS
330
17
102
}
330
17
100
AcDbMlineStyle
  2
Standard
 70
     0
  3

 62
   256
 51
90.0
 52
90.0
 71
     2
 49
0.5
 62
   256
  6
BYLAYER
 49
-0.5
 62
   256
  6
BYLAYER
  0
ACDBPLACEHOLDER
  5
F
102
{ACAD_REACTORS
330
E
102
}
330
E
  0
SCALE
  5
48
102
{ACAD_REACTORS
330
47
102
}
330
47
100
AcDbScale
 70
     0
300
1:1
140
1.0
141
1.0
290
     1
  0
SCALE
  5
49
102
{ACAD_REACTORS
330
47
102
}
330
47
100
AcDbScale
 70
     0
300
1:2
140
1.0
141
2.0
290
     0
  0
SCALE
  5
4A
102
{ACAD_REACTORS
330
47
102
}
330
47
100
AcDbScale
 70
     0
300
1:4
140
1.0
141
4.0
290
     0
  0
SCALE
  5
4B
102
{ACAD_REACTORS
330
47
102
}
330
47
100
AcDbScale
 70
     0
300
1:5
140
1.0
141
5.0
290
     0
  0
SCALE
  5
4C
102
{ACAD_REACTORS
330
47
102
}
330
47
100
AcDbScale
 70
     0
300
1:8
140
1.0
141
8.0
290
     0
  0
SCALE
  5
4D
102
{ACAD_REACTORS
330
47
102
}
330
47
100
AcDbScale
 70
     0
300
1:10
140
1.0
141
10.0
290
     0
  0
SCALE
  5
4E
102
{ACAD_REACTORS
330
47
102
}
330
47
100
AcDbScale
 70
     0
300
1:16
140
1.0
141
16.0
290
     0
  0
SCALE
  5
4F
102
{ACAD_REACTORS
330
47
102
}
330
47
100
AcDbScale
 70
     0
300
1:20
140
1.0
141
20.0
290
     0
  0
SCALE
  5
50
102
{ACAD_REACTORS
330
47
102
}
330
47
100
AcDbScale
 70
     0
300
1:30
140
1.0
141
30.0
290
     0
  0
SCALE
  5
51
102
{ACAD_REACTORS
330
47
102
}
330
47
100
AcDbScale
 70
     0
300
1:40
140
1.0
141
40.0
290
     0
  0
SCALE
  5
52
102
{ACAD_REACTORS
330
47
102
}
330
47
100
AcDbScale
 70
     0
300
1:50
140
1.0
141
50.0
290
     0
  0
SCALE
  5
53
102
{ACAD_REACTORS
330
47
102
}
330
47
100
AcDbScale
 70
     0
300
1:100
140
1.0
141
100.0
290
     0
  0
SCALE
  5
54
102
{ACAD_REACTORS
330
47
102
}
330
47
100
AcDbScale
 70
     0
300
2:1
140
2.0
141
1.0
290
     0
  0
SCALE
  5
55
102
{ACAD_REACTORS
330
47
102
}
330
47
100
AcDbScale
 70
     0
300
4:1
140
4.0
141
1.0
290
     0
  0
SCALE
  5
56
102
{ACAD_REACTORS
330
47
102
}
330
47
100
AcDbScale
 70
     0
300
8:1
140
8.0
141
1.0
290
     0
  0
SCALE
  5
57
102
{ACAD_REACTORS
330
47
102
}
330
47
100
AcDbScale
 70
     0
300
10:1
140
10.0
141
1.0
290
     0
  0
SCALE
  5
58
102
{ACAD_REACTORS
330
47
102
}
330
47
100
AcDbScale
 70
     0
300
100:1
140
100.0
141
1.0
290
     0
  0
ENDSEC
  0
EOF
