  0
SECTION
  2
HEADER
  9
$ACADVER
  1
AC1015
  9
$ACADMAINTVER
 70
     6
  9
$DWGCODEPAGE
  3
ANSI_1251
  9
$INSBASE
 10
0.0
 20
0.0
 30
0.0
  9
$EXTMIN
 10
0.0
 20
0.0
 30
0.0
  9
$EXTMAX
 10
841.0
 20
594.0
 30
0.0
  9
$LIMMIN
 10
0.0
 20
0.0
  9
$LIMMAX
 10
841.0
 20
594.0
  9
$ORTHOMODE
 70
     0
  9
$REGENMODE
 70
     1
  9
$FILLMODE
 70
     1
  9
$QTEXTMODE
 70
     0
  9
$MIRRTEXT
 70
     1
  9
$LTSCALE
 40
1.0
  9
$ATTMODE
 70
     1
  9
$TEXTSIZE
 40
3.5
  9
$TRACEWID
 40
1.0
  9
$TEXTSTYLE
  7
Standard
  9
$CLAYER
  8
0
  9
$CELTYPE
  6
ByLayer
  9
$CECOLOR
 62
   256
  9
$CELTSCALE
 40
1.0
  9
$DISPSILH
 70
     0
  9
$DIMSCALE
 40
1.0
  9
$DIMASZ
 40
3.5
  9
$DIMEXO
 40
0.01
  9
$DIMDLI
 40
3.75
  9
$DIMRND
 40
0.0
  9
$DIMDLE
 40
0.0
  9
$DIMEXE
 40
1.0
  9
$DIMTP
 40
0.0
  9
$DIMTM
 40
0.0
  9
$DIMTXT
 40
3.5
  9
$DIMCEN
 40
2.5
  9
$DIMTSZ
 40
0.0
  9
$DIMTOL
 70
     0
  9
$DIMLIM
 70
     0
  9
$DIMTIH
 70
     1
  9
$DIMTOH
 70
     1
  9
$DIMSE1
 70
     0
  9
$DIMSE2
 70
     0
  9
$DIMTAD
 70
     1
  9
$DIMZIN
 70
     0
  9
$DIMBLK
  1

  9
$DIMASO
 70
     1
  9
$DIMSHO
 70
     1
  9
$DIMPOST
  1

  9
$DIMAPOST
  1

  9
$DIMALT
 70
     0
  9
$DIMALTD
 70
     3
  9
$DIMALTF
 40
0.0393700787
  9
$DIMLFAC
 40
1.0
  9
$DIMTOFL
 70
     1
  9
$DIMTVP
 40
0.0
  9
$DIMTIX
 70
     0
  9
$DIMSOXD
 70
     0
  9
$DIMSAH
 70
     0
  9
$DIMBLK1
  1

  9
$DIMBLK2
  1

  9
$DIMSTYLE
  2
ISO-25
  9
$DIMCLRD
 70
     0
  9
$DIMCLRE
 70
     0
  9
$DIMCLRT
 70
     0
  9
$DIMTFAC
 40
1.0
  9
$DIMGAP
 40
3.0
  9
$DIMJUST
 70
     0
  9
$DIMSD1
 70
     0
  9
$DIMSD2
 70
     0
  9
$DIMTOLJ
 70
     0
  9
$DIMTZIN
 70
     0
  9
$DIMALTZ
 70
     0
  9
$DIMALTTZ
 70
     0
  9
$DIMUPT
 70
     0
  9
$DIMDEC
 70
     2
  9
$DIMTDEC
 70
     3
  9
$DIMALTU
 70
     2
  9
$DIMALTTD
 70
     3
  9
$DIMTXSTY
  7
Standard
  9
$DIMAUNIT
 70
     0
  9
$DIMADEC
 70
     2
  9
$DIMALTRND
 40
0.0
  9
$DIMAZIN
 70
     0
  9
$DIMDSEP
 70
    44
  9
$DIMATFIT
 70
     3
  9
$DIMFRAC
 70
     0
  9
$DIMLDRBLK
  1

  9
$DIMLUNIT
 70
     2
  9
$DIMLWD
 70
    -2
  9
$DIMLWE
 70
    -2
  9
$DIMTMOVE
 70
     0
  9
$LUNITS
 70
     2
  9
$LUPREC
 70
     2
  9
$SKETCHINC
 40
1.0
  9
$FILLETRAD
 40
10.0
  9
$AUNITS
 70
     0
  9
$AUPREC
 70
     2
  9
$MENU
  1
.
  9
$ELEVATION
 40
0.0
  9
$PELEVATION
 40
0.0
  9
$THICKNESS
 40
0.0
  9
$LIMCHECK
 70
     0
  9
$CHAMFERA
 40
0.0
  9
$CHAMFERB
 40
0.0
  9
$CHAMFERC
 40
0.0
  9
$CHAMFERD
 40
0.0
  9
$SKPOLY
 70
     0
  9
$TDCREATE
 40
2459732.501069236
  9
$TDUCREATE
 40
2459732.376069236
  9
$TDUPDATE
 40
2459732.501070833
  9
$TDUUPDATE
 40
2459732.376070833
  9
$TDINDWG
 40
0.0000000116
  9
$TDUSRTIMER
 40
0.0000000116
  9
$USRTIMER
 70
     1
  9
$ANGBASE
 50
0.0
  9
$ANGDIR
 70
     0
  9
$PDMODE
 70
     0
  9
$PDSIZE
 40
-1.0
  9
$PLINEWID
 40
0.0
  9
$SPLFRAME
 70
     0
  9
$SPLINETYPE
 70
     6
  9
$SPLINESEGS
 70
     8
  9
$HANDSEED
  5
48F
  9
$SURFTAB1
 70
     6
  9
$SURFTAB2
 70
     6
  9
$SURFTYPE
 70
     6
  9
$SURFU
 70
     6
  9
$SURFV
 70
     6
  9
$UCSBASE
  2

  9
$UCSNAME
  2

  9
$UCSORG
 10
0.0
 20
0.0
 30
0.0
  9
$UCSXDIR
 10
1.0
 20
0.0
 30
0.0
  9
$UCSYDIR
 10
0.0
 20
1.0
 30
0.0
  9
$UCSORTHOREF
  2

  9
$UCSORTHOVIEW
 70
     0
  9
$UCSORGTOP
 10
0.0
 20
0.0
 30
0.0
  9
$UCSORGBOTTOM
 10
0.0
 20
0.0
 30
0.0
  9
$UCSORGLEFT
 10
0.0
 20
0.0
 30
0.0
  9
$UCSORGRIGHT
 10
0.0
 20
0.0
 30
0.0
  9
$UCSORGFRONT
 10
0.0
 20
0.0
 30
0.0
  9
$UCSORGBACK
 10
0.0
 20
0.0
 30
0.0
  9
$PUCSBASE
  2

  9
$PUCSNAME
  2

  9
$PUCSORG
 10
0.0
 20
0.0
 30
0.0
  9
$PUCSXDIR
 10
1.0
 20
0.0
 30
0.0
  9
$PUCSYDIR
 10
0.0
 20
1.0
 30
0.0
  9
$PUCSORTHOREF
  2

  9
$PUCSORTHOVIEW
 70
     0
  9
$PUCSORGTOP
 10
0.0
 20
0.0
 30
0.0
  9
$PUCSORGBOTTOM
 10
0.0
 20
0.0
 30
0.0
  9
$PUCSORGLEFT
 10
0.0
 20
0.0
 30
0.0
  9
$PUCSORGRIGHT
 10
0.0
 20
0.0
 30
0.0
  9
$PUCSORGFRONT
 10
0.0
 20
0.0
 30
0.0
  9
$PUCSORGBACK
 10
0.0
 20
0.0
 30
0.0
  9
$USERI1
 70
     0
  9
$USERI2
 70
     0
  9
$USERI3
 70
     0
  9
$USERI4
 70
     0
  9
$USERI5
 70
     0
  9
$USERR1
 40
0.0
  9
$USERR2
 40
0.0
  9
$USERR3
 40
0.0
  9
$USERR4
 40
0.0
  9
$USERR5
 40
0.0
  9
$WORLDVIEW
 70
     1
  9
$SHADEDGE
 70
     3
  9
$SHADEDIF
 70
    70
  9
$TILEMODE
 70
     1
  9
$MAXACTVP
 70
    64
  9
$PINSBASE
 10
0.0
 20
0.0
 30
0.0
  9
$PLIMCHECK
 70
     0
  9
$PEXTMIN
 10
1.0000000000E+20
 20
1.0000000000E+20
 30
1.0000000000E+20
  9
$PEXTMAX
 10
-1.0000000000E+20
 20
-1.0000000000E+20
 30
-1.0000000000E+20
  9
$PLIMMIN
 10
0.0
 20
0.0
  9
$PLIMMAX
 10
420.0
 20
297.0
  9
$UNITMODE
 70
     0
  9
$VISRETAIN
 70
     1
  9
$PLINEGEN
 70
     0
  9
$PSLTSCALE
 70
     1
  9
$TREEDEPTH
 70
  3020
  9
$CMLSTYLE
  2
Standard
  9
$CMLJUST
 70
     0
  9
$CMLSCALE
 40
20.0
  9
$PROXYGRAPHICS
 70
     1
  9
$MEASUREMENT
 70
     1
  9
$CELWEIGHT
370
    -1
  9
$ENDCAPS
280
     0
  9
$JOINSTYLE
280
     0
  9
$LWDISPLAY
290
     1
  9
$INSUNITS
 70
     4
  9
$HYPERLINKBASE
  1

  9
$STYLESHEET
  1

  9
$XEDIT
290
     1
  9
$CEPSNTYPE
380
     0
  9
$PSTYLEMODE
290
     1
  9
$FINGERPRINTGUID
  2
{B66ED734-7631-4127-95E6-66DFBC57F46F}
  9
$VERSIONGUID
  2
{FAEB1C32-E019-11D5-929B-00C0DF256EC4}
  9
$EXTNAMES
290
     1
  9
$PSVPSCALE
 40
0.0
  9
$OLESTARTUP
290
     0
  0
ENDSEC
  0
SECTION
  2
CLASSES
  0
CLASS
  1
ACDBDICTIONARYWDFLT
  2
AcDbDictionaryWithDefault
  3
ObjectDBX Classes
 90
        0
280
     0
281
     0
  0
CLASS
  1
VISUALSTYLE
  2
AcDbVisualStyle
  3
ObjectDBX Classes
 90
     4095
280
     0
281
     0
  0
CLASS
  1
MATERIAL
  2
AcDbMaterial
  3
ObjectDBX Classes
 90
     1153
280
     0
281
     0
  0
CLASS
  1
SCALE
  2
AcDbScale
  3
ObjectDBX Classes
 90
     1153
280
     0
281
     0
  0
CLASS
  1
TABLESTYLE
  2
AcDbTableStyle
  3
ObjectDBX Classes
 90
     4095
280
     0
281
     0
  0
CLASS
  1
MLEADERSTYLE
  2
AcDbMLeaderStyle
  3
ACDB_MLEADERSTYLE_CLASS
 90
     4095
280
     0
281
     0
  0
CLASS
  1
SUN
  2
AcDbSun
  3
SCENEOE
 90
     1153
280
     0
281
     0
  0
CLASS
  1
ACDBPLACEHOLDER
  2
AcDbPlaceHolder
  3
ObjectDBX Classes
 90
        0
280
     0
281
     0
  0
CLASS
  1
LAYOUT
  2
AcDbLayout
  3
ObjectDBX Classes
 90
        0
280
     0
281
     0
  0
ENDSEC
  0
SECTION
  2
TABLES
  0
TABLE
  2
VPORT
  5
8
330
0
100
AcDbSymbolTable
 70
     1
  0
VPORT
  5
29
330
8
100
AcDbSymbolTableRecord
100
AcDbViewportTableRecord
  2
*Active
 70
     0
 10
0.0
 20
0.0
 11
1.0
 21
1.0
 12
420.5
 22
297.0
 13
0.0
 23
0.0
 14
10.0
 24
10.0
 15
10.0
 25
10.0
 16
0.0
 26
0.0
 36
1.0
 17
0.0
 27
0.0
 37
0.0
 40
594.0
 41
1.4158249158
 42
50.0
 43
0.0
 44
0.0
 50
0.0
 51
0.0
 71
     0
 72
  2000
 73
     1
 74
     3
 75
     0
 76
     0
 77
     0
 78
     0
281
     0
 65
     1
110
0.0
120
0.0
130
0.0
111
1.0
121
0.0
131
0.0
112
0.0
122
1.0
132
0.0
 79
     0
146
0.0
  0
ENDTAB
  0
TABLE
  2
LTYPE
  5
5
330
0
100
AcDbSymbolTable
 70
     6
  0
LTYPE
  5
14
330
5
100
AcDbSymbolTableRecord
100
AcDbLinetypeTableRecord
  2
ByBlock
 70
     0
  3

 72
    65
 73
     0
 40
0.0
  0
LTYPE
  5
15
330
5
100
AcDbSymbolTableRecord
100
AcDbLinetypeTableRecord
  2
ByLayer
 70
     0
  3

 72
    65
 73
     0
 40
0.0
  0
LTYPE
  5
16
330
5
100
AcDbSymbolTableRecord
100
AcDbLinetypeTableRecord
  2
Continuous
 70
     0
  3
Solid line
 72
    65
 73
     0
 40
0.0
  0
LTYPE
  5
6E
330
5
100
AcDbSymbolTableRecord
100
AcDbLinetypeTableRecord
  2
HIDDEN
 70
     0
  3
Hidden __ __ __ __ __ __ __ __ __ __ __ __ __ __
 72
    65
 73
     2
 40
1.905
 49
1.27
 74
     0
 49
-0.635
 74
     0
  0
LTYPE
  5
6F
330
5
100
AcDbSymbolTableRecord
100
AcDbLinetypeTableRecord
  2
PHANTOM
 70
     0
  3
Phantom ______  __  __  ______  __  __  ______
 72
    65
 73
     6
 40
12.7
 49
6.35
 74
     0
 49
-1.27
 74
     0
 49
1.27
 74
     0
 49
-1.27
 74
     0
 49
1.27
 74
     0
 49
-1.27
 74
     0
  0
LTYPE
  5
70
330
5
100
AcDbSymbolTableRecord
100
AcDbLinetypeTableRecord
  2
CENTER
 70
     0
  3
Center ____ _ ____ _ ____ _ ____ _ ____ _ ____
 72
    65
 73
     4
 40
10.16
 49
6.35
 74
     0
 49
-1.27
 74
     0
 49
1.27
 74
     0
 49
-1.27
 74
     0
  0
LTYPE
  5
71
330
5
100
AcDbSymbolTableRecord
100
AcDbLinetypeTableRecord
  2
CENTERX2
 70
     0
  3
Center (2x) ________  __  ________  __  _____
 72
    65
 73
     4
 40
20.32
 49
12.7
 74
     0
 49
-2.54
 74
     0
 49
2.54
 74
     0
 49
-2.54
 74
     0
  0
LTYPE
  5
72
330
5
100
AcDbSymbolTableRecord
100
AcDbLinetypeTableRecord
  2
DOT2
 70
     0
  3
Dot (.5x) ........................................
 72
    65
 73
     2
 40
0.635
 49
0.0
 74
     0
 49
-0.635
 74
     0
  0
ENDTAB
  0
TABLE
  2
LAYER
  5
2
330
0
100
AcDbSymbolTable
 70
     1
  0
LAYER
  5
10
330
2
100
AcDbSymbolTableRecord
100
AcDbLayerTableRecord
  2
0
 70
     0
 62
     7
  6
Continuous
370
    -3
390
F
  0
ENDTAB
  0
TABLE
  2
STYLE
  5
3
330
0
100
AcDbSymbolTable
 70
     1
  0
STYLE
  5
11
330
3
100
AcDbSymbolTableRecord
100
AcDbTextStyleTableRecord
  2
Standard
 70
     0
 40
0.0
 41
1.0
 50
0.0
 71
     0
 42
3.5
  3
txt
  4

  0
ENDTAB
  0
TABLE
  2
VIEW
  5
6
330
0
100
AcDbSymbolTable
 70
     0
  0
ENDTAB
  0
TABLE
  2
UCS
  5
7
330
0
100
AcDbSymbolTable
 70
     0
  0
ENDTAB
  0
TABLE
  2
APPID
  5
9
330
0
100
AcDbSymbolTable
 70
     1
  0
APPID
  5
12
330
9
100
AcDbSymbolTableRecord
100
AcDbRegAppTableRecord
  2
ACAD
 70
     0
  0
ENDTAB
  0
TABLE
  2
DIMSTYLE
  5
A
330
0
100
AcDbSymbolTable
 70
     1
100
AcDbDimStyleTable
  0
DIMSTYLE
105
27
330
A
100
AcDbSymbolTableRecord
100
AcDbDimStyleTableRecord
  2
ISO-25
 70
     0
 41
2.5
 42
0.625
 43
3.75
 44
1.25
 73
     0
 74
     0
 77
     1
 78
     8
140
2.5
141
2.5
143
0.0393700787
147
0.625
171
     3
172
     1
178
     0
271
     2
272
     2
274
     3
278
    44
283
     0
284
     8
340
11
  0
ENDTAB
  0
TABLE
  2
BLOCK_RECORD
  5
1
330
0
100
AcDbSymbolTable
 70
     1
  0
BLOCK_RECORD
  5
1F
330
1
100
AcDbSymbolTableRecord
100
AcDbBlockTableRecord
  2
*Model_Space
340
22
  0
BLOCK_RECORD
  5
1B
330
1
100
AcDbSymbolTableRecord
100
AcDbBlockTableRecord
  2
*Paper_Space
340
1E
  0
BLOCK_RECORD
  5
23
330
1
100
AcDbSymbolTableRecord
100
AcDbBlockTableRecord
  2
*Paper_Space0
340
26
  0
ENDTAB
  0
ENDSEC
  0
SECTION
  2
BLOCKS
  0
BLOCK
  5
20
330
1F
100
AcDbEntity
  8
0
100
AcDbBlockBegin
  2
*Model_Space
 70
     0
 10
0.0
 20
0.0
 30
0.0
  3
*Model_Space
  1

  0
ENDBLK
  5
21
330
1F
100
AcDbEntity
  8
0
100
AcDbBlockEnd
  0
BLOCK
  5
1C
330
1B
100
AcDbEntity
 67
     1
  8
0
100
AcDbBlockBegin
  2
*Paper_Space
 70
     0
 10
0.0
 20
0.0
 30
0.0
  3
*Paper_Space
  1

  0
ENDBLK
  5
1D
330
1B
100
AcDbEntity
 67
     1
  8
0
100
AcDbBlockEnd
  0
BLOCK
  5
24
330
23
100
AcDbEntity
  8
0
100
AcDbBlockBegin
  2
*Paper_Space0
 70
     0
 10
0.0
 20
0.0
 30
0.0
  3
*Paper_Space0
  1

  0
ENDBLK
  5
25
330
23
100
AcDbEntity
  8
0
100
AcDbBlockEnd
  0
ENDSEC
  0
SECTION
  2
ENTITIES
  0
ARC
  5
73
330
1F
100
AcDbEntity
  8
0
  6
Continuous
 62
     7
370
    25
100
AcDbCircle
 10
867.4593535338
 20
274.5748509703
 30
0.0
 40
0.5
100
AcDbArc
 50
180.0
 51
0.0
  0
ARC
  5
74
330
1F
100
AcDbEntity
  8
0
  6
Continuous
 62
     7
370
    25
100
AcDbCircle
 10
867.4593535338
 20
286.1748509704
 30
0.0
 40
0.5000000000001137
100
AcDbArc
 50
0.0
 51
180.0
  0
LINE
  5
75
330
1F
100
AcDbEntity
  8
0
  6
Continuous
 62
     7
370
    25
100
AcDbLine
 10
862.9593535338
 20
275.3748509704
 30
0.0
 11
863.1699325888
 21
275.0101173481
 31
0.0
  0
LINE
  5
76
330
1F
100
AcDbEntity
  8
0
  6
Continuous
 62
     7
370
    25
100
AcDbLine
 10
877.4181035338
 20
283.3748509703
 30
0.0
 11
868.7593535338
 21
283.3748509703
 31
0.0
  0
LINE
  5
77
330
1F
100
AcDbEntity
  8
0
  6
Continuous
 62
     7
370
    25
100
AcDbLine
 10
868.7593535338
 20
277.3748509703
 30
0.0
 11
877.4181035338
 21
277.3748509703
 31
0.0
  0
LINE
  5
78
330
1F
100
AcDbEntity
  8
0
  6
Continuous
 62
     7
370
    25
100
AcDbLine
 10
877.4181035338
 20
277.3748509703
 30
0.0
 11
877.9593535338
 21
277.9161009703
 31
0.0
  0
LINE
  5
79
330
1F
100
AcDbEntity
  8
0
  6
Continuous
 62
     7
370
    25
100
AcDbLine
 10
877.9593535338
 20
282.8336009704
 30
0.0
 11
877.4181035338
 21
283.3748509704
 31
0.0
  0
LINE
  5
7A
330
1F
100
AcDbEntity
  8
0
  6
Continuous
 62
     7
370
    25
100
AcDbLine
 10
863.1699325888
 20
285.7395845926
 30
0.0
 11
862.9593535338
 21
285.3748509703
 31
0.0
  0
ARC
  5
7B
330
1F
100
AcDbEntity
  8
0
  6
Continuous
 62
     7
370
    25
100
AcDbCircle
 10
867.4593535338
 20
261.1748509704
 30
0.0
 40
0.5000000000000007
100
AcDbArc
 50
0.0
 51
113.5781784782
  0
LINE
  5
7C
330
1F
100
AcDbEntity
  8
0
  6
Continuous
 62
     7
370
    25
100
AcDbLine
 10
877.4181035338
 20
258.3748509703
 30
0.0
 11
868.7593535338
 21
258.3748509703
 31
0.0
  0
LINE
  5
7D
330
1F
100
AcDbEntity
  8
0
  6
Continuous
 62
     7
370
    25
100
AcDbLine
 10
877.4181035338
 20
252.3748509703
 30
0.0
 11
877.9593535338
 21
252.9161009703
 31
0.0
  0
LINE
  5
7E
330
1F
100
AcDbEntity
  8
0
  6
Continuous
 62
     7
370
    25
100
AcDbLine
 10
877.9593535338
 20
257.8336009704
 30
0.0
 11
877.4181035338
 21
258.3748509704
 31
0.0
  0
ARC
  5
7F
330
1F
100
AcDbEntity
  8
0
  6
Continuous
 62
     7
370
    25
100
AcDbCircle
 10
-35.9406464662
 20
261.1748509704
 30
0.0
 40
0.5000000000000071
100
AcDbArc
 50
66.4218215218
 51
180.0
  0
LINE
  5
80
330
1F
100
AcDbEntity
  8
0
  6
Continuous
 62
     7
370
    25
100
AcDbLine
 10
-45.8993964662
 20
258.3748509704
 30
0.0
 11
-46.4406464662
 21
257.8336009704
 31
0.0
  0
LINE
  5
81
330
1F
100
AcDbEntity
  8
0
  6
Continuous
 62
     7
370
    25
100
AcDbLine
 10
-46.4406464662
 20
252.9161009703
 30
0.0
 11
-45.8993964662
 21
252.3748509703
 31
0.0
  0
LINE
  5
82
330
1F
100
AcDbEntity
  8
0
  6
Continuous
 62
     7
370
    25
100
AcDbLine
 10
-37.2406464662
 20
258.3748509703
 30
0.0
 11
-45.8993964662
 21
258.3748509703
 31
0.0
  0
ARC
  5
83
330
1F
100
AcDbEntity
  8
0
  6
Continuous
 62
     7
370
    25
100
AcDbCircle
 10
-35.9406464662
 20
286.1748509704
 30
0.0
 40
0.5
100
AcDbArc
 50
0.0
 51
180.0
  0
ARC
  5
84
330
1F
100
AcDbEntity
  8
0
  6
Continuous
 62
     7
370
    25
100
AcDbCircle
 10
-35.9406464662
 20
274.5748509703
 30
0.0
 40
0.5000000000000071
100
AcDbArc
 50
180.0
 51
0.0
  0
LINE
  5
85
330
1F
100
AcDbEntity
  8
0
  6
Continuous
 62
     7
370
    25
100
AcDbLine
 10
-45.8993964662
 20
277.3748509703
 30
0.0
 11
-37.2406464662
 21
277.3748509703
 31
0.0
  0
LINE
  5
86
330
1F
100
AcDbEntity
  8
0
  6
Continuous
 62
     7
370
    25
100
AcDbLine
 10
-37.2406464662
 20
283.3748509703
 30
0.0
 11
-45.8993964662
 21
283.3748509703
 31
0.0
  0
LINE
  5
87
330
1F
100
AcDbEntity
  8
0
  6
Continuous
 62
     7
370
    25
100
AcDbLine
 10
-45.8993964662
 20
283.3748509704
 30
0.0
 11
-46.4406464662
 21
282.8336009704
 31
0.0
  0
LINE
  5
88
330
1F
100
AcDbEntity
  8
0
  6
Continuous
 62
     7
370
    25
100
AcDbLine
 10
-46.4406464662
 20
277.9161009703
 30
0.0
 11
-45.8993964662
 21
277.3748509703
 31
0.0
  0
SPLINE
  5
89
330
1F
100
AcDbEntity
  8
0
  6
Continuous
 62
     7
370
    25
100
AcDbSpline
210
0.0
220
0.0
230
1.0
 70
    24
 71
     3
 72
    16
 73
    12
 74
     0
 42
0.000000001
 43
0.00000001
 40
0.0
 40
0.0
 40
0.0
 40
0.0
 40
0.1658292928977498
 40
0.2550981074401222
 40
0.3462613343064165
 40
0.4374245611727108
 40
0.5266933757150832
 40
0.6925226686128332
 40
0.8583519615105837
 40
0.9476207760529561
 40
1.0
 40
1.0
 40
1.0
 40
1.0
 10
866.9593535337914
 20
284.100540594979
 30
0.0
 10
866.9593535337914
 20
283.491632797304
 30
0.0
 10
866.9593535337914
 20
282.5549392609684
 30
0.0
 10
866.9593535337912
 20
281.0551405697324
 30
0.0
 10
866.9593535337914
 20
279.8631834899173
 30
0.0
 10
866.9593535337912
 20
278.688755215711
 30
0.0
 10
866.9593535337912
 20
277.2851419224237
 30
0.0
 10
866.9593535337915
 20
275.8177988416416
 30
0.0
 10
866.9593535337912
 20
274.9186114908208
 30
0.0
 10
866.9593535337913
 20
274.5907801637065
 30
0.0
 10
866.9593535337913
 20
274.6011705791469
 30
0.0
 10
866.9593535337913
 20
274.605012791881
 30
0.0
  0
SPLINE
  5
8A
330
1F
100
AcDbEntity
  8
0
  6
Continuous
 62
     7
370
    25
100
AcDbSpline
210
0.0
220
0.0
230
1.0
 70
     8
 71
     3
 72
     8
 73
     4
 74
     0
 42
0.000000001
 43
0.00000001
 40
0.0
 40
0.0
 40
0.0
 40
0.0
 40
1.0
 40
1.0
 40
1.0
 40
1.0
 10
862.9593535337984
 20
281.2403455409623
 30
0.0
 10
862.9593535337984
 20
280.2699396050721
 30
0.0
 10
863.1336688341779
 20
279.326093263141
 30
0.0
 10
863.4059355211898
 20
278.3971713085144
 30
0.0
  0
SPLINE
  5
8B
330
1F
100
AcDbEntity
  8
0
  6
Continuous
 62
     7
370
    25
100
AcDbSpline
210
0.0
220
0.0
230
1.0
 70
     8
 71
     3
 72
     8
 73
     4
 74
     0
 42
0.000000001
 43
0.00000001
 40
0.0
 40
0.0
 40
0.0
 40
0.0
 40
1.0
 40
1.0
 40
1.0
 40
1.0
 10
863.4059355211897
 20
284.0835197734103
 30
0.0
 10
863.1336688341783
 20
283.1545978187853
 30
0.0
 10
862.9593535337984
 20
282.2107514768508
 30
0.0
 10
862.9593535337984
 20
281.2403455409623
 30
0.0
  0
LINE
  5
8C
330
1F
100
AcDbEntity
  8
0
  6
Continuous
 62
     7
370
    25
100
AcDbLine
 10
866.9593535338
 20
284.0835197734
 30
0.0
 11
863.4059355212
 21
284.0835197734
 31
0.0
  0
LINE
  5
8D
330
1F
100
AcDbEntity
  8
0
  6
Continuous
 62
     7
370
    25
100
AcDbLine
 10
866.9593535338
 20
278.3971713085
 30
0.0
 11
863.4059355212
 21
278.3971713085
 31
0.0
  0
LINE
  5
8E
330
1F
100
AcDbEntity
  8
0
  6
Continuous
 62
     7
370
    25
100
AcDbLine
 10
862.9593535338
 20
281.240345541
 30
0.0
 11
862.9593535338
 21
276.542836907
 31
0.0
  0
SPLINE
  5
8F
330
1F
100
AcDbEntity
  8
0
  6
Continuous
 62
     7
370
    25
100
AcDbSpline
210
0.0
220
0.0
230
1.0
 70
     8
 71
     3
 72
     8
 73
     4
 74
     0
 42
0.000000001
 43
0.00000001
 40
0.0
 40
0.0
 40
0.0
 40
0.0
 40
1.0
 40
1.0
 40
1.0
 40
1.0
 10
863.4059355211898
 20
278.3971713085081
 30
0.0
 10
863.1336688341784
 20
277.7913231275769
 30
0.0
 10
862.9593535337984
 20
277.1757411763779
 30
0.0
 10
862.9593535337984
 20
276.5428369069766
 30
0.0
  0
SPLINE
  5
90
330
1F
100
AcDbEntity
  8
0
  6
Continuous
 62
     7
370
    25
100
AcDbSpline
210
0.0
220
0.0
230
1.0
 70
     8
 71
     3
 72
     8
 73
     4
 74
     0
 42
0.000000001
 43
0.00000001
 40
0.0
 40
0.0
 40
0.0
 40
0.0
 40
1.0
 40
1.0
 40
1.0
 40
1.0
 10
862.9593535337984
 20
276.5428369069766
 30
0.0
 10
862.9593535337984
 20
275.9099326375741
 30
0.0
 10
863.133668834178
 20
275.2943506863774
 30
0.0
 10
863.4059355211898
 20
274.6885025054452
 30
0.0
  0
LINE
  5
91
330
1F
100
AcDbEntity
  8
0
  6
Continuous
 62
     7
370
    25
100
AcDbLine
 10
866.9593535338
 20
274.6885025054
 30
0.0
 11
863.4059355212
 21
274.6885025054
 31
0.0
  0
LINE
  5
92
330
1F
100
AcDbEntity
  8
0
  6
Continuous
 62
     7
370
    25
100
AcDbLine
 10
862.9593535338
 20
285.0723596043
 30
0.0
 11
862.9593535338
 21
281.240345541
 31
0.0
  0
SPLINE
  5
93
330
1F
100
AcDbEntity
  8
0
  6
Continuous
 62
     7
370
    25
100
AcDbSpline
210
0.0
220
0.0
230
1.0
 70
     8
 71
     3
 72
     8
 73
     4
 74
     0
 42
0.000000001
 43
0.00000001
 40
0.0
 40
0.0
 40
0.0
 40
0.0
 40
1.0
 40
1.0
 40
1.0
 40
1.0
 10
862.9593535337983
 20
285.0723596043318
 30
0.0
 10
862.9593535337983
 20
284.7348579378441
 30
0.0
 10
863.1336688341778
 20
284.4065935471097
 30
0.0
 10
863.4059355211896
 20
284.0835197734153
 30
0.0
  0
SPLINE
  5
94
330
1F
100
AcDbEntity
  8
0
  6
Continuous
 62
     7
370
    25
100
AcDbSpline
210
0.0
220
0.0
230
1.0
 70
     8
 71
     3
 72
     8
 73
     4
 74
     0
 42
0.000000001
 43
0.00000001
 40
0.0
 40
0.0
 40
0.0
 40
0.0
 40
1.0
 40
1.0
 40
1.0
 40
1.0
 10
863.4059355211896
 20
286.0611994352482
 30
0.0
 10
863.1336688341781
 20
285.7381256615544
 30
0.0
 10
862.9593535337983
 20
285.4098612708188
 30
0.0
 10
862.9593535337983
 20
285.0723596043318
 30
0.0
  0
LINE
  5
95
330
1F
100
AcDbEntity
  8
0
  6
Continuous
 62
     7
370
    25
100
AcDbLine
 10
866.9593535338
 20
286.0611994352
 30
0.0
 11
863.4059355212
 21
286.0611994352
 31
0.0
  0
LINE
  5
96
330
1F
100
AcDbEntity
  8
0
  6
Continuous
 62
     7
370
    25
100
AcDbLine
 10
863.4059355212
 20
274.6885025054
 30
0.0
 11
863.241917486
 21
275.0516778479
 31
0.0
  0
LINE
  5
97
330
1F
100
AcDbEntity
  8
0
  6
Continuous
 62
     7
370
    25
100
AcDbLine
 10
862.9593535338
 20
276.542836907
 30
0.0
 11
862.9593535338
 21
275.3748509704
 31
0.0
  0
LINE
  5
98
330
1F
100
AcDbEntity
  8
0
  6
Continuous
 62
     7
370
    25
100
AcDbLine
 10
877.4181035338
 20
277.3748509703
 30
0.0
 11
877.4181035338
 21
283.3748509703
 31
0.0
  0
LINE
  5
99
330
1F
100
AcDbEntity
  8
0
  6
Continuous
 62
     7
370
    25
100
AcDbLine
 10
877.9593535338
 20
278.4904580547
 30
0.0
 11
877.9593535338
 21
282.8336009704
 31
0.0
  0
LINE
  5
9A
330
1F
100
AcDbEntity
  8
0
  6
Continuous
 62
     7
370
    25
100
AcDbLine
 10
877.9593535338
 20
277.9161009703
 30
0.0
 11
877.9593535338
 21
278.4904580547
 31
0.0
  0
LINE
  5
9B
330
1F
100
AcDbEntity
  8
0
  6
Continuous
 62
     7
370
    25
100
AcDbLine
 10
862.9593535338
 20
285.3748509703
 30
0.0
 11
862.9593535338
 21
285.0723596043
 31
0.0
  0
SPLINE
  5
9C
330
1F
100
AcDbEntity
  8
0
  6
Continuous
 62
     7
370
    25
100
AcDbSpline
210
0.0
220
0.0
230
1.0
 70
     8
 71
     3
 72
    20
 73
    16
 74
     0
 42
0.000000001
 43
0.00000001
 40
0.0
 40
0.0
 40
0.0
 40
0.0
 40
0.1249999999999993
 40
0.1249999999999993
 40
0.2499999999999985
 40
0.2499999999999985
 40
0.3749999999999978
 40
0.3749999999999978
 40
0.4999999999999969
 40
0.4999999999999969
 40
0.7499999999999933
 40
0.7499999999999933
 40
0.8749999999999967
 40
0.8749999999999967
 40
1.0
 40
1.0
 40
1.0
 40
1.0
 10
911.7886428556727
 20
252.3748509703407
 30
0.0
 10
911.7496021248181
 20
252.3748509703407
 30
0.0
 10
911.7110834206184
 20
252.3593144098659
 30
0.0
 10
911.6336766693105
 20
252.2979960579053
 30
0.0
 10
911.5945322513238
 20
252.2515723123185
 30
0.0
 10
911.5173814974087
 20
252.1316214421644
 30
0.0
 10
911.4790539156677
 20
252.058016797881
 30
0.0
 10
911.401507595191
 20
251.8832864317854
 30
0.0
 10
911.3625313875223
 20
251.7824358028838
 30
0.0
 10
911.2470365310772
 20
251.4511505229
 30
0.0
 10
911.1691240874071
 20
251.1834703615161
 30
0.0
 10
911.0536441620063
 20
250.7507963354606
 30
0.0
 10
911.0147783661413
 20
250.5992782486096
 30
0.0
 10
910.9370040324729
 20
250.2898524912234
 30
0.0
 10
910.898394265518
 20
250.1332301615297
 30
0.0
 10
910.8593535337914
 20
249.974850970341
 30
0.0
  0
LINE
  5
9D
330
1F
100
AcDbEntity
  8
0
  6
Continuous
 62
     7
370
    25
100
AcDbLine
 10
911.7886428557
 20
252.3748509703
 30
0.0
 11
911.7886428557
 21
250.9748509703
 31
0.0
  0
SPLINE
  5
9E
330
1F
100
AcDbEntity
  8
0
  6
Continuous
 62
     7
370
    25
100
AcDbSpline
210
0.0
220
0.0
230
1.0
 70
     8
 71
     3
 72
    14
 73
    10
 74
     0
 42
0.000000001
 43
0.00000001
 40
0.0
 40
0.0
 40
0.0
 40
0.0
 40
0.2499999999999998
 40
0.2499999999999998
 40
0.4999999999999999
 40
0.4999999999999999
 40
0.7499999999999999
 40
0.7499999999999999
 40
1.0
 40
1.0
 40
1.0
 40
1.0
 10
911.7886428556727
 20
250.9748509703408
 30
0.0
 10
911.7104414406509
 20
250.9748509703408
 30
0.0
 10
911.6347314933541
 20
250.9492923056605
 30
0.0
 10
911.4794510817068
 20
250.8491642770638
 30
0.0
 10
911.402441232124
 20
250.7756000977595
 30
0.0
 10
911.2470177460966
 20
250.5900624620677
 30
0.0
 10
911.1700680291783
 20
250.4798975411082
 30
0.0
 10
911.014638049929
 20
250.2372857844188
 30
0.0
 10
910.9375549413566
 20
250.1070363735958
 30
0.0
 10
910.8593535337914
 20
249.9748509703409
 30
0.0
  0
SPLINE
  5
9F
330
1F
100
AcDbEntity
  8
0
  6
Continuous
 62
     7
370
    25
100
AcDbSpline
210
0.0
220
0.0
230
1.0
 70
     8
 71
     3
 72
    20
 73
    16
 74
     0
 42
0.000000001
 43
0.00000001
 40
0.0
 40
0.0
 40
0.0
 40
0.0
 40
0.1250000000000004
 40
0.1250000000000004
 40
0.2500000000000008
 40
0.2500000000000008
 40
0.3750000000000012
 40
0.3750000000000012
 40
0.5000000000000016
 40
0.5000000000000016
 40
0.7500000000000004
 40
0.7500000000000004
 40
0.8750000000000002
 40
0.8750000000000002
 40
1.0
 40
1.0
 40
1.0
 40
1.0
 10
-79.34064646620864
 20
249.9748509703407
 30
0.0
 10
-79.37968719706329
 20
250.1332301579914
 30
0.0
 10
-79.41820590126292
 20
250.2894758826831
 30
0.0
 10
-79.49561265257077
 20
250.5974677320997
 30
0.0
 10
-79.53475707055769
 20
250.7501118395708
 30
0.0
 10
-79.61190782447296
 20
251.0391961287579
 30
0.0
 10
-79.65023540621402
 20
251.177000666942
 30
0.0
 10
-79.72778172669042
 20
251.4386193425809
 30
0.0
 10
-79.76675793435928
 20
251.5613656492636
 30
0.0
 10
-79.88225279080436
 20
251.8926900262112
 30
0.0
 10
-79.96016523447413
 20
252.0717011502395
 30
0.0
 10
-80.07564515987525
 20
252.2513162496204
 30
0.0
 10
-80.11451095574013
 20
252.2975605984881
 30
0.0
 10
-80.1922852894088
 20
252.3593139044993
 30
0.0
 10
-80.23089505636327
 20
252.3748509703407
 30
0.0
 10
-80.26993578809005
 20
252.3748509703407
 30
0.0
  0
LINE
  5
A0
330
1F
100
AcDbEntity
  8
0
  6
Continuous
 62
     7
370
    25
100
AcDbLine
 10
911.7886428557
 20
252.3748509703
 30
0.0
 11
-80.2699357881
 21
252.3748509703
 31
0.0
  0
SPLINE
  5
A1
330
1F
100
AcDbEntity
  8
0
  6
Continuous
 62
     7
370
    25
100
AcDbSpline
210
0.0
220
0.0
230
1.0
 70
     8
 71
     3
 72
    14
 73
    10
 74
     0
 42
0.000000001
 43
0.00000001
 40
0.0
 40
0.0
 40
0.0
 40
0.0
 40
0.25
 40
0.25
 40
0.5
 40
0.5
 40
0.75
 40
0.75
 40
1.0
 40
1.0
 40
1.0
 40
1.0
 10
-79.34064646620864
 20
249.9748509703408
 30
0.0
 10
-79.41884788123032
 20
250.1070363861997
 30
0.0
 10
-79.49455782852743
 20
250.2350184047333
 30
0.0
 10
-79.64983824017419
 20
250.4776424296807
 30
0.0
 10
-79.72684808975727
 20
250.5880846940906
 30
0.0
 10
-79.88227157578481
 20
250.7740815912838
 30
0.0
 10
-79.95922129270322
 20
250.8478825701222
 30
0.0
 10
-80.11465127195255
 20
250.9487011545173
 30
0.0
 10
-80.19173438052508
 20
250.9748509703407
 30
0.0
 10
-80.26993578809005
 20
250.9748509703408
 30
0.0
  0
LINE
  5
A2
330
1F
100
AcDbEntity
  8
0
  6
Continuous
 62
     7
370
    25
100
AcDbLine
 10
-80.2699357881
 20
252.3748509703
 30
0.0
 11
-80.2699357881
 21
250.9748509703
 31
0.0
  0
SPLINE
  5
A3
330
1F
100
AcDbEntity
  8
0
  6
Continuous
 62
     7
370
    25
100
AcDbSpline
210
0.0
220
0.0
230
1.0
 70
     8
 71
     3
 72
    20
 73
    16
 74
     0
 42
0.000000001
 43
0.00000001
 40
0.0
 40
0.0
 40
0.0
 40
0.0
 40
0.1249999999999946
 40
0.1249999999999946
 40
0.2499999999999892
 40
0.2499999999999892
 40
0.3749999999999838
 40
0.3749999999999838
 40
0.4999999999999785
 40
0.4999999999999785
 40
0.7499999999999972
 40
0.7499999999999972
 40
0.8749999999999986
 40
0.8749999999999986
 40
1.0
 40
1.0
 40
1.0
 40
1.0
 10
910.8593535337914
 20
249.9748509703409
 30
0.0
 10
911.0177327214421
 20
250.0138917011954
 30
0.0
 10
911.1739784461338
 20
250.0524104053952
 30
0.0
 10
911.4819702955505
 20
250.1298171567031
 30
0.0
 10
911.6346144030214
 20
250.1689615746898
 30
0.0
 10
911.9236986922085
 20
250.246112328605
 30
0.0
 10
912.0615032303925
 20
250.284439910346
 30
0.0
 10
912.3231219060315
 20
250.3619862308226
 30
0.0
 10
912.445868212714
 20
250.4009624384912
 30
0.0
 10
912.7771925896618
 20
250.5164572949363
 30
0.0
 10
912.9562037136901
 20
250.5943697386064
 30
0.0
 10
913.1358188130712
 20
250.7098496640073
 30
0.0
 10
913.1820631619387
 20
250.7487154598724
 30
0.0
 10
913.24381646795
 20
250.8264897935409
 30
0.0
 10
913.2593535337913
 20
250.8650995604956
 30
0.0
 10
913.2593535337913
 20
250.9041402922223
 30
0.0
  0
SPLINE
  5
A4
330
1F
100
AcDbEntity
  8
0
  6
Continuous
 62
     7
370
    25
100
AcDbSpline
210
0.0
220
0.0
230
1.0
 70
     8
 71
     3
 72
    14
 73
    10
 74
     0
 42
0.000000001
 43
0.00000001
 40
0.0
 40
0.0
 40
0.0
 40
0.0
 40
0.2500000000000001
 40
0.2500000000000001
 40
0.5000000000000002
 40
0.5000000000000002
 40
0.7500000000000003
 40
0.7500000000000003
 40
1.0
 40
1.0
 40
1.0
 40
1.0
 10
910.8593535337914
 20
249.9748509703409
 30
0.0
 10
910.9915389496504
 20
250.0530523853625
 30
0.0
 10
911.1195209681837
 20
250.1287623326594
 30
0.0
 10
911.3621449931311
 20
250.2840427443065
 30
0.0
 10
911.4725872575411
 20
250.3610525938894
 30
0.0
 10
911.6585841547346
 20
250.516476079917
 30
0.0
 10
911.7323851335727
 20
250.5934257968354
 30
0.0
 10
911.833203717968
 20
250.7488557760845
 30
0.0
 10
911.8593535337914
 20
250.8259388846572
 30
0.0
 10
911.8593535337914
 20
250.9041402922223
 30
0.0
  0
LINE
  5
A5
330
1F
100
AcDbEntity
  8
0
  6
Continuous
 62
     7
370
    25
100
AcDbLine
 10
913.2593535338
 20
250.9041402922
 30
0.0
 11
911.8593535338
 21
250.9041402922
 31
0.0
  0
CIRCLE
  5
A6
330
1F
100
AcDbEntity
  8
0
  6
Continuous
 62
     7
370
    25
100
AcDbCircle
 10
18.2593535338
 20
227.3748509703
 30
0.0
 40
0.5
  0
LINE
  5
A7
330
1F
100
AcDbEntity
  8
0
  6
Continuous
 62
     7
370
    25
100
AcDbLine
 10
913.2593535338
 20
207.8455616485
 30
0.0
 11
913.2593535338
 21
250.9041402922
 31
0.0
  0
SPLINE
  5
A8
330
1F
100
AcDbEntity
  8
0
  6
Continuous
 62
     7
370
    25
100
AcDbSpline
210
0.0
220
0.0
230
1.0
 70
     8
 71
     3
 72
    20
 73
    16
 74
     0
 42
0.000000001
 43
0.00000001
 40
0.0
 40
0.0
 40
0.0
 40
0.0
 40
0.1250000000000001
 40
0.1250000000000001
 40
0.25
 40
0.25
 40
0.3749999999999999
 40
0.3749999999999999
 40
0.4999999999999998
 40
0.4999999999999998
 40
0.7500000000000002
 40
0.7500000000000002
 40
0.8750000000000001
 40
0.8750000000000001
 40
1.0
 40
1.0
 40
1.0
 40
1.0
 10
913.2593535337913
 20
207.8455616484595
 30
0.0
 10
913.2593535337913
 20
207.8846023793141
 30
0.0
 10
913.2438169733166
 20
207.9231210835138
 30
0.0
 10
913.1824986213558
 20
208.0005278348218
 30
0.0
 10
913.136074875769
 20
208.0396722528085
 30
0.0
 10
913.016124005615
 20
208.1168230067236
 30
0.0
 10
912.9425193613316
 20
208.1551505884647
 30
0.0
 10
912.7677889952361
 20
208.2326969089412
 30
0.0
 10
912.6669383663341
 20
208.2716731166099
 30
0.0
 10
912.3356530863502
 20
208.387167973055
 30
0.0
 10
912.0679729249665
 20
208.465080416725
 30
0.0
 10
911.6352988989112
 20
208.5805603421259
 30
0.0
 10
911.48378081206
 20
208.619426137991
 30
0.0
 10
911.1743550546738
 20
208.6972004716594
 30
0.0
 10
911.0177327249802
 20
208.7358102386142
 30
0.0
 10
910.8593535337914
 20
208.7748509703409
 30
0.0
  0
SPLINE
  5
A9
330
1F
100
AcDbEntity
  8
0
  6
Continuous
 62
     7
370
    25
100
AcDbSpline
210
0.0
220
0.0
230
1.0
 70
     8
 71
     3
 72
    20
 73
    16
 74
     0
 42
0.000000001
 43
0.00000001
 40
0.0
 40
0.0
 40
0.0
 40
0.0
 40
0.1250000000000039
 40
0.1250000000000039
 40
0.2500000000000077
 40
0.2500000000000077
 40
0.3750000000000115
 40
0.3750000000000115
 40
0.5000000000000154
 40
0.5000000000000154
 40
0.7500000000000127
 40
0.7500000000000127
 40
0.8750000000000063
 40
0.8750000000000063
 40
1.0
 40
1.0
 40
1.0
 40
1.0
 10
910.8593535337914
 20
208.774850970341
 30
0.0
 10
910.898394264646
 20
208.6164717826903
 30
0.0
 10
910.9369129688456
 20
208.4602260579985
 30
0.0
 10
911.0143197201531
 20
208.1522342085819
 30
0.0
 10
911.05346413814
 20
207.9995901011108
 30
0.0
 10
911.1306148920553
 20
207.7105058119238
 30
0.0
 10
911.1689424737963
 20
207.5727012737397
 30
0.0
 10
911.2464887942732
 20
207.3110825981007
 30
0.0
 10
911.2854650019417
 20
207.1883362914181
 30
0.0
 10
911.4009598583865
 20
206.8570119144704
 30
0.0
 10
911.4788723020567
 20
206.6780007904421
 30
0.0
 10
911.5943522274576
 20
206.4983856910612
 30
0.0
 10
911.6332180233228
 20
206.4521413421935
 30
0.0
 10
911.7109923569913
 20
206.3903880361823
 30
0.0
 10
911.7496021239459
 20
206.3748509703409
 30
0.0
 10
911.7886428556726
 20
206.3748509703409
 30
0.0
  0
SPLINE
  5
AA
330
1F
100
AcDbEntity
  8
0
  6
Continuous
 62
     7
370
    25
100
AcDbSpline
210
0.0
220
0.0
230
1.0
 70
     8
 71
     3
 72
    14
 73
    10
 74
     0
 42
0.000000001
 43
0.00000001
 40
0.0
 40
0.0
 40
0.0
 40
0.0
 40
0.2499999999999999
 40
0.2499999999999999
 40
0.4999999999999999
 40
0.4999999999999999
 40
0.7499999999999998
 40
0.7499999999999998
 40
1.0
 40
1.0
 40
1.0
 40
1.0
 10
910.8593535337914
 20
208.7748509703409
 30
0.0
 10
910.937554948813
 20
208.6426655544819
 30
0.0
 10
911.0132648961101
 20
208.5146835359483
 30
0.0
 10
911.168545307757
 20
208.2720595110009
 30
0.0
 10
911.2455551573398
 20
208.161617246591
 30
0.0
 10
911.4009786433674
 20
207.9756203493977
 30
0.0
 10
911.4779283602857
 20
207.9018193705594
 30
0.0
 10
911.6333583395349
 20
207.8010007861643
 30
0.0
 10
911.7104414481074
 20
207.7748509703409
 30
0.0
 10
911.7886428556726
 20
207.7748509703409
 30
0.0
  0
LINE
  5
AB
330
1F
100
AcDbEntity
  8
0
  6
Continuous
 62
     7
370
    25
100
AcDbLine
 10
911.7886428557
 20
206.3748509703
 30
0.0
 11
911.7886428557
 21
207.7748509703
 31
0.0
  0
LINE
  5
AC
330
1F
100
AcDbEntity
  8
0
  6
Continuous
 62
     7
370
    25
100
AcDbLine
 10
-80.2699357881
 20
206.3748509703
 30
0.0
 11
911.7886428557
 21
206.3748509703
 31
0.0
  0
SPLINE
  5
AD
330
1F
100
AcDbEntity
  8
0
  6
Continuous
 62
     7
370
    25
100
AcDbSpline
210
0.0
220
0.0
230
1.0
 70
     8
 71
     3
 72
    20
 73
    16
 74
     0
 42
0.000000001
 43
0.00000001
 40
0.0
 40
0.0
 40
0.0
 40
0.0
 40
0.124999999999998
 40
0.124999999999998
 40
0.2499999999999959
 40
0.2499999999999959
 40
0.3749999999999939
 40
0.3749999999999939
 40
0.4999999999999919
 40
0.4999999999999919
 40
0.7499999999999896
 40
0.7499999999999896
 40
0.8749999999999948
 40
0.8749999999999948
 40
1.0
 40
1.0
 40
1.0
 40
1.0
 10
-80.26993578808994
 20
206.3748509703409
 30
0.0
 10
-80.23089505723551
 20
206.3748509703409
 30
0.0
 10
-80.1923763530355
 20
206.3903875308157
 30
0.0
 10
-80.11496960172776
 20
206.4517058827763
 30
0.0
 10
-80.07582518374107
 20
206.4981296283631
 30
0.0
 10
-79.99867442982573
 20
206.6180804985172
 30
0.0
 10
-79.96034684808478
 20
206.6916851428006
 30
0.0
 10
-79.88280052760838
 20
206.8664155088962
 30
0.0
 10
-79.84382431993959
 20
206.9672661377978
 30
0.0
 10
-79.7283294634945
 20
207.2985514177817
 30
0.0
 10
-79.65041701982439
 20
207.5662315791655
 30
0.0
 10
-79.53493709442361
 20
207.998905605221
 30
0.0
 10
-79.49607129855868
 20
208.150423692072
 30
0.0
 10
-79.41829696489022
 20
208.4598494494581
 30
0.0
 10
-79.37968719793543
 20
208.6164717791519
 30
0.0
 10
-79.3406464662087
 20
208.7748509703406
 30
0.0
  0
LINE
  5
AE
330
1F
100
AcDbEntity
  8
0
  6
Continuous
 62
     7
370
    25
100
AcDbLine
 10
913.2593535338
 20
207.8455616485
 30
0.0
 11
911.8593535338
 21
207.8455616485
 31
0.0
  0
SPLINE
  5
AF
330
1F
100
AcDbEntity
  8
0
  6
Continuous
 62
     7
370
    25
100
AcDbSpline
210
0.0
220
0.0
230
1.0
 70
     8
 71
     3
 72
    14
 73
    10
 74
     0
 42
0.000000001
 43
0.00000001
 40
0.0
 40
0.0
 40
0.0
 40
0.0
 40
0.25
 40
0.25
 40
0.5
 40
0.5
 40
0.75
 40
0.75
 40
1.0
 40
1.0
 40
1.0
 40
1.0
 10
911.8593535337914
 20
207.8455616484595
 30
0.0
 10
911.8593535337914
 20
207.9237630634812
 30
0.0
 10
911.8337948691111
 20
207.9994730107781
 30
0.0
 10
911.7336668405143
 20
208.1547534224251
 30
0.0
 10
911.6601026612101
 20
208.2317632720081
 30
0.0
 10
911.4745650255181
 20
208.3871867580356
 30
0.0
 10
911.3644001045587
 20
208.4641364749539
 30
0.0
 10
911.1217883478695
 20
208.6195664542032
 30
0.0
 10
910.9915389370462
 20
208.6966495627758
 30
0.0
 10
910.8593535337914
 20
208.7748509703409
 30
0.0
  0
SPLINE
  5
B0
330
1F
100
AcDbEntity
  8
0
  6
Continuous
 62
     7
370
    25
100
AcDbSpline
210
0.0
220
0.0
230
1.0
 70
     8
 71
     3
 72
    20
 73
    16
 74
     0
 42
0.000000001
 43
0.00000001
 40
0.0
 40
0.0
 40
0.0
 40
0.0
 40
0.1249999999999999
 40
0.1249999999999999
 40
0.25
 40
0.25
 40
0.3750000000000001
 40
0.3750000000000001
 40
0.5000000000000001
 40
0.5000000000000001
 40
0.7500000000000003
 40
0.7500000000000003
 40
0.8750000000000002
 40
0.8750000000000002
 40
1.0
 40
1.0
 40
1.0
 40
1.0
 10
-81.74064646620866
 20
250.9041402922222
 30
0.0
 10
-81.74064646620866
 20
250.8650995613677
 30
0.0
 10
-81.72510990573373
 20
250.8265808571679
 30
0.0
 10
-81.66379155377307
 20
250.7491741058599
 30
0.0
 10
-81.61736780818634
 20
250.7100296878732
 30
0.0
 10
-81.4974169380322
 20
250.632878933958
 30
0.0
 10
-81.42381229374895
 20
250.594551352217
 30
0.0
 10
-81.2490819276533
 20
250.5170050317405
 30
0.0
 10
-81.14823129875165
 20
250.4780288240717
 30
0.0
 10
-80.81694601876765
 20
250.3625339676267
 30
0.0
 10
-80.54926585738376
 20
250.2846215239566
 30
0.0
 10
-80.11659183132835
 20
250.1691415985557
 30
0.0
 10
-79.96507374447742
 20
250.1302758026907
 30
0.0
 10
-79.65564798709113
 20
250.0525014690222
 30
0.0
 10
-79.49902565739725
 20
250.0138917020674
 30
0.0
 10
-79.34064646620864
 20
249.9748509703408
 30
0.0
  0
LINE
  5
B1
330
1F
100
AcDbEntity
  8
0
  6
Continuous
 62
     7
370
    25
100
AcDbLine
 10
-81.7406464662
 20
250.9041402922
 30
0.0
 11
-80.3406464662
 21
250.9041402922
 31
0.0
  0
SPLINE
  5
B2
330
1F
100
AcDbEntity
  8
0
  6
Continuous
 62
     7
370
    25
100
AcDbSpline
210
0.0
220
0.0
230
1.0
 70
     8
 71
     3
 72
    14
 73
    10
 74
     0
 42
0.000000001
 43
0.00000001
 40
0.0
 40
0.0
 40
0.0
 40
0.0
 40
0.25
 40
0.25
 40
0.5
 40
0.5
 40
0.75
 40
0.75
 40
1.0
 40
1.0
 40
1.0
 40
1.0
 10
-80.34064646620864
 20
250.9041402922222
 30
0.0
 10
-80.34064646620864
 20
250.8259388772005
 30
0.0
 10
-80.31508780152829
 20
250.7502289299036
 30
0.0
 10
-80.21495977293146
 20
250.5949485182565
 30
0.0
 10
-80.14139559362727
 20
250.5179386686736
 30
0.0
 10
-79.95585795793542
 20
250.3625151826461
 30
0.0
 10
-79.84569303697614
 20
250.2855654657277
 30
0.0
 10
-79.6030812802867
 20
250.1301354864785
 30
0.0
 10
-79.47283186946358
 20
250.0530523779058
 30
0.0
 10
-79.34064646620864
 20
249.9748509703408
 30
0.0
  0
SPLINE
  5
B3
330
1F
100
AcDbEntity
  8
0
  6
Continuous
 62
     7
370
    25
100
AcDbSpline
210
0.0
220
0.0
230
1.0
 70
     8
 71
     3
 72
    20
 73
    16
 74
     0
 42
0.000000001
 43
0.00000001
 40
0.0
 40
0.0
 40
0.0
 40
0.0
 40
0.1249999999999946
 40
0.1249999999999946
 40
0.2499999999999892
 40
0.2499999999999892
 40
0.3749999999999838
 40
0.3749999999999838
 40
0.4999999999999785
 40
0.4999999999999785
 40
0.7499999999999972
 40
0.7499999999999972
 40
0.8749999999999984
 40
0.8749999999999984
 40
1.0
 40
1.0
 40
1.0
 40
1.0
 10
-79.34064646620864
 20
208.7748509703407
 30
0.0
 10
-79.49902565385946
 20
208.7358102394862
 30
0.0
 10
-79.65527137855105
 20
208.6972915352864
 30
0.0
 10
-79.9632632279677
 20
208.6198847839784
 30
0.0
 10
-80.11590733543872
 20
208.5807403659917
 30
0.0
 10
-80.40499162462572
 20
208.5035896120766
 30
0.0
 10
-80.5427961628099
 20
208.4652620303355
 30
0.0
 10
-80.80441483844886
 20
208.387715709859
 30
0.0
 10
-80.92716114513165
 20
208.3487395021903
 30
0.0
 10
-81.25848552207931
 20
208.2332446457453
 30
0.0
 10
-81.43749664610728
 20
208.1553322020752
 30
0.0
 10
-81.61711174548824
 20
208.0398522766743
 30
0.0
 10
-81.66335609435599
 20
208.0009864808093
 30
0.0
 10
-81.72510940036715
 20
207.9232121471408
 30
0.0
 10
-81.74064646620877
 20
207.884602380186
 30
0.0
 10
-81.74064646620866
 20
207.8455616484594
 30
0.0
  0
LINE
  5
B4
330
1F
100
AcDbEntity
  8
0
  6
Continuous
 62
     7
370
    25
100
AcDbLine
 10
-81.7406464662
 20
250.9041402922
 30
0.0
 11
-81.7406464662
 21
207.8455616485
 31
0.0
  0
SPLINE
  5
B5
330
1F
100
AcDbEntity
  8
0
  6
Continuous
 62
     7
370
    25
100
AcDbSpline
210
0.0
220
0.0
230
1.0
 70
     8
 71
     3
 72
    14
 73
    10
 74
     0
 42
0.000000001
 43
0.00000001
 40
0.0
 40
0.0
 40
0.0
 40
0.0
 40
0.2499999999999999
 40
0.2499999999999999
 40
0.4999999999999999
 40
0.4999999999999999
 40
0.7499999999999998
 40
0.7499999999999998
 40
1.0
 40
1.0
 40
1.0
 40
1.0
 10
-79.34064646620864
 20
208.7748509703407
 30
0.0
 10
-79.47283188206772
 20
208.6966495553191
 30
0.0
 10
-79.6008139006012
 20
208.620939608022
 30
0.0
 10
-79.84343792554888
 20
208.4656591963752
 30
0.0
 10
-79.95388018995841
 20
208.3886493467921
 30
0.0
 10
-80.13987708715182
 20
208.2332258607646
 30
0.0
 10
-80.21367806598995
 20
208.1562761438463
 30
0.0
 10
-80.31449665038515
 20
208.0008461645971
 30
0.0
 10
-80.34064646620848
 20
207.9237630560244
 30
0.0
 10
-80.34064646620864
 20
207.8455616484594
 30
0.0
  0
LINE
  5
B6
330
1F
100
AcDbEntity
  8
0
  6
Continuous
 62
     7
370
    25
100
AcDbLine
 10
-81.7406464662
 20
207.8455616485
 30
0.0
 11
-80.3406464662
 21
207.8455616485
 31
0.0
  0
LINE
  5
B7
330
1F
100
AcDbEntity
  8
0
  6
Continuous
 62
     7
370
    25
100
AcDbLine
 10
-80.2699357881
 20
206.3748509703
 30
0.0
 11
-80.2699357881
 21
207.7748509703
 31
0.0
  0
SPLINE
  5
B8
330
1F
100
AcDbEntity
  8
0
  6
Continuous
 62
     7
370
    25
100
AcDbSpline
210
0.0
220
0.0
230
1.0
 70
     8
 71
     3
 72
    14
 73
    10
 74
     0
 42
0.000000001
 43
0.00000001
 40
0.0
 40
0.0
 40
0.0
 40
0.0
 40
0.2500000000000003
 40
0.2500000000000003
 40
0.5000000000000002
 40
0.5000000000000002
 40
0.7500000000000001
 40
0.7500000000000001
 40
1.0
 40
1.0
 40
1.0
 40
1.0
 10
-80.26993578808994
 20
207.7748509703409
 30
0.0
 10
-80.19173437306826
 20
207.7748509703409
 30
0.0
 10
-80.11602442577137
 20
207.8004096350211
 30
0.0
 10
-79.9607440141244
 20
207.9005376636178
 30
0.0
 10
-79.88373416454148
 20
207.9741018429221
 30
0.0
 10
-79.72831067851399
 20
208.1596394786139
 30
0.0
 10
-79.65136096159553
 20
208.2698043995734
 30
0.0
 10
-79.49593098234637
 20
208.5124161562628
 30
0.0
 10
-79.41884787377369
 20
208.6426655670858
 30
0.0
 10
-79.3406464662087
 20
208.7748509703407
 30
0.0
  0
CIRCLE
  5
B9
330
1F
100
AcDbEntity
  8
0
  6
Continuous
 62
     7
370
    25
100
AcDbCircle
 10
-25.7406464662
 20
229.3748509703
 30
0.0
 40
5.500000000000107
  0
ARC
  5
BA
330
1F
100
AcDbEntity
  8
0
  6
Continuous
 62
     7
370
    25
100
AcDbCircle
 10
-23.5606365646
 20
230.4317870852
 30
0.0
 40
0.5050994627335084
100
AcDbArc
 50
298.8005827702
 51
112.9304972368
  0
ARC
  5
BB
330
1F
100
AcDbEntity
  8
0
  6
Continuous
 62
     7
370
    25
100
AcDbCircle
 10
-25.7406464662
 20
229.3748509703
 30
0.0
 40
2.499999999999947
100
AcDbArc
 50
37.506301084
 51
74.2247789229
  0
ARC
  5
BC
330
1F
100
AcDbEntity
  8
0
  6
Continuous
 62
     7
370
    25
100
AcDbCircle
 10
-25.565975041
 20
231.791262983
 30
0.0
 40
0.5050994627349606
100
AcDbArc
 50
358.800582771
 51
172.930497236
  0
ARC
  5
BD
330
1F
100
AcDbEntity
  8
0
  6
Continuous
 62
     7
370
    25
100
AcDbCircle
 10
-25.7406464662
 20
229.3748509703
 30
0.0
 40
2.499999999999945
100
AcDbArc
 50
97.5063010841
 51
134.2247789229
  0
ARC
  5
BE
330
1F
100
AcDbEntity
  8
0
  6
Continuous
 62
     7
370
    25
100
AcDbCircle
 10
-27.7459849426
 20
230.7343268682
 30
0.0
 40
0.5050994627351938
100
AcDbArc
 50
58.8005827697
 51
232.9304972372
  0
ARC
  5
BF
330
1F
100
AcDbEntity
  8
0
  6
Continuous
 62
     7
370
    25
100
AcDbCircle
 10
-25.7406464662
 20
229.3748509703
 30
0.0
 40
2.499999999999952
100
AcDbArc
 50
157.5063010841
 51
194.2247789229
  0
ARC
  5
C0
330
1F
100
AcDbEntity
  8
0
  6
Continuous
 62
     7
370
    25
100
AcDbCircle
 10
-27.9206563678
 20
228.3179148555
 30
0.0
 40
0.5050994627332589
100
AcDbArc
 50
118.8005827707
 51
292.9304972361
  0
ARC
  5
C1
330
1F
100
AcDbEntity
  8
0
  6
Continuous
 62
     7
370
    25
100
AcDbCircle
 10
-25.7406464662
 20
229.3748509703
 30
0.0
 40
2.499999999999951
100
AcDbArc
 50
217.506301084
 51
254.2247789229
  0
ARC
  5
C2
330
1F
100
AcDbEntity
  8
0
  6
Continuous
 62
     7
370
    25
100
AcDbCircle
 10
-25.9153178914
 20
226.9584389577
 30
0.0
 40
0.5050994627366148
100
AcDbArc
 50
178.8005827716
 51
352.9304972354
  0
ARC
  5
C3
330
1F
100
AcDbEntity
  8
0
  6
Continuous
 62
     7
370
    25
100
AcDbCircle
 10
-25.7406464662
 20
229.3748509703
 30
0.0
 40
2.499999999999969
100
AcDbArc
 50
277.5063010841
 51
314.2247789229
  0
ARC
  5
C4
330
1F
100
AcDbEntity
  8
0
  6
Continuous
 62
     7
370
    25
100
AcDbCircle
 10
-23.7353079898
 20
228.0153750725
 30
0.0
 40
0.5050994627354981
100
AcDbArc
 50
238.8005827701
 51
52.9304972368
  0
ARC
  5
C5
330
1F
100
AcDbEntity
  8
0
  6
Continuous
 62
     7
370
    25
100
AcDbCircle
 10
-25.7406464662
 20
229.3748509703
 30
0.0
 40
2.499999999999964
100
AcDbArc
 50
337.5063010841
 51
14.2247789229
  0
CIRCLE
  5
C6
330
1F
100
AcDbEntity
  8
0
  6
Continuous
 62
     7
370
    25
100
AcDbCircle
 10
857.2593535338
 20
229.3748509703
 30
0.0
 40
5.500000000000082
  0
ARC
  5
C7
330
1F
100
AcDbEntity
  8
0
  6
Continuous
 62
     7
370
    25
100
AcDbCircle
 10
855.1450764693
 20
228.191892976
 30
0.0
 40
0.5050994627351878
100
AcDbArc
 50
122.1624680624
 51
296.2923825299
  0
ARC
  5
C8
330
1F
100
AcDbEntity
  8
0
  6
Continuous
 62
     7
370
    25
100
AcDbCircle
 10
857.2593535338
 20
229.3748509703
 30
0.0
 40
2.499999999999944
100
AcDbArc
 50
220.8681863768
 51
257.5866642156
  0
ARC
  5
C9
330
1F
100
AcDbEntity
  8
0
  6
Continuous
 62
     7
370
    25
100
AcDbCircle
 10
857.2266866763
 20
226.9523543247
 30
0.0
 40
0.5050994627333354
100
AcDbArc
 50
182.1624680634
 51
356.2923825288
  0
ARC
  5
CA
330
1F
100
AcDbEntity
  8
0
  6
Continuous
 62
     7
370
    25
100
AcDbCircle
 10
857.2593535338
 20
229.3748509703
 30
0.0
 40
2.499999999999987
100
AcDbArc
 50
280.8681863767
 51
317.5866642156
  0
ARC
  5
CB
330
1F
100
AcDbEntity
  8
0
  6
Continuous
 62
     7
370
    25
100
AcDbCircle
 10
859.3409637408
 20
228.1353123191
 30
0.0
 40
0.505099462736639
100
AcDbArc
 50
242.1624680643
 51
56.2923825281
  0
ARC
  5
CC
330
1F
100
AcDbEntity
  8
0
  6
Continuous
 62
     7
370
    25
100
AcDbCircle
 10
857.2593535338
 20
229.3748509703
 30
0.0
 40
2.500000000000042
100
AcDbArc
 50
40.8681863768
 51
77.5866642156
  0
ARC
  5
CD
330
1F
100
AcDbEntity
  8
0
  6
Continuous
 62
     7
370
    25
100
AcDbCircle
 10
859.3736305983
 20
230.5578089647
 30
0.0
 40
0.5050994627355099
100
AcDbArc
 50
302.1624680628
 51
116.2923825295
  0
ARC
  5
CE
330
1F
100
AcDbEntity
  8
0
  6
Continuous
 62
     7
370
    25
100
AcDbCircle
 10
855.1777433268
 20
230.6143896216
 30
0.0
 40
0.5050994627349609
100
AcDbArc
 50
62.1624680637
 51
236.2923825287
  0
ARC
  5
CF
330
1F
100
AcDbEntity
  8
0
  6
Continuous
 62
     7
370
    25
100
AcDbCircle
 10
857.2593535338
 20
229.3748509703
 30
0.0
 40
2.499999999999917
100
AcDbArc
 50
160.8681863768
 51
197.5866642156
  0
ARC
  5
D0
330
1F
100
AcDbEntity
  8
0
  6
Continuous
 62
     7
370
    25
100
AcDbCircle
 10
857.2593535338
 20
229.3748509703
 30
0.0
 40
2.500000000000096
100
AcDbArc
 50
340.8681863768
 51
17.5866642156
  0
ARC
  5
D1
330
1F
100
AcDbEntity
  8
0
  6
Continuous
 62
     7
370
    25
100
AcDbCircle
 10
857.2920203913
 20
231.797347616
 30
0.0
 40
0.5050994627335933
100
AcDbArc
 50
2.1624680629
 51
176.2923825295
  0
ARC
  5
D2
330
1F
100
AcDbEntity
  8
0
  6
Continuous
 62
     7
370
    25
100
AcDbCircle
 10
857.2593535338
 20
229.3748509703
 30
0.0
 40
2.499999999999934
100
AcDbArc
 50
100.8681863767
 51
137.5866642156
  0
LINE
  5
D3
330
1F
100
AcDbEntity
  8
0
  6
Continuous
 62
     7
370
    25
100
AcDbLine
 10
-37.2406464662
 20
266.8748509703
 30
0.0
 11
-36.4406464662
 21
266.8748509703
 31
0.0
  0
LINE
  5
D4
330
1F
100
AcDbEntity
  8
0
  6
Continuous
 62
     7
370
    25
100
AcDbLine
 10
-36.4406464662
 20
266.8748509703
 30
0.0
 11
-36.4406464662
 21
283.8748509703
 31
0.0
  0
LINE
  5
D5
330
1F
100
AcDbEntity
  8
0
  6
Continuous
 62
     7
370
    25
100
AcDbLine
 10
-37.2406464662
 20
266.8748509703
 30
0.0
 11
-37.2406464662
 21
283.8748509703
 31
0.0
  0
LINE
  5
D6
330
1F
100
AcDbEntity
  8
0
  6
Continuous
 62
     7
370
    25
100
AcDbLine
 10
-37.2406464662
 20
286.8748509703
 30
0.0
 11
-36.4406464662
 21
286.8748509703
 31
0.0
  0
LINE
  5
D7
330
1F
100
AcDbEntity
  8
0
  6
Continuous
 62
     7
370
    25
100
AcDbLine
 10
-36.4406464662
 20
286.8748509703
 30
0.0
 11
-36.4406464662
 21
283.8748509703
 31
0.0
  0
LINE
  5
D8
330
1F
100
AcDbEntity
  8
0
  6
Continuous
 62
     7
370
    25
100
AcDbLine
 10
-37.2406464662
 20
283.8748509703
 30
0.0
 11
-37.2406464662
 21
286.8748509703
 31
0.0
  0
LINE
  5
D9
330
1F
100
AcDbEntity
  8
0
  6
Continuous
 62
     7
370
    25
100
AcDbLine
 10
868.7593535338
 20
266.8748509703
 30
0.0
 11
867.9593535338
 21
266.8748509703
 31
0.0
  0
LINE
  5
DA
330
1F
100
AcDbEntity
  8
0
  6
Continuous
 62
     7
370
    25
100
AcDbLine
 10
867.9593535338
 20
283.8748509703
 30
0.0
 11
867.9593535338
 21
266.8748509703
 31
0.0
  0
LINE
  5
DB
330
1F
100
AcDbEntity
  8
0
  6
Continuous
 62
     7
370
    25
100
AcDbLine
 10
868.7593535338
 20
283.8748509703
 30
0.0
 11
868.7593535338
 21
266.8748509703
 31
0.0
  0
LINE
  5
DC
330
1F
100
AcDbEntity
  8
0
  6
Continuous
 62
     7
370
    25
100
AcDbLine
 10
867.9593535338
 20
283.8748509703
 30
0.0
 11
867.9593535338
 21
286.8748509703
 31
0.0
  0
LINE
  5
DD
330
1F
100
AcDbEntity
  8
0
  6
Continuous
 62
     7
370
    25
100
AcDbLine
 10
867.9593535338
 20
286.8748509703
 30
0.0
 11
868.7593535338
 21
286.8748509703
 31
0.0
  0
LINE
  5
DE
330
1F
100
AcDbEntity
  8
0
  6
Continuous
 62
     7
370
    25
100
AcDbLine
 10
868.7593535338
 20
286.8748509703
 30
0.0
 11
868.7593535338
 21
283.8748509703
 31
0.0
  0
LINE
  5
DF
330
1F
100
AcDbEntity
  8
0
  6
Continuous
 62
     7
370
    25
100
AcDbLine
 10
-36.4406464662
 20
252.3748509703
 30
0.0
 11
-36.4406464662
 21
263.6748509703
 31
0.0
  0
LINE
  5
E0
330
1F
100
AcDbEntity
  8
0
  6
Continuous
 62
     7
370
    25
100
AcDbLine
 10
-36.4406464662
 20
265.3748509703
 30
0.0
 11
-36.4406464662
 21
266.8748509703
 31
0.0
  0
LINE
  5
E1
330
1F
100
AcDbEntity
  8
0
  6
Continuous
 62
     7
370
    25
100
AcDbLine
 10
-37.2406464662
 20
252.3748509703
 30
0.0
 11
-37.2406464662
 21
266.8748509703
 31
0.0
  0
LINE
  5
E2
330
1F
100
AcDbEntity
  8
0
  6
Continuous
 62
     7
370
    25
100
AcDbLine
 10
867.9593535338
 20
266.8748509703
 30
0.0
 11
867.9593535338
 21
265.3748509703
 31
0.0
  0
LINE
  5
E3
330
1F
100
AcDbEntity
  8
0
  6
Continuous
 62
     7
370
    25
100
AcDbLine
 10
867.9593535338
 20
263.6748509703
 30
0.0
 11
867.9593535338
 21
252.3748509703
 31
0.0
  0
LINE
  5
E4
330
1F
100
AcDbEntity
  8
0
  6
Continuous
 62
     7
370
    25
100
AcDbLine
 10
868.7593535338
 20
266.8748509703
 30
0.0
 11
868.7593535338
 21
252.3748509703
 31
0.0
  0
LINE
  5
E5
330
1F
100
AcDbEntity
  8
0
  6
Continuous
 62
     7
370
    25
100
AcDbLine
 10
877.4181035338
 20
252.3748509703
 30
0.0
 11
877.4181035338
 21
258.3748509703
 31
0.0
  0
LINE
  5
E6
330
1F
100
AcDbEntity
  8
0
  6
Continuous
 62
     7
370
    25
100
AcDbLine
 10
877.9593535338
 20
253.4904580547
 30
0.0
 11
877.9593535338
 21
257.8336009704
 31
0.0
  0
LINE
  5
E7
330
1F
100
AcDbEntity
  8
0
  6
Continuous
 62
     7
370
    25
100
AcDbLine
 10
877.9593535338
 20
252.9161009703
 30
0.0
 11
877.9593535338
 21
253.4904580547
 31
0.0
  0
LINE
  5
E8
330
1F
100
AcDbEntity
  8
0
  6
Continuous
 62
     7
370
    25
100
AcDbLine
 10
-36.6615766988
 20
265.3748509703
 30
0.0
 11
868.1802837663
 21
265.3748509703
 31
0.0
  0
LINE
  5
E9
330
1F
100
AcDbEntity
  8
0
  6
Continuous
 62
     7
370
    25
100
AcDbLine
 10
-36.6615766988
 20
263.6748509703
 30
0.0
 11
868.1802837663
 21
263.6748509703
 31
0.0
  0
ELLIPSE
  5
EA
330
1F
100
AcDbEntity
  8
0
  6
Continuous
 62
     7
370
    25
100
AcDbEllipse
 10
868.1802837663
 20
264.5248509703
 30
0.0
 11
0.0
 21
0.8500000000000227
 31
0.0
210
0.0
220
0.0
230
1.0
 40
0.0930232558
 41
3.141592653588355
 42
6.283185307179586
  0
ELLIPSE
  5
EB
330
1F
100
AcDbEntity
  8
0
  6
Continuous
 62
     7
370
    25
100
AcDbEllipse
 10
-36.6615766988
 20
264.5248509703
 30
0.0
 11
0.0
 21
0.8500000000000227
 31
0.0
210
0.0
220
0.0
230
1.0
 40
0.0930232558
 41
0.0
 42
3.14159265359066
  0
LINE
  5
EC
330
1F
100
AcDbEntity
  8
0
  6
Continuous
 62
     7
370
    25
100
AcDbLine
 10
-35.7406464662
 20
263.6748509703
 30
0.0
 11
-35.7406464662
 21
263.5748509703
 31
0.0
  0
LINE
  5
ED
330
1F
100
AcDbEntity
  8
0
  6
Continuous
 62
     7
370
    25
100
AcDbLine
 10
867.2593535338
 20
263.5748509703
 30
0.0
 11
867.2593535338
 21
263.6748509703
 31
0.0
  0
LINE
  5
EE
330
1F
100
AcDbEntity
  8
0
  6
Continuous
 62
     7
370
    25
100
AcDbLine
 10
-35.7406464662
 20
263.5748509703
 30
0.0
 11
-35.7406464662
 21
252.3748509703
 31
0.0
  0
LINE
  5
EF
330
1F
100
AcDbEntity
  8
0
  6
Continuous
 62
     7
370
    25
100
AcDbLine
 10
867.2593535338
 20
252.3748509703
 30
0.0
 11
867.2593535338
 21
263.5748509703
 31
0.0
  0
LINE
  5
F0
330
1F
100
AcDbEntity
  8
0
  6
Continuous
 62
     7
370
    25
100
AcDbLine
 10
-46.4406464662
 20
257.8336009704
 30
0.0
 11
-46.4406464662
 21
252.9161009703
 31
0.0
  0
LINE
  5
F1
330
1F
100
AcDbEntity
  8
0
  6
Continuous
 62
     7
370
    25
100
AcDbLine
 10
-45.8993964662
 20
256.6712168166
 30
0.0
 11
-45.8993964662
 21
252.3748509703
 31
0.0
  0
LINE
  5
F2
330
1F
100
AcDbEntity
  8
0
  6
Continuous
 62
     7
370
    25
100
AcDbLine
 10
-45.8993964662
 20
258.3748509704
 30
0.0
 11
-45.8993964662
 21
256.6712168166
 31
0.0
  0
ARC
  5
F3
330
1F
100
AcDbEntity
  8
0
  6
Continuous
 62
     7
370
    25
100
AcDbCircle
 10
857.0848198488
 20
256.951064981
 30
0.0
 40
12.03669752929212
100
AcDbArc
 50
186.2565722693
 51
191.9710500657
  0
ARC
  5
F4
330
1F
100
AcDbEntity
  8
0
  6
Continuous
 62
     7
370
    25
100
AcDbCircle
 10
845.6831395231
 20
265.2003172854
 30
0.0
 40
12.0366975293512
100
AcDbArc
 50
276.2565722694
 51
281.9710500657
  0
ARC
  5
F5
330
1F
100
AcDbEntity
  8
0
  6
Continuous
 62
     7
370
    25
100
AcDbCircle
 10
837.4338872187
 20
253.7986369597
 30
0.0
 40
12.03669752942495
100
AcDbArc
 50
6.2565722694
 51
11.9710500657
  0
ARC
  5
F6
330
1F
100
AcDbEntity
  8
0
  6
Continuous
 62
     7
370
    25
100
AcDbCircle
 10
848.8355675444
 20
245.5493846553
 30
0.0
 40
12.03669752935072
100
AcDbArc
 50
96.2565722693
 51
101.9710500657
  0
ARC
  5
F7
330
1F
100
AcDbEntity
  8
0
  6
Continuous
 62
     7
370
    25
100
AcDbCircle
 10
847.2593535338
 20
255.3748509703
 30
0.0
 40
3.999999999999992
100
AcDbArc
 50
311.4096221093
 51
99.1138111675
  0
ARC
  5
F8
330
1F
100
AcDbEntity
  8
0
  6
Continuous
 62
     7
370
    25
100
AcDbCircle
 10
847.2593535338
 20
255.3748509703
 30
0.0
 40
4.000000000000068
100
AcDbArc
 50
99.1138111675
 51
228.5903778907
  0
LINE
  5
F9
330
1F
100
AcDbEntity
  8
0
  6
Continuous
 62
     7
370
    25
100
AcDbLine
 10
846.7619657888
 20
254.6873879305
 30
0.0
 11
846.994909654
 21
253.2353122065
 31
0.0
  0
LINE
  5
FA
330
1F
100
AcDbEntity
  8
0
  6
Continuous
 62
     7
370
    25
100
AcDbLine
 10
847.9468165737
 20
254.8774632254
 30
0.0
 11
849.3988922976
 21
255.1104070906
 31
0.0
  0
LINE
  5
FB
330
1F
100
AcDbEntity
  8
0
  6
Continuous
 62
     7
370
    25
100
AcDbLine
 10
845.3098900649
 20
254.4544440653
 30
0.0
 11
846.7619657888
 21
254.6873879305
 31
0.0
  0
LINE
  5
FC
330
1F
100
AcDbEntity
  8
0
  6
Continuous
 62
     7
370
    25
100
AcDbLine
 10
847.9468165737
 20
254.8774632254
 30
0.0
 11
848.1797604388
 21
253.4253875015
 31
0.0
  0
LINE
  5
FD
330
1F
100
AcDbEntity
  8
0
  6
Continuous
 62
     7
370
    25
100
AcDbLine
 10
847.7567412787
 20
256.0623140102
 30
0.0
 11
849.2088170027
 21
256.2952578754
 31
0.0
  0
LINE
  5
FE
330
1F
100
AcDbEntity
  8
0
  6
Continuous
 62
     7
370
    25
100
AcDbLine
 10
846.3389466288
 20
257.3243144392
 30
0.0
 11
846.5718904939
 21
255.8722387153
 31
0.0
  0
LINE
  5
FF
330
1F
100
AcDbEntity
  8
0
  6
Continuous
 62
     7
370
    25
100
AcDbLine
 10
845.11981477
 20
255.6392948501
 30
0.0
 11
846.5718904939
 21
255.8722387153
 31
0.0
  0
LINE
  5
100
330
1F
100
AcDbEntity
  8
0
  6
Continuous
 62
     7
370
    25
100
AcDbLine
 10
847.5237974136
 20
257.5143897341
 30
0.0
 11
847.7567412787
 21
256.0623140102
 31
0.0
  0
LINE
  5
101
330
1F
100
AcDbEntity
  8
0
  6
Continuous
 62
     7
370
    25
100
AcDbLine
 10
847.9048476268
 20
256.0860734221
 30
0.0
 11
848.0949229218
 21
254.9012226373
 31
0.0
  0
LINE
  5
102
330
1F
100
AcDbEntity
  8
0
  6
Continuous
 62
     7
370
    25
100
AcDbLine
 10
847.7329818669
 20
256.2104203583
 30
0.0
 11
846.5481310821
 21
256.0203450634
 31
0.0
  0
LINE
  5
103
330
1F
100
AcDbEntity
  8
0
  6
Continuous
 62
     7
370
    25
100
AcDbLine
 10
847.9705759855
 20
254.7293568773
 30
0.0
 11
846.7857252007
 21
254.5392815824
 31
0.0
  0
LINE
  5
104
330
1F
100
AcDbEntity
  8
0
  6
Continuous
 62
     7
370
    25
100
AcDbLine
 10
846.4237841458
 20
255.8484793034
 30
0.0
 11
846.6138594407
 21
254.6636285186
 31
0.0
  0
LINE
  5
105
330
1F
100
AcDbEntity
  8
0
  6
Continuous
 62
     7
370
    25
100
AcDbLine
 10
262.11981477
 20
255.6392948501
 30
0.0
 11
263.5718904939
 21
255.8722387153
 31
0.0
  0
ARC
  5
106
330
1F
100
AcDbEntity
  8
0
  6
Continuous
 62
     7
370
    25
100
AcDbCircle
 10
274.0848198488
 20
256.951064981
 30
0.0
 40
12.03669752932266
100
AcDbArc
 50
186.2565722693
 51
191.9710500657
  0
LINE
  5
107
330
1F
100
AcDbEntity
  8
0
  6
Continuous
 62
     7
370
    25
100
AcDbLine
 10
262.3098900649
 20
254.4544440653
 30
0.0
 11
263.7619657888
 21
254.6873879305
 31
0.0
  0
ARC
  5
108
330
1F
100
AcDbEntity
  8
0
  6
Continuous
 62
     7
370
    25
100
AcDbCircle
 10
262.6831395232
 20
265.2003172854
 30
0.0
 40
12.03669752931966
100
AcDbArc
 50
276.2565722693
 51
281.9710500657
  0
LINE
  5
109
330
1F
100
AcDbEntity
  8
0
  6
Continuous
 62
     7
370
    25
100
AcDbLine
 10
264.9468165737
 20
254.8774632254
 30
0.0
 11
266.3988922976
 21
255.1104070906
 31
0.0
  0
ARC
  5
10A
330
1F
100
AcDbEntity
  8
0
  6
Continuous
 62
     7
370
    25
100
AcDbCircle
 10
254.4338872187
 20
253.7986369597
 30
0.0
 40
12.03669752934507
100
AcDbArc
 50
6.2565722693
 51
11.9710500657
  0
LINE
  5
10B
330
1F
100
AcDbEntity
  8
0
  6
Continuous
 62
     7
370
    25
100
AcDbLine
 10
264.7567412787
 20
256.0623140102
 30
0.0
 11
266.2088170027
 21
256.2952578754
 31
0.0
  0
LINE
  5
10C
330
1F
100
AcDbEntity
  8
0
  6
Continuous
 62
     7
370
    25
100
AcDbLine
 10
264.5237974136
 20
257.5143897341
 30
0.0
 11
264.7567412787
 21
256.0623140102
 31
0.0
  0
ARC
  5
10D
330
1F
100
AcDbEntity
  8
0
  6
Continuous
 62
     7
370
    25
100
AcDbCircle
 10
265.8355675444
 20
245.5493846553
 30
0.0
 40
12.03669752932867
100
AcDbArc
 50
96.2565722693
 51
101.9710500657
  0
ARC
  5
10E
330
1F
100
AcDbEntity
  8
0
  6
Continuous
 62
     7
370
    25
100
AcDbCircle
 10
264.2593535338
 20
255.3748509703
 30
0.0
 40
4.000000000000007
100
AcDbArc
 50
311.4096221093
 51
99.1138111675
  0
ARC
  5
10F
330
1F
100
AcDbEntity
  8
0
  6
Continuous
 62
     7
370
    25
100
AcDbCircle
 10
264.2593535338
 20
255.3748509703
 30
0.0
 40
4.000000000000052
100
AcDbArc
 50
99.1138111675
 51
228.5903778907
  0
LINE
  5
110
330
1F
100
AcDbEntity
  8
0
  6
Continuous
 62
     7
370
    25
100
AcDbLine
 10
263.3389466288
 20
257.3243144392
 30
0.0
 11
263.5718904939
 21
255.8722387153
 31
0.0
  0
LINE
  5
111
330
1F
100
AcDbEntity
  8
0
  6
Continuous
 62
     7
370
    25
100
AcDbLine
 10
264.9468165737
 20
254.8774632254
 30
0.0
 11
265.1797604388
 21
253.4253875015
 31
0.0
  0
LINE
  5
112
330
1F
100
AcDbEntity
  8
0
  6
Continuous
 62
     7
370
    25
100
AcDbLine
 10
263.7619657888
 20
254.6873879305
 30
0.0
 11
263.994909654
 21
253.2353122065
 31
0.0
  0
LINE
  5
113
330
1F
100
AcDbEntity
  8
0
  6
Continuous
 62
     7
370
    25
100
AcDbLine
 10
264.9048476268
 20
256.0860734221
 30
0.0
 11
265.0949229218
 21
254.9012226373
 31
0.0
  0
LINE
  5
114
330
1F
100
AcDbEntity
  8
0
  6
Continuous
 62
     7
370
    25
100
AcDbLine
 10
264.9705759855
 20
254.7293568773
 30
0.0
 11
263.7857252007
 21
254.5392815824
 31
0.0
  0
LINE
  5
115
330
1F
100
AcDbEntity
  8
0
  6
Continuous
 62
     7
370
    25
100
AcDbLine
 10
264.7329818669
 20
256.2104203583
 30
0.0
 11
263.5481310821
 21
256.0203450634
 31
0.0
  0
LINE
  5
116
330
1F
100
AcDbEntity
  8
0
  6
Continuous
 62
     7
370
    25
100
AcDbLine
 10
263.4237841458
 20
255.8484793034
 30
0.0
 11
263.6138594407
 21
254.6636285186
 31
0.0
  0
ARC
  5
117
330
1F
100
AcDbEntity
  8
0
  6
Continuous
 62
     7
370
    25
100
AcDbCircle
 10
577.0848198488
 20
256.951064981
 30
0.0
 40
12.03669752932294
100
AcDbArc
 50
186.2565722693
 51
191.9710500657
  0
ARC
  5
118
330
1F
100
AcDbEntity
  8
0
  6
Continuous
 62
     7
370
    25
100
AcDbCircle
 10
565.6831395231
 20
265.2003172854
 30
0.0
 40
12.03669752934813
100
AcDbArc
 50
276.2565722694
 51
281.9710500657
  0
ARC
  5
119
330
1F
100
AcDbEntity
  8
0
  6
Continuous
 62
     7
370
    25
100
AcDbCircle
 10
557.4338872188
 20
253.7986369597
 30
0.0
 40
12.03669752933905
100
AcDbArc
 50
6.2565722694
 51
11.9710500657
  0
ARC
  5
11A
330
1F
100
AcDbEntity
  8
0
  6
Continuous
 62
     7
370
    25
100
AcDbCircle
 10
568.8355675444
 20
245.5493846553
 30
0.0
 40
12.03669752929698
100
AcDbArc
 50
96.2565722693
 51
101.9710500657
  0
ARC
  5
11B
330
1F
100
AcDbEntity
  8
0
  6
Continuous
 62
     7
370
    25
100
AcDbCircle
 10
567.2593535338
 20
255.3748509703
 30
0.0
 40
4.00000000000003
100
AcDbArc
 50
311.4096221093
 51
99.1138111675
  0
ARC
  5
11C
330
1F
100
AcDbEntity
  8
0
  6
Continuous
 62
     7
370
    25
100
AcDbCircle
 10
567.2593535338
 20
255.3748509703
 30
0.0
 40
3.99999999999997
100
AcDbArc
 50
99.1138111675
 51
228.5903778907
  0
LINE
  5
11D
330
1F
100
AcDbEntity
  8
0
  6
Continuous
 62
     7
370
    25
100
AcDbLine
 10
567.5237974136
 20
257.5143897341
 30
0.0
 11
567.7567412787
 21
256.0623140102
 31
0.0
  0
LINE
  5
11E
330
1F
100
AcDbEntity
  8
0
  6
Continuous
 62
     7
370
    25
100
AcDbLine
 10
567.9468165737
 20
254.8774632254
 30
0.0
 11
568.1797604388
 21
253.4253875015
 31
0.0
  0
LINE
  5
11F
330
1F
100
AcDbEntity
  8
0
  6
Continuous
 62
     7
370
    25
100
AcDbLine
 10
567.7567412787
 20
256.0623140102
 30
0.0
 11
569.2088170027
 21
256.2952578754
 31
0.0
  0
LINE
  5
120
330
1F
100
AcDbEntity
  8
0
  6
Continuous
 62
     7
370
    25
100
AcDbLine
 10
565.3098900649
 20
254.4544440653
 30
0.0
 11
566.7619657888
 21
254.6873879305
 31
0.0
  0
LINE
  5
121
330
1F
100
AcDbEntity
  8
0
  6
Continuous
 62
     7
370
    25
100
AcDbLine
 10
566.3389466288
 20
257.3243144392
 30
0.0
 11
566.5718904939
 21
255.8722387153
 31
0.0
  0
LINE
  5
122
330
1F
100
AcDbEntity
  8
0
  6
Continuous
 62
     7
370
    25
100
AcDbLine
 10
565.11981477
 20
255.6392948501
 30
0.0
 11
566.5718904939
 21
255.8722387153
 31
0.0
  0
LINE
  5
123
330
1F
100
AcDbEntity
  8
0
  6
Continuous
 62
     7
370
    25
100
AcDbLine
 10
567.9468165737
 20
254.8774632254
 30
0.0
 11
569.3988922976
 21
255.1104070906
 31
0.0
  0
LINE
  5
124
330
1F
100
AcDbEntity
  8
0
  6
Continuous
 62
     7
370
    25
100
AcDbLine
 10
566.7619657888
 20
254.6873879305
 30
0.0
 11
566.994909654
 21
253.2353122065
 31
0.0
  0
LINE
  5
125
330
1F
100
AcDbEntity
  8
0
  6
Continuous
 62
     7
370
    25
100
AcDbLine
 10
567.9048476268
 20
256.0860734221
 30
0.0
 11
568.0949229218
 21
254.9012226373
 31
0.0
  0
LINE
  5
126
330
1F
100
AcDbEntity
  8
0
  6
Continuous
 62
     7
370
    25
100
AcDbLine
 10
567.9705759855
 20
254.7293568773
 30
0.0
 11
566.7857252007
 21
254.5392815824
 31
0.0
  0
LINE
  5
127
330
1F
100
AcDbEntity
  8
0
  6
Continuous
 62
     7
370
    25
100
AcDbLine
 10
567.7329818669
 20
256.2104203583
 30
0.0
 11
566.5481310821
 21
256.0203450634
 31
0.0
  0
LINE
  5
128
330
1F
100
AcDbEntity
  8
0
  6
Continuous
 62
     7
370
    25
100
AcDbLine
 10
566.4237841458
 20
255.8484793034
 30
0.0
 11
566.6138594407
 21
254.6636285186
 31
0.0
  0
ARC
  5
129
330
1F
100
AcDbEntity
  8
0
  6
Continuous
 62
     7
370
    25
100
AcDbCircle
 10
-5.9151801511
 20
256.951064981
 30
0.0
 40
12.03669752935945
100
AcDbArc
 50
186.2565722694
 51
191.9710500657
  0
ARC
  5
12A
330
1F
100
AcDbEntity
  8
0
  6
Continuous
 62
     7
370
    25
100
AcDbCircle
 10
-17.3168604768
 20
265.2003172854
 30
0.0
 40
12.03669752934304
100
AcDbArc
 50
276.2565722693
 51
281.9710500657
  0
ARC
  5
12B
330
1F
100
AcDbEntity
  8
0
  6
Continuous
 62
     7
370
    25
100
AcDbCircle
 10
-25.5661127813
 20
253.7986369597
 30
0.0
 40
12.03669752935916
100
AcDbArc
 50
6.2565722694
 51
11.9710500657
  0
ARC
  5
12C
330
1F
100
AcDbEntity
  8
0
  6
Continuous
 62
     7
370
    25
100
AcDbCircle
 10
-14.1644324556
 20
245.5493846553
 30
0.0
 40
12.03669752935411
100
AcDbArc
 50
96.2565722694
 51
101.9710500657
  0
ARC
  5
12D
330
1F
100
AcDbEntity
  8
0
  6
Continuous
 62
     7
370
    25
100
AcDbCircle
 10
-15.7406464662
 20
255.3748509703
 30
0.0
 40
4.000000000000011
100
AcDbArc
 50
311.4096221092
 51
99.1138111675
  0
ARC
  5
12E
330
1F
100
AcDbEntity
  8
0
  6
Continuous
 62
     7
370
    25
100
AcDbCircle
 10
-15.7406464662
 20
255.3748509703
 30
0.0
 40
4.000000000000013
100
AcDbArc
 50
99.1138111675
 51
228.5903778908
  0
LINE
  5
12F
330
1F
100
AcDbEntity
  8
0
  6
Continuous
 62
     7
370
    25
100
AcDbLine
 10
-17.6901099351
 20
254.4544440653
 30
0.0
 11
-16.2380342112
 21
254.6873879305
 31
0.0
  0
LINE
  5
130
330
1F
100
AcDbEntity
  8
0
  6
Continuous
 62
     7
370
    25
100
AcDbLine
 10
-15.2432587213
 20
256.0623140102
 30
0.0
 11
-13.7911829973
 21
256.2952578754
 31
0.0
  0
LINE
  5
131
330
1F
100
AcDbEntity
  8
0
  6
Continuous
 62
     7
370
    25
100
AcDbLine
 10
-16.6610533712
 20
257.3243144392
 30
0.0
 11
-16.4281095061
 21
255.8722387153
 31
0.0
  0
LINE
  5
132
330
1F
100
AcDbEntity
  8
0
  6
Continuous
 62
     7
370
    25
100
AcDbLine
 10
-15.0531834263
 20
254.8774632254
 30
0.0
 11
-14.8202395612
 21
253.4253875015
 31
0.0
  0
LINE
  5
133
330
1F
100
AcDbEntity
  8
0
  6
Continuous
 62
     7
370
    25
100
AcDbLine
 10
-15.0531834263
 20
254.8774632254
 30
0.0
 11
-13.6011077024
 21
255.1104070906
 31
0.0
  0
LINE
  5
134
330
1F
100
AcDbEntity
  8
0
  6
Continuous
 62
     7
370
    25
100
AcDbLine
 10
-17.88018523
 20
255.6392948501
 30
0.0
 11
-16.4281095061
 21
255.8722387153
 31
0.0
  0
LINE
  5
135
330
1F
100
AcDbEntity
  8
0
  6
Continuous
 62
     7
370
    25
100
AcDbLine
 10
-15.4762025864
 20
257.5143897341
 30
0.0
 11
-15.2432587213
 21
256.0623140102
 31
0.0
  0
LINE
  5
136
330
1F
100
AcDbEntity
  8
0
  6
Continuous
 62
     7
370
    25
100
AcDbLine
 10
-16.2380342112
 20
254.6873879305
 30
0.0
 11
-16.005090346
 21
253.2353122065
 31
0.0
  0
LINE
  5
137
330
1F
100
AcDbEntity
  8
0
  6
Continuous
 62
     7
370
    25
100
AcDbLine
 10
-15.0951523732
 20
256.0860734221
 30
0.0
 11
-14.9050770782
 21
254.9012226373
 31
0.0
  0
LINE
  5
138
330
1F
100
AcDbEntity
  8
0
  6
Continuous
 62
     7
370
    25
100
AcDbLine
 10
-15.2670181331
 20
256.2104203583
 30
0.0
 11
-16.4518689179
 21
256.0203450634
 31
0.0
  0
LINE
  5
139
330
1F
100
AcDbEntity
  8
0
  6
Continuous
 62
     7
370
    25
100
AcDbLine
 10
-15.0294240145
 20
254.7293568773
 30
0.0
 11
-16.2142747993
 21
254.5392815824
 31
0.0
  0
LINE
  5
13A
330
1F
100
AcDbEntity
  8
0
  6
Continuous
 62
     7
370
    25
100
AcDbLine
 10
-16.5762158542
 20
255.8484793034
 30
0.0
 11
-16.3861405593
 21
254.6636285186
 31
0.0
  0
SPLINE
  5
13B
330
1F
100
AcDbEntity
  8
0
  6
Continuous
 62
     7
370
    25
100
AcDbSpline
210
0.0
220
0.0
230
1.0
 70
    24
 71
     3
 72
    18
 73
    14
 74
     0
 42
0.000000001
 43
0.00000001
 40
0.0
 40
0.0
 40
0.0
 40
0.0
 40
0.1395442450004754
 40
0.2146633576115609
 40
0.2913766055701591
 40
0.3680898535287565
 40
0.4432089661398424
 40
0.5827532111403179
 40
0.722297456140793
 40
0.7974165687518787
 40
0.8741298167104767
 40
0.9508430646690748
 40
1.0
 40
1.0
 40
1.0
 40
1.0
 10
-35.44064646620881
 20
275.1443229135749
 30
0.0
 10
-35.4406464662087
 20
275.5294538055005
 30
0.0
 10
-35.44064646620881
 20
276.1219074060085
 30
0.0
 10
-35.44064646620881
 20
277.3578215873935
 30
0.0
 10
-35.44064646620876
 20
278.4338511997484
 30
0.0
 10
-35.44064646620876
 20
279.5973793202973
 30
0.0
 10
-35.44064646620892
 20
281.1178265113154
 30
0.0
 10
-35.44064646620865
 20
282.9420165093221
 30
0.0
 10
-35.44064646620876
 20
284.4572514639146
 30
0.0
 10
-35.44064646620887
 20
285.3749987623445
 30
0.0
 10
-35.4406464662087
 20
285.8786155806982
 30
0.0
 10
-35.44064646620881
 20
286.1507527054381
 30
0.0
 10
-35.44064646620887
 20
286.1488448625522
 30
0.0
 10
-35.44064646620881
 20
286.1480997797461
 30
0.0
  0
SPLINE
  5
13C
330
1F
100
AcDbEntity
  8
0
  6
Continuous
 62
     7
370
    25
100
AcDbSpline
210
0.0
220
0.0
230
1.0
 70
     8
 71
     3
 72
     8
 73
     4
 74
     0
 42
0.000000001
 43
0.00000001
 40
0.0
 40
0.0
 40
0.0
 40
0.0
 40
1.0
 40
1.0
 40
1.0
 40
1.0
 10
-31.44064646621597
 20
282.5354607141555
 30
0.0
 10
-31.44064646621597
 20
283.4240005207113
 30
0.0
 10
-31.6149617665954
 20
284.2882213741303
 30
0.0
 10
-31.88722845360725
 20
285.1387769028454
 30
0.0
  0
SPLINE
  5
13D
330
1F
100
AcDbEntity
  8
0
  6
Continuous
 62
     7
370
    25
100
AcDbSpline
210
0.0
220
0.0
230
1.0
 70
     8
 71
     3
 72
     8
 73
     4
 74
     0
 42
0.000000001
 43
0.00000001
 40
0.0
 40
0.0
 40
0.0
 40
0.0
 40
1.0
 40
1.0
 40
1.0
 40
1.0
 10
-31.88722845360725
 20
279.9321445254654
 30
0.0
 10
-31.61496176659578
 20
280.7827000541793
 30
0.0
 10
-31.44064646621597
 20
281.646920907601
 30
0.0
 10
-31.44064646621597
 20
282.5354607141555
 30
0.0
  0
LINE
  5
13E
330
1F
100
AcDbEntity
  8
0
  6
Continuous
 62
     7
370
    25
100
AcDbLine
 10
-31.8872284536
 20
279.9321445255
 30
0.0
 11
-35.4406464662
 21
279.9321445255
 31
0.0
  0
LINE
  5
13F
330
1F
100
AcDbEntity
  8
0
  6
Continuous
 62
     7
370
    25
100
AcDbLine
 10
-35.4406464662
 20
285.1387769028
 30
0.0
 11
-31.8872284536
 21
285.1387769028
 31
0.0
  0
SPLINE
  5
140
330
1F
100
AcDbEntity
  8
0
  6
Continuous
 62
     7
370
    25
100
AcDbSpline
210
0.0
220
0.0
230
1.0
 70
     8
 71
     3
 72
     8
 73
     4
 74
     0
 42
0.000000001
 43
0.00000001
 40
0.0
 40
0.0
 40
0.0
 40
0.0
 40
1.0
 40
1.0
 40
1.0
 40
1.0
 10
-31.44064646621592
 20
277.550181559209
 30
0.0
 10
-31.44064646621592
 20
278.3631711309141
 30
0.0
 10
-31.61496176659517
 20
279.1539095269819
 30
0.0
 10
-31.88722845360725
 20
279.9321445254587
 30
0.0
  0
SPLINE
  5
141
330
1F
100
AcDbEntity
  8
0
  6
Continuous
 62
     7
370
    25
100
AcDbSpline
210
0.0
220
0.0
230
1.0
 70
     8
 71
     3
 72
     8
 73
     4
 74
     0
 42
0.000000001
 43
0.00000001
 40
0.0
 40
0.0
 40
0.0
 40
0.0
 40
1.0
 40
1.0
 40
1.0
 40
1.0
 10
-31.88722845360725
 20
275.1682185929592
 30
0.0
 10
-31.61496176659584
 20
275.9464535914341
 30
0.0
 10
-31.44064646621592
 20
276.7371919875059
 30
0.0
 10
-31.44064646621592
 20
277.550181559209
 30
0.0
  0
LINE
  5
142
330
1F
100
AcDbEntity
  8
0
  6
Continuous
 62
     7
370
    25
100
AcDbLine
 10
-35.4406464662
 20
275.168218593
 30
0.0
 11
-31.8872284536
 21
275.168218593
 31
0.0
  0
LINE
  5
143
330
1F
100
AcDbEntity
  8
0
  6
Continuous
 62
     7
370
    25
100
AcDbLine
 10
-31.4406464662
 20
277.5501815592
 30
0.0
 11
-31.4406464662
 21
282.5354607142
 31
0.0
  0
SPLINE
  5
144
330
1F
100
AcDbEntity
  8
0
  6
Continuous
 62
     7
370
    25
100
AcDbSpline
210
0.0
220
0.0
230
1.0
 70
     8
 71
     3
 72
     8
 73
     4
 74
     0
 42
0.000000001
 43
0.00000001
 40
0.0
 40
0.0
 40
0.0
 40
0.0
 40
1.0
 40
1.0
 40
1.0
 40
1.0
 10
-31.88722845360714
 20
285.1387769028491
 30
0.0
 10
-31.61496176659573
 20
285.2110974330879
 30
0.0
 10
-31.4406464662158
 20
285.2845798904384
 30
0.0
 10
-31.4406464662158
 20
285.3601301252896
 30
0.0
  0
LINE
  5
145
330
1F
100
AcDbEntity
  8
0
  6
Continuous
 62
     7
370
    25
100
AcDbLine
 10
-31.4406464662
 20
282.5354607142
 30
0.0
 11
-31.4406464662
 21
285.3601301253
 31
0.0
  0
SPLINE
  5
146
330
1F
100
AcDbEntity
  8
0
  6
Continuous
 62
     7
370
    25
100
AcDbSpline
210
0.0
220
0.0
230
1.0
 70
     8
 71
     3
 72
     8
 73
     4
 74
     0
 42
0.000000001
 43
0.00000001
 40
0.0
 40
0.0
 40
0.0
 40
0.0
 40
1.0
 40
1.0
 40
1.0
 40
1.0
 10
-31.4406464662158
 20
275.3895718153969
 30
0.0
 10
-31.4406464662158
 20
275.3140215805456
 30
0.0
 10
-31.61496176659523
 20
275.2405391231953
 30
0.0
 10
-31.8872284536072
 20
275.1682185929564
 30
0.0
  0
LINE
  5
147
330
1F
100
AcDbEntity
  8
0
  6
Continuous
 62
     7
370
    25
100
AcDbLine
 10
-31.4406464662
 20
277.5501815592
 30
0.0
 11
-31.4406464662
 21
275.3821784766
 31
0.0
  0
SPLINE
  5
148
330
1F
100
AcDbEntity
  8
0
  6
Continuous
 62
     7
370
    25
100
AcDbSpline
210
0.0
220
0.0
230
1.0
 70
     8
 71
     3
 72
     8
 73
     4
 74
     0
 42
0.000000001
 43
0.00000001
 40
0.0
 40
0.0
 40
0.0
 40
0.0
 40
1.0
 40
1.0
 40
1.0
 40
1.0
 10
-31.4406464662158
 20
285.3601301252896
 30
0.0
 10
-31.4406464662158
 20
285.4356803601409
 30
0.0
 10
-31.61496176659523
 20
285.5091628174911
 30
0.0
 10
-31.8872284536072
 20
285.5814833477301
 30
0.0
  0
LINE
  5
149
330
1F
100
AcDbEntity
  8
0
  6
Continuous
 62
     7
370
    25
100
AcDbLine
 10
-35.4406464662
 20
285.5814833477
 30
0.0
 11
-31.8872284536
 21
285.5814833477
 31
0.0
  0
LINE
  5
14A
330
1F
100
AcDbEntity
  8
0
  6
Continuous
 62
     7
370
    25
100
AcDbLine
 10
-45.8993964662
 20
281.6712168166
 30
0.0
 11
-45.8993964662
 21
277.3748509703
 31
0.0
  0
LINE
  5
14B
330
1F
100
AcDbEntity
  8
0
  6
Continuous
 62
     7
370
    25
100
AcDbLine
 10
-45.8993964662
 20
283.3748509703
 30
0.0
 11
-45.8993964662
 21
281.6712168166
 31
0.0
  0
LINE
  5
14C
330
1F
100
AcDbEntity
  8
0
  6
Continuous
 62
     7
370
    25
100
AcDbLine
 10
-46.4406464662
 20
282.8336009704
 30
0.0
 11
-46.4406464662
 21
277.9161009703
 31
0.0
  0
LINE
  5
14D
330
1F
100
AcDbEntity
  8
0
  6
Continuous
 62
     7
370
    25
100
AcDbLine
 10
983.2603926617
 20
251.5962242982
 30
0.0
 11
983.62333044
 21
252.2248509703
 31
0.0
  0
LINE
  5
14E
330
1F
100
AcDbEntity
  8
0
  6
Continuous
 62
     7
370
    25
100
AcDbLine
 10
983.62333044
 20
258.5248509703
 30
0.0
 11
983.2603926617
 21
259.1534776424
 31
0.0
  0
LINE
  5
14F
330
1F
100
AcDbEntity
  8
0
  6
Continuous
 62
     7
370
    25
100
AcDbLine
 10
985.32333044
 20
251.3748509703
 30
0.0
 11
987.32333044
 21
251.3748509703
 31
0.0
  0
LINE
  5
150
330
1F
100
AcDbEntity
  8
0
  6
Continuous
 62
     7
370
    25
100
AcDbLine
 10
987.32333044
 20
259.3748509703
 30
0.0
 11
985.32333044
 21
259.3748509703
 31
0.0
  0
ARC
  5
151
330
1F
100
AcDbEntity
  8
0
  6
Continuous
 62
     7
370
    25
100
AcDbCircle
 10
980.3951272097
 20
255.3748509703
 30
0.0
 40
7.999999999999967
100
AcDbArc
 50
330.0
 51
344.7252520003
  0
ARC
  5
152
330
1F
100
AcDbEntity
  8
0
  6
Continuous
 62
     7
370
    25
100
AcDbCircle
 10
980.3951272097
 20
255.3748509703
 30
0.0
 40
7.999999999999981
100
AcDbArc
 50
15.2747479997
 51
30.0
  0
LINE
  5
153
330
1F
100
AcDbEntity
  8
0
  6
Continuous
 62
     7
370
    25
100
AcDbLine
 10
983.62333044
 20
253.3748509703
 30
0.0
 11
983.72333044
 21
253.3748509703
 31
0.0
  0
LINE
  5
154
330
1F
100
AcDbEntity
  8
0
  6
Continuous
 62
     7
370
    25
100
AcDbLine
 10
983.72333044
 20
257.3748509703
 30
0.0
 11
983.62333044
 21
257.3748509703
 31
0.0
  0
LINE
  5
155
330
1F
100
AcDbEntity
  8
0
  6
Continuous
 62
     7
370
    25
100
AcDbLine
 10
990.62333044
 20
250.9041402922
 30
0.0
 11
990.62333044
 21
207.8455616485
 31
0.0
  0
LINE
  5
156
330
1F
100
AcDbEntity
  8
0
  6
Continuous
 62
     7
370
    25
100
AcDbLine
 10
1000.22333044
 20
250.9041402922
 30
0.0
 11
990.62333044
 21
250.9041402922
 31
0.0
  0
LINE
  5
157
330
1F
100
AcDbEntity
  8
0
  6
Continuous
 62
     7
370
    25
100
AcDbLine
 10
1000.22333044
 20
207.8455616485
 30
0.0
 11
990.62333044
 21
207.8455616485
 31
0.0
  0
SPLINE
  5
158
330
1F
100
AcDbEntity
  8
0
  6
Continuous
 62
     7
370
    25
100
AcDbSpline
210
0.0
220
0.0
230
1.0
 70
     8
 71
     3
 72
    20
 73
    16
 74
     0
 42
0.000000001
 43
0.00000001
 40
0.0
 40
0.0
 40
0.0
 40
0.0
 40
0.1249999999999946
 40
0.1249999999999946
 40
0.2499999999999892
 40
0.2499999999999892
 40
0.3749999999999838
 40
0.3749999999999838
 40
0.4999999999999785
 40
0.4999999999999785
 40
0.7499999999999972
 40
0.7499999999999972
 40
0.8749999999999984
 40
0.8749999999999984
 40
1.0
 40
1.0
 40
1.0
 40
1.0
 10
1002.623330440023
 20
208.7748509703407
 30
0.0
 10
1002.623330440023
 20
208.7358102394862
 30
0.0
 10
1002.607793879548
 20
208.6972915352864
 30
0.0
 10
1002.546475527587
 20
208.6198847839784
 30
0.0
 10
1002.500051782
 20
208.5807403659917
 30
0.0
 10
1002.380100911846
 20
208.5035896120766
 30
0.0
 10
1002.306496267563
 20
208.4652620303355
 30
0.0
 10
1002.131765901467
 20
208.387715709859
 30
0.0
 10
1002.030915272566
 20
208.3487395021903
 30
0.0
 10
1001.699629992582
 20
208.2332446457453
 30
0.0
 10
1001.431949831198
 20
208.1553322020752
 30
0.0
 10
1000.999275805142
 20
208.0398522766743
 30
0.0
 10
1000.847757718291
 20
208.0009864808093
 30
0.0
 10
1000.538331960905
 20
207.9232121471408
 30
0.0
 10
1000.381709631211
 20
207.884602380186
 30
0.0
 10
1000.223330440023
 20
207.8455616484594
 30
0.0
  0
SPLINE
  5
159
330
1F
100
AcDbEntity
  8
0
  6
Continuous
 62
     7
370
    25
100
AcDbSpline
210
0.0
220
0.0
230
1.0
 70
     8
 71
     3
 72
    20
 73
    16
 74
     0
 42
0.000000001
 43
0.00000001
 40
0.0
 40
0.0
 40
0.0
 40
0.0
 40
0.1249999999999999
 40
0.1249999999999999
 40
0.25
 40
0.25
 40
0.3750000000000001
 40
0.3750000000000001
 40
0.5000000000000001
 40
0.5000000000000001
 40
0.7500000000000003
 40
0.7500000000000003
 40
0.8750000000000002
 40
0.8750000000000002
 40
1.0
 40
1.0
 40
1.0
 40
1.0
 10
1000.223330440023
 20
250.9041402922222
 30
0.0
 10
1000.381709627673
 20
250.8650995613677
 30
0.0
 10
1000.537955352365
 20
250.8265808571679
 30
0.0
 10
1000.845947201782
 20
250.7491741058599
 30
0.0
 10
1000.998591309253
 20
250.7100296878732
 30
0.0
 10
1001.28767559844
 20
250.632878933958
 30
0.0
 10
1001.425480136624
 20
250.594551352217
 30
0.0
 10
1001.687098812263
 20
250.5170050317405
 30
0.0
 10
1001.809845118945
 20
250.4780288240717
 30
0.0
 10
1002.141169495893
 20
250.3625339676267
 30
0.0
 10
1002.320180619921
 20
250.2846215239566
 30
0.0
 10
1002.499795719302
 20
250.1691415985557
 30
0.0
 10
1002.54604006817
 20
250.1302758026907
 30
0.0
 10
1002.607793374181
 20
250.0525014690222
 30
0.0
 10
1002.623330440023
 20
250.0138917020674
 30
0.0
 10
1002.623330440023
 20
249.9748509703408
 30
0.0
  0
LINE
  5
15A
330
1F
100
AcDbEntity
  8
0
  6
Continuous
 62
     7
370
    25
100
AcDbLine
 10
1002.62333044
 20
249.9748509703
 30
0.0
 11
1002.62333044
 21
208.7748509703
 31
0.0
  0
SPLINE
  5
15B
330
1F
100
AcDbEntity
  8
0
  6
Continuous
 62
     7
370
    25
100
AcDbSpline
210
0.0
220
0.0
230
1.0
 70
     8
 71
     3
 72
    20
 73
    16
 74
     0
 42
0.000000001
 43
0.00000001
 40
0.0
 40
0.0
 40
0.0
 40
0.0
 40
0.1250000000000004
 40
0.1250000000000004
 40
0.2500000000000008
 40
0.2500000000000008
 40
0.3750000000000012
 40
0.3750000000000012
 40
0.5000000000000016
 40
0.5000000000000016
 40
0.7500000000000004
 40
0.7500000000000004
 40
0.8750000000000002
 40
0.8750000000000002
 40
1.0
 40
1.0
 40
1.0
 40
1.0
 10
1002.623330440023
 20
249.9748509703407
 30
0.0
 10
1002.623330440023
 20
250.1332301579914
 30
0.0
 10
1002.607793879548
 20
250.2894758826831
 30
0.0
 10
1002.546475527587
 20
250.5974677320997
 30
0.0
 10
1002.500051782
 20
250.7501118395708
 30
0.0
 10
1002.380100911846
 20
251.0391961287579
 30
0.0
 10
1002.306496267563
 20
251.177000666942
 30
0.0
 10
1002.131765901467
 20
251.4386193425809
 30
0.0
 10
1002.030915272565
 20
251.5613656492636
 30
0.0
 10
1001.699629992582
 20
251.8926900262112
 30
0.0
 10
1001.431949831198
 20
252.0717011502395
 30
0.0
 10
1000.999275805142
 20
252.2513162496204
 30
0.0
 10
1000.847757718291
 20
252.2975605984881
 30
0.0
 10
1000.538331960905
 20
252.3593139044993
 30
0.0
 10
1000.381709631211
 20
252.3748509703407
 30
0.0
 10
1000.223330440023
 20
252.3748509703407
 30
0.0
  0
SPLINE
  5
15C
330
1F
100
AcDbEntity
  8
0
  6
Continuous
 62
     7
370
    25
100
AcDbSpline
210
0.0
220
0.0
230
1.0
 70
     8
 71
     3
 72
     9
 73
     5
 74
     0
 42
0.000000001
 43
0.00000001
 40
0.0
 40
0.0
 40
0.0
 40
0.0
 40
0.4825784287291192
 40
1.0
 40
1.0
 40
1.0
 40
1.0
 10
1000.8358701792
 20
250.7510212022873
 30
0.0
 10
1000.747735837884
 20
250.8148293953487
 30
0.0
 10
1000.565103676831
 20
250.9470528625878
 30
0.0
 10
1000.339870792787
 20
250.9653721670443
 30
0.0
 10
1000.223330440023
 20
250.9748509703408
 30
0.0
  0
LINE
  5
15D
330
1F
100
AcDbEntity
  8
0
  6
Continuous
 62
     7
370
    25
100
AcDbLine
 10
1000.22333044
 20
252.3748509703
 30
0.0
 11
1000.22333044
 21
250.9748509703
 31
0.0
  0
LINE
  5
15E
330
1F
100
AcDbEntity
  8
0
  6
Continuous
 62
     7
370
    25
100
AcDbLine
 10
1000.22333044
 20
206.3748509703
 30
0.0
 11
1000.22333044
 21
207.7748509703
 31
0.0
  0
SPLINE
  5
15F
330
1F
100
AcDbEntity
  8
0
  6
Continuous
 62
     7
370
    25
100
AcDbSpline
210
0.0
220
0.0
230
1.0
 70
     8
 71
     3
 72
     9
 73
     5
 74
     0
 42
0.000000001
 43
0.00000001
 40
0.0
 40
0.0
 40
0.0
 40
0.0
 40
0.7329379507272689
 40
0.9999999999999999
 40
0.9999999999999999
 40
0.9999999999999999
 40
0.9999999999999999
 10
1000.223330440023
 20
207.7748509703409
 30
0.0
 10
1000.374719081679
 20
207.7866056198586
 30
0.0
 10
1000.581269501814
 20
207.8026433342464
 30
0.0
 10
1000.736629843932
 20
207.9309806407402
 30
0.0
 10
1000.778120695274
 20
207.9652546648105
 30
0.0
  0
SPLINE
  5
160
330
1F
100
AcDbEntity
  8
0
  6
Continuous
 62
     7
370
    25
100
AcDbSpline
210
0.0
220
0.0
230
1.0
 70
     8
 71
     3
 72
    20
 73
    16
 74
     0
 42
0.000000001
 43
0.00000001
 40
0.0
 40
0.0
 40
0.0
 40
0.0
 40
0.124999999999998
 40
0.124999999999998
 40
0.2499999999999959
 40
0.2499999999999959
 40
0.3749999999999939
 40
0.3749999999999939
 40
0.4999999999999919
 40
0.4999999999999919
 40
0.7499999999999896
 40
0.7499999999999896
 40
0.8749999999999948
 40
0.8749999999999948
 40
1.0
 40
1.0
 40
1.0
 40
1.0
 10
1000.223330440023
 20
206.3748509703409
 30
0.0
 10
1000.381709627673
 20
206.3748509703409
 30
0.0
 10
1000.537955352365
 20
206.3903875308157
 30
0.0
 10
1000.845947201782
 20
206.4517058827763
 30
0.0
 10
1000.998591309253
 20
206.4981296283631
 30
0.0
 10
1001.28767559844
 20
206.6180804985172
 30
0.0
 10
1001.425480136624
 20
206.6916851428006
 30
0.0
 10
1001.687098812263
 20
206.8664155088962
 30
0.0
 10
1001.809845118945
 20
206.9672661377978
 30
0.0
 10
1002.141169495893
 20
207.2985514177817
 30
0.0
 10
1002.320180619921
 20
207.5662315791655
 30
0.0
 10
1002.499795719302
 20
207.998905605221
 30
0.0
 10
1002.54604006817
 20
208.150423692072
 30
0.0
 10
1002.607793374181
 20
208.4598494494581
 30
0.0
 10
1002.623330440023
 20
208.6164717791519
 30
0.0
 10
1002.623330440023
 20
208.7748509703406
 30
0.0
  0
LINE
  5
161
330
1F
100
AcDbEntity
  8
0
  6
Continuous
 62
     7
370
    25
100
AcDbLine
 10
1000.22333044
 20
252.3748509703
 30
0.0
 11
990.62333044
 21
252.3748509703
 31
0.0
  0
LINE
  5
162
330
1F
100
AcDbEntity
  8
0
  6
Continuous
 62
     7
370
    25
100
AcDbLine
 10
990.62333044
 20
252.3748509703
 30
0.0
 11
990.62333044
 21
250.9748509703
 31
0.0
  0
LINE
  5
163
330
1F
100
AcDbEntity
  8
0
  6
Continuous
 62
     7
370
    25
100
AcDbLine
 10
1000.22333044
 20
250.9748509703
 30
0.0
 11
990.62333044
 21
250.9748509703
 31
0.0
  0
LINE
  5
164
330
1F
100
AcDbEntity
  8
0
  6
Continuous
 62
     7
370
    25
100
AcDbLine
 10
1000.22333044
 20
207.7748509703
 30
0.0
 11
990.62333044
 21
207.7748509703
 31
0.0
  0
LINE
  5
165
330
1F
100
AcDbEntity
  8
0
  6
Continuous
 62
     7
370
    25
100
AcDbLine
 10
1000.22333044
 20
206.3748509703
 30
0.0
 11
990.62333044
 21
206.3748509703
 31
0.0
  0
LINE
  5
166
330
1F
100
AcDbEntity
  8
0
  6
Continuous
 62
     7
370
    25
100
AcDbLine
 10
990.62333044
 20
206.3748509703
 30
0.0
 11
990.62333044
 21
207.7748509703
 31
0.0
  0
LINE
  5
167
330
1F
100
AcDbEntity
  8
0
  6
Continuous
 62
     7
370
    25
100
AcDbLine
 10
982.52333044
 20
266.8748509703
 30
0.0
 11
986.52333044
 21
266.8748509703
 31
0.0
  0
LINE
  5
168
330
1F
100
AcDbEntity
  8
0
  6
Continuous
 62
     7
370
    25
100
AcDbLine
 10
982.52333044
 20
249.6748509703
 30
0.0
 11
982.52333044
 21
266.8748509703
 31
0.0
  0
LINE
  5
169
330
1F
100
AcDbEntity
  8
0
  6
Continuous
 62
     7
370
    25
100
AcDbLine
 10
963.52333044
 20
283.8748509703
 30
0.0
 11
963.52333044
 21
249.6748509703
 31
0.0
  0
ARC
  5
16A
330
1F
100
AcDbEntity
  8
0
  6
Continuous
 62
     7
370
    25
100
AcDbCircle
 10
966.52333044
 20
283.8748509703
 30
0.0
 40
3.000000000000057
100
AcDbArc
 50
90.0
 51
180.0
  0
LINE
  5
16B
330
1F
100
AcDbEntity
  8
0
  6
Continuous
 62
     7
370
    25
100
AcDbLine
 10
983.52333044
 20
286.8748509703
 30
0.0
 11
966.52333044
 21
286.8748509703
 31
0.0
  0
ARC
  5
16C
330
1F
100
AcDbEntity
  8
0
  6
Continuous
 62
     7
370
    25
100
AcDbCircle
 10
983.52333044
 20
283.8748509703
 30
0.0
 40
3.000000000000057
100
AcDbArc
 50
0.0
 51
90.0
  0
LINE
  5
16D
330
1F
100
AcDbEntity
  8
0
  6
Continuous
 62
     7
370
    25
100
AcDbLine
 10
986.52333044
 20
266.8748509703
 30
0.0
 11
986.52333044
 21
283.8748509703
 31
0.0
  0
CIRCLE
  5
16E
330
1F
100
AcDbEntity
  8
0
  6
Continuous
 62
     7
370
    25
100
AcDbCircle
 10
972.02333044
 20
280.3748509703
 30
0.0
 40
3.249999999999773
  0
CIRCLE
  5
16F
330
1F
100
AcDbEntity
  8
0
  6
Continuous
 62
     7
370
    25
100
AcDbCircle
 10
972.02333044
 20
255.3748509703
 30
0.0
 40
3.249999999999801
  0
LINE
  5
170
330
1F
100
AcDbEntity
  8
0
  6
Continuous
 62
     7
370
    25
100
AcDbLine
 10
982.52333044
 20
249.6748509703
 30
0.0
 11
982.52333044
 21
247.8748509703
 31
0.0
  0
LINE
  5
171
330
1F
100
AcDbEntity
  8
0
  6
Continuous
 62
     7
370
    25
100
AcDbLine
 10
982.52333044
 20
247.8748509703
 30
0.0
 11
963.52333044
 21
247.8748509703
 31
0.0
  0
LINE
  5
172
330
1F
100
AcDbEntity
  8
0
  6
Continuous
 62
     7
370
    25
100
AcDbLine
 10
963.52333044
 20
247.8748509703
 30
0.0
 11
963.52333044
 21
249.6748509703
 31
0.0
  0
LINE
  5
173
330
1F
100
AcDbEntity
  8
0
  6
Continuous
 62
     7
370
    25
100
AcDbLine
 10
982.52333044
 20
247.8748509703
 30
0.0
 11
982.72333044
 21
247.8748509703
 31
0.0
  0
LINE
  5
174
330
1F
100
AcDbEntity
  8
0
  6
Continuous
 62
     7
370
    25
100
AcDbLine
 10
982.52333044
 20
248.6748509703
 30
0.0
 11
982.72333044
 21
248.6748509703
 31
0.0
  0
LINE
  5
175
330
1F
100
AcDbEntity
  8
0
  6
Continuous
 62
     7
370
    25
100
AcDbLine
 10
983.72333044
 20
259.8748509703
 30
0.0
 11
983.72333044
 21
249.6748509703
 31
0.0
  0
LINE
  5
176
330
1F
100
AcDbEntity
  8
0
  6
Continuous
 62
     7
370
    25
100
AcDbLine
 10
984.52333044
 20
259.8748509703
 30
0.0
 11
983.72333044
 21
259.8748509703
 31
0.0
  0
ARC
  5
177
330
1F
100
AcDbEntity
  8
0
  6
Continuous
 62
     7
370
    25
100
AcDbCircle
 10
982.72333044
 20
249.6748509703
 30
0.0
 40
1.800000000000068
100
AcDbArc
 50
270.0
 51
0.0
  0
ARC
  5
178
330
1F
100
AcDbEntity
  8
0
  6
Continuous
 62
     7
370
    25
100
AcDbCircle
 10
982.72333044
 20
249.6748509703
 30
0.0
 40
1.0
100
AcDbArc
 50
270.0
 51
0.0
  0
LINE
  5
179
330
1F
100
AcDbEntity
  8
0
  6
Continuous
 62
     7
370
    25
100
AcDbLine
 10
939.52333044
 20
247.8748509703
 30
0.0
 11
939.52333044
 21
248.6748509703
 31
0.0
  0
LINE
  5
17A
330
1F
100
AcDbEntity
  8
0
  6
Continuous
 62
     7
370
    25
100
AcDbLine
 10
942.52333044
 20
247.8748509703
 30
0.0
 11
939.52333044
 21
247.8748509703
 31
0.0
  0
LINE
  5
17B
330
1F
100
AcDbEntity
  8
0
  6
Continuous
 62
     7
370
    25
100
AcDbLine
 10
939.52333044
 20
248.6748509703
 30
0.0
 11
942.52333044
 21
248.6748509703
 31
0.0
  0
LINE
  5
17C
330
1F
100
AcDbEntity
  8
0
  6
Continuous
 62
     7
370
    25
100
AcDbLine
 10
942.52333044
 20
247.8748509703
 30
0.0
 11
963.52333044
 21
247.8748509703
 31
0.0
  0
LINE
  5
17D
330
1F
100
AcDbEntity
  8
0
  6
Continuous
 62
     7
370
    25
100
AcDbLine
 10
942.52333044
 20
248.6748509703
 30
0.0
 11
963.52333044
 21
248.6748509703
 31
0.0
  0
LINE
  5
17E
330
1F
100
AcDbEntity
  8
0
  6
Continuous
 62
     7
370
    25
100
AcDbLine
 10
957.6612796325
 20
248.8088255666
 30
0.0
 11
951.0364085019
 21
252.6336966972
 31
0.0
  0
LINE
  5
17F
330
1F
100
AcDbEntity
  8
0
  6
Continuous
 62
     7
370
    25
100
AcDbLine
 10
956.29333044
 20
248.6748509703
 30
0.0
 11
950.6364085019
 21
251.9408763741
 31
0.0
  0
ARC
  5
180
330
1F
100
AcDbEntity
  8
0
  6
Continuous
 62
     7
370
    25
100
AcDbCircle
 10
958.1612796325
 20
249.6748509703
 30
0.0
 40
0.9999999999999716
100
AcDbArc
 50
240.0
 51
270.0
  0
ARC
  5
181
330
1F
100
AcDbEntity
  8
0
  6
Continuous
 62
     7
370
    25
100
AcDbCircle
 10
950.1364085019
 20
251.0748509703
 30
0.0
 40
1.800000000000018
100
AcDbArc
 50
60.0
 51
90.0
  0
ARC
  5
182
330
1F
100
AcDbEntity
  8
0
  6
Continuous
 62
     7
370
    25
100
AcDbCircle
 10
950.1364085019
 20
251.0748509703
 30
0.0
 40
1.0
100
AcDbArc
 50
60.0
 51
90.0
  0
LINE
  5
183
330
1F
100
AcDbEntity
  8
0
  6
Continuous
 62
     7
370
    25
100
AcDbLine
 10
943.6187170482
 20
252.0748509703
 30
0.0
 11
950.1364085019
 21
252.0748509703
 31
0.0
  0
LINE
  5
184
330
1F
100
AcDbEntity
  8
0
  6
Continuous
 62
     7
370
    25
100
AcDbLine
 10
943.6187170482
 20
252.8748509703
 30
0.0
 11
950.1364085019
 21
252.8748509703
 31
0.0
  0
LINE
  5
185
330
1F
100
AcDbEntity
  8
0
  6
Continuous
 62
     7
370
    25
100
AcDbLine
 10
940.6187170482
 20
252.0748509703
 30
0.0
 11
940.6187170482
 21
252.8748509703
 31
0.0
  0
LINE
  5
186
330
1F
100
AcDbEntity
  8
0
  6
Continuous
 62
     7
370
    25
100
AcDbLine
 10
943.6187170482
 20
252.0748509703
 30
0.0
 11
940.6187170482
 21
252.0748509703
 31
0.0
  0
LINE
  5
187
330
1F
100
AcDbEntity
  8
0
  6
Continuous
 62
     7
370
    25
100
AcDbLine
 10
940.6187170482
 20
252.8748509703
 30
0.0
 11
943.6187170482
 21
252.8748509703
 31
0.0
  0
SPLINE
  5
188
330
1F
100
AcDbEntity
  8
0
  6
Continuous
 62
     7
370
    25
100
AcDbSpline
210
0.0
220
0.0
230
1.0
 70
     8
 71
     3
 72
    12
 73
     8
 74
     0
 42
0.000000001
 43
0.00000001
 40
0.0
 40
0.0
 40
0.0
 40
0.0
 40
0.4999999999999811
 40
0.4999999999999811
 40
0.7499999999999906
 40
0.7499999999999906
 40
1.0
 40
1.0
 40
1.0
 40
1.0
 10
983.1086504546375
 20
251.3844197729152
 30
0.0
 10
983.2991447440611
 20
251.6196795653582
 30
0.0
 10
983.4208191571234
 20
251.8584642582087
 30
0.0
 10
983.4214753476547
 20
252.2259557907658
 30
0.0
 10
983.3916413458602
 20
252.3483279854151
 30
0.0
 10
983.2827114757526
 20
252.5887116705746
 30
0.0
 10
983.2040162886898
 20
252.7074726176362
 30
0.0
 10
983.108650454637
 20
252.8252490947858
 30
0.0
  0
SPLINE
  5
189
330
1F
100
AcDbEntity
  8
0
  6
Continuous
 62
     7
370
    25
100
AcDbSpline
210
0.0
220
0.0
230
1.0
 70
     8
 71
     3
 72
    14
 73
    10
 74
     0
 42
0.000000001
 43
0.00000001
 40
0.0
 40
0.0
 40
0.0
 40
0.0
 40
0.25
 40
0.25
 40
0.5
 40
0.5
 40
0.75
 40
0.75
 40
1.0
 40
1.0
 40
1.0
 40
1.0
 10
983.1086504546366
 20
256.8156802922126
 30
0.0
 10
983.2035250639472
 20
256.491174062924
 30
0.0
 10
983.2831299888229
 20
256.1587148405296
 30
0.0
 10
983.3919666037172
 20
255.4921449256214
 30
0.0
 10
983.4212902094076
 20
255.1570686683461
 30
0.0
 10
983.421225427662
 20
254.4827251981184
 30
0.0
 10
983.3910692343356
 20
254.1409457774395
 30
0.0
 10
983.28148403297
 20
253.4745318578348
 30
0.0
 10
983.2029410591679
 20
253.1477578118821
 30
0.0
 10
983.1086504546366
 20
252.8252490947857
 30
0.0
  0
SPLINE
  5
18A
330
1F
100
AcDbEntity
  8
0
  6
Continuous
 62
     7
370
    25
100
AcDbSpline
210
0.0
220
0.0
230
1.0
 70
     8
 71
     3
 72
    12
 73
     8
 74
     0
 42
0.000000001
 43
0.00000001
 40
0.0
 40
0.0
 40
0.0
 40
0.0
 40
0.5000000000000009
 40
0.5000000000000009
 40
0.7500000000000004
 40
0.7500000000000004
 40
1.0
 40
1.0
 40
1.0
 40
1.0
 10
983.1086504546374
 20
256.8156802922125
 30
0.0
 10
983.299144744061
 20
257.231981375867
 30
0.0
 10
983.4208191571234
 20
257.6545199038555
 30
0.0
 10
983.4214753476547
 20
258.3048100433163
 30
0.0
 10
983.3916413458602
 20
258.5213522612307
 30
0.0
 10
983.2827114757526
 20
258.946720266471
 30
0.0
 10
983.2040162886898
 20
259.1568722454563
 30
0.0
 10
983.108650454637
 20
259.365282167769
 30
0.0
  0
LINE
  5
18B
330
1F
100
AcDbEntity
  8
0
  6
Continuous
 62
     7
370
    25
100
AcDbLine
 10
983.1086504546
 20
259.3652821678
 30
0.0
 11
983.2065254919
 21
259.1223774175
 31
0.0
  0
LINE
  5
18C
330
1F
100
AcDbEntity
  8
0
  6
Continuous
 62
     7
370
    25
100
AcDbLine
 10
983.62333044
 20
254.8759033212
 30
0.0
 11
983.62333044
 21
252.2248509703
 31
0.0
  0
LINE
  5
18D
330
1F
100
AcDbEntity
  8
0
  6
Continuous
 62
     7
370
    25
100
AcDbLine
 10
983.62333044
 20
258.5248509703
 30
0.0
 11
983.62333044
 21
254.8759033212
 31
0.0
  0
LINE
  5
18E
330
1F
100
AcDbEntity
  8
0
  6
Continuous
 62
     7
370
    25
100
AcDbLine
 10
982.52333044
 20
256.8156802922
 30
0.0
 11
983.1086504546
 21
256.8156802922
 31
0.0
  0
LINE
  5
18F
330
1F
100
AcDbEntity
  8
0
  6
Continuous
 62
     7
370
    25
100
AcDbLine
 10
982.52333044
 20
252.8252490948
 30
0.0
 11
983.1086504546
 21
252.8252490948
 31
0.0
  0
LINE
  5
190
330
1F
100
AcDbEntity
  8
0
  6
Continuous
 62
     7
370
    25
100
AcDbLine
 10
982.52333044
 20
259.3652821678
 30
0.0
 11
983.1086504546
 21
259.3652821678
 31
0.0
  0
LINE
  5
191
330
1F
100
AcDbEntity
  8
0
  6
Continuous
 62
     7
370
    25
100
AcDbLine
 10
982.52333044
 20
251.3844197729
 30
0.0
 11
983.1086504546
 21
251.3844197729
 31
0.0
  0
LINE
  5
192
330
1F
100
AcDbEntity
  8
0
  6
Continuous
 62
     7
370
    25
100
AcDbLine
 10
986.32333044
 20
245.3748509703
 30
0.0
 11
986.32333044
 21
246.1748509703
 31
0.0
  0
LINE
  5
193
330
1F
100
AcDbEntity
  8
0
  6
Continuous
 62
     7
370
    25
100
AcDbLine
 10
990.62333044
 20
246.1748509703
 30
0.0
 11
986.32333044
 21
246.1748509703
 31
0.0
  0
LINE
  5
194
330
1F
100
AcDbEntity
  8
0
  6
Continuous
 62
     7
370
    25
100
AcDbLine
 10
990.62333044
 20
245.3748509703
 30
0.0
 11
986.32333044
 21
245.3748509703
 31
0.0
  0
LINE
  5
195
330
1F
100
AcDbEntity
  8
0
  6
Continuous
 62
     7
370
    25
100
AcDbLine
 10
991.07333044
 20
263.6748509703
 30
0.0
 11
996.22333044
 21
263.6748509703
 31
0.0
  0
LINE
  5
196
330
1F
100
AcDbEntity
  8
0
  6
Continuous
 62
     7
370
    25
100
AcDbLine
 10
991.07333044
 20
264.4748509703
 30
0.0
 11
991.07333044
 21
263.6748509703
 31
0.0
  0
LINE
  5
197
330
1F
100
AcDbEntity
  8
0
  6
Continuous
 62
     7
370
    25
100
AcDbLine
 10
991.07333044
 20
264.4748509703
 30
0.0
 11
996.22333044
 21
264.4748509703
 31
0.0
  0
LINE
  5
198
330
1F
100
AcDbEntity
  8
0
  6
Continuous
 62
     7
370
    25
100
AcDbLine
 10
996.22333044
 20
264.4748509703
 30
0.0
 11
996.22333044
 21
264.5748509703
 31
0.0
  0
LINE
  5
199
330
1F
100
AcDbEntity
  8
0
  6
Continuous
 62
     7
370
    25
100
AcDbLine
 10
986.32333044
 20
264.5748509703
 30
0.0
 11
996.22333044
 21
264.5748509703
 31
0.0
  0
LINE
  5
19A
330
1F
100
AcDbEntity
  8
0
  6
Continuous
 62
     7
370
    25
100
AcDbLine
 10
986.32333044
 20
264.5748509703
 30
0.0
 11
986.32333044
 21
265.3748509703
 31
0.0
  0
LINE
  5
19B
330
1F
100
AcDbEntity
  8
0
  6
Continuous
 62
     7
370
    25
100
AcDbLine
 10
996.22333044
 20
265.3748509703
 30
0.0
 11
986.32333044
 21
265.3748509703
 31
0.0
  0
ARC
  5
19C
330
1F
100
AcDbEntity
  8
0
  6
Continuous
 62
     7
370
    25
100
AcDbCircle
 10
996.22333044
 20
264.5248509703
 30
0.0
 40
0.8500000000000227
100
AcDbArc
 50
270.0
 51
90.0
  0
ARC
  5
19D
330
1F
100
AcDbEntity
  8
0
  6
Continuous
 62
     7
370
    25
100
AcDbCircle
 10
986.32333044
 20
263.5748509703
 30
0.0
 40
1.799999999999955
100
AcDbArc
 50
90.0
 51
180.0
  0
ARC
  5
19E
330
1F
100
AcDbEntity
  8
0
  6
Continuous
 62
     7
370
    25
100
AcDbCircle
 10
986.32333044
 20
263.5748509703
 30
0.0
 40
1.0
100
AcDbArc
 50
90.0
 51
180.0
  0
LINE
  5
19F
330
1F
100
AcDbEntity
  8
0
  6
Continuous
 62
     7
370
    25
100
AcDbLine
 10
984.52333044
 20
247.1748509703
 30
0.0
 11
984.52333044
 21
263.5748509703
 31
0.0
  0
LINE
  5
1A0
330
1F
100
AcDbEntity
  8
0
  6
Continuous
 62
     7
370
    25
100
AcDbLine
 10
985.32333044
 20
263.5748509703
 30
0.0
 11
985.32333044
 21
247.1748509703
 31
0.0
  0
ARC
  5
1A1
330
1F
100
AcDbEntity
  8
0
  6
Continuous
 62
     7
370
    25
100
AcDbCircle
 10
986.32333044
 20
247.1748509703
 30
0.0
 40
1.800000000000239
100
AcDbArc
 50
180.0
 51
270.0
  0
ARC
  5
1A2
330
1F
100
AcDbEntity
  8
0
  6
Continuous
 62
     7
370
    25
100
AcDbCircle
 10
986.32333044
 20
247.1748509703
 30
0.0
 40
1.000000000000114
100
AcDbArc
 50
180.0
 51
270.0
  0
CIRCLE
  5
1A3
330
1F
100
AcDbEntity
  8
0
  6
Continuous
 62
     7
370
    25
100
AcDbCircle
 10
972.02333044
 20
255.3748509703
 30
0.0
 40
2.458750000016599
  0
CIRCLE
  5
1A4
330
1F
100
AcDbEntity
  8
0
  6
Continuous
 62
     7
370
    25
100
AcDbCircle
 10
972.02333044
 20
255.3748509703
 30
0.0
 40
3.000000000000015
  0
LINE
  5
1A5
330
1F
100
AcDbEntity
  8
0
  6
Continuous
 62
     7
370
    25
100
AcDbLine
 10
987.32333044
 20
259.3243535864
 30
0.0
 11
987.32333044
 21
259.3748509703
 31
0.0
  0
LINE
  5
1A6
330
1F
100
AcDbEntity
  8
0
  6
Continuous
 62
     7
370
    25
100
AcDbLine
 10
987.32333044
 20
251.3748509703
 30
0.0
 11
987.32333044
 21
259.3243535864
 31
0.0
  0
ARC
  5
1A7
330
1F
100
AcDbEntity
  8
0
  6
Continuous
 62
     7
370
    25
100
AcDbCircle
 10
980.5863505423
 20
255.2789129505
 30
0.0
 40
7.786288415113675
100
AcDbArc
 50
4.3702527064
 51
15.2299003794
  0
ARC
  5
1A8
330
1F
100
AcDbEntity
  8
0
  6
Continuous
 62
     7
370
    25
100
AcDbCircle
 10
987.8256070059
 20
256.1853665528
 30
0.0
 40
0.610767535009335
100
AcDbArc
 50
296.6101963367
 51
329.1575418587
  0
ARC
  5
1A9
330
1F
100
AcDbEntity
  8
0
  6
Continuous
 62
     7
370
    25
100
AcDbCircle
 10
979.0195448644
 20
255.0468694577
 30
0.0
 40
9.09894271026628
100
AcDbArc
 50
356.2668736478
 51
3.7331263522
  0
ARC
  5
1AA
330
1F
100
AcDbEntity
  8
0
  6
Continuous
 62
     7
370
    25
100
AcDbCircle
 10
987.8256070059
 20
255.000515768
 30
0.0
 40
0.6107675350093604
100
AcDbArc
 50
296.6101963367
 51
329.1575418586
  0
ARC
  5
1AB
330
1F
100
AcDbEntity
  8
0
  6
Continuous
 62
     7
370
    25
100
AcDbCircle
 10
980.5863505423
 20
255.2807136953
 30
0.0
 40
7.786288415112995
100
AcDbArc
 50
344.7700996206
 51
355.6297472936
  0
ARC
  5
1AC
330
1F
100
AcDbEntity
  8
0
  6
Continuous
 62
     7
370
    25
100
AcDbCircle
 10
987.9660966614
 20
253.3092485935
 30
0.0
 40
0.1522432420613383
100
AcDbArc
 50
330.9451665857
 51
359.1449116561
  0
LWPOLYLINE
  5
1AD
330
1F
100
AcDbEntity
  8
0
  6
Continuous
 62
     7
370
    25
100
AcDbPolyline
 90
        3
 70
   128
 43
0.0
 10
988.3499999303
 20
254.8774632254
 10
988.3337750816
 20
254.6937648966
 10
988.3331329386
 20
254.6873879305
  0
ARC
  5
1AE
330
1F
100
AcDbEntity
  8
0
  6
Continuous
 62
     7
370
    25
100
AcDbCircle
 10
987.8256070059
 20
254.5643353879
 30
0.0
 40
0.6107675350090045
100
AcDbArc
 50
30.8424581413
 51
63.3898036633
  0
ARC
  5
1AF
330
1F
100
AcDbEntity
  8
0
  6
Continuous
 62
     7
370
    25
100
AcDbCircle
 10
978.9426730854
 20
255.7058483392
 30
0.0
 40
9.175815042713076
100
AcDbArc
 50
357.9327321269
 51
359.6562101045
  0
ARC
  5
1B0
330
1F
100
AcDbEntity
  8
0
  6
Continuous
 62
     7
370
    25
100
AcDbCircle
 10
980.5863505423
 20
255.4689882454
 30
0.0
 40
7.786288415114817
100
AcDbArc
 50
4.3702527065
 51
15.2299003794
  0
ARC
  5
1B1
330
1F
100
AcDbEntity
  8
0
  6
Continuous
 62
     7
370
    25
100
AcDbCircle
 10
987.878058875
 20
257.4193520867
 30
0.0
 40
0.2406805056727235
100
AcDbArc
 50
336.7420981705
 51
23.2579018295
  0
LINE
  5
1B2
330
1F
100
AcDbEntity
  8
0
  6
Continuous
 62
     7
370
    25
100
AcDbLine
 10
988.3499999303
 20
254.6873879305
 30
0.0
 11
988.1114442724
 21
254.6873879305
 31
0.0
  0
LINE
  5
1B3
330
1F
100
AcDbEntity
  8
0
  6
Continuous
 62
     7
370
    25
100
AcDbLine
 10
988.3499999303
 20
256.0623140102
 30
0.0
 11
988.3331329386
 21
256.0623140102
 31
0.0
  0
LINE
  5
1B4
330
1F
100
AcDbEntity
  8
0
  6
Continuous
 62
     7
370
    25
100
AcDbLine
 10
988.3499999303
 20
254.8774632254
 30
0.0
 11
988.1169496139
 21
254.8774632254
 31
0.0
  0
LINE
  5
1B5
330
1F
100
AcDbEntity
  8
0
  6
Continuous
 62
     7
370
    25
100
AcDbLine
 10
978.12333044
 20
214.6886963293
 30
0.0
 11
966.12333044
 21
214.6886963293
 31
0.0
  0
LINE
  5
1B6
330
1F
100
AcDbEntity
  8
0
  6
Continuous
 62
     7
370
    25
100
AcDbLine
 10
978.12333044
 20
214.0046560426
 30
0.0
 11
966.12333044
 21
214.0046560426
 31
0.0
  0
ARC
  5
1B7
330
1F
100
AcDbEntity
  8
0
  6
Continuous
 62
     7
370
    25
100
AcDbCircle
 10
966.0648415508
 20
216.6303241467
 30
0.0
 40
1.942508566655356
100
AcDbArc
 50
181.8362067977
 51
271.7254354149
  0
LINE
  5
1B8
330
1F
100
AcDbEntity
  8
0
  6
Continuous
 62
     7
370
    25
100
AcDbLine
 10
964.12333044
 20
216.5680815709
 30
0.0
 11
964.12333044
 21
221.7091578077
 31
0.0
  0
LINE
  5
1B9
330
1F
100
AcDbEntity
  8
0
  6
Continuous
 62
     7
370
    25
100
AcDbLine
 10
980.12333044
 20
221.7091578077
 30
0.0
 11
980.12333044
 21
216.5680815709
 31
0.0
  0
ARC
  5
1BA
330
1F
100
AcDbEntity
  8
0
  6
Continuous
 62
     7
370
    25
100
AcDbCircle
 10
978.1818193292
 20
216.6303241467
 30
0.0
 40
1.94250856665519
100
AcDbArc
 50
268.2745645851
 51
358.1637932023
  0
LINE
  5
1BB
330
1F
100
AcDbEntity
  8
0
  6
Continuous
 62
     7
370
    25
100
AcDbLine
 10
964.12333044
 20
215.8840412842
 30
0.0
 11
964.12333044
 21
216.5680815709
 31
0.0
  0
ARC
  5
1BC
330
1F
100
AcDbEntity
  8
0
  6
Continuous
 62
     7
370
    25
100
AcDbCircle
 10
966.0648415508
 20
215.9462838601
 30
0.0
 40
1.942508566655358
100
AcDbArc
 50
181.8362067977
 51
271.7254354149
  0
LINE
  5
1BD
330
1F
100
AcDbEntity
  8
0
  6
Continuous
 62
     7
370
    25
100
AcDbLine
 10
980.12333044
 20
216.5680815709
 30
0.0
 11
980.12333044
 21
215.8840412842
 31
0.0
  0
ARC
  5
1BE
330
1F
100
AcDbEntity
  8
0
  6
Continuous
 62
     7
370
    25
100
AcDbCircle
 10
978.1818193292
 20
215.9462838601
 30
0.0
 40
1.942508566655218
100
AcDbArc
 50
268.2745645851
 51
358.1637932023
  0
LINE
  5
1BF
330
1F
100
AcDbEntity
  8
0
  6
Continuous
 62
     7
370
    25
100
AcDbLine
 10
980.12333044
 20
221.7091578077
 30
0.0
 11
980.12333044
 21
222.051177951
 31
0.0
  0
LINE
  5
1C0
330
1F
100
AcDbEntity
  8
0
  6
Continuous
 62
     7
370
    25
100
AcDbLine
 10
964.12333044
 20
222.051177951
 30
0.0
 11
964.12333044
 21
221.7091578077
 31
0.0
  0
LINE
  5
1C1
330
1F
100
AcDbEntity
  8
0
  6
Continuous
 62
     7
370
    25
100
AcDbLine
 10
980.12333044
 20
221.8748509703
 30
0.0
 11
990.62333044
 21
221.8748509703
 31
0.0
  0
LINE
  5
1C2
330
1F
100
AcDbEntity
  8
0
  6
Continuous
 62
     7
370
    25
100
AcDbLine
 10
964.12333044
 20
234.8748509703
 30
0.0
 11
964.12333044
 21
222.051177951
 31
0.0
  0
LINE
  5
1C3
330
1F
100
AcDbEntity
  8
0
  6
Continuous
 62
     7
370
    25
100
AcDbLine
 10
990.62333044
 20
236.8748509703
 30
0.0
 11
966.12333044
 21
236.8748509703
 31
0.0
  0
CIRCLE
  5
1C4
330
1F
100
AcDbEntity
  8
0
  6
Continuous
 62
     7
370
    25
100
AcDbCircle
 10
972.02333044
 20
229.3748509703
 30
0.0
 40
3.500000000000114
  0
ARC
  5
1C5
330
1F
100
AcDbEntity
  8
0
  6
Continuous
 62
     7
370
    25
100
AcDbCircle
 10
966.12333044
 20
234.8748509703
 30
0.0
 40
2.0
100
AcDbArc
 50
90.0
 51
180.0
  0
CIRCLE
  5
1C6
330
1F
100
AcDbEntity
  8
0
  6
Continuous
 62
     7
370
    25
100
AcDbCircle
 10
972.02333044
 20
280.3748509703
 30
0.0
 40
2.458750000016599
  0
CIRCLE
  5
1C7
330
1F
100
AcDbEntity
  8
0
  6
Continuous
 62
     7
370
    25
100
AcDbCircle
 10
972.02333044
 20
280.3748509703
 30
0.0
 40
3.000000000000117
  0
CIRCLE
  5
1C8
330
1F
100
AcDbEntity
  8
0
  6
Continuous
 62
     7
370
    25
100
AcDbCircle
 10
972.02333044
 20
229.3748509703
 30
0.0
 40
2.458750000016599
  0
CIRCLE
  5
1C9
330
1F
100
AcDbEntity
  8
0
  6
Continuous
 62
     7
370
    25
100
AcDbCircle
 10
972.02333044
 20
229.3748509703
 30
0.0
 40
2.999999999999912
  0
LINE
  5
1CA
330
1F
100
AcDbEntity
  8
0
  6
Continuous
 62
     7
370
    25
100
AcDbLine
 10
-23.4027615204
 20
398.3200529832
 30
0.0
 11
-22.9027615204
 21
398.8200529832
 31
0.0
  0
LINE
  5
1CB
330
1F
100
AcDbEntity
  8
0
  6
Continuous
 62
     7
370
    25
100
AcDbLine
 10
-22.9027615204
 20
398.8200529832
 30
0.0
 11
-22.9027615204
 21
402.8200529832
 31
0.0
  0
LINE
  5
1CC
330
1F
100
AcDbEntity
  8
0
  6
Continuous
 62
     7
370
    25
100
AcDbLine
 10
-28.6323062047
 20
398.8200529832
 30
0.0
 11
-28.1323062047
 21
398.3200529832
 31
0.0
  0
LINE
  5
1CD
330
1F
100
AcDbEntity
  8
0
  6
Continuous
 62
     7
370
    25
100
AcDbLine
 10
-28.6323062047
 20
402.8200529832
 30
0.0
 11
-28.6323062047
 21
398.8200529832
 31
0.0
  0
LINE
  5
1CE
330
1F
100
AcDbEntity
  8
0
  6
Continuous
 62
     7
370
    25
100
AcDbLine
 10
854.3909008194
 20
398.8200529832
 30
0.0
 11
854.8909008194
 21
398.3200529832
 31
0.0
  0
LINE
  5
1CF
330
1F
100
AcDbEntity
  8
0
  6
Continuous
 62
     7
370
    25
100
AcDbLine
 10
854.3909008194
 20
402.8200529832
 30
0.0
 11
854.3909008194
 21
398.8200529832
 31
0.0
  0
LINE
  5
1D0
330
1F
100
AcDbEntity
  8
0
  6
Continuous
 62
     7
370
    25
100
AcDbLine
 10
859.6229310435
 20
398.3200529832
 30
0.0
 11
860.1229310435
 21
398.8200529832
 31
0.0
  0
LINE
  5
1D1
330
1F
100
AcDbEntity
  8
0
  6
Continuous
 62
     7
370
    25
100
AcDbLine
 10
860.1229310435
 20
398.8200529832
 30
0.0
 11
860.1229310435
 21
402.8200529832
 31
0.0
  0
LINE
  5
1D2
330
1F
100
AcDbEntity
  8
0
  6
Continuous
 62
     7
370
    25
100
AcDbLine
 10
877.4181035338
 20
387.7200529832
 30
0.0
 11
877.2181035338
 21
387.7200529832
 31
0.0
  0
LINE
  5
1D3
330
1F
100
AcDbEntity
  8
0
  6
Continuous
 62
     7
370
    25
100
AcDbLine
 10
877.2181035338
 20
381.7200529832
 30
0.0
 11
877.4181035338
 21
381.7200529832
 31
0.0
  0
LINE
  5
1D4
330
1F
100
AcDbEntity
  8
0
  6
Continuous
 62
     7
370
    25
100
AcDbLine
 10
877.4181035338
 20
381.7200529832
 30
0.0
 11
877.9593535338
 21
382.2613029832
 31
0.0
  0
LINE
  5
1D5
330
1F
100
AcDbEntity
  8
0
  6
Continuous
 62
     7
370
    25
100
AcDbLine
 10
877.9593535338
 20
387.1788029833
 30
0.0
 11
877.4181035338
 21
387.7200529832
 31
0.0
  0
LINE
  5
1D6
330
1F
100
AcDbEntity
  8
0
  6
Continuous
 62
     7
370
    25
100
AcDbLine
 10
-45.8993964662
 20
387.7200529833
 30
0.0
 11
-46.4406464662
 21
387.1788029833
 31
0.0
  0
LINE
  5
1D7
330
1F
100
AcDbEntity
  8
0
  6
Continuous
 62
     7
370
    25
100
AcDbLine
 10
-46.4406464662
 20
382.2613029832
 30
0.0
 11
-45.8993964662
 21
381.7200529832
 31
0.0
  0
LINE
  5
1D8
330
1F
100
AcDbEntity
  8
0
  6
Continuous
 62
     7
370
    25
100
AcDbLine
 10
-45.8993964662
 20
381.7200529832
 30
0.0
 11
-45.6993964662
 21
381.7200529832
 31
0.0
  0
LINE
  5
1D9
330
1F
100
AcDbEntity
  8
0
  6
Continuous
 62
     7
370
    25
100
AcDbLine
 10
-45.6993964662
 20
387.7200529832
 30
0.0
 11
-45.8993964662
 21
387.7200529832
 31
0.0
  0
ARC
  5
1DA
330
1F
100
AcDbEntity
  8
0
  6
Continuous
 62
     7
370
    25
100
AcDbCircle
 10
867.2593535338
 20
378.9200529831
 30
0.0
 40
0.5000000000001137
100
AcDbArc
 50
180.0
 51
0.0
  0
ARC
  5
1DB
330
1F
100
AcDbEntity
  8
0
  6
Continuous
 62
     7
370
    25
100
AcDbCircle
 10
867.2593535338
 20
390.5200529833
 30
0.0
 40
0.5
100
AcDbArc
 50
0.0
 51
180.0
  0
LINE
  5
1DC
330
1F
100
AcDbEntity
  8
0
  6
Continuous
 62
     7
370
    25
100
AcDbLine
 10
862.986934971
 20
390.1142355953
 30
0.0
 11
862.7593535338
 21
389.7200529832
 31
0.0
  0
LINE
  5
1DD
330
1F
100
AcDbEntity
  8
0
  6
Continuous
 62
     7
370
    25
100
AcDbLine
 10
877.2181035338
 20
381.7200529832
 30
0.0
 11
877.7593535338
 21
382.2613029832
 31
0.0
  0
LINE
  5
1DE
330
1F
100
AcDbEntity
  8
0
  6
Continuous
 62
     7
370
    25
100
AcDbLine
 10
877.7593535338
 20
387.1788029833
 30
0.0
 11
877.2181035338
 21
387.7200529832
 31
0.0
  0
LINE
  5
1DF
330
1F
100
AcDbEntity
  8
0
  6
Continuous
 62
     7
370
    25
100
AcDbLine
 10
877.2181035338
 20
387.7200529832
 30
0.0
 11
872.374899922
 21
387.7200529832
 31
0.0
  0
LINE
  5
1E0
330
1F
100
AcDbEntity
  8
0
  6
Continuous
 62
     7
370
    25
100
AcDbLine
 10
872.374899922
 20
381.7200529832
 30
0.0
 11
877.2181035338
 21
381.7200529832
 31
0.0
  0
LINE
  5
1E1
330
1F
100
AcDbEntity
  8
0
  6
Continuous
 62
     7
370
    25
100
AcDbLine
 10
862.7593535338
 20
379.7200529832
 30
0.0
 11
862.986934971
 21
379.3258703712
 31
0.0
  0
LINE
  5
1E2
330
1F
100
AcDbEntity
  8
0
  6
Continuous
 62
     7
370
    25
100
AcDbLine
 10
-44.7406464662
 20
407.9200529832
 30
0.0
 11
-38.7406464662
 21
407.9200529832
 31
0.0
  0
LINE
  5
1E3
330
1F
100
AcDbEntity
  8
0
  6
Continuous
 62
     7
370
    25
100
AcDbLine
 10
-38.7406464662
 20
407.9200529832
 30
0.0
 11
-35.8012587749
 21
407.9200529832
 31
0.0
  0
LINE
  5
1E4
330
1F
100
AcDbEntity
  8
0
  6
Continuous
 62
     7
370
    25
100
AcDbLine
 10
867.3199658425
 20
407.9200529832
 30
0.0
 11
870.2593535338
 21
407.9200529832
 31
0.0
  0
LINE
  5
1E5
330
1F
100
AcDbEntity
  8
0
  6
Continuous
 62
     7
370
    25
100
AcDbLine
 10
870.2593535338
 20
407.9200529832
 30
0.0
 11
876.2593535338
 21
407.9200529832
 31
0.0
  0
ARC
  5
1E6
330
1F
100
AcDbEntity
  8
0
  6
Continuous
 62
     7
370
    25
100
AcDbCircle
 10
-35.7406464662
 20
390.5200529833
 30
0.0
 40
0.5
100
AcDbArc
 50
0.0
 51
180.0
  0
ARC
  5
1E7
330
1F
100
AcDbEntity
  8
0
  6
Continuous
 62
     7
370
    25
100
AcDbCircle
 10
-35.7406464662
 20
378.9200529831
 30
0.0
 40
0.5
100
AcDbArc
 50
180.0
 51
0.0
  0
LINE
  5
1E8
330
1F
100
AcDbEntity
  8
0
  6
Continuous
 62
     7
370
    25
100
AcDbLine
 10
-45.6993964662
 20
381.7200529832
 30
0.0
 11
-40.8561928544
 21
381.7200529832
 31
0.0
  0
LINE
  5
1E9
330
1F
100
AcDbEntity
  8
0
  6
Continuous
 62
     7
370
    25
100
AcDbLine
 10
-40.8561928544
 20
387.7200529832
 30
0.0
 11
-45.6993964662
 21
387.7200529832
 31
0.0
  0
LINE
  5
1EA
330
1F
100
AcDbEntity
  8
0
  6
Continuous
 62
     7
370
    25
100
AcDbLine
 10
-45.6993964662
 20
387.7200529832
 30
0.0
 11
-46.2406464662
 21
387.1788029833
 31
0.0
  0
LINE
  5
1EB
330
1F
100
AcDbEntity
  8
0
  6
Continuous
 62
     7
370
    25
100
AcDbLine
 10
-46.2406464662
 20
382.2613029832
 30
0.0
 11
-45.6993964662
 21
381.7200529832
 31
0.0
  0
LINE
  5
1EC
330
1F
100
AcDbEntity
  8
0
  6
Continuous
 62
     7
370
    25
100
AcDbLine
 10
-31.2406464662
 20
389.7200529832
 30
0.0
 11
-31.570129562
 21
390.2907344453
 31
0.0
  0
LINE
  5
1ED
330
1F
100
AcDbEntity
  8
0
  6
Continuous
 62
     7
370
    25
100
AcDbLine
 10
-31.570129562
 20
379.1493715212
 30
0.0
 11
-31.2406464662
 21
379.7200529832
 31
0.0
  0
ARC
  5
1EE
330
1F
100
AcDbEntity
  8
0
  6
Continuous
 62
     7
370
    25
100
AcDbCircle
 10
-38.7406464662
 20
407.3200529832
 30
0.0
 40
3.000000000000114
100
AcDbArc
 50
0.0
 51
90.0
  0
LINE
  5
1EF
330
1F
100
AcDbEntity
  8
0
  6
Continuous
 62
     7
370
    25
100
AcDbLine
 10
-50.7406464662
 20
410.3200529832
 30
0.0
 11
-38.7406464662
 21
410.3200529832
 31
0.0
  0
ARC
  5
1F0
330
1F
100
AcDbEntity
  8
0
  6
Continuous
 62
     7
370
    25
100
AcDbCircle
 10
-50.7406464662
 20
407.3200529832
 30
0.0
 40
3.000000000000114
100
AcDbArc
 50
90.0
 51
180.0
  0
LINE
  5
1F1
330
1F
100
AcDbEntity
  8
0
  6
Continuous
 62
     7
370
    25
100
AcDbLine
 10
-53.7406464662
 20
406.3200529832
 30
0.0
 11
-53.7406464662
 21
407.3200529832
 31
0.0
  0
ARC
  5
1F2
330
1F
100
AcDbEntity
  8
0
  6
Continuous
 62
     7
370
    25
100
AcDbCircle
 10
-56.7406464662
 20
406.3200529832
 30
0.0
 40
3.0
100
AcDbArc
 50
270.0
 51
0.0
  0
LINE
  5
1F3
330
1F
100
AcDbEntity
  8
0
  6
Continuous
 62
     7
370
    25
100
AcDbLine
 10
911.7886428557
 20
412.9200529832
 30
0.0
 11
911.7886428557
 21
403.3200529832
 31
0.0
  0
LINE
  5
1F4
330
1F
100
AcDbEntity
  8
0
  6
Continuous
 62
     7
370
    25
100
AcDbLine
 10
888.2593535338
 20
403.3200529832
 30
0.0
 11
911.7886428557
 21
403.3200529832
 31
0.0
  0
ARC
  5
1F5
330
1F
100
AcDbEntity
  8
0
  6
Continuous
 62
     7
370
    25
100
AcDbCircle
 10
888.2593535338
 20
406.3200529832
 30
0.0
 40
3.0
100
AcDbArc
 50
180.0
 51
270.0
  0
LINE
  5
1F6
330
1F
100
AcDbEntity
  8
0
  6
Continuous
 62
     7
370
    25
100
AcDbLine
 10
885.2593535338
 20
406.3200529832
 30
0.0
 11
885.2593535338
 21
407.3200529832
 31
0.0
  0
ARC
  5
1F7
330
1F
100
AcDbEntity
  8
0
  6
Continuous
 62
     7
370
    25
100
AcDbCircle
 10
882.2593535338
 20
407.3200529832
 30
0.0
 40
3.000000000000114
100
AcDbArc
 50
0.0
 51
90.0
  0
LINE
  5
1F8
330
1F
100
AcDbEntity
  8
0
  6
Continuous
 62
     7
370
    25
100
AcDbLine
 10
882.2593535338
 20
410.3200529832
 30
0.0
 11
870.2593535338
 21
410.3200529832
 31
0.0
  0
ARC
  5
1F9
330
1F
100
AcDbEntity
  8
0
  6
Continuous
 62
     7
370
    25
100
AcDbCircle
 10
870.2593535338
 20
407.3200529832
 30
0.0
 40
3.000000000000114
100
AcDbArc
 50
90.0
 51
180.0
  0
LINE
  5
1FA
330
1F
100
AcDbEntity
  8
0
  6
Continuous
 62
     7
370
    25
100
AcDbLine
 10
867.2593535338
 20
406.3200529832
 30
0.0
 11
867.2593535338
 21
407.3200529832
 31
0.0
  0
ARC
  5
1FB
330
1F
100
AcDbEntity
  8
0
  6
Continuous
 62
     7
370
    25
100
AcDbCircle
 10
864.2593535338
 20
406.3200529832
 30
0.0
 40
3.0
100
AcDbArc
 50
270.0
 51
0.0
  0
LINE
  5
1FC
330
1F
100
AcDbEntity
  8
0
  6
Continuous
 62
     7
370
    25
100
AcDbLine
 10
-32.7406464662
 20
403.3200529832
 30
0.0
 11
864.2593535338
 21
403.3200529832
 31
0.0
  0
ARC
  5
1FD
330
1F
100
AcDbEntity
  8
0
  6
Continuous
 62
     7
370
    25
100
AcDbCircle
 10
-32.7406464662
 20
406.3200529832
 30
0.0
 40
3.000000000000007
100
AcDbArc
 50
180.0
 51
270.0
  0
LINE
  5
1FE
330
1F
100
AcDbEntity
  8
0
  6
Continuous
 62
     7
370
    25
100
AcDbLine
 10
-35.7406464662
 20
406.3200529832
 30
0.0
 11
-35.7406464662
 21
407.3200529832
 31
0.0
  0
LINE
  5
1FF
330
1F
100
AcDbEntity
  8
0
  6
Continuous
 62
     7
370
    25
100
AcDbLine
 10
-80.2699357881
 20
412.9200529832
 30
0.0
 11
-80.2699357881
 21
403.3200529832
 31
0.0
  0
LINE
  5
200
330
1F
100
AcDbEntity
  8
0
  6
Continuous
 62
     7
370
    25
100
AcDbLine
 10
-80.2699357881
 20
403.3200529832
 30
0.0
 11
-56.7406464662
 21
403.3200529832
 31
0.0
  0
SPLINE
  5
201
330
1F
100
AcDbEntity
  8
0
  6
Continuous
 62
     7
370
    25
100
AcDbSpline
210
0.0
220
0.0
230
1.0
 70
     8
 71
     3
 72
    20
 73
    16
 74
     0
 42
0.000000001
 43
0.00000001
 40
0.0
 40
0.0
 40
0.0
 40
0.0
 40
0.1250000000000039
 40
0.1250000000000039
 40
0.2500000000000077
 40
0.2500000000000077
 40
0.3750000000000115
 40
0.3750000000000115
 40
0.5000000000000154
 40
0.5000000000000154
 40
0.7500000000000127
 40
0.7500000000000127
 40
0.8750000000000063
 40
0.8750000000000063
 40
1.0
 40
1.0
 40
1.0
 40
1.0
 10
910.8593535337914
 20
415.3200529832407
 30
0.0
 10
910.898394264646
 20
415.3200529832407
 30
0.0
 10
910.9369129688456
 20
415.3045164227659
 30
0.0
 10
911.0143197201531
 20
415.2431980708053
 30
0.0
 10
911.05346413814
 20
415.1967743252184
 30
0.0
 10
911.1306148920553
 20
415.0768234550644
 30
0.0
 10
911.1689424737963
 20
415.0032188107809
 30
0.0
 10
911.2464887942732
 20
414.8284884446853
 30
0.0
 10
911.2854650019417
 20
414.7276378157838
 30
0.0
 10
911.4009598583865
 20
414.3963525357998
 30
0.0
 10
911.4788723020567
 20
414.128672374416
 30
0.0
 10
911.5943522274576
 20
413.6959983483605
 30
0.0
 10
911.6332180233228
 20
413.5444802615094
 30
0.0
 10
911.7109923569913
 20
413.2350545041233
 30
0.0
 10
911.7496021239459
 20
413.0784321744295
 30
0.0
 10
911.7886428556726
 20
412.9200529832408
 30
0.0
  0
SPLINE
  5
202
330
1F
100
AcDbEntity
  8
0
  6
Continuous
 62
     7
370
    25
100
AcDbSpline
210
0.0
220
0.0
230
1.0
 70
     8
 71
     3
 72
    20
 73
    16
 74
     0
 42
0.000000001
 43
0.00000001
 40
0.0
 40
0.0
 40
0.0
 40
0.0
 40
0.124999999999998
 40
0.124999999999998
 40
0.2499999999999959
 40
0.2499999999999959
 40
0.3749999999999939
 40
0.3749999999999939
 40
0.4999999999999919
 40
0.4999999999999919
 40
0.7499999999999896
 40
0.7499999999999896
 40
0.8749999999999948
 40
0.8749999999999948
 40
1.0
 40
1.0
 40
1.0
 40
1.0
 10
-80.26993578808994
 20
412.9200529832407
 30
0.0
 10
-80.23089505723551
 20
413.0784321708915
 30
0.0
 10
-80.1923763530355
 20
413.2346778955832
 30
0.0
 10
-80.11496960172776
 20
413.5426697449998
 30
0.0
 10
-80.07582518374107
 20
413.6953138524709
 30
0.0
 10
-79.99867442982573
 20
413.9843981416579
 30
0.0
 10
-79.96034684808478
 20
414.1222026798419
 30
0.0
 10
-79.88280052760838
 20
414.3838213554808
 30
0.0
 10
-79.84382431993959
 20
414.5065676621635
 30
0.0
 10
-79.7283294634945
 20
414.8378920391111
 30
0.0
 10
-79.65041701982439
 20
415.0169031631394
 30
0.0
 10
-79.53493709442361
 20
415.1965182625203
 30
0.0
 10
-79.49607129855868
 20
415.242762611388
 30
0.0
 10
-79.41829696489022
 20
415.3045159173993
 30
0.0
 10
-79.37968719793543
 20
415.3200529832407
 30
0.0
 10
-79.3406464662087
 20
415.3200529832407
 30
0.0
  0
LINE
  5
203
330
1F
100
AcDbEntity
  8
0
  6
Continuous
 62
     7
370
    25
100
AcDbLine
 10
-79.3406464662
 20
415.3200529832
 30
0.0
 11
910.8593535338
 21
415.3200529832
 31
0.0
  0
SPLINE
  5
204
330
1F
100
AcDbEntity
  8
0
  6
Continuous
 62
     7
370
    25
100
AcDbSpline
210
0.0
220
0.0
230
1.0
 70
     8
 71
     3
 72
    20
 73
    16
 74
     0
 42
0.000000001
 43
0.00000001
 40
0.0
 40
0.0
 40
0.0
 40
0.0
 40
0.1250000000000001
 40
0.1250000000000001
 40
0.25
 40
0.25
 40
0.3749999999999999
 40
0.3749999999999999
 40
0.4999999999999998
 40
0.4999999999999998
 40
0.7500000000000002
 40
0.7500000000000002
 40
0.8750000000000001
 40
0.8750000000000001
 40
1.0
 40
1.0
 40
1.0
 40
1.0
 10
913.2593535337913
 20
412.9200529832407
 30
0.0
 10
913.2593535337913
 20
413.0784321708915
 30
0.0
 10
913.2438169733166
 20
413.2346778955832
 30
0.0
 10
913.1824986213558
 20
413.5426697449998
 30
0.0
 10
913.136074875769
 20
413.6953138524709
 30
0.0
 10
913.016124005615
 20
413.9843981416579
 30
0.0
 10
912.9425193613316
 20
414.122202679842
 30
0.0
 10
912.7677889952361
 20
414.3838213554809
 30
0.0
 10
912.6669383663341
 20
414.5065676621636
 30
0.0
 10
912.3356530863502
 20
414.8378920391112
 30
0.0
 10
912.0679729249665
 20
415.0169031631395
 30
0.0
 10
911.6352988989112
 20
415.1965182625203
 30
0.0
 10
911.48378081206
 20
415.2427626113881
 30
0.0
 10
911.1743550546738
 20
415.3045159173993
 30
0.0
 10
911.0177327249802
 20
415.3200529832408
 30
0.0
 10
910.8593535337914
 20
415.3200529832408
 30
0.0
  0
LINE
  5
205
330
1F
100
AcDbEntity
  8
0
  6
Continuous
 62
     7
370
    25
100
AcDbLine
 10
913.2593535338
 20
412.9200529832
 30
0.0
 11
911.8593535338
 21
412.9200529832
 31
0.0
  0
SPLINE
  5
206
330
1F
100
AcDbEntity
  8
0
  6
Continuous
 62
     7
370
    25
100
AcDbSpline
210
0.0
220
0.0
230
1.0
 70
     8
 71
     3
 72
     9
 73
     5
 74
     0
 42
0.000000001
 43
0.00000001
 40
0.0
 40
0.0
 40
0.0
 40
0.0
 40
0.6784508005723952
 40
1.0
 40
1.0
 40
1.0
 40
1.0
 10
911.8593535337914
 20
412.9200529832407
 30
0.0
 10
911.846103963327
 20
413.0707601876941
 30
0.0
 10
911.8265748088869
 20
413.2928945035887
 30
0.0
 10
911.6857271552476
 20
413.4597276084779
 30
0.0
 10
911.6404377049787
 20
413.513372659793
 30
0.0
  0
SPLINE
  5
207
330
1F
100
AcDbEntity
  8
0
  6
Continuous
 62
     7
370
    25
100
AcDbSpline
210
0.0
220
0.0
230
1.0
 70
     8
 71
     3
 72
    20
 73
    16
 74
     0
 42
0.000000001
 43
0.00000001
 40
0.0
 40
0.0
 40
0.0
 40
0.0
 40
0.1249999999999946
 40
0.1249999999999946
 40
0.2499999999999892
 40
0.2499999999999892
 40
0.3749999999999838
 40
0.3749999999999838
 40
0.4999999999999785
 40
0.4999999999999785
 40
0.7499999999999972
 40
0.7499999999999972
 40
0.8749999999999984
 40
0.8749999999999984
 40
1.0
 40
1.0
 40
1.0
 40
1.0
 10
-79.34064646620864
 20
415.3200529832408
 30
0.0
 10
-79.49902565385946
 20
415.3200529832408
 30
0.0
 10
-79.65527137855105
 20
415.3045164227659
 30
0.0
 10
-79.9632632279677
 20
415.2431980708053
 30
0.0
 10
-80.11590733543872
 20
415.1967743252184
 30
0.0
 10
-80.40499162462572
 20
415.0768234550644
 30
0.0
 10
-80.5427961628099
 20
415.0032188107809
 30
0.0
 10
-80.80441483844886
 20
414.8284884446853
 30
0.0
 10
-80.92716114513165
 20
414.7276378157838
 30
0.0
 10
-81.25848552207931
 20
414.3963525357998
 30
0.0
 10
-81.43749664610728
 20
414.1286723744159
 30
0.0
 10
-81.61711174548824
 20
413.6959983483605
 30
0.0
 10
-81.66335609435599
 20
413.5444802615094
 30
0.0
 10
-81.72510940036715
 20
413.2350545041233
 30
0.0
 10
-81.74064646620877
 20
413.0784321744295
 30
0.0
 10
-81.74064646620866
 20
412.9200529832407
 30
0.0
  0
SPLINE
  5
208
330
1F
100
AcDbEntity
  8
0
  6
Continuous
 62
     7
370
    25
100
AcDbSpline
210
0.0
220
0.0
230
1.0
 70
     8
 71
     3
 72
     9
 73
     5
 74
     0
 42
0.000000001
 43
0.00000001
 40
0.0
 40
0.0
 40
0.0
 40
0.0
 40
0.4825784287294741
 40
1.0
 40
1.0
 40
1.0
 40
1.0
 10
-80.11681669815496
 20
413.5325927224191
 30
0.0
 10
-80.18062489121641
 20
413.4444583811027
 30
0.0
 10
-80.31284835845575
 20
413.2618262200496
 30
0.0
 10
-80.33116766291226
 20
413.036593336005
 30
0.0
 10
-80.34064646620864
 20
412.9200529832407
 30
0.0
  0
LINE
  5
209
330
1F
100
AcDbEntity
  8
0
  6
Continuous
 62
     7
370
    25
100
AcDbLine
 10
-81.7406464662
 20
412.9200529832
 30
0.0
 11
-80.3406464662
 21
412.9200529832
 31
0.0
  0
LINE
  5
20A
330
1F
100
AcDbEntity
  8
0
  6
Continuous
 62
     7
370
    25
100
AcDbLine
 10
-80.3406464662
 20
412.9200529832
 30
0.0
 11
-80.3406464662
 21
403.3200529832
 31
0.0
  0
LINE
  5
20B
330
1F
100
AcDbEntity
  8
0
  6
Continuous
 62
     7
370
    25
100
AcDbLine
 10
-81.7406464662
 20
403.3200529832
 30
0.0
 11
-80.3406464662
 21
403.3200529832
 31
0.0
  0
LINE
  5
20C
330
1F
100
AcDbEntity
  8
0
  6
Continuous
 62
     7
370
    25
100
AcDbLine
 10
-81.7406464662
 20
412.9200529832
 30
0.0
 11
-81.7406464662
 21
403.3200529832
 31
0.0
  0
LINE
  5
20D
330
1F
100
AcDbEntity
  8
0
  6
Continuous
 62
     7
370
    25
100
AcDbLine
 10
911.8593535338
 20
412.9200529832
 30
0.0
 11
911.8593535338
 21
403.3200529832
 31
0.0
  0
LINE
  5
20E
330
1F
100
AcDbEntity
  8
0
  6
Continuous
 62
     7
370
    25
100
AcDbLine
 10
913.2593535338
 20
412.9200529832
 30
0.0
 11
913.2593535338
 21
403.3200529832
 31
0.0
  0
LINE
  5
20F
330
1F
100
AcDbEntity
  8
0
  6
Continuous
 62
     7
370
    25
100
AcDbLine
 10
913.2593535338
 20
403.3200529832
 30
0.0
 11
911.8593535338
 21
403.3200529832
 31
0.0
  0
LINE
  5
210
330
1F
100
AcDbEntity
  8
0
  6
Continuous
 62
     7
370
    25
100
AcDbLine
 10
-23.4027615204
 20
398.3200529832
 30
0.0
 11
-24.9834237093
 21
398.3200529832
 31
0.0
  0
LINE
  5
211
330
1F
100
AcDbEntity
  8
0
  6
Continuous
 62
     7
370
    25
100
AcDbLine
 10
-25.0103111056
 20
398.8200529832
 30
0.0
 11
-22.9027615204
 21
398.8200529832
 31
0.0
  0
LINE
  5
212
330
1F
100
AcDbEntity
  8
0
  6
Continuous
 62
     7
370
    25
100
AcDbLine
 10
-24.9834237093
 20
398.3200529832
 30
0.0
 11
-26.7129683936
 21
398.3200529832
 31
0.0
  0
LINE
  5
213
330
1F
100
AcDbEntity
  8
0
  6
Continuous
 62
     7
370
    25
100
AcDbLine
 10
-26.7398557899
 20
398.8200529832
 30
0.0
 11
-25.0103111056
 21
398.8200529832
 31
0.0
  0
LINE
  5
214
330
1F
100
AcDbEntity
  8
0
  6
Continuous
 62
     7
370
    25
100
AcDbLine
 10
-26.7129683936
 20
398.3200529832
 30
0.0
 11
-28.1323062047
 21
398.3200529832
 31
0.0
  0
LINE
  5
215
330
1F
100
AcDbEntity
  8
0
  6
Continuous
 62
     7
370
    25
100
AcDbLine
 10
-28.6323062047
 20
398.8200529832
 30
0.0
 11
-26.7398557899
 21
398.8200529832
 31
0.0
  0
LINE
  5
216
330
1F
100
AcDbEntity
  8
0
  6
Continuous
 62
     7
370
    25
100
AcDbLine
 10
858.5669078101
 20
398.3200529832
 30
0.0
 11
855.968862474
 21
398.3200529832
 31
0.0
  0
LINE
  5
217
330
1F
100
AcDbEntity
  8
0
  6
Continuous
 62
     7
370
    25
100
AcDbLine
 10
855.5370737191
 20
398.8200529832
 30
0.0
 11
859.0011341673
 21
398.8200529832
 31
0.0
  0
LINE
  5
218
330
1F
100
AcDbEntity
  8
0
  6
Continuous
 62
     7
370
    25
100
AcDbLine
 10
854.6637458
 20
398.8200529832
 30
0.0
 11
855.5370737191
 21
398.8200529832
 31
0.0
  0
LINE
  5
219
330
1F
100
AcDbEntity
  8
0
  6
Continuous
 62
     7
370
    25
100
AcDbLine
 10
855.968862474
 20
398.3200529832
 30
0.0
 11
855.0955345549
 21
398.3200529832
 31
0.0
  0
LINE
  5
21A
330
1F
100
AcDbEntity
  8
0
  6
Continuous
 62
     7
370
    25
100
AcDbLine
 10
859.0011341673
 20
398.8200529832
 30
0.0
 11
859.8598364723
 21
398.8200529832
 31
0.0
  0
LINE
  5
21B
330
1F
100
AcDbEntity
  8
0
  6
Continuous
 62
     7
370
    25
100
AcDbLine
 10
859.4256101151
 20
398.3200529832
 30
0.0
 11
858.5669078101
 21
398.3200529832
 31
0.0
  0
LINE
  5
21C
330
1F
100
AcDbEntity
  8
0
  6
Continuous
 62
     7
370
    25
100
AcDbLine
 10
854.3909008194
 20
398.8200529832
 30
0.0
 11
854.6637458
 21
398.8200529832
 31
0.0
  0
LINE
  5
21D
330
1F
100
AcDbEntity
  8
0
  6
Continuous
 62
     7
370
    25
100
AcDbLine
 10
855.0955345549
 20
398.3200529832
 30
0.0
 11
854.8909008194
 21
398.3200529832
 31
0.0
  0
LINE
  5
21E
330
1F
100
AcDbEntity
  8
0
  6
Continuous
 62
     7
370
    25
100
AcDbLine
 10
859.8598364723
 20
398.8200529832
 30
0.0
 11
860.1229310435
 21
398.8200529832
 31
0.0
  0
LINE
  5
21F
330
1F
100
AcDbEntity
  8
0
  6
Continuous
 62
     7
370
    25
100
AcDbLine
 10
859.6229310435
 20
398.3200529832
 30
0.0
 11
859.4256101151
 21
398.3200529832
 31
0.0
  0
LINE
  5
220
330
1F
100
AcDbEntity
  8
0
  6
Continuous
 62
     7
370
    25
100
AcDbLine
 10
865.7593535338
 20
395.2200529832
 30
0.0
 11
866.9593535338
 21
395.2200529832
 31
0.0
  0
LINE
  5
221
330
1F
100
AcDbEntity
  8
0
  6
Continuous
 62
     7
370
    25
100
AcDbLine
 10
866.9593535338
 20
376.2200529832
 30
0.0
 11
863.7593535338
 21
376.2200529832
 31
0.0
  0
LINE
  5
222
330
1F
100
AcDbEntity
  8
0
  6
Continuous
 62
     7
370
    25
100
AcDbLine
 10
863.7593535338
 20
376.2200529832
 30
0.0
 11
863.7593535338
 21
355.2200529832
 31
0.0
  0
ARC
  5
223
330
1F
100
AcDbEntity
  8
0
  6
Continuous
 62
     7
370
    25
100
AcDbCircle
 10
860.7593535338
 20
355.2200529832
 30
0.0
 40
3.000000000000114
100
AcDbArc
 50
270.0
 51
0.0
  0
LINE
  5
224
330
1F
100
AcDbEntity
  8
0
  6
Continuous
 62
     7
370
    25
100
AcDbLine
 10
860.7593535338
 20
352.2200529832
 30
0.0
 11
816.7593535338
 21
352.2200529832
 31
0.0
  0
ARC
  5
225
330
1F
100
AcDbEntity
  8
0
  6
Continuous
 62
     7
370
    25
100
AcDbCircle
 10
816.7593535338
 20
355.2200529832
 30
0.0
 40
3.0
100
AcDbArc
 50
180.0
 51
270.0
  0
LINE
  5
226
330
1F
100
AcDbEntity
  8
0
  6
Continuous
 62
     7
370
    25
100
AcDbLine
 10
813.7593535338
 20
355.2200529832
 30
0.0
 11
813.7593535338
 21
371.3500529832
 31
0.0
  0
LINE
  5
227
330
1F
100
AcDbEntity
  8
0
  6
Continuous
 62
     7
370
    25
100
AcDbLine
 10
813.7593535338
 20
371.3500529832
 30
0.0
 11
811.2593535338
 21
371.3500529832
 31
0.0
  0
LINE
  5
228
330
1F
100
AcDbEntity
  8
0
  6
Continuous
 62
     7
370
    25
100
AcDbLine
 10
811.2593535338
 20
370.8580021757
 30
0.0
 11
811.2593535338
 21
371.3500529832
 31
0.0
  0
LINE
  5
229
330
1F
100
AcDbEntity
  8
0
  6
Continuous
 62
     7
370
    25
100
AcDbLine
 10
611.2593535338
 20
370.8580021757
 30
0.0
 11
611.2593535338
 21
371.3500529832
 31
0.0
  0
LINE
  5
22A
330
1F
100
AcDbEntity
  8
0
  6
Continuous
 62
     7
370
    25
100
AcDbLine
 10
611.2593535338
 20
371.3500529832
 30
0.0
 11
608.7593535338
 21
371.3500529832
 31
0.0
  0
LINE
  5
22B
330
1F
100
AcDbEntity
  8
0
  6
Continuous
 62
     7
370
    25
100
AcDbLine
 10
608.7593535338
 20
371.3500529832
 30
0.0
 11
608.7593535338
 21
355.2200529832
 31
0.0
  0
ARC
  5
22C
330
1F
100
AcDbEntity
  8
0
  6
Continuous
 62
     7
370
    25
100
AcDbCircle
 10
605.7593535338
 20
355.2200529832
 30
0.0
 40
3.0
100
AcDbArc
 50
270.0
 51
0.0
  0
LINE
  5
22D
330
1F
100
AcDbEntity
  8
0
  6
Continuous
 62
     7
370
    25
100
AcDbLine
 10
605.7593535338
 20
352.2200529832
 30
0.0
 11
521.2593535338
 21
352.2200529832
 31
0.0
  0
ARC
  5
22E
330
1F
100
AcDbEntity
  8
0
  6
Continuous
 62
     7
370
    25
100
AcDbCircle
 10
521.2593535338
 20
355.2200529832
 30
0.0
 40
3.0
100
AcDbArc
 50
180.0
 51
270.0
  0
LINE
  5
22F
330
1F
100
AcDbEntity
  8
0
  6
Continuous
 62
     7
370
    25
100
AcDbLine
 10
518.2593535338
 20
355.2200529832
 30
0.0
 11
518.2593535338
 21
371.3500529832
 31
0.0
  0
LINE
  5
230
330
1F
100
AcDbEntity
  8
0
  6
Continuous
 62
     7
370
    25
100
AcDbLine
 10
518.2593535338
 20
371.3500529832
 30
0.0
 11
515.7593535338
 21
371.3500529832
 31
0.0
  0
LINE
  5
231
330
1F
100
AcDbEntity
  8
0
  6
Continuous
 62
     7
370
    25
100
AcDbLine
 10
515.7593535338
 20
370.8580021757
 30
0.0
 11
515.7593535338
 21
371.3500529832
 31
0.0
  0
LINE
  5
232
330
1F
100
AcDbEntity
  8
0
  6
Continuous
 62
     7
370
    25
100
AcDbLine
 10
315.7593535338
 20
370.8580021757
 30
0.0
 11
315.7593535338
 21
371.3500529832
 31
0.0
  0
LINE
  5
233
330
1F
100
AcDbEntity
  8
0
  6
Continuous
 62
     7
370
    25
100
AcDbLine
 10
315.7593535338
 20
371.3500529832
 30
0.0
 11
313.2593535338
 21
371.3500529832
 31
0.0
  0
LINE
  5
234
330
1F
100
AcDbEntity
  8
0
  6
Continuous
 62
     7
370
    25
100
AcDbLine
 10
313.2593535338
 20
371.3500529832
 30
0.0
 11
313.2593535338
 21
355.2200529832
 31
0.0
  0
ARC
  5
235
330
1F
100
AcDbEntity
  8
0
  6
Continuous
 62
     7
370
    25
100
AcDbCircle
 10
310.2593535338
 20
355.2200529832
 30
0.0
 40
3.0
100
AcDbArc
 50
270.0
 51
0.0
  0
LINE
  5
236
330
1F
100
AcDbEntity
  8
0
  6
Continuous
 62
     7
370
    25
100
AcDbLine
 10
310.2593535338
 20
352.2200529832
 30
0.0
 11
225.7593535338
 21
352.2200529832
 31
0.0
  0
ARC
  5
237
330
1F
100
AcDbEntity
  8
0
  6
Continuous
 62
     7
370
    25
100
AcDbCircle
 10
225.7593535338
 20
355.2200529832
 30
0.0
 40
3.0
100
AcDbArc
 50
180.0
 51
270.0
  0
LINE
  5
238
330
1F
100
AcDbEntity
  8
0
  6
Continuous
 62
     7
370
    25
100
AcDbLine
 10
222.7593535338
 20
355.2200529832
 30
0.0
 11
222.7593535338
 21
371.3500529832
 31
0.0
  0
LINE
  5
239
330
1F
100
AcDbEntity
  8
0
  6
Continuous
 62
     7
370
    25
100
AcDbLine
 10
222.7593535338
 20
371.3500529832
 30
0.0
 11
220.2593535338
 21
371.3500529832
 31
0.0
  0
LINE
  5
23A
330
1F
100
AcDbEntity
  8
0
  6
Continuous
 62
     7
370
    25
100
AcDbLine
 10
220.2593535338
 20
370.8580021757
 30
0.0
 11
220.2593535338
 21
371.3500529832
 31
0.0
  0
LINE
  5
23B
330
1F
100
AcDbEntity
  8
0
  6
Continuous
 62
     7
370
    25
100
AcDbLine
 10
20.2593535338
 20
370.8580021757
 30
0.0
 11
20.2593535338
 21
371.3500529832
 31
0.0
  0
LINE
  5
23C
330
1F
100
AcDbEntity
  8
0
  6
Continuous
 62
     7
370
    25
100
AcDbLine
 10
20.2593535338
 20
371.3500529832
 30
0.0
 11
17.7593535338
 21
371.3500529832
 31
0.0
  0
LINE
  5
23D
330
1F
100
AcDbEntity
  8
0
  6
Continuous
 62
     7
370
    25
100
AcDbLine
 10
17.7593535338
 20
371.3500529832
 30
0.0
 11
17.7593535338
 21
355.2200529832
 31
0.0
  0
ARC
  5
23E
330
1F
100
AcDbEntity
  8
0
  6
Continuous
 62
     7
370
    25
100
AcDbCircle
 10
14.7593535338
 20
355.2200529832
 30
0.0
 40
3.000000000000004
100
AcDbArc
 50
270.0
 51
0.0
  0
LINE
  5
23F
330
1F
100
AcDbEntity
  8
0
  6
Continuous
 62
     7
370
    25
100
AcDbLine
 10
14.7593535338
 20
352.2200529832
 30
0.0
 11
-29.2406464662
 21
352.2200529832
 31
0.0
  0
ARC
  5
240
330
1F
100
AcDbEntity
  8
0
  6
Continuous
 62
     7
370
    25
100
AcDbCircle
 10
-29.2406464662
 20
355.2200529832
 30
0.0
 40
3.000000000000004
100
AcDbArc
 50
180.0
 51
270.0
  0
LINE
  5
241
330
1F
100
AcDbEntity
  8
0
  6
Continuous
 62
     7
370
    25
100
AcDbLine
 10
-32.2406464662
 20
355.2200529832
 30
0.0
 11
-32.2406464662
 21
376.2200529832
 31
0.0
  0
LINE
  5
242
330
1F
100
AcDbEntity
  8
0
  6
Continuous
 62
     7
370
    25
100
AcDbLine
 10
-32.2406464662
 20
376.2200529832
 30
0.0
 11
-35.4406464662
 21
376.2200529832
 31
0.0
  0
LINE
  5
243
330
1F
100
AcDbEntity
  8
0
  6
Continuous
 62
     7
370
    25
100
AcDbLine
 10
-35.4406464662
 20
395.2200529832
 30
0.0
 11
-34.2406464662
 21
395.2200529832
 31
0.0
  0
LINE
  5
244
330
1F
100
AcDbEntity
  8
0
  6
Continuous
 62
     7
370
    25
100
AcDbLine
 10
-34.2406464662
 20
395.2200529832
 30
0.0
 11
-34.2406464662
 21
395.4200529832
 31
0.0
  0
LINE
  5
245
330
1F
100
AcDbEntity
  8
0
  6
Continuous
 62
     7
370
    25
100
AcDbLine
 10
865.7593535338
 20
395.4200529832
 30
0.0
 11
865.7593535338
 21
395.2200529832
 31
0.0
  0
LINE
  5
246
330
1F
100
AcDbEntity
  8
0
  6
Continuous
 62
     7
370
    25
100
AcDbLine
 10
315.7593535338
 20
369.9580021757
 30
0.0
 11
315.7593535338
 21
370.8580021757
 31
0.0
  0
LINE
  5
247
330
1F
100
AcDbEntity
  8
0
  6
Continuous
 62
     7
370
    25
100
AcDbLine
 10
515.7593535338
 20
370.8580021757
 30
0.0
 11
515.7593535338
 21
369.9580021757
 31
0.0
  0
LINE
  5
248
330
1F
100
AcDbEntity
  8
0
  6
Continuous
 62
     7
370
    25
100
AcDbLine
 10
20.2593535338
 20
369.9580021757
 30
0.0
 11
20.2593535338
 21
370.8580021757
 31
0.0
  0
LINE
  5
249
330
1F
100
AcDbEntity
  8
0
  6
Continuous
 62
     7
370
    25
100
AcDbLine
 10
220.2593535338
 20
370.8580021757
 30
0.0
 11
220.2593535338
 21
369.9580021757
 31
0.0
  0
LINE
  5
24A
330
1F
100
AcDbEntity
  8
0
  6
Continuous
 62
     7
370
    25
100
AcDbLine
 10
611.2593535338
 20
369.9580021757
 30
0.0
 11
611.2593535338
 21
370.8580021757
 31
0.0
  0
LINE
  5
24B
330
1F
100
AcDbEntity
  8
0
  6
Continuous
 62
     7
370
    25
100
AcDbLine
 10
811.2593535338
 20
370.8580021757
 30
0.0
 11
811.2593535338
 21
369.9580021757
 31
0.0
  0
LINE
  5
24C
330
1F
100
AcDbEntity
  8
0
  6
Continuous
 62
     7
370
    25
100
AcDbLine
 10
-35.4406464662
 20
376.2200529832
 30
0.0
 11
-37.2406464662
 21
376.2200529832
 31
0.0
  0
LINE
  5
24D
330
1F
100
AcDbEntity
  8
0
  6
Continuous
 62
     7
370
    25
100
AcDbLine
 10
-37.2406464662
 20
376.2200529832
 30
0.0
 11
-37.2406464662
 21
376.8200529832
 31
0.0
  0
LINE
  5
24E
330
1F
100
AcDbEntity
  8
0
  6
Continuous
 62
     7
370
    25
100
AcDbLine
 10
-36.2406464662
 20
395.2200529832
 30
0.0
 11
-35.4406464662
 21
395.2200529832
 31
0.0
  0
LINE
  5
24F
330
1F
100
AcDbEntity
  8
0
  6
Continuous
 62
     7
370
    25
100
AcDbLine
 10
866.9593535338
 20
395.2200529832
 30
0.0
 11
867.7593535338
 21
395.2200529832
 31
0.0
  0
LINE
  5
250
330
1F
100
AcDbEntity
  8
0
  6
Continuous
 62
     7
370
    25
100
AcDbLine
 10
868.7593535338
 20
376.2200529832
 30
0.0
 11
868.7593535338
 21
376.8200529832
 31
0.0
  0
LINE
  5
251
330
1F
100
AcDbEntity
  8
0
  6
Continuous
 62
     7
370
    25
100
AcDbLine
 10
868.7593535338
 20
376.2200529832
 30
0.0
 11
866.9593535338
 21
376.2200529832
 31
0.0
  0
LINE
  5
252
330
1F
100
AcDbEntity
  8
0
  6
Continuous
 62
     7
370
    25
100
AcDbLine
 10
865.7593535338
 20
397.2200529832
 30
0.0
 11
865.7593535338
 21
395.4200529832
 31
0.0
  0
LINE
  5
253
330
1F
100
AcDbEntity
  8
0
  6
Continuous
 62
     7
370
    25
100
AcDbLine
 10
-34.2406464662
 20
395.4200529832
 30
0.0
 11
-34.2406464662
 21
397.2200529832
 31
0.0
  0
LINE
  5
254
330
1F
100
AcDbEntity
  8
0
  6
Continuous
 62
     7
370
    25
100
AcDbLine
 10
315.7593535338
 20
369.9580021757
 30
0.0
 11
315.7593535338
 21
363.3331310451
 31
0.0
  0
LINE
  5
255
330
1F
100
AcDbEntity
  8
0
  6
Continuous
 62
     7
370
    25
100
AcDbLine
 10
515.7593535338
 20
363.3331310451
 30
0.0
 11
515.7593535338
 21
369.9580021757
 31
0.0
  0
LINE
  5
256
330
1F
100
AcDbEntity
  8
0
  6
Continuous
 62
     7
370
    25
100
AcDbLine
 10
20.2593535338
 20
369.9580021757
 30
0.0
 11
20.2593535338
 21
363.3331310451
 31
0.0
  0
LINE
  5
257
330
1F
100
AcDbEntity
  8
0
  6
Continuous
 62
     7
370
    25
100
AcDbLine
 10
220.2593535338
 20
363.3331310451
 30
0.0
 11
220.2593535338
 21
369.9580021757
 31
0.0
  0
LINE
  5
258
330
1F
100
AcDbEntity
  8
0
  6
Continuous
 62
     7
370
    25
100
AcDbLine
 10
611.2593535338
 20
369.9580021757
 30
0.0
 11
611.2593535338
 21
363.3331310451
 31
0.0
  0
LINE
  5
259
330
1F
100
AcDbEntity
  8
0
  6
Continuous
 62
     7
370
    25
100
AcDbLine
 10
811.2593535338
 20
363.3331310451
 30
0.0
 11
811.2593535338
 21
369.9580021757
 31
0.0
  0
LINE
  5
25A
330
1F
100
AcDbEntity
  8
0
  6
Continuous
 62
     7
370
    25
100
AcDbLine
 10
811.2593535338
 20
362.8331310451
 30
0.0
 11
811.2593535338
 21
363.3331310451
 31
0.0
  0
LINE
  5
25B
330
1F
100
AcDbEntity
  8
0
  6
Continuous
 62
     7
370
    25
100
AcDbLine
 10
611.2593535338
 20
363.3331310451
 30
0.0
 11
611.2593535338
 21
362.8331310451
 31
0.0
  0
LINE
  5
25C
330
1F
100
AcDbEntity
  8
0
  6
Continuous
 62
     7
370
    25
100
AcDbLine
 10
515.7593535338
 20
362.8331310451
 30
0.0
 11
515.7593535338
 21
363.3331310451
 31
0.0
  0
LINE
  5
25D
330
1F
100
AcDbEntity
  8
0
  6
Continuous
 62
     7
370
    25
100
AcDbLine
 10
315.7593535338
 20
363.3331310451
 30
0.0
 11
315.7593535338
 21
362.8331310451
 31
0.0
  0
LINE
  5
25E
330
1F
100
AcDbEntity
  8
0
  6
Continuous
 62
     7
370
    25
100
AcDbLine
 10
220.2593535338
 20
362.8331310451
 30
0.0
 11
220.2593535338
 21
363.3331310451
 31
0.0
  0
LINE
  5
25F
330
1F
100
AcDbEntity
  8
0
  6
Continuous
 62
     7
370
    25
100
AcDbLine
 10
20.2593535338
 20
363.3331310451
 30
0.0
 11
20.2593535338
 21
362.8331310451
 31
0.0
  0
ARC
  5
260
330
1F
100
AcDbEntity
  8
0
  6
Continuous
 62
     7
370
    25
100
AcDbCircle
 10
318.7593535338
 20
356.3154395915
 30
0.0
 40
3.000000000000057
100
AcDbArc
 50
180.0
 51
270.0
  0
LINE
  5
261
330
1F
100
AcDbEntity
  8
0
  6
Continuous
 62
     7
370
    25
100
AcDbLine
 10
315.7593535338
 20
356.3154395915
 30
0.0
 11
315.7593535338
 21
362.8331310451
 31
0.0
  0
LINE
  5
262
330
1F
100
AcDbEntity
  8
0
  6
Continuous
 62
     7
370
    25
100
AcDbLine
 10
515.7593535338
 20
362.8331310451
 30
0.0
 11
515.7593535338
 21
356.3154395915
 31
0.0
  0
ARC
  5
263
330
1F
100
AcDbEntity
  8
0
  6
Continuous
 62
     7
370
    25
100
AcDbCircle
 10
512.7593535338
 20
356.3154395915
 30
0.0
 40
3.000000000000057
100
AcDbArc
 50
270.0
 51
0.0
  0
LINE
  5
264
330
1F
100
AcDbEntity
  8
0
  6
Continuous
 62
     7
370
    25
100
AcDbLine
 10
512.7593535338
 20
353.3154395915
 30
0.0
 11
318.7593535338
 21
353.3154395915
 31
0.0
  0
ARC
  5
265
330
1F
100
AcDbEntity
  8
0
  6
Continuous
 62
     7
370
    25
100
AcDbCircle
 10
614.2593535338
 20
356.3154395915
 30
0.0
 40
3.000000000000057
100
AcDbArc
 50
180.0
 51
270.0
  0
LINE
  5
266
330
1F
100
AcDbEntity
  8
0
  6
Continuous
 62
     7
370
    25
100
AcDbLine
 10
611.2593535338
 20
356.3154395915
 30
0.0
 11
611.2593535338
 21
362.8331310451
 31
0.0
  0
LINE
  5
267
330
1F
100
AcDbEntity
  8
0
  6
Continuous
 62
     7
370
    25
100
AcDbLine
 10
811.2593535338
 20
362.8331310451
 30
0.0
 11
811.2593535338
 21
356.3154395915
 31
0.0
  0
ARC
  5
268
330
1F
100
AcDbEntity
  8
0
  6
Continuous
 62
     7
370
    25
100
AcDbCircle
 10
808.2593535338
 20
356.3154395915
 30
0.0
 40
3.000000000000057
100
AcDbArc
 50
270.0
 51
0.0
  0
LINE
  5
269
330
1F
100
AcDbEntity
  8
0
  6
Continuous
 62
     7
370
    25
100
AcDbLine
 10
808.2593535338
 20
353.3154395915
 30
0.0
 11
614.2593535338
 21
353.3154395915
 31
0.0
  0
ARC
  5
26A
330
1F
100
AcDbEntity
  8
0
  6
Continuous
 62
     7
370
    25
100
AcDbCircle
 10
23.2593535338
 20
356.3154395915
 30
0.0
 40
3.000000000000057
100
AcDbArc
 50
180.0
 51
270.0
  0
LINE
  5
26B
330
1F
100
AcDbEntity
  8
0
  6
Continuous
 62
     7
370
    25
100
AcDbLine
 10
20.2593535338
 20
356.3154395915
 30
0.0
 11
20.2593535338
 21
362.8331310451
 31
0.0
  0
LINE
  5
26C
330
1F
100
AcDbEntity
  8
0
  6
Continuous
 62
     7
370
    25
100
AcDbLine
 10
220.2593535338
 20
362.8331310451
 30
0.0
 11
220.2593535338
 21
356.3154395915
 31
0.0
  0
ARC
  5
26D
330
1F
100
AcDbEntity
  8
0
  6
Continuous
 62
     7
370
    25
100
AcDbCircle
 10
217.2593535338
 20
356.3154395915
 30
0.0
 40
3.000000000000057
100
AcDbArc
 50
270.0
 51
0.0
  0
LINE
  5
26E
330
1F
100
AcDbEntity
  8
0
  6
Continuous
 62
     7
370
    25
100
AcDbLine
 10
217.2593535338
 20
353.3154395915
 30
0.0
 11
23.2593535338
 21
353.3154395915
 31
0.0
  0
LINE
  5
26F
330
1F
100
AcDbEntity
  8
0
  6
Continuous
 62
     7
370
    25
100
AcDbLine
 10
852.5093535338
 20
402.8200529832
 30
0.0
 11
852.5093535338
 21
403.3200529832
 31
0.0
  0
LINE
  5
270
330
1F
100
AcDbEntity
  8
0
  6
Continuous
 62
     7
370
    25
100
AcDbLine
 10
862.0093535338
 20
402.8200529832
 30
0.0
 11
852.5093535338
 21
402.8200529832
 31
0.0
  0
LINE
  5
271
330
1F
100
AcDbEntity
  8
0
  6
Continuous
 62
     7
370
    25
100
AcDbLine
 10
862.0093535338
 20
403.3200529832
 30
0.0
 11
862.0093535338
 21
402.8200529832
 31
0.0
  0
ARC
  5
272
330
1F
100
AcDbEntity
  8
0
  6
Continuous
 62
     7
370
    25
100
AcDbCircle
 10
862.7727535338
 20
404.0566529832
 30
0.0
 40
1.23660000000001
100
AcDbArc
 50
270.0
 51
323.4399088994
  0
LINE
  5
273
330
1F
100
AcDbEntity
  8
0
  6
Continuous
 62
     7
370
    25
100
AcDbLine
 10
862.7727535338
 20
402.8200529832
 30
0.0
 11
862.0093535338
 21
402.8200529832
 31
0.0
  0
ARC
  5
274
330
1F
100
AcDbEntity
  8
0
  6
Continuous
 62
     7
370
    25
100
AcDbCircle
 10
851.7459535338
 20
404.0566529832
 30
0.0
 40
1.23660000000001
100
AcDbArc
 50
216.5600911006
 51
270.0
  0
LINE
  5
275
330
1F
100
AcDbEntity
  8
0
  6
Continuous
 62
     7
370
    25
100
AcDbLine
 10
852.5093535338
 20
402.8200529832
 30
0.0
 11
851.7459535338
 21
402.8200529832
 31
0.0
  0
LINE
  5
276
330
1F
100
AcDbEntity
  8
0
  6
Continuous
 62
     7
370
    25
100
AcDbLine
 10
-30.4906464662
 20
402.8200529832
 30
0.0
 11
-30.4906464662
 21
403.3200529832
 31
0.0
  0
LINE
  5
277
330
1F
100
AcDbEntity
  8
0
  6
Continuous
 62
     7
370
    25
100
AcDbLine
 10
-20.9906464662
 20
402.8200529832
 30
0.0
 11
-30.4906464662
 21
402.8200529832
 31
0.0
  0
LINE
  5
278
330
1F
100
AcDbEntity
  8
0
  6
Continuous
 62
     7
370
    25
100
AcDbLine
 10
-20.9906464662
 20
403.3200529832
 30
0.0
 11
-20.9906464662
 21
402.8200529832
 31
0.0
  0
ARC
  5
279
330
1F
100
AcDbEntity
  8
0
  6
Continuous
 62
     7
370
    25
100
AcDbCircle
 10
-20.2272464662
 20
404.0566529832
 30
0.0
 40
1.23660000000001
100
AcDbArc
 50
270.0
 51
323.4399088994
  0
LINE
  5
27A
330
1F
100
AcDbEntity
  8
0
  6
Continuous
 62
     7
370
    25
100
AcDbLine
 10
-20.2272464662
 20
402.8200529832
 30
0.0
 11
-20.9906464662
 21
402.8200529832
 31
0.0
  0
ARC
  5
27B
330
1F
100
AcDbEntity
  8
0
  6
Continuous
 62
     7
370
    25
100
AcDbCircle
 10
-31.2540464662
 20
404.0566529832
 30
0.0
 40
1.236600000000011
100
AcDbArc
 50
216.5600911006
 51
270.0
  0
LINE
  5
27C
330
1F
100
AcDbEntity
  8
0
  6
Continuous
 62
     7
370
    25
100
AcDbLine
 10
-30.4906464662
 20
402.8200529832
 30
0.0
 11
-31.2540464662
 21
402.8200529832
 31
0.0
  0
LINE
  5
27D
330
1F
100
AcDbEntity
  8
0
  6
Continuous
 62
     7
370
    25
100
AcDbLine
 10
877.4181035338
 20
381.7200529832
 30
0.0
 11
877.4181035338
 21
381.9200529832
 31
0.0
  0
LINE
  5
27E
330
1F
100
AcDbEntity
  8
0
  6
Continuous
 62
     7
370
    25
100
AcDbLine
 10
877.4181035338
 20
387.5200529832
 30
0.0
 11
877.4181035338
 21
387.7200529832
 31
0.0
  0
LINE
  5
27F
330
1F
100
AcDbEntity
  8
0
  6
Continuous
 62
     7
370
    25
100
AcDbLine
 10
877.9593535338
 20
386.2994563206
 30
0.0
 11
877.9593535338
 21
387.1788029833
 31
0.0
  0
LINE
  5
280
330
1F
100
AcDbEntity
  8
0
  6
Continuous
 62
     7
370
    25
100
AcDbLine
 10
877.9593535338
 20
382.2613029832
 30
0.0
 11
877.9593535338
 21
386.2994563206
 31
0.0
  0
LINE
  5
281
330
1F
100
AcDbEntity
  8
0
  6
Continuous
 62
     7
370
    25
100
AcDbLine
 10
867.2593535338
 20
399.0200529832
 30
0.0
 11
867.2593535338
 21
397.2200529832
 31
0.0
  0
LINE
  5
282
330
1F
100
AcDbEntity
  8
0
  6
Continuous
 62
     7
370
    25
100
AcDbLine
 10
867.2593535338
 20
397.2200529832
 30
0.0
 11
-35.7406464662
 21
397.2200529832
 31
0.0
  0
LINE
  5
283
330
1F
100
AcDbEntity
  8
0
  6
Continuous
 62
     7
370
    25
100
AcDbLine
 10
-35.7406464662
 20
397.2200529832
 30
0.0
 11
-35.7406464662
 21
399.0200529832
 31
0.0
  0
LINE
  5
284
330
1F
100
AcDbEntity
  8
0
  6
Continuous
 62
     7
370
    25
100
AcDbLine
 10
867.2593535338
 20
399.0200529832
 30
0.0
 11
867.7593535338
 21
404.3950529832
 31
0.0
  0
LINE
  5
285
330
1F
100
AcDbEntity
  8
0
  6
Continuous
 62
     7
370
    25
100
AcDbLine
 10
-36.2406464662
 20
404.3950529832
 30
0.0
 11
-35.7406464662
 21
399.0200529832
 31
0.0
  0
LINE
  5
286
330
1F
100
AcDbEntity
  8
0
  6
Continuous
 62
     7
370
    25
100
AcDbLine
 10
-46.4406464662
 20
382.502714906
 30
0.0
 11
-46.4406464662
 21
382.2613029832
 31
0.0
  0
LINE
  5
287
330
1F
100
AcDbEntity
  8
0
  6
Continuous
 62
     7
370
    25
100
AcDbLine
 10
-46.4406464662
 20
387.1788029833
 30
0.0
 11
-46.4406464662
 21
382.502714906
 31
0.0
  0
LINE
  5
288
330
1F
100
AcDbEntity
  8
0
  6
Continuous
 62
     7
370
    25
100
AcDbLine
 10
-45.8993964662
 20
387.7200529833
 30
0.0
 11
-45.8993964662
 21
387.5200529832
 31
0.0
  0
LINE
  5
289
330
1F
100
AcDbEntity
  8
0
  6
Continuous
 62
     7
370
    25
100
AcDbLine
 10
-45.8993964662
 20
381.9200529832
 30
0.0
 11
-45.8993964662
 21
381.7200529832
 31
0.0
  0
LWPOLYLINE
  5
28A
330
1F
100
AcDbEntity
  8
0
  6
Continuous
 62
     7
370
    25
100
AcDbPolyline
 90
        9
 70
   128
 43
0.0
 10
869.8114743937
 20
376.8200529832
 10
869.9449240335
 20
376.8584824224
 10
870.0732452785
 20
376.9722939182
 10
870.1915068152
 20
377.1571137586
 10
870.295163919
 20
377.4058394209
 10
870.3802331057
 20
377.7089125172
 10
870.443445214
 20
378.0546861185
 10
870.4823710381
 20
378.4298723392
 10
870.4955146804
 20
378.8200529832
  0
LINE
  5
28B
330
1F
100
AcDbEntity
  8
0
  6
Continuous
 62
     7
370
    25
100
AcDbLine
 10
867.9402756714
 20
376.8200529832
 30
0.0
 11
869.8114743937
 21
376.8200529832
 31
0.0
  0
LINE
  5
28C
330
1F
100
AcDbEntity
  8
0
  6
Continuous
 62
     7
370
    25
100
AcDbLine
 10
869.8114743937
 20
392.8200529832
 30
0.0
 11
867.9402756714
 21
392.8200529832
 31
0.0
  0
LWPOLYLINE
  5
28D
330
1F
100
AcDbEntity
  8
0
  6
Continuous
 62
     7
370
    25
100
AcDbPolyline
 90
        9
 70
   128
 43
0.0
 10
870.4955146804
 20
390.8200529832
 10
870.4823710381
 20
391.2102336273
 10
870.443445214
 20
391.585419848
 10
870.3802331057
 20
391.9311934493
 10
870.295163919
 20
392.2342665456
 10
870.1915068152
 20
392.4829922078
 10
870.0732452785
 20
392.6678120483
 10
869.9449240335
 20
392.781623544
 10
869.8114743937
 20
392.8200529832
  0
LINE
  5
28E
330
1F
100
AcDbEntity
  8
0
  6
Continuous
 62
     7
370
    25
100
AcDbLine
 10
870.4955146804
 20
378.8200529832
 30
0.0
 11
870.4955146804
 21
390.8200529832
 31
0.0
  0
LWPOLYLINE
  5
28F
330
1F
100
AcDbEntity
  8
0
  6
Continuous
 62
     7
370
    25
100
AcDbPolyline
 90
        9
 70
   128
 43
0.0
 10
872.374899922
 20
378.8200529832
 10
872.3617562797
 20
378.4298723392
 10
872.3228304556
 20
378.0546861185
 10
872.2596183473
 20
377.7089125172
 10
872.1745491606
 20
377.4058394209
 10
872.0708920568
 20
377.1571137586
 10
871.9526305201
 20
376.9722939182
 10
871.8243092751
 20
376.8584824224
 10
871.6908596353
 20
376.8200529832
  0
LINE
  5
290
330
1F
100
AcDbEntity
  8
0
  6
Continuous
 62
     7
370
    25
100
AcDbLine
 10
871.6908596353
 20
376.8200529832
 30
0.0
 11
869.8114743937
 21
376.8200529832
 31
0.0
  0
LINE
  5
291
330
1F
100
AcDbEntity
  8
0
  6
Continuous
 62
     7
370
    25
100
AcDbLine
 10
872.374899922
 20
378.8200529832
 30
0.0
 11
872.374899922
 21
390.8200529832
 31
0.0
  0
LINE
  5
292
330
1F
100
AcDbEntity
  8
0
  6
Continuous
 62
     7
370
    25
100
AcDbLine
 10
869.8114743937
 20
392.8200529832
 30
0.0
 11
871.6908596353
 21
392.8200529832
 31
0.0
  0
LWPOLYLINE
  5
293
330
1F
100
AcDbEntity
  8
0
  6
Continuous
 62
     7
370
    25
100
AcDbPolyline
 90
        9
 70
   128
 43
0.0
 10
871.6908596353
 20
392.8200529832
 10
871.8243092751
 20
392.781623544
 10
871.9526305201
 20
392.6678120483
 10
872.0708920568
 20
392.4829922078
 10
872.1745491606
 20
392.2342665456
 10
872.2596183473
 20
391.9311934493
 10
872.3228304556
 20
391.585419848
 10
872.3617562797
 20
391.2102336273
 10
872.374899922
 20
390.8200529832
  0
LINE
  5
294
330
1F
100
AcDbEntity
  8
0
  6
Continuous
 62
     7
370
    25
100
AcDbLine
 10
867.7645398842
 20
392.8200529832
 30
0.0
 11
867.9402756714
 21
392.8200529832
 31
0.0
  0
LINE
  5
295
330
1F
100
AcDbEntity
  8
0
  6
Continuous
 62
     7
370
    25
100
AcDbLine
 10
867.7593535338
 20
376.8200529832
 30
0.0
 11
867.7593535338
 21
392.8200529832
 31
0.0
  0
LINE
  5
296
330
1F
100
AcDbEntity
  8
0
  6
Continuous
 62
     7
370
    25
100
AcDbLine
 10
867.9402756714
 20
376.8200529832
 30
0.0
 11
867.7593535338
 21
376.8200529832
 31
0.0
  0
LINE
  5
297
330
1F
100
AcDbEntity
  8
0
  6
Continuous
 62
     7
370
    25
100
AcDbLine
 10
867.7645398842
 20
392.8200529832
 30
0.0
 11
867.7593535338
 21
392.8200529832
 31
0.0
  0
LINE
  5
298
330
1F
100
AcDbEntity
  8
0
  6
Continuous
 62
     7
370
    25
100
AcDbLine
 10
869.7593535338
 20
407.8200529832
 30
0.0
 11
869.7593535338
 21
392.8200529832
 31
0.0
  0
LINE
  5
299
330
1F
100
AcDbEntity
  8
0
  6
Continuous
 62
     7
370
    25
100
AcDbLine
 10
867.7593535338
 20
407.8200529832
 30
0.0
 11
867.7593535338
 21
392.8200529832
 31
0.0
  0
LINE
  5
29A
330
1F
100
AcDbEntity
  8
0
  6
Continuous
 62
     7
370
    25
100
AcDbLine
 10
869.7593535338
 20
407.8200529832
 30
0.0
 11
869.7576864039
 21
407.9200529832
 31
0.0
  0
LINE
  5
29B
330
1F
100
AcDbEntity
  8
0
  6
Continuous
 62
     7
370
    25
100
AcDbLine
 10
867.7593535338
 20
407.8200529832
 30
0.0
 11
867.7543409709
 21
407.9200529832
 31
0.0
  0
LINE
  5
29C
330
1F
100
AcDbEntity
  8
0
  6
Continuous
 62
     7
370
    25
100
AcDbLine
 10
-38.2927673262
 20
376.8200529832
 30
0.0
 11
-36.4215686039
 21
376.8200529832
 31
0.0
  0
LWPOLYLINE
  5
29D
330
1F
100
AcDbEntity
  8
0
  6
Continuous
 62
     7
370
    25
100
AcDbPolyline
 90
        9
 70
   128
 43
0.0
 10
-38.9768076128
 20
378.8200529832
 10
-38.9636639705
 20
378.4298723392
 10
-38.9247381464
 20
378.0546861185
 10
-38.8615260381
 20
377.7089125172
 10
-38.7764568515
 20
377.4058394209
 10
-38.6727997476
 20
377.1571137586
 10
-38.5545382109
 20
376.9722939182
 10
-38.426216966
 20
376.8584824224
 10
-38.2927673262
 20
376.8200529832
  0
LINE
  5
29E
330
1F
100
AcDbEntity
  8
0
  6
Continuous
 62
     7
370
    25
100
AcDbLine
 10
-38.9768076128
 20
390.8200529832
 30
0.0
 11
-38.9768076128
 21
378.8200529832
 31
0.0
  0
LWPOLYLINE
  5
29F
330
1F
100
AcDbEntity
  8
0
  6
Continuous
 62
     7
370
    25
100
AcDbPolyline
 90
        9
 70
   128
 43
0.0
 10
-38.2927673262
 20
392.8200529832
 10
-38.426216966
 20
392.781623544
 10
-38.5545382109
 20
392.6678120483
 10
-38.6727997476
 20
392.4829922078
 10
-38.7764568515
 20
392.2342665456
 10
-38.8615260381
 20
391.9311934493
 10
-38.9247381464
 20
391.585419848
 10
-38.9636639705
 20
391.2102336273
 10
-38.9768076128
 20
390.8200529832
  0
LINE
  5
2A0
330
1F
100
AcDbEntity
  8
0
  6
Continuous
 62
     7
370
    25
100
AcDbLine
 10
-36.4215686039
 20
392.8200529832
 30
0.0
 11
-38.2927673262
 21
392.8200529832
 31
0.0
  0
LINE
  5
2A1
330
1F
100
AcDbEntity
  8
0
  6
Continuous
 62
     7
370
    25
100
AcDbLine
 10
-38.2927673262
 20
376.8200529832
 30
0.0
 11
-40.1721525677
 21
376.8200529832
 31
0.0
  0
LWPOLYLINE
  5
2A2
330
1F
100
AcDbEntity
  8
0
  6
Continuous
 62
     7
370
    25
100
AcDbPolyline
 90
        9
 70
   128
 43
0.0
 10
-40.1721525677
 20
376.8200529832
 10
-40.3056022075
 20
376.8584824224
 10
-40.4339234525
 20
376.9722939182
 10
-40.5521849892
 20
377.1571137586
 10
-40.655842093
 20
377.4058394209
 10
-40.7409112797
 20
377.7089125172
 10
-40.804123388
 20
378.0546861185
 10
-40.8430492121
 20
378.4298723392
 10
-40.8561928544
 20
378.8200529832
  0
LINE
  5
2A3
330
1F
100
AcDbEntity
  8
0
  6
Continuous
 62
     7
370
    25
100
AcDbLine
 10
-40.8561928544
 20
390.8200529832
 30
0.0
 11
-40.8561928544
 21
378.8200529832
 31
0.0
  0
LWPOLYLINE
  5
2A4
330
1F
100
AcDbEntity
  8
0
  6
Continuous
 62
     7
370
    25
100
AcDbPolyline
 90
        9
 70
   128
 43
0.0
 10
-40.8561928544
 20
390.8200529832
 10
-40.8430492121
 20
391.2102336273
 10
-40.804123388
 20
391.585419848
 10
-40.7409112797
 20
391.9311934493
 10
-40.655842093
 20
392.2342665456
 10
-40.5521849892
 20
392.4829922078
 10
-40.4339234525
 20
392.6678120483
 10
-40.3056022075
 20
392.781623544
 10
-40.1721525677
 20
392.8200529832
  0
LINE
  5
2A5
330
1F
100
AcDbEntity
  8
0
  6
Continuous
 62
     7
370
    25
100
AcDbLine
 10
-40.1721525677
 20
392.8200529832
 30
0.0
 11
-38.2927673262
 21
392.8200529832
 31
0.0
  0
LINE
  5
2A6
330
1F
100
AcDbEntity
  8
0
  6
Continuous
 62
     7
370
    25
100
AcDbLine
 10
-36.4215686039
 20
392.8200529832
 30
0.0
 11
-36.2458328166
 21
392.8200529832
 31
0.0
  0
LINE
  5
2A7
330
1F
100
AcDbEntity
  8
0
  6
Continuous
 62
     7
370
    25
100
AcDbLine
 10
-36.2406464662
 20
392.8200529832
 30
0.0
 11
-36.2406464662
 21
376.8200529832
 31
0.0
  0
LINE
  5
2A8
330
1F
100
AcDbEntity
  8
0
  6
Continuous
 62
     7
370
    25
100
AcDbLine
 10
-36.2406464662
 20
376.8200529832
 30
0.0
 11
-36.4215686039
 21
376.8200529832
 31
0.0
  0
LINE
  5
2A9
330
1F
100
AcDbEntity
  8
0
  6
Continuous
 62
     7
370
    25
100
AcDbLine
 10
-36.2458328166
 20
392.8200529832
 30
0.0
 11
-36.2406464662
 21
392.8200529832
 31
0.0
  0
LINE
  5
2AA
330
1F
100
AcDbEntity
  8
0
  6
Continuous
 62
     7
370
    25
100
AcDbLine
 10
-36.2406464662
 20
392.8200529832
 30
0.0
 11
-36.2406464662
 21
407.8200529832
 31
0.0
  0
LINE
  5
2AB
330
1F
100
AcDbEntity
  8
0
  6
Continuous
 62
     7
370
    25
100
AcDbLine
 10
-38.2406464662
 20
392.8200529832
 30
0.0
 11
-38.2406464662
 21
407.8200529832
 31
0.0
  0
LINE
  5
2AC
330
1F
100
AcDbEntity
  8
0
  6
Continuous
 62
     7
370
    25
100
AcDbLine
 10
-38.2389793363
 20
407.9200529832
 30
0.0
 11
-38.2406464662
 21
407.8200529832
 31
0.0
  0
LINE
  5
2AD
330
1F
100
AcDbEntity
  8
0
  6
Continuous
 62
     7
370
    25
100
AcDbLine
 10
-36.2356339033
 20
407.9200529832
 30
0.0
 11
-36.2406464662
 21
407.8200529832
 31
0.0
  0
SPLINE
  5
2AE
330
1F
100
AcDbEntity
  8
0
  6
Continuous
 62
     7
370
    25
100
AcDbSpline
210
0.0
220
0.0
230
1.0
 70
    24
 71
     3
 72
    19
 73
    15
 74
     0
 42
0.000000001
 43
0.00000001
 40
0.0
 40
0.0
 40
0.0
 40
0.0
 40
0.1260638187928848
 40
0.1939261817305607
 40
0.2632286813759842
 40
0.3325311810214078
 40
0.4003935439590837
 40
0.5264573627519685
 40
0.6525211815448532
 40
0.7203835444825295
 40
0.7896860441279527
 40
0.8589885437733762
 40
0.9268509067110523
 40
1.0
 40
1.0
 40
1.0
 40
1.0
 10
866.759353533792
 20
390.4474413386187
 30
0.0
 10
866.759353533792
 20
390.2558534276824
 30
0.0
 10
866.759353533792
 20
389.9611303866911
 30
0.0
 10
866.759353533792
 20
389.0338758638505
 30
0.0
 10
866.759353533792
 20
388.148319823318
 30
0.0
 10
866.759353533792
 20
387.1119186137827
 30
0.0
 10
866.759353533792
 20
385.6679652411333
 30
0.0
 10
866.759353533792
 20
383.7831376584248
 30
0.0
 10
866.759353533792
 20
382.0101274565982
 30
0.0
 10
866.759353533792
 20
380.7878238348579
 30
0.0
 10
866.759353533792
 20
379.9871371196398
 30
0.0
 10
866.759353533792
 20
379.4016465368667
 30
0.0
 10
866.759353533792
 20
378.9737603983139
 30
0.0
 10
866.759353533792
 20
379.0042726502165
 30
0.0
 10
866.759353533792
 20
379.0201007511425
 30
0.0
  0
SPLINE
  5
2AF
330
1F
100
AcDbEntity
  8
0
  6
Continuous
 62
     7
370
    25
100
AcDbSpline
210
0.0
220
0.0
230
1.0
 70
     8
 71
     3
 72
     8
 73
     4
 74
     0
 42
0.000000001
 43
0.00000001
 40
0.0
 40
0.0
 40
0.0
 40
0.0
 40
1.0
 40
1.0
 40
1.0
 40
1.0
 10
862.7593535337992
 20
383.9313551911827
 30
0.0
 10
862.7593535337992
 20
382.958410875403
 30
0.0
 10
862.9336688341787
 20
382.0120956279505
 30
0.0
 10
863.2059355211906
 20
381.0807438068924
 30
0.0
  0
SPLINE
  5
2B0
330
1F
100
AcDbEntity
  8
0
  6
Continuous
 62
     7
370
    25
100
AcDbSpline
210
0.0
220
0.0
230
1.0
 70
     8
 71
     3
 72
     8
 73
     4
 74
     0
 42
0.000000001
 43
0.00000001
 40
0.0
 40
0.0
 40
0.0
 40
0.0
 40
1.0
 40
1.0
 40
1.0
 40
1.0
 10
863.2059355211906
 20
386.781966575473
 30
0.0
 10
862.9336688341791
 20
385.8506147544166
 30
0.0
 10
862.7593535337992
 20
384.9042995069606
 30
0.0
 10
862.7593535337992
 20
383.9313551911827
 30
0.0
  0
LINE
  5
2B1
330
1F
100
AcDbEntity
  8
0
  6
Continuous
 62
     7
370
    25
100
AcDbLine
 10
866.7593535338
 20
386.7819665755
 30
0.0
 11
863.2059355212
 21
386.7819665755
 31
0.0
  0
LINE
  5
2B2
330
1F
100
AcDbEntity
  8
0
  6
Continuous
 62
     7
370
    25
100
AcDbLine
 10
866.7593535338
 20
381.0807438069
 30
0.0
 11
863.2059355212
 21
381.0807438069
 31
0.0
  0
LINE
  5
2B3
330
1F
100
AcDbEntity
  8
0
  6
Continuous
 62
     7
370
    25
100
AcDbLine
 10
862.7593535338
 20
388.6016211637
 30
0.0
 11
862.7593535338
 21
383.9313551912
 31
0.0
  0
SPLINE
  5
2B4
330
1F
100
AcDbEntity
  8
0
  6
Continuous
 62
     7
370
    25
100
AcDbSpline
210
0.0
220
0.0
230
1.0
 70
     8
 71
     3
 72
     8
 73
     4
 74
     0
 42
0.000000001
 43
0.00000001
 40
0.0
 40
0.0
 40
0.0
 40
0.0
 40
1.0
 40
1.0
 40
1.0
 40
1.0
 10
862.7593535337992
 20
388.6016211636524
 30
0.0
 10
862.7593535337992
 20
387.9805534874331
 30
0.0
 10
862.9336688341787
 20
387.3764841669446
 30
0.0
 10
863.2059355211906
 20
386.7819665754793
 30
0.0
  0
SPLINE
  5
2B5
330
1F
100
AcDbEntity
  8
0
  6
Continuous
 62
     7
370
    25
100
AcDbSpline
210
0.0
220
0.0
230
1.0
 70
     8
 71
     3
 72
     8
 73
     4
 74
     0
 42
0.000000001
 43
0.00000001
 40
0.0
 40
0.0
 40
0.0
 40
0.0
 40
1.0
 40
1.0
 40
1.0
 40
1.0
 10
863.2059355211906
 20
390.4212757518254
 30
0.0
 10
862.9336688341791
 20
389.8267581603613
 30
0.0
 10
862.7593535337992
 20
389.2226888398705
 30
0.0
 10
862.7593535337992
 20
388.6016211636524
 30
0.0
  0
LINE
  5
2B6
330
1F
100
AcDbEntity
  8
0
  6
Continuous
 62
     7
370
    25
100
AcDbLine
 10
866.7593535338
 20
390.4212757518
 30
0.0
 11
863.2059355212
 21
390.4212757518
 31
0.0
  0
LINE
  5
2B7
330
1F
100
AcDbEntity
  8
0
  6
Continuous
 62
     7
370
    25
100
AcDbLine
 10
862.7593535338
 20
383.9313551912
 30
0.0
 11
862.7593535338
 21
380.0497870108
 31
0.0
  0
SPLINE
  5
2B8
330
1F
100
AcDbEntity
  8
0
  6
Continuous
 62
     7
370
    25
100
AcDbSpline
210
0.0
220
0.0
230
1.0
 70
     8
 71
     3
 72
     8
 73
     4
 74
     0
 42
0.000000001
 43
0.00000001
 40
0.0
 40
0.0
 40
0.0
 40
0.0
 40
1.0
 40
1.0
 40
1.0
 40
1.0
 10
863.2059355211906
 20
381.0807438068873
 30
0.0
 10
862.9336688341791
 20
380.743909577295
 30
0.0
 10
862.7593535337992
 20
380.4016636503297
 30
0.0
 10
862.7593535337992
 20
380.0497870107699
 30
0.0
  0
SPLINE
  5
2B9
330
1F
100
AcDbEntity
  8
0
  6
Continuous
 62
     7
370
    25
100
AcDbSpline
210
0.0
220
0.0
230
1.0
 70
     8
 71
     3
 72
     8
 73
     4
 74
     0
 42
0.000000001
 43
0.00000001
 40
0.0
 40
0.0
 40
0.0
 40
0.0
 40
1.0
 40
1.0
 40
1.0
 40
1.0
 10
862.7593535337992
 20
380.0497870107699
 30
0.0
 10
862.7593535337992
 20
379.6979103712094
 30
0.0
 10
862.9336688341785
 20
379.3556644442453
 30
0.0
 10
863.2059355211906
 20
379.0188302146523
 30
0.0
  0
LINE
  5
2BA
330
1F
100
AcDbEntity
  8
0
  6
Continuous
 62
     7
370
    25
100
AcDbLine
 10
866.7593535338
 20
379.0188302147
 30
0.0
 11
863.2059355212
 21
379.0188302147
 31
0.0
  0
LINE
  5
2BB
330
1F
100
AcDbEntity
  8
0
  6
Continuous
 62
     7
370
    25
100
AcDbLine
 10
863.055729291
 20
390.0745171761
 30
0.0
 11
863.2059355212
 21
390.4212757518
 31
0.0
  0
LINE
  5
2BC
330
1F
100
AcDbEntity
  8
0
  6
Continuous
 62
     7
370
    25
100
AcDbLine
 10
862.7593535338
 20
389.7200529832
 30
0.0
 11
862.7593535338
 21
388.6016211637
 31
0.0
  0
LINE
  5
2BD
330
1F
100
AcDbEntity
  8
0
  6
Continuous
 62
     7
370
    25
100
AcDbLine
 10
877.7593535338
 20
384.332210844
 30
0.0
 11
877.7593535338
 21
387.1788029833
 31
0.0
  0
LINE
  5
2BE
330
1F
100
AcDbEntity
  8
0
  6
Continuous
 62
     7
370
    25
100
AcDbLine
 10
877.7593535338
 20
382.2613029832
 30
0.0
 11
877.7593535338
 21
384.332210844
 31
0.0
  0
LINE
  5
2BF
330
1F
100
AcDbEntity
  8
0
  6
Continuous
 62
     7
370
    25
100
AcDbLine
 10
877.2181035338
 20
381.7200529832
 30
0.0
 11
877.2181035338
 21
387.7200529832
 31
0.0
  0
LINE
  5
2C0
330
1F
100
AcDbEntity
  8
0
  6
Continuous
 62
     7
370
    25
100
AcDbLine
 10
862.7593535338
 20
380.0497870108
 30
0.0
 11
862.7593535338
 21
379.7200529832
 31
0.0
  0
ARC
  5
2C1
330
1F
100
AcDbEntity
  8
0
  6
Continuous
 62
     7
370
    25
100
AcDbCircle
 10
-44.7406464662
 20
413.9200529832
 30
0.0
 40
6.0
100
AcDbArc
 50
216.8698976458
 51
270.0
  0
ARC
  5
2C2
330
1F
100
AcDbEntity
  8
0
  6
Continuous
 62
     7
370
    25
100
AcDbCircle
 10
876.2593535338
 20
413.9200529832
 30
0.0
 40
6.000000000000022
100
AcDbArc
 50
270.0
 51
323.1301023542
  0
SPLINE
  5
2C3
330
1F
100
AcDbEntity
  8
0
  6
Continuous
 62
     7
370
    25
100
AcDbSpline
210
0.0
220
0.0
230
1.0
 70
    24
 71
     3
 72
    15
 73
    11
 74
     0
 42
0.000000001
 43
0.00000001
 40
0.0
 40
0.0
 40
0.0
 40
0.0
 40
0.0346967497918683
 40
0.2211884951269672
 40
0.4076802404620663
 40
0.5080720152630804
 40
0.6105942475634838
 40
0.7131164798638874
 40
0.8135082546649011
 40
1.0
 40
1.0
 40
1.0
 40
1.0
 10
-35.24064646620806
 20
378.9468041738361
 30
0.0
 10
-35.24064646620806
 20
378.9400830702047
 30
0.0
 10
-35.24064646620795
 20
378.897236670852
 30
0.0
 10
-35.24064646620795
 20
379.3852776336104
 30
0.0
 10
-35.24064646620801
 20
380.481188691079
 30
0.0
 10
-35.24064646620806
 20
381.7000858235264
 30
0.0
 10
-35.24064646620795
 20
382.7802610513834
 30
0.0
 10
-35.24064646620806
 20
383.9407379538491
 30
0.0
 10
-35.24064646620795
 20
385.4713128489643
 30
0.0
 10
-35.24064646620801
 20
386.5349387376143
 30
0.0
 10
-35.24064646620801
 20
387.2263602882974
 30
0.0
  0
SPLINE
  5
2C4
330
1F
100
AcDbEntity
  8
0
  6
Continuous
 62
     7
370
    25
100
AcDbSpline
210
0.0
220
0.0
230
1.0
 70
    24
 71
     3
 72
    12
 73
     8
 74
     0
 42
0.000000001
 43
0.00000001
 40
0.0
 40
0.0
 40
0.0
 40
0.0
 40
0.3344405486782637
 40
0.5144757571369877
 40
0.6983315710265378
 40
0.882187384916088
 40
1.0
 40
1.0
 40
1.0
 40
1.0
 10
-35.24064646620806
 20
387.2263602882974
 30
0.0
 10
-35.24064646620806
 20
387.8505058237993
 30
0.0
 10
-35.24064646620817
 20
388.8106398392769
 30
0.0
 10
-35.24064646620789
 20
389.7185507455721
 30
0.0
 10
-35.24064646620811
 20
390.2242680834883
 30
0.0
 10
-35.24064646620783
 20
390.4958878176265
 30
0.0
 10
-35.24064646620801
 20
390.4940280861667
 30
0.0
 10
-35.24064646620806
 20
390.4933017926418
 30
0.0
  0
SPLINE
  5
2C5
330
1F
100
AcDbEntity
  8
0
  6
Continuous
 62
     7
370
    25
100
AcDbSpline
210
0.0
220
0.0
230
1.0
 70
     8
 71
     3
 72
     8
 73
     4
 74
     0
 42
0.000000001
 43
0.00000001
 40
0.0
 40
0.0
 40
0.0
 40
0.0
 40
1.0
 40
1.0
 40
1.0
 40
1.0
 10
-31.24064646621499
 20
384.3366579555525
 30
0.0
 10
-31.24064646621499
 20
385.3190364001252
 30
0.0
 10
-31.41496176659442
 20
386.274527568315
 30
0.0
 10
-31.68722845360639
 20
387.2149102176426
 30
0.0
  0
SPLINE
  5
2C6
330
1F
100
AcDbEntity
  8
0
  6
Continuous
 62
     7
370
    25
100
AcDbSpline
210
0.0
220
0.0
230
1.0
 70
     8
 71
     3
 72
     8
 73
     4
 74
     0
 42
0.000000001
 43
0.00000001
 40
0.0
 40
0.0
 40
0.0
 40
0.0
 40
1.0
 40
1.0
 40
1.0
 40
1.0
 10
-31.68722845360639
 20
381.4584056934625
 30
0.0
 10
-31.41496176659497
 20
382.3987883427883
 30
0.0
 10
-31.24064646621499
 20
383.3542795109815
 30
0.0
 10
-31.24064646621499
 20
384.3366579555525
 30
0.0
  0
LINE
  5
2C7
330
1F
100
AcDbEntity
  8
0
  6
Continuous
 62
     7
370
    25
100
AcDbLine
 10
-35.2406464662
 20
381.4584056935
 30
0.0
 11
-31.6872284536
 21
381.4584056935
 31
0.0
  0
LINE
  5
2C8
330
1F
100
AcDbEntity
  8
0
  6
Continuous
 62
     7
370
    25
100
AcDbLine
 10
-35.2406464662
 20
387.2149102176
 30
0.0
 11
-31.6872284536
 21
387.2149102176
 31
0.0
  0
LINE
  5
2C9
330
1F
100
AcDbEntity
  8
0
  6
Continuous
 62
     7
370
    25
100
AcDbLine
 10
-31.2406464662
 20
384.3366579556
 30
0.0
 11
-31.2406464662
 21
388.8457338625
 31
0.0
  0
SPLINE
  5
2CA
330
1F
100
AcDbEntity
  8
0
  6
Continuous
 62
     7
370
    25
100
AcDbSpline
210
0.0
220
0.0
230
1.0
 70
     8
 71
     3
 72
     8
 73
     4
 74
     0
 42
0.000000001
 43
0.00000001
 40
0.0
 40
0.0
 40
0.0
 40
0.0
 40
1.0
 40
1.0
 40
1.0
 40
1.0
 10
-31.68722845360644
 20
387.2149102176487
 30
0.0
 10
-31.41496176659503
 20
387.7477329587136
 30
0.0
 10
-31.2406464662151
 20
388.2891162176081
 30
0.0
 10
-31.2406464662151
 20
388.8457338625366
 30
0.0
  0
LINE
  5
2CB
330
1F
100
AcDbEntity
  8
0
  6
Continuous
 62
     7
370
    25
100
AcDbLine
 10
-31.2406464662
 20
380.2109770763
 30
0.0
 11
-31.2406464662
 21
384.3366579556
 31
0.0
  0
SPLINE
  5
2CC
330
1F
100
AcDbEntity
  8
0
  6
Continuous
 62
     7
370
    25
100
AcDbSpline
210
0.0
220
0.0
230
1.0
 70
     8
 71
     3
 72
     8
 73
     4
 74
     0
 42
0.000000001
 43
0.00000001
 40
0.0
 40
0.0
 40
0.0
 40
0.0
 40
1.0
 40
1.0
 40
1.0
 40
1.0
 10
-31.24064646621522
 20
380.2109770762549
 30
0.0
 10
-31.24064646621522
 20
380.6367378758982
 30
0.0
 10
-31.41496176659458
 20
381.0508457851953
 30
0.0
 10
-31.68722845360644
 20
381.4584056934569
 30
0.0
  0
SPLINE
  5
2CD
330
1F
100
AcDbEntity
  8
0
  6
Continuous
 62
     7
370
    25
100
AcDbSpline
210
0.0
220
0.0
230
1.0
 70
     8
 71
     3
 72
     8
 73
     4
 74
     0
 42
0.000000001
 43
0.00000001
 40
0.0
 40
0.0
 40
0.0
 40
0.0
 40
1.0
 40
1.0
 40
1.0
 40
1.0
 10
-31.2406464662151
 20
388.8457338625366
 30
0.0
 10
-31.2406464662151
 20
389.4023515074664
 30
0.0
 10
-31.41496176659436
 20
389.9437347663583
 30
0.0
 10
-31.68722845360644
 20
390.4765575074244
 30
0.0
  0
LINE
  5
2CE
330
1F
100
AcDbEntity
  8
0
  6
Continuous
 62
     7
370
    25
100
AcDbLine
 10
-31.6872284536
 20
390.4765575074
 30
0.0
 11
-35.2406464662
 21
390.4765575074
 31
0.0
  0
SPLINE
  5
2CF
330
1F
100
AcDbEntity
  8
0
  6
Continuous
 62
     7
370
    25
100
AcDbSpline
210
0.0
220
0.0
230
1.0
 70
     8
 71
     3
 72
     8
 73
     4
 74
     0
 42
0.000000001
 43
0.00000001
 40
0.0
 40
0.0
 40
0.0
 40
0.0
 40
1.0
 40
1.0
 40
1.0
 40
1.0
 10
-31.6872284536065
 20
378.963548459053
 30
0.0
 10
-31.41496176659508
 20
379.3711083673139
 30
0.0
 10
-31.24064646621522
 20
379.7852162766126
 30
0.0
 10
-31.24064646621522
 20
380.2109770762549
 30
0.0
  0
LINE
  5
2D0
330
1F
100
AcDbEntity
  8
0
  6
Continuous
 62
     7
370
    25
100
AcDbLine
 10
-35.2406464662
 20
378.9635484591
 30
0.0
 11
-31.6872284536
 21
378.9635484591
 31
0.0
  0
LINE
  5
2D1
330
1F
100
AcDbEntity
  8
0
  6
Continuous
 62
     7
370
    25
100
AcDbLine
 10
-45.6993964662
 20
387.7200529832
 30
0.0
 11
-45.6993964662
 21
381.7200529832
 31
0.0
  0
LINE
  5
2D2
330
1F
100
AcDbEntity
  8
0
  6
Continuous
 62
     7
370
    25
100
AcDbLine
 10
-46.2406464662
 20
382.502714906
 30
0.0
 11
-46.2406464662
 21
382.2613029832
 31
0.0
  0
LINE
  5
2D3
330
1F
100
AcDbEntity
  8
0
  6
Continuous
 62
     7
370
    25
100
AcDbLine
 10
-46.2406464662
 20
387.1788029833
 30
0.0
 11
-46.2406464662
 21
382.502714906
 31
0.0
  0
LINE
  5
2D4
330
1F
100
AcDbEntity
  8
0
  6
Continuous
 62
     7
370
    25
100
AcDbLine
 10
-31.6872284536
 20
390.4765575074
 30
0.0
 11
-31.6120406981
 21
390.2665370396
 31
0.0
  0
LINE
  5
2D5
330
1F
100
AcDbEntity
  8
0
  6
Continuous
 62
     7
370
    25
100
AcDbLine
 10
-31.2406464662
 20
388.8457338625
 30
0.0
 11
-31.2406464662
 21
389.7200529832
 31
0.0
  0
LINE
  5
2D6
330
1F
100
AcDbEntity
  8
0
  6
Continuous
 62
     7
370
    25
100
AcDbLine
 10
-31.2406464662
 20
379.7200529832
 30
0.0
 11
-31.2406464662
 21
380.2109770763
 31
0.0
  0
ARC
  5
2D7
330
1F
100
AcDbEntity
  8
0
  6
Continuous
 62
     7
370
    25
100
AcDbCircle
 10
867.4593535338
 20
107.2463019205
 30
0.0
 40
0.5
100
AcDbArc
 50
180.0
 51
0.0
  0
ARC
  5
2D8
330
1F
100
AcDbEntity
  8
0
  6
Continuous
 62
     7
370
    25
100
AcDbCircle
 10
867.4593535338
 20
118.8463019207
 30
0.0
 40
0.5
100
AcDbArc
 50
360.0
 51
180.0
  0
LINE
  5
2D9
330
1F
100
AcDbEntity
  8
0
  6
Continuous
 62
     7
370
    25
100
AcDbLine
 10
877.4181035338
 20
110.0463019206
 30
0.0
 11
877.9593535338
 21
110.5875519206
 31
0.0
  0
LINE
  5
2DA
330
1F
100
AcDbEntity
  8
0
  6
Continuous
 62
     7
370
    25
100
AcDbLine
 10
877.9593535338
 20
115.5050519206
 30
0.0
 11
877.4181035338
 21
116.0463019206
 31
0.0
  0
LINE
  5
2DB
330
1F
100
AcDbEntity
  8
0
  6
Continuous
 62
     7
370
    25
100
AcDbLine
 10
877.4181035338
 20
116.0463019206
 30
0.0
 11
868.7593535338
 21
116.0463019206
 31
0.0
  0
LINE
  5
2DC
330
1F
100
AcDbEntity
  8
0
  6
Continuous
 62
     7
370
    25
100
AcDbLine
 10
868.7593535338
 20
110.0463019206
 30
0.0
 11
877.4181035338
 21
110.0463019206
 31
0.0
  0
LINE
  5
2DD
330
1F
100
AcDbEntity
  8
0
  6
Continuous
 62
     7
370
    25
100
AcDbLine
 10
850.8045681194
 20
104.4181246732
 30
0.0
 11
850.4093535338
 21
104.6463019206
 31
0.0
  0
LINE
  5
2DE
330
1F
100
AcDbEntity
  8
0
  6
Continuous
 62
     7
370
    25
100
AcDbLine
 10
844.1093535338
 20
104.6463019206
 30
0.0
 11
843.6788152389
 21
104.3977305201
 31
0.0
  0
LINE
  5
2DF
330
1F
100
AcDbEntity
  8
0
  6
Continuous
 62
     7
370
    25
100
AcDbLine
 10
843.6788152389
 20
101.6948733211
 30
0.0
 11
844.1093535338
 21
101.4463019206
 31
0.0
  0
LINE
  5
2E0
330
1F
100
AcDbEntity
  8
0
  6
Continuous
 62
     7
370
    25
100
AcDbLine
 10
850.4093535338
 20
101.4463019206
 30
0.0
 11
850.8045681194
 21
101.674479168
 31
0.0
  0
LINE
  5
2E1
330
1F
100
AcDbEntity
  8
0
  6
Continuous
 62
     7
370
    25
100
AcDbLine
 10
267.8045681194
 20
104.4181246732
 30
0.0
 11
267.4093535338
 21
104.6463019206
 31
0.0
  0
LINE
  5
2E2
330
1F
100
AcDbEntity
  8
0
  6
Continuous
 62
     7
370
    25
100
AcDbLine
 10
261.1093535338
 20
104.6463019206
 30
0.0
 11
260.6788152389
 21
104.3977305201
 31
0.0
  0
LINE
  5
2E3
330
1F
100
AcDbEntity
  8
0
  6
Continuous
 62
     7
370
    25
100
AcDbLine
 10
260.6788152389
 20
101.6948733211
 30
0.0
 11
261.1093535338
 21
101.4463019206
 31
0.0
  0
LINE
  5
2E4
330
1F
100
AcDbEntity
  8
0
  6
Continuous
 62
     7
370
    25
100
AcDbLine
 10
267.4093535338
 20
101.4463019206
 30
0.0
 11
267.8045681194
 21
101.674479168
 31
0.0
  0
LINE
  5
2E5
330
1F
100
AcDbEntity
  8
0
  6
Continuous
 62
     7
370
    25
100
AcDbLine
 10
570.8045681194
 20
104.4181246732
 30
0.0
 11
570.4093535338
 21
104.6463019206
 31
0.0
  0
LINE
  5
2E6
330
1F
100
AcDbEntity
  8
0
  6
Continuous
 62
     7
370
    25
100
AcDbLine
 10
564.1093535338
 20
104.6463019206
 30
0.0
 11
563.6788152389
 21
104.3977305201
 31
0.0
  0
LINE
  5
2E7
330
1F
100
AcDbEntity
  8
0
  6
Continuous
 62
     7
370
    25
100
AcDbLine
 10
563.6788152389
 20
101.6948733211
 30
0.0
 11
564.1093535338
 21
101.4463019206
 31
0.0
  0
LINE
  5
2E8
330
1F
100
AcDbEntity
  8
0
  6
Continuous
 62
     7
370
    25
100
AcDbLine
 10
570.4093535338
 20
101.4463019206
 30
0.0
 11
570.8045681194
 21
101.674479168
 31
0.0
  0
LINE
  5
2E9
330
1F
100
AcDbEntity
  8
0
  6
Continuous
 62
     7
370
    25
100
AcDbLine
 10
-12.1954318806
 20
104.4181246732
 30
0.0
 11
-12.5906464662
 21
104.6463019206
 31
0.0
  0
LINE
  5
2EA
330
1F
100
AcDbEntity
  8
0
  6
Continuous
 62
     7
370
    25
100
AcDbLine
 10
-18.8906464662
 20
104.6463019206
 30
0.0
 11
-19.3211847611
 21
104.3977305201
 31
0.0
  0
LINE
  5
2EB
330
1F
100
AcDbEntity
  8
0
  6
Continuous
 62
     7
370
    25
100
AcDbLine
 10
-19.3211847611
 20
101.6948733211
 30
0.0
 11
-18.8906464662
 21
101.4463019206
 31
0.0
  0
LINE
  5
2EC
330
1F
100
AcDbEntity
  8
0
  6
Continuous
 62
     7
370
    25
100
AcDbLine
 10
-12.5906464662
 20
101.4463019206
 30
0.0
 11
-12.1954318806
 21
101.674479168
 31
0.0
  0
LINE
  5
2ED
330
1F
100
AcDbEntity
  8
0
  6
Continuous
 62
     7
370
    25
100
AcDbLine
 10
-36.7406464662
 20
87.9963019206
 30
0.0
 11
868.2593535338
 21
87.9963019206
 31
0.0
  0
LINE
  5
2EE
330
1F
100
AcDbEntity
  8
0
  6
Continuous
 62
     7
370
    25
100
AcDbLine
 10
845.2593535338
 20
109.7463019206
 30
0.0
 11
845.2593535338
 21
104.6463019206
 31
0.0
  0
LINE
  5
2EF
330
1F
100
AcDbEntity
  8
0
  6
Continuous
 62
     7
370
    25
100
AcDbLine
 10
845.2593535338
 20
101.4463019206
 30
0.0
 11
845.2593535338
 21
101.3463019206
 31
0.0
  0
LINE
  5
2F0
330
1F
100
AcDbEntity
  8
0
  6
Continuous
 62
     7
370
    25
100
AcDbLine
 10
849.2593535338
 20
101.3463019206
 30
0.0
 11
849.2593535338
 21
101.4463019206
 31
0.0
  0
LINE
  5
2F1
330
1F
100
AcDbEntity
  8
0
  6
Continuous
 62
     7
370
    25
100
AcDbLine
 10
849.2593535338
 20
104.6463019206
 30
0.0
 11
849.2593535338
 21
109.7463019206
 31
0.0
  0
LINE
  5
2F2
330
1F
100
AcDbEntity
  8
0
  6
Continuous
 62
     7
370
    25
100
AcDbLine
 10
262.2593535338
 20
109.7463019206
 30
0.0
 11
262.2593535338
 21
104.6463019206
 31
0.0
  0
LINE
  5
2F3
330
1F
100
AcDbEntity
  8
0
  6
Continuous
 62
     7
370
    25
100
AcDbLine
 10
262.2593535338
 20
101.4463019206
 30
0.0
 11
262.2593535338
 21
101.3463019206
 31
0.0
  0
LINE
  5
2F4
330
1F
100
AcDbEntity
  8
0
  6
Continuous
 62
     7
370
    25
100
AcDbLine
 10
266.2593535338
 20
101.3463019206
 30
0.0
 11
266.2593535338
 21
101.4463019206
 31
0.0
  0
LINE
  5
2F5
330
1F
100
AcDbEntity
  8
0
  6
Continuous
 62
     7
370
    25
100
AcDbLine
 10
266.2593535338
 20
104.6463019206
 30
0.0
 11
266.2593535338
 21
109.7463019206
 31
0.0
  0
LINE
  5
2F6
330
1F
100
AcDbEntity
  8
0
  6
Continuous
 62
     7
370
    25
100
AcDbLine
 10
565.2593535338
 20
109.7463019206
 30
0.0
 11
565.2593535338
 21
104.6463019206
 31
0.0
  0
LINE
  5
2F7
330
1F
100
AcDbEntity
  8
0
  6
Continuous
 62
     7
370
    25
100
AcDbLine
 10
565.2593535338
 20
101.4463019206
 30
0.0
 11
565.2593535338
 21
101.3463019206
 31
0.0
  0
LINE
  5
2F8
330
1F
100
AcDbEntity
  8
0
  6
Continuous
 62
     7
370
    25
100
AcDbLine
 10
569.2593535338
 20
101.3463019206
 30
0.0
 11
569.2593535338
 21
101.4463019206
 31
0.0
  0
LINE
  5
2F9
330
1F
100
AcDbEntity
  8
0
  6
Continuous
 62
     7
370
    25
100
AcDbLine
 10
569.2593535338
 20
104.6463019206
 30
0.0
 11
569.2593535338
 21
109.7463019206
 31
0.0
  0
LINE
  5
2FA
330
1F
100
AcDbEntity
  8
0
  6
Continuous
 62
     7
370
    25
100
AcDbLine
 10
-17.7406464662
 20
109.7463019206
 30
0.0
 11
-17.7406464662
 21
104.6463019206
 31
0.0
  0
LINE
  5
2FB
330
1F
100
AcDbEntity
  8
0
  6
Continuous
 62
     7
370
    25
100
AcDbLine
 10
-17.7406464662
 20
101.4463019206
 30
0.0
 11
-17.7406464662
 21
101.3463019206
 31
0.0
  0
LINE
  5
2FC
330
1F
100
AcDbEntity
  8
0
  6
Continuous
 62
     7
370
    25
100
AcDbLine
 10
-13.7406464662
 20
101.3463019206
 30
0.0
 11
-13.7406464662
 21
101.4463019206
 31
0.0
  0
LINE
  5
2FD
330
1F
100
AcDbEntity
  8
0
  6
Continuous
 62
     7
370
    25
100
AcDbLine
 10
-13.7406464662
 20
104.6463019206
 30
0.0
 11
-13.7406464662
 21
109.7463019206
 31
0.0
  0
ARC
  5
2FE
330
1F
100
AcDbEntity
  8
0
  6
Continuous
 62
     7
370
    25
100
AcDbCircle
 10
-35.9406464662
 20
118.8463019207
 30
0.0
 40
0.5
100
AcDbArc
 50
0.0
 51
180.0
  0
ARC
  5
2FF
330
1F
100
AcDbEntity
  8
0
  6
Continuous
 62
     7
370
    25
100
AcDbCircle
 10
-35.9406464662
 20
107.2463019205
 30
0.0
 40
0.5
100
AcDbArc
 50
180.0
 51
360.0
  0
LINE
  5
300
330
1F
100
AcDbEntity
  8
0
  6
Continuous
 62
     7
370
    25
100
AcDbLine
 10
-45.8993964662
 20
110.0463019206
 30
0.0
 11
-37.2406464662
 21
110.0463019206
 31
0.0
  0
LINE
  5
301
330
1F
100
AcDbEntity
  8
0
  6
Continuous
 62
     7
370
    25
100
AcDbLine
 10
-37.2406464662
 20
116.0463019206
 30
0.0
 11
-45.8993964662
 21
116.0463019206
 31
0.0
  0
LINE
  5
302
330
1F
100
AcDbEntity
  8
0
  6
Continuous
 62
     7
370
    25
100
AcDbLine
 10
-45.8993964662
 20
116.0463019206
 30
0.0
 11
-46.4406464662
 21
115.5050519206
 31
0.0
  0
LINE
  5
303
330
1F
100
AcDbEntity
  8
0
  6
Continuous
 62
     7
370
    25
100
AcDbLine
 10
-46.4406464662
 20
110.5875519206
 30
0.0
 11
-45.8993964662
 21
110.0463019206
 31
0.0
  0
LINE
  5
304
330
1F
100
AcDbEntity
  8
0
  6
Continuous
 62
     7
370
    25
100
AcDbLine
 10
-31.4406464662
 20
118.0463019206
 30
0.0
 11
-31.770129562
 21
118.6169833827
 31
0.0
  0
LINE
  5
305
330
1F
100
AcDbEntity
  8
0
  6
Continuous
 62
     7
370
    25
100
AcDbLine
 10
-31.770129562
 20
107.4756204585
 30
0.0
 11
-31.4406464662
 21
108.0463019206
 31
0.0
  0
LINE
  5
306
330
1F
100
AcDbEntity
  8
0
  6
Continuous
 62
     7
370
    25
100
AcDbLine
 10
-38.7406464662
 20
89.8463019206
 30
0.0
 11
-44.7406464662
 21
89.8463019206
 31
0.0
  0
LINE
  5
307
330
1F
100
AcDbEntity
  8
0
  6
Continuous
 62
     7
370
    25
100
AcDbLine
 10
870.2593535338
 20
89.8463019206
 30
0.0
 11
868.0872605105
 21
89.8463019206
 31
0.0
  0
LINE
  5
308
330
1F
100
AcDbEntity
  8
0
  6
Continuous
 62
     7
370
    25
100
AcDbLine
 10
-36.568553443
 20
89.8463019206
 30
0.0
 11
-38.7406464662
 21
89.8463019206
 31
0.0
  0
LINE
  5
309
330
1F
100
AcDbEntity
  8
0
  6
Continuous
 62
     7
370
    25
100
AcDbLine
 10
876.2593535338
 20
89.8463019206
 30
0.0
 11
870.2593535338
 21
89.8463019206
 31
0.0
  0
SPLINE
  5
30A
330
1F
100
AcDbEntity
  8
0
  6
Continuous
 62
     7
370
    25
100
AcDbSpline
210
0.0
220
0.0
230
1.0
 70
    24
 71
     3
 72
     9
 73
     5
 74
     0
 42
0.000000001
 43
0.00000001
 40
0.0
 40
0.0
 40
0.0
 40
0.0
 40
0.5153941859651557
 40
1.0
 40
1.0
 40
1.0
 40
1.0
 10
867.9593535337913
 20
118.7213119206162
 30
0.0
 10
867.9593535337913
 20
118.7650537686722
 30
0.0
 10
867.9593535337912
 20
118.849924435139
 30
0.0
 10
867.9593535337914
 20
118.8271679998956
 30
0.0
 10
867.9593535337913
 20
118.8161400990699
 30
0.0
  0
SPLINE
  5
30B
330
1F
100
AcDbEntity
  8
0
  6
Continuous
 62
     7
370
    25
100
AcDbSpline
210
0.0
220
0.0
230
1.0
 70
    24
 71
     3
 72
    17
 73
    13
 74
     0
 42
0.000000001
 43
0.00000001
 40
0.0
 40
0.0
 40
0.0
 40
0.0
 40
0.0359921626376351
 40
0.1205930661280429
 40
0.2034359252874594
 40
0.3573281084250898
 40
0.5112202915627203
 40
0.5940631507221378
 40
0.6786640542125452
 40
0.7632649577029526
 40
0.8461078168623696
 40
1.0
 40
1.0
 40
1.0
 40
1.0
 10
866.9593535337913
 20
118.8161400990809
 30
0.0
 10
866.9593535337914
 20
118.8232914861221
 30
0.0
 10
866.9593535337914
 20
118.8472524717139
 30
0.0
 10
866.9593535337912
 20
118.6292475454782
 30
0.0
 10
866.9593535337914
 20
118.0574604483911
 30
0.0
 10
866.9593535337914
 20
116.8604438723008
 30
0.0
 10
866.9593535337912
 20
115.2143871124237
 30
0.0
 10
866.9593535337914
 20
113.7291967602099
 30
0.0
 10
866.9593535337913
 20
112.5331686358357
 30
0.0
 10
866.9593535337913
 20
111.3634032230463
 30
0.0
 10
866.9593535337914
 20
109.9414560424625
 30
0.0
 10
866.9593535337914
 20
109.1291887626023
 30
0.0
 10
866.9593535337913
 20
108.6011656031408
 30
0.0
  0
SPLINE
  5
30C
330
1F
100
AcDbEntity
  8
0
  6
Continuous
 62
     7
370
    25
100
AcDbSpline
210
0.0
220
0.0
230
1.0
 70
     8
 71
     3
 72
     8
 73
     4
 74
     0
 42
0.000000001
 43
0.00000001
 40
0.0
 40
0.0
 40
0.0
 40
0.0
 40
1.0
 40
1.0
 40
1.0
 40
1.0
 10
862.9593535337984
 20
116.2581033182954
 30
0.0
 10
862.9593535337984
 20
115.5029825119875
 30
0.0
 10
863.1336688341778
 20
114.7685290380441
 30
0.0
 10
863.4059355211896
 20
114.0456889672737
 30
0.0
  0
SPLINE
  5
30D
330
1F
100
AcDbEntity
  8
0
  6
Continuous
 62
     7
370
    25
100
AcDbSpline
210
0.0
220
0.0
230
1.0
 70
     8
 71
     3
 72
     8
 73
     4
 74
     0
 42
0.000000001
 43
0.00000001
 40
0.0
 40
0.0
 40
0.0
 40
0.0
 40
1.0
 40
1.0
 40
1.0
 40
1.0
 10
863.4059355211897
 20
118.4705176693172
 30
0.0
 10
863.1336688341781
 20
117.7476775985479
 30
0.0
 10
862.9593535337984
 20
117.0132241246022
 30
0.0
 10
862.9593535337984
 20
116.2581033182954
 30
0.0
  0
LINE
  5
30E
330
1F
100
AcDbEntity
  8
0
  6
Continuous
 62
     7
370
    25
100
AcDbLine
 10
863.4059355212
 20
118.4705176693
 30
0.0
 11
866.9593535338
 21
118.4705176693
 31
0.0
  0
LINE
  5
30F
330
1F
100
AcDbEntity
  8
0
  6
Continuous
 62
     7
370
    25
100
AcDbLine
 10
866.9593535338
 20
114.0456889673
 30
0.0
 11
863.4059355212
 21
114.0456889673
 31
0.0
  0
SPLINE
  5
310
330
1F
100
AcDbEntity
  8
0
  6
Continuous
 62
     7
370
    25
100
AcDbSpline
210
0.0
220
0.0
230
1.0
 70
     8
 71
     3
 72
     8
 73
     4
 74
     0
 42
0.000000001
 43
0.00000001
 40
0.0
 40
0.0
 40
0.0
 40
0.0
 40
1.0
 40
1.0
 40
1.0
 40
1.0
 10
862.9593535337983
 20
111.3335810929184
 30
0.0
 10
862.9593535337983
 20
110.4079095142981
 30
0.0
 10
863.1336688341778
 20
109.5075731694788
 30
0.0
 10
863.4059355211896
 20
108.6214732185696
 30
0.0
  0
SPLINE
  5
311
330
1F
100
AcDbEntity
  8
0
  6
Continuous
 62
     7
370
    25
100
AcDbSpline
210
0.0
220
0.0
230
1.0
 70
     8
 71
     3
 72
     8
 73
     4
 74
     0
 42
0.000000001
 43
0.00000001
 40
0.0
 40
0.0
 40
0.0
 40
0.0
 40
1.0
 40
1.0
 40
1.0
 40
1.0
 10
863.4059355211896
 20
114.0456889672671
 30
0.0
 10
863.1336688341781
 20
113.1595890163596
 30
0.0
 10
862.9593535337983
 20
112.2592526715369
 30
0.0
 10
862.9593535337983
 20
111.3335810929184
 30
0.0
  0
LINE
  5
312
330
1F
100
AcDbEntity
  8
0
  6
Continuous
 62
     7
370
    25
100
AcDbLine
 10
866.9593535338
 20
108.6214732186
 30
0.0
 11
863.4059355212
 21
108.6214732186
 31
0.0
  0
LINE
  5
313
330
1F
100
AcDbEntity
  8
0
  6
Continuous
 62
     7
370
    25
100
AcDbLine
 10
862.9593535338
 20
116.2581033183
 30
0.0
 11
862.9593535338
 21
111.3335810929
 31
0.0
  0
SPLINE
  5
314
330
1F
100
AcDbEntity
  8
0
  6
Continuous
 62
     7
370
    25
100
AcDbSpline
210
0.0
220
0.0
230
1.0
 70
     8
 71
     3
 72
     8
 73
     4
 74
     0
 42
0.000000001
 43
0.00000001
 40
0.0
 40
0.0
 40
0.0
 40
0.0
 40
1.0
 40
1.0
 40
1.0
 40
1.0
 10
863.4059355211897
 20
108.6214732185652
 30
0.0
 10
863.1336688341783
 20
108.4582133384268
 30
0.0
 10
862.9593535337984
 20
108.2923304675504
 30
0.0
 10
862.9593535337984
 20
108.1217796952385
 30
0.0
  0
LINE
  5
315
330
1F
100
AcDbEntity
  8
0
  6
Continuous
 62
     7
370
    25
100
AcDbLine
 10
862.9593535338
 20
111.3335810929
 30
0.0
 11
862.9593535338
 21
108.1217796952
 31
0.0
  0
SPLINE
  5
316
330
1F
100
AcDbEntity
  8
0
  6
Continuous
 62
     7
370
    25
100
AcDbSpline
210
0.0
220
0.0
230
1.0
 70
     8
 71
     3
 72
     8
 73
     4
 74
     0
 42
0.000000001
 43
0.00000001
 40
0.0
 40
0.0
 40
0.0
 40
0.0
 40
1.0
 40
1.0
 40
1.0
 40
1.0
 10
862.9593535337984
 20
117.9708241459928
 30
0.0
 10
862.9593535337984
 20
118.1413749183051
 30
0.0
 10
863.1336688341777
 20
118.3072577891807
 30
0.0
 10
863.4059355211897
 20
118.4705176693195
 30
0.0
  0
LINE
  5
317
330
1F
100
AcDbEntity
  8
0
  6
Continuous
 62
     7
370
    25
100
AcDbLine
 10
862.9593535338
 20
116.2581033183
 30
0.0
 11
862.9593535338
 21
118.0416638864
 31
0.0
  0
SPLINE
  5
318
330
1F
100
AcDbEntity
  8
0
  6
Continuous
 62
     7
370
    25
100
AcDbSpline
210
0.0
220
0.0
230
1.0
 70
     8
 71
     3
 72
     8
 73
     4
 74
     0
 42
0.000000001
 43
0.00000001
 40
0.0
 40
0.0
 40
0.0
 40
0.0
 40
1.0
 40
1.0
 40
1.0
 40
1.0
 10
862.9593535337984
 20
108.1217796952385
 30
0.0
 10
862.9593535337984
 20
107.9512289229263
 30
0.0
 10
863.1336688341779
 20
107.7853460520505
 30
0.0
 10
863.4059355211898
 20
107.6220861719118
 30
0.0
  0
LINE
  5
319
330
1F
100
AcDbEntity
  8
0
  6
Continuous
 62
     7
370
    25
100
AcDbLine
 10
866.9593535338
 20
107.6220861719
 30
0.0
 11
863.4059355212
 21
107.6220861719
 31
0.0
  0
LINE
  5
31A
330
1F
100
AcDbEntity
  8
0
  6
Continuous
 62
     7
370
    25
100
AcDbLine
 10
877.9593535338
 20
110.5875519206
 30
0.0
 11
877.9593535338
 21
115.5050519206
 31
0.0
  0
LINE
  5
31B
330
1F
100
AcDbEntity
  8
0
  6
Continuous
 62
     7
370
    25
100
AcDbLine
 10
877.4181035338
 20
114.9733827592
 30
0.0
 11
877.4181035338
 21
116.0463019206
 31
0.0
  0
LINE
  5
31C
330
1F
100
AcDbEntity
  8
0
  6
Continuous
 62
     7
370
    25
100
AcDbLine
 10
877.4181035338
 20
110.0463019206
 30
0.0
 11
877.4181035338
 21
114.9733827592
 31
0.0
  0
ARC
  5
31D
330
1F
100
AcDbEntity
  8
0
  6
Continuous
 62
     7
370
    25
100
AcDbCircle
 10
870.2593535338
 20
90.4463019206
 30
0.0
 40
3.000000000000103
100
AcDbArc
 50
227.6305369016
 51
270.0
  0
LINE
  5
31E
330
1F
100
AcDbEntity
  8
0
  6
Continuous
 62
     7
370
    25
100
AcDbLine
 10
882.2593535338
 20
87.4463019206
 30
0.0
 11
870.2593535338
 21
87.4463019206
 31
0.0
  0
ARC
  5
31F
330
1F
100
AcDbEntity
  8
0
  6
Continuous
 62
     7
370
    25
100
AcDbCircle
 10
882.2593535338
 20
90.4463019206
 30
0.0
 40
3.000000000000114
100
AcDbArc
 50
270.0
 51
0.0
  0
LINE
  5
320
330
1F
100
AcDbEntity
  8
0
  6
Continuous
 62
     7
370
    25
100
AcDbLine
 10
885.2593535338
 20
91.4463019206
 30
0.0
 11
885.2593535338
 21
90.4463019206
 31
0.0
  0
ARC
  5
321
330
1F
100
AcDbEntity
  8
0
  6
Continuous
 62
     7
370
    25
100
AcDbCircle
 10
888.2593535338
 20
91.4463019206
 30
0.0
 40
3.000000000000014
100
AcDbArc
 50
90.0
 51
180.0
  0
LINE
  5
322
330
1F
100
AcDbEntity
  8
0
  6
Continuous
 62
     7
370
    25
100
AcDbLine
 10
911.7886428557
 20
94.4463019206
 30
0.0
 11
888.2593535338
 21
94.4463019206
 31
0.0
  0
LINE
  5
323
330
1F
100
AcDbEntity
  8
0
  6
Continuous
 62
     7
370
    25
100
AcDbLine
 10
911.7886428557
 20
84.8463019206
 30
0.0
 11
911.7886428557
 21
94.4463019206
 31
0.0
  0
LINE
  5
324
330
1F
100
AcDbEntity
  8
0
  6
Continuous
 62
     7
370
    25
100
AcDbLine
 10
-80.2699357881
 20
84.8463019206
 30
0.0
 11
-80.2699357881
 21
94.4463019206
 31
0.0
  0
LINE
  5
325
330
1F
100
AcDbEntity
  8
0
  6
Continuous
 62
     7
370
    25
100
AcDbLine
 10
-56.7406464662
 20
94.4463019206
 30
0.0
 11
-80.2699357881
 21
94.4463019206
 31
0.0
  0
ARC
  5
326
330
1F
100
AcDbEntity
  8
0
  6
Continuous
 62
     7
370
    25
100
AcDbCircle
 10
-56.7406464662
 20
91.4463019206
 30
0.0
 40
3.000000000000014
100
AcDbArc
 50
0.0
 51
90.0
  0
LINE
  5
327
330
1F
100
AcDbEntity
  8
0
  6
Continuous
 62
     7
370
    25
100
AcDbLine
 10
-53.7406464662
 20
91.4463019206
 30
0.0
 11
-53.7406464662
 21
90.4463019206
 31
0.0
  0
ARC
  5
328
330
1F
100
AcDbEntity
  8
0
  6
Continuous
 62
     7
370
    25
100
AcDbCircle
 10
-50.7406464662
 20
90.4463019206
 30
0.0
 40
3.000000000000114
100
AcDbArc
 50
180.0
 51
270.0
  0
LINE
  5
329
330
1F
100
AcDbEntity
  8
0
  6
Continuous
 62
     7
370
    25
100
AcDbLine
 10
-50.7406464662
 20
87.4463019206
 30
0.0
 11
-38.7406464662
 21
87.4463019206
 31
0.0
  0
ARC
  5
32A
330
1F
100
AcDbEntity
  8
0
  6
Continuous
 62
     7
370
    25
100
AcDbCircle
 10
-38.7406464662
 20
90.4463019206
 30
0.0
 40
3.000000000000063
100
AcDbArc
 50
270.0
 51
312.3694630984
  0
SPLINE
  5
32B
330
1F
100
AcDbEntity
  8
0
  6
Continuous
 62
     7
370
    25
100
AcDbSpline
210
0.0
220
0.0
230
1.0
 70
     8
 71
     3
 72
    20
 73
    16
 74
     0
 42
0.000000001
 43
0.00000001
 40
0.0
 40
0.0
 40
0.0
 40
0.0
 40
0.1250000000000004
 40
0.1250000000000004
 40
0.2500000000000008
 40
0.2500000000000008
 40
0.3750000000000012
 40
0.3750000000000012
 40
0.5000000000000016
 40
0.5000000000000016
 40
0.7500000000000004
 40
0.7500000000000004
 40
0.8750000000000002
 40
0.8750000000000002
 40
1.0
 40
1.0
 40
1.0
 40
1.0
 10
-79.34064646620864
 20
82.44630192061632
 30
0.0
 10
-79.37968719706329
 20
82.4463019206163
 30
0.0
 10
-79.41820590126292
 20
82.46183848109115
 30
0.0
 10
-79.49561265257077
 20
82.52315683305176
 30
0.0
 10
-79.53475707055769
 20
82.56958057863855
 30
0.0
 10
-79.61190782447296
 20
82.68953144879268
 30
0.0
 10
-79.65023540621402
 20
82.76313609307607
 30
0.0
 10
-79.72778172669042
 20
82.93786645917173
 30
0.0
 10
-79.76675793435928
 20
83.03871708807327
 30
0.0
 10
-79.88225279080436
 20
83.37000236805719
 30
0.0
 10
-79.96016523447413
 20
83.6376825294411
 30
0.0
 10
-80.07564515987525
 20
84.07035655549647
 30
0.0
 10
-80.11451095574013
 20
84.2218746423476
 30
0.0
 10
-80.1922852894088
 20
84.53130039973372
 30
0.0
 10
-80.23089505636327
 20
84.68792272942737
 30
0.0
 10
-80.26993578809005
 20
84.8463019206161
 30
0.0
  0
LINE
  5
32C
330
1F
100
AcDbEntity
  8
0
  6
Continuous
 62
     7
370
    25
100
AcDbLine
 10
910.8593535338
 20
82.4463019206
 30
0.0
 11
-79.3406464662
 21
82.4463019206
 31
0.0
  0
SPLINE
  5
32D
330
1F
100
AcDbEntity
  8
0
  6
Continuous
 62
     7
370
    25
100
AcDbSpline
210
0.0
220
0.0
230
1.0
 70
     8
 71
     3
 72
    20
 73
    16
 74
     0
 42
0.000000001
 43
0.00000001
 40
0.0
 40
0.0
 40
0.0
 40
0.0
 40
0.1249999999999993
 40
0.1249999999999993
 40
0.2499999999999985
 40
0.2499999999999985
 40
0.3749999999999978
 40
0.3749999999999978
 40
0.4999999999999969
 40
0.4999999999999969
 40
0.7499999999999933
 40
0.7499999999999933
 40
0.8749999999999967
 40
0.8749999999999967
 40
1.0
 40
1.0
 40
1.0
 40
1.0
 10
911.7886428556727
 20
84.84630192061621
 30
0.0
 10
911.7496021248181
 20
84.68792273296549
 30
0.0
 10
911.7110834206184
 20
84.53167700827379
 30
0.0
 10
911.6336766693105
 20
84.22368515885714
 30
0.0
 10
911.5945322513238
 20
84.071041051386
 30
0.0
 10
911.5173814974087
 20
83.78195676219896
 30
0.0
 10
911.4790539156677
 20
83.64415222401492
 30
0.0
 10
911.401507595191
 20
83.38253354837602
 30
0.0
 10
911.3625313875223
 20
83.25978724169336
 30
0.0
 10
911.2470365310772
 20
82.92846286474567
 30
0.0
 10
911.1691240874071
 20
82.7494517407174
 30
0.0
 10
911.0536441620063
 20
82.56983664133652
 30
0.0
 10
911.0147783661413
 20
82.5235922924688
 30
0.0
 10
910.9370040324729
 20
82.46183898645756
 30
0.0
 10
910.898394265518
 20
82.44630192061611
 30
0.0
 10
910.8593535337914
 20
82.44630192061611
 30
0.0
  0
SPLINE
  5
32E
330
1F
100
AcDbEntity
  8
0
  6
Continuous
 62
     7
370
    25
100
AcDbSpline
210
0.0
220
0.0
230
1.0
 70
     8
 71
     3
 72
     9
 73
     5
 74
     0
 42
0.000000001
 43
0.00000001
 40
0.0
 40
0.0
 40
0.0
 40
0.0
 40
0.4825784287291298
 40
1.0
 40
1.0
 40
1.0
 40
1.0
 10
911.6355237657378
 20
84.23376218143822
 30
0.0
 10
911.6993319587992
 20
84.32189652275459
 30
0.0
 10
911.8315554260386
 20
84.50452868380756
 30
0.0
 10
911.8498747304949
 20
84.72976156785204
 30
0.0
 10
911.8593535337914
 20
84.84630192061621
 30
0.0
  0
LINE
  5
32F
330
1F
100
AcDbEntity
  8
0
  6
Continuous
 62
     7
370
    25
100
AcDbLine
 10
913.2593535338
 20
84.8463019206
 30
0.0
 11
911.8593535338
 21
84.8463019206
 31
0.0
  0
SPLINE
  5
330
330
1F
100
AcDbEntity
  8
0
  6
Continuous
 62
     7
370
    25
100
AcDbSpline
210
0.0
220
0.0
230
1.0
 70
     8
 71
     3
 72
    20
 73
    16
 74
     0
 42
0.000000001
 43
0.00000001
 40
0.0
 40
0.0
 40
0.0
 40
0.0
 40
0.1249999999999946
 40
0.1249999999999946
 40
0.2499999999999892
 40
0.2499999999999892
 40
0.3749999999999838
 40
0.3749999999999838
 40
0.4999999999999785
 40
0.4999999999999785
 40
0.7499999999999972
 40
0.7499999999999972
 40
0.8749999999999986
 40
0.8749999999999986
 40
1.0
 40
1.0
 40
1.0
 40
1.0
 10
910.8593535337914
 20
82.44630192061622
 30
0.0
 10
911.0177327214421
 20
82.44630192061622
 30
0.0
 10
911.1739784461338
 20
82.46183848109105
 30
0.0
 10
911.4819702955505
 20
82.52315683305167
 30
0.0
 10
911.6346144030214
 20
82.56958057863845
 30
0.0
 10
911.9236986922085
 20
82.68953144879258
 30
0.0
 10
912.0615032303925
 20
82.76313609307601
 30
0.0
 10
912.3231219060315
 20
82.93786645917166
 30
0.0
 10
912.445868212714
 20
83.03871708807324
 30
0.0
 10
912.7771925896618
 20
83.37000236805719
 30
0.0
 10
912.9562037136901
 20
83.63768252944104
 30
0.0
 10
913.1358188130712
 20
84.07035655549645
 30
0.0
 10
913.1820631619387
 20
84.22187464234759
 30
0.0
 10
913.24381646795
 20
84.5313003997337
 30
0.0
 10
913.2593535337913
 20
84.68792272942747
 30
0.0
 10
913.2593535337913
 20
84.84630192061621
 30
0.0
  0
SPLINE
  5
331
330
1F
100
AcDbEntity
  8
0
  6
Continuous
 62
     7
370
    25
100
AcDbSpline
210
0.0
220
0.0
230
1.0
 70
     8
 71
     3
 72
    20
 73
    16
 74
     0
 42
0.000000001
 43
0.00000001
 40
0.0
 40
0.0
 40
0.0
 40
0.0
 40
0.1249999999999999
 40
0.1249999999999999
 40
0.25
 40
0.25
 40
0.3750000000000001
 40
0.3750000000000001
 40
0.5000000000000001
 40
0.5000000000000001
 40
0.7500000000000003
 40
0.7500000000000003
 40
0.8750000000000002
 40
0.8750000000000002
 40
1.0
 40
1.0
 40
1.0
 40
1.0
 10
-81.74064646620866
 20
84.84630192061621
 30
0.0
 10
-81.74064646620866
 20
84.6879227329655
 30
0.0
 10
-81.72510990573373
 20
84.53167700827383
 30
0.0
 10
-81.66379155377307
 20
84.22368515885721
 30
0.0
 10
-81.61736780818634
 20
84.07104105138609
 30
0.0
 10
-81.4974169380322
 20
83.78195676219902
 30
0.0
 10
-81.42381229374895
 20
83.64415222401495
 30
0.0
 10
-81.2490819276533
 20
83.38253354837605
 30
0.0
 10
-81.14823129875165
 20
83.25978724169339
 30
0.0
 10
-80.81694601876765
 20
82.9284628647457
 30
0.0
 10
-80.54926585738376
 20
82.74945174071749
 30
0.0
 10
-80.11659183132835
 20
82.56983664133664
 30
0.0
 10
-79.96507374447742
 20
82.52359229246889
 30
0.0
 10
-79.65564798709113
 20
82.46183898645766
 30
0.0
 10
-79.49902565739725
 20
82.44630192061622
 30
0.0
 10
-79.34064646620864
 20
82.44630192061622
 30
0.0
  0
LINE
  5
332
330
1F
100
AcDbEntity
  8
0
  6
Continuous
 62
     7
370
    25
100
AcDbLine
 10
-81.7406464662
 20
84.8463019206
 30
0.0
 11
-80.3406464662
 21
84.8463019206
 31
0.0
  0
SPLINE
  5
333
330
1F
100
AcDbEntity
  8
0
  6
Continuous
 62
     7
370
    25
100
AcDbSpline
210
0.0
220
0.0
230
1.0
 70
     8
 71
     3
 72
     9
 73
     5
 74
     0
 42
0.000000001
 43
0.00000001
 40
0.0
 40
0.0
 40
0.0
 40
0.0
 40
0.6784508005730692
 40
1.0
 40
1.0
 40
1.0
 40
1.0
 10
-80.34064646620864
 20
84.84630192061621
 30
0.0
 10
-80.3273968957443
 20
84.69559471616292
 30
0.0
 10
-80.30786774130405
 20
84.47346040026852
 30
0.0
 10
-80.16702008766518
 20
84.30662729537941
 30
0.0
 10
-80.12173063739641
 20
84.2529822440644
 30
0.0
  0
LINE
  5
334
330
1F
100
AcDbEntity
  8
0
  6
Continuous
 62
     7
370
    25
100
AcDbLine
 10
911.8593535338
 20
84.8463019206
 30
0.0
 11
911.8593535338
 21
94.4463019206
 31
0.0
  0
LINE
  5
335
330
1F
100
AcDbEntity
  8
0
  6
Continuous
 62
     7
370
    25
100
AcDbLine
 10
913.2593535338
 20
94.4463019206
 30
0.0
 11
911.8593535338
 21
94.4463019206
 31
0.0
  0
LINE
  5
336
330
1F
100
AcDbEntity
  8
0
  6
Continuous
 62
     7
370
    25
100
AcDbLine
 10
913.2593535338
 20
84.8463019206
 30
0.0
 11
913.2593535338
 21
94.4463019206
 31
0.0
  0
LINE
  5
337
330
1F
100
AcDbEntity
  8
0
  6
Continuous
 62
     7
370
    25
100
AcDbLine
 10
-80.3406464662
 20
84.8463019206
 30
0.0
 11
-80.3406464662
 21
94.4463019206
 31
0.0
  0
LINE
  5
338
330
1F
100
AcDbEntity
  8
0
  6
Continuous
 62
     7
370
    25
100
AcDbLine
 10
-81.7406464662
 20
84.8463019206
 30
0.0
 11
-81.7406464662
 21
94.4463019206
 31
0.0
  0
LINE
  5
339
330
1F
100
AcDbEntity
  8
0
  6
Continuous
 62
     7
370
    25
100
AcDbLine
 10
-81.7406464662
 20
94.4463019206
 30
0.0
 11
-80.3406464662
 21
94.4463019206
 31
0.0
  0
LINE
  5
33A
330
1F
100
AcDbEntity
  8
0
  6
Continuous
 62
     7
370
    25
100
AcDbLine
 10
867.9593535338
 20
118.5463019206
 30
0.0
 11
867.9593535338
 21
121.5463019206
 31
0.0
  0
LINE
  5
33B
330
1F
100
AcDbEntity
  8
0
  6
Continuous
 62
     7
370
    25
100
AcDbLine
 10
867.9593535338
 20
121.5463019206
 30
0.0
 11
868.7593535338
 21
121.5463019206
 31
0.0
  0
LINE
  5
33C
330
1F
100
AcDbEntity
  8
0
  6
Continuous
 62
     7
370
    25
100
AcDbLine
 10
868.7593535338
 20
121.5463019206
 30
0.0
 11
868.7593535338
 21
118.5463019206
 31
0.0
  0
LINE
  5
33D
330
1F
100
AcDbEntity
  8
0
  6
Continuous
 62
     7
370
    25
100
AcDbLine
 10
-37.2406464662
 20
121.5463019206
 30
0.0
 11
-36.4406464662
 21
121.5463019206
 31
0.0
  0
LINE
  5
33E
330
1F
100
AcDbEntity
  8
0
  6
Continuous
 62
     7
370
    25
100
AcDbLine
 10
-37.2406464662
 20
118.5463019206
 30
0.0
 11
-37.2406464662
 21
121.5463019206
 31
0.0
  0
LINE
  5
33F
330
1F
100
AcDbEntity
  8
0
  6
Continuous
 62
     7
370
    25
100
AcDbLine
 10
-36.4406464662
 20
121.5463019206
 30
0.0
 11
-36.4406464662
 21
118.5463019206
 31
0.0
  0
LINE
  5
340
330
1F
100
AcDbEntity
  8
0
  6
Continuous
 62
     7
370
    25
100
AcDbLine
 10
868.7593535338
 20
118.5463019206
 30
0.0
 11
868.7593535338
 21
101.5463019206
 31
0.0
  0
LINE
  5
341
330
1F
100
AcDbEntity
  8
0
  6
Continuous
 62
     7
370
    25
100
AcDbLine
 10
867.9593535338
 20
118.5463019206
 30
0.0
 11
867.9593535338
 21
101.5463019206
 31
0.0
  0
LINE
  5
342
330
1F
100
AcDbEntity
  8
0
  6
Continuous
 62
     7
370
    25
100
AcDbLine
 10
-37.2406464662
 20
101.5463019206
 30
0.0
 11
-37.2406464662
 21
118.5463019206
 31
0.0
  0
LINE
  5
343
330
1F
100
AcDbEntity
  8
0
  6
Continuous
 62
     7
370
    25
100
AcDbLine
 10
-36.4406464662
 20
101.5463019206
 30
0.0
 11
-36.4406464662
 21
118.5463019206
 31
0.0
  0
LINE
  5
344
330
1F
100
AcDbEntity
  8
0
  6
Continuous
 62
     7
370
    25
100
AcDbLine
 10
868.7593535338
 20
98.5463019206
 30
0.0
 11
867.9593535338
 21
98.5463019206
 31
0.0
  0
LINE
  5
345
330
1F
100
AcDbEntity
  8
0
  6
Continuous
 62
     7
370
    25
100
AcDbLine
 10
868.7593535338
 20
101.5463019206
 30
0.0
 11
868.7593535338
 21
98.5463019206
 31
0.0
  0
LINE
  5
346
330
1F
100
AcDbEntity
  8
0
  6
Continuous
 62
     7
370
    25
100
AcDbLine
 10
867.9593535338
 20
98.5463019206
 30
0.0
 11
867.9593535338
 21
101.5463019206
 31
0.0
  0
LINE
  5
347
330
1F
100
AcDbEntity
  8
0
  6
Continuous
 62
     7
370
    25
100
AcDbLine
 10
-36.4406464662
 20
98.5463019206
 30
0.0
 11
-37.2406464662
 21
98.5463019206
 31
0.0
  0
LINE
  5
348
330
1F
100
AcDbEntity
  8
0
  6
Continuous
 62
     7
370
    25
100
AcDbLine
 10
-37.2406464662
 20
98.5463019206
 30
0.0
 11
-37.2406464662
 21
101.5463019206
 31
0.0
  0
LINE
  5
349
330
1F
100
AcDbEntity
  8
0
  6
Continuous
 62
     7
370
    25
100
AcDbLine
 10
-36.4406464662
 20
101.5463019206
 30
0.0
 11
-36.4406464662
 21
98.5463019206
 31
0.0
  0
LINE
  5
34A
330
1F
100
AcDbEntity
  8
0
  6
Continuous
 62
     7
370
    25
100
AcDbLine
 10
-34.2406464662
 20
100.5463019206
 30
0.0
 11
-34.2406464662
 21
101.3463019206
 31
0.0
  0
LINE
  5
34B
330
1F
100
AcDbEntity
  8
0
  6
Continuous
 62
     7
370
    25
100
AcDbLine
 10
865.7593535338
 20
100.5463019206
 30
0.0
 11
865.7593535338
 21
101.3463019206
 31
0.0
  0
LINE
  5
34C
330
1F
100
AcDbEntity
  8
0
  6
Continuous
 62
     7
370
    25
100
AcDbLine
 10
865.7593535338
 20
101.3463019206
 30
0.0
 11
-34.2406464662
 21
101.3463019206
 31
0.0
  0
LINE
  5
34D
330
1F
100
AcDbEntity
  8
0
  6
Continuous
 62
     7
370
    25
100
AcDbLine
 10
20.2593535338
 20
134.0332238588
 30
0.0
 11
20.2593535338
 21
134.9332238588
 31
0.0
  0
LINE
  5
34E
330
1F
100
AcDbEntity
  8
0
  6
Continuous
 62
     7
370
    25
100
AcDbLine
 10
220.2593535338
 20
134.9332238588
 30
0.0
 11
220.2593535338
 21
134.0332238588
 31
0.0
  0
LINE
  5
34F
330
1F
100
AcDbEntity
  8
0
  6
Continuous
 62
     7
370
    25
100
AcDbLine
 10
315.7593535338
 20
141.4509153124
 30
0.0
 11
315.7593535338
 21
134.9332238588
 31
0.0
  0
ARC
  5
350
330
1F
100
AcDbEntity
  8
0
  6
Continuous
 62
     7
370
    25
100
AcDbCircle
 10
318.7593535338
 20
141.4509153124
 30
0.0
 40
3.0
100
AcDbArc
 50
90.0
 51
180.0
  0
LINE
  5
351
330
1F
100
AcDbEntity
  8
0
  6
Continuous
 62
     7
370
    25
100
AcDbLine
 10
512.7593535338
 20
144.4509153124
 30
0.0
 11
318.7593535338
 21
144.4509153124
 31
0.0
  0
ARC
  5
352
330
1F
100
AcDbEntity
  8
0
  6
Continuous
 62
     7
370
    25
100
AcDbCircle
 10
512.7593535338
 20
141.4509153124
 30
0.0
 40
3.0
100
AcDbArc
 50
0.0
 51
90.0
  0
LINE
  5
353
330
1F
100
AcDbEntity
  8
0
  6
Continuous
 62
     7
370
    25
100
AcDbLine
 10
515.7593535338
 20
134.9332238588
 30
0.0
 11
515.7593535338
 21
141.4509153124
 31
0.0
  0
LINE
  5
354
330
1F
100
AcDbEntity
  8
0
  6
Continuous
 62
     7
370
    25
100
AcDbLine
 10
611.2593535338
 20
141.4509153124
 30
0.0
 11
611.2593535338
 21
134.9332238588
 31
0.0
  0
ARC
  5
355
330
1F
100
AcDbEntity
  8
0
  6
Continuous
 62
     7
370
    25
100
AcDbCircle
 10
614.2593535338
 20
141.4509153124
 30
0.0
 40
3.0
100
AcDbArc
 50
90.0
 51
180.0
  0
LINE
  5
356
330
1F
100
AcDbEntity
  8
0
  6
Continuous
 62
     7
370
    25
100
AcDbLine
 10
811.2593535338
 20
134.9332238588
 30
0.0
 11
811.2593535338
 21
141.4509153124
 31
0.0
  0
LINE
  5
357
330
1F
100
AcDbEntity
  8
0
  6
Continuous
 62
     7
370
    25
100
AcDbLine
 10
808.2593535338
 20
144.4509153124
 30
0.0
 11
614.2593535338
 21
144.4509153124
 31
0.0
  0
ARC
  5
358
330
1F
100
AcDbEntity
  8
0
  6
Continuous
 62
     7
370
    25
100
AcDbCircle
 10
808.2593535338
 20
141.4509153124
 30
0.0
 40
3.0
100
AcDbArc
 50
0.0
 51
90.0
  0
LINE
  5
359
330
1F
100
AcDbEntity
  8
0
  6
Continuous
 62
     7
370
    25
100
AcDbLine
 10
20.2593535338
 20
141.4509153124
 30
0.0
 11
20.2593535338
 21
134.9332238588
 31
0.0
  0
LINE
  5
35A
330
1F
100
AcDbEntity
  8
0
  6
Continuous
 62
     7
370
    25
100
AcDbLine
 10
220.2593535338
 20
134.9332238588
 30
0.0
 11
220.2593535338
 21
141.4509153124
 31
0.0
  0
LINE
  5
35B
330
1F
100
AcDbEntity
  8
0
  6
Continuous
 62
     7
370
    25
100
AcDbLine
 10
217.2593535338
 20
144.4509153124
 30
0.0
 11
23.2593535338
 21
144.4509153124
 31
0.0
  0
ARC
  5
35C
330
1F
100
AcDbEntity
  8
0
  6
Continuous
 62
     7
370
    25
100
AcDbCircle
 10
23.2593535338
 20
141.4509153124
 30
0.0
 40
3.0
100
AcDbArc
 50
90.0
 51
180.0
  0
ARC
  5
35D
330
1F
100
AcDbEntity
  8
0
  6
Continuous
 62
     7
370
    25
100
AcDbCircle
 10
217.2593535338
 20
141.4509153124
 30
0.0
 40
3.0
100
AcDbArc
 50
0.0
 51
90.0
  0
LINE
  5
35E
330
1F
100
AcDbEntity
  8
0
  6
Continuous
 62
     7
370
    25
100
AcDbLine
 10
315.7593535338
 20
134.0332238588
 30
0.0
 11
315.7593535338
 21
134.9332238588
 31
0.0
  0
LINE
  5
35F
330
1F
100
AcDbEntity
  8
0
  6
Continuous
 62
     7
370
    25
100
AcDbLine
 10
515.7593535338
 20
134.9332238588
 30
0.0
 11
515.7593535338
 21
134.0332238588
 31
0.0
  0
LINE
  5
360
330
1F
100
AcDbEntity
  8
0
  6
Continuous
 62
     7
370
    25
100
AcDbLine
 10
811.2593535338
 20
134.9332238588
 30
0.0
 11
811.2593535338
 21
134.0332238588
 31
0.0
  0
LINE
  5
361
330
1F
100
AcDbEntity
  8
0
  6
Continuous
 62
     7
370
    25
100
AcDbLine
 10
611.2593535338
 20
134.0332238588
 30
0.0
 11
611.2593535338
 21
134.9332238588
 31
0.0
  0
LINE
  5
362
330
1F
100
AcDbEntity
  8
0
  6
Continuous
 62
     7
370
    25
100
AcDbLine
 10
20.2593535338
 20
127.4083527282
 30
0.0
 11
20.2593535338
 21
134.0332238588
 31
0.0
  0
LINE
  5
363
330
1F
100
AcDbEntity
  8
0
  6
Continuous
 62
     7
370
    25
100
AcDbLine
 10
220.2593535338
 20
134.0332238588
 30
0.0
 11
220.2593535338
 21
127.4083527282
 31
0.0
  0
LINE
  5
364
330
1F
100
AcDbEntity
  8
0
  6
Continuous
 62
     7
370
    25
100
AcDbLine
 10
315.7593535338
 20
127.4083527282
 30
0.0
 11
315.7593535338
 21
134.0332238588
 31
0.0
  0
LINE
  5
365
330
1F
100
AcDbEntity
  8
0
  6
Continuous
 62
     7
370
    25
100
AcDbLine
 10
515.7593535338
 20
134.0332238588
 30
0.0
 11
515.7593535338
 21
127.4083527282
 31
0.0
  0
LINE
  5
366
330
1F
100
AcDbEntity
  8
0
  6
Continuous
 62
     7
370
    25
100
AcDbLine
 10
611.2593535338
 20
127.4083527282
 30
0.0
 11
611.2593535338
 21
134.0332238588
 31
0.0
  0
LINE
  5
367
330
1F
100
AcDbEntity
  8
0
  6
Continuous
 62
     7
370
    25
100
AcDbLine
 10
811.2593535338
 20
134.0332238588
 30
0.0
 11
811.2593535338
 21
127.4083527282
 31
0.0
  0
LINE
  5
368
330
1F
100
AcDbEntity
  8
0
  6
Continuous
 62
     7
370
    25
100
AcDbLine
 10
-36.4406464662
 20
102.5463019206
 30
0.0
 11
-35.4406464662
 21
102.5463019206
 31
0.0
  0
LINE
  5
369
330
1F
100
AcDbEntity
  8
0
  6
Continuous
 62
     7
370
    25
100
AcDbLine
 10
-35.4406464662
 20
121.5463019206
 30
0.0
 11
-36.4406464662
 21
121.5463019206
 31
0.0
  0
LINE
  5
36A
330
1F
100
AcDbEntity
  8
0
  6
Continuous
 62
     7
370
    25
100
AcDbLine
 10
866.9593535338
 20
102.5463019206
 30
0.0
 11
867.9593535338
 21
102.5463019206
 31
0.0
  0
LINE
  5
36B
330
1F
100
AcDbEntity
  8
0
  6
Continuous
 62
     7
370
    25
100
AcDbLine
 10
867.9593535338
 20
121.5463019206
 30
0.0
 11
866.9593535338
 21
121.5463019206
 31
0.0
  0
LINE
  5
36C
330
1F
100
AcDbEntity
  8
0
  6
Continuous
 62
     7
370
    25
100
AcDbLine
 10
-34.2406464662
 20
102.3463019206
 30
0.0
 11
-34.2406464662
 21
101.3463019206
 31
0.0
  0
LINE
  5
36D
330
1F
100
AcDbEntity
  8
0
  6
Continuous
 62
     7
370
    25
100
AcDbLine
 10
865.7593535338
 20
101.3463019206
 30
0.0
 11
865.7593535338
 21
102.3463019206
 31
0.0
  0
LINE
  5
36E
330
1F
100
AcDbEntity
  8
0
  6
Continuous
 62
     7
370
    25
100
AcDbLine
 10
811.2593535338
 20
126.9083527282
 30
0.0
 11
811.2593535338
 21
127.4083527282
 31
0.0
  0
LINE
  5
36F
330
1F
100
AcDbEntity
  8
0
  6
Continuous
 62
     7
370
    25
100
AcDbLine
 10
611.2593535338
 20
127.4083527282
 30
0.0
 11
611.2593535338
 21
126.9083527282
 31
0.0
  0
LINE
  5
370
330
1F
100
AcDbEntity
  8
0
  6
Continuous
 62
     7
370
    25
100
AcDbLine
 10
220.2593535338
 20
126.9083527282
 30
0.0
 11
220.2593535338
 21
127.4083527282
 31
0.0
  0
LINE
  5
371
330
1F
100
AcDbEntity
  8
0
  6
Continuous
 62
     7
370
    25
100
AcDbLine
 10
20.2593535338
 20
127.4083527282
 30
0.0
 11
20.2593535338
 21
126.9083527282
 31
0.0
  0
LINE
  5
372
330
1F
100
AcDbEntity
  8
0
  6
Continuous
 62
     7
370
    25
100
AcDbLine
 10
515.7593535338
 20
126.9083527282
 30
0.0
 11
515.7593535338
 21
127.4083527282
 31
0.0
  0
LINE
  5
373
330
1F
100
AcDbEntity
  8
0
  6
Continuous
 62
     7
370
    25
100
AcDbLine
 10
315.7593535338
 20
127.4083527282
 30
0.0
 11
315.7593535338
 21
126.9083527282
 31
0.0
  0
LINE
  5
374
330
1F
100
AcDbEntity
  8
0
  6
Continuous
 62
     7
370
    25
100
AcDbLine
 10
-34.2406464662
 20
102.5463019206
 30
0.0
 11
-34.2406464662
 21
102.3463019206
 31
0.0
  0
LINE
  5
375
330
1F
100
AcDbEntity
  8
0
  6
Continuous
 62
     7
370
    25
100
AcDbLine
 10
-35.4406464662
 20
102.5463019206
 30
0.0
 11
-34.2406464662
 21
102.5463019206
 31
0.0
  0
LINE
  5
376
330
1F
100
AcDbEntity
  8
0
  6
Continuous
 62
     7
370
    25
100
AcDbLine
 10
-32.2406464662
 20
121.5463019206
 30
0.0
 11
-35.4406464662
 21
121.5463019206
 31
0.0
  0
LINE
  5
377
330
1F
100
AcDbEntity
  8
0
  6
Continuous
 62
     7
370
    25
100
AcDbLine
 10
-32.2406464662
 20
142.5463019206
 30
0.0
 11
-32.2406464662
 21
121.5463019206
 31
0.0
  0
ARC
  5
378
330
1F
100
AcDbEntity
  8
0
  6
Continuous
 62
     7
370
    25
100
AcDbCircle
 10
-29.2406464662
 20
142.5463019206
 30
0.0
 40
3.000000000000004
100
AcDbArc
 50
90.0
 51
180.0
  0
LINE
  5
379
330
1F
100
AcDbEntity
  8
0
  6
Continuous
 62
     7
370
    25
100
AcDbLine
 10
14.7593535338
 20
145.5463019206
 30
0.0
 11
-29.2406464662
 21
145.5463019206
 31
0.0
  0
ARC
  5
37A
330
1F
100
AcDbEntity
  8
0
  6
Continuous
 62
     7
370
    25
100
AcDbCircle
 10
14.7593535338
 20
142.5463019206
 30
0.0
 40
3.000000000000004
100
AcDbArc
 50
0.0
 51
90.0
  0
LINE
  5
37B
330
1F
100
AcDbEntity
  8
0
  6
Continuous
 62
     7
370
    25
100
AcDbLine
 10
17.7593535338
 20
142.5463019206
 30
0.0
 11
17.7593535338
 21
126.4163019206
 31
0.0
  0
LINE
  5
37C
330
1F
100
AcDbEntity
  8
0
  6
Continuous
 62
     7
370
    25
100
AcDbLine
 10
17.7593535338
 20
126.4163019206
 30
0.0
 11
20.2593535338
 21
126.4163019206
 31
0.0
  0
LINE
  5
37D
330
1F
100
AcDbEntity
  8
0
  6
Continuous
 62
     7
370
    25
100
AcDbLine
 10
20.2593535338
 20
126.9083527282
 30
0.0
 11
20.2593535338
 21
126.4163019206
 31
0.0
  0
LINE
  5
37E
330
1F
100
AcDbEntity
  8
0
  6
Continuous
 62
     7
370
    25
100
AcDbLine
 10
220.2593535338
 20
126.9083527282
 30
0.0
 11
220.2593535338
 21
126.4163019206
 31
0.0
  0
LINE
  5
37F
330
1F
100
AcDbEntity
  8
0
  6
Continuous
 62
     7
370
    25
100
AcDbLine
 10
220.2593535338
 20
126.4163019206
 30
0.0
 11
222.7593535338
 21
126.4163019206
 31
0.0
  0
LINE
  5
380
330
1F
100
AcDbEntity
  8
0
  6
Continuous
 62
     7
370
    25
100
AcDbLine
 10
222.7593535338
 20
126.4163019206
 30
0.0
 11
222.7593535338
 21
142.5463019206
 31
0.0
  0
ARC
  5
381
330
1F
100
AcDbEntity
  8
0
  6
Continuous
 62
     7
370
    25
100
AcDbCircle
 10
225.7593535338
 20
142.5463019206
 30
0.0
 40
3.0
100
AcDbArc
 50
90.0
 51
180.0
  0
LINE
  5
382
330
1F
100
AcDbEntity
  8
0
  6
Continuous
 62
     7
370
    25
100
AcDbLine
 10
310.2593535338
 20
145.5463019206
 30
0.0
 11
225.7593535338
 21
145.5463019206
 31
0.0
  0
ARC
  5
383
330
1F
100
AcDbEntity
  8
0
  6
Continuous
 62
     7
370
    25
100
AcDbCircle
 10
310.2593535338
 20
142.5463019206
 30
0.0
 40
3.0
100
AcDbArc
 50
0.0
 51
90.0
  0
LINE
  5
384
330
1F
100
AcDbEntity
  8
0
  6
Continuous
 62
     7
370
    25
100
AcDbLine
 10
313.2593535338
 20
142.5463019206
 30
0.0
 11
313.2593535338
 21
126.4163019206
 31
0.0
  0
LINE
  5
385
330
1F
100
AcDbEntity
  8
0
  6
Continuous
 62
     7
370
    25
100
AcDbLine
 10
313.2593535338
 20
126.4163019206
 30
0.0
 11
315.7593535338
 21
126.4163019206
 31
0.0
  0
LINE
  5
386
330
1F
100
AcDbEntity
  8
0
  6
Continuous
 62
     7
370
    25
100
AcDbLine
 10
315.7593535338
 20
126.9083527282
 30
0.0
 11
315.7593535338
 21
126.4163019206
 31
0.0
  0
LINE
  5
387
330
1F
100
AcDbEntity
  8
0
  6
Continuous
 62
     7
370
    25
100
AcDbLine
 10
515.7593535338
 20
126.9083527282
 30
0.0
 11
515.7593535338
 21
126.4163019206
 31
0.0
  0
LINE
  5
388
330
1F
100
AcDbEntity
  8
0
  6
Continuous
 62
     7
370
    25
100
AcDbLine
 10
515.7593535338
 20
126.4163019206
 30
0.0
 11
518.2593535338
 21
126.4163019206
 31
0.0
  0
LINE
  5
389
330
1F
100
AcDbEntity
  8
0
  6
Continuous
 62
     7
370
    25
100
AcDbLine
 10
518.2593535338
 20
126.4163019206
 30
0.0
 11
518.2593535338
 21
142.5463019206
 31
0.0
  0
ARC
  5
38A
330
1F
100
AcDbEntity
  8
0
  6
Continuous
 62
     7
370
    25
100
AcDbCircle
 10
521.2593535338
 20
142.5463019206
 30
0.0
 40
3.0
100
AcDbArc
 50
90.0
 51
180.0
  0
LINE
  5
38B
330
1F
100
AcDbEntity
  8
0
  6
Continuous
 62
     7
370
    25
100
AcDbLine
 10
605.7593535338
 20
145.5463019206
 30
0.0
 11
521.2593535338
 21
145.5463019206
 31
0.0
  0
ARC
  5
38C
330
1F
100
AcDbEntity
  8
0
  6
Continuous
 62
     7
370
    25
100
AcDbCircle
 10
605.7593535338
 20
142.5463019206
 30
0.0
 40
3.0
100
AcDbArc
 50
0.0
 51
90.0
  0
LINE
  5
38D
330
1F
100
AcDbEntity
  8
0
  6
Continuous
 62
     7
370
    25
100
AcDbLine
 10
608.7593535338
 20
142.5463019206
 30
0.0
 11
608.7593535338
 21
126.4163019206
 31
0.0
  0
LINE
  5
38E
330
1F
100
AcDbEntity
  8
0
  6
Continuous
 62
     7
370
    25
100
AcDbLine
 10
608.7593535338
 20
126.4163019206
 30
0.0
 11
611.2593535338
 21
126.4163019206
 31
0.0
  0
LINE
  5
38F
330
1F
100
AcDbEntity
  8
0
  6
Continuous
 62
     7
370
    25
100
AcDbLine
 10
611.2593535338
 20
126.9083527282
 30
0.0
 11
611.2593535338
 21
126.4163019206
 31
0.0
  0
LINE
  5
390
330
1F
100
AcDbEntity
  8
0
  6
Continuous
 62
     7
370
    25
100
AcDbLine
 10
811.2593535338
 20
126.9083527282
 30
0.0
 11
811.2593535338
 21
126.4163019206
 31
0.0
  0
LINE
  5
391
330
1F
100
AcDbEntity
  8
0
  6
Continuous
 62
     7
370
    25
100
AcDbLine
 10
811.2593535338
 20
126.4163019206
 30
0.0
 11
813.7593535338
 21
126.4163019206
 31
0.0
  0
LINE
  5
392
330
1F
100
AcDbEntity
  8
0
  6
Continuous
 62
     7
370
    25
100
AcDbLine
 10
813.7593535338
 20
126.4163019206
 30
0.0
 11
813.7593535338
 21
142.5463019206
 31
0.0
  0
ARC
  5
393
330
1F
100
AcDbEntity
  8
0
  6
Continuous
 62
     7
370
    25
100
AcDbCircle
 10
816.7593535338
 20
142.5463019206
 30
0.0
 40
3.0
100
AcDbArc
 50
90.0
 51
180.0
  0
LINE
  5
394
330
1F
100
AcDbEntity
  8
0
  6
Continuous
 62
     7
370
    25
100
AcDbLine
 10
860.7593535338
 20
145.5463019206
 30
0.0
 11
816.7593535338
 21
145.5463019206
 31
0.0
  0
ARC
  5
395
330
1F
100
AcDbEntity
  8
0
  6
Continuous
 62
     7
370
    25
100
AcDbCircle
 10
860.7593535338
 20
142.5463019206
 30
0.0
 40
3.000000000000114
100
AcDbArc
 50
0.0
 51
90.0
  0
LINE
  5
396
330
1F
100
AcDbEntity
  8
0
  6
Continuous
 62
     7
370
    25
100
AcDbLine
 10
863.7593535338
 20
121.5463019206
 30
0.0
 11
863.7593535338
 21
142.5463019206
 31
0.0
  0
LINE
  5
397
330
1F
100
AcDbEntity
  8
0
  6
Continuous
 62
     7
370
    25
100
AcDbLine
 10
866.9593535338
 20
121.5463019206
 30
0.0
 11
863.7593535338
 21
121.5463019206
 31
0.0
  0
LINE
  5
398
330
1F
100
AcDbEntity
  8
0
  6
Continuous
 62
     7
370
    25
100
AcDbLine
 10
865.7593535338
 20
102.5463019206
 30
0.0
 11
866.9593535338
 21
102.5463019206
 31
0.0
  0
LINE
  5
399
330
1F
100
AcDbEntity
  8
0
  6
Continuous
 62
     7
370
    25
100
AcDbLine
 10
865.7593535338
 20
102.3463019206
 30
0.0
 11
865.7593535338
 21
102.5463019206
 31
0.0
  0
SPLINE
  5
39A
330
1F
100
AcDbEntity
  8
0
  6
Continuous
 62
     7
370
    25
100
AcDbSpline
210
0.0
220
0.0
230
1.0
 70
     8
 71
     3
 72
    12
 73
     8
 74
     0
 42
0.000000001
 43
0.00000001
 40
0.0
 40
0.0
 40
0.0
 40
0.0
 40
0.4999999999999811
 40
0.4999999999999811
 40
0.7499999999999906
 40
0.7499999999999906
 40
1.0
 40
1.0
 40
1.0
 40
1.0
 10
850.3950932566469
 20
104.1316219352312
 30
0.0
 10
849.7785628667265
 20
104.3221162246547
 30
0.0
 10
849.1527949942767
 20
104.4437906377171
 30
0.0
 10
848.1897332848918
 20
104.4444468282483
 30
0.0
 10
847.8690402497622
 20
104.4146128264539
 30
0.0
 10
847.2390819997662
 20
104.3056829563463
 30
0.0
 10
846.9278527317355
 20
104.2269877692834
 30
0.0
 10
846.6192034014506
 20
104.1316219352307
 30
0.0
  0
LINE
  5
39B
330
1F
100
AcDbEntity
  8
0
  6
Continuous
 62
     7
370
    25
100
AcDbLine
 10
850.3950932566
 20
104.1316219352
 30
0.0
 11
850.3950932566
 21
101.960981906
 31
0.0
  0
SPLINE
  5
39C
330
1F
100
AcDbEntity
  8
0
  6
Continuous
 62
     7
370
    25
100
AcDbSpline
210
0.0
220
0.0
230
1.0
 70
     8
 71
     3
 72
    12
 73
     8
 74
     0
 42
0.000000001
 43
0.00000001
 40
0.0
 40
0.0
 40
0.0
 40
0.0
 40
0.4999999999999811
 40
0.4999999999999811
 40
0.7499999999999906
 40
0.7499999999999906
 40
1.0
 40
1.0
 40
1.0
 40
1.0
 10
846.6192034014506
 20
101.9609819060012
 30
0.0
 10
847.235733791371
 20
101.7704876165777
 30
0.0
 10
847.8615016638206
 20
101.6488132035153
 30
0.0
 10
848.8245633732056
 20
101.6481570129841
 30
0.0
 10
849.1452564083354
 20
101.6779910147785
 30
0.0
 10
849.775214658331
 20
101.7869208848861
 30
0.0
 10
850.086443926362
 20
101.865616071949
 30
0.0
 10
850.3950932566466
 20
101.9609819060017
 30
0.0
  0
LINE
  5
39D
330
1F
100
AcDbEntity
  8
0
  6
Continuous
 62
     7
370
    25
100
AcDbLine
 10
846.6192034015
 20
104.1316219352
 30
0.0
 11
846.6192034015
 21
101.960981906
 31
0.0
  0
SPLINE
  5
39E
330
1F
100
AcDbEntity
  8
0
  6
Continuous
 62
     7
370
    25
100
AcDbSpline
210
0.0
220
0.0
230
1.0
 70
     8
 71
     3
 72
    14
 73
    10
 74
     0
 42
0.000000001
 43
0.00000001
 40
0.0
 40
0.0
 40
0.0
 40
0.0
 40
0.25
 40
0.25
 40
0.5
 40
0.5
 40
0.75
 40
0.75
 40
1.0
 40
1.0
 40
1.0
 40
1.0
 10
850.3950932566466
 20
104.1316219352302
 30
0.0
 10
850.4471509655374
 20
104.2264965445408
 30
0.0
 10
850.5004845038657
 20
104.3061014694165
 30
0.0
 10
850.6074165114936
 20
104.4149380843108
 30
0.0
 10
850.6611698779412
 20
104.4442616900013
 30
0.0
 10
850.7693489293648
 20
104.4441969082557
 30
0.0
 10
850.824177625953
 20
104.4140407149293
 30
0.0
 10
850.9310846086127
 20
104.3044555135636
 30
0.0
 10
850.9835061235851
 20
104.2259125397614
 30
0.0
 10
851.0352433889872
 20
104.1316219352302
 30
0.0
  0
SPLINE
  5
39F
330
1F
100
AcDbEntity
  8
0
  6
Continuous
 62
     7
370
    25
100
AcDbSpline
210
0.0
220
0.0
230
1.0
 70
     8
 71
     3
 72
    12
 73
     8
 74
     0
 42
0.000000001
 43
0.00000001
 40
0.0
 40
0.0
 40
0.0
 40
0.0
 40
0.5000000000000009
 40
0.5000000000000009
 40
0.7500000000000004
 40
0.7500000000000004
 40
1.0
 40
1.0
 40
1.0
 40
1.0
 10
846.6192034014508
 20
104.1316219352312
 30
0.0
 10
846.107197249746
 20
104.3221162246547
 30
0.0
 10
845.5875197034777
 20
104.4437906377171
 30
0.0
 10
844.7877318459151
 20
104.4444468282483
 30
0.0
 10
844.5214078990671
 20
104.4146128264539
 30
0.0
 10
843.9982503960657
 20
104.3056829563463
 30
0.0
 10
843.7397857649173
 20
104.2269877692834
 30
0.0
 10
843.4834636785953
 20
104.1316219352307
 30
0.0
  0
SPLINE
  5
3A0
330
1F
100
AcDbEntity
  8
0
  6
Continuous
 62
     7
370
    25
100
AcDbSpline
210
0.0
220
0.0
230
1.0
 70
     8
 71
     3
 72
     9
 73
     5
 74
     0
 42
0.000000001
 43
0.00000001
 40
0.0
 40
0.0
 40
0.0
 40
0.0
 40
0.3722348086954454
 40
1.0
 40
1.0
 40
1.0
 40
1.0
 10
843.4834636785953
 20
104.1316219352302
 30
0.0
 10
843.5114299122671
 20
104.1835462440038
 30
0.0
 10
843.586560536858
 20
104.3230396700903
 30
0.0
 10
843.6651043950147
 20
104.3310483961954
 30
0.0
 10
843.7144114951561
 20
104.3360759956709
 30
0.0
  0
LINE
  5
3A1
330
1F
100
AcDbEntity
  8
0
  6
Continuous
 62
     7
370
    25
100
AcDbLine
 10
850.4093535338
 20
104.6463019206
 30
0.0
 11
844.1093535338
 21
104.6463019206
 31
0.0
  0
SPLINE
  5
3A2
330
1F
100
AcDbEntity
  8
0
  6
Continuous
 62
     7
370
    25
100
AcDbSpline
210
0.0
220
0.0
230
1.0
 70
     8
 71
     3
 72
     9
 73
     5
 74
     0
 42
0.000000001
 43
0.00000001
 40
0.0
 40
0.0
 40
0.0
 40
0.0
 40
0.6277651913045456
 40
1.0
 40
1.0
 40
1.0
 40
1.0
 10
843.7144114951562
 20
101.7565278455615
 30
0.0
 10
843.6651043950147
 20
101.761555445037
 30
0.0
 10
843.5865605368581
 20
101.7695641711421
 30
0.0
 10
843.511429912267
 20
101.9090575972286
 30
0.0
 10
843.4834636785953
 20
101.9609819060022
 30
0.0
  0
SPLINE
  5
3A3
330
1F
100
AcDbEntity
  8
0
  6
Continuous
 62
     7
370
    25
100
AcDbSpline
210
0.0
220
0.0
230
1.0
 70
     8
 71
     3
 72
    12
 73
     8
 74
     0
 42
0.000000001
 43
0.00000001
 40
0.0
 40
0.0
 40
0.0
 40
0.0
 40
0.5000000000000009
 40
0.5000000000000009
 40
0.7500000000000004
 40
0.7500000000000004
 40
1.0
 40
1.0
 40
1.0
 40
1.0
 10
843.4834636785953
 20
101.9609819060012
 30
0.0
 10
843.9954698303003
 20
101.7704876165777
 30
0.0
 10
844.5151473765685
 20
101.6488132035153
 30
0.0
 10
845.3149352341309
 20
101.6481570129841
 30
0.0
 10
845.5812591809788
 20
101.6779910147785
 30
0.0
 10
846.1044166839804
 20
101.7869208848861
 30
0.0
 10
846.3628813151287
 20
101.865616071949
 30
0.0
 10
846.6192034014508
 20
101.9609819060017
 30
0.0
  0
SPLINE
  5
3A4
330
1F
100
AcDbEntity
  8
0
  6
Continuous
 62
     7
370
    25
100
AcDbSpline
210
0.0
220
0.0
230
1.0
 70
     8
 71
     3
 72
    14
 73
    10
 74
     0
 42
0.000000001
 43
0.00000001
 40
0.0
 40
0.0
 40
0.0
 40
0.0
 40
0.25
 40
0.25
 40
0.5
 40
0.5
 40
0.75
 40
0.75
 40
1.0
 40
1.0
 40
1.0
 40
1.0
 10
850.3950932566466
 20
101.9609819060022
 30
0.0
 10
850.4471509655374
 20
101.8661072966916
 30
0.0
 10
850.5004845038657
 20
101.7865023718158
 30
0.0
 10
850.6074165114936
 20
101.6776657569216
 30
0.0
 10
850.6611698779412
 20
101.6483421512311
 30
0.0
 10
850.7693489293648
 20
101.6484069329767
 30
0.0
 10
850.824177625953
 20
101.6785631263031
 30
0.0
 10
850.9310846086127
 20
101.7881483276688
 30
0.0
 10
850.9835061235851
 20
101.866691301471
 30
0.0
 10
851.0352433889872
 20
101.9609819060022
 30
0.0
  0
LINE
  5
3A5
330
1F
100
AcDbEntity
  8
0
  6
Continuous
 62
     7
370
    25
100
AcDbLine
 10
850.4093535338
 20
101.4463019206
 30
0.0
 11
844.1093535338
 21
101.4463019206
 31
0.0
  0
LINE
  5
3A6
330
1F
100
AcDbEntity
  8
0
  6
Continuous
 62
     7
370
    25
100
AcDbLine
 10
843.4834636786
 20
104.1316219352
 30
0.0
 11
843.4834636786
 21
101.960981906
 31
0.0
  0
LINE
  5
3A7
330
1F
100
AcDbEntity
  8
0
  6
Continuous
 62
     7
370
    25
100
AcDbLine
 10
851.035243389
 20
104.1316219352
 30
0.0
 11
851.035243389
 21
101.960981906
 31
0.0
  0
SPLINE
  5
3A8
330
1F
100
AcDbEntity
  8
0
  6
Continuous
 62
     7
370
    25
100
AcDbSpline
210
0.0
220
0.0
230
1.0
 70
     8
 71
     3
 72
    12
 73
     8
 74
     0
 42
0.000000001
 43
0.00000001
 40
0.0
 40
0.0
 40
0.0
 40
0.0
 40
0.499999999999991
 40
0.499999999999991
 40
0.7499999999999954
 40
0.7499999999999954
 40
1.0
 40
1.0
 40
1.0
 40
1.0
 10
267.3950932566468
 20
104.1316219352312
 30
0.0
 10
266.7785628667265
 20
104.3221162246547
 30
0.0
 10
266.1527949942767
 20
104.4437906377171
 30
0.0
 10
265.1897332848918
 20
104.4444468282483
 30
0.0
 10
264.8690402497622
 20
104.4146128264539
 30
0.0
 10
264.2390819997663
 20
104.3056829563463
 30
0.0
 10
263.9278527317354
 20
104.2269877692835
 30
0.0
 10
263.6192034014506
 20
104.1316219352307
 30
0.0
  0
LINE
  5
3A9
330
1F
100
AcDbEntity
  8
0
  6
Continuous
 62
     7
370
    25
100
AcDbLine
 10
267.3950932566
 20
104.1316219352
 30
0.0
 11
267.3950932566
 21
101.960981906
 31
0.0
  0
SPLINE
  5
3AA
330
1F
100
AcDbEntity
  8
0
  6
Continuous
 62
     7
370
    25
100
AcDbSpline
210
0.0
220
0.0
230
1.0
 70
     8
 71
     3
 72
    12
 73
     8
 74
     0
 42
0.000000001
 43
0.00000001
 40
0.0
 40
0.0
 40
0.0
 40
0.0
 40
0.5000000000000099
 40
0.5000000000000099
 40
0.7500000000000049
 40
0.7500000000000049
 40
1.0
 40
1.0
 40
1.0
 40
1.0
 10
263.6192034014506
 20
101.9609819060013
 30
0.0
 10
264.2357337913709
 20
101.7704876165777
 30
0.0
 10
264.8615016638206
 20
101.6488132035154
 30
0.0
 10
265.8245633732055
 20
101.6481570129841
 30
0.0
 10
266.1452564083352
 20
101.6779910147785
 30
0.0
 10
266.7752146583312
 20
101.7869208848861
 30
0.0
 10
267.0864439263621
 20
101.865616071949
 30
0.0
 10
267.3950932566468
 20
101.9609819060017
 30
0.0
  0
LINE
  5
3AB
330
1F
100
AcDbEntity
  8
0
  6
Continuous
 62
     7
370
    25
100
AcDbLine
 10
263.6192034015
 20
104.1316219352
 30
0.0
 11
263.6192034015
 21
101.960981906
 31
0.0
  0
SPLINE
  5
3AC
330
1F
100
AcDbEntity
  8
0
  6
Continuous
 62
     7
370
    25
100
AcDbSpline
210
0.0
220
0.0
230
1.0
 70
     8
 71
     3
 72
    14
 73
    10
 74
     0
 42
0.000000001
 43
0.00000001
 40
0.0
 40
0.0
 40
0.0
 40
0.0
 40
0.25
 40
0.25
 40
0.5
 40
0.5
 40
0.75
 40
0.75
 40
1.0
 40
1.0
 40
1.0
 40
1.0
 10
267.3950932566467
 20
104.1316219352302
 30
0.0
 10
267.4471509655375
 20
104.2264965445409
 30
0.0
 10
267.5004845038656
 20
104.3061014694166
 30
0.0
 10
267.6074165114937
 20
104.4149380843108
 30
0.0
 10
267.6611698779412
 20
104.4442616900013
 30
0.0
 10
267.769348929365
 20
104.4441969082557
 30
0.0
 10
267.8241776259529
 20
104.4140407149294
 30
0.0
 10
267.9310846086127
 20
104.3044555135637
 30
0.0
 10
267.9835061235851
 20
104.2259125397615
 30
0.0
 10
268.0352433889873
 20
104.1316219352302
 30
0.0
  0
SPLINE
  5
3AD
330
1F
100
AcDbEntity
  8
0
  6
Continuous
 62
     7
370
    25
100
AcDbSpline
210
0.0
220
0.0
230
1.0
 70
     8
 71
     3
 72
    12
 73
     8
 74
     0
 42
0.000000001
 43
0.00000001
 40
0.0
 40
0.0
 40
0.0
 40
0.0
 40
0.5000000000000087
 40
0.5000000000000087
 40
0.7500000000000043
 40
0.7500000000000043
 40
1.0
 40
1.0
 40
1.0
 40
1.0
 10
263.6192034014508
 20
104.1316219352312
 30
0.0
 10
263.107197249746
 20
104.3221162246547
 30
0.0
 10
262.5875197034777
 20
104.4437906377171
 30
0.0
 10
261.7877318459152
 20
104.4444468282483
 30
0.0
 10
261.5214078990672
 20
104.4146128264539
 30
0.0
 10
260.9982503960657
 20
104.3056829563463
 30
0.0
 10
260.7397857649175
 20
104.2269877692835
 30
0.0
 10
260.4834636785954
 20
104.1316219352307
 30
0.0
  0
SPLINE
  5
3AE
330
1F
100
AcDbEntity
  8
0
  6
Continuous
 62
     7
370
    25
100
AcDbSpline
210
0.0
220
0.0
230
1.0
 70
     8
 71
     3
 72
     9
 73
     5
 74
     0
 42
0.000000001
 43
0.00000001
 40
0.0
 40
0.0
 40
0.0
 40
0.0
 40
0.372234808695443
 40
0.9999999999999999
 40
0.9999999999999999
 40
0.9999999999999999
 40
0.9999999999999999
 10
260.4834636785955
 20
104.1316219352302
 30
0.0
 10
260.5114299122672
 20
104.1835462440038
 30
0.0
 10
260.5865605368581
 20
104.3230396700903
 30
0.0
 10
260.6651043950147
 20
104.3310483961954
 30
0.0
 10
260.7144114951562
 20
104.3360759956709
 30
0.0
  0
LINE
  5
3AF
330
1F
100
AcDbEntity
  8
0
  6
Continuous
 62
     7
370
    25
100
AcDbLine
 10
267.4093535338
 20
104.6463019206
 30
0.0
 11
261.1093535338
 21
104.6463019206
 31
0.0
  0
SPLINE
  5
3B0
330
1F
100
AcDbEntity
  8
0
  6
Continuous
 62
     7
370
    25
100
AcDbSpline
210
0.0
220
0.0
230
1.0
 70
     8
 71
     3
 72
     9
 73
     5
 74
     0
 42
0.000000001
 43
0.00000001
 40
0.0
 40
0.0
 40
0.0
 40
0.0
 40
0.6277651913045462
 40
1.0
 40
1.0
 40
1.0
 40
1.0
 10
260.7144114951562
 20
101.7565278455615
 30
0.0
 10
260.6651043950147
 20
101.761555445037
 30
0.0
 10
260.586560536858
 20
101.7695641711422
 30
0.0
 10
260.5114299122671
 20
101.9090575972287
 30
0.0
 10
260.4834636785955
 20
101.9609819060022
 30
0.0
  0
SPLINE
  5
3B1
330
1F
100
AcDbEntity
  8
0
  6
Continuous
 62
     7
370
    25
100
AcDbSpline
210
0.0
220
0.0
230
1.0
 70
     8
 71
     3
 72
    12
 73
     8
 74
     0
 42
0.000000001
 43
0.00000001
 40
0.0
 40
0.0
 40
0.0
 40
0.0
 40
0.4999999999999929
 40
0.4999999999999929
 40
0.7499999999999964
 40
0.7499999999999964
 40
1.0
 40
1.0
 40
1.0
 40
1.0
 10
260.4834636785953
 20
101.9609819060013
 30
0.0
 10
260.9954698303002
 20
101.7704876165777
 30
0.0
 10
261.5151473765684
 20
101.6488132035154
 30
0.0
 10
262.3149352341311
 20
101.6481570129841
 30
0.0
 10
262.581259180979
 20
101.6779910147785
 30
0.0
 10
263.1044166839804
 20
101.7869208848861
 30
0.0
 10
263.3628813151288
 20
101.865616071949
 30
0.0
 10
263.6192034014508
 20
101.9609819060017
 30
0.0
  0
SPLINE
  5
3B2
330
1F
100
AcDbEntity
  8
0
  6
Continuous
 62
     7
370
    25
100
AcDbSpline
210
0.0
220
0.0
230
1.0
 70
     8
 71
     3
 72
    14
 73
    10
 74
     0
 42
0.000000001
 43
0.00000001
 40
0.0
 40
0.0
 40
0.0
 40
0.0
 40
0.25
 40
0.25
 40
0.5
 40
0.5
 40
0.75
 40
0.75
 40
1.0
 40
1.0
 40
1.0
 40
1.0
 10
267.3950932566467
 20
101.9609819060022
 30
0.0
 10
267.4471509655375
 20
101.8661072966916
 30
0.0
 10
267.5004845038656
 20
101.7865023718159
 30
0.0
 10
267.6074165114937
 20
101.6776657569216
 30
0.0
 10
267.6611698779412
 20
101.6483421512311
 30
0.0
 10
267.769348929365
 20
101.6484069329767
 30
0.0
 10
267.8241776259529
 20
101.6785631263031
 30
0.0
 10
267.9310846086127
 20
101.7881483276688
 30
0.0
 10
267.9835061235851
 20
101.866691301471
 30
0.0
 10
268.0352433889873
 20
101.9609819060022
 30
0.0
  0
LINE
  5
3B3
330
1F
100
AcDbEntity
  8
0
  6
Continuous
 62
     7
370
    25
100
AcDbLine
 10
267.4093535338
 20
101.4463019206
 30
0.0
 11
261.1093535338
 21
101.4463019206
 31
0.0
  0
LINE
  5
3B4
330
1F
100
AcDbEntity
  8
0
  6
Continuous
 62
     7
370
    25
100
AcDbLine
 10
260.4834636786
 20
104.1316219352
 30
0.0
 11
260.4834636786
 21
101.960981906
 31
0.0
  0
LINE
  5
3B5
330
1F
100
AcDbEntity
  8
0
  6
Continuous
 62
     7
370
    25
100
AcDbLine
 10
268.035243389
 20
104.1316219352
 30
0.0
 11
268.035243389
 21
101.960981906
 31
0.0
  0
SPLINE
  5
3B6
330
1F
100
AcDbEntity
  8
0
  6
Continuous
 62
     7
370
    25
100
AcDbSpline
210
0.0
220
0.0
230
1.0
 70
     8
 71
     3
 72
    14
 73
    10
 74
     0
 42
0.000000001
 43
0.00000001
 40
0.0
 40
0.0
 40
0.0
 40
0.0
 40
0.25
 40
0.25
 40
0.5
 40
0.5
 40
0.75
 40
0.75
 40
1.0
 40
1.0
 40
1.0
 40
1.0
 10
570.3950932566466
 20
104.1316219352302
 30
0.0
 10
570.4471509655375
 20
104.2264965445408
 30
0.0
 10
570.5004845038656
 20
104.3061014694166
 30
0.0
 10
570.6074165114937
 20
104.4149380843108
 30
0.0
 10
570.6611698779412
 20
104.4442616900013
 30
0.0
 10
570.7693489293649
 20
104.4441969082557
 30
0.0
 10
570.8241776259529
 20
104.4140407149293
 30
0.0
 10
570.9310846086128
 20
104.3044555135636
 30
0.0
 10
570.983506123585
 20
104.2259125397615
 30
0.0
 10
571.0352433889873
 20
104.1316219352302
 30
0.0
  0
SPLINE
  5
3B7
330
1F
100
AcDbEntity
  8
0
  6
Continuous
 62
     7
370
    25
100
AcDbSpline
210
0.0
220
0.0
230
1.0
 70
     8
 71
     3
 72
    12
 73
     8
 74
     0
 42
0.000000001
 43
0.00000001
 40
0.0
 40
0.0
 40
0.0
 40
0.0
 40
0.499999999999991
 40
0.499999999999991
 40
0.7499999999999954
 40
0.7499999999999954
 40
1.0
 40
1.0
 40
1.0
 40
1.0
 10
570.3950932566469
 20
104.1316219352312
 30
0.0
 10
569.7785628667266
 20
104.3221162246547
 30
0.0
 10
569.1527949942767
 20
104.4437906377171
 30
0.0
 10
568.1897332848919
 20
104.4444468282483
 30
0.0
 10
567.8690402497623
 20
104.4146128264539
 30
0.0
 10
567.2390819997661
 20
104.3056829563463
 30
0.0
 10
566.9278527317352
 20
104.2269877692834
 30
0.0
 10
566.6192034014507
 20
104.1316219352307
 30
0.0
  0
SPLINE
  5
3B8
330
1F
100
AcDbEntity
  8
0
  6
Continuous
 62
     7
370
    25
100
AcDbSpline
210
0.0
220
0.0
230
1.0
 70
     8
 71
     3
 72
    12
 73
     8
 74
     0
 42
0.000000001
 43
0.00000001
 40
0.0
 40
0.0
 40
0.0
 40
0.0
 40
0.5000000000000087
 40
0.5000000000000087
 40
0.7500000000000043
 40
0.7500000000000043
 40
1.0
 40
1.0
 40
1.0
 40
1.0
 10
566.6192034014509
 20
104.1316219352312
 30
0.0
 10
566.1071972497459
 20
104.3221162246547
 30
0.0
 10
565.5875197034776
 20
104.4437906377171
 30
0.0
 10
564.7877318459152
 20
104.4444468282483
 30
0.0
 10
564.5214078990672
 20
104.4146128264539
 30
0.0
 10
563.9982503960657
 20
104.3056829563463
 30
0.0
 10
563.7397857649174
 20
104.2269877692835
 30
0.0
 10
563.4834636785954
 20
104.1316219352307
 30
0.0
  0
SPLINE
  5
3B9
330
1F
100
AcDbEntity
  8
0
  6
Continuous
 62
     7
370
    25
100
AcDbSpline
210
0.0
220
0.0
230
1.0
 70
     8
 71
     3
 72
     9
 73
     5
 74
     0
 42
0.000000001
 43
0.00000001
 40
0.0
 40
0.0
 40
0.0
 40
0.0
 40
0.372234808695443
 40
0.9999999999999999
 40
0.9999999999999999
 40
0.9999999999999999
 40
0.9999999999999999
 10
563.4834636785955
 20
104.1316219352302
 30
0.0
 10
563.5114299122672
 20
104.1835462440038
 30
0.0
 10
563.586560536858
 20
104.3230396700903
 30
0.0
 10
563.6651043950146
 20
104.3310483961954
 30
0.0
 10
563.7144114951562
 20
104.3360759956709
 30
0.0
  0
LINE
  5
3BA
330
1F
100
AcDbEntity
  8
0
  6
Continuous
 62
     7
370
    25
100
AcDbLine
 10
570.4093535338
 20
104.6463019206
 30
0.0
 11
564.1093535338
 21
104.6463019206
 31
0.0
  0
LINE
  5
3BB
330
1F
100
AcDbEntity
  8
0
  6
Continuous
 62
     7
370
    25
100
AcDbLine
 10
570.3950932566
 20
104.1316219352
 30
0.0
 11
570.3950932566
 21
101.960981906
 31
0.0
  0
SPLINE
  5
3BC
330
1F
100
AcDbEntity
  8
0
  6
Continuous
 62
     7
370
    25
100
AcDbSpline
210
0.0
220
0.0
230
1.0
 70
     8
 71
     3
 72
    12
 73
     8
 74
     0
 42
0.000000001
 43
0.00000001
 40
0.0
 40
0.0
 40
0.0
 40
0.0
 40
0.5000000000000099
 40
0.5000000000000099
 40
0.7500000000000049
 40
0.7500000000000049
 40
1.0
 40
1.0
 40
1.0
 40
1.0
 10
566.6192034014506
 20
101.9609819060012
 30
0.0
 10
567.2357337913709
 20
101.7704876165777
 30
0.0
 10
567.8615016638206
 20
101.6488132035153
 30
0.0
 10
568.8245633732055
 20
101.6481570129841
 30
0.0
 10
569.1452564083353
 20
101.6779910147785
 30
0.0
 10
569.7752146583312
 20
101.7869208848861
 30
0.0
 10
570.0864439263622
 20
101.865616071949
 30
0.0
 10
570.3950932566468
 20
101.9609819060017
 30
0.0
  0
LINE
  5
3BD
330
1F
100
AcDbEntity
  8
0
  6
Continuous
 62
     7
370
    25
100
AcDbLine
 10
566.6192034015
 20
104.1316219352
 30
0.0
 11
566.6192034015
 21
101.960981906
 31
0.0
  0
SPLINE
  5
3BE
330
1F
100
AcDbEntity
  8
0
  6
Continuous
 62
     7
370
    25
100
AcDbSpline
210
0.0
220
0.0
230
1.0
 70
     8
 71
     3
 72
     9
 73
     5
 74
     0
 42
0.000000001
 43
0.00000001
 40
0.0
 40
0.0
 40
0.0
 40
0.0
 40
0.6277651913045462
 40
1.0
 40
1.0
 40
1.0
 40
1.0
 10
563.7144114951562
 20
101.7565278455615
 30
0.0
 10
563.6651043950147
 20
101.761555445037
 30
0.0
 10
563.586560536858
 20
101.7695641711421
 30
0.0
 10
563.5114299122672
 20
101.9090575972286
 30
0.0
 10
563.4834636785955
 20
101.9609819060022
 30
0.0
  0
SPLINE
  5
3BF
330
1F
100
AcDbEntity
  8
0
  6
Continuous
 62
     7
370
    25
100
AcDbSpline
210
0.0
220
0.0
230
1.0
 70
     8
 71
     3
 72
    12
 73
     8
 74
     0
 42
0.000000001
 43
0.00000001
 40
0.0
 40
0.0
 40
0.0
 40
0.0
 40
0.4999999999999929
 40
0.4999999999999929
 40
0.7499999999999964
 40
0.7499999999999964
 40
1.0
 40
1.0
 40
1.0
 40
1.0
 10
563.4834636785953
 20
101.9609819060012
 30
0.0
 10
563.9954698303003
 20
101.7704876165777
 30
0.0
 10
564.5151473765685
 20
101.6488132035153
 30
0.0
 10
565.3149352341309
 20
101.6481570129841
 30
0.0
 10
565.581259180979
 20
101.6779910147785
 30
0.0
 10
566.1044166839805
 20
101.7869208848861
 30
0.0
 10
566.3628813151287
 20
101.8656160719489
 30
0.0
 10
566.6192034014508
 20
101.9609819060017
 30
0.0
  0
SPLINE
  5
3C0
330
1F
100
AcDbEntity
  8
0
  6
Continuous
 62
     7
370
    25
100
AcDbSpline
210
0.0
220
0.0
230
1.0
 70
     8
 71
     3
 72
    14
 73
    10
 74
     0
 42
0.000000001
 43
0.00000001
 40
0.0
 40
0.0
 40
0.0
 40
0.0
 40
0.25
 40
0.25
 40
0.5
 40
0.5
 40
0.75
 40
0.75
 40
1.0
 40
1.0
 40
1.0
 40
1.0
 10
570.3950932566466
 20
101.9609819060022
 30
0.0
 10
570.4471509655375
 20
101.8661072966916
 30
0.0
 10
570.5004845038656
 20
101.7865023718158
 30
0.0
 10
570.6074165114937
 20
101.6776657569216
 30
0.0
 10
570.6611698779412
 20
101.6483421512311
 30
0.0
 10
570.7693489293649
 20
101.6484069329767
 30
0.0
 10
570.8241776259529
 20
101.6785631263031
 30
0.0
 10
570.9310846086128
 20
101.7881483276688
 30
0.0
 10
570.983506123585
 20
101.866691301471
 30
0.0
 10
571.0352433889873
 20
101.9609819060022
 30
0.0
  0
LINE
  5
3C1
330
1F
100
AcDbEntity
  8
0
  6
Continuous
 62
     7
370
    25
100
AcDbLine
 10
570.4093535338
 20
101.4463019206
 30
0.0
 11
564.1093535338
 21
101.4463019206
 31
0.0
  0
LINE
  5
3C2
330
1F
100
AcDbEntity
  8
0
  6
Continuous
 62
     7
370
    25
100
AcDbLine
 10
563.4834636786
 20
104.1316219352
 30
0.0
 11
563.4834636786
 21
101.960981906
 31
0.0
  0
LINE
  5
3C3
330
1F
100
AcDbEntity
  8
0
  6
Continuous
 62
     7
370
    25
100
AcDbLine
 10
571.035243389
 20
104.1316219352
 30
0.0
 11
571.035243389
 21
101.960981906
 31
0.0
  0
SPLINE
  5
3C4
330
1F
100
AcDbEntity
  8
0
  6
Continuous
 62
     7
370
    25
100
AcDbSpline
210
0.0
220
0.0
230
1.0
 70
     8
 71
     3
 72
    12
 73
     8
 74
     0
 42
0.000000001
 43
0.00000001
 40
0.0
 40
0.0
 40
0.0
 40
0.0
 40
0.4999999999999811
 40
0.4999999999999811
 40
0.7499999999999906
 40
0.7499999999999906
 40
1.0
 40
1.0
 40
1.0
 40
1.0
 10
-12.60490674335318
 20
104.1316219352312
 30
0.0
 10
-13.22143713327351
 20
104.3221162246548
 30
0.0
 10
-13.84720500572323
 20
104.4437906377171
 30
0.0
 10
-14.81026671510821
 20
104.4444468282484
 30
0.0
 10
-15.13095975023798
 20
104.414612826454
 30
0.0
 10
-15.76091800023394
 20
104.3056829563464
 30
0.0
 10
-16.07214726826489
 20
104.2269877692835
 30
0.0
 10
-16.38079659854935
 20
104.1316219352308
 30
0.0
  0
LINE
  5
3C5
330
1F
100
AcDbEntity
  8
0
  6
Continuous
 62
     7
370
    25
100
AcDbLine
 10
-12.6049067434
 20
104.1316219352
 30
0.0
 11
-12.6049067434
 21
101.960981906
 31
0.0
  0
SPLINE
  5
3C6
330
1F
100
AcDbEntity
  8
0
  6
Continuous
 62
     7
370
    25
100
AcDbSpline
210
0.0
220
0.0
230
1.0
 70
     8
 71
     3
 72
    12
 73
     8
 74
     0
 42
0.000000001
 43
0.00000001
 40
0.0
 40
0.0
 40
0.0
 40
0.0
 40
0.4999999999999811
 40
0.4999999999999811
 40
0.7499999999999906
 40
0.7499999999999906
 40
1.0
 40
1.0
 40
1.0
 40
1.0
 10
-16.38079659854941
 20
101.9609819060013
 30
0.0
 10
-15.7642662086292
 20
101.7704876165778
 30
0.0
 10
-15.13849833617936
 20
101.6488132035154
 30
0.0
 10
-14.17543662679444
 20
101.6481570129842
 30
0.0
 10
-13.85474359166483
 20
101.6779910147786
 30
0.0
 10
-13.22478534166882
 20
101.7869208848862
 30
0.0
 10
-12.91355607363803
 20
101.865616071949
 30
0.0
 10
-12.6049067433533
 20
101.9609819060018
 30
0.0
  0
LINE
  5
3C7
330
1F
100
AcDbEntity
  8
0
  6
Continuous
 62
     7
370
    25
100
AcDbLine
 10
-16.3807965985
 20
104.1316219352
 30
0.0
 11
-16.3807965985
 21
101.960981906
 31
0.0
  0
SPLINE
  5
3C8
330
1F
100
AcDbEntity
  8
0
  6
Continuous
 62
     7
370
    25
100
AcDbSpline
210
0.0
220
0.0
230
1.0
 70
     8
 71
     3
 72
    14
 73
    10
 74
     0
 42
0.000000001
 43
0.00000001
 40
0.0
 40
0.0
 40
0.0
 40
0.0
 40
0.25
 40
0.25
 40
0.5
 40
0.5
 40
0.75
 40
0.75
 40
1.0
 40
1.0
 40
1.0
 40
1.0
 10
-12.60490674335335
 20
104.1316219352303
 30
0.0
 10
-12.55284903446247
 20
104.2264965445409
 30
0.0
 10
-12.49951549613443
 20
104.3061014694166
 30
0.0
 10
-12.39258348850625
 20
104.4149380843108
 30
0.0
 10
-12.33883012205878
 20
104.4442616900013
 30
0.0
 10
-12.23065107063509
 20
104.4441969082557
 30
0.0
 10
-12.17582237404707
 20
104.4140407149294
 30
0.0
 10
-12.06891539138738
 20
104.3044555135637
 30
0.0
 10
-12.01649387641496
 20
104.2259125397615
 30
0.0
 10
-11.96475661101276
 20
104.1316219352302
 30
0.0
  0
SPLINE
  5
3C9
330
1F
100
AcDbEntity
  8
0
  6
Continuous
 62
     7
370
    25
100
AcDbSpline
210
0.0
220
0.0
230
1.0
 70
     8
 71
     3
 72
    12
 73
     8
 74
     0
 42
0.000000001
 43
0.00000001
 40
0.0
 40
0.0
 40
0.0
 40
0.0
 40
0.5000000000000009
 40
0.5000000000000009
 40
0.7500000000000004
 40
0.7500000000000004
 40
1.0
 40
1.0
 40
1.0
 40
1.0
 10
-16.38079659854919
 20
104.1316219352312
 30
0.0
 10
-16.89280275025412
 20
104.3221162246548
 30
0.0
 10
-17.41248029652259
 20
104.4437906377171
 30
0.0
 10
-18.21226815408472
 20
104.4444468282484
 30
0.0
 10
-18.47859210093289
 20
104.414612826454
 30
0.0
 10
-19.00174960393436
 20
104.3056829563464
 30
0.0
 10
-19.26021423508267
 20
104.2269877692835
 30
0.0
 10
-19.51653632140471
 20
104.1316219352308
 30
0.0
  0
SPLINE
  5
3CA
330
1F
100
AcDbEntity
  8
0
  6
Continuous
 62
     7
370
    25
100
AcDbSpline
210
0.0
220
0.0
230
1.0
 70
     8
 71
     3
 72
     9
 73
     5
 74
     0
 42
0.000000001
 43
0.00000001
 40
0.0
 40
0.0
 40
0.0
 40
0.0
 40
0.3722348086954475
 40
0.9999999999999999
 40
0.9999999999999999
 40
0.9999999999999999
 40
0.9999999999999999
 10
-19.51653632140465
 20
104.1316219352303
 30
0.0
 10
-19.48857008773291
 20
104.1835462440038
 30
0.0
 10
-19.41343946314194
 20
104.3230396700904
 30
0.0
 10
-19.33489560498541
 20
104.3310483961955
 30
0.0
 10
-19.28558850484391
 20
104.336075995671
 30
0.0
  0
LINE
  5
3CB
330
1F
100
AcDbEntity
  8
0
  6
Continuous
 62
     7
370
    25
100
AcDbLine
 10
-12.5906464662
 20
104.6463019206
 30
0.0
 11
-18.8906464662
 21
104.6463019206
 31
0.0
  0
SPLINE
  5
3CC
330
1F
100
AcDbEntity
  8
0
  6
Continuous
 62
     7
370
    25
100
AcDbSpline
210
0.0
220
0.0
230
1.0
 70
     8
 71
     3
 72
     9
 73
     5
 74
     0
 42
0.000000001
 43
0.00000001
 40
0.0
 40
0.0
 40
0.0
 40
0.0
 40
0.6277651913045432
 40
1.0
 40
1.0
 40
1.0
 40
1.0
 10
-19.28558850484391
 20
101.7565278455616
 30
0.0
 10
-19.33489560498541
 20
101.7615554450371
 30
0.0
 10
-19.41343946314194
 20
101.7695641711422
 30
0.0
 10
-19.48857008773297
 20
101.9090575972287
 30
0.0
 10
-19.51653632140465
 20
101.9609819060023
 30
0.0
  0
SPLINE
  5
3CD
330
1F
100
AcDbEntity
  8
0
  6
Continuous
 62
     7
370
    25
100
AcDbSpline
210
0.0
220
0.0
230
1.0
 70
     8
 71
     3
 72
    12
 73
     8
 74
     0
 42
0.000000001
 43
0.00000001
 40
0.0
 40
0.0
 40
0.0
 40
0.0
 40
0.5000000000000009
 40
0.5000000000000009
 40
0.7500000000000004
 40
0.7500000000000004
 40
1.0
 40
1.0
 40
1.0
 40
1.0
 10
-19.51653632140476
 20
101.9609819060013
 30
0.0
 10
-19.00453016969988
 20
101.7704876165778
 30
0.0
 10
-18.48485262343164
 20
101.6488132035154
 30
0.0
 10
-17.68506476586906
 20
101.6481570129842
 30
0.0
 10
-17.41874081902101
 20
101.6779910147786
 30
0.0
 10
-16.89558331601965
 20
101.7869208848862
 30
0.0
 10
-16.63711868487128
 20
101.865616071949
 30
0.0
 10
-16.38079659854924
 20
101.9609819060018
 30
0.0
  0
SPLINE
  5
3CE
330
1F
100
AcDbEntity
  8
0
  6
Continuous
 62
     7
370
    25
100
AcDbSpline
210
0.0
220
0.0
230
1.0
 70
     8
 71
     3
 72
    14
 73
    10
 74
     0
 42
0.000000001
 43
0.00000001
 40
0.0
 40
0.0
 40
0.0
 40
0.0
 40
0.25
 40
0.25
 40
0.5
 40
0.5
 40
0.75
 40
0.75
 40
1.0
 40
1.0
 40
1.0
 40
1.0
 10
-12.60490674335335
 20
101.9609819060023
 30
0.0
 10
-12.55284903446247
 20
101.8661072966917
 30
0.0
 10
-12.49951549613443
 20
101.7865023718159
 30
0.0
 10
-12.39258348850625
 20
101.6776657569217
 30
0.0
 10
-12.33883012205878
 20
101.6483421512312
 30
0.0
 10
-12.23065107063509
 20
101.6484069329768
 30
0.0
 10
-12.17582237404707
 20
101.6785631263031
 30
0.0
 10
-12.06891539138738
 20
101.7881483276689
 30
0.0
 10
-12.01649387641496
 20
101.866691301471
 30
0.0
 10
-11.96475661101276
 20
101.9609819060023
 30
0.0
  0
LINE
  5
3CF
330
1F
100
AcDbEntity
  8
0
  6
Continuous
 62
     7
370
    25
100
AcDbLine
 10
-12.5906464662
 20
101.4463019206
 30
0.0
 11
-18.8906464662
 21
101.4463019206
 31
0.0
  0
LINE
  5
3D0
330
1F
100
AcDbEntity
  8
0
  6
Continuous
 62
     7
370
    25
100
AcDbLine
 10
-19.5165363214
 20
104.1316219352
 30
0.0
 11
-19.5165363214
 21
101.960981906
 31
0.0
  0
LINE
  5
3D1
330
1F
100
AcDbEntity
  8
0
  6
Continuous
 62
     7
370
    25
100
AcDbLine
 10
-11.964756611
 20
104.1316219352
 30
0.0
 11
-11.964756611
 21
101.960981906
 31
0.0
  0
LINE
  5
3D2
330
1F
100
AcDbEntity
  8
0
  6
Continuous
 62
     7
370
    25
100
AcDbLine
 10
-35.7406464662
 20
100.5463019206
 30
0.0
 11
867.2593535338
 21
100.5463019206
 31
0.0
  0
LINE
  5
3D3
330
1F
100
AcDbEntity
  8
0
  6
Continuous
 62
     7
370
    25
100
AcDbLine
 10
867.2593535338
 20
100.5463019206
 30
0.0
 11
867.2593535338
 21
98.7463019206
 31
0.0
  0
LINE
  5
3D4
330
1F
100
AcDbEntity
  8
0
  6
Continuous
 62
     7
370
    25
100
AcDbLine
 10
-35.7406464662
 20
98.7463019206
 30
0.0
 11
-35.7406464662
 21
100.5463019206
 31
0.0
  0
LINE
  5
3D5
330
1F
100
AcDbEntity
  8
0
  6
Continuous
 62
     7
370
    25
100
AcDbLine
 10
-36.7406464662
 20
87.9963019206
 30
0.0
 11
-36.6615766988
 21
88.8463019206
 31
0.0
  0
LINE
  5
3D6
330
1F
100
AcDbEntity
  8
0
  6
Continuous
 62
     7
370
    25
100
AcDbLine
 10
868.1802837663
 20
88.8463019206
 30
0.0
 11
868.2593535338
 21
87.9963019206
 31
0.0
  0
LINE
  5
3D7
330
1F
100
AcDbEntity
  8
0
  6
Continuous
 62
     7
370
    25
100
AcDbLine
 10
-36.6615766988
 20
88.8463019206
 30
0.0
 11
-35.7406464662
 21
98.7463019206
 31
0.0
  0
LINE
  5
3D8
330
1F
100
AcDbEntity
  8
0
  6
Continuous
 62
     7
370
    25
100
AcDbLine
 10
867.2593535338
 20
98.7463019206
 30
0.0
 11
868.1802837663
 21
88.8463019206
 31
0.0
  0
LINE
  5
3D9
330
1F
100
AcDbEntity
  8
0
  6
Continuous
 62
     7
370
    25
100
AcDbLine
 10
846.9425613756
 20
109.7463019206
 30
0.0
 11
849.2593535338
 21
109.7463019206
 31
0.0
  0
LINE
  5
3DA
330
1F
100
AcDbEntity
  8
0
  6
Continuous
 62
     7
370
    25
100
AcDbLine
 10
845.2593535338
 20
109.7463019206
 30
0.0
 11
846.9425613756
 21
109.7463019206
 31
0.0
  0
LINE
  5
3DB
330
1F
100
AcDbEntity
  8
0
  6
Continuous
 62
     7
370
    25
100
AcDbLine
 10
263.9425613756
 20
109.7463019206
 30
0.0
 11
266.2593535338
 21
109.7463019206
 31
0.0
  0
LINE
  5
3DC
330
1F
100
AcDbEntity
  8
0
  6
Continuous
 62
     7
370
    25
100
AcDbLine
 10
262.2593535338
 20
109.7463019206
 30
0.0
 11
263.9425613756
 21
109.7463019206
 31
0.0
  0
LINE
  5
3DD
330
1F
100
AcDbEntity
  8
0
  6
Continuous
 62
     7
370
    25
100
AcDbLine
 10
566.9425613756
 20
109.7463019206
 30
0.0
 11
569.2593535338
 21
109.7463019206
 31
0.0
  0
LINE
  5
3DE
330
1F
100
AcDbEntity
  8
0
  6
Continuous
 62
     7
370
    25
100
AcDbLine
 10
565.2593535338
 20
109.7463019206
 30
0.0
 11
566.9425613756
 21
109.7463019206
 31
0.0
  0
LINE
  5
3DF
330
1F
100
AcDbEntity
  8
0
  6
Continuous
 62
     7
370
    25
100
AcDbLine
 10
-16.0574386244
 20
109.7463019206
 30
0.0
 11
-13.7406464662
 21
109.7463019206
 31
0.0
  0
LINE
  5
3E0
330
1F
100
AcDbEntity
  8
0
  6
Continuous
 62
     7
370
    25
100
AcDbLine
 10
-17.7406464662
 20
109.7463019206
 30
0.0
 11
-16.0574386244
 21
109.7463019206
 31
0.0
  0
LINE
  5
3E1
330
1F
100
AcDbEntity
  8
0
  6
Continuous
 62
     7
370
    25
100
AcDbLine
 10
868.7593535338
 20
120.9463019206
 30
0.0
 11
869.7593535338
 21
120.9463019206
 31
0.0
  0
LINE
  5
3E2
330
1F
100
AcDbEntity
  8
0
  6
Continuous
 62
     7
370
    25
100
AcDbLine
 10
869.7593535338
 20
120.9463019206
 30
0.0
 11
869.7593535338
 21
118.9463019206
 31
0.0
  0
LINE
  5
3E3
330
1F
100
AcDbEntity
  8
0
  6
Continuous
 62
     7
370
    25
100
AcDbLine
 10
869.7593535338
 20
118.9463019206
 30
0.0
 11
869.7593535338
 21
116.0463019206
 31
0.0
  0
LINE
  5
3E4
330
1F
100
AcDbEntity
  8
0
  6
Continuous
 62
     7
370
    25
100
AcDbLine
 10
869.7593535338
 20
110.0463019206
 30
0.0
 11
869.7593535338
 21
89.9463019206
 31
0.0
  0
LINE
  5
3E5
330
1F
100
AcDbEntity
  8
0
  6
Continuous
 62
     7
370
    25
100
AcDbLine
 10
867.7593535338
 20
102.5463019206
 30
0.0
 11
867.7593535338
 21
93.3713019206
 31
0.0
  0
LINE
  5
3E6
330
1F
100
AcDbEntity
  8
0
  6
Continuous
 62
     7
370
    25
100
AcDbLine
 10
869.7576864039
 20
89.8463019206
 30
0.0
 11
869.7593535338
 21
89.9463019206
 31
0.0
  0
LINE
  5
3E7
330
1F
100
AcDbEntity
  8
0
  6
Continuous
 62
     7
370
    25
100
AcDbLine
 10
869.819660913
 20
120.9463019206
 30
0.0
 11
869.7593535338
 21
120.9463019206
 31
0.0
  0
LINE
  5
3E8
330
1F
100
AcDbEntity
  8
0
  6
Continuous
 62
     7
370
    25
100
AcDbLine
 10
869.7593535338
 20
104.9463019206
 30
0.0
 11
869.819660913
 21
104.9463019206
 31
0.0
  0
LINE
  5
3E9
330
1F
100
AcDbEntity
  8
0
  6
Continuous
 62
     7
370
    25
100
AcDbLine
 10
869.819660913
 20
120.9463019206
 30
0.0
 11
871.6908596353
 21
120.9463019206
 31
0.0
  0
LWPOLYLINE
  5
3EA
330
1F
100
AcDbEntity
  8
0
  6
Continuous
 62
     7
370
    25
100
AcDbPolyline
 90
        9
 70
   128
 43
0.0
 10
872.374899922
 20
118.9463019206
 10
872.3617562797
 20
119.3364825646
 10
872.3228304556
 20
119.7116687853
 10
872.2596183473
 20
120.0574423867
 10
872.1745491606
 20
120.360515483
 10
872.0708920568
 20
120.6092411452
 10
871.9526305201
 20
120.7940609856
 10
871.8243092751
 20
120.9078724814
 10
871.6908596353
 20
120.9463019206
  0
LINE
  5
3EB
330
1F
100
AcDbEntity
  8
0
  6
Continuous
 62
     7
370
    25
100
AcDbLine
 10
872.374899922
 20
118.9463019206
 30
0.0
 11
872.374899922
 21
116.0463019206
 31
0.0
  0
LINE
  5
3EC
330
1F
100
AcDbEntity
  8
0
  6
Continuous
 62
     7
370
    25
100
AcDbLine
 10
872.374899922
 20
110.0463019206
 30
0.0
 11
872.374899922
 21
106.9463019206
 31
0.0
  0
LWPOLYLINE
  5
3ED
330
1F
100
AcDbEntity
  8
0
  6
Continuous
 62
     7
370
    25
100
AcDbPolyline
 90
        9
 70
   128
 43
0.0
 10
871.6908596353
 20
104.9463019206
 10
871.8243092751
 20
104.9847313598
 10
871.9526305201
 20
105.0985428556
 10
872.0708920568
 20
105.283362696
 10
872.1745491606
 20
105.5320883582
 10
872.2596183473
 20
105.8351614546
 10
872.3228304556
 20
106.1809350559
 10
872.3617562797
 20
106.5561212766
 10
872.374899922
 20
106.9463019206
  0
LINE
  5
3EE
330
1F
100
AcDbEntity
  8
0
  6
Continuous
 62
     7
370
    25
100
AcDbLine
 10
871.6908596353
 20
104.9463019206
 30
0.0
 11
869.819660913
 21
104.9463019206
 31
0.0
  0
LINE
  5
3EF
330
1F
100
AcDbEntity
  8
0
  6
Continuous
 62
     7
370
    25
100
AcDbLine
 10
-38.2406464662
 20
120.9463019206
 30
0.0
 11
-37.2406464662
 21
120.9463019206
 31
0.0
  0
LINE
  5
3F0
330
1F
100
AcDbEntity
  8
0
  6
Continuous
 62
     7
370
    25
100
AcDbLine
 10
-38.2406464662
 20
118.9463019206
 30
0.0
 11
-38.2406464662
 21
120.9463019206
 31
0.0
  0
LINE
  5
3F1
330
1F
100
AcDbEntity
  8
0
  6
Continuous
 62
     7
370
    25
100
AcDbLine
 10
-38.2406464662
 20
89.9463019206
 30
0.0
 11
-38.2406464662
 21
110.0463019206
 31
0.0
  0
LINE
  5
3F2
330
1F
100
AcDbEntity
  8
0
  6
Continuous
 62
     7
370
    25
100
AcDbLine
 10
-38.2406464662
 20
116.0463019206
 30
0.0
 11
-38.2406464662
 21
118.9463019206
 31
0.0
  0
LINE
  5
3F3
330
1F
100
AcDbEntity
  8
0
  6
Continuous
 62
     7
370
    25
100
AcDbLine
 10
-36.2406464662
 20
93.3713019206
 30
0.0
 11
-36.2406464662
 21
102.5463019206
 31
0.0
  0
LINE
  5
3F4
330
1F
100
AcDbEntity
  8
0
  6
Continuous
 62
     7
370
    25
100
AcDbLine
 10
-38.2406464662
 20
89.9463019206
 30
0.0
 11
-38.2389793363
 21
89.8463019206
 31
0.0
  0
LINE
  5
3F5
330
1F
100
AcDbEntity
  8
0
  6
Continuous
 62
     7
370
    25
100
AcDbLine
 10
-38.3009538454
 20
104.9463019206
 30
0.0
 11
-38.2406464662
 21
104.9463019206
 31
0.0
  0
LINE
  5
3F6
330
1F
100
AcDbEntity
  8
0
  6
Continuous
 62
     7
370
    25
100
AcDbLine
 10
-38.2406464662
 20
120.9463019206
 30
0.0
 11
-38.3009538454
 21
120.9463019206
 31
0.0
  0
LWPOLYLINE
  5
3F7
330
1F
100
AcDbEntity
  8
0
  6
Continuous
 62
     7
370
    25
100
AcDbPolyline
 90
        9
 70
   128
 43
0.0
 10
-40.1721525677
 20
120.9463019206
 10
-40.3056022075
 20
120.9078724814
 10
-40.4339234525
 20
120.7940609856
 10
-40.5521849892
 20
120.6092411452
 10
-40.655842093
 20
120.360515483
 10
-40.7409112797
 20
120.0574423867
 10
-40.804123388
 20
119.7116687853
 10
-40.8430492121
 20
119.3364825647
 10
-40.8561928544
 20
118.9463019206
  0
LINE
  5
3F8
330
1F
100
AcDbEntity
  8
0
  6
Continuous
 62
     7
370
    25
100
AcDbLine
 10
-40.1721525677
 20
120.9463019206
 30
0.0
 11
-38.3009538454
 21
120.9463019206
 31
0.0
  0
LINE
  5
3F9
330
1F
100
AcDbEntity
  8
0
  6
Continuous
 62
     7
370
    25
100
AcDbLine
 10
-38.3009538454
 20
104.9463019206
 30
0.0
 11
-40.1721525677
 21
104.9463019206
 31
0.0
  0
LWPOLYLINE
  5
3FA
330
1F
100
AcDbEntity
  8
0
  6
Continuous
 62
     7
370
    25
100
AcDbPolyline
 90
        9
 70
   128
 43
0.0
 10
-40.8561928544
 20
106.9463019206
 10
-40.8430492121
 20
106.5561212766
 10
-40.804123388
 20
106.1809350559
 10
-40.7409112797
 20
105.8351614546
 10
-40.655842093
 20
105.5320883582
 10
-40.5521849892
 20
105.283362696
 10
-40.4339234525
 20
105.0985428556
 10
-40.3056022075
 20
104.9847313598
 10
-40.1721525677
 20
104.9463019206
  0
LINE
  5
3FB
330
1F
100
AcDbEntity
  8
0
  6
Continuous
 62
     7
370
    25
100
AcDbLine
 10
-40.8561928544
 20
106.9463019206
 30
0.0
 11
-40.8561928544
 21
110.0463019206
 31
0.0
  0
LINE
  5
3FC
330
1F
100
AcDbEntity
  8
0
  6
Continuous
 62
     7
370
    25
100
AcDbLine
 10
-40.8561928544
 20
116.0463019206
 30
0.0
 11
-40.8561928544
 21
118.9463019206
 31
0.0
  0
SPLINE
  5
3FD
330
1F
100
AcDbEntity
  8
0
  6
Continuous
 62
     7
370
    25
100
AcDbSpline
210
0.0
220
0.0
230
1.0
 70
    24
 71
     3
 72
     9
 73
     5
 74
     0
 42
0.000000001
 43
0.00000001
 40
0.0
 40
0.0
 40
0.0
 40
0.0
 40
0.7059102712400049
 40
1.0
 40
1.0
 40
1.0
 40
1.0
 10
-36.44064646620887
 20
118.8195507300063
 30
0.0
 10
-36.44064646620892
 20
118.8298034993029
 30
0.0
 10
-36.44064646620882
 20
118.8443276813615
 30
0.0
 10
-36.44064646620892
 20
118.7492757247532
 30
0.0
 10
-36.44064646620882
 20
118.7213219206162
 30
0.0
  0
SPLINE
  5
3FE
330
1F
100
AcDbEntity
  8
0
  6
Continuous
 62
     7
370
    25
100
AcDbSpline
210
0.0
220
0.0
230
1.0
 70
    24
 71
     3
 72
    12
 73
     8
 74
     0
 42
0.000000001
 43
0.00000001
 40
0.0
 40
0.0
 40
0.0
 40
0.0
 40
0.3344405486782614
 40
0.5144757571369835
 40
0.6983315710265336
 40
0.8821873849160816
 40
1.0
 40
1.0
 40
1.0
 40
1.0
 10
-35.44064646620881
 20
115.5526092256728
 30
0.0
 10
-35.44064646620887
 20
116.1767547611747
 30
0.0
 10
-35.44064646620892
 20
117.1368887766523
 30
0.0
 10
-35.44064646620881
 20
118.0447996829475
 30
0.0
 10
-35.44064646620881
 20
118.5505170208637
 30
0.0
 10
-35.44064646620881
 20
118.8221367550019
 30
0.0
 10
-35.44064646620876
 20
118.8202770235421
 30
0.0
 10
-35.44064646620881
 20
118.8195507300173
 30
0.0
  0
SPLINE
  5
3FF
330
1F
100
AcDbEntity
  8
0
  6
Continuous
 62
     7
370
    25
100
AcDbSpline
210
0.0
220
0.0
230
1.0
 70
    24
 71
     3
 72
    15
 73
    11
 74
     0
 42
0.000000001
 43
0.00000001
 40
0.0
 40
0.0
 40
0.0
 40
0.0
 40
0.0346967497918638
 40
0.2211884951269638
 40
0.4076802404620634
 40
0.5080720152630779
 40
0.6105942475634819
 40
0.7131164798638859
 40
0.8135082546649004
 40
1.0
 40
1.0
 40
1.0
 40
1.0
 10
-35.44064646620881
 20
107.2730531112115
 30
0.0
 10
-35.44064646620881
 20
107.2663320075801
 30
0.0
 10
-35.44064646620865
 20
107.2234856082273
 30
0.0
 10
-35.44064646620892
 20
107.7115265709858
 30
0.0
 10
-35.4406464662087
 20
108.8074376284544
 30
0.0
 10
-35.44064646620887
 20
110.0263347609019
 30
0.0
 10
-35.44064646620887
 20
111.1065099887588
 30
0.0
 10
-35.44064646620859
 20
112.2669868912245
 30
0.0
 10
-35.44064646620892
 20
113.7975617863396
 30
0.0
 10
-35.44064646620881
 20
114.8611876749897
 30
0.0
 10
-35.44064646620881
 20
115.5526092256728
 30
0.0
  0
LINE
  5
400
330
1F
100
AcDbEntity
  8
0
  6
Continuous
 62
     7
370
    25
100
AcDbLine
 10
-31.4406464662
 20
112.6629068929
 30
0.0
 11
-31.4406464662
 21
117.1719827999
 31
0.0
  0
SPLINE
  5
401
330
1F
100
AcDbEntity
  8
0
  6
Continuous
 62
     7
370
    25
100
AcDbSpline
210
0.0
220
0.0
230
1.0
 70
     8
 71
     3
 72
     8
 73
     4
 74
     0
 42
0.000000001
 43
0.00000001
 40
0.0
 40
0.0
 40
0.0
 40
0.0
 40
1.0
 40
1.0
 40
1.0
 40
1.0
 10
-31.4406464662158
 20
112.6629068929279
 30
0.0
 10
-31.4406464662158
 20
113.6452853375007
 30
0.0
 10
-31.61496176659523
 20
114.6007765056904
 30
0.0
 10
-31.8872284536072
 20
115.541159155018
 30
0.0
  0
SPLINE
  5
402
330
1F
100
AcDbEntity
  8
0
  6
Continuous
 62
     7
370
    25
100
AcDbSpline
210
0.0
220
0.0
230
1.0
 70
     8
 71
     3
 72
     8
 73
     4
 74
     0
 42
0.000000001
 43
0.00000001
 40
0.0
 40
0.0
 40
0.0
 40
0.0
 40
1.0
 40
1.0
 40
1.0
 40
1.0
 10
-31.88722845360731
 20
115.5411591550241
 30
0.0
 10
-31.61496176659589
 20
116.073981896089
 30
0.0
 10
-31.44064646621597
 20
116.6153651549836
 30
0.0
 10
-31.44064646621597
 20
117.171982799912
 30
0.0
  0
SPLINE
  5
403
330
1F
100
AcDbEntity
  8
0
  6
Continuous
 62
     7
370
    25
100
AcDbSpline
210
0.0
220
0.0
230
1.0
 70
     8
 71
     3
 72
     8
 73
     4
 74
     0
 42
0.000000001
 43
0.00000001
 40
0.0
 40
0.0
 40
0.0
 40
0.0
 40
1.0
 40
1.0
 40
1.0
 40
1.0
 10
-31.88722845360714
 20
109.7846546308379
 30
0.0
 10
-31.61496176659573
 20
110.7250372801637
 30
0.0
 10
-31.4406464662158
 20
111.680528448357
 30
0.0
 10
-31.4406464662158
 20
112.6629068929279
 30
0.0
  0
LINE
  5
404
330
1F
100
AcDbEntity
  8
0
  6
Continuous
 62
     7
370
    25
100
AcDbLine
 10
-35.4406464662
 20
109.7846546308
 30
0.0
 11
-31.8872284536
 21
109.7846546308
 31
0.0
  0
LINE
  5
405
330
1F
100
AcDbEntity
  8
0
  6
Continuous
 62
     7
370
    25
100
AcDbLine
 10
-35.4406464662
 20
115.541159155
 30
0.0
 11
-31.8872284536
 21
115.541159155
 31
0.0
  0
LINE
  5
406
330
1F
100
AcDbEntity
  8
0
  6
Continuous
 62
     7
370
    25
100
AcDbLine
 10
-31.4406464662
 20
108.5372260136
 30
0.0
 11
-31.4406464662
 21
112.6629068929
 31
0.0
  0
SPLINE
  5
407
330
1F
100
AcDbEntity
  8
0
  6
Continuous
 62
     7
370
    25
100
AcDbSpline
210
0.0
220
0.0
230
1.0
 70
     8
 71
     3
 72
     8
 73
     4
 74
     0
 42
0.000000001
 43
0.00000001
 40
0.0
 40
0.0
 40
0.0
 40
0.0
 40
1.0
 40
1.0
 40
1.0
 40
1.0
 10
-31.44064646621597
 20
108.5372260136304
 30
0.0
 10
-31.44064646621597
 20
108.9629868132736
 30
0.0
 10
-31.6149617665954
 20
109.3770947225707
 30
0.0
 10
-31.88722845360725
 20
109.7846546308323
 30
0.0
  0
SPLINE
  5
408
330
1F
100
AcDbEntity
  8
0
  6
Continuous
 62
     7
370
    25
100
AcDbSpline
210
0.0
220
0.0
230
1.0
 70
     8
 71
     3
 72
     8
 73
     4
 74
     0
 42
0.000000001
 43
0.00000001
 40
0.0
 40
0.0
 40
0.0
 40
0.0
 40
1.0
 40
1.0
 40
1.0
 40
1.0
 10
-31.44064646621597
 20
117.171982799912
 30
0.0
 10
-31.44064646621597
 20
117.7286004448414
 30
0.0
 10
-31.6149617665954
 20
118.2699837037341
 30
0.0
 10
-31.88722845360731
 20
118.8028064447999
 30
0.0
  0
LINE
  5
409
330
1F
100
AcDbEntity
  8
0
  6
Continuous
 62
     7
370
    25
100
AcDbLine
 10
-35.4406464662
 20
118.8028064448
 30
0.0
 11
-31.8872284536
 21
118.8028064448
 31
0.0
  0
SPLINE
  5
40A
330
1F
100
AcDbEntity
  8
0
  6
Continuous
 62
     7
370
    25
100
AcDbSpline
210
0.0
220
0.0
230
1.0
 70
     8
 71
     3
 72
     8
 73
     4
 74
     0
 42
0.000000001
 43
0.00000001
 40
0.0
 40
0.0
 40
0.0
 40
0.0
 40
1.0
 40
1.0
 40
1.0
 40
1.0
 10
-31.88722845360725
 20
107.2897973964284
 30
0.0
 10
-31.61496176659578
 20
107.6973573046895
 30
0.0
 10
-31.44064646621597
 20
108.1114652139878
 30
0.0
 10
-31.44064646621597
 20
108.5372260136304
 30
0.0
  0
LINE
  5
40B
330
1F
100
AcDbEntity
  8
0
  6
Continuous
 62
     7
370
    25
100
AcDbLine
 10
-31.8872284536
 20
107.2897973964
 30
0.0
 11
-35.4406464662
 21
107.2897973964
 31
0.0
  0
LINE
  5
40C
330
1F
100
AcDbEntity
  8
0
  6
Continuous
 62
     7
370
    25
100
AcDbLine
 10
-45.8993964662
 20
110.3408563764
 30
0.0
 11
-45.8993964662
 21
110.0463019206
 31
0.0
  0
LINE
  5
40D
330
1F
100
AcDbEntity
  8
0
  6
Continuous
 62
     7
370
    25
100
AcDbLine
 10
-45.8993964662
 20
116.0463019206
 30
0.0
 11
-45.8993964662
 21
110.3408563764
 31
0.0
  0
LINE
  5
40E
330
1F
100
AcDbEntity
  8
0
  6
Continuous
 62
     7
370
    25
100
AcDbLine
 10
-46.4406464662
 20
115.5050519206
 30
0.0
 11
-46.4406464662
 21
110.5875519206
 31
0.0
  0
LINE
  5
40F
330
1F
100
AcDbEntity
  8
0
  6
Continuous
 62
     7
370
    25
100
AcDbLine
 10
-31.8872284536
 20
118.8028064448
 30
0.0
 11
-31.8120406981
 21
118.592785977
 31
0.0
  0
LINE
  5
410
330
1F
100
AcDbEntity
  8
0
  6
Continuous
 62
     7
370
    25
100
AcDbLine
 10
-31.4406464662
 20
117.1719827999
 30
0.0
 11
-31.4406464662
 21
118.0463019206
 31
0.0
  0
LINE
  5
411
330
1F
100
AcDbEntity
  8
0
  6
Continuous
 62
     7
370
    25
100
AcDbLine
 10
-31.4406464662
 20
108.0463019206
 30
0.0
 11
-31.4406464662
 21
108.5372260136
 31
0.0
  0
ARC
  5
412
330
1F
100
AcDbEntity
  8
0
  6
Continuous
 62
     7
370
    25
100
AcDbCircle
 10
-44.7406464662
 20
83.8463019206
 30
0.0
 40
6.000000000000114
100
AcDbArc
 50
90.0
 51
143.1301023542
  0
ARC
  5
413
330
1F
100
AcDbEntity
  8
0
  6
Continuous
 62
     7
370
    25
100
AcDbCircle
 10
876.2593535338
 20
83.8463019206
 30
0.0
 40
6.00000000000002
100
AcDbArc
 50
36.8698976458
 51
90.0
  0
LINE
  5
414
330
1F
100
AcDbEntity
  8
0
  6
Continuous
 62
     7
370
    25
100
AcDbLine
 10
-148.088395635
 20
259.1534776424
 30
0.0
 11
-148.4513334134
 21
258.5248509703
 31
0.0
  0
LINE
  5
415
330
1F
100
AcDbEntity
  8
0
  6
Continuous
 62
     7
370
    25
100
AcDbLine
 10
-148.4513334134
 20
252.2248509703
 30
0.0
 11
-148.088395635
 21
251.5962242982
 31
0.0
  0
ARC
  5
416
330
1F
100
AcDbEntity
  8
0
  6
Continuous
 62
     7
370
    25
100
AcDbCircle
 10
-145.2231301831
 20
255.3748509703
 30
0.0
 40
8.000000000000005
100
AcDbArc
 50
195.2747479997
 51
210.0
  0
ARC
  5
417
330
1F
100
AcDbEntity
  8
0
  6
Continuous
 62
     7
370
    25
100
AcDbCircle
 10
-145.2231301831
 20
255.3748509703
 30
0.0
 40
7.999999999999998
100
AcDbArc
 50
150.0
 51
164.7252520003
  0
LINE
  5
418
330
1F
100
AcDbEntity
  8
0
  6
Continuous
 62
     7
370
    25
100
AcDbLine
 10
-150.1513334134
 20
259.3748509703
 30
0.0
 11
-152.1513334134
 21
259.3748509703
 31
0.0
  0
LINE
  5
419
330
1F
100
AcDbEntity
  8
0
  6
Continuous
 62
     7
370
    25
100
AcDbLine
 10
-152.1513334134
 20
251.3748509703
 30
0.0
 11
-150.1513334134
 21
251.3748509703
 31
0.0
  0
LINE
  5
41A
330
1F
100
AcDbEntity
  8
0
  6
Continuous
 62
     7
370
    25
100
AcDbLine
 10
-148.4513334134
 20
257.3748509703
 30
0.0
 11
-148.5513334134
 21
257.3748509703
 31
0.0
  0
LINE
  5
41B
330
1F
100
AcDbEntity
  8
0
  6
Continuous
 62
     7
370
    25
100
AcDbLine
 10
-148.5513334134
 20
253.3748509703
 30
0.0
 11
-148.4513334134
 21
253.3748509703
 31
0.0
  0
CIRCLE
  5
41C
330
1F
100
AcDbEntity
  8
0
  6
Continuous
 62
     7
370
    25
100
AcDbCircle
 10
-136.8513334134
 20
280.3748509703
 30
0.0
 40
2.458750000016657
  0
CIRCLE
  5
41D
330
1F
100
AcDbEntity
  8
0
  6
Continuous
 62
     7
370
    25
100
AcDbCircle
 10
-136.8513334134
 20
280.3748509703
 30
0.0
 40
3.000000000000047
  0
LINE
  5
41E
330
1F
100
AcDbEntity
  8
0
  6
Continuous
 62
     7
370
    25
100
AcDbLine
 10
-155.4513334134
 20
207.8455616485
 30
0.0
 11
-155.4513334134
 21
250.9041402922
 31
0.0
  0
LINE
  5
41F
330
1F
100
AcDbEntity
  8
0
  6
Continuous
 62
     7
370
    25
100
AcDbLine
 10
-165.0513334134
 20
207.8455616485
 30
0.0
 11
-155.4513334134
 21
207.8455616485
 31
0.0
  0
LINE
  5
420
330
1F
100
AcDbEntity
  8
0
  6
Continuous
 62
     7
370
    25
100
AcDbLine
 10
-165.0513334134
 20
250.9041402922
 30
0.0
 11
-155.4513334134
 21
250.9041402922
 31
0.0
  0
SPLINE
  5
421
330
1F
100
AcDbEntity
  8
0
  6
Continuous
 62
     7
370
    25
100
AcDbSpline
210
0.0
220
0.0
230
1.0
 70
     8
 71
     3
 72
    20
 73
    16
 74
     0
 42
0.000000001
 43
0.00000001
 40
0.0
 40
0.0
 40
0.0
 40
0.0
 40
0.1249999999999946
 40
0.1249999999999946
 40
0.2499999999999892
 40
0.2499999999999892
 40
0.3749999999999838
 40
0.3749999999999838
 40
0.4999999999999785
 40
0.4999999999999785
 40
0.7499999999999972
 40
0.7499999999999972
 40
0.8749999999999986
 40
0.8749999999999986
 40
1.0
 40
1.0
 40
1.0
 40
1.0
 10
-167.4513334133876
 20
249.9748509703409
 30
0.0
 10
-167.4513334133876
 20
250.0138917011954
 30
0.0
 10
-167.4357968529128
 20
250.0524104053952
 30
0.0
 10
-167.3744785009522
 20
250.1298171567031
 30
0.0
 10
-167.3280547553654
 20
250.1689615746898
 30
0.0
 10
-167.2081038852113
 20
250.246112328605
 30
0.0
 10
-167.1344992409278
 20
250.284439910346
 30
0.0
 10
-166.9597688748322
 20
250.3619862308226
 30
0.0
 10
-166.8589182459306
 20
250.4009624384912
 30
0.0
 10
-166.5276329659467
 20
250.5164572949363
 30
0.0
 10
-166.2599528045628
 20
250.5943697386064
 30
0.0
 10
-165.8272787785074
 20
250.7098496640073
 30
0.0
 10
-165.6757606916563
 20
250.7487154598724
 30
0.0
 10
-165.3663349342702
 20
250.8264897935409
 30
0.0
 10
-165.2097126045764
 20
250.8650995604956
 30
0.0
 10
-165.0513334133876
 20
250.9041402922223
 30
0.0
  0
SPLINE
  5
422
330
1F
100
AcDbEntity
  8
0
  6
Continuous
 62
     7
370
    25
100
AcDbSpline
210
0.0
220
0.0
230
1.0
 70
     8
 71
     3
 72
    20
 73
    16
 74
     0
 42
0.000000001
 43
0.00000001
 40
0.0
 40
0.0
 40
0.0
 40
0.0
 40
0.1250000000000001
 40
0.1250000000000001
 40
0.25
 40
0.25
 40
0.3749999999999999
 40
0.3749999999999999
 40
0.4999999999999998
 40
0.4999999999999998
 40
0.7500000000000002
 40
0.7500000000000002
 40
0.8750000000000001
 40
0.8750000000000001
 40
1.0
 40
1.0
 40
1.0
 40
1.0
 10
-165.0513334133876
 20
207.8455616484595
 30
0.0
 10
-165.2097126010383
 20
207.8846023793141
 30
0.0
 10
-165.36595832573
 20
207.9231210835138
 30
0.0
 10
-165.6739501751467
 20
208.0005278348218
 30
0.0
 10
-165.8265942826177
 20
208.0396722528085
 30
0.0
 10
-166.1156785718048
 20
208.1168230067236
 30
0.0
 10
-166.2534831099889
 20
208.1551505884647
 30
0.0
 10
-166.5151017856278
 20
208.2326969089412
 30
0.0
 10
-166.6378480923104
 20
208.2716731166099
 30
0.0
 10
-166.9691724692581
 20
208.387167973055
 30
0.0
 10
-167.1481835932864
 20
208.465080416725
 30
0.0
 10
-167.3277986926672
 20
208.5805603421259
 30
0.0
 10
-167.374043041535
 20
208.619426137991
 30
0.0
 10
-167.4357963475462
 20
208.6972004716594
 30
0.0
 10
-167.4513334133876
 20
208.7358102386142
 30
0.0
 10
-167.4513334133876
 20
208.7748509703409
 30
0.0
  0
LINE
  5
423
330
1F
100
AcDbEntity
  8
0
  6
Continuous
 62
     7
370
    25
100
AcDbLine
 10
-167.4513334134
 20
208.7748509703
 30
0.0
 11
-167.4513334134
 21
249.9748509703
 31
0.0
  0
LINE
  5
424
330
1F
100
AcDbEntity
  8
0
  6
Continuous
 62
     7
370
    25
100
AcDbLine
 10
-165.0513334134
 20
252.3748509703
 30
0.0
 11
-165.0513334134
 21
250.9748509703
 31
0.0
  0
SPLINE
  5
425
330
1F
100
AcDbEntity
  8
0
  6
Continuous
 62
     7
370
    25
100
AcDbSpline
210
0.0
220
0.0
230
1.0
 70
     8
 71
     3
 72
     9
 73
     5
 74
     0
 42
0.000000001
 43
0.00000001
 40
0.0
 40
0.0
 40
0.0
 40
0.0
 40
0.7584558214375429
 40
1.0
 40
1.0
 40
1.0
 40
1.0
 10
-165.0513334133878
 20
250.9748509703408
 30
0.0
 10
-165.203041191324
 20
250.9637964345073
 30
0.0
 10
-165.4030630958942
 20
250.9492213788205
 30
0.0
 10
-165.5536171872856
 20
250.8261249952207
 30
0.0
 10
-165.5899826516199
 20
250.7963917803601
 30
0.0
  0
SPLINE
  5
426
330
1F
100
AcDbEntity
  8
0
  6
Continuous
 62
     7
370
    25
100
AcDbSpline
210
0.0
220
0.0
230
1.0
 70
     8
 71
     3
 72
    20
 73
    16
 74
     0
 42
0.000000001
 43
0.00000001
 40
0.0
 40
0.0
 40
0.0
 40
0.0
 40
0.1249999999999993
 40
0.1249999999999993
 40
0.2499999999999985
 40
0.2499999999999985
 40
0.3749999999999978
 40
0.3749999999999978
 40
0.4999999999999969
 40
0.4999999999999969
 40
0.7499999999999933
 40
0.7499999999999933
 40
0.8749999999999967
 40
0.8749999999999967
 40
1.0
 40
1.0
 40
1.0
 40
1.0
 10
-165.0513334133877
 20
252.3748509703407
 30
0.0
 10
-165.2097126010383
 20
252.3748509703407
 30
0.0
 10
-165.36595832573
 20
252.3593144098659
 30
0.0
 10
-165.6739501751467
 20
252.2979960579053
 30
0.0
 10
-165.8265942826178
 20
252.2515723123185
 30
0.0
 10
-166.1156785718049
 20
252.1316214421644
 30
0.0
 10
-166.2534831099889
 20
252.058016797881
 30
0.0
 10
-166.5151017856278
 20
251.8832864317854
 30
0.0
 10
-166.6378480923105
 20
251.7824358028838
 30
0.0
 10
-166.9691724692582
 20
251.4511505229
 30
0.0
 10
-167.1481835932865
 20
251.1834703615161
 30
0.0
 10
-167.3277986926673
 20
250.7507963354606
 30
0.0
 10
-167.3740430415351
 20
250.5992782486096
 30
0.0
 10
-167.4357963475463
 20
250.2898524912234
 30
0.0
 10
-167.4513334133877
 20
250.1332301615297
 30
0.0
 10
-167.4513334133877
 20
249.974850970341
 30
0.0
  0
SPLINE
  5
427
330
1F
100
AcDbEntity
  8
0
  6
Continuous
 62
     7
370
    25
100
AcDbSpline
210
0.0
220
0.0
230
1.0
 70
     8
 71
     3
 72
    20
 73
    16
 74
     0
 42
0.000000001
 43
0.00000001
 40
0.0
 40
0.0
 40
0.0
 40
0.0
 40
0.1250000000000039
 40
0.1250000000000039
 40
0.2500000000000077
 40
0.2500000000000077
 40
0.3750000000000115
 40
0.3750000000000115
 40
0.5000000000000154
 40
0.5000000000000154
 40
0.7500000000000127
 40
0.7500000000000127
 40
0.8750000000000063
 40
0.8750000000000063
 40
1.0
 40
1.0
 40
1.0
 40
1.0
 10
-167.4513334133875
 20
208.774850970341
 30
0.0
 10
-167.4513334133876
 20
208.6164717826903
 30
0.0
 10
-167.4357968529127
 20
208.4602260579985
 30
0.0
 10
-167.3744785009521
 20
208.1522342085819
 30
0.0
 10
-167.3280547553653
 20
207.9995901011108
 30
0.0
 10
-167.2081038852112
 20
207.7105058119238
 30
0.0
 10
-167.1344992409278
 20
207.5727012737397
 30
0.0
 10
-166.9597688748322
 20
207.3110825981007
 30
0.0
 10
-166.8589182459307
 20
207.1883362914181
 30
0.0
 10
-166.5276329659467
 20
206.8570119144704
 30
0.0
 10
-166.2599528045628
 20
206.6780007904421
 30
0.0
 10
-165.8272787785074
 20
206.4983856910612
 30
0.0
 10
-165.6757606916563
 20
206.4521413421935
 30
0.0
 10
-165.3663349342702
 20
206.3903880361823
 30
0.0
 10
-165.2097126045764
 20
206.3748509703409
 30
0.0
 10
-165.0513334133877
 20
206.3748509703409
 30
0.0
  0
SPLINE
  5
428
330
1F
100
AcDbEntity
  8
0
  6
Continuous
 62
     7
370
    25
100
AcDbSpline
210
0.0
220
0.0
230
1.0
 70
     8
 71
     3
 72
     9
 73
     5
 74
     0
 42
0.000000001
 43
0.00000001
 40
0.0
 40
0.0
 40
0.0
 40
0.0
 40
0.4258694941521636
 40
1.0
 40
1.0
 40
1.0
 40
1.0
 10
-165.6077248403967
 20
207.9649295330181
 30
0.0
 10
-165.5373206637918
 20
207.9150079081736
 30
0.0
 10
-165.3720019979293
 20
207.7977850839751
 30
0.0
 10
-165.1682904356729
 20
207.7832156988136
 30
0.0
 10
-165.0513334133877
 20
207.7748509703409
 30
0.0
  0
LINE
  5
429
330
1F
100
AcDbEntity
  8
0
  6
Continuous
 62
     7
370
    25
100
AcDbLine
 10
-165.0513334134
 20
206.3748509703
 30
0.0
 11
-165.0513334134
 21
207.7748509703
 31
0.0
  0
LINE
  5
42A
330
1F
100
AcDbEntity
  8
0
  6
Continuous
 62
     7
370
    25
100
AcDbLine
 10
-165.0513334134
 20
250.9748509703
 30
0.0
 11
-155.4513334134
 21
250.9748509703
 31
0.0
  0
LINE
  5
42B
330
1F
100
AcDbEntity
  8
0
  6
Continuous
 62
     7
370
    25
100
AcDbLine
 10
-165.0513334134
 20
252.3748509703
 30
0.0
 11
-155.4513334134
 21
252.3748509703
 31
0.0
  0
LINE
  5
42C
330
1F
100
AcDbEntity
  8
0
  6
Continuous
 62
     7
370
    25
100
AcDbLine
 10
-155.4513334134
 20
252.3748509703
 30
0.0
 11
-155.4513334134
 21
250.9748509703
 31
0.0
  0
LINE
  5
42D
330
1F
100
AcDbEntity
  8
0
  6
Continuous
 62
     7
370
    25
100
AcDbLine
 10
-165.0513334134
 20
207.7748509703
 30
0.0
 11
-155.4513334134
 21
207.7748509703
 31
0.0
  0
LINE
  5
42E
330
1F
100
AcDbEntity
  8
0
  6
Continuous
 62
     7
370
    25
100
AcDbLine
 10
-165.0513334134
 20
206.3748509703
 30
0.0
 11
-155.4513334134
 21
206.3748509703
 31
0.0
  0
LINE
  5
42F
330
1F
100
AcDbEntity
  8
0
  6
Continuous
 62
     7
370
    25
100
AcDbLine
 10
-155.4513334134
 20
206.3748509703
 30
0.0
 11
-155.4513334134
 21
207.7748509703
 31
0.0
  0
ARC
  5
430
330
1F
100
AcDbEntity
  8
0
  6
Continuous
 62
     7
370
    25
100
AcDbCircle
 10
-131.3513334134
 20
283.8748509703
 30
0.0
 40
3.000000000000057
100
AcDbArc
 50
0.0
 51
90.0
  0
LINE
  5
431
330
1F
100
AcDbEntity
  8
0
  6
Continuous
 62
     7
370
    25
100
AcDbLine
 10
-128.3513334134
 20
249.6748509703
 30
0.0
 11
-128.3513334134
 21
283.8748509703
 31
0.0
  0
LINE
  5
432
330
1F
100
AcDbEntity
  8
0
  6
Continuous
 62
     7
370
    25
100
AcDbLine
 10
-147.3513334134
 20
266.8748509703
 30
0.0
 11
-147.3513334134
 21
249.6748509703
 31
0.0
  0
LINE
  5
433
330
1F
100
AcDbEntity
  8
0
  6
Continuous
 62
     7
370
    25
100
AcDbLine
 10
-151.3513334134
 20
266.8748509703
 30
0.0
 11
-147.3513334134
 21
266.8748509703
 31
0.0
  0
LINE
  5
434
330
1F
100
AcDbEntity
  8
0
  6
Continuous
 62
     7
370
    25
100
AcDbLine
 10
-151.3513334134
 20
283.8748509703
 30
0.0
 11
-151.3513334134
 21
266.8748509703
 31
0.0
  0
ARC
  5
435
330
1F
100
AcDbEntity
  8
0
  6
Continuous
 62
     7
370
    25
100
AcDbCircle
 10
-148.3513334134
 20
283.8748509703
 30
0.0
 40
3.000000000000057
100
AcDbArc
 50
90.0
 51
180.0
  0
LINE
  5
436
330
1F
100
AcDbEntity
  8
0
  6
Continuous
 62
     7
370
    25
100
AcDbLine
 10
-131.3513334134
 20
286.8748509703
 30
0.0
 11
-148.3513334134
 21
286.8748509703
 31
0.0
  0
CIRCLE
  5
437
330
1F
100
AcDbEntity
  8
0
  6
Continuous
 62
     7
370
    25
100
AcDbCircle
 10
-136.8513334134
 20
280.3748509703
 30
0.0
 40
3.249999999999829
  0
CIRCLE
  5
438
330
1F
100
AcDbEntity
  8
0
  6
Continuous
 62
     7
370
    25
100
AcDbCircle
 10
-136.8513334134
 20
255.3748509703
 30
0.0
 40
3.249999999999801
  0
LINE
  5
439
330
1F
100
AcDbEntity
  8
0
  6
Continuous
 62
     7
370
    25
100
AcDbLine
 10
-147.3513334134
 20
247.8748509703
 30
0.0
 11
-147.3513334134
 21
249.6748509703
 31
0.0
  0
LINE
  5
43A
330
1F
100
AcDbEntity
  8
0
  6
Continuous
 62
     7
370
    25
100
AcDbLine
 10
-128.3513334134
 20
247.8748509703
 30
0.0
 11
-147.3513334134
 21
247.8748509703
 31
0.0
  0
LINE
  5
43B
330
1F
100
AcDbEntity
  8
0
  6
Continuous
 62
     7
370
    25
100
AcDbLine
 10
-128.3513334134
 20
249.6748509703
 30
0.0
 11
-128.3513334134
 21
247.8748509703
 31
0.0
  0
LINE
  5
43C
330
1F
100
AcDbEntity
  8
0
  6
Continuous
 62
     7
370
    25
100
AcDbLine
 10
-149.3513334134
 20
259.8748509703
 30
0.0
 11
-148.5513334134
 21
259.8748509703
 31
0.0
  0
LINE
  5
43D
330
1F
100
AcDbEntity
  8
0
  6
Continuous
 62
     7
370
    25
100
AcDbLine
 10
-148.5513334134
 20
249.6748509703
 30
0.0
 11
-148.5513334134
 21
259.8748509703
 31
0.0
  0
LINE
  5
43E
330
1F
100
AcDbEntity
  8
0
  6
Continuous
 62
     7
370
    25
100
AcDbLine
 10
-147.5513334134
 20
247.8748509703
 30
0.0
 11
-147.3513334134
 21
247.8748509703
 31
0.0
  0
LINE
  5
43F
330
1F
100
AcDbEntity
  8
0
  6
Continuous
 62
     7
370
    25
100
AcDbLine
 10
-147.5513334134
 20
248.6748509703
 30
0.0
 11
-147.3513334134
 21
248.6748509703
 31
0.0
  0
ARC
  5
440
330
1F
100
AcDbEntity
  8
0
  6
Continuous
 62
     7
370
    25
100
AcDbCircle
 10
-147.5513334134
 20
249.6748509703
 30
0.0
 40
1.800000000000011
100
AcDbArc
 50
180.0
 51
270.0
  0
ARC
  5
441
330
1F
100
AcDbEntity
  8
0
  6
Continuous
 62
     7
370
    25
100
AcDbCircle
 10
-147.5513334134
 20
249.6748509703
 30
0.0
 40
1.0
100
AcDbArc
 50
180.0
 51
270.0
  0
LINE
  5
442
330
1F
100
AcDbEntity
  8
0
  6
Continuous
 62
     7
370
    25
100
AcDbLine
 10
-128.3513334134
 20
247.8748509703
 30
0.0
 11
-107.3513334134
 21
247.8748509703
 31
0.0
  0
LINE
  5
443
330
1F
100
AcDbEntity
  8
0
  6
Continuous
 62
     7
370
    25
100
AcDbLine
 10
-128.3513334134
 20
248.6748509703
 30
0.0
 11
-107.3513334134
 21
248.6748509703
 31
0.0
  0
LINE
  5
444
330
1F
100
AcDbEntity
  8
0
  6
Continuous
 62
     7
370
    25
100
AcDbLine
 10
-104.3513334134
 20
248.6748509703
 30
0.0
 11
-104.3513334134
 21
247.8748509703
 31
0.0
  0
LINE
  5
445
330
1F
100
AcDbEntity
  8
0
  6
Continuous
 62
     7
370
    25
100
AcDbLine
 10
-104.3513334134
 20
247.8748509703
 30
0.0
 11
-107.3513334134
 21
247.8748509703
 31
0.0
  0
LINE
  5
446
330
1F
100
AcDbEntity
  8
0
  6
Continuous
 62
     7
370
    25
100
AcDbLine
 10
-107.3513334134
 20
248.6748509703
 30
0.0
 11
-104.3513334134
 21
248.6748509703
 31
0.0
  0
ARC
  5
447
330
1F
100
AcDbEntity
  8
0
  6
Continuous
 62
     7
370
    25
100
AcDbCircle
 10
-122.9892826058
 20
249.6748509703
 30
0.0
 40
0.9999999999999716
100
AcDbArc
 50
270.0
 51
300.0
  0
LINE
  5
448
330
1F
100
AcDbEntity
  8
0
  6
Continuous
 62
     7
370
    25
100
AcDbLine
 10
-115.4644114752
 20
251.9408763741
 30
0.0
 11
-121.1213334134
 21
248.6748509703
 31
0.0
  0
LINE
  5
449
330
1F
100
AcDbEntity
  8
0
  6
Continuous
 62
     7
370
    25
100
AcDbLine
 10
-115.8644114752
 20
252.6336966972
 30
0.0
 11
-122.4892826058
 21
248.8088255666
 31
0.0
  0
LINE
  5
44A
330
1F
100
AcDbEntity
  8
0
  6
Continuous
 62
     7
370
    25
100
AcDbLine
 10
-114.9644114752
 20
252.8748509703
 30
0.0
 11
-108.4467200216
 21
252.8748509703
 31
0.0
  0
LINE
  5
44B
330
1F
100
AcDbEntity
  8
0
  6
Continuous
 62
     7
370
    25
100
AcDbLine
 10
-114.9644114752
 20
252.0748509703
 30
0.0
 11
-108.4467200216
 21
252.0748509703
 31
0.0
  0
LINE
  5
44C
330
1F
100
AcDbEntity
  8
0
  6
Continuous
 62
     7
370
    25
100
AcDbLine
 10
-105.4467200216
 20
252.8748509703
 30
0.0
 11
-105.4467200216
 21
252.0748509703
 31
0.0
  0
LINE
  5
44D
330
1F
100
AcDbEntity
  8
0
  6
Continuous
 62
     7
370
    25
100
AcDbLine
 10
-108.4467200216
 20
252.8748509703
 30
0.0
 11
-105.4467200216
 21
252.8748509703
 31
0.0
  0
LINE
  5
44E
330
1F
100
AcDbEntity
  8
0
  6
Continuous
 62
     7
370
    25
100
AcDbLine
 10
-105.4467200216
 20
252.0748509703
 30
0.0
 11
-108.4467200216
 21
252.0748509703
 31
0.0
  0
ARC
  5
44F
330
1F
100
AcDbEntity
  8
0
  6
Continuous
 62
     7
370
    25
100
AcDbCircle
 10
-114.9644114752
 20
251.0748509703
 30
0.0
 40
1.800000000000011
100
AcDbArc
 50
90.0
 51
120.0
  0
ARC
  5
450
330
1F
100
AcDbEntity
  8
0
  6
Continuous
 62
     7
370
    25
100
AcDbCircle
 10
-114.9644114752
 20
251.0748509703
 30
0.0
 40
1.0
100
AcDbArc
 50
90.0
 51
120.0
  0
CIRCLE
  5
451
330
1F
100
AcDbEntity
  8
0
  6
Continuous
 62
     7
370
    25
100
AcDbCircle
 10
-136.8513334134
 20
255.3748509703
 30
0.0
 40
2.458750000016617
  0
CIRCLE
  5
452
330
1F
100
AcDbEntity
  8
0
  6
Continuous
 62
     7
370
    25
100
AcDbCircle
 10
-136.8513334134
 20
255.3748509703
 30
0.0
 40
3.000000000000021
  0
SPLINE
  5
453
330
1F
100
AcDbEntity
  8
0
  6
Continuous
 62
     7
370
    25
100
AcDbSpline
210
0.0
220
0.0
230
1.0
 70
     8
 71
     3
 72
    12
 73
     8
 74
     0
 42
0.000000001
 43
0.00000001
 40
0.0
 40
0.0
 40
0.0
 40
0.0
 40
0.5000000000000009
 40
0.5000000000000009
 40
0.7500000000000004
 40
0.7500000000000004
 40
1.0
 40
1.0
 40
1.0
 40
1.0
 10
-147.9366534280026
 20
253.9340216484692
 30
0.0
 10
-148.1271477174261
 20
253.5177205648147
 30
0.0
 10
-148.2488221304885
 20
253.0951820368263
 30
0.0
 10
-148.2494783210198
 20
252.4448918973654
 30
0.0
 10
-148.2196443192254
 20
252.228349679451
 30
0.0
 10
-148.1107144491178
 20
251.8029816742107
 30
0.0
 10
-148.0320192620549
 20
251.5928296952255
 30
0.0
 10
-147.9366534280021
 20
251.3844197729127
 30
0.0
  0
LINE
  5
454
330
1F
100
AcDbEntity
  8
0
  6
Continuous
 62
     7
370
    25
100
AcDbLine
 10
-147.936653428
 20
251.3844197729
 30
0.0
 11
-148.0345284653
 21
251.6273245232
 31
0.0
  0
SPLINE
  5
455
330
1F
100
AcDbEntity
  8
0
  6
Continuous
 62
     7
370
    25
100
AcDbSpline
210
0.0
220
0.0
230
1.0
 70
     8
 71
     3
 72
    12
 73
     8
 74
     0
 42
0.000000001
 43
0.00000001
 40
0.0
 40
0.0
 40
0.0
 40
0.0
 40
0.4999999999999811
 40
0.4999999999999811
 40
0.7499999999999906
 40
0.7499999999999906
 40
1.0
 40
1.0
 40
1.0
 40
1.0
 10
-147.9366534280026
 20
259.3652821677666
 30
0.0
 10
-148.1271477174261
 20
259.1300223753235
 30
0.0
 10
-148.2488221304885
 20
258.891237682473
 30
0.0
 10
-148.2494783210198
 20
258.523746149916
 30
0.0
 10
-148.2196443192254
 20
258.4013739552666
 30
0.0
 10
-148.1107144491178
 20
258.1609902701072
 30
0.0
 10
-148.0320192620549
 20
258.0422293230455
 30
0.0
 10
-147.9366534280021
 20
257.924452845896
 30
0.0
  0
SPLINE
  5
456
330
1F
100
AcDbEntity
  8
0
  6
Continuous
 62
     7
370
    25
100
AcDbSpline
210
0.0
220
0.0
230
1.0
 70
     8
 71
     3
 72
    14
 73
    10
 74
     0
 42
0.000000001
 43
0.00000001
 40
0.0
 40
0.0
 40
0.0
 40
0.0
 40
0.25
 40
0.25
 40
0.5
 40
0.5
 40
0.75
 40
0.75
 40
1.0
 40
1.0
 40
1.0
 40
1.0
 10
-147.9366534280016
 20
257.924452845896
 30
0.0
 10
-148.0315280373123
 20
257.5999466166074
 30
0.0
 10
-148.111132962188
 20
257.267487394213
 30
0.0
 10
-148.2199695770822
 20
256.6009174793049
 30
0.0
 10
-148.2492931827727
 20
256.2658412220296
 30
0.0
 10
-148.2492284010271
 20
255.591497751802
 30
0.0
 10
-148.2190722077008
 20
255.2497183311231
 30
0.0
 10
-148.1094870063351
 20
254.5833044115183
 30
0.0
 10
-148.0309440325329
 20
254.2565303655655
 30
0.0
 10
-147.9366534280016
 20
253.9340216484691
 30
0.0
  0
LINE
  5
457
330
1F
100
AcDbEntity
  8
0
  6
Continuous
 62
     7
370
    25
100
AcDbLine
 10
-148.4513334134
 20
252.2248509703
 30
0.0
 11
-148.4513334134
 21
258.5248509703
 31
0.0
  0
LINE
  5
458
330
1F
100
AcDbEntity
  8
0
  6
Continuous
 62
     7
370
    25
100
AcDbLine
 10
-147.3513334134
 20
253.9340216485
 30
0.0
 11
-147.936653428
 21
253.9340216485
 31
0.0
  0
LINE
  5
459
330
1F
100
AcDbEntity
  8
0
  6
Continuous
 62
     7
370
    25
100
AcDbLine
 10
-147.3513334134
 20
257.9244528459
 30
0.0
 11
-147.936653428
 21
257.9244528459
 31
0.0
  0
LINE
  5
45A
330
1F
100
AcDbEntity
  8
0
  6
Continuous
 62
     7
370
    25
100
AcDbLine
 10
-147.3513334134
 20
251.3844197729
 30
0.0
 11
-147.936653428
 21
251.3844197729
 31
0.0
  0
LINE
  5
45B
330
1F
100
AcDbEntity
  8
0
  6
Continuous
 62
     7
370
    25
100
AcDbLine
 10
-147.3513334134
 20
259.3652821678
 30
0.0
 11
-147.936653428
 21
259.3652821678
 31
0.0
  0
LINE
  5
45C
330
1F
100
AcDbEntity
  8
0
  6
Continuous
 62
     7
370
    25
100
AcDbLine
 10
-151.1513334134
 20
265.3748509703
 30
0.0
 11
-161.0513334134
 21
265.3748509703
 31
0.0
  0
LINE
  5
45D
330
1F
100
AcDbEntity
  8
0
  6
Continuous
 62
     7
370
    25
100
AcDbLine
 10
-151.1513334134
 20
264.5748509703
 30
0.0
 11
-151.1513334134
 21
265.3748509703
 31
0.0
  0
LINE
  5
45E
330
1F
100
AcDbEntity
  8
0
  6
Continuous
 62
     7
370
    25
100
AcDbLine
 10
-161.0513334134
 20
264.5748509703
 30
0.0
 11
-151.1513334134
 21
264.5748509703
 31
0.0
  0
LINE
  5
45F
330
1F
100
AcDbEntity
  8
0
  6
Continuous
 62
     7
370
    25
100
AcDbLine
 10
-161.0513334134
 20
264.5748509703
 30
0.0
 11
-161.0513334134
 21
264.4748509703
 31
0.0
  0
LINE
  5
460
330
1F
100
AcDbEntity
  8
0
  6
Continuous
 62
     7
370
    25
100
AcDbLine
 10
-161.0513334134
 20
264.4748509703
 30
0.0
 11
-155.9013334134
 21
264.4748509703
 31
0.0
  0
LINE
  5
461
330
1F
100
AcDbEntity
  8
0
  6
Continuous
 62
     7
370
    25
100
AcDbLine
 10
-155.9013334134
 20
263.6748509703
 30
0.0
 11
-155.9013334134
 21
264.4748509703
 31
0.0
  0
LINE
  5
462
330
1F
100
AcDbEntity
  8
0
  6
Continuous
 62
     7
370
    25
100
AcDbLine
 10
-161.0513334134
 20
263.6748509703
 30
0.0
 11
-155.9013334134
 21
263.6748509703
 31
0.0
  0
ARC
  5
463
330
1F
100
AcDbEntity
  8
0
  6
Continuous
 62
     7
370
    25
100
AcDbCircle
 10
-161.0513334134
 20
264.5248509703
 30
0.0
 40
0.8500000000000227
100
AcDbArc
 50
90.0
 51
270.0
  0
LINE
  5
464
330
1F
100
AcDbEntity
  8
0
  6
Continuous
 62
     7
370
    25
100
AcDbLine
 10
-151.1513334134
 20
246.1748509703
 30
0.0
 11
-155.4513334134
 21
246.1748509703
 31
0.0
  0
LINE
  5
465
330
1F
100
AcDbEntity
  8
0
  6
Continuous
 62
     7
370
    25
100
AcDbLine
 10
-151.1513334134
 20
245.3748509703
 30
0.0
 11
-151.1513334134
 21
246.1748509703
 31
0.0
  0
LINE
  5
466
330
1F
100
AcDbEntity
  8
0
  6
Continuous
 62
     7
370
    25
100
AcDbLine
 10
-151.1513334134
 20
245.3748509703
 30
0.0
 11
-155.4513334134
 21
245.3748509703
 31
0.0
  0
ARC
  5
467
330
1F
100
AcDbEntity
  8
0
  6
Continuous
 62
     7
370
    25
100
AcDbCircle
 10
-151.1513334134
 20
247.1748509703
 30
0.0
 40
1.800000000000125
100
AcDbArc
 50
270.0
 51
0.0
  0
ARC
  5
468
330
1F
100
AcDbEntity
  8
0
  6
Continuous
 62
     7
370
    25
100
AcDbCircle
 10
-151.1513334134
 20
247.1748509703
 30
0.0
 40
1.000000000000057
100
AcDbArc
 50
270.0
 51
0.0
  0
ARC
  5
469
330
1F
100
AcDbEntity
  8
0
  6
Continuous
 62
     7
370
    25
100
AcDbCircle
 10
-151.1513334134
 20
263.5748509703
 30
0.0
 40
1.000000000000114
100
AcDbArc
 50
0.0
 51
90.0
  0
ARC
  5
46A
330
1F
100
AcDbEntity
  8
0
  6
Continuous
 62
     7
370
    25
100
AcDbCircle
 10
-151.1513334134
 20
263.5748509703
 30
0.0
 40
1.800000000000068
100
AcDbArc
 50
0.0
 51
90.0
  0
LINE
  5
46B
330
1F
100
AcDbEntity
  8
0
  6
Continuous
 62
     7
370
    25
100
AcDbLine
 10
-150.1513334134
 20
247.1748509703
 30
0.0
 11
-150.1513334134
 21
263.5748509703
 31
0.0
  0
LINE
  5
46C
330
1F
100
AcDbEntity
  8
0
  6
Continuous
 62
     7
370
    25
100
AcDbLine
 10
-149.3513334134
 20
247.1748509703
 30
0.0
 11
-149.3513334134
 21
263.5748509703
 31
0.0
  0
LWPOLYLINE
  5
46D
330
1F
100
AcDbEntity
  8
0
  6
Continuous
 62
     7
370
    25
100
AcDbPolyline
 90
        3
 70
   128
 43
0.0
 10
-153.1611359119
 20
256.0623140102
 10
-153.161778055
 20
256.0559370441
 10
-153.1780029037
 20
255.8722387153
  0
ARC
  5
46E
330
1F
100
AcDbEntity
  8
0
  6
Continuous
 62
     7
370
    25
100
AcDbCircle
 10
-152.6536099792
 20
256.1853665528
 30
0.0
 40
0.6107675350086331
100
AcDbArc
 50
210.8424581413
 51
243.3898036633
  0
ARC
  5
46F
330
1F
100
AcDbEntity
  8
0
  6
Continuous
 62
     7
370
    25
100
AcDbCircle
 10
-143.7706760577
 20
255.0438536015
 30
0.0
 40
9.175815043719057
100
AcDbArc
 50
177.932732127
 51
179.6562101045
  0
ARC
  5
470
330
1F
100
AcDbEntity
  8
0
  6
Continuous
 62
     7
370
    25
100
AcDbCircle
 10
-145.4143535156
 20
255.2807136953
 30
0.0
 40
7.786288415103694
100
AcDbArc
 50
184.3702527064
 51
195.2299003794
  0
ARC
  5
471
330
1F
100
AcDbEntity
  8
0
  6
Continuous
 62
     7
370
    25
100
AcDbCircle
 10
-152.7060618484
 20
253.330349854
 30
0.0
 40
0.2406805056722796
100
AcDbArc
 50
156.7420981705
 51
203.2579018295
  0
ARC
  5
472
330
1F
100
AcDbEntity
  8
0
  6
Continuous
 62
     7
370
    25
100
AcDbCircle
 10
-145.4143535156
 20
255.4707889902
 30
0.0
 40
7.786288415101926
100
AcDbArc
 50
184.3702527064
 51
195.2299003794
  0
ARC
  5
473
330
1F
100
AcDbEntity
  8
0
  6
Continuous
 62
     7
370
    25
100
AcDbCircle
 10
-152.6536099792
 20
254.5643353879
 30
0.0
 40
0.6107675350087941
100
AcDbArc
 50
116.6101963367
 51
149.1575418587
  0
ARC
  5
474
330
1F
100
AcDbEntity
  8
0
  6
Continuous
 62
     7
370
    25
100
AcDbCircle
 10
-143.8475478377
 20
255.702832483
 30
0.0
 40
9.09894271025329
100
AcDbArc
 50
176.2668736478
 51
183.7331263522
  0
ARC
  5
475
330
1F
100
AcDbEntity
  8
0
  6
Continuous
 62
     7
370
    25
100
AcDbCircle
 10
-152.6536099792
 20
255.7491861727
 30
0.0
 40
0.6107675350090933
100
AcDbArc
 50
116.6101963367
 51
149.1575418587
  0
ARC
  5
476
330
1F
100
AcDbEntity
  8
0
  6
Continuous
 62
     7
370
    25
100
AcDbCircle
 10
-145.4143535156
 20
255.4689882454
 30
0.0
 40
7.786288415102001
100
AcDbArc
 50
164.7700996206
 51
175.6297472936
  0
ARC
  5
477
330
1F
100
AcDbEntity
  8
0
  6
Continuous
 62
     7
370
    25
100
AcDbCircle
 10
-152.7940996348
 20
257.4404533472
 30
0.0
 40
0.15224324206141
100
AcDbArc
 50
150.9451665856
 51
179.144911656
  0
LINE
  5
478
330
1F
100
AcDbEntity
  8
0
  6
Continuous
 62
     7
370
    25
100
AcDbLine
 10
-152.1513334134
 20
259.3748509703
 30
0.0
 11
-152.1513334134
 21
251.3748509703
 31
0.0
  0
LINE
  5
479
330
1F
100
AcDbEntity
  8
0
  6
Continuous
 62
     7
370
    25
100
AcDbLine
 10
-153.1780029037
 20
256.0623140102
 30
0.0
 11
-152.9394472458
 21
256.0623140102
 31
0.0
  0
LINE
  5
47A
330
1F
100
AcDbEntity
  8
0
  6
Continuous
 62
     7
370
    25
100
AcDbLine
 10
-153.1780029037
 20
254.6873879305
 30
0.0
 11
-153.1611359119
 21
254.6873879305
 31
0.0
  0
LINE
  5
47B
330
1F
100
AcDbEntity
  8
0
  6
Continuous
 62
     7
370
    25
100
AcDbLine
 10
-153.1780029037
 20
255.8722387153
 30
0.0
 11
-152.9449525873
 21
255.8722387153
 31
0.0
  0
LINE
  5
47C
330
1F
100
AcDbEntity
  8
0
  6
Continuous
 62
     7
370
    25
100
AcDbLine
 10
-128.9513334134
 20
221.7091578077
 30
0.0
 11
-128.9513334134
 21
216.5680815709
 31
0.0
  0
ARC
  5
47D
330
1F
100
AcDbEntity
  8
0
  6
Continuous
 62
     7
370
    25
100
AcDbCircle
 10
-130.8928445242
 20
216.6303241467
 30
0.0
 40
1.942508566655302
100
AcDbArc
 50
268.2745645851
 51
358.1637932023
  0
LINE
  5
47E
330
1F
100
AcDbEntity
  8
0
  6
Continuous
 62
     7
370
    25
100
AcDbLine
 10
-130.9513334134
 20
214.6886963293
 30
0.0
 11
-142.9513334134
 21
214.6886963293
 31
0.0
  0
ARC
  5
47F
330
1F
100
AcDbEntity
  8
0
  6
Continuous
 62
     7
370
    25
100
AcDbCircle
 10
-143.0098223026
 20
216.6303241467
 30
0.0
 40
1.942508566655302
100
AcDbArc
 50
181.8362067977
 51
271.7254354149
  0
LINE
  5
480
330
1F
100
AcDbEntity
  8
0
  6
Continuous
 62
     7
370
    25
100
AcDbLine
 10
-144.9513334134
 20
216.5680815709
 30
0.0
 11
-144.9513334134
 21
221.7091578077
 31
0.0
  0
LINE
  5
481
330
1F
100
AcDbEntity
  8
0
  6
Continuous
 62
     7
370
    25
100
AcDbLine
 10
-128.9513334134
 20
216.5680815709
 30
0.0
 11
-128.9513334134
 21
215.8840412842
 31
0.0
  0
ARC
  5
482
330
1F
100
AcDbEntity
  8
0
  6
Continuous
 62
     7
370
    25
100
AcDbCircle
 10
-130.8928445242
 20
215.9462838601
 30
0.0
 40
1.9425085666553
100
AcDbArc
 50
268.2745645851
 51
358.1637932023
  0
LINE
  5
483
330
1F
100
AcDbEntity
  8
0
  6
Continuous
 62
     7
370
    25
100
AcDbLine
 10
-130.9513334134
 20
214.0046560426
 30
0.0
 11
-142.9513334134
 21
214.0046560426
 31
0.0
  0
LINE
  5
484
330
1F
100
AcDbEntity
  8
0
  6
Continuous
 62
     7
370
    25
100
AcDbLine
 10
-144.9513334134
 20
215.8840412842
 30
0.0
 11
-144.9513334134
 21
216.5680815709
 31
0.0
  0
ARC
  5
485
330
1F
100
AcDbEntity
  8
0
  6
Continuous
 62
     7
370
    25
100
AcDbCircle
 10
-143.0098223026
 20
215.9462838601
 30
0.0
 40
1.942508566655244
100
AcDbArc
 50
181.8362067977
 51
271.7254354149
  0
LINE
  5
486
330
1F
100
AcDbEntity
  8
0
  6
Continuous
 62
     7
370
    25
100
AcDbLine
 10
-128.9513334134
 20
221.7091578077
 30
0.0
 11
-128.9513334134
 21
222.051177951
 31
0.0
  0
LINE
  5
487
330
1F
100
AcDbEntity
  8
0
  6
Continuous
 62
     7
370
    25
100
AcDbLine
 10
-144.9513334134
 20
222.051177951
 30
0.0
 11
-144.9513334134
 21
221.7091578077
 31
0.0
  0
LINE
  5
488
330
1F
100
AcDbEntity
  8
0
  6
Continuous
 62
     7
370
    25
100
AcDbLine
 10
-155.4513334134
 20
221.8748509703
 30
0.0
 11
-144.9513334134
 21
221.8748509703
 31
0.0
  0
CIRCLE
  5
489
330
1F
100
AcDbEntity
  8
0
  6
Continuous
 62
     7
370
    25
100
AcDbCircle
 10
-136.8513334134
 20
229.3748509703
 30
0.0
 40
3.5
  0
LINE
  5
48A
330
1F
100
AcDbEntity
  8
0
  6
Continuous
 62
     7
370
    25
100
AcDbLine
 10
-128.9513334134
 20
222.051177951
 30
0.0
 11
-128.9513334134
 21
234.8748509703
 31
0.0
  0
LINE
  5
48B
330
1F
100
AcDbEntity
  8
0
  6
Continuous
 62
     7
370
    25
100
AcDbLine
 10
-130.9513334134
 20
236.8748509703
 30
0.0
 11
-155.4513334134
 21
236.8748509703
 31
0.0
  0
ARC
  5
48C
330
1F
100
AcDbEntity
  8
0
  6
Continuous
 62
     7
370
    25
100
AcDbCircle
 10
-130.9513334134
 20
234.8748509703
 30
0.0
 40
2.0
100
AcDbArc
 50
0.0
 51
90.0
  0
CIRCLE
  5
48D
330
1F
100
AcDbEntity
  8
0
  6
Continuous
 62
     7
370
    25
100
AcDbCircle
 10
-136.8513334134
 20
229.3748509703
 30
0.0
 40
2.458750000016596
  0
CIRCLE
  5
48E
330
1F
100
AcDbEntity
  8
0
  6
Continuous
 62
     7
370
    25
100
AcDbCircle
 10
-136.8513334134
 20
229.3748509703
 30
0.0
 40
3.000000000000023
  0
ENDSEC
  0
SECTION
  2
OBJECTS
  0
DICTIONARY
  5
C
330
0
100
AcDbDictionary
281
     1
  3
ACAD_GROUP
350
D
  3
ACAD_LAYOUT
350
1A
  3
ACAD_MLINESTYLE
350
17
  3
ACAD_PLOTSETTINGS
350
19
  3
ACAD_PLOTSTYLENAME
350
E
  3
ACAD_SCALELIST
350
47
  0
DICTIONARY
  5
D
102
{ACAD_REACTORS
330
C
102
}
330
C
100
AcDbDictionary
281
     1
  0
DICTIONARY
  5
1A
102
{ACAD_REACTORS
330
C
102
}
330
C
100
AcDbDictionary
281
     1
  3
Layout1
350
1E
  3
Layout2
350
26
  3
Model
350
22
  0
DICTIONARY
  5
17
102
{ACAD_REACTORS
330
C
102
}
330
C
100
AcDbDictionary
281
     1
  3
Standard
350
18
  0
DICTIONARY
  5
19
102
{ACAD_REACTORS
330
C
102
}
330
C
100
AcDbDictionary
281
     1
  0
ACDBDICTIONARYWDFLT
  5
E
102
{ACAD_REACTORS
330
C
102
}
330
C
100
AcDbDictionary
281
     1
  3
Normal
350
F
100
AcDbDictionaryWithDefault
340
F
  0
DICTIONARY
  5
47
102
{ACAD_REACTORS
330
C
102
}
330
C
100
AcDbDictionary
281
     1
  3
A0
350
48
  3
A1
350
49
  3
A2
350
4A
  3
A3
350
4B
  3
A4
350
4C
  3
A5
350
4D
  3
A6
350
4E
  3
A7
350
4F
  3
A8
350
50
  3
A9
350
51
  3
B0
350
52
  3
B1
350
53
  3
B2
350
54
  3
B3
350
55
  3
B4
350
56
  3
B5
350
57
  3
B6
350
58
  3
B7
350
59
  3
B8
350
5A
  3
B9
350
5B
  3
C0
350
5C
  3
C1
350
5D
  3
C2
350
5E
  3
C3
350
5F
  3
C4
350
60
  3
C5
350
61
  3
C6
350
62
  3
C7
350
63
  3
C8
350
64
  3
C9
350
65
  3
D0
350
66
  3
D1
350
67
  3
D2
350
68
  0
LAYOUT
  5
1E
102
{ACAD_REACTORS
330
1A
102
}
330
1A
100
AcDbPlotSettings
  1

  2
none_device
  4

  6

 40
0.0
 41
0.0
 42
0.0
 43
0.0
 44
0.0
 45
0.0
 46
0.0
 47
0.0
 48
0.0
 49
0.0
140
0.0
141
0.0
142
1.0
143
1.0
 70
   688
 72
     1
 73
     0
 74
     5
  7

 75
    16
147
1.0
148
0.0
149
0.0
100
AcDbLayout
  1
Layout1
 70
     1
 71
     1
 10
0.0
 20
0.0
 11
420.0
 21
297.0
 12
0.0
 22
0.0
 32
0.0
 14
1.0000000000E+20
 24
1.0000000000E+20
 34
1.0000000000E+20
 15
-1.0000000000E+20
 25
-1.0000000000E+20
 35
-1.0000000000E+20
146
0.0
 13
0.0
 23
0.0
 33
0.0
 16
1.0
 26
0.0
 36
0.0
 17
0.0
 27
1.0
 37
0.0
 76
     0
330
1B
  0
LAYOUT
  5
26
102
{ACAD_REACTORS
330
1A
102
}
330
1A
100
AcDbPlotSettings
  1

  2
none_device
  4

  6

 40
0.0
 41
0.0
 42
0.0
 43
0.0
 44
0.0
 45
0.0
 46
0.0
 47
0.0
 48
0.0
 49
0.0
140
0.0
141
0.0
142
1.0
143
1.0
 70
   688
 72
     1
 73
     0
 74
     5
  7

 75
    16
147
1.0
148
0.0
149
0.0
100
AcDbLayout
  1
Layout2
 70
     1
 71
     2
 10
0.0
 20
0.0
 11
0.0
 21
0.0
 12
0.0
 22
0.0
 32
0.0
 14
0.0
 24
0.0
 34
0.0
 15
0.0
 25
0.0
 35
0.0
146
0.0
 13
0.0
 23
0.0
 33
0.0
 16
1.0
 26
0.0
 36
0.0
 17
0.0
 27
1.0
 37
0.0
 76
     0
330
23
  0
LAYOUT
  5
22
102
{ACAD_REACTORS
330
1A
102
}
330
1A
100
AcDbPlotSettings
  1

  2
none_device
  4
Letter_(8.50_x_11.00_Inches)
  6

 40
6.35
 41
6.35
 42
6.35000508
 43
6.35000508
 44
215.9
 45
279.4
 46
0.0
 47
0.0
 48
0.0
 49
0.0
140
0.0
141
0.0
142
1.0
143
1.0
 70
  1712
 72
     1
 73
     0
 74
     0
  7

 75
     0
147
1.0
148
0.0
149
0.0
100
AcDbLayout
  1
Model
 70
     1
 71
     0
 10
0.0
 20
0.0
 11
841.0
 21
594.0
 12
0.0
 22
0.0
 32
0.0
 14
0.0
 24
0.0
 34
0.0
 15
841.0
 25
594.0
 35
0.0
146
0.0
 13
0.0
 23
0.0
 33
0.0
 16
1.0
 26
0.0
 36
0.0
 17
0.0
 27
1.0
 37
0.0
 76
     0
330
1F
331
29
  0
MLINESTYLE
  5
18
102
{ACAD_REACTORS
330
17
102
}
330
17
100
AcDbMlineStyle
  2
Standard
 70
     0
  3

 62
   256
 51
90.0
 52
90.0
 71
     2
 49
0.5
 62
   256
  6
BYLAYER
 49
-0.5
 62
   256
  6
BYLAYER
  0
ACDBPLACEHOLDER
  5
F
102
{ACAD_REACTORS
330
E
102
}
330
E
  0
SCALE
  5
48
102
{ACAD_REACTORS
330
47
102
}
330
47
100
AcDbScale
 70
     0
300
1:1
140
1.0
141
1.0
290
     1
  0
SCALE
  5
49
102
{ACAD_REACTORS
330
47
102
}
330
47
100
AcDbScale
 70
     0
300
1:2
140
1.0
141
2.0
290
     0
  0
SCALE
  5
4A
102
{ACAD_REACTORS
330
47
102
}
330
47
100
AcDbScale
 70
     0
300
1:4
140
1.0
141
4.0
290
     0
  0
SCALE
  5
4B
102
{ACAD_REACTORS
330
47
102
}
330
47
100
AcDbScale
 70
     0
300
1:5
140
1.0
141
5.0
290
     0
  0
SCALE
  5
4C
102
{ACAD_REACTORS
330
47
102
}
330
47
100
AcDbScale
 70
     0
300
1:8
140
1.0
141
8.0
290
     0
  0
SCALE
  5
4D
102
{ACAD_REACTORS
330
47
102
}
330
47
100
AcDbScale
 70
     0
300
1:10
140
1.0
141
10.0
290
     0
  0
SCALE
  5
4E
102
{ACAD_REACTORS
330
47
102
}
330
47
100
AcDbScale
 70
     0
300
1:16
140
1.0
141
16.0
290
     0
  0
SCALE
  5
4F
102
{ACAD_REACTORS
330
47
102
}
330
47
100
AcDbScale
 70
     0
300
1:20
140
1.0
141
20.0
290
     0
  0
SCALE
  5
50
102
{ACAD_REACTORS
330
47
102
}
330
47
100
AcDbScale
 70
     0
300
1:30
140
1.0
141
30.0
290
     0
  0
SCALE
  5
51
102
{ACAD_REACTORS
330
47
102
}
330
47
100
AcDbScale
 70
     0
300
1:40
140
1.0
141
40.0
290
     0
  0
SCALE
  5
52
102
{ACAD_REACTORS
330
47
102
}
330
47
100
AcDbScale
 70
     0
300
1:50
140
1.0
141
50.0
290
     0
  0
SCALE
  5
53
102
{ACAD_REACTORS
330
47
102
}
330
47
100
AcDbScale
 70
     0
300
1:100
140
1.0
141
100.0
290
     0
  0
SCALE
  5
54
102
{ACAD_REACTORS
330
47
102
}
330
47
100
AcDbScale
 70
     0
300
2:1
140
2.0
141
1.0
290
     0
  0
SCALE
  5
55
102
{ACAD_REACTORS
330
47
102
}
330
47
100
AcDbScale
 70
     0
300
4:1
140
4.0
141
1.0
290
     0
  0
SCALE
  5
56
102
{ACAD_REACTORS
330
47
102
}
330
47
100
AcDbScale
 70
     0
300
8:1
140
8.0
141
1.0
290
     0
  0
SCALE
  5
57
102
{ACAD_REACTORS
330
47
102
}
330
47
100
AcDbScale
 70
     0
300
10:1
140
10.0
141
1.0
290
     0
  0
SCALE
  5
58
102
{ACAD_REACTORS
330
47
102
}
330
47
100
AcDbScale
 70
     0
300
100:1
140
100.0
141
1.0
290
     0
  0
SCALE
  5
59
102
{ACAD_REACTORS
330
47
102
}
330
47
100
AcDbScale
 70
     0
300
1/128" = 1'-0"
140
0.0078125
141
12.0
290
     0
  0
SCALE
  5
5A
102
{ACAD_REACTORS
330
47
102
}
330
47
100
AcDbScale
 70
     0
300
1/64" = 1'-0"
140
0.015625
141
12.0
290
     0
  0
SCALE
  5
5B
102
{ACAD_REACTORS
330
47
102
}
330
47
100
AcDbScale
 70
     0
300
1/32" = 1'-0"
140
0.03125
141
12.0
290
     0
  0
SCALE
  5
5C
102
{ACAD_REACTORS
330
47
102
}
330
47
100
AcDbScale
 70
     0
300
1/16" = 1'-0"
140
0.0625
141
12.0
290
     0
  0
SCALE
  5
5D
102
{ACAD_REACTORS
330
47
102
}
330
47
100
AcDbScale
 70
     0
300
3/32" = 1'-0"
140
0.09375
141
12.0
290
     0
  0
SCALE
  5
5E
102
{ACAD_REACTORS
330
47
102
}
330
47
100
AcDbScale
 70
     0
300
1/8" = 1'-0"
140
0.125
141
12.0
290
     0
  0
SCALE
  5
5F
102
{ACAD_REACTORS
330
47
102
}
330
47
100
AcDbScale
 70
     0
300
3/16" = 1'-0"
140
0.1875
141
12.0
290
     0
  0
SCALE
  5
60
102
{ACAD_REACTORS
330
47
102
}
330
47
100
AcDbScale
 70
     0
300
1/4" = 1'-0"
140
0.25
141
12.0
290
     0
  0
SCALE
  5
61
102
{ACAD_REACTORS
330
47
102
}
330
47
100
AcDbScale
 70
     0
300
3/8" = 1'-0"
140
0.375
141
12.0
290
     0
  0
SCALE
  5
62
102
{ACAD_REACTORS
330
47
102
}
330
47
100
AcDbScale
 70
     0
300
1/2" = 1'-0"
140
0.5
141
12.0
290
     0
  0
SCALE
  5
63
102
{ACAD_REACTORS
330
47
102
}
330
47
100
AcDbScale
 70
     0
300
3/4" = 1'-0"
140
0.75
141
12.0
290
     0
  0
SCALE
  5
64
102
{ACAD_REACTORS
330
47
102
}
330
47
100
AcDbScale
 70
     0
300
1" = 1'-0"
140
1.0
141
12.0
290
     0
  0
SCALE
  5
65
102
{ACAD_REACTORS
330
47
102
}
330
47
100
AcDbScale
 70
     0
300
1-1/2" = 1'-0"
140
1.5
141
12.0
290
     0
  0
SCALE
  5
66
102
{ACAD_REACTORS
330
47
102
}
330
47
100
AcDbScale
 70
     0
300
3" = 1'-0"
140
3.0
141
12.0
290
     0
  0
SCALE
  5
67
102
{ACAD_REACTORS
330
47
102
}
330
47
100
AcDbScale
 70
     0
300
6" = 1'-0"
140
6.0
141
12.0
290
     0
  0
SCALE
  5
68
102
{ACAD_REACTORS
330
47
102
}
330
47
100
AcDbScale
 70
     0
300
1'-0" = 1'-0"
140
12.0
141
12.0
290
     0
  0
ENDSEC
  0
EOF
