  0
SECTION
  2
HEADER
  9
$ACADVER
  1
AC1015
  9
$ACADMAINTVER
 70
     6
  9
$DWGCODEPAGE
  3
ANSI_1251
  9
$INSBASE
 10
0.0
 20
0.0
 30
0.0
  9
$EXTMIN
 10
0.0
 20
0.0
 30
0.0
  9
$EXTMAX
 10
841.0
 20
594.0
 30
0.0
  9
$LIMMIN
 10
0.0
 20
0.0
  9
$LIMMAX
 10
841.0
 20
594.0
  9
$ORTHOMODE
 70
     0
  9
$REGENMODE
 70
     1
  9
$FILLMODE
 70
     1
  9
$QTEXTMODE
 70
     0
  9
$MIRRTEXT
 70
     1
  9
$LTSCALE
 40
1.0
  9
$ATTMODE
 70
     1
  9
$TEXTSIZE
 40
3.5
  9
$TRACEWID
 40
1.0
  9
$TEXTSTYLE
  7
Standard
  9
$CLAYER
  8
0
  9
$CELTYPE
  6
ByLayer
  9
$CECOLOR
 62
   256
  9
$CELTSCALE
 40
1.0
  9
$DISPSILH
 70
     0
  9
$DIMSCALE
 40
1.0
  9
$DIMASZ
 40
3.5
  9
$DIMEXO
 40
0.01
  9
$DIMDLI
 40
3.75
  9
$DIMRND
 40
0.0
  9
$DIMDLE
 40
0.0
  9
$DIMEXE
 40
1.0
  9
$DIMTP
 40
0.0
  9
$DIMTM
 40
0.0
  9
$DIMTXT
 40
3.5
  9
$DIMCEN
 40
2.5
  9
$DIMTSZ
 40
0.0
  9
$DIMTOL
 70
     0
  9
$DIMLIM
 70
     0
  9
$DIMTIH
 70
     1
  9
$DIMTOH
 70
     1
  9
$DIMSE1
 70
     0
  9
$DIMSE2
 70
     0
  9
$DIMTAD
 70
     1
  9
$DIMZIN
 70
     0
  9
$DIMBLK
  1

  9
$DIMASO
 70
     1
  9
$DIMSHO
 70
     1
  9
$DIMPOST
  1

  9
$DIMAPOST
  1

  9
$DIMALT
 70
     0
  9
$DIMALTD
 70
     3
  9
$DIMALTF
 40
0.0393700787
  9
$DIMLFAC
 40
1.0
  9
$DIMTOFL
 70
     1
  9
$DIMTVP
 40
0.0
  9
$DIMTIX
 70
     0
  9
$DIMSOXD
 70
     0
  9
$DIMSAH
 70
     0
  9
$DIMBLK1
  1

  9
$DIMBLK2
  1

  9
$DIMSTYLE
  2
ISO-25
  9
$DIMCLRD
 70
     0
  9
$DIMCLRE
 70
     0
  9
$DIMCLRT
 70
     0
  9
$DIMTFAC
 40
1.0
  9
$DIMGAP
 40
3.0
  9
$DIMJUST
 70
     0
  9
$DIMSD1
 70
     0
  9
$DIMSD2
 70
     0
  9
$DIMTOLJ
 70
     0
  9
$DIMTZIN
 70
     0
  9
$DIMALTZ
 70
     0
  9
$DIMALTTZ
 70
     0
  9
$DIMUPT
 70
     0
  9
$DIMDEC
 70
     2
  9
$DIMTDEC
 70
     3
  9
$DIMALTU
 70
     2
  9
$DIMALTTD
 70
     3
  9
$DIMTXSTY
  7
Standard
  9
$DIMAUNIT
 70
     0
  9
$DIMADEC
 70
     2
  9
$DIMALTRND
 40
0.0
  9
$DIMAZIN
 70
     0
  9
$DIMDSEP
 70
    44
  9
$DIMATFIT
 70
     3
  9
$DIMFRAC
 70
     0
  9
$DIMLDRBLK
  1

  9
$DIMLUNIT
 70
     2
  9
$DIMLWD
 70
    -2
  9
$DIMLWE
 70
    -2
  9
$DIMTMOVE
 70
     0
  9
$LUNITS
 70
     2
  9
$LUPREC
 70
     2
  9
$SKETCHINC
 40
1.0
  9
$FILLETRAD
 40
10.0
  9
$AUNITS
 70
     0
  9
$AUPREC
 70
     2
  9
$MENU
  1
.
  9
$ELEVATION
 40
0.0
  9
$PELEVATION
 40
0.0
  9
$THICKNESS
 40
0.0
  9
$LIMCHECK
 70
     0
  9
$CHAMFERA
 40
0.0
  9
$CHAMFERB
 40
0.0
  9
$CHAMFERC
 40
0.0
  9
$CHAMFERD
 40
0.0
  9
$SKPOLY
 70
     0
  9
$TDCREATE
 40
2459732.599416204
  9
$TDUCREATE
 40
2459732.474416204
  9
$TDUPDATE
 40
2459732.599417037
  9
$TDUUPDATE
 40
2459732.474417037
  9
$TDINDWG
 40
0.0000000116
  9
$TDUSRTIMER
 40
0.0000000116
  9
$USRTIMER
 70
     1
  9
$ANGBASE
 50
0.0
  9
$ANGDIR
 70
     0
  9
$PDMODE
 70
     0
  9
$PDSIZE
 40
-1.0
  9
$PLINEWID
 40
0.0
  9
$SPLFRAME
 70
     0
  9
$SPLINETYPE
 70
     6
  9
$SPLINESEGS
 70
     8
  9
$HANDSEED
  5
475
  9
$SURFTAB1
 70
     6
  9
$SURFTAB2
 70
     6
  9
$SURFTYPE
 70
     6
  9
$SURFU
 70
     6
  9
$SURFV
 70
     6
  9
$UCSBASE
  2

  9
$UCSNAME
  2

  9
$UCSORG
 10
0.0
 20
0.0
 30
0.0
  9
$UCSXDIR
 10
1.0
 20
0.0
 30
0.0
  9
$UCSYDIR
 10
0.0
 20
1.0
 30
0.0
  9
$UCSORTHOREF
  2

  9
$UCSORTHOVIEW
 70
     0
  9
$UCSORGTOP
 10
0.0
 20
0.0
 30
0.0
  9
$UCSORGBOTTOM
 10
0.0
 20
0.0
 30
0.0
  9
$UCSORGLEFT
 10
0.0
 20
0.0
 30
0.0
  9
$UCSORGRIGHT
 10
0.0
 20
0.0
 30
0.0
  9
$UCSORGFRONT
 10
0.0
 20
0.0
 30
0.0
  9
$UCSORGBACK
 10
0.0
 20
0.0
 30
0.0
  9
$PUCSBASE
  2

  9
$PUCSNAME
  2

  9
$PUCSORG
 10
0.0
 20
0.0
 30
0.0
  9
$PUCSXDIR
 10
1.0
 20
0.0
 30
0.0
  9
$PUCSYDIR
 10
0.0
 20
1.0
 30
0.0
  9
$PUCSORTHOREF
  2

  9
$PUCSORTHOVIEW
 70
     0
  9
$PUCSORGTOP
 10
0.0
 20
0.0
 30
0.0
  9
$PUCSORGBOTTOM
 10
0.0
 20
0.0
 30
0.0
  9
$PUCSORGLEFT
 10
0.0
 20
0.0
 30
0.0
  9
$PUCSORGRIGHT
 10
0.0
 20
0.0
 30
0.0
  9
$PUCSORGFRONT
 10
0.0
 20
0.0
 30
0.0
  9
$PUCSORGBACK
 10
0.0
 20
0.0
 30
0.0
  9
$USERI1
 70
     0
  9
$USERI2
 70
     0
  9
$USERI3
 70
     0
  9
$USERI4
 70
     0
  9
$USERI5
 70
     0
  9
$USERR1
 40
0.0
  9
$USERR2
 40
0.0
  9
$USERR3
 40
0.0
  9
$USERR4
 40
0.0
  9
$USERR5
 40
0.0
  9
$WORLDVIEW
 70
     1
  9
$SHADEDGE
 70
     3
  9
$SHADEDIF
 70
    70
  9
$TILEMODE
 70
     1
  9
$MAXACTVP
 70
    64
  9
$PINSBASE
 10
0.0
 20
0.0
 30
0.0
  9
$PLIMCHECK
 70
     0
  9
$PEXTMIN
 10
1.0000000000E+20
 20
1.0000000000E+20
 30
1.0000000000E+20
  9
$PEXTMAX
 10
-1.0000000000E+20
 20
-1.0000000000E+20
 30
-1.0000000000E+20
  9
$PLIMMIN
 10
0.0
 20
0.0
  9
$PLIMMAX
 10
420.0
 20
297.0
  9
$UNITMODE
 70
     0
  9
$VISRETAIN
 70
     1
  9
$PLINEGEN
 70
     0
  9
$PSLTSCALE
 70
     1
  9
$TREEDEPTH
 70
  3020
  9
$CMLSTYLE
  2
Standard
  9
$CMLJUST
 70
     0
  9
$CMLSCALE
 40
20.0
  9
$PROXYGRAPHICS
 70
     1
  9
$MEASUREMENT
 70
     1
  9
$CELWEIGHT
370
    -1
  9
$ENDCAPS
280
     0
  9
$JOINSTYLE
280
     0
  9
$LWDISPLAY
290
     1
  9
$INSUNITS
 70
     4
  9
$HYPERLINKBASE
  1

  9
$STYLESHEET
  1

  9
$XEDIT
290
     1
  9
$CEPSNTYPE
380
     0
  9
$PSTYLEMODE
290
     1
  9
$FINGERPRINTGUID
  2
{C3249CCB-11F5-4AE4-AFA4-D5CCDD03BAEA}
  9
$VERSIONGUID
  2
{FAEB1C32-E019-11D5-929B-00C0DF256EC4}
  9
$EXTNAMES
290
     1
  9
$PSVPSCALE
 40
0.0
  9
$OLESTARTUP
290
     0
  0
ENDSEC
  0
SECTION
  2
CLASSES
  0
CLASS
  1
ACDBDICTIONARYWDFLT
  2
AcDbDictionaryWithDefault
  3
ObjectDBX Classes
 90
        0
280
     0
281
     0
  0
CLASS
  1
VISUALSTYLE
  2
AcDbVisualStyle
  3
ObjectDBX Classes
 90
     4095
280
     0
281
     0
  0
CLASS
  1
MATERIAL
  2
AcDbMaterial
  3
ObjectDBX Classes
 90
     1153
280
     0
281
     0
  0
CLASS
  1
SCALE
  2
AcDbScale
  3
ObjectDBX Classes
 90
     1153
280
     0
281
     0
  0
CLASS
  1
TABLESTYLE
  2
AcDbTableStyle
  3
ObjectDBX Classes
 90
     4095
280
     0
281
     0
  0
CLASS
  1
MLEADERSTYLE
  2
AcDbMLeaderStyle
  3
ACDB_MLEADERSTYLE_CLASS
 90
     4095
280
     0
281
     0
  0
CLASS
  1
SUN
  2
AcDbSun
  3
SCENEOE
 90
     1153
280
     0
281
     0
  0
CLASS
  1
ACDBPLACEHOLDER
  2
AcDbPlaceHolder
  3
ObjectDBX Classes
 90
        0
280
     0
281
     0
  0
CLASS
  1
LAYOUT
  2
AcDbLayout
  3
ObjectDBX Classes
 90
        0
280
     0
281
     0
  0
ENDSEC
  0
SECTION
  2
TABLES
  0
TABLE
  2
VPORT
  5
8
330
0
100
AcDbSymbolTable
 70
     1
  0
VPORT
  5
29
330
8
100
AcDbSymbolTableRecord
100
AcDbViewportTableRecord
  2
*Active
 70
     0
 10
0.0
 20
0.0
 11
1.0
 21
1.0
 12
420.5
 22
297.0
 13
0.0
 23
0.0
 14
10.0
 24
10.0
 15
10.0
 25
10.0
 16
0.0
 26
0.0
 36
1.0
 17
0.0
 27
0.0
 37
0.0
 40
594.0
 41
1.4158249158
 42
50.0
 43
0.0
 44
0.0
 50
0.0
 51
0.0
 71
     0
 72
  2000
 73
     1
 74
     3
 75
     0
 76
     0
 77
     0
 78
     0
281
     0
 65
     1
110
0.0
120
0.0
130
0.0
111
1.0
121
0.0
131
0.0
112
0.0
122
1.0
132
0.0
 79
     0
146
0.0
  0
ENDTAB
  0
TABLE
  2
LTYPE
  5
5
330
0
100
AcDbSymbolTable
 70
     6
  0
LTYPE
  5
14
330
5
100
AcDbSymbolTableRecord
100
AcDbLinetypeTableRecord
  2
ByBlock
 70
     0
  3

 72
    65
 73
     0
 40
0.0
  0
LTYPE
  5
15
330
5
100
AcDbSymbolTableRecord
100
AcDbLinetypeTableRecord
  2
ByLayer
 70
     0
  3

 72
    65
 73
     0
 40
0.0
  0
LTYPE
  5
16
330
5
100
AcDbSymbolTableRecord
100
AcDbLinetypeTableRecord
  2
Continuous
 70
     0
  3
Solid line
 72
    65
 73
     0
 40
0.0
  0
LTYPE
  5
6E
330
5
100
AcDbSymbolTableRecord
100
AcDbLinetypeTableRecord
  2
HIDDEN
 70
     0
  3
Hidden __ __ __ __ __ __ __ __ __ __ __ __ __ __
 72
    65
 73
     2
 40
1.905
 49
1.27
 74
     0
 49
-0.635
 74
     0
  0
LTYPE
  5
6F
330
5
100
AcDbSymbolTableRecord
100
AcDbLinetypeTableRecord
  2
PHANTOM
 70
     0
  3
Phantom ______  __  __  ______  __  __  ______
 72
    65
 73
     6
 40
12.7
 49
6.35
 74
     0
 49
-1.27
 74
     0
 49
1.27
 74
     0
 49
-1.27
 74
     0
 49
1.27
 74
     0
 49
-1.27
 74
     0
  0
LTYPE
  5
70
330
5
100
AcDbSymbolTableRecord
100
AcDbLinetypeTableRecord
  2
CENTER
 70
     0
  3
Center ____ _ ____ _ ____ _ ____ _ ____ _ ____
 72
    65
 73
     4
 40
10.16
 49
6.35
 74
     0
 49
-1.27
 74
     0
 49
1.27
 74
     0
 49
-1.27
 74
     0
  0
LTYPE
  5
71
330
5
100
AcDbSymbolTableRecord
100
AcDbLinetypeTableRecord
  2
CENTERX2
 70
     0
  3
Center (2x) ________  __  ________  __  _____
 72
    65
 73
     4
 40
20.32
 49
12.7
 74
     0
 49
-2.54
 74
     0
 49
2.54
 74
     0
 49
-2.54
 74
     0
  0
LTYPE
  5
72
330
5
100
AcDbSymbolTableRecord
100
AcDbLinetypeTableRecord
  2
DOT2
 70
     0
  3
Dot (.5x) ........................................
 72
    65
 73
     2
 40
0.635
 49
0.0
 74
     0
 49
-0.635
 74
     0
  0
ENDTAB
  0
TABLE
  2
LAYER
  5
2
330
0
100
AcDbSymbolTable
 70
     1
  0
LAYER
  5
10
330
2
100
AcDbSymbolTableRecord
100
AcDbLayerTableRecord
  2
0
 70
     0
 62
     7
  6
Continuous
370
    -3
390
F
  0
ENDTAB
  0
TABLE
  2
STYLE
  5
3
330
0
100
AcDbSymbolTable
 70
     1
  0
STYLE
  5
11
330
3
100
AcDbSymbolTableRecord
100
AcDbTextStyleTableRecord
  2
Standard
 70
     0
 40
0.0
 41
1.0
 50
0.0
 71
     0
 42
3.5
  3
txt
  4

  0
ENDTAB
  0
TABLE
  2
VIEW
  5
6
330
0
100
AcDbSymbolTable
 70
     0
  0
ENDTAB
  0
TABLE
  2
UCS
  5
7
330
0
100
AcDbSymbolTable
 70
     0
  0
ENDTAB
  0
TABLE
  2
APPID
  5
9
330
0
100
AcDbSymbolTable
 70
     1
  0
APPID
  5
12
330
9
100
AcDbSymbolTableRecord
100
AcDbRegAppTableRecord
  2
ACAD
 70
     0
  0
ENDTAB
  0
TABLE
  2
DIMSTYLE
  5
A
330
0
100
AcDbSymbolTable
 70
     1
100
AcDbDimStyleTable
  0
DIMSTYLE
105
27
330
A
100
AcDbSymbolTableRecord
100
AcDbDimStyleTableRecord
  2
ISO-25
 70
     0
 41
2.5
 42
0.625
 43
3.75
 44
1.25
 73
     0
 74
     0
 77
     1
 78
     8
140
2.5
141
2.5
143
0.0393700787
147
0.625
171
     3
172
     1
178
     0
271
     2
272
     2
274
     3
278
    44
283
     0
284
     8
340
11
  0
ENDTAB
  0
TABLE
  2
BLOCK_RECORD
  5
1
330
0
100
AcDbSymbolTable
 70
     1
  0
BLOCK_RECORD
  5
1F
330
1
100
AcDbSymbolTableRecord
100
AcDbBlockTableRecord
  2
*Model_Space
340
22
  0
BLOCK_RECORD
  5
1B
330
1
100
AcDbSymbolTableRecord
100
AcDbBlockTableRecord
  2
*Paper_Space
340
1E
  0
BLOCK_RECORD
  5
23
330
1
100
AcDbSymbolTableRecord
100
AcDbBlockTableRecord
  2
*Paper_Space0
340
26
  0
ENDTAB
  0
ENDSEC
  0
SECTION
  2
BLOCKS
  0
BLOCK
  5
20
330
1F
100
AcDbEntity
  8
0
100
AcDbBlockBegin
  2
*Model_Space
 70
     0
 10
0.0
 20
0.0
 30
0.0
  3
*Model_Space
  1

  0
ENDBLK
  5
21
330
1F
100
AcDbEntity
  8
0
100
AcDbBlockEnd
  0
BLOCK
  5
1C
330
1B
100
AcDbEntity
 67
     1
  8
0
100
AcDbBlockBegin
  2
*Paper_Space
 70
     0
 10
0.0
 20
0.0
 30
0.0
  3
*Paper_Space
  1

  0
ENDBLK
  5
1D
330
1B
100
AcDbEntity
 67
     1
  8
0
100
AcDbBlockEnd
  0
BLOCK
  5
24
330
23
100
AcDbEntity
  8
0
100
AcDbBlockBegin
  2
*Paper_Space0
 70
     0
 10
0.0
 20
0.0
 30
0.0
  3
*Paper_Space0
  1

  0
ENDBLK
  5
25
330
23
100
AcDbEntity
  8
0
100
AcDbBlockEnd
  0
ENDSEC
  0
SECTION
  2
ENTITIES
  0
ARC
  5
73
330
1F
100
AcDbEntity
  8
0
  6
Continuous
 62
     7
370
    25
100
AcDbCircle
 10
564.4433501725
 20
487.528893827
 30
0.0
 40
0.5
100
AcDbArc
 50
180.0
 51
0.0
  0
ARC
  5
74
330
1F
100
AcDbEntity
  8
0
  6
Continuous
 62
     7
370
    25
100
AcDbCircle
 10
564.4433501725
 20
499.1288938272
 30
0.0
 40
0.5
100
AcDbArc
 50
360.0
 51
180.0
  0
LINE
  5
75
330
1F
100
AcDbEntity
  8
0
  6
Continuous
 62
     7
370
    25
100
AcDbLine
 10
559.9433501725
 20
488.3288938271
 30
0.0
 11
560.1539292275
 21
487.9641602049
 31
0.0
  0
LINE
  5
76
330
1F
100
AcDbEntity
  8
0
  6
Continuous
 62
     7
370
    25
100
AcDbLine
 10
574.4021001725
 20
496.3288938271
 30
0.0
 11
565.7433501725
 21
496.3288938271
 31
0.0
  0
LINE
  5
77
330
1F
100
AcDbEntity
  8
0
  6
Continuous
 62
     7
370
    25
100
AcDbLine
 10
565.7433501725
 20
490.3288938271
 30
0.0
 11
574.4021001725
 21
490.3288938271
 31
0.0
  0
LINE
  5
78
330
1F
100
AcDbEntity
  8
0
  6
Continuous
 62
     7
370
    25
100
AcDbLine
 10
574.4021001725
 20
490.3288938271
 30
0.0
 11
574.9433501725
 21
490.8701438271
 31
0.0
  0
LINE
  5
79
330
1F
100
AcDbEntity
  8
0
  6
Continuous
 62
     7
370
    25
100
AcDbLine
 10
574.9433501725
 20
495.7876438271
 30
0.0
 11
574.4021001725
 21
496.3288938271
 31
0.0
  0
LINE
  5
7A
330
1F
100
AcDbEntity
  8
0
  6
Continuous
 62
     7
370
    25
100
AcDbLine
 10
560.1539292275
 20
498.6936274493
 30
0.0
 11
559.9433501725
 21
498.3288938271
 31
0.0
  0
ARC
  5
7B
330
1F
100
AcDbEntity
  8
0
  6
Continuous
 62
     7
370
    25
100
AcDbCircle
 10
564.4433501725
 20
474.1288938272
 30
0.0
 40
0.5000000000001137
100
AcDbArc
 50
360.0
 51
113.5781784781
  0
LINE
  5
7C
330
1F
100
AcDbEntity
  8
0
  6
Continuous
 62
     7
370
    25
100
AcDbLine
 10
574.4021001725
 20
471.3288938271
 30
0.0
 11
565.7433501725
 21
471.3288938271
 31
0.0
  0
LINE
  5
7D
330
1F
100
AcDbEntity
  8
0
  6
Continuous
 62
     7
370
    25
100
AcDbLine
 10
574.9433501725
 20
470.7876438271
 30
0.0
 11
574.4021001725
 21
471.3288938271
 31
0.0
  0
ARC
  5
7E
330
1F
100
AcDbEntity
  8
0
  6
Continuous
 62
     7
370
    25
100
AcDbCircle
 10
261.0433501725
 20
474.1288938272
 30
0.0
 40
0.5
100
AcDbArc
 50
66.4218215218
 51
180.0
  0
LINE
  5
7F
330
1F
100
AcDbEntity
  8
0
  6
Continuous
 62
     7
370
    25
100
AcDbLine
 10
259.7433501725
 20
471.3288938271
 30
0.0
 11
251.0846001725
 21
471.3288938271
 31
0.0
  0
LINE
  5
80
330
1F
100
AcDbEntity
  8
0
  6
Continuous
 62
     7
370
    25
100
AcDbLine
 10
251.0846001725
 20
471.3288938271
 30
0.0
 11
250.5433501725
 21
470.7876438271
 31
0.0
  0
ARC
  5
81
330
1F
100
AcDbEntity
  8
0
  6
Continuous
 62
     7
370
    25
100
AcDbCircle
 10
261.0433501725
 20
499.1288938272
 30
0.0
 40
0.5
100
AcDbArc
 50
0.0
 51
180.0
  0
ARC
  5
82
330
1F
100
AcDbEntity
  8
0
  6
Continuous
 62
     7
370
    25
100
AcDbCircle
 10
261.0433501725
 20
487.528893827
 30
0.0
 40
0.5
100
AcDbArc
 50
180.0
 51
0.0
  0
LINE
  5
83
330
1F
100
AcDbEntity
  8
0
  6
Continuous
 62
     7
370
    25
100
AcDbLine
 10
251.0846001725
 20
496.3288938271
 30
0.0
 11
250.5433501725
 21
495.7876438271
 31
0.0
  0
LINE
  5
84
330
1F
100
AcDbEntity
  8
0
  6
Continuous
 62
     7
370
    25
100
AcDbLine
 10
250.5433501725
 20
490.8701438271
 30
0.0
 11
251.0846001725
 21
490.3288938271
 31
0.0
  0
LINE
  5
85
330
1F
100
AcDbEntity
  8
0
  6
Continuous
 62
     7
370
    25
100
AcDbLine
 10
251.0846001725
 20
490.3288938271
 30
0.0
 11
259.7433501725
 21
490.3288938271
 31
0.0
  0
LINE
  5
86
330
1F
100
AcDbEntity
  8
0
  6
Continuous
 62
     7
370
    25
100
AcDbLine
 10
259.7433501725
 20
496.3288938271
 30
0.0
 11
251.0846001725
 21
496.3288938271
 31
0.0
  0
SPLINE
  5
87
330
1F
100
AcDbEntity
  8
0
  6
Continuous
 62
     7
370
    25
100
AcDbSpline
210
0.0
220
0.0
230
1.0
 70
    24
 71
     3
 72
    16
 73
    12
 74
     0
 42
0.000000001
 43
0.00000001
 40
0.0
 40
0.0
 40
0.0
 40
0.0
 40
0.165829292897749
 40
0.2550981074401227
 40
0.346261334306417
 40
0.43742456117271
 40
0.5266933757150839
 40
0.6925226686128332
 40
0.8583519615105838
 40
0.9476207760529564
 40
1.0
 40
1.0
 40
1.0
 40
1.0
 10
563.9433501724769
 20
497.0545834517291
 30
0.0
 10
563.9433501724768
 20
496.4456756540541
 30
0.0
 10
563.9433501724769
 20
495.5089821177185
 30
0.0
 10
563.9433501724769
 20
494.0091834264825
 30
0.0
 10
563.9433501724769
 20
492.8172263466675
 30
0.0
 10
563.9433501724769
 20
491.642798072461
 30
0.0
 10
563.9433501724769
 20
490.2391847791739
 30
0.0
 10
563.9433501724769
 20
488.7718416983917
 30
0.0
 10
563.9433501724769
 20
487.872654347571
 30
0.0
 10
563.9433501724769
 20
487.5448230204567
 30
0.0
 10
563.9433501724769
 20
487.555213435897
 30
0.0
 10
563.9433501724769
 20
487.5590556486311
 30
0.0
  0
SPLINE
  5
88
330
1F
100
AcDbEntity
  8
0
  6
Continuous
 62
     7
370
    25
100
AcDbSpline
210
0.0
220
0.0
230
1.0
 70
     8
 71
     3
 72
     8
 73
     4
 74
     0
 42
0.000000001
 43
0.00000001
 40
0.0
 40
0.0
 40
0.0
 40
0.0
 40
1.0
 40
1.0
 40
1.0
 40
1.0
 10
559.943350172484
 20
494.1943883977125
 30
0.0
 10
559.943350172484
 20
493.2239824618223
 30
0.0
 10
560.1176654728635
 20
492.2801361198912
 30
0.0
 10
560.3899321598753
 20
491.3512141652645
 30
0.0
  0
SPLINE
  5
89
330
1F
100
AcDbEntity
  8
0
  6
Continuous
 62
     7
370
    25
100
AcDbSpline
210
0.0
220
0.0
230
1.0
 70
     8
 71
     3
 72
     8
 73
     4
 74
     0
 42
0.000000001
 43
0.00000001
 40
0.0
 40
0.0
 40
0.0
 40
0.0
 40
1.0
 40
1.0
 40
1.0
 40
1.0
 10
560.3899321598753
 20
497.0375626301604
 30
0.0
 10
560.1176654728639
 20
496.1086406755355
 30
0.0
 10
559.943350172484
 20
495.1647943336009
 30
0.0
 10
559.943350172484
 20
494.1943883977125
 30
0.0
  0
LINE
  5
8A
330
1F
100
AcDbEntity
  8
0
  6
Continuous
 62
     7
370
    25
100
AcDbLine
 10
563.9433501725
 20
497.0375626302
 30
0.0
 11
560.3899321599
 21
497.0375626302
 31
0.0
  0
LINE
  5
8B
330
1F
100
AcDbEntity
  8
0
  6
Continuous
 62
     7
370
    25
100
AcDbLine
 10
563.9433501725
 20
491.3512141653
 30
0.0
 11
560.3899321599
 21
491.3512141653
 31
0.0
  0
LINE
  5
8C
330
1F
100
AcDbEntity
  8
0
  6
Continuous
 62
     7
370
    25
100
AcDbLine
 10
559.9433501725
 20
494.1943883977
 30
0.0
 11
559.9433501725
 21
489.4968797637
 31
0.0
  0
SPLINE
  5
8D
330
1F
100
AcDbEntity
  8
0
  6
Continuous
 62
     7
370
    25
100
AcDbSpline
210
0.0
220
0.0
230
1.0
 70
     8
 71
     3
 72
     8
 73
     4
 74
     0
 42
0.000000001
 43
0.00000001
 40
0.0
 40
0.0
 40
0.0
 40
0.0
 40
1.0
 40
1.0
 40
1.0
 40
1.0
 10
560.3899321598753
 20
491.3512141652582
 30
0.0
 10
560.1176654728639
 20
490.7453659843271
 30
0.0
 10
559.943350172484
 20
490.1297840331281
 30
0.0
 10
559.943350172484
 20
489.4968797637267
 30
0.0
  0
SPLINE
  5
8E
330
1F
100
AcDbEntity
  8
0
  6
Continuous
 62
     7
370
    25
100
AcDbSpline
210
0.0
220
0.0
230
1.0
 70
     8
 71
     3
 72
     8
 73
     4
 74
     0
 42
0.000000001
 43
0.00000001
 40
0.0
 40
0.0
 40
0.0
 40
0.0
 40
1.0
 40
1.0
 40
1.0
 40
1.0
 10
559.943350172484
 20
489.4968797637267
 30
0.0
 10
559.943350172484
 20
488.8639754943243
 30
0.0
 10
560.1176654728635
 20
488.2483935431275
 30
0.0
 10
560.3899321598753
 20
487.6425453621954
 30
0.0
  0
LINE
  5
8F
330
1F
100
AcDbEntity
  8
0
  6
Continuous
 62
     7
370
    25
100
AcDbLine
 10
563.9433501725
 20
487.6425453622
 30
0.0
 11
560.3899321599
 21
487.6425453622
 31
0.0
  0
LINE
  5
90
330
1F
100
AcDbEntity
  8
0
  6
Continuous
 62
     7
370
    25
100
AcDbLine
 10
559.9433501725
 20
498.0264024611
 30
0.0
 11
559.9433501725
 21
494.1943883977
 31
0.0
  0
SPLINE
  5
91
330
1F
100
AcDbEntity
  8
0
  6
Continuous
 62
     7
370
    25
100
AcDbSpline
210
0.0
220
0.0
230
1.0
 70
     8
 71
     3
 72
     8
 73
     4
 74
     0
 42
0.000000001
 43
0.00000001
 40
0.0
 40
0.0
 40
0.0
 40
0.0
 40
1.0
 40
1.0
 40
1.0
 40
1.0
 10
559.9433501724839
 20
498.0264024610819
 30
0.0
 10
559.9433501724839
 20
497.6889007945942
 30
0.0
 10
560.1176654728632
 20
497.3606364038599
 30
0.0
 10
560.3899321598752
 20
497.0375626301655
 30
0.0
  0
SPLINE
  5
92
330
1F
100
AcDbEntity
  8
0
  6
Continuous
 62
     7
370
    25
100
AcDbSpline
210
0.0
220
0.0
230
1.0
 70
     8
 71
     3
 72
     8
 73
     4
 74
     0
 42
0.000000001
 43
0.00000001
 40
0.0
 40
0.0
 40
0.0
 40
0.0
 40
1.0
 40
1.0
 40
1.0
 40
1.0
 10
560.3899321598752
 20
499.0152422919983
 30
0.0
 10
560.1176654728637
 20
498.6921685183046
 30
0.0
 10
559.9433501724839
 20
498.3639041275689
 30
0.0
 10
559.9433501724839
 20
498.0264024610819
 30
0.0
  0
LINE
  5
93
330
1F
100
AcDbEntity
  8
0
  6
Continuous
 62
     7
370
    25
100
AcDbLine
 10
563.9433501725
 20
499.015242292
 30
0.0
 11
560.3899321599
 21
499.015242292
 31
0.0
  0
LINE
  5
94
330
1F
100
AcDbEntity
  8
0
  6
Continuous
 62
     7
370
    25
100
AcDbLine
 10
560.3899321599
 20
487.6425453622
 30
0.0
 11
560.2259141247
 21
488.0057207047
 31
0.0
  0
LINE
  5
95
330
1F
100
AcDbEntity
  8
0
  6
Continuous
 62
     7
370
    25
100
AcDbLine
 10
559.9433501725
 20
489.4968797637
 30
0.0
 11
559.9433501725
 21
488.3288938271
 31
0.0
  0
LINE
  5
96
330
1F
100
AcDbEntity
  8
0
  6
Continuous
 62
     7
370
    25
100
AcDbLine
 10
574.4021001725
 20
490.3288938271
 30
0.0
 11
574.4021001725
 21
496.3288938271
 31
0.0
  0
LINE
  5
97
330
1F
100
AcDbEntity
  8
0
  6
Continuous
 62
     7
370
    25
100
AcDbLine
 10
574.9433501725
 20
491.4445009114
 30
0.0
 11
574.9433501725
 21
495.7876438271
 31
0.0
  0
LINE
  5
98
330
1F
100
AcDbEntity
  8
0
  6
Continuous
 62
     7
370
    25
100
AcDbLine
 10
574.9433501725
 20
490.8701438271
 30
0.0
 11
574.9433501725
 21
491.4445009114
 31
0.0
  0
LINE
  5
99
330
1F
100
AcDbEntity
  8
0
  6
Continuous
 62
     7
370
    25
100
AcDbLine
 10
559.9433501725
 20
498.3288938271
 30
0.0
 11
559.9433501725
 21
498.0264024611
 31
0.0
  0
CIRCLE
  5
9A
330
1F
100
AcDbEntity
  8
0
  6
Continuous
 62
     7
370
    25
100
AcDbCircle
 10
315.2433501725
 20
441.3288938271
 30
0.0
 40
0.5
  0
SPLINE
  5
9B
330
1F
100
AcDbEntity
  8
0
  6
Continuous
 62
     7
370
    25
100
AcDbSpline
210
0.0
220
0.0
230
1.0
 70
     8
 71
     3
 72
    20
 73
    16
 74
     0
 42
0.000000001
 43
0.00000001
 40
0.0
 40
0.0
 40
0.0
 40
0.0
 40
0.1249999999999994
 40
0.1249999999999994
 40
0.2499999999999988
 40
0.2499999999999988
 40
0.3749999999999982
 40
0.3749999999999982
 40
0.4999999999999976
 40
0.4999999999999976
 40
0.7499999999999962
 40
0.7499999999999962
 40
0.8749999999999981
 40
0.8749999999999981
 40
1.0
 40
1.0
 40
1.0
 40
1.0
 10
216.7140608505961
 20
70.32889382709429
 30
0.0
 10
216.7531015814506
 20
70.32889382709429
 30
0.0
 10
216.7916202856504
 20
70.34443038756916
 30
0.0
 10
216.8690270369584
 20
70.40574873952973
 30
0.0
 10
216.908171454945
 20
70.4521724851165
 30
0.0
 10
216.9853222088602
 20
70.57212335527069
 30
0.0
 10
217.0236497906013
 20
70.64572799955404
 30
0.0
 10
217.1011961110777
 20
70.82045836564963
 30
0.0
 10
217.1401723187465
 20
70.92130899455127
 30
0.0
 10
217.2556671751916
 20
71.25259427453526
 30
0.0
 10
217.3335796188615
 20
71.5202744359191
 30
0.0
 10
217.4490595442624
 20
71.95294846197439
 30
0.0
 10
217.4879253401274
 20
72.10446654882551
 30
0.0
 10
217.565699673796
 20
72.41389230621171
 30
0.0
 10
217.6043094407508
 20
72.57051463590552
 30
0.0
 10
217.6433501724775
 20
72.7288938270943
 30
0.0
  0
LINE
  5
9C
330
1F
100
AcDbEntity
  8
0
  6
Continuous
 62
     7
370
    25
100
AcDbLine
 10
216.7140608506
 20
70.3288938271
 30
0.0
 11
216.7140608506
 21
71.7288938271
 31
0.0
  0
SPLINE
  5
9D
330
1F
100
AcDbEntity
  8
0
  6
Continuous
 62
     7
370
    25
100
AcDbSpline
210
0.0
220
0.0
230
1.0
 70
     8
 71
     3
 72
    14
 73
    10
 74
     0
 42
0.000000001
 43
0.00000001
 40
0.0
 40
0.0
 40
0.0
 40
0.0
 40
0.25
 40
0.25
 40
0.5
 40
0.5
 40
0.75
 40
0.75
 40
1.0
 40
1.0
 40
1.0
 40
1.0
 10
216.7140608505961
 20
71.7288938270943
 30
0.0
 10
216.7922622656177
 20
71.72889382709427
 30
0.0
 10
216.8679722129146
 20
71.75445249177456
 30
0.0
 10
217.0232526245617
 20
71.85458052037121
 30
0.0
 10
217.1002624741447
 20
71.92814469967551
 30
0.0
 10
217.2556859601721
 20
72.11368233536744
 30
0.0
 10
217.3326356770905
 20
72.22384725632688
 30
0.0
 10
217.4880656563397
 20
72.46645901301635
 30
0.0
 10
217.5651487649124
 20
72.59670842383936
 30
0.0
 10
217.6433501724775
 20
72.7288938270943
 30
0.0
  0
SPLINE
  5
9E
330
1F
100
AcDbEntity
  8
0
  6
Continuous
 62
     7
370
    25
100
AcDbSpline
210
0.0
220
0.0
230
1.0
 70
     8
 71
     3
 72
    20
 73
    16
 74
     0
 42
0.000000001
 43
0.00000001
 40
0.0
 40
0.0
 40
0.0
 40
0.0
 40
0.1249999999999993
 40
0.1249999999999993
 40
0.2499999999999986
 40
0.2499999999999986
 40
0.3749999999999979
 40
0.3749999999999979
 40
0.4999999999999972
 40
0.4999999999999972
 40
0.7499999999999958
 40
0.7499999999999958
 40
0.8749999999999978
 40
0.8749999999999978
 40
1.0
 40
1.0
 40
1.0
 40
1.0
 10
607.8433501724775
 20
72.7288938270943
 30
0.0
 10
607.8823909033321
 20
72.57051463944356
 30
0.0
 10
607.9209096075317
 20
72.41426891475191
 30
0.0
 10
607.9983163588397
 20
72.10627706533529
 30
0.0
 10
608.0374607768264
 20
71.95363295786409
 30
0.0
 10
608.1146115307416
 20
71.66454866867703
 30
0.0
 10
608.1529391124827
 20
71.52674413049299
 30
0.0
 10
608.2304854329592
 20
71.26512545485406
 30
0.0
 10
608.2694616406279
 20
71.14237914817137
 30
0.0
 10
608.384956497073
 20
70.81105477122371
 30
0.0
 10
608.462868940743
 20
70.63204364719559
 30
0.0
 10
608.5783488661439
 20
70.45242854781469
 30
0.0
 10
608.617214662009
 20
70.40618419894693
 30
0.0
 10
608.6949889956775
 20
70.34443089293568
 30
0.0
 10
608.7335987626324
 20
70.32889382709423
 30
0.0
 10
608.7726394943589
 20
70.32889382709429
 30
0.0
  0
LINE
  5
9F
330
1F
100
AcDbEntity
  8
0
  6
Continuous
 62
     7
370
    25
100
AcDbLine
 10
216.7140608506
 20
70.3288938271
 30
0.0
 11
608.7726394944
 21
70.3288938271
 31
0.0
  0
SPLINE
  5
A0
330
1F
100
AcDbEntity
  8
0
  6
Continuous
 62
     7
370
    25
100
AcDbSpline
210
0.0
220
0.0
230
1.0
 70
     8
 71
     3
 72
    14
 73
    10
 74
     0
 42
0.000000001
 43
0.00000001
 40
0.0
 40
0.0
 40
0.0
 40
0.0
 40
0.25
 40
0.25
 40
0.5
 40
0.5
 40
0.75
 40
0.75
 40
1.0
 40
1.0
 40
1.0
 40
1.0
 10
607.8433501724775
 20
72.7288938270943
 30
0.0
 10
607.921551587499
 20
72.59670841123541
 30
0.0
 10
607.9972615347959
 20
72.4687263927018
 30
0.0
 10
608.1525419464431
 20
72.22610236775454
 30
0.0
 10
608.2295517960262
 20
72.11566010334444
 30
0.0
 10
608.3849752820536
 20
71.92966320615116
 30
0.0
 10
608.461924998972
 20
71.8558622273128
 30
0.0
 10
608.6173549782213
 20
71.75504364291768
 30
0.0
 10
608.6944380867938
 20
71.7288938270943
 30
0.0
 10
608.7726394943589
 20
71.7288938270943
 30
0.0
  0
LINE
  5
A1
330
1F
100
AcDbEntity
  8
0
  6
Continuous
 62
     7
370
    25
100
AcDbLine
 10
608.7726394944
 20
70.3288938271
 30
0.0
 11
608.7726394944
 21
71.7288938271
 31
0.0
  0
SPLINE
  5
A2
330
1F
100
AcDbEntity
  8
0
  6
Continuous
 62
     7
370
    25
100
AcDbSpline
210
0.0
220
0.0
230
1.0
 70
     8
 71
     3
 72
    20
 73
    16
 74
     0
 42
0.000000001
 43
0.00000001
 40
0.0
 40
0.0
 40
0.0
 40
0.0
 40
0.1249999999999981
 40
0.1249999999999981
 40
0.2499999999999961
 40
0.2499999999999961
 40
0.3749999999999942
 40
0.3749999999999942
 40
0.4999999999999922
 40
0.4999999999999922
 40
0.7499999999999936
 40
0.7499999999999936
 40
0.8749999999999968
 40
0.8749999999999968
 40
1.0
 40
1.0
 40
1.0
 40
1.0
 10
217.6433501724775
 20
72.7288938270943
 30
0.0
 10
217.4849709848268
 20
72.68985309623973
 30
0.0
 10
217.3287252601351
 20
72.65133439203997
 30
0.0
 10
217.0207334107185
 20
72.5739276407321
 30
0.0
 10
216.8680893032472
 20
72.53478322274526
 30
0.0
 10
216.5790050140602
 20
72.45763246883003
 30
0.0
 10
216.4412004758762
 20
72.41930488708911
 30
0.0
 10
216.1795818002373
 20
72.34175856661254
 30
0.0
 10
216.0568354935546
 20
72.30278235894377
 30
0.0
 10
215.7255111166069
 20
72.18728750249886
 30
0.0
 10
215.5464999925787
 20
72.10937505882869
 30
0.0
 10
215.3668848931978
 20
71.99389513342783
 30
0.0
 10
215.3206405443301
 20
71.95502933756288
 30
0.0
 10
215.2588872383189
 20
71.87725500389425
 30
0.0
 10
215.2433501724775
 20
71.8386452369395
 30
0.0
 10
215.2433501724775
 20
71.79960450521288
 30
0.0
  0
SPLINE
  5
A3
330
1F
100
AcDbEntity
  8
0
  6
Continuous
 62
     7
370
    25
100
AcDbSpline
210
0.0
220
0.0
230
1.0
 70
     8
 71
     3
 72
    14
 73
    10
 74
     0
 42
0.000000001
 43
0.00000001
 40
0.0
 40
0.0
 40
0.0
 40
0.0
 40
0.25
 40
0.25
 40
0.5
 40
0.5
 40
0.75
 40
0.75
 40
1.0
 40
1.0
 40
1.0
 40
1.0
 10
217.6433501724775
 20
72.7288938270943
 30
0.0
 10
217.5111647566185
 20
72.65069241207267
 30
0.0
 10
217.3831827380849
 20
72.57498246477562
 30
0.0
 10
217.1405587131377
 20
72.41970205312865
 30
0.0
 10
217.0301164487276
 20
72.34269220354564
 30
0.0
 10
216.8441195515343
 20
72.18726871751815
 30
0.0
 10
216.770318572696
 20
72.11031900059974
 30
0.0
 10
216.6694999883009
 20
71.95488902135061
 30
0.0
 10
216.6433501724775
 20
71.87780591277796
 30
0.0
 10
216.6433501724775
 20
71.79960450521288
 30
0.0
  0
LINE
  5
A4
330
1F
100
AcDbEntity
  8
0
  6
Continuous
 62
     7
370
    25
100
AcDbLine
 10
215.2433501725
 20
71.7996045052
 30
0.0
 11
216.6433501725
 21
71.7996045052
 31
0.0
  0
LINE
  5
A5
330
1F
100
AcDbEntity
  8
0
  6
Continuous
 62
     7
370
    25
100
AcDbLine
 10
215.2433501725
 20
464.858183149
 30
0.0
 11
215.2433501725
 21
71.7996045052
 31
0.0
  0
SPLINE
  5
A6
330
1F
100
AcDbEntity
  8
0
  6
Continuous
 62
     7
370
    25
100
AcDbSpline
210
0.0
220
0.0
230
1.0
 70
     8
 71
     3
 72
    20
 73
    16
 74
     0
 42
0.000000001
 43
0.00000001
 40
0.0
 40
0.0
 40
0.0
 40
0.0
 40
0.1249999999999981
 40
0.1249999999999981
 40
0.2499999999999962
 40
0.2499999999999962
 40
0.3749999999999942
 40
0.3749999999999942
 40
0.4999999999999923
 40
0.4999999999999923
 40
0.7499999999999936
 40
0.7499999999999936
 40
0.8749999999999968
 40
0.8749999999999968
 40
1.0
 40
1.0
 40
1.0
 40
1.0
 10
215.2433501724775
 20
464.8581831489757
 30
0.0
 10
215.2433501724774
 20
464.8191424181211
 30
0.0
 10
215.2588867329524
 20
464.7806237139214
 30
0.0
 10
215.320205084913
 20
464.7032169626135
 30
0.0
 10
215.3666288304998
 20
464.6640725446267
 30
0.0
 10
215.4865797006539
 20
464.5869217907116
 30
0.0
 10
215.5601843449373
 20
464.5485942089705
 30
0.0
 10
215.7349147110329
 20
464.4710478884939
 30
0.0
 10
215.8357653399344
 20
464.4320716808253
 30
0.0
 10
216.1670506199185
 20
464.3165768243802
 30
0.0
 10
216.4347307813024
 20
464.2386643807101
 30
0.0
 10
216.8674048073576
 20
464.1231844553093
 30
0.0
 10
217.0189228942088
 20
464.0843186594442
 30
0.0
 10
217.3283486515949
 20
464.0065443257758
 30
0.0
 10
217.4849709812887
 20
463.967934558821
 30
0.0
 10
217.6433501724775
 20
463.9288938270943
 30
0.0
  0
SPLINE
  5
A7
330
1F
100
AcDbEntity
  8
0
  6
Continuous
 62
     7
370
    25
100
AcDbSpline
210
0.0
220
0.0
230
1.0
 70
     8
 71
     3
 72
    20
 73
    16
 74
     0
 42
0.000000001
 43
0.00000001
 40
0.0
 40
0.0
 40
0.0
 40
0.0
 40
0.125
 40
0.125
 40
0.2500000000000001
 40
0.2500000000000001
 40
0.3750000000000001
 40
0.3750000000000001
 40
0.5000000000000001
 40
0.5000000000000001
 40
0.7500000000000002
 40
0.7500000000000002
 40
0.8750000000000001
 40
0.8750000000000001
 40
1.0
 40
1.0
 40
1.0
 40
1.0
 10
607.8433501724775
 20
463.9288938270943
 30
0.0
 10
608.0017293601283
 20
463.9679345579489
 30
0.0
 10
608.1579750848198
 20
464.0064532621487
 30
0.0
 10
608.4659669342365
 20
464.0838600134566
 30
0.0
 10
608.6186110417076
 20
464.1230044314433
 30
0.0
 10
608.9076953308947
 20
464.2001551853585
 30
0.0
 10
609.0454998690788
 20
464.2384827670996
 30
0.0
 10
609.3071185447177
 20
464.3160290875761
 30
0.0
 10
609.4298648514002
 20
464.3550052952449
 30
0.0
 10
609.761189228348
 20
464.4705001516898
 30
0.0
 10
609.9402003523762
 20
464.5484125953599
 30
0.0
 10
610.1198154517571
 20
464.6638925207608
 30
0.0
 10
610.1660598006249
 20
464.7027583166258
 30
0.0
 10
610.2278131066361
 20
464.7805326502945
 30
0.0
 10
610.2433501724776
 20
464.8191424172492
 30
0.0
 10
610.2433501724776
 20
464.8581831489757
 30
0.0
  0
SPLINE
  5
A8
330
1F
100
AcDbEntity
  8
0
  6
Continuous
 62
     7
370
    25
100
AcDbSpline
210
0.0
220
0.0
230
1.0
 70
     8
 71
     3
 72
    14
 73
    10
 74
     0
 42
0.000000001
 43
0.00000001
 40
0.0
 40
0.0
 40
0.0
 40
0.0
 40
0.25
 40
0.25
 40
0.5
 40
0.5
 40
0.75
 40
0.75
 40
1.0
 40
1.0
 40
1.0
 40
1.0
 10
607.8433501724775
 20
463.9288938270943
 30
0.0
 10
607.9755355883365
 20
464.007095242116
 30
0.0
 10
608.10351760687
 20
464.0828051894129
 30
0.0
 10
608.3461416318173
 20
464.2380856010598
 30
0.0
 10
608.4565838962274
 20
464.315095450643
 30
0.0
 10
608.6425807934207
 20
464.4705189366704
 30
0.0
 10
608.716381772259
 20
464.5474686535889
 30
0.0
 10
608.817200356654
 20
464.702898632838
 30
0.0
 10
608.8433501724775
 20
464.7799817414107
 30
0.0
 10
608.8433501724775
 20
464.8581831489757
 30
0.0
  0
LINE
  5
A9
330
1F
100
AcDbEntity
  8
0
  6
Continuous
 62
     7
370
    25
100
AcDbLine
 10
610.2433501725
 20
464.858183149
 30
0.0
 11
608.8433501725
 21
464.858183149
 31
0.0
  0
SPLINE
  5
AA
330
1F
100
AcDbEntity
  8
0
  6
Continuous
 62
     7
370
    25
100
AcDbSpline
210
0.0
220
0.0
230
1.0
 70
     8
 71
     3
 72
    20
 73
    16
 74
     0
 42
0.000000001
 43
0.00000001
 40
0.0
 40
0.0
 40
0.0
 40
0.0
 40
0.1249999999999994
 40
0.1249999999999994
 40
0.2499999999999987
 40
0.2499999999999987
 40
0.3749999999999981
 40
0.3749999999999981
 40
0.4999999999999974
 40
0.4999999999999974
 40
0.7500000000000012
 40
0.7500000000000012
 40
0.8750000000000007
 40
0.8750000000000007
 40
1.0
 40
1.0
 40
1.0
 40
1.0
 10
610.2433501724776
 20
71.79960450521286
 30
0.0
 10
610.2433501724776
 20
71.83864523606736
 30
0.0
 10
610.2278136120026
 20
71.8771639402672
 30
0.0
 10
610.166495260042
 20
71.95457069157519
 30
0.0
 10
610.1200715144554
 20
71.99371510956182
 30
0.0
 10
610.0001206443012
 20
72.07086586347694
 30
0.0
 10
609.9265160000178
 20
72.10919344521807
 30
0.0
 10
609.751785633922
 20
72.1867397656946
 30
0.0
 10
609.6509350050205
 20
72.22571597336325
 30
0.0
 10
609.3196497250366
 20
72.34121082980835
 30
0.0
 10
609.0519695636527
 20
72.41912327347829
 30
0.0
 10
608.6192955375973
 20
72.53460319887928
 30
0.0
 10
608.4677774507461
 20
72.57346899474437
 30
0.0
 10
608.1583516933599
 20
72.65124332841286
 30
0.0
 10
608.0017293636663
 20
72.6898530953676
 30
0.0
 10
607.8433501724775
 20
72.72889382709427
 30
0.0
  0
LINE
  5
AB
330
1F
100
AcDbEntity
  8
0
  6
Continuous
 62
     7
370
    25
100
AcDbLine
 10
610.2433501725
 20
71.7996045052
 30
0.0
 11
608.8433501725
 21
71.7996045052
 31
0.0
  0
SPLINE
  5
AC
330
1F
100
AcDbEntity
  8
0
  6
Continuous
 62
     7
370
    25
100
AcDbSpline
210
0.0
220
0.0
230
1.0
 70
     8
 71
     3
 72
    14
 73
    10
 74
     0
 42
0.000000001
 43
0.00000001
 40
0.0
 40
0.0
 40
0.0
 40
0.0
 40
0.25
 40
0.25
 40
0.5
 40
0.5
 40
0.75
 40
0.75
 40
1.0
 40
1.0
 40
1.0
 40
1.0
 10
608.8433501724775
 20
71.79960450521286
 30
0.0
 10
608.8433501724775
 20
71.87780592023458
 30
0.0
 10
608.8177915077971
 20
71.95351586753146
 30
0.0
 10
608.7176634792004
 20
72.10879627917849
 30
0.0
 10
608.6440992998963
 20
72.18580612876147
 30
0.0
 10
608.4585616642045
 20
72.34122961478897
 30
0.0
 10
608.348396743245
 20
72.41817933170732
 30
0.0
 10
608.1057849865555
 20
72.5736093109565
 30
0.0
 10
607.9755355757324
 20
72.65069241952921
 30
0.0
 10
607.8433501724775
 20
72.72889382709427
 30
0.0
  0
LINE
  5
AD
330
1F
100
AcDbEntity
  8
0
  6
Continuous
 62
     7
370
    25
100
AcDbLine
 10
215.2433501725
 20
464.858183149
 30
0.0
 11
216.6433501725
 21
464.858183149
 31
0.0
  0
SPLINE
  5
AE
330
1F
100
AcDbEntity
  8
0
  6
Continuous
 62
     7
370
    25
100
AcDbSpline
210
0.0
220
0.0
230
1.0
 70
     8
 71
     3
 72
    14
 73
    10
 74
     0
 42
0.000000001
 43
0.00000001
 40
0.0
 40
0.0
 40
0.0
 40
0.0
 40
0.25
 40
0.25
 40
0.5
 40
0.5
 40
0.75
 40
0.75
 40
1.0
 40
1.0
 40
1.0
 40
1.0
 10
216.6433501724775
 20
464.8581831489757
 30
0.0
 10
216.6433501724775
 20
464.7799817339541
 30
0.0
 10
216.6689088371577
 20
464.7042717866572
 30
0.0
 10
216.7690368657544
 20
464.54899137501
 30
0.0
 10
216.8426010450588
 20
464.4719815254271
 30
0.0
 10
217.0281386807506
 20
464.3165580393997
 30
0.0
 10
217.13830360171
 20
464.2396083224813
 30
0.0
 10
217.3809153583994
 20
464.0841783432321
 30
0.0
 10
217.5111647692226
 20
464.0070952346594
 30
0.0
 10
217.6433501724775
 20
463.9288938270943
 30
0.0
  0
SPLINE
  5
AF
330
1F
100
AcDbEntity
  8
0
  6
Continuous
 62
     7
370
    25
100
AcDbSpline
210
0.0
220
0.0
230
1.0
 70
     8
 71
     3
 72
    20
 73
    16
 74
     0
 42
0.000000001
 43
0.00000001
 40
0.0
 40
0.0
 40
0.0
 40
0.0
 40
0.125
 40
0.125
 40
0.2499999999999999
 40
0.2499999999999999
 40
0.3749999999999999
 40
0.3749999999999999
 40
0.4999999999999999
 40
0.4999999999999999
 40
0.7499999999999998
 40
0.7499999999999998
 40
0.8749999999999998
 40
0.8749999999999998
 40
1.0
 40
1.0
 40
1.0
 40
1.0
 10
217.6433501724775
 20
463.9288938270942
 30
0.0
 10
217.6043094416229
 20
464.0872730147451
 30
0.0
 10
217.5657907374231
 20
464.2435187394367
 30
0.0
 10
217.4883839861152
 20
464.5515105888534
 30
0.0
 10
217.4492395681285
 20
464.7041546963245
 30
0.0
 10
217.3720888142134
 20
464.9932389855116
 30
0.0
 10
217.3337612324723
 20
465.1310435236955
 30
0.0
 10
217.2562149119958
 20
465.3926621993344
 30
0.0
 10
217.2172387043271
 20
465.5154085060171
 30
0.0
 10
217.101743847882
 20
465.8467328829647
 30
0.0
 10
217.0238314042119
 20
466.0257440069931
 30
0.0
 10
216.908351478811
 20
466.2053591063741
 30
0.0
 10
216.869485682946
 20
466.2516034552416
 30
0.0
 10
216.7917113492774
 20
466.3133567612529
 30
0.0
 10
216.7531015823228
 20
466.3288938270943
 30
0.0
 10
216.7140608505961
 20
466.3288938270943
 30
0.0
  0
LINE
  5
B0
330
1F
100
AcDbEntity
  8
0
  6
Continuous
 62
     7
370
    25
100
AcDbLine
 10
608.7726394944
 20
466.3288938271
 30
0.0
 11
216.7140608506
 21
466.3288938271
 31
0.0
  0
SPLINE
  5
B1
330
1F
100
AcDbEntity
  8
0
  6
Continuous
 62
     7
370
    25
100
AcDbSpline
210
0.0
220
0.0
230
1.0
 70
     8
 71
     3
 72
    20
 73
    16
 74
     0
 42
0.000000001
 43
0.00000001
 40
0.0
 40
0.0
 40
0.0
 40
0.0
 40
0.1250000000000019
 40
0.1250000000000019
 40
0.2500000000000038
 40
0.2500000000000038
 40
0.3750000000000058
 40
0.3750000000000058
 40
0.5000000000000077
 40
0.5000000000000077
 40
0.7500000000000063
 40
0.7500000000000063
 40
0.8750000000000032
 40
0.8750000000000032
 40
1.0
 40
1.0
 40
1.0
 40
1.0
 10
608.7726394943589
 20
466.3288938270943
 30
0.0
 10
608.7335987635043
 20
466.3288938270943
 30
0.0
 10
608.6950800593045
 20
466.3133572666196
 30
0.0
 10
608.6176733079967
 20
466.2520389146588
 30
0.0
 10
608.5785288900099
 20
466.2056151690721
 30
0.0
 10
608.5013781360947
 20
466.0856642989179
 30
0.0
 10
608.4630505543538
 20
466.0120596546345
 30
0.0
 10
608.3855042338773
 20
465.8373292885389
 30
0.0
 10
608.3465280262085
 20
465.7364786596373
 30
0.0
 10
608.2310331697635
 20
465.4051933796535
 30
0.0
 10
608.1531207260933
 20
465.1375132182695
 30
0.0
 10
608.0376408006924
 20
464.7048391922142
 30
0.0
 10
607.9987750048275
 20
464.553321105363
 30
0.0
 10
607.9210006711588
 20
464.2438953479769
 30
0.0
 10
607.8823909042042
 20
464.087273018283
 30
0.0
 10
607.8433501724775
 20
463.9288938270943
 30
0.0
  0
LINE
  5
B2
330
1F
100
AcDbEntity
  8
0
  6
Continuous
 62
     7
370
    25
100
AcDbLine
 10
610.2433501725
 20
71.7996045052
 30
0.0
 11
610.2433501725
 21
464.858183149
 31
0.0
  0
SPLINE
  5
B3
330
1F
100
AcDbEntity
  8
0
  6
Continuous
 62
     7
370
    25
100
AcDbSpline
210
0.0
220
0.0
230
1.0
 70
     8
 71
     3
 72
    14
 73
    10
 74
     0
 42
0.000000001
 43
0.00000001
 40
0.0
 40
0.0
 40
0.0
 40
0.0
 40
0.2499999999999999
 40
0.2499999999999999
 40
0.4999999999999999
 40
0.4999999999999999
 40
0.7499999999999998
 40
0.7499999999999998
 40
1.0
 40
1.0
 40
1.0
 40
1.0
 10
217.6433501724775
 20
463.9288938270943
 30
0.0
 10
217.5651487574558
 20
464.0610792429533
 30
0.0
 10
217.4894388101589
 20
464.1890612614869
 30
0.0
 10
217.3341583985119
 20
464.4316852864342
 30
0.0
 10
217.2571485489289
 20
464.5421275508441
 30
0.0
 10
217.1017250629014
 20
464.7281244480374
 30
0.0
 10
217.0247753459831
 20
464.8019254268757
 30
0.0
 10
216.8693453667339
 20
464.9027440112708
 30
0.0
 10
216.7922622581612
 20
464.9288938270942
 30
0.0
 10
216.7140608505961
 20
464.9288938270943
 30
0.0
  0
LINE
  5
B4
330
1F
100
AcDbEntity
  8
0
  6
Continuous
 62
     7
370
    25
100
AcDbLine
 10
216.7140608506
 20
466.3288938271
 30
0.0
 11
216.7140608506
 21
464.9288938271
 31
0.0
  0
LINE
  5
B5
330
1F
100
AcDbEntity
  8
0
  6
Continuous
 62
     7
370
    25
100
AcDbLine
 10
608.7726394944
 20
466.3288938271
 30
0.0
 11
608.7726394944
 21
464.9288938271
 31
0.0
  0
SPLINE
  5
B6
330
1F
100
AcDbEntity
  8
0
  6
Continuous
 62
     7
370
    25
100
AcDbSpline
210
0.0
220
0.0
230
1.0
 70
     8
 71
     3
 72
    14
 73
    10
 74
     0
 42
0.000000001
 43
0.00000001
 40
0.0
 40
0.0
 40
0.0
 40
0.0
 40
0.25
 40
0.25
 40
0.5
 40
0.5
 40
0.75
 40
0.75
 40
1.0
 40
1.0
 40
1.0
 40
1.0
 10
608.7726394943589
 20
464.9288938270943
 30
0.0
 10
608.6944380793373
 20
464.9288938270942
 30
0.0
 10
608.6187281320404
 20
464.903335162414
 30
0.0
 10
608.4634477203932
 20
464.8032071338173
 30
0.0
 10
608.3864378708104
 20
464.7296429545131
 30
0.0
 10
608.2310143847827
 20
464.5441053188212
 30
0.0
 10
608.1540646678645
 20
464.4339403978618
 30
0.0
 10
607.9986346886154
 20
464.1913286411723
 30
0.0
 10
607.9215515800425
 20
464.0610792303492
 30
0.0
 10
607.8433501724775
 20
463.9288938270943
 30
0.0
  0
CIRCLE
  5
B7
330
1F
100
AcDbEntity
  8
0
  6
Continuous
 62
     7
370
    25
100
AcDbCircle
 10
271.2433501725
 20
418.3288938271
 30
0.0
 40
5.50000000000004
  0
ARC
  5
B8
330
1F
100
AcDbEntity
  8
0
  6
Continuous
 62
     7
370
    25
100
AcDbCircle
 10
273.4233600741
 20
419.3858299419
 30
0.0
 40
0.5050994627335303
100
AcDbArc
 50
298.8005827702
 51
112.9304972368
  0
ARC
  5
B9
330
1F
100
AcDbEntity
  8
0
  6
Continuous
 62
     7
370
    25
100
AcDbCircle
 10
271.2433501725
 20
418.3288938271
 30
0.0
 40
2.499999999999997
100
AcDbArc
 50
37.506301084
 51
74.2247789229
  0
ARC
  5
BA
330
1F
100
AcDbEntity
  8
0
  6
Continuous
 62
     7
370
    25
100
AcDbCircle
 10
271.4180215977
 20
420.7453058398
 30
0.0
 40
0.5050994627348881
100
AcDbArc
 50
358.800582771
 51
172.930497236
  0
ARC
  5
BB
330
1F
100
AcDbEntity
  8
0
  6
Continuous
 62
     7
370
    25
100
AcDbCircle
 10
271.2433501725
 20
418.3288938271
 30
0.0
 40
2.499999999999992
100
AcDbArc
 50
97.5063010841
 51
134.2247789229
  0
ARC
  5
BC
330
1F
100
AcDbEntity
  8
0
  6
Continuous
 62
     7
370
    25
100
AcDbCircle
 10
269.2380116961
 20
419.688369725
 30
0.0
 40
0.5050994627351901
100
AcDbArc
 50
58.8005827697
 51
232.9304972372
  0
ARC
  5
BD
330
1F
100
AcDbEntity
  8
0
  6
Continuous
 62
     7
370
    25
100
AcDbCircle
 10
271.2433501725
 20
418.3288938271
 30
0.0
 40
2.49999999999998
100
AcDbArc
 50
157.5063010841
 51
194.2247789229
  0
ARC
  5
BE
330
1F
100
AcDbEntity
  8
0
  6
Continuous
 62
     7
370
    25
100
AcDbCircle
 10
269.0633402709
 20
417.2719577123
 30
0.0
 40
0.505099462733295
100
AcDbArc
 50
118.8005827707
 51
292.9304972361
  0
ARC
  5
BF
330
1F
100
AcDbEntity
  8
0
  6
Continuous
 62
     7
370
    25
100
AcDbCircle
 10
271.2433501725
 20
418.3288938271
 30
0.0
 40
2.499999999999933
100
AcDbArc
 50
217.506301084
 51
254.2247789229
  0
ARC
  5
C0
330
1F
100
AcDbEntity
  8
0
  6
Continuous
 62
     7
370
    25
100
AcDbCircle
 10
271.0686787473
 20
415.9124818144
 30
0.0
 40
0.5050994627365611
100
AcDbArc
 50
178.8005827716
 51
352.9304972354
  0
ARC
  5
C1
330
1F
100
AcDbEntity
  8
0
  6
Continuous
 62
     7
370
    25
100
AcDbCircle
 10
271.2433501725
 20
418.3288938271
 30
0.0
 40
2.49999999999994
100
AcDbArc
 50
277.5063010841
 51
314.2247789229
  0
ARC
  5
C2
330
1F
100
AcDbEntity
  8
0
  6
Continuous
 62
     7
370
    25
100
AcDbCircle
 10
273.2486886489
 20
416.9694179292
 30
0.0
 40
0.5050994627355284
100
AcDbArc
 50
238.8005827701
 51
52.9304972368
  0
ARC
  5
C3
330
1F
100
AcDbEntity
  8
0
  6
Continuous
 62
     7
370
    25
100
AcDbCircle
 10
271.2433501725
 20
418.3288938271
 30
0.0
 40
2.499999999999998
100
AcDbArc
 50
337.5063010841
 51
14.2247789229
  0
CIRCLE
  5
C4
330
1F
100
AcDbEntity
  8
0
  6
Continuous
 62
     7
370
    25
100
AcDbCircle
 10
554.2433501725
 20
418.3288938271
 30
0.0
 40
5.500000000000188
  0
ARC
  5
C5
330
1F
100
AcDbEntity
  8
0
  6
Continuous
 62
     7
370
    25
100
AcDbCircle
 10
554.2433501725
 20
418.3288938271
 30
0.0
 40
2.499999999999982
100
AcDbArc
 50
100.8681863767
 51
137.5866642156
  0
ARC
  5
C6
330
1F
100
AcDbEntity
  8
0
  6
Continuous
 62
     7
370
    25
100
AcDbCircle
 10
554.2433501725
 20
418.3288938271
 30
0.0
 40
2.499999999999925
100
AcDbArc
 50
160.8681863768
 51
197.5866642156
  0
ARC
  5
C7
330
1F
100
AcDbEntity
  8
0
  6
Continuous
 62
     7
370
    25
100
AcDbCircle
 10
552.129073108
 20
417.1459358327
 30
0.0
 40
0.5050994627351884
100
AcDbArc
 50
122.1624680624
 51
296.2923825299
  0
ARC
  5
C8
330
1F
100
AcDbEntity
  8
0
  6
Continuous
 62
     7
370
    25
100
AcDbCircle
 10
554.2433501725
 20
418.3288938271
 30
0.0
 40
2.499999999999996
100
AcDbArc
 50
220.8681863768
 51
257.5866642156
  0
ARC
  5
C9
330
1F
100
AcDbEntity
  8
0
  6
Continuous
 62
     7
370
    25
100
AcDbCircle
 10
554.210683315
 20
415.9063971814
 30
0.0
 40
0.5050994627333826
100
AcDbArc
 50
182.1624680634
 51
356.2923825288
  0
ARC
  5
CA
330
1F
100
AcDbEntity
  8
0
  6
Continuous
 62
     7
370
    25
100
AcDbCircle
 10
554.2433501725
 20
418.3288938271
 30
0.0
 40
2.49999999999999
100
AcDbArc
 50
280.8681863767
 51
317.5866642156
  0
ARC
  5
CB
330
1F
100
AcDbEntity
  8
0
  6
Continuous
 62
     7
370
    25
100
AcDbCircle
 10
556.3249603795
 20
417.0893551758
 30
0.0
 40
0.5050994627365859
100
AcDbArc
 50
242.1624680643
 51
56.2923825281
  0
ARC
  5
CC
330
1F
100
AcDbEntity
  8
0
  6
Continuous
 62
     7
370
    25
100
AcDbCircle
 10
554.2433501725
 20
418.3288938271
 30
0.0
 40
2.499999999999891
100
AcDbArc
 50
340.8681863768
 51
17.5866642156
  0
ARC
  5
CD
330
1F
100
AcDbEntity
  8
0
  6
Continuous
 62
     7
370
    25
100
AcDbCircle
 10
554.2433501725
 20
418.3288938271
 30
0.0
 40
2.499999999999974
100
AcDbArc
 50
40.8681863768
 51
77.5866642156
  0
ARC
  5
CE
330
1F
100
AcDbEntity
  8
0
  6
Continuous
 62
     7
370
    25
100
AcDbCircle
 10
552.1617399655
 20
419.5684324784
 30
0.0
 40
0.5050994627349215
100
AcDbArc
 50
62.1624680637
 51
236.2923825287
  0
ARC
  5
CF
330
1F
100
AcDbEntity
  8
0
  6
Continuous
 62
     7
370
    25
100
AcDbCircle
 10
556.357627237
 20
419.5118518215
 30
0.0
 40
0.5050994627355271
100
AcDbArc
 50
302.1624680628
 51
116.2923825295
  0
ARC
  5
D0
330
1F
100
AcDbEntity
  8
0
  6
Continuous
 62
     7
370
    25
100
AcDbCircle
 10
554.27601703
 20
420.7513904728
 30
0.0
 40
0.5050994627334864
100
AcDbArc
 50
2.1624680629
 51
176.2923825295
  0
CIRCLE
  5
D1
330
1F
100
AcDbEntity
  8
0
  6
Continuous
 62
     7
370
    25
100
AcDbCircle
 10
554.2433501725
 20
118.3288938271
 30
0.0
 40
5.500000000000179
  0
ARC
  5
D2
330
1F
100
AcDbEntity
  8
0
  6
Continuous
 62
     7
370
    25
100
AcDbCircle
 10
552.0173920234
 20
117.372511351
 30
0.0
 40
0.5050994627334959
100
AcDbArc
 50
116.1858115767
 51
290.3157260434
  0
ARC
  5
D3
330
1F
100
AcDbEntity
  8
0
  6
Continuous
 62
     7
370
    25
100
AcDbCircle
 10
554.2433501725
 20
118.3288938271
 30
0.0
 40
2.49999999999992
100
AcDbArc
 50
214.8915298906
 51
251.6100077295
  0
ARC
  5
D4
330
1F
100
AcDbEntity
  8
0
  6
Continuous
 62
     7
370
    25
100
AcDbCircle
 10
553.958622618
 20
115.9229662842
 30
0.0
 40
0.5050994627349242
100
AcDbArc
 50
176.1858115776
 51
350.3157260426
  0
ARC
  5
D5
330
1F
100
AcDbEntity
  8
0
  6
Continuous
 62
     7
370
    25
100
AcDbCircle
 10
556.184580767
 20
116.8793487603
 30
0.0
 40
0.505099462735177
100
AcDbArc
 50
236.1858115763
 51
50.3157260438
  0
ARC
  5
D6
330
1F
100
AcDbEntity
  8
0
  6
Continuous
 62
     7
370
    25
100
AcDbCircle
 10
554.2433501725
 20
118.3288938271
 30
0.0
 40
2.499999999999981
100
AcDbArc
 50
334.8915298906
 51
11.6100077295
  0
ARC
  5
D7
330
1F
100
AcDbEntity
  8
0
  6
Continuous
 62
     7
370
    25
100
AcDbCircle
 10
556.4693083215
 20
119.2852763032
 30
0.0
 40
0.5050994627332718
100
AcDbArc
 50
296.1858115773
 51
110.3157260427
  0
ARC
  5
D8
330
1F
100
AcDbEntity
  8
0
  6
Continuous
 62
     7
370
    25
100
AcDbCircle
 10
554.2433501725
 20
118.3288938271
 30
0.0
 40
2.500000000000019
100
AcDbArc
 50
34.8915298906
 51
71.6100077295
  0
ARC
  5
D9
330
1F
100
AcDbEntity
  8
0
  6
Continuous
 62
     7
370
    25
100
AcDbCircle
 10
554.2433501725
 20
118.3288938271
 30
0.0
 40
2.499999999999961
100
AcDbArc
 50
94.8915298907
 51
131.6100077294
  0
ARC
  5
DA
330
1F
100
AcDbEntity
  8
0
  6
Continuous
 62
     7
370
    25
100
AcDbCircle
 10
554.2433501725
 20
118.3288938271
 30
0.0
 40
2.499999999999944
100
AcDbArc
 50
154.8915298906
 51
191.6100077295
  0
ARC
  5
DB
330
1F
100
AcDbEntity
  8
0
  6
Continuous
 62
     7
370
    25
100
AcDbCircle
 10
552.3021195779
 20
119.7784388939
 30
0.0
 40
0.5050994627355311
100
AcDbArc
 50
56.1858115767
 51
230.3157260434
  0
ARC
  5
DC
330
1F
100
AcDbEntity
  8
0
  6
Continuous
 62
     7
370
    25
100
AcDbCircle
 10
554.528077727
 20
120.73482137
 30
0.0
 40
0.5050994627365983
100
AcDbArc
 50
356.1858115782
 51
170.315726042
  0
ARC
  5
DD
330
1F
100
AcDbEntity
  8
0
  6
Continuous
 62
     7
370
    25
100
AcDbCircle
 10
554.2433501725
 20
118.3288938271
 30
0.0
 40
2.499999999999941
100
AcDbArc
 50
274.8915298907
 51
311.6100077294
  0
ARC
  5
DE
330
1F
100
AcDbEntity
  8
0
  6
Continuous
 62
     7
370
    25
100
AcDbCircle
 10
273.4233600741
 20
119.3858299419
 30
0.0
 40
0.5050994627334912
100
AcDbArc
 50
298.8005827702
 51
112.9304972368
  0
ARC
  5
DF
330
1F
100
AcDbEntity
  8
0
  6
Continuous
 62
     7
370
    25
100
AcDbCircle
 10
271.2433501725
 20
118.3288938271
 30
0.0
 40
2.499999999999936
100
AcDbArc
 50
37.506301084
 51
74.2247789229
  0
ARC
  5
E0
330
1F
100
AcDbEntity
  8
0
  6
Continuous
 62
     7
370
    25
100
AcDbCircle
 10
271.4180215977
 20
120.7453058398
 30
0.0
 40
0.5050994627349068
100
AcDbArc
 50
358.800582771
 51
172.930497236
  0
ARC
  5
E1
330
1F
100
AcDbEntity
  8
0
  6
Continuous
 62
     7
370
    25
100
AcDbCircle
 10
271.2433501725
 20
118.3288938271
 30
0.0
 40
2.499999999999943
100
AcDbArc
 50
97.5063010841
 51
134.2247789229
  0
ARC
  5
E2
330
1F
100
AcDbEntity
  8
0
  6
Continuous
 62
     7
370
    25
100
AcDbCircle
 10
269.2380116961
 20
119.688369725
 30
0.0
 40
0.5050994627351659
100
AcDbArc
 50
58.8005827697
 51
232.9304972372
  0
ARC
  5
E3
330
1F
100
AcDbEntity
  8
0
  6
Continuous
 62
     7
370
    25
100
AcDbCircle
 10
271.2433501725
 20
118.3288938271
 30
0.0
 40
2.499999999999959
100
AcDbArc
 50
157.5063010841
 51
194.2247789229
  0
ARC
  5
E4
330
1F
100
AcDbEntity
  8
0
  6
Continuous
 62
     7
370
    25
100
AcDbCircle
 10
269.0633402709
 20
117.2719577123
 30
0.0
 40
0.5050994627332872
100
AcDbArc
 50
118.8005827707
 51
292.9304972361
  0
ARC
  5
E5
330
1F
100
AcDbEntity
  8
0
  6
Continuous
 62
     7
370
    25
100
AcDbCircle
 10
271.2433501725
 20
118.3288938271
 30
0.0
 40
2.499999999999962
100
AcDbArc
 50
217.506301084
 51
254.2247789229
  0
ARC
  5
E6
330
1F
100
AcDbEntity
  8
0
  6
Continuous
 62
     7
370
    25
100
AcDbCircle
 10
271.0686787473
 20
115.9124818144
 30
0.0
 40
0.505099462736608
100
AcDbArc
 50
178.8005827716
 51
352.9304972354
  0
ARC
  5
E7
330
1F
100
AcDbEntity
  8
0
  6
Continuous
 62
     7
370
    25
100
AcDbCircle
 10
271.2433501725
 20
118.3288938271
 30
0.0
 40
2.499999999999945
100
AcDbArc
 50
277.5063010841
 51
314.2247789229
  0
ARC
  5
E8
330
1F
100
AcDbEntity
  8
0
  6
Continuous
 62
     7
370
    25
100
AcDbCircle
 10
273.2486886489
 20
116.9694179292
 30
0.0
 40
0.505099462735522
100
AcDbArc
 50
238.8005827701
 51
52.9304972368
  0
ARC
  5
E9
330
1F
100
AcDbEntity
  8
0
  6
Continuous
 62
     7
370
    25
100
AcDbCircle
 10
271.2433501725
 20
118.3288938271
 30
0.0
 40
2.499999999999932
100
AcDbArc
 50
337.5063010841
 51
14.2247789229
  0
CIRCLE
  5
EA
330
1F
100
AcDbEntity
  8
0
  6
Continuous
 62
     7
370
    25
100
AcDbCircle
 10
271.2433501725
 20
118.3288938271
 30
0.0
 40
5.500000000000088
  0
LINE
  5
EB
330
1F
100
AcDbEntity
  8
0
  6
Continuous
 62
     7
370
    25
100
AcDbLine
 10
259.7433501725
 20
499.8288938271
 30
0.0
 11
260.5433501725
 21
499.8288938271
 31
0.0
  0
LINE
  5
EC
330
1F
100
AcDbEntity
  8
0
  6
Continuous
 62
     7
370
    25
100
AcDbLine
 10
260.5433501725
 20
499.8288938271
 30
0.0
 11
260.5433501725
 21
496.8288938271
 31
0.0
  0
LINE
  5
ED
330
1F
100
AcDbEntity
  8
0
  6
Continuous
 62
     7
370
    25
100
AcDbLine
 10
259.7433501725
 20
496.8288938271
 30
0.0
 11
259.7433501725
 21
499.8288938271
 31
0.0
  0
LINE
  5
EE
330
1F
100
AcDbEntity
  8
0
  6
Continuous
 62
     7
370
    25
100
AcDbLine
 10
259.7433501725
 20
479.8288938271
 30
0.0
 11
260.5433501725
 21
479.8288938271
 31
0.0
  0
LINE
  5
EF
330
1F
100
AcDbEntity
  8
0
  6
Continuous
 62
     7
370
    25
100
AcDbLine
 10
259.7433501725
 20
479.8288938271
 30
0.0
 11
259.7433501725
 21
496.8288938271
 31
0.0
  0
LINE
  5
F0
330
1F
100
AcDbEntity
  8
0
  6
Continuous
 62
     7
370
    25
100
AcDbLine
 10
260.5433501725
 20
479.8288938271
 30
0.0
 11
260.5433501725
 21
496.8288938271
 31
0.0
  0
LINE
  5
F1
330
1F
100
AcDbEntity
  8
0
  6
Continuous
 62
     7
370
    25
100
AcDbLine
 10
565.7433501725
 20
479.8288938271
 30
0.0
 11
564.9433501725
 21
479.8288938271
 31
0.0
  0
LINE
  5
F2
330
1F
100
AcDbEntity
  8
0
  6
Continuous
 62
     7
370
    25
100
AcDbLine
 10
565.7433501725
 20
496.8288938271
 30
0.0
 11
565.7433501725
 21
479.8288938271
 31
0.0
  0
LINE
  5
F3
330
1F
100
AcDbEntity
  8
0
  6
Continuous
 62
     7
370
    25
100
AcDbLine
 10
564.9433501725
 20
496.8288938271
 30
0.0
 11
564.9433501725
 21
479.8288938271
 31
0.0
  0
LINE
  5
F4
330
1F
100
AcDbEntity
  8
0
  6
Continuous
 62
     7
370
    25
100
AcDbLine
 10
564.9433501725
 20
499.8288938271
 30
0.0
 11
565.7433501725
 21
499.8288938271
 31
0.0
  0
LINE
  5
F5
330
1F
100
AcDbEntity
  8
0
  6
Continuous
 62
     7
370
    25
100
AcDbLine
 10
565.7433501725
 20
499.8288938271
 30
0.0
 11
565.7433501725
 21
496.8288938271
 31
0.0
  0
LINE
  5
F6
330
1F
100
AcDbEntity
  8
0
  6
Continuous
 62
     7
370
    25
100
AcDbLine
 10
564.9433501725
 20
496.8288938271
 30
0.0
 11
564.9433501725
 21
499.8288938271
 31
0.0
  0
LINE
  5
F7
330
1F
100
AcDbEntity
  8
0
  6
Continuous
 62
     7
370
    25
100
AcDbLine
 10
260.5433501725
 20
466.3288938271
 30
0.0
 11
260.5433501725
 21
477.6288938271
 31
0.0
  0
LINE
  5
F8
330
1F
100
AcDbEntity
  8
0
  6
Continuous
 62
     7
370
    25
100
AcDbLine
 10
260.5433501725
 20
479.3288938271
 30
0.0
 11
260.5433501725
 21
479.8288938271
 31
0.0
  0
LINE
  5
F9
330
1F
100
AcDbEntity
  8
0
  6
Continuous
 62
     7
370
    25
100
AcDbLine
 10
259.7433501725
 20
466.3288938271
 30
0.0
 11
259.7433501725
 21
479.8288938271
 31
0.0
  0
LINE
  5
FA
330
1F
100
AcDbEntity
  8
0
  6
Continuous
 62
     7
370
    25
100
AcDbLine
 10
565.7433501725
 20
479.8288938271
 30
0.0
 11
565.7433501725
 21
466.3288938271
 31
0.0
  0
LINE
  5
FB
330
1F
100
AcDbEntity
  8
0
  6
Continuous
 62
     7
370
    25
100
AcDbLine
 10
564.9433501725
 20
479.8288938271
 30
0.0
 11
564.9433501725
 21
479.3288938271
 31
0.0
  0
LINE
  5
FC
330
1F
100
AcDbEntity
  8
0
  6
Continuous
 62
     7
370
    25
100
AcDbLine
 10
564.9433501725
 20
477.6288938271
 30
0.0
 11
564.9433501725
 21
466.3288938271
 31
0.0
  0
LINE
  5
FD
330
1F
100
AcDbEntity
  8
0
  6
Continuous
 62
     7
370
    25
100
AcDbLine
 10
574.4021001725
 20
466.3288938271
 30
0.0
 11
574.4021001725
 21
471.3288938271
 31
0.0
  0
LINE
  5
FE
330
1F
100
AcDbEntity
  8
0
  6
Continuous
 62
     7
370
    25
100
AcDbLine
 10
574.9433501725
 20
466.3288938271
 30
0.0
 11
574.9433501725
 21
470.7876438271
 31
0.0
  0
LINE
  5
FF
330
1F
100
AcDbEntity
  8
0
  6
Continuous
 62
     7
370
    25
100
AcDbLine
 10
260.3224199399
 20
479.3288938271
 30
0.0
 11
565.164280405
 21
479.3288938271
 31
0.0
  0
LINE
  5
100
330
1F
100
AcDbEntity
  8
0
  6
Continuous
 62
     7
370
    25
100
AcDbLine
 10
260.3224199399
 20
477.6288938271
 30
0.0
 11
565.164280405
 21
477.6288938271
 31
0.0
  0
ELLIPSE
  5
101
330
1F
100
AcDbEntity
  8
0
  6
Continuous
 62
     7
370
    25
100
AcDbEllipse
 10
260.3224199399
 20
478.4788938271
 30
0.0
 11
0.0
 21
0.8499999999999658
 31
0.0
210
0.0
220
0.0
230
1.0
 40
0.0930232558
 41
0.0
 42
3.141592653589792
  0
ELLIPSE
  5
102
330
1F
100
AcDbEntity
  8
0
  6
Continuous
 62
     7
370
    25
100
AcDbEllipse
 10
565.164280405
 20
478.4788938271
 30
0.0
 11
0.0
 21
0.8500000000000227
 31
0.0
210
0.0
220
0.0
230
1.0
 40
0.0930232558
 41
3.141592653589792
 42
6.283185307179586
  0
LINE
  5
103
330
1F
100
AcDbEntity
  8
0
  6
Continuous
 62
     7
370
    25
100
AcDbLine
 10
564.2433501725
 20
477.5288938271
 30
0.0
 11
564.2433501725
 21
477.6288938271
 31
0.0
  0
LINE
  5
104
330
1F
100
AcDbEntity
  8
0
  6
Continuous
 62
     7
370
    25
100
AcDbLine
 10
261.2433501725
 20
477.6288938271
 30
0.0
 11
261.2433501725
 21
477.5288938271
 31
0.0
  0
LINE
  5
105
330
1F
100
AcDbEntity
  8
0
  6
Continuous
 62
     7
370
    25
100
AcDbLine
 10
564.2433501725
 20
466.3288938271
 30
0.0
 11
564.2433501725
 21
477.5288938271
 31
0.0
  0
LINE
  5
106
330
1F
100
AcDbEntity
  8
0
  6
Continuous
 62
     7
370
    25
100
AcDbLine
 10
261.2433501725
 20
477.5288938271
 30
0.0
 11
261.2433501725
 21
466.3288938271
 31
0.0
  0
LINE
  5
107
330
1F
100
AcDbEntity
  8
0
  6
Continuous
 62
     7
370
    25
100
AcDbLine
 10
251.0846001725
 20
469.6252596734
 30
0.0
 11
251.0846001725
 21
466.3288938271
 31
0.0
  0
LINE
  5
108
330
1F
100
AcDbEntity
  8
0
  6
Continuous
 62
     7
370
    25
100
AcDbLine
 10
251.0846001725
 20
471.3288938271
 30
0.0
 11
251.0846001725
 21
469.6252596734
 31
0.0
  0
LINE
  5
109
330
1F
100
AcDbEntity
  8
0
  6
Continuous
 62
     7
370
    25
100
AcDbLine
 10
250.5433501725
 20
470.7876438271
 30
0.0
 11
250.5433501725
 21
466.3288938271
 31
0.0
  0
LINE
  5
10A
330
1F
100
AcDbEntity
  8
0
  6
Continuous
 62
     7
370
    25
100
AcDbLine
 10
542.1038114087
 20
469.5933377069
 30
0.0
 11
543.5558871326
 21
469.826281572
 31
0.0
  0
ARC
  5
10B
330
1F
100
AcDbEntity
  8
0
  6
Continuous
 62
     7
370
    25
100
AcDbCircle
 10
554.0688164876
 20
470.9051078378
 30
0.0
 40
12.03669752943738
100
AcDbArc
 50
186.2565722694
 51
191.9710500657
  0
ARC
  5
10C
330
1F
100
AcDbEntity
  8
0
  6
Continuous
 62
     7
370
    25
100
AcDbCircle
 10
542.6671361618
 20
479.1543601422
 30
0.0
 40
12.03669752935988
100
AcDbArc
 50
276.2565722694
 51
281.9710500657
  0
ARC
  5
10D
330
1F
100
AcDbEntity
  8
0
  6
Continuous
 62
     7
370
    25
100
AcDbCircle
 10
534.4178838574
 20
467.7526798165
 30
0.0
 40
12.03669752932848
100
AcDbArc
 50
6.2565722693
 51
11.9710500657
  0
ARC
  5
10E
330
1F
100
AcDbEntity
  8
0
  6
Continuous
 62
     7
370
    25
100
AcDbCircle
 10
545.8195641831
 20
459.503427512
 30
0.0
 40
12.03669752936366
100
AcDbArc
 50
96.2565722694
 51
101.9710500657
  0
ARC
  5
10F
330
1F
100
AcDbEntity
  8
0
  6
Continuous
 62
     7
370
    25
100
AcDbCircle
 10
544.2433501725
 20
469.3288938271
 30
0.0
 40
3.999999999999974
100
AcDbArc
 50
311.4096221093
 51
99.1138111675
  0
ARC
  5
110
330
1F
100
AcDbEntity
  8
0
  6
Continuous
 62
     7
370
    25
100
AcDbCircle
 10
544.2433501725
 20
469.3288938271
 30
0.0
 40
4.000000000000091
100
AcDbArc
 50
99.1138111675
 51
228.5903778907
  0
LINE
  5
111
330
1F
100
AcDbEntity
  8
0
  6
Continuous
 62
     7
370
    25
100
AcDbLine
 10
542.2938867036
 20
468.4084869221
 30
0.0
 11
543.7459624275
 21
468.6414307872
 31
0.0
  0
LINE
  5
112
330
1F
100
AcDbEntity
  8
0
  6
Continuous
 62
     7
370
    25
100
AcDbLine
 10
543.7459624275
 20
468.6414307872
 30
0.0
 11
543.9789062927
 21
467.1893550633
 31
0.0
  0
LINE
  5
113
330
1F
100
AcDbEntity
  8
0
  6
Continuous
 62
     7
370
    25
100
AcDbLine
 10
544.9308132123
 20
468.8315060821
 30
0.0
 11
545.1637570775
 21
467.3794303582
 31
0.0
  0
LINE
  5
114
330
1F
100
AcDbEntity
  8
0
  6
Continuous
 62
     7
370
    25
100
AcDbLine
 10
544.9308132123
 20
468.8315060821
 30
0.0
 11
546.3828889363
 21
469.0644499473
 31
0.0
  0
LINE
  5
115
330
1F
100
AcDbEntity
  8
0
  6
Continuous
 62
     7
370
    25
100
AcDbLine
 10
543.3229432674
 20
471.278357296
 30
0.0
 11
543.5558871326
 21
469.826281572
 31
0.0
  0
LINE
  5
116
330
1F
100
AcDbEntity
  8
0
  6
Continuous
 62
     7
370
    25
100
AcDbLine
 10
544.7407379174
 20
470.016356867
 30
0.0
 11
546.1928136414
 21
470.2493007321
 31
0.0
  0
LINE
  5
117
330
1F
100
AcDbEntity
  8
0
  6
Continuous
 62
     7
370
    25
100
AcDbLine
 10
544.5077940522
 20
471.4684325909
 30
0.0
 11
544.7407379174
 21
470.016356867
 31
0.0
  0
LINE
  5
118
330
1F
100
AcDbEntity
  8
0
  6
Continuous
 62
     7
370
    25
100
AcDbLine
 10
544.8888442655
 20
470.0401162788
 30
0.0
 11
545.0789195604
 21
468.855265494
 31
0.0
  0
LINE
  5
119
330
1F
100
AcDbEntity
  8
0
  6
Continuous
 62
     7
370
    25
100
AcDbLine
 10
544.7169785056
 20
470.1644632151
 30
0.0
 11
543.5321277208
 21
469.9743879201
 31
0.0
  0
LINE
  5
11A
330
1F
100
AcDbEntity
  8
0
  6
Continuous
 62
     7
370
    25
100
AcDbLine
 10
544.9545726242
 20
468.683399734
 30
0.0
 11
543.7697218394
 21
468.4933244391
 31
0.0
  0
LINE
  5
11B
330
1F
100
AcDbEntity
  8
0
  6
Continuous
 62
     7
370
    25
100
AcDbLine
 10
543.4077807845
 20
469.8025221602
 30
0.0
 11
543.5978560794
 21
468.6176713754
 31
0.0
  0
ARC
  5
11C
330
1F
100
AcDbEntity
  8
0
  6
Continuous
 62
     7
370
    25
100
AcDbCircle
 10
422.5688164875
 20
469.9051078377
 30
0.0
 40
12.03669752932859
100
AcDbArc
 50
186.2565722693
 51
191.9710500657
  0
LWPOLYLINE
  5
11D
330
1F
100
AcDbEntity
  8
0
  6
Continuous
 62
     7
370
    25
100
AcDbPolyline
 90
        3
 70
   128
 43
0.0
 10
413.4122361971
 20
466.3288938271
 10
413.516901794
 20
466.3492445809
 10
413.6637570775
 20
466.3794303582
  0
LINE
  5
11E
330
1F
100
AcDbEntity
  8
0
  6
Continuous
 62
     7
370
    25
100
AcDbLine
 10
413.4308132123
 20
467.8315060821
 30
0.0
 11
414.8828889363
 21
468.0644499473
 31
0.0
  0
ARC
  5
11F
330
1F
100
AcDbEntity
  8
0
  6
Continuous
 62
     7
370
    25
100
AcDbCircle
 10
402.9178838575
 20
466.7526798165
 30
0.0
 40
12.03669752929875
100
AcDbArc
 50
6.2565722693
 51
11.9710500657
  0
ARC
  5
120
330
1F
100
AcDbEntity
  8
0
  6
Continuous
 62
     7
370
    25
100
AcDbCircle
 10
414.3195641831
 20
458.503427512
 30
0.0
 40
12.03669752936245
100
AcDbArc
 50
96.2565722694
 51
101.9710500657
  0
ARC
  5
121
330
1F
100
AcDbEntity
  8
0
  6
Continuous
 62
     7
370
    25
100
AcDbCircle
 10
412.7433501725
 20
468.3288938271
 30
0.0
 40
4.000000000000063
100
AcDbArc
 50
330.0
 51
99.1138111675
  0
ARC
  5
122
330
1F
100
AcDbEntity
  8
0
  6
Continuous
 62
     7
370
    25
100
AcDbCircle
 10
412.7433501725
 20
468.3288938271
 30
0.0
 40
4.000000000000063
100
AcDbArc
 50
99.1138111675
 51
210.0
  0
LINE
  5
123
330
1F
100
AcDbEntity
  8
0
  6
Continuous
 62
     7
370
    25
100
AcDbLine
 10
412.2459624275
 20
467.6414307872
 30
0.0
 11
412.4474293436
 21
466.3855693472
 31
0.0
  0
LINE
  5
124
330
1F
100
AcDbEntity
  8
0
  6
Continuous
 62
     7
370
    25
100
AcDbLine
 10
410.6038114087
 20
468.5933377069
 30
0.0
 11
412.0558871326
 21
468.826281572
 31
0.0
  0
LINE
  5
125
330
1F
100
AcDbEntity
  8
0
  6
Continuous
 62
     7
370
    25
100
AcDbLine
 10
410.7938867036
 20
467.4084869221
 30
0.0
 11
412.2459624275
 21
467.6414307872
 31
0.0
  0
LINE
  5
126
330
1F
100
AcDbEntity
  8
0
  6
Continuous
 62
     7
370
    25
100
AcDbLine
 10
413.4308132123
 20
467.8315060821
 30
0.0
 11
413.6637570775
 21
466.3794303582
 31
0.0
  0
LINE
  5
127
330
1F
100
AcDbEntity
  8
0
  6
Continuous
 62
     7
370
    25
100
AcDbLine
 10
411.8229432674
 20
470.278357296
 30
0.0
 11
412.0558871326
 21
468.826281572
 31
0.0
  0
LINE
  5
128
330
1F
100
AcDbEntity
  8
0
  6
Continuous
 62
     7
370
    25
100
AcDbLine
 10
413.2407379174
 20
469.016356867
 30
0.0
 11
414.6928136414
 21
469.2493007321
 31
0.0
  0
LINE
  5
129
330
1F
100
AcDbEntity
  8
0
  6
Continuous
 62
     7
370
    25
100
AcDbLine
 10
413.0077940522
 20
470.4684325909
 30
0.0
 11
413.2407379174
 21
469.016356867
 31
0.0
  0
LINE
  5
12A
330
1F
100
AcDbEntity
  8
0
  6
Continuous
 62
     7
370
    25
100
AcDbLine
 10
413.3888442655
 20
469.0401162788
 30
0.0
 11
413.5789195604
 21
467.855265494
 31
0.0
  0
LINE
  5
12B
330
1F
100
AcDbEntity
  8
0
  6
Continuous
 62
     7
370
    25
100
AcDbLine
 10
413.4545726242
 20
467.683399734
 30
0.0
 11
412.2697218394
 21
467.4933244391
 31
0.0
  0
LINE
  5
12C
330
1F
100
AcDbEntity
  8
0
  6
Continuous
 62
     7
370
    25
100
AcDbLine
 10
413.2169785056
 20
469.1644632151
 30
0.0
 11
412.0321277208
 21
468.9743879201
 31
0.0
  0
LINE
  5
12D
330
1F
100
AcDbEntity
  8
0
  6
Continuous
 62
     7
370
    25
100
AcDbLine
 10
411.9077807845
 20
468.8025221602
 30
0.0
 11
412.0978560794
 21
467.6176713754
 31
0.0
  0
LINE
  5
12E
330
1F
100
AcDbEntity
  8
0
  6
Continuous
 62
     7
370
    25
100
AcDbLine
 10
279.1038114087
 20
469.5933377069
 30
0.0
 11
280.5558871326
 21
469.826281572
 31
0.0
  0
ARC
  5
12F
330
1F
100
AcDbEntity
  8
0
  6
Continuous
 62
     7
370
    25
100
AcDbCircle
 10
291.0688164875
 20
470.9051078377
 30
0.0
 40
12.03669752935341
100
AcDbArc
 50
186.2565722694
 51
191.9710500657
  0
LINE
  5
130
330
1F
100
AcDbEntity
  8
0
  6
Continuous
 62
     7
370
    25
100
AcDbLine
 10
279.2938867036
 20
468.4084869221
 30
0.0
 11
280.7459624275
 21
468.6414307872
 31
0.0
  0
ARC
  5
131
330
1F
100
AcDbEntity
  8
0
  6
Continuous
 62
     7
370
    25
100
AcDbCircle
 10
279.6671361618
 20
479.1543601421
 30
0.0
 40
12.0366975293513
100
AcDbArc
 50
276.2565722694
 51
281.9710500657
  0
LINE
  5
132
330
1F
100
AcDbEntity
  8
0
  6
Continuous
 62
     7
370
    25
100
AcDbLine
 10
281.9308132123
 20
468.8315060821
 30
0.0
 11
282.1637570775
 21
467.3794303582
 31
0.0
  0
LINE
  5
133
330
1F
100
AcDbEntity
  8
0
  6
Continuous
 62
     7
370
    25
100
AcDbLine
 10
281.9308132123
 20
468.8315060821
 30
0.0
 11
283.3828889363
 21
469.0644499473
 31
0.0
  0
ARC
  5
134
330
1F
100
AcDbEntity
  8
0
  6
Continuous
 62
     7
370
    25
100
AcDbCircle
 10
271.4178838575
 20
467.7526798165
 30
0.0
 40
12.03669752931892
100
AcDbArc
 50
6.2565722693
 51
11.9710500657
  0
LINE
  5
135
330
1F
100
AcDbEntity
  8
0
  6
Continuous
 62
     7
370
    25
100
AcDbLine
 10
281.7407379174
 20
470.016356867
 30
0.0
 11
283.1928136414
 21
470.2493007321
 31
0.0
  0
ARC
  5
136
330
1F
100
AcDbEntity
  8
0
  6
Continuous
 62
     7
370
    25
100
AcDbCircle
 10
282.8195641831
 20
459.503427512
 30
0.0
 40
12.03669752935825
100
AcDbArc
 50
96.2565722694
 51
101.9710500657
  0
ARC
  5
137
330
1F
100
AcDbEntity
  8
0
  6
Continuous
 62
     7
370
    25
100
AcDbCircle
 10
281.2433501725
 20
469.3288938271
 30
0.0
 40
4.000000000000063
100
AcDbArc
 50
311.4096221093
 51
99.1138111675
  0
ARC
  5
138
330
1F
100
AcDbEntity
  8
0
  6
Continuous
 62
     7
370
    25
100
AcDbCircle
 10
281.2433501725
 20
469.3288938271
 30
0.0
 40
4.000000000000063
100
AcDbArc
 50
99.1138111675
 51
228.5903778907
  0
LINE
  5
139
330
1F
100
AcDbEntity
  8
0
  6
Continuous
 62
     7
370
    25
100
AcDbLine
 10
280.7459624275
 20
468.6414307872
 30
0.0
 11
280.9789062927
 21
467.1893550633
 31
0.0
  0
LINE
  5
13A
330
1F
100
AcDbEntity
  8
0
  6
Continuous
 62
     7
370
    25
100
AcDbLine
 10
281.5077940522
 20
471.4684325909
 30
0.0
 11
281.7407379174
 21
470.016356867
 31
0.0
  0
LINE
  5
13B
330
1F
100
AcDbEntity
  8
0
  6
Continuous
 62
     7
370
    25
100
AcDbLine
 10
280.3229432674
 20
471.278357296
 30
0.0
 11
280.5558871326
 21
469.826281572
 31
0.0
  0
LINE
  5
13C
330
1F
100
AcDbEntity
  8
0
  6
Continuous
 62
     7
370
    25
100
AcDbLine
 10
281.8888442655
 20
470.0401162788
 30
0.0
 11
282.0789195604
 21
468.855265494
 31
0.0
  0
LINE
  5
13D
330
1F
100
AcDbEntity
  8
0
  6
Continuous
 62
     7
370
    25
100
AcDbLine
 10
281.7169785056
 20
470.1644632151
 30
0.0
 11
280.5321277208
 21
469.9743879201
 31
0.0
  0
LINE
  5
13E
330
1F
100
AcDbEntity
  8
0
  6
Continuous
 62
     7
370
    25
100
AcDbLine
 10
281.9545726242
 20
468.683399734
 30
0.0
 11
280.7697218394
 21
468.4933244391
 31
0.0
  0
LINE
  5
13F
330
1F
100
AcDbEntity
  8
0
  6
Continuous
 62
     7
370
    25
100
AcDbLine
 10
280.4077807845
 20
469.8025221602
 30
0.0
 11
280.5978560794
 21
468.6176713754
 31
0.0
  0
SPLINE
  5
140
330
1F
100
AcDbEntity
  8
0
  6
Continuous
 62
     7
370
    25
100
AcDbSpline
210
0.0
220
0.0
230
1.0
 70
    24
 71
     3
 72
    18
 73
    14
 74
     0
 42
0.000000001
 43
0.00000001
 40
0.0
 40
0.0
 40
0.0
 40
0.0
 40
0.1395442450004755
 40
0.2146633576115607
 40
0.2913766055701594
 40
0.3680898535287577
 40
0.4432089661398432
 40
0.582753211140318
 40
0.7222974561407931
 40
0.7974165687518795
 40
0.874129816710477
 40
0.9508430646690749
 40
1.0
 40
1.0
 40
1.0
 40
1.0
 10
261.5433501724777
 20
488.0983657703269
 30
0.0
 10
261.5433501724777
 20
488.4834966622525
 30
0.0
 10
261.5433501724776
 20
489.0759502627605
 30
0.0
 10
261.5433501724777
 20
490.3118644441454
 30
0.0
 10
261.5433501724776
 20
491.3878940565004
 30
0.0
 10
261.5433501724777
 20
492.5514221770493
 30
0.0
 10
261.5433501724777
 20
494.0718693680673
 30
0.0
 10
261.5433501724777
 20
495.8960593660742
 30
0.0
 10
261.5433501724777
 20
497.4112943206665
 30
0.0
 10
261.5433501724777
 20
498.3290416190965
 30
0.0
 10
261.5433501724777
 20
498.8326584374502
 30
0.0
 10
261.5433501724776
 20
499.1047955621901
 30
0.0
 10
261.5433501724776
 20
499.1028877193041
 30
0.0
 10
261.5433501724777
 20
499.1021426364981
 30
0.0
  0
SPLINE
  5
141
330
1F
100
AcDbEntity
  8
0
  6
Continuous
 62
     7
370
    25
100
AcDbSpline
210
0.0
220
0.0
230
1.0
 70
     8
 71
     3
 72
     8
 73
     4
 74
     0
 42
0.000000001
 43
0.00000001
 40
0.0
 40
0.0
 40
0.0
 40
0.0
 40
1.0
 40
1.0
 40
1.0
 40
1.0
 10
265.5433501724705
 20
490.5042244159609
 30
0.0
 10
265.5433501724705
 20
491.3172139876661
 30
0.0
 10
265.3690348720914
 20
492.1079523837338
 30
0.0
 10
265.0967681850793
 20
492.8861873822107
 30
0.0
  0
SPLINE
  5
142
330
1F
100
AcDbEntity
  8
0
  6
Continuous
 62
     7
370
    25
100
AcDbSpline
210
0.0
220
0.0
230
1.0
 70
     8
 71
     3
 72
     8
 73
     4
 74
     0
 42
0.000000001
 43
0.00000001
 40
0.0
 40
0.0
 40
0.0
 40
0.0
 40
1.0
 40
1.0
 40
1.0
 40
1.0
 10
265.0967681850792
 20
488.1222614497112
 30
0.0
 10
265.3690348720907
 20
488.9004964481861
 30
0.0
 10
265.5433501724705
 20
489.6912348442578
 30
0.0
 10
265.5433501724705
 20
490.5042244159609
 30
0.0
  0
LINE
  5
143
330
1F
100
AcDbEntity
  8
0
  6
Continuous
 62
     7
370
    25
100
AcDbLine
 10
261.5433501725
 20
488.1222614497
 30
0.0
 11
265.0967681851
 21
488.1222614497
 31
0.0
  0
LINE
  5
144
330
1F
100
AcDbEntity
  8
0
  6
Continuous
 62
     7
370
    25
100
AcDbLine
 10
265.0967681851
 20
492.8861873822
 30
0.0
 11
261.5433501725
 21
492.8861873822
 31
0.0
  0
SPLINE
  5
145
330
1F
100
AcDbEntity
  8
0
  6
Continuous
 62
     7
370
    25
100
AcDbSpline
210
0.0
220
0.0
230
1.0
 70
     8
 71
     3
 72
     8
 73
     4
 74
     0
 42
0.000000001
 43
0.00000001
 40
0.0
 40
0.0
 40
0.0
 40
0.0
 40
1.0
 40
1.0
 40
1.0
 40
1.0
 10
265.5433501724705
 20
495.4895035709075
 30
0.0
 10
265.5433501724705
 20
496.3780433774633
 30
0.0
 10
265.3690348720912
 20
497.2422642308823
 30
0.0
 10
265.0967681850793
 20
498.0928197595974
 30
0.0
  0
SPLINE
  5
146
330
1F
100
AcDbEntity
  8
0
  6
Continuous
 62
     7
370
    25
100
AcDbSpline
210
0.0
220
0.0
230
1.0
 70
     8
 71
     3
 72
     8
 73
     4
 74
     0
 42
0.000000001
 43
0.00000001
 40
0.0
 40
0.0
 40
0.0
 40
0.0
 40
1.0
 40
1.0
 40
1.0
 40
1.0
 10
265.0967681850793
 20
492.8861873822174
 30
0.0
 10
265.3690348720908
 20
493.7367429109313
 30
0.0
 10
265.5433501724705
 20
494.600963764353
 30
0.0
 10
265.5433501724705
 20
495.4895035709075
 30
0.0
  0
LINE
  5
147
330
1F
100
AcDbEntity
  8
0
  6
Continuous
 62
     7
370
    25
100
AcDbLine
 10
261.5433501725
 20
498.0928197596
 30
0.0
 11
265.0967681851
 21
498.0928197596
 31
0.0
  0
LINE
  5
148
330
1F
100
AcDbEntity
  8
0
  6
Continuous
 62
     7
370
    25
100
AcDbLine
 10
265.5433501725
 20
490.504224416
 30
0.0
 11
265.5433501725
 21
495.4895035709
 31
0.0
  0
SPLINE
  5
149
330
1F
100
AcDbEntity
  8
0
  6
Continuous
 62
     7
370
    25
100
AcDbSpline
210
0.0
220
0.0
230
1.0
 70
     8
 71
     3
 72
     8
 73
     4
 74
     0
 42
0.000000001
 43
0.00000001
 40
0.0
 40
0.0
 40
0.0
 40
0.0
 40
1.0
 40
1.0
 40
1.0
 40
1.0
 10
265.0967681850793
 20
498.0928197596011
 30
0.0
 10
265.3690348720908
 20
498.1651402898399
 30
0.0
 10
265.5433501724706
 20
498.2386227471904
 30
0.0
 10
265.5433501724706
 20
498.3141729820416
 30
0.0
  0
LINE
  5
14A
330
1F
100
AcDbEntity
  8
0
  6
Continuous
 62
     7
370
    25
100
AcDbLine
 10
265.5433501725
 20
495.4895035709
 30
0.0
 11
265.5433501725
 21
498.314172982
 31
0.0
  0
SPLINE
  5
14B
330
1F
100
AcDbEntity
  8
0
  6
Continuous
 62
     7
370
    25
100
AcDbSpline
210
0.0
220
0.0
230
1.0
 70
     8
 71
     3
 72
     8
 73
     4
 74
     0
 42
0.000000001
 43
0.00000001
 40
0.0
 40
0.0
 40
0.0
 40
0.0
 40
1.0
 40
1.0
 40
1.0
 40
1.0
 10
265.5433501724706
 20
488.3436146721489
 30
0.0
 10
265.5433501724706
 20
488.2680644372975
 30
0.0
 10
265.3690348720913
 20
488.1945819799474
 30
0.0
 10
265.0967681850793
 20
488.1222614497084
 30
0.0
  0
LINE
  5
14C
330
1F
100
AcDbEntity
  8
0
  6
Continuous
 62
     7
370
    25
100
AcDbLine
 10
265.5433501725
 20
490.504224416
 30
0.0
 11
265.5433501725
 21
488.3362213333
 31
0.0
  0
SPLINE
  5
14D
330
1F
100
AcDbEntity
  8
0
  6
Continuous
 62
     7
370
    25
100
AcDbSpline
210
0.0
220
0.0
230
1.0
 70
     8
 71
     3
 72
     8
 73
     4
 74
     0
 42
0.000000001
 43
0.00000001
 40
0.0
 40
0.0
 40
0.0
 40
0.0
 40
1.0
 40
1.0
 40
1.0
 40
1.0
 10
265.5433501724706
 20
498.3141729820416
 30
0.0
 10
265.5433501724706
 20
498.3897232168929
 30
0.0
 10
265.3690348720913
 20
498.4632056742431
 30
0.0
 10
265.0967681850793
 20
498.535526204482
 30
0.0
  0
LINE
  5
14E
330
1F
100
AcDbEntity
  8
0
  6
Continuous
 62
     7
370
    25
100
AcDbLine
 10
261.5433501725
 20
498.5355262045
 30
0.0
 11
265.0967681851
 21
498.5355262045
 31
0.0
  0
LINE
  5
14F
330
1F
100
AcDbEntity
  8
0
  6
Continuous
 62
     7
370
    25
100
AcDbLine
 10
250.5433501725
 20
495.7876438271
 30
0.0
 11
250.5433501725
 21
490.8701438271
 31
0.0
  0
LINE
  5
150
330
1F
100
AcDbEntity
  8
0
  6
Continuous
 62
     7
370
    25
100
AcDbLine
 10
251.0846001725
 20
494.6252596734
 30
0.0
 11
251.0846001725
 21
490.3288938271
 31
0.0
  0
LINE
  5
151
330
1F
100
AcDbEntity
  8
0
  6
Continuous
 62
     7
370
    25
100
AcDbLine
 10
251.0846001725
 20
496.3288938271
 30
0.0
 11
251.0846001725
 21
494.6252596734
 31
0.0
  0
LINE
  5
152
330
1F
100
AcDbEntity
  8
0
  6
Continuous
 62
     7
370
    25
100
AcDbLine
 10
699.8607871884
 20
464.550267155
 30
0.0
 11
700.2237249668
 21
465.1788938271
 31
0.0
  0
LINE
  5
153
330
1F
100
AcDbEntity
  8
0
  6
Continuous
 62
     7
370
    25
100
AcDbLine
 10
699.8607871884
 20
465.550267155
 30
0.0
 11
700.2237249668
 21
466.1788938271
 31
0.0
  0
LINE
  5
154
330
1F
100
AcDbEntity
  8
0
  6
Continuous
 62
     7
370
    25
100
AcDbLine
 10
700.2237249668
 20
472.4788938271
 30
0.0
 11
699.8607871884
 21
473.1075204992
 31
0.0
  0
LINE
  5
155
330
1F
100
AcDbEntity
  8
0
  6
Continuous
 62
     7
370
    25
100
AcDbLine
 10
701.9237249668
 20
464.3288938271
 30
0.0
 11
703.9237249668
 21
464.3288938271
 31
0.0
  0
ARC
  5
156
330
1F
100
AcDbEntity
  8
0
  6
Continuous
 62
     7
370
    25
100
AcDbCircle
 10
696.9955217365
 20
468.3288938271
 30
0.0
 40
8.000000000000066
100
AcDbArc
 50
330.0
 51
344.7252520003
  0
LINE
  5
157
330
1F
100
AcDbEntity
  8
0
  6
Continuous
 62
     7
370
    25
100
AcDbLine
 10
700.2237249668
 20
466.3288938271
 30
0.0
 11
700.3237249668
 21
466.3288938271
 31
0.0
  0
LINE
  5
158
330
1F
100
AcDbEntity
  8
0
  6
Continuous
 62
     7
370
    25
100
AcDbLine
 10
701.9237249668
 20
465.3288938271
 30
0.0
 11
703.9237249668
 21
465.3288938271
 31
0.0
  0
LINE
  5
159
330
1F
100
AcDbEntity
  8
0
  6
Continuous
 62
     7
370
    25
100
AcDbLine
 10
703.9237249668
 20
473.3288938271
 30
0.0
 11
701.9237249668
 21
473.3288938271
 31
0.0
  0
ARC
  5
15A
330
1F
100
AcDbEntity
  8
0
  6
Continuous
 62
     7
370
    25
100
AcDbCircle
 10
696.9955217365
 20
469.3288938271
 30
0.0
 40
8.000000000000066
100
AcDbArc
 50
330.0
 51
344.7252520003
  0
ARC
  5
15B
330
1F
100
AcDbEntity
  8
0
  6
Continuous
 62
     7
370
    25
100
AcDbCircle
 10
696.9955217365
 20
469.3288938271
 30
0.0
 40
8.000000000000066
100
AcDbArc
 50
15.2747479997
 51
30.0
  0
LINE
  5
15C
330
1F
100
AcDbEntity
  8
0
  6
Continuous
 62
     7
370
    25
100
AcDbLine
 10
700.2237249668
 20
467.3288938271
 30
0.0
 11
700.3237249668
 21
467.3288938271
 31
0.0
  0
LINE
  5
15D
330
1F
100
AcDbEntity
  8
0
  6
Continuous
 62
     7
370
    25
100
AcDbLine
 10
700.3237249668
 20
471.3288938271
 30
0.0
 11
700.2237249668
 21
471.3288938271
 31
0.0
  0
LINE
  5
15E
330
1F
100
AcDbEntity
  8
0
  6
Continuous
 62
     7
370
    25
100
AcDbLine
 10
716.8237249668
 20
71.7996045052
 30
0.0
 11
707.2237249668
 21
71.7996045052
 31
0.0
  0
LINE
  5
15F
330
1F
100
AcDbEntity
  8
0
  6
Continuous
 62
     7
370
    25
100
AcDbLine
 10
707.2237249668
 20
464.858183149
 30
0.0
 11
707.2237249668
 21
71.7996045052
 31
0.0
  0
LINE
  5
160
330
1F
100
AcDbEntity
  8
0
  6
Continuous
 62
     7
370
    25
100
AcDbLine
 10
716.8237249668
 20
464.858183149
 30
0.0
 11
707.2237249668
 21
464.858183149
 31
0.0
  0
LINE
  5
161
330
1F
100
AcDbEntity
  8
0
  6
Continuous
 62
     7
370
    25
100
AcDbLine
 10
719.2237249668
 20
463.9288938271
 30
0.0
 11
719.2237249668
 21
72.7288938271
 31
0.0
  0
SPLINE
  5
162
330
1F
100
AcDbEntity
  8
0
  6
Continuous
 62
     7
370
    25
100
AcDbSpline
210
0.0
220
0.0
230
1.0
 70
     8
 71
     3
 72
    20
 73
    16
 74
     0
 42
0.000000001
 43
0.00000001
 40
0.0
 40
0.0
 40
0.0
 40
0.0
 40
0.1249999999999981
 40
0.1249999999999981
 40
0.2499999999999961
 40
0.2499999999999961
 40
0.3749999999999942
 40
0.3749999999999942
 40
0.4999999999999922
 40
0.4999999999999922
 40
0.7499999999999936
 40
0.7499999999999936
 40
0.8749999999999968
 40
0.8749999999999968
 40
1.0
 40
1.0
 40
1.0
 40
1.0
 10
719.2237249668011
 20
72.7288938270943
 30
0.0
 10
719.2237249668011
 20
72.68985309623973
 30
0.0
 10
719.2081884063263
 20
72.65133439203997
 30
0.0
 10
719.1468700543656
 20
72.5739276407321
 30
0.0
 10
719.1004463087789
 20
72.53478322274526
 30
0.0
 10
718.9804954386248
 20
72.45763246883003
 30
0.0
 10
718.9068907943413
 20
72.41930488708911
 30
0.0
 10
718.7321604282457
 20
72.34175856661254
 30
0.0
 10
718.6313097993441
 20
72.30278235894377
 30
0.0
 10
718.3000245193601
 20
72.18728750249886
 30
0.0
 10
718.0323443579764
 20
72.10937505882869
 30
0.0
 10
717.599670331921
 20
71.99389513342783
 30
0.0
 10
717.4481522450698
 20
71.95502933756288
 30
0.0
 10
717.1387264876836
 20
71.87725500389425
 30
0.0
 10
716.9821041579899
 20
71.8386452369395
 30
0.0
 10
716.8237249668011
 20
71.79960450521288
 30
0.0
  0
SPLINE
  5
163
330
1F
100
AcDbEntity
  8
0
  6
Continuous
 62
     7
370
    25
100
AcDbSpline
210
0.0
220
0.0
230
1.0
 70
     8
 71
     3
 72
    20
 73
    16
 74
     0
 42
0.000000001
 43
0.00000001
 40
0.0
 40
0.0
 40
0.0
 40
0.0
 40
0.1249999999999981
 40
0.1249999999999981
 40
0.2499999999999962
 40
0.2499999999999962
 40
0.3749999999999942
 40
0.3749999999999942
 40
0.4999999999999923
 40
0.4999999999999923
 40
0.7499999999999936
 40
0.7499999999999936
 40
0.8749999999999968
 40
0.8749999999999968
 40
1.0
 40
1.0
 40
1.0
 40
1.0
 10
716.8237249668011
 20
464.8581831489757
 30
0.0
 10
716.9821041544518
 20
464.8191424181211
 30
0.0
 10
717.1383498791434
 20
464.7806237139214
 30
0.0
 10
717.4463417285601
 20
464.7032169626135
 30
0.0
 10
717.5989858360313
 20
464.6640725446267
 30
0.0
 10
717.8880701252183
 20
464.5869217907116
 30
0.0
 10
718.0258746634024
 20
464.5485942089705
 30
0.0
 10
718.2874933390412
 20
464.4710478884939
 30
0.0
 10
718.4102396457239
 20
464.4320716808253
 30
0.0
 10
718.7415640226717
 20
464.3165768243802
 30
0.0
 10
718.9205751466998
 20
464.2386643807101
 30
0.0
 10
719.1001902460807
 20
464.1231844553093
 30
0.0
 10
719.1464345949485
 20
464.0843186594442
 30
0.0
 10
719.2081879009596
 20
464.0065443257758
 30
0.0
 10
719.2237249668011
 20
463.967934558821
 30
0.0
 10
719.2237249668011
 20
463.9288938270943
 30
0.0
  0
LINE
  5
164
330
1F
100
AcDbEntity
  8
0
  6
Continuous
 62
     7
370
    25
100
AcDbLine
 10
716.8237249668
 20
70.3288938271
 30
0.0
 11
716.8237249668
 21
71.7288938271
 31
0.0
  0
SPLINE
  5
165
330
1F
100
AcDbEntity
  8
0
  6
Continuous
 62
     7
370
    25
100
AcDbSpline
210
0.0
220
0.0
230
1.0
 70
     8
 71
     3
 72
     9
 73
     5
 74
     0
 42
0.000000001
 43
0.00000001
 40
0.0
 40
0.0
 40
0.0
 40
0.0
 40
0.732937950727191
 40
1.0
 40
1.0
 40
1.0
 40
1.0
 10
716.8237249668011
 20
71.7288938270943
 30
0.0
 10
716.975113608457
 20
71.74064847661197
 30
0.0
 10
717.1816640285923
 20
71.75668619099967
 30
0.0
 10
717.3370243707109
 20
71.88502349749365
 30
0.0
 10
717.3785152220528
 20
71.91929752156403
 30
0.0
  0
SPLINE
  5
166
330
1F
100
AcDbEntity
  8
0
  6
Continuous
 62
     7
370
    25
100
AcDbSpline
210
0.0
220
0.0
230
1.0
 70
     8
 71
     3
 72
    20
 73
    16
 74
     0
 42
0.000000001
 43
0.00000001
 40
0.0
 40
0.0
 40
0.0
 40
0.0
 40
0.1249999999999994
 40
0.1249999999999994
 40
0.2499999999999988
 40
0.2499999999999988
 40
0.3749999999999982
 40
0.3749999999999982
 40
0.4999999999999976
 40
0.4999999999999976
 40
0.7499999999999962
 40
0.7499999999999962
 40
0.8749999999999981
 40
0.8749999999999981
 40
1.0
 40
1.0
 40
1.0
 40
1.0
 10
716.8237249668011
 20
70.32889382709429
 30
0.0
 10
716.9821041544518
 20
70.32889382709429
 30
0.0
 10
717.1383498791434
 20
70.34443038756916
 30
0.0
 10
717.4463417285601
 20
70.40574873952973
 30
0.0
 10
717.5989858360313
 20
70.4521724851165
 30
0.0
 10
717.8880701252183
 20
70.57212335527069
 30
0.0
 10
718.0258746634024
 20
70.64572799955404
 30
0.0
 10
718.2874933390412
 20
70.82045836564963
 30
0.0
 10
718.4102396457239
 20
70.92130899455127
 30
0.0
 10
718.7415640226717
 20
71.25259427453526
 30
0.0
 10
718.9205751466998
 20
71.5202744359191
 30
0.0
 10
719.1001902460807
 20
71.95294846197439
 30
0.0
 10
719.1464345949485
 20
72.10446654882551
 30
0.0
 10
719.2081879009597
 20
72.41389230621171
 30
0.0
 10
719.2237249668011
 20
72.57051463590552
 30
0.0
 10
719.2237249668011
 20
72.7288938270943
 30
0.0
  0
SPLINE
  5
167
330
1F
100
AcDbEntity
  8
0
  6
Continuous
 62
     7
370
    25
100
AcDbSpline
210
0.0
220
0.0
230
1.0
 70
     8
 71
     3
 72
     9
 73
     5
 74
     0
 42
0.000000001
 43
0.00000001
 40
0.0
 40
0.0
 40
0.0
 40
0.0
 40
0.4825784287293119
 40
1.0
 40
1.0
 40
1.0
 40
1.0
 10
717.436264705979
 20
464.7050640590407
 30
0.0
 10
717.3481303646627
 20
464.7688722521022
 30
0.0
 10
717.1654982036098
 20
464.9010957193414
 30
0.0
 10
716.9402653195652
 20
464.9194150237979
 30
0.0
 10
716.8237249668011
 20
464.9288938270943
 30
0.0
  0
LINE
  5
168
330
1F
100
AcDbEntity
  8
0
  6
Continuous
 62
     7
370
    25
100
AcDbLine
 10
716.8237249668
 20
466.3288938271
 30
0.0
 11
716.8237249668
 21
464.9288938271
 31
0.0
  0
SPLINE
  5
169
330
1F
100
AcDbEntity
  8
0
  6
Continuous
 62
     7
370
    25
100
AcDbSpline
210
0.0
220
0.0
230
1.0
 70
     8
 71
     3
 72
    20
 73
    16
 74
     0
 42
0.000000001
 43
0.00000001
 40
0.0
 40
0.0
 40
0.0
 40
0.0
 40
0.125
 40
0.125
 40
0.2499999999999999
 40
0.2499999999999999
 40
0.3749999999999999
 40
0.3749999999999999
 40
0.4999999999999999
 40
0.4999999999999999
 40
0.7499999999999998
 40
0.7499999999999998
 40
0.8749999999999998
 40
0.8749999999999998
 40
1.0
 40
1.0
 40
1.0
 40
1.0
 10
719.2237249668011
 20
463.9288938270942
 30
0.0
 10
719.2237249668011
 20
464.0872730147451
 30
0.0
 10
719.2081884063263
 20
464.2435187394367
 30
0.0
 10
719.1468700543656
 20
464.5515105888534
 30
0.0
 10
719.1004463087789
 20
464.7041546963245
 30
0.0
 10
718.9804954386248
 20
464.9932389855116
 30
0.0
 10
718.9068907943413
 20
465.1310435236955
 30
0.0
 10
718.7321604282456
 20
465.3926621993344
 30
0.0
 10
718.6313097993441
 20
465.5154085060171
 30
0.0
 10
718.3000245193601
 20
465.8467328829647
 30
0.0
 10
718.0323443579764
 20
466.0257440069931
 30
0.0
 10
717.599670331921
 20
466.2053591063741
 30
0.0
 10
717.4481522450698
 20
466.2516034552416
 30
0.0
 10
717.1387264876836
 20
466.3133567612529
 30
0.0
 10
716.9821041579899
 20
466.3288938270943
 30
0.0
 10
716.8237249668011
 20
466.3288938270943
 30
0.0
  0
LINE
  5
16A
330
1F
100
AcDbEntity
  8
0
  6
Continuous
 62
     7
370
    25
100
AcDbLine
 10
716.8237249668
 20
464.9288938271
 30
0.0
 11
707.2237249668
 21
464.9288938271
 31
0.0
  0
LINE
  5
16B
330
1F
100
AcDbEntity
  8
0
  6
Continuous
 62
     7
370
    25
100
AcDbLine
 10
707.2237249668
 20
466.3288938271
 30
0.0
 11
707.2237249668
 21
464.9288938271
 31
0.0
  0
LINE
  5
16C
330
1F
100
AcDbEntity
  8
0
  6
Continuous
 62
     7
370
    25
100
AcDbLine
 10
716.8237249668
 20
466.3288938271
 30
0.0
 11
707.2237249668
 21
466.3288938271
 31
0.0
  0
LINE
  5
16D
330
1F
100
AcDbEntity
  8
0
  6
Continuous
 62
     7
370
    25
100
AcDbLine
 10
707.2237249668
 20
70.3288938271
 30
0.0
 11
707.2237249668
 21
71.7288938271
 31
0.0
  0
LINE
  5
16E
330
1F
100
AcDbEntity
  8
0
  6
Continuous
 62
     7
370
    25
100
AcDbLine
 10
716.8237249668
 20
71.7288938271
 30
0.0
 11
707.2237249668
 21
71.7288938271
 31
0.0
  0
LINE
  5
16F
330
1F
100
AcDbEntity
  8
0
  6
Continuous
 62
     7
370
    25
100
AcDbLine
 10
716.8237249668
 20
70.3288938271
 30
0.0
 11
707.2237249668
 21
70.3288938271
 31
0.0
  0
LINE
  5
170
330
1F
100
AcDbEntity
  8
0
  6
Continuous
 62
     7
370
    25
100
AcDbLine
 10
699.1237249668
 20
479.8288938271
 30
0.0
 11
703.1237249668
 21
479.8288938271
 31
0.0
  0
LINE
  5
171
330
1F
100
AcDbEntity
  8
0
  6
Continuous
 62
     7
370
    25
100
AcDbLine
 10
699.1237249668
 20
462.6288938271
 30
0.0
 11
699.1237249668
 21
479.8288938271
 31
0.0
  0
LINE
  5
172
330
1F
100
AcDbEntity
  8
0
  6
Continuous
 62
     7
370
    25
100
AcDbLine
 10
680.1237249668
 20
496.8288938271
 30
0.0
 11
680.1237249668
 21
462.6288938271
 31
0.0
  0
ARC
  5
173
330
1F
100
AcDbEntity
  8
0
  6
Continuous
 62
     7
370
    25
100
AcDbCircle
 10
683.1237249668
 20
496.8288938271
 30
0.0
 40
3.000000000000057
100
AcDbArc
 50
90.0
 51
180.0
  0
LINE
  5
174
330
1F
100
AcDbEntity
  8
0
  6
Continuous
 62
     7
370
    25
100
AcDbLine
 10
700.1237249668
 20
499.8288938271
 30
0.0
 11
683.1237249668
 21
499.8288938271
 31
0.0
  0
ARC
  5
175
330
1F
100
AcDbEntity
  8
0
  6
Continuous
 62
     7
370
    25
100
AcDbCircle
 10
700.1237249668
 20
496.8288938271
 30
0.0
 40
3.000000000000057
100
AcDbArc
 50
0.0
 51
90.0
  0
LINE
  5
176
330
1F
100
AcDbEntity
  8
0
  6
Continuous
 62
     7
370
    25
100
AcDbLine
 10
703.1237249668
 20
479.8288938271
 30
0.0
 11
703.1237249668
 21
496.8288938271
 31
0.0
  0
CIRCLE
  5
177
330
1F
100
AcDbEntity
  8
0
  6
Continuous
 62
     7
370
    25
100
AcDbCircle
 10
688.6237249668
 20
493.3288938271
 30
0.0
 40
3.250000000000057
  0
CIRCLE
  5
178
330
1F
100
AcDbEntity
  8
0
  6
Continuous
 62
     7
370
    25
100
AcDbCircle
 10
688.6237249668
 20
468.3288938271
 30
0.0
 40
3.250000000000057
  0
LINE
  5
179
330
1F
100
AcDbEntity
  8
0
  6
Continuous
 62
     7
370
    25
100
AcDbLine
 10
699.1237249668
 20
462.6288938271
 30
0.0
 11
699.1237249668
 21
460.8288938271
 31
0.0
  0
LINE
  5
17A
330
1F
100
AcDbEntity
  8
0
  6
Continuous
 62
     7
370
    25
100
AcDbLine
 10
699.1237249668
 20
460.8288938271
 30
0.0
 11
680.1237249668
 21
460.8288938271
 31
0.0
  0
LINE
  5
17B
330
1F
100
AcDbEntity
  8
0
  6
Continuous
 62
     7
370
    25
100
AcDbLine
 10
680.1237249668
 20
460.8288938271
 30
0.0
 11
680.1237249668
 21
462.6288938271
 31
0.0
  0
LINE
  5
17C
330
1F
100
AcDbEntity
  8
0
  6
Continuous
 62
     7
370
    25
100
AcDbLine
 10
699.1237249668
 20
461.6288938271
 30
0.0
 11
699.3237249668
 21
461.6288938271
 31
0.0
  0
LINE
  5
17D
330
1F
100
AcDbEntity
  8
0
  6
Continuous
 62
     7
370
    25
100
AcDbLine
 10
699.1237249668
 20
460.8288938271
 30
0.0
 11
699.3237249668
 21
460.8288938271
 31
0.0
  0
ARC
  5
17E
330
1F
100
AcDbEntity
  8
0
  6
Continuous
 62
     7
370
    25
100
AcDbCircle
 10
699.3237249668
 20
462.6288938271
 30
0.0
 40
1.0
100
AcDbArc
 50
270.0
 51
0.0
  0
ARC
  5
17F
330
1F
100
AcDbEntity
  8
0
  6
Continuous
 62
     7
370
    25
100
AcDbCircle
 10
699.3237249668
 20
462.6288938271
 30
0.0
 40
1.799999999999955
100
AcDbArc
 50
270.0
 51
0.0
  0
LINE
  5
180
330
1F
100
AcDbEntity
  8
0
  6
Continuous
 62
     7
370
    25
100
AcDbLine
 10
701.1237249668
 20
472.8288938271
 30
0.0
 11
700.3237249668
 21
472.8288938271
 31
0.0
  0
LINE
  5
181
330
1F
100
AcDbEntity
  8
0
  6
Continuous
 62
     7
370
    25
100
AcDbLine
 10
700.3237249668
 20
472.8288938271
 30
0.0
 11
700.3237249668
 21
462.6288938271
 31
0.0
  0
LINE
  5
182
330
1F
100
AcDbEntity
  8
0
  6
Continuous
 62
     7
370
    25
100
AcDbLine
 10
659.1237249668
 20
461.6288938271
 30
0.0
 11
680.1237249668
 21
461.6288938271
 31
0.0
  0
LINE
  5
183
330
1F
100
AcDbEntity
  8
0
  6
Continuous
 62
     7
370
    25
100
AcDbLine
 10
659.1237249668
 20
460.8288938271
 30
0.0
 11
680.1237249668
 21
460.8288938271
 31
0.0
  0
LINE
  5
184
330
1F
100
AcDbEntity
  8
0
  6
Continuous
 62
     7
370
    25
100
AcDbLine
 10
656.1237249668
 20
460.8288938271
 30
0.0
 11
656.1237249668
 21
461.6288938271
 31
0.0
  0
LINE
  5
185
330
1F
100
AcDbEntity
  8
0
  6
Continuous
 62
     7
370
    25
100
AcDbLine
 10
656.1237249668
 20
461.6288938271
 30
0.0
 11
659.1237249668
 21
461.6288938271
 31
0.0
  0
LINE
  5
186
330
1F
100
AcDbEntity
  8
0
  6
Continuous
 62
     7
370
    25
100
AcDbLine
 10
659.1237249668
 20
460.8288938271
 30
0.0
 11
656.1237249668
 21
460.8288938271
 31
0.0
  0
LINE
  5
187
330
1F
100
AcDbEntity
  8
0
  6
Continuous
 62
     7
370
    25
100
AcDbLine
 10
660.219111575
 20
465.0288938271
 30
0.0
 11
657.219111575
 21
465.0288938271
 31
0.0
  0
LINE
  5
188
330
1F
100
AcDbEntity
  8
0
  6
Continuous
 62
     7
370
    25
100
AcDbLine
 10
657.219111575
 20
465.0288938271
 30
0.0
 11
657.219111575
 21
465.8288938271
 31
0.0
  0
LINE
  5
189
330
1F
100
AcDbEntity
  8
0
  6
Continuous
 62
     7
370
    25
100
AcDbLine
 10
657.219111575
 20
465.8288938271
 30
0.0
 11
660.219111575
 21
465.8288938271
 31
0.0
  0
LINE
  5
18A
330
1F
100
AcDbEntity
  8
0
  6
Continuous
 62
     7
370
    25
100
AcDbLine
 10
660.219111575
 20
465.0288938271
 30
0.0
 11
666.7368030286
 21
465.0288938271
 31
0.0
  0
LINE
  5
18B
330
1F
100
AcDbEntity
  8
0
  6
Continuous
 62
     7
370
    25
100
AcDbLine
 10
660.219111575
 20
465.8288938271
 30
0.0
 11
666.7368030286
 21
465.8288938271
 31
0.0
  0
LINE
  5
18C
330
1F
100
AcDbEntity
  8
0
  6
Continuous
 62
     7
370
    25
100
AcDbLine
 10
674.2616741592
 20
461.7628684233
 30
0.0
 11
667.6368030286
 21
465.5877395539
 31
0.0
  0
LINE
  5
18D
330
1F
100
AcDbEntity
  8
0
  6
Continuous
 62
     7
370
    25
100
AcDbLine
 10
672.8937249668
 20
461.6288938271
 30
0.0
 11
667.2368030286
 21
464.8949192309
 31
0.0
  0
ARC
  5
18E
330
1F
100
AcDbEntity
  8
0
  6
Continuous
 62
     7
370
    25
100
AcDbCircle
 10
666.7368030286
 20
464.0288938271
 30
0.0
 40
0.9999999999999912
100
AcDbArc
 50
60.0
 51
90.0
  0
ARC
  5
18F
330
1F
100
AcDbEntity
  8
0
  6
Continuous
 62
     7
370
    25
100
AcDbCircle
 10
666.7368030286
 20
464.0288938271
 30
0.0
 40
1.799999999999969
100
AcDbArc
 50
60.0
 51
90.0
  0
ARC
  5
190
330
1F
100
AcDbEntity
  8
0
  6
Continuous
 62
     7
370
    25
100
AcDbCircle
 10
674.7616741592
 20
462.6288938271
 30
0.0
 40
1.0
100
AcDbArc
 50
240.0
 51
270.0
  0
SPLINE
  5
191
330
1F
100
AcDbEntity
  8
0
  6
Continuous
 62
     7
370
    25
100
AcDbSpline
210
0.0
220
0.0
230
1.0
 70
     8
 71
     3
 72
     9
 73
     5
 74
     0
 42
0.000000001
 43
0.00000001
 40
0.0
 40
0.0
 40
0.0
 40
0.0
 40
0.5982525856791702
 40
1.0
 40
1.0
 40
1.0
 40
1.0
 10
699.7090449814151
 20
464.3384626296675
 30
0.0
 10
699.8793054540954
 20
464.5959194233133
 30
0.0
 10
700.1639017546479
 20
465.0262674064374
 30
0.0
 10
699.8900449103786
 20
465.4544787407546
 30
0.0
 10
699.7800236312993
 20
465.6265115370994
 30
0.0
  0
LINE
  5
192
330
1F
100
AcDbEntity
  8
0
  6
Continuous
 62
     7
370
    25
100
AcDbLine
 10
700.2237249668
 20
466.1788938271
 30
0.0
 11
700.2237249668
 21
465.1788938271
 31
0.0
  0
LINE
  5
193
330
1F
100
AcDbEntity
  8
0
  6
Continuous
 62
     7
370
    25
100
AcDbLine
 10
699.1237249668
 20
464.3384626297
 30
0.0
 11
699.7090449814
 21
464.3384626297
 31
0.0
  0
LINE
  5
194
330
1F
100
AcDbEntity
  8
0
  6
Continuous
 62
     7
370
    25
100
AcDbLine
 10
699.1237249668
 20
470.769723149
 30
0.0
 11
699.7090449814
 21
470.769723149
 31
0.0
  0
SPLINE
  5
195
330
1F
100
AcDbEntity
  8
0
  6
Continuous
 62
     7
370
    25
100
AcDbSpline
210
0.0
220
0.0
230
1.0
 70
     8
 71
     3
 72
    14
 73
    10
 74
     0
 42
0.000000001
 43
0.00000001
 40
0.0
 40
0.0
 40
0.0
 40
0.0
 40
0.25
 40
0.25
 40
0.5
 40
0.5
 40
0.75
 40
0.75
 40
1.0
 40
1.0
 40
1.0
 40
1.0
 10
699.7090449814152
 20
470.7697231489649
 30
0.0
 10
699.8039195907259
 20
470.4452169196762
 30
0.0
 10
699.8835245156015
 20
470.1127576972819
 30
0.0
 10
699.9923611304957
 20
469.4461877823736
 30
0.0
 10
700.0216847361863
 20
469.1111115250984
 30
0.0
 10
700.0216199544407
 20
468.4367680548708
 30
0.0
 10
699.9914637611143
 20
468.0949886341917
 30
0.0
 10
699.8818785597485
 20
467.4285747145871
 30
0.0
 10
699.8033355859465
 20
467.1018006686343
 30
0.0
 10
699.7090449814152
 20
466.779291951538
 30
0.0
  0
LINE
  5
196
330
1F
100
AcDbEntity
  8
0
  6
Continuous
 62
     7
370
    25
100
AcDbLine
 10
699.1237249668
 20
466.7792919515
 30
0.0
 11
699.7090449814
 21
466.7792919515
 31
0.0
  0
SPLINE
  5
197
330
1F
100
AcDbEntity
  8
0
  6
Continuous
 62
     7
370
    25
100
AcDbSpline
210
0.0
220
0.0
230
1.0
 70
     8
 71
     3
 72
    12
 73
     8
 74
     0
 42
0.000000001
 43
0.00000001
 40
0.0
 40
0.0
 40
0.0
 40
0.0
 40
0.5000000000000131
 40
0.5000000000000131
 40
0.7500000000000066
 40
0.7500000000000066
 40
1.0
 40
1.0
 40
1.0
 40
1.0
 10
699.7090449814161
 20
465.3384626296674
 30
0.0
 10
699.8995392708397
 20
465.5737224221106
 30
0.0
 10
700.021213683902
 20
465.812507114961
 30
0.0
 10
700.0218698744333
 20
466.179998647518
 30
0.0
 10
699.9920358726389
 20
466.3023708421674
 30
0.0
 10
699.8831060025313
 20
466.5427545273268
 30
0.0
 10
699.8044108154684
 20
466.6615154743885
 30
0.0
 10
699.7090449814157
 20
466.779291951538
 30
0.0
  0
SPLINE
  5
198
330
1F
100
AcDbEntity
  8
0
  6
Continuous
 62
     7
370
    25
100
AcDbSpline
210
0.0
220
0.0
230
1.0
 70
     8
 71
     3
 72
    12
 73
     8
 74
     0
 42
0.000000001
 43
0.00000001
 40
0.0
 40
0.0
 40
0.0
 40
0.0
 40
0.4999999999999984
 40
0.4999999999999984
 40
0.7499999999999992
 40
0.7499999999999992
 40
1.0
 40
1.0
 40
1.0
 40
1.0
 10
699.7090449814161
 20
470.7697231489648
 30
0.0
 10
699.8995392708397
 20
471.1860242326193
 30
0.0
 10
700.021213683902
 20
471.6085627606076
 30
0.0
 10
700.0218698744333
 20
472.2588529000685
 30
0.0
 10
699.9920358726389
 20
472.475395117983
 30
0.0
 10
699.8831060025313
 20
472.9007631232233
 30
0.0
 10
699.8044108154684
 20
473.1109151022085
 30
0.0
 10
699.7090449814157
 20
473.3193250245212
 30
0.0
  0
LINE
  5
199
330
1F
100
AcDbEntity
  8
0
  6
Continuous
 62
     7
370
    25
100
AcDbLine
 10
699.7090449814
 20
473.3193250245
 30
0.0
 11
699.8069200187
 21
473.0764202742
 31
0.0
  0
LINE
  5
19A
330
1F
100
AcDbEntity
  8
0
  6
Continuous
 62
     7
370
    25
100
AcDbLine
 10
700.2237249668
 20
468.8299461779
 30
0.0
 11
700.2237249668
 21
466.1788938271
 31
0.0
  0
LINE
  5
19B
330
1F
100
AcDbEntity
  8
0
  6
Continuous
 62
     7
370
    25
100
AcDbLine
 10
700.2237249668
 20
472.4788938271
 30
0.0
 11
700.2237249668
 21
468.8299461779
 31
0.0
  0
LINE
  5
19C
330
1F
100
AcDbEntity
  8
0
  6
Continuous
 62
     7
370
    25
100
AcDbLine
 10
699.1237249668
 20
473.3193250245
 30
0.0
 11
699.7090449814
 21
473.3193250245
 31
0.0
  0
LINE
  5
19D
330
1F
100
AcDbEntity
  8
0
  6
Continuous
 62
     7
370
    25
100
AcDbLine
 10
699.1237249668
 20
465.3384626297
 30
0.0
 11
699.7090449814
 21
465.3384626297
 31
0.0
  0
LINE
  5
19E
330
1F
100
AcDbEntity
  8
0
  6
Continuous
 62
     7
370
    25
100
AcDbLine
 10
707.6737249668
 20
477.6288938271
 30
0.0
 11
712.8237249668
 21
477.6288938271
 31
0.0
  0
LINE
  5
19F
330
1F
100
AcDbEntity
  8
0
  6
Continuous
 62
     7
370
    25
100
AcDbLine
 10
707.6737249668
 20
478.4288938271
 30
0.0
 11
707.6737249668
 21
477.6288938271
 31
0.0
  0
LINE
  5
1A0
330
1F
100
AcDbEntity
  8
0
  6
Continuous
 62
     7
370
    25
100
AcDbLine
 10
707.6737249668
 20
478.4288938271
 30
0.0
 11
712.8237249668
 21
478.4288938271
 31
0.0
  0
LINE
  5
1A1
330
1F
100
AcDbEntity
  8
0
  6
Continuous
 62
     7
370
    25
100
AcDbLine
 10
712.8237249668
 20
478.4288938271
 30
0.0
 11
712.8237249668
 21
478.5288938271
 31
0.0
  0
LINE
  5
1A2
330
1F
100
AcDbEntity
  8
0
  6
Continuous
 62
     7
370
    25
100
AcDbLine
 10
702.9237249668
 20
478.5288938271
 30
0.0
 11
712.8237249668
 21
478.5288938271
 31
0.0
  0
LINE
  5
1A3
330
1F
100
AcDbEntity
  8
0
  6
Continuous
 62
     7
370
    25
100
AcDbLine
 10
702.9237249668
 20
478.5288938271
 30
0.0
 11
702.9237249668
 21
479.3288938271
 31
0.0
  0
LINE
  5
1A4
330
1F
100
AcDbEntity
  8
0
  6
Continuous
 62
     7
370
    25
100
AcDbLine
 10
712.8237249668
 20
479.3288938271
 30
0.0
 11
702.9237249668
 21
479.3288938271
 31
0.0
  0
ARC
  5
1A5
330
1F
100
AcDbEntity
  8
0
  6
Continuous
 62
     7
370
    25
100
AcDbCircle
 10
712.8237249668
 20
478.4788938271
 30
0.0
 40
0.8500000000000227
100
AcDbArc
 50
270.0
 51
90.0
  0
LINE
  5
1A6
330
1F
100
AcDbEntity
  8
0
  6
Continuous
 62
     7
370
    25
100
AcDbLine
 10
702.9237249668
 20
459.3288938271
 30
0.0
 11
702.9237249668
 21
460.1288938271
 31
0.0
  0
LINE
  5
1A7
330
1F
100
AcDbEntity
  8
0
  6
Continuous
 62
     7
370
    25
100
AcDbLine
 10
707.2237249668
 20
460.1288938271
 30
0.0
 11
702.9237249668
 21
460.1288938271
 31
0.0
  0
LINE
  5
1A8
330
1F
100
AcDbEntity
  8
0
  6
Continuous
 62
     7
370
    25
100
AcDbLine
 10
707.2237249668
 20
459.3288938271
 30
0.0
 11
702.9237249668
 21
459.3288938271
 31
0.0
  0
ARC
  5
1A9
330
1F
100
AcDbEntity
  8
0
  6
Continuous
 62
     7
370
    25
100
AcDbCircle
 10
702.9237249668
 20
477.5288938271
 30
0.0
 40
1.0
100
AcDbArc
 50
90.0
 51
180.0
  0
LINE
  5
1AA
330
1F
100
AcDbEntity
  8
0
  6
Continuous
 62
     7
370
    25
100
AcDbLine
 10
701.9237249668
 20
477.5288938271
 30
0.0
 11
701.9237249668
 21
461.1288938271
 31
0.0
  0
LINE
  5
1AB
330
1F
100
AcDbEntity
  8
0
  6
Continuous
 62
     7
370
    25
100
AcDbLine
 10
701.1237249668
 20
461.1288938271
 30
0.0
 11
701.1237249668
 21
477.5288938271
 31
0.0
  0
ARC
  5
1AC
330
1F
100
AcDbEntity
  8
0
  6
Continuous
 62
     7
370
    25
100
AcDbCircle
 10
702.9237249668
 20
461.1288938271
 30
0.0
 40
1.800000000000125
100
AcDbArc
 50
180.0
 51
270.0
  0
ARC
  5
1AD
330
1F
100
AcDbEntity
  8
0
  6
Continuous
 62
     7
370
    25
100
AcDbCircle
 10
702.9237249668
 20
461.1288938271
 30
0.0
 40
1.0
100
AcDbArc
 50
180.0
 51
270.0
  0
ARC
  5
1AE
330
1F
100
AcDbEntity
  8
0
  6
Continuous
 62
     7
370
    25
100
AcDbCircle
 10
702.9237249668
 20
477.5288938271
 30
0.0
 40
1.800000000000068
100
AcDbArc
 50
90.0
 51
180.0
  0
CIRCLE
  5
1AF
330
1F
100
AcDbEntity
  8
0
  6
Continuous
 62
     7
370
    25
100
AcDbCircle
 10
688.6237249668
 20
468.3288938271
 30
0.0
 40
2.458750000016702
  0
CIRCLE
  5
1B0
330
1F
100
AcDbEntity
  8
0
  6
Continuous
 62
     7
370
    25
100
AcDbCircle
 10
688.6237249668
 20
468.3288938271
 30
0.0
 40
2.99999999999999
  0
LINE
  5
1B1
330
1F
100
AcDbEntity
  8
0
  6
Continuous
 62
     7
370
    25
100
AcDbLine
 10
703.9237249668
 20
464.3288938271
 30
0.0
 11
703.9237249668
 21
465.3288938271
 31
0.0
  0
ARC
  5
1B2
330
1F
100
AcDbEntity
  8
0
  6
Continuous
 62
     7
370
    25
100
AcDbCircle
 10
697.1904327241
 20
468.233426286
 30
0.0
 40
7.782575633204111
100
AcDbArc
 50
4.3688678554
 51
10.7722856322
  0
ARC
  5
1B3
330
1F
100
AcDbEntity
  8
0
  6
Continuous
 62
     7
370
    25
100
AcDbCircle
 10
704.5007113849
 20
467.8911570255
 30
0.0
 40
0.514371518919471
100
AcDbArc
 50
301.022192935
 51
330.9549082648
  0
ARC
  5
1B4
330
1F
100
AcDbEntity
  8
0
  6
Continuous
 62
     7
370
    25
100
AcDbCircle
 10
697.1867450691
 20
468.234756552
 30
0.0
 40
7.786288415095068
100
AcDbArc
 50
344.7700996206
 51
355.6297472936
  0
ARC
  5
1B5
330
1F
100
AcDbEntity
  8
0
  6
Continuous
 62
     7
370
    25
100
AcDbCircle
 10
704.5664911882
 20
466.2632914503
 30
0.0
 40
0.152243242057156
100
AcDbArc
 50
330.9451665854
 51
359.144911653
  0
LWPOLYLINE
  5
1B6
330
1F
100
AcDbEntity
  8
0
  6
Continuous
 62
     7
370
    25
100
AcDbPolyline
 90
        3
 70
   128
 43
0.0
 10
704.9503944571
 20
467.8315060821
 10
704.9341696084
 20
467.6478077533
 10
704.9335274653
 20
467.6414307872
  0
ARC
  5
1B7
330
1F
100
AcDbEntity
  8
0
  6
Continuous
 62
     7
370
    25
100
AcDbCircle
 10
704.599927479
 20
467.6532693829
 30
0.0
 40
0.3931862455371851
100
AcDbArc
 50
26.9564850663
 51
47.5683402344
  0
ARC
  5
1B8
330
1F
100
AcDbEntity
  8
0
  6
Continuous
 62
     7
370
    25
100
AcDbCircle
 10
697.1912210518
 20
468.4235879922
 30
0.0
 40
7.781783013645874
100
AcDbArc
 50
4.3686756304
 51
9.5474944847
  0
LINE
  5
1B9
330
1F
100
AcDbEntity
  8
0
  6
Continuous
 62
     7
370
    25
100
AcDbLine
 10
704.9503944571
 20
467.6414307872
 30
0.0
 11
704.8082627472
 21
467.6414307872
 31
0.0
  0
LINE
  5
1BA
330
1F
100
AcDbEntity
  8
0
  6
Continuous
 62
     7
370
    25
100
AcDbLine
 10
704.9503944571
 20
469.016356867
 30
0.0
 11
704.9335274653
 21
469.016356867
 31
0.0
  0
LINE
  5
1BB
330
1F
100
AcDbEntity
  8
0
  6
Continuous
 62
     7
370
    25
100
AcDbLine
 10
704.9503944571
 20
467.8315060821
 30
0.0
 11
704.8455411082
 21
467.8315060821
 31
0.0
  0
LINE
  5
1BC
330
1F
100
AcDbEntity
  8
0
  6
Continuous
 62
     7
370
    25
100
AcDbLine
 10
703.9237249668
 20
473.2783964431
 30
0.0
 11
703.9237249668
 21
473.3288938271
 31
0.0
  0
LINE
  5
1BD
330
1F
100
AcDbEntity
  8
0
  6
Continuous
 62
     7
370
    25
100
AcDbLine
 10
703.9237249668
 20
465.3288938271
 30
0.0
 11
703.9237249668
 21
473.2783964431
 31
0.0
  0
ARC
  5
1BE
330
1F
100
AcDbEntity
  8
0
  6
Continuous
 62
     7
370
    25
100
AcDbCircle
 10
697.1867450691
 20
469.2329558072
 30
0.0
 40
7.786288415104027
100
AcDbArc
 50
4.3702527064
 51
15.2299003794
  0
ARC
  5
1BF
330
1F
100
AcDbEntity
  8
0
  6
Continuous
 62
     7
370
    25
100
AcDbCircle
 10
704.4260015326
 20
470.1394094095
 30
0.0
 40
0.6107675350075551
100
AcDbArc
 50
296.6101963367
 51
329.1575418587
  0
ARC
  5
1C0
330
1F
100
AcDbEntity
  8
0
  6
Continuous
 62
     7
370
    25
100
AcDbCircle
 10
695.6199393911
 20
469.0009123145
 30
0.0
 40
9.098942710266396
100
AcDbArc
 50
356.2668736478
 51
3.7331263522
  0
ARC
  5
1C1
330
1F
100
AcDbEntity
  8
0
  6
Continuous
 62
     7
370
    25
100
AcDbCircle
 10
704.4260015326
 20
468.9545586247
 30
0.0
 40
0.6107675350089282
100
AcDbArc
 50
296.6101963367
 51
329.1575418587
  0
ARC
  5
1C2
330
1F
100
AcDbEntity
  8
0
  6
Continuous
 62
     7
370
    25
100
AcDbCircle
 10
697.186745069
 20
469.234756552
 30
0.0
 40
7.786288415106435
100
AcDbArc
 50
344.7700996206
 51
355.6297472936
  0
ARC
  5
1C3
330
1F
100
AcDbEntity
  8
0
  6
Continuous
 62
     7
370
    25
100
AcDbCircle
 10
704.5664911882
 20
467.2632914503
 30
0.0
 40
0.1522432420621306
100
AcDbArc
 50
330.9451665857
 51
359.1449116559
  0
LWPOLYLINE
  5
1C4
330
1F
100
AcDbEntity
  8
0
  6
Continuous
 62
     7
370
    25
100
AcDbPolyline
 90
        3
 70
   128
 43
0.0
 10
704.9503944571
 20
468.8315060821
 10
704.9341696084
 20
468.6478077533
 10
704.9335274653
 20
468.6414307872
  0
ARC
  5
1C5
330
1F
100
AcDbEntity
  8
0
  6
Continuous
 62
     7
370
    25
100
AcDbCircle
 10
704.4260015326
 20
468.5183782446
 30
0.0
 40
0.6107675350088265
100
AcDbArc
 50
30.8424581413
 51
63.3898036633
  0
ARC
  5
1C6
330
1F
100
AcDbEntity
  8
0
  6
Continuous
 62
     7
370
    25
100
AcDbCircle
 10
695.5430676105
 20
469.659891196
 30
0.0
 40
9.175815044398757
100
AcDbArc
 50
357.9327321273
 51
359.6562101037
  0
ARC
  5
1C7
330
1F
100
AcDbEntity
  8
0
  6
Continuous
 62
     7
370
    25
100
AcDbCircle
 10
697.1867450691
 20
469.4230311022
 30
0.0
 40
7.78628841509621
100
AcDbArc
 50
4.3702527064
 51
15.2299003794
  0
ARC
  5
1C8
330
1F
100
AcDbEntity
  8
0
  6
Continuous
 62
     7
370
    25
100
AcDbCircle
 10
704.4784534018
 20
471.3733949434
 30
0.0
 40
0.2406805056727235
100
AcDbArc
 50
336.7420981705
 51
23.2579018295
  0
LINE
  5
1C9
330
1F
100
AcDbEntity
  8
0
  6
Continuous
 62
     7
370
    25
100
AcDbLine
 10
704.9503944571
 20
468.6414307872
 30
0.0
 11
704.7118387992
 21
468.6414307872
 31
0.0
  0
LINE
  5
1CA
330
1F
100
AcDbEntity
  8
0
  6
Continuous
 62
     7
370
    25
100
AcDbLine
 10
704.9503944571
 20
470.016356867
 30
0.0
 11
704.9335274653
 21
470.016356867
 31
0.0
  0
LINE
  5
1CB
330
1F
100
AcDbEntity
  8
0
  6
Continuous
 62
     7
370
    25
100
AcDbLine
 10
704.9503944571
 20
468.8315060821
 30
0.0
 11
704.7173441407
 21
468.8315060821
 31
0.0
  0
LINE
  5
1CC
330
1F
100
AcDbEntity
  8
0
  6
Continuous
 62
     7
370
    25
100
AcDbLine
 10
680.7237249668
 20
404.838084141
 30
0.0
 11
680.7237249668
 21
405.5221244276
 31
0.0
  0
ARC
  5
1CD
330
1F
100
AcDbEntity
  8
0
  6
Continuous
 62
     7
370
    25
100
AcDbCircle
 10
682.6652360776
 20
405.5843670035
 30
0.0
 40
1.94250856665536
100
AcDbArc
 50
181.8362067977
 51
271.7254354149
  0
ARC
  5
1CE
330
1F
100
AcDbEntity
  8
0
  6
Continuous
 62
     7
370
    25
100
AcDbCircle
 10
682.6652360776
 20
404.9003267168
 30
0.0
 40
1.942508566655362
100
AcDbArc
 50
181.8362067977
 51
271.7254354149
  0
LINE
  5
1CF
330
1F
100
AcDbEntity
  8
0
  6
Continuous
 62
     7
370
    25
100
AcDbLine
 10
680.7237249668
 20
405.5221244276
 30
0.0
 11
680.7237249668
 21
410.6632006645
 31
0.0
  0
LINE
  5
1D0
330
1F
100
AcDbEntity
  8
0
  6
Continuous
 62
     7
370
    25
100
AcDbLine
 10
696.7237249668
 20
410.6632006645
 30
0.0
 11
696.7237249668
 21
405.5221244276
 31
0.0
  0
ARC
  5
1D1
330
1F
100
AcDbEntity
  8
0
  6
Continuous
 62
     7
370
    25
100
AcDbCircle
 10
694.782213856
 20
405.5843670035
 30
0.0
 40
1.942508566655358
100
AcDbArc
 50
268.2745645851
 51
358.1637932023
  0
LINE
  5
1D2
330
1F
100
AcDbEntity
  8
0
  6
Continuous
 62
     7
370
    25
100
AcDbLine
 10
694.7237249668
 20
403.642739186
 30
0.0
 11
682.7237249668
 21
403.642739186
 31
0.0
  0
LINE
  5
1D3
330
1F
100
AcDbEntity
  8
0
  6
Continuous
 62
     7
370
    25
100
AcDbLine
 10
694.7237249668
 20
402.9586988994
 30
0.0
 11
682.7237249668
 21
402.9586988994
 31
0.0
  0
LINE
  5
1D4
330
1F
100
AcDbEntity
  8
0
  6
Continuous
 62
     7
370
    25
100
AcDbLine
 10
696.7237249668
 20
405.5221244276
 30
0.0
 11
696.7237249668
 21
404.838084141
 31
0.0
  0
ARC
  5
1D5
330
1F
100
AcDbEntity
  8
0
  6
Continuous
 62
     7
370
    25
100
AcDbCircle
 10
694.782213856
 20
404.9003267168
 30
0.0
 40
1.942508566655127
100
AcDbArc
 50
268.2745645851
 51
358.1637932023
  0
LINE
  5
1D6
330
1F
100
AcDbEntity
  8
0
  6
Continuous
 62
     7
370
    25
100
AcDbLine
 10
696.7237249668
 20
410.6632006645
 30
0.0
 11
696.7237249668
 21
411.0052208078
 31
0.0
  0
LINE
  5
1D7
330
1F
100
AcDbEntity
  8
0
  6
Continuous
 62
     7
370
    25
100
AcDbLine
 10
680.7237249668
 20
411.0052208078
 30
0.0
 11
680.7237249668
 21
410.6632006645
 31
0.0
  0
LINE
  5
1D8
330
1F
100
AcDbEntity
  8
0
  6
Continuous
 62
     7
370
    25
100
AcDbLine
 10
696.7237249668
 20
410.8288938271
 30
0.0
 11
707.2237249668
 21
410.8288938271
 31
0.0
  0
LINE
  5
1D9
330
1F
100
AcDbEntity
  8
0
  6
Continuous
 62
     7
370
    25
100
AcDbLine
 10
680.7237249668
 20
423.8288938271
 30
0.0
 11
680.7237249668
 21
411.0052208078
 31
0.0
  0
ARC
  5
1DA
330
1F
100
AcDbEntity
  8
0
  6
Continuous
 62
     7
370
    25
100
AcDbCircle
 10
682.7237249668
 20
423.8288938271
 30
0.0
 40
2.0
100
AcDbArc
 50
90.0
 51
180.0
  0
LINE
  5
1DB
330
1F
100
AcDbEntity
  8
0
  6
Continuous
 62
     7
370
    25
100
AcDbLine
 10
707.2237249668
 20
425.8288938271
 30
0.0
 11
682.7237249668
 21
425.8288938271
 31
0.0
  0
CIRCLE
  5
1DC
330
1F
100
AcDbEntity
  8
0
  6
Continuous
 62
     7
370
    25
100
AcDbCircle
 10
688.6237249668
 20
418.3288938271
 30
0.0
 40
3.5
  0
CIRCLE
  5
1DD
330
1F
100
AcDbEntity
  8
0
  6
Continuous
 62
     7
370
    25
100
AcDbCircle
 10
688.6237249668
 20
118.3288938271
 30
0.0
 40
2.458750000016497
  0
CIRCLE
  5
1DE
330
1F
100
AcDbEntity
  8
0
  6
Continuous
 62
     7
370
    25
100
AcDbCircle
 10
688.6237249668
 20
118.3288938271
 30
0.0
 40
3.000000000000008
  0
LINE
  5
1DF
330
1F
100
AcDbEntity
  8
0
  6
Continuous
 62
     7
370
    25
100
AcDbLine
 10
680.7237249668
 20
125.9945869897
 30
0.0
 11
680.7237249668
 21
131.1356632266
 31
0.0
  0
ARC
  5
1E0
330
1F
100
AcDbEntity
  8
0
  6
Continuous
 62
     7
370
    25
100
AcDbCircle
 10
682.6652360776
 20
131.0734206507
 30
0.0
 40
1.942508566655363
100
AcDbArc
 50
88.2745645851
 51
178.1637932023
  0
LINE
  5
1E1
330
1F
100
AcDbEntity
  8
0
  6
Continuous
 62
     7
370
    25
100
AcDbLine
 10
682.7237249668
 20
133.0150484681
 30
0.0
 11
694.7237249668
 21
133.0150484681
 31
0.0
  0
ARC
  5
1E2
330
1F
100
AcDbEntity
  8
0
  6
Continuous
 62
     7
370
    25
100
AcDbCircle
 10
694.782213856
 20
131.0734206507
 30
0.0
 40
1.942508566655244
100
AcDbArc
 50
1.8362067977
 51
91.7254354149
  0
LINE
  5
1E3
330
1F
100
AcDbEntity
  8
0
  6
Continuous
 62
     7
370
    25
100
AcDbLine
 10
696.7237249668
 20
131.1356632266
 30
0.0
 11
696.7237249668
 21
125.9945869897
 31
0.0
  0
LINE
  5
1E4
330
1F
100
AcDbEntity
  8
0
  6
Continuous
 62
     7
370
    25
100
AcDbLine
 10
682.7237249668
 20
133.6990887548
 30
0.0
 11
694.7237249668
 21
133.6990887548
 31
0.0
  0
LINE
  5
1E5
330
1F
100
AcDbEntity
  8
0
  6
Continuous
 62
     7
370
    25
100
AcDbLine
 10
680.7237249668
 20
131.1356632266
 30
0.0
 11
680.7237249668
 21
131.8197035132
 31
0.0
  0
ARC
  5
1E6
330
1F
100
AcDbEntity
  8
0
  6
Continuous
 62
     7
370
    25
100
AcDbCircle
 10
682.6652360776
 20
131.7574609374
 30
0.0
 40
1.94250856665541
100
AcDbArc
 50
88.2745645851
 51
178.1637932023
  0
LINE
  5
1E7
330
1F
100
AcDbEntity
  8
0
  6
Continuous
 62
     7
370
    25
100
AcDbLine
 10
696.7237249668
 20
131.8197035132
 30
0.0
 11
696.7237249668
 21
131.1356632266
 31
0.0
  0
ARC
  5
1E8
330
1F
100
AcDbEntity
  8
0
  6
Continuous
 62
     7
370
    25
100
AcDbCircle
 10
694.782213856
 20
131.7574609374
 30
0.0
 40
1.942508566655245
100
AcDbArc
 50
1.8362067977
 51
91.7254354149
  0
LINE
  5
1E9
330
1F
100
AcDbEntity
  8
0
  6
Continuous
 62
     7
370
    25
100
AcDbLine
 10
696.7237249668
 20
125.6525668464
 30
0.0
 11
696.7237249668
 21
125.9945869897
 31
0.0
  0
LINE
  5
1EA
330
1F
100
AcDbEntity
  8
0
  6
Continuous
 62
     7
370
    25
100
AcDbLine
 10
680.7237249668
 20
125.9945869897
 30
0.0
 11
680.7237249668
 21
125.6525668464
 31
0.0
  0
LINE
  5
1EB
330
1F
100
AcDbEntity
  8
0
  6
Continuous
 62
     7
370
    25
100
AcDbLine
 10
707.2237249668
 20
125.8288938271
 30
0.0
 11
696.7237249668
 21
125.8288938271
 31
0.0
  0
LINE
  5
1EC
330
1F
100
AcDbEntity
  8
0
  6
Continuous
 62
     7
370
    25
100
AcDbLine
 10
682.7237249668
 20
110.8288938271
 30
0.0
 11
707.2237249668
 21
110.8288938271
 31
0.0
  0
CIRCLE
  5
1ED
330
1F
100
AcDbEntity
  8
0
  6
Continuous
 62
     7
370
    25
100
AcDbCircle
 10
688.6237249668
 20
118.3288938271
 30
0.0
 40
3.499999999999886
  0
LINE
  5
1EE
330
1F
100
AcDbEntity
  8
0
  6
Continuous
 62
     7
370
    25
100
AcDbLine
 10
680.7237249668
 20
125.6525668464
 30
0.0
 11
680.7237249668
 21
112.8288938271
 31
0.0
  0
ARC
  5
1EF
330
1F
100
AcDbEntity
  8
0
  6
Continuous
 62
     7
370
    25
100
AcDbCircle
 10
682.7237249668
 20
112.8288938271
 30
0.0
 40
2.0
100
AcDbArc
 50
180.0
 51
270.0
  0
CIRCLE
  5
1F0
330
1F
100
AcDbEntity
  8
0
  6
Continuous
 62
     7
370
    25
100
AcDbCircle
 10
688.6237249668
 20
493.3288938271
 30
0.0
 40
2.458750000016599
  0
CIRCLE
  5
1F1
330
1F
100
AcDbEntity
  8
0
  6
Continuous
 62
     7
370
    25
100
AcDbCircle
 10
688.6237249668
 20
493.3288938271
 30
0.0
 40
3.000000000000015
  0
CIRCLE
  5
1F2
330
1F
100
AcDbEntity
  8
0
  6
Continuous
 62
     7
370
    25
100
AcDbCircle
 10
688.6237249668
 20
418.3288938271
 30
0.0
 40
2.458750000016497
  0
CIRCLE
  5
1F3
330
1F
100
AcDbEntity
  8
0
  6
Continuous
 62
     7
370
    25
100
AcDbCircle
 10
688.6237249668
 20
418.3288938271
 30
0.0
 40
3.000000000000015
  0
ARC
  5
1F4
330
1F
100
AcDbEntity
  8
0
  6
Continuous
 62
     7
370
    25
100
AcDbCircle
 10
564.2433501725
 20
587.2523240477
 30
0.0
 40
0.5
100
AcDbArc
 50
180.0
 51
0.0
  0
ARC
  5
1F5
330
1F
100
AcDbEntity
  8
0
  6
Continuous
 62
     7
370
    25
100
AcDbCircle
 10
564.2433501725
 20
598.8523240479
 30
0.0
 40
0.5000000000001137
100
AcDbArc
 50
0.0
 51
180.0
  0
LINE
  5
1F6
330
1F
100
AcDbEntity
  8
0
  6
Continuous
 62
     7
370
    25
100
AcDbLine
 10
559.9709316097
 20
598.4465066599
 30
0.0
 11
559.7433501725
 21
598.0523240478
 31
0.0
  0
LINE
  5
1F7
330
1F
100
AcDbEntity
  8
0
  6
Continuous
 62
     7
370
    25
100
AcDbLine
 10
574.2021001725
 20
590.0523240478
 30
0.0
 11
574.7433501725
 21
590.5935740478
 31
0.0
  0
LINE
  5
1F8
330
1F
100
AcDbEntity
  8
0
  6
Continuous
 62
     7
370
    25
100
AcDbLine
 10
574.7433501725
 20
595.5110740478
 30
0.0
 11
574.2021001725
 21
596.0523240478
 31
0.0
  0
LINE
  5
1F9
330
1F
100
AcDbEntity
  8
0
  6
Continuous
 62
     7
370
    25
100
AcDbLine
 10
574.2021001725
 20
596.0523240478
 30
0.0
 11
566.7433501725
 21
596.0523240478
 31
0.0
  0
LINE
  5
1FA
330
1F
100
AcDbEntity
  8
0
  6
Continuous
 62
     7
370
    25
100
AcDbLine
 10
566.7433501725
 20
590.0523240478
 30
0.0
 11
574.2021001725
 21
590.0523240478
 31
0.0
  0
LINE
  5
1FB
330
1F
100
AcDbEntity
  8
0
  6
Continuous
 62
     7
370
    25
100
AcDbLine
 10
559.7433501725
 20
588.0523240478
 30
0.0
 11
559.9709316097
 21
587.6581414357
 31
0.0
  0
LINE
  5
1FC
330
1F
100
AcDbEntity
  8
0
  6
Continuous
 62
     7
370
    25
100
AcDbLine
 10
551.3748974581
 20
607.1523240478
 30
0.0
 11
551.8748974581
 21
606.6523240478
 31
0.0
  0
LINE
  5
1FD
330
1F
100
AcDbEntity
  8
0
  6
Continuous
 62
     7
370
    25
100
AcDbLine
 10
551.3748974581
 20
611.1523240478
 30
0.0
 11
551.3748974581
 21
607.1523240478
 31
0.0
  0
LINE
  5
1FE
330
1F
100
AcDbEntity
  8
0
  6
Continuous
 62
     7
370
    25
100
AcDbLine
 10
557.1547342479
 20
607.1523240478
 30
0.0
 11
557.1547342479
 21
611.1523240478
 31
0.0
  0
LINE
  5
1FF
330
1F
100
AcDbEntity
  8
0
  6
Continuous
 62
     7
370
    25
100
AcDbLine
 10
556.6547342479
 20
606.6523240478
 30
0.0
 11
557.1547342479
 21
607.1523240478
 31
0.0
  0
LINE
  5
200
330
1F
100
AcDbEntity
  8
0
  6
Continuous
 62
     7
370
    25
100
AcDbLine
 10
551.4312394199
 20
607.1523240478
 30
0.0
 11
551.9312394199
 21
606.6523240478
 31
0.0
  0
LINE
  5
201
330
1F
100
AcDbEntity
  8
0
  6
Continuous
 62
     7
370
    25
100
AcDbLine
 10
551.4312394199
 20
611.1523240478
 30
0.0
 11
551.4312394199
 21
607.1523240478
 31
0.0
  0
LINE
  5
202
330
1F
100
AcDbEntity
  8
0
  6
Continuous
 62
     7
370
    25
100
AcDbLine
 10
273.5812351183
 20
606.6523240478
 30
0.0
 11
274.0812351183
 21
607.1523240478
 31
0.0
  0
LINE
  5
203
330
1F
100
AcDbEntity
  8
0
  6
Continuous
 62
     7
370
    25
100
AcDbLine
 10
274.0812351183
 20
607.1523240478
 30
0.0
 11
274.0812351183
 21
611.1523240478
 31
0.0
  0
LINE
  5
204
330
1F
100
AcDbEntity
  8
0
  6
Continuous
 62
     7
370
    25
100
AcDbLine
 10
268.351690434
 20
611.1523240478
 30
0.0
 11
268.351690434
 21
607.1523240478
 31
0.0
  0
LINE
  5
205
330
1F
100
AcDbEntity
  8
0
  6
Continuous
 62
     7
370
    25
100
AcDbLine
 10
268.351690434
 20
607.1523240478
 30
0.0
 11
268.851690434
 21
606.6523240478
 31
0.0
  0
LINE
  5
206
330
1F
100
AcDbEntity
  8
0
  6
Continuous
 62
     7
370
    25
100
AcDbLine
 10
574.4021001725
 20
596.0523240478
 30
0.0
 11
574.2021001725
 21
596.0523240478
 31
0.0
  0
LINE
  5
207
330
1F
100
AcDbEntity
  8
0
  6
Continuous
 62
     7
370
    25
100
AcDbLine
 10
574.2021001725
 20
590.0523240478
 30
0.0
 11
574.4021001725
 21
590.0523240478
 31
0.0
  0
LINE
  5
208
330
1F
100
AcDbEntity
  8
0
  6
Continuous
 62
     7
370
    25
100
AcDbLine
 10
574.4021001725
 20
590.0523240478
 30
0.0
 11
574.9433501725
 21
590.5935740478
 31
0.0
  0
LINE
  5
209
330
1F
100
AcDbEntity
  8
0
  6
Continuous
 62
     7
370
    25
100
AcDbLine
 10
574.9433501725
 20
595.5110740478
 30
0.0
 11
574.4021001725
 21
596.0523240478
 31
0.0
  0
LINE
  5
20A
330
1F
100
AcDbEntity
  8
0
  6
Continuous
 62
     7
370
    25
100
AcDbLine
 10
251.0846001725
 20
596.0523240478
 30
0.0
 11
250.5433501725
 21
595.5110740478
 31
0.0
  0
LINE
  5
20B
330
1F
100
AcDbEntity
  8
0
  6
Continuous
 62
     7
370
    25
100
AcDbLine
 10
250.5433501725
 20
590.5935740478
 30
0.0
 11
251.0846001725
 21
590.0523240478
 31
0.0
  0
LINE
  5
20C
330
1F
100
AcDbEntity
  8
0
  6
Continuous
 62
     7
370
    25
100
AcDbLine
 10
251.0846001725
 20
590.0523240478
 30
0.0
 11
251.2846001725
 21
590.0523240478
 31
0.0
  0
LINE
  5
20D
330
1F
100
AcDbEntity
  8
0
  6
Continuous
 62
     7
370
    25
100
AcDbLine
 10
251.2846001725
 20
596.0523240478
 30
0.0
 11
251.0846001725
 21
596.0523240478
 31
0.0
  0
ARC
  5
20E
330
1F
100
AcDbEntity
  8
0
  6
Continuous
 62
     7
370
    25
100
AcDbCircle
 10
261.2433501725
 20
598.8523240479
 30
0.0
 40
0.5000000000000568
100
AcDbArc
 50
0.0
 51
180.0
  0
ARC
  5
20F
330
1F
100
AcDbEntity
  8
0
  6
Continuous
 62
     7
370
    25
100
AcDbCircle
 10
261.2433501725
 20
587.2523240477
 30
0.0
 40
0.5
100
AcDbArc
 50
180.0
 51
0.0
  0
LINE
  5
210
330
1F
100
AcDbEntity
  8
0
  6
Continuous
 62
     7
370
    25
100
AcDbLine
 10
251.2846001725
 20
596.0523240478
 30
0.0
 11
250.7433501725
 21
595.5110740478
 31
0.0
  0
LINE
  5
211
330
1F
100
AcDbEntity
  8
0
  6
Continuous
 62
     7
370
    25
100
AcDbLine
 10
250.7433501725
 20
590.5935740478
 30
0.0
 11
251.2846001725
 21
590.0523240478
 31
0.0
  0
LINE
  5
212
330
1F
100
AcDbEntity
  8
0
  6
Continuous
 62
     7
370
    25
100
AcDbLine
 10
251.2846001725
 20
590.0523240478
 30
0.0
 11
258.7433501725
 21
590.0523240478
 31
0.0
  0
LINE
  5
213
330
1F
100
AcDbEntity
  8
0
  6
Continuous
 62
     7
370
    25
100
AcDbLine
 10
258.7433501725
 20
596.0523240478
 30
0.0
 11
251.2846001725
 21
596.0523240478
 31
0.0
  0
LINE
  5
214
330
1F
100
AcDbEntity
  8
0
  6
Continuous
 62
     7
370
    25
100
AcDbLine
 10
265.7433501725
 20
598.0523240478
 30
0.0
 11
265.4138670767
 21
598.6230055099
 31
0.0
  0
LINE
  5
215
330
1F
100
AcDbEntity
  8
0
  6
Continuous
 62
     7
370
    25
100
AcDbLine
 10
265.4138670767
 20
587.4816425857
 30
0.0
 11
265.7433501725
 21
588.0523240478
 31
0.0
  0
LINE
  5
216
330
1F
100
AcDbEntity
  8
0
  6
Continuous
 62
     7
370
    25
100
AcDbLine
 10
258.2433501725
 20
616.2523240478
 30
0.0
 11
261.1827378638
 21
616.2523240478
 31
0.0
  0
LINE
  5
217
330
1F
100
AcDbEntity
  8
0
  6
Continuous
 62
     7
370
    25
100
AcDbLine
 10
564.3039624811
 20
616.2523240478
 30
0.0
 11
567.2433501725
 21
616.2523240478
 31
0.0
  0
LINE
  5
218
330
1F
100
AcDbEntity
  8
0
  6
Continuous
 62
     7
370
    25
100
AcDbLine
 10
567.2433501725
 20
616.2523240478
 30
0.0
 11
573.2433501725
 21
616.2523240478
 31
0.0
  0
LINE
  5
219
330
1F
100
AcDbEntity
  8
0
  6
Continuous
 62
     7
370
    25
100
AcDbLine
 10
252.2433501725
 20
616.2523240478
 30
0.0
 11
258.2433501725
 21
616.2523240478
 31
0.0
  0
SPLINE
  5
21A
330
1F
100
AcDbEntity
  8
0
  6
Continuous
 62
     7
370
    25
100
AcDbSpline
210
0.0
220
0.0
230
1.0
 70
    24
 71
     3
 72
    19
 73
    15
 74
     0
 42
0.000000001
 43
0.00000001
 40
0.0
 40
0.0
 40
0.0
 40
0.0
 40
0.1260638187928856
 40
0.193926181730561
 40
0.2632286813759837
 40
0.3325311810214081
 40
0.4003935439590839
 40
0.5264573627519685
 40
0.6525211815448532
 40
0.7203835444825295
 40
0.7896860441279531
 40
0.8589885437733759
 40
0.9268509067110542
 40
1.0
 40
1.0
 40
1.0
 40
1.0
 10
563.7433501724776
 20
598.7797124031885
 30
0.0
 10
563.7433501724776
 20
598.5881244922522
 30
0.0
 10
563.7433501724776
 20
598.2934014512608
 30
0.0
 10
563.7433501724776
 20
597.3661469284202
 30
0.0
 10
563.7433501724776
 20
596.4805908878877
 30
0.0
 10
563.7433501724777
 20
595.4441896783526
 30
0.0
 10
563.7433501724777
 20
594.0002363057031
 30
0.0
 10
563.7433501724777
 20
592.1154087229945
 30
0.0
 10
563.7433501724777
 20
590.3423985211679
 30
0.0
 10
563.7433501724777
 20
589.1200948994277
 30
0.0
 10
563.7433501724777
 20
588.3194081842096
 30
0.0
 10
563.7433501724776
 20
587.7339176014365
 30
0.0
 10
563.7433501724777
 20
587.3060314628837
 30
0.0
 10
563.7433501724777
 20
587.3365437147863
 30
0.0
 10
563.7433501724777
 20
587.3523718157123
 30
0.0
  0
LINE
  5
21B
330
1F
100
AcDbEntity
  8
0
  6
Continuous
 62
     7
370
    25
100
AcDbLine
 10
559.7433501725
 20
596.9338922282
 30
0.0
 11
559.7433501725
 21
592.2636262558
 31
0.0
  0
SPLINE
  5
21C
330
1F
100
AcDbEntity
  8
0
  6
Continuous
 62
     7
370
    25
100
AcDbSpline
210
0.0
220
0.0
230
1.0
 70
     8
 71
     3
 72
     8
 73
     4
 74
     0
 42
0.000000001
 43
0.00000001
 40
0.0
 40
0.0
 40
0.0
 40
0.0
 40
1.0
 40
1.0
 40
1.0
 40
1.0
 10
559.7433501724847
 20
596.9338922282221
 30
0.0
 10
559.7433501724847
 20
596.3128245520029
 30
0.0
 10
559.9176654728642
 20
595.7087552315144
 30
0.0
 10
560.1899321598761
 20
595.1142376400492
 30
0.0
  0
SPLINE
  5
21D
330
1F
100
AcDbEntity
  8
0
  6
Continuous
 62
     7
370
    25
100
AcDbSpline
210
0.0
220
0.0
230
1.0
 70
     8
 71
     3
 72
     8
 73
     4
 74
     0
 42
0.000000001
 43
0.00000001
 40
0.0
 40
0.0
 40
0.0
 40
0.0
 40
1.0
 40
1.0
 40
1.0
 40
1.0
 10
560.1899321598761
 20
595.1142376400428
 30
0.0
 10
559.9176654728647
 20
594.1828858189864
 30
0.0
 10
559.7433501724848
 20
593.2365705715304
 30
0.0
 10
559.7433501724848
 20
592.2636262557525
 30
0.0
  0
SPLINE
  5
21E
330
1F
100
AcDbEntity
  8
0
  6
Continuous
 62
     7
370
    25
100
AcDbSpline
210
0.0
220
0.0
230
1.0
 70
     8
 71
     3
 72
     8
 73
     4
 74
     0
 42
0.000000001
 43
0.00000001
 40
0.0
 40
0.0
 40
0.0
 40
0.0
 40
1.0
 40
1.0
 40
1.0
 40
1.0
 10
559.7433501724848
 20
592.2636262557525
 30
0.0
 10
559.7433501724848
 20
591.2906819399728
 30
0.0
 10
559.9176654728642
 20
590.3443666925203
 30
0.0
 10
560.1899321598761
 20
589.4130148714622
 30
0.0
  0
LINE
  5
21F
330
1F
100
AcDbEntity
  8
0
  6
Continuous
 62
     7
370
    25
100
AcDbLine
 10
563.7433501725
 20
595.11423764
 30
0.0
 11
560.1899321599
 21
595.11423764
 31
0.0
  0
LINE
  5
220
330
1F
100
AcDbEntity
  8
0
  6
Continuous
 62
     7
370
    25
100
AcDbLine
 10
563.7433501725
 20
589.4130148715
 30
0.0
 11
560.1899321599
 21
589.4130148715
 31
0.0
  0
SPLINE
  5
221
330
1F
100
AcDbEntity
  8
0
  6
Continuous
 62
     7
370
    25
100
AcDbSpline
210
0.0
220
0.0
230
1.0
 70
     8
 71
     3
 72
     8
 73
     4
 74
     0
 42
0.000000001
 43
0.00000001
 40
0.0
 40
0.0
 40
0.0
 40
0.0
 40
1.0
 40
1.0
 40
1.0
 40
1.0
 10
560.1899321598761
 20
598.7535468163952
 30
0.0
 10
559.9176654728647
 20
598.159029224931
 30
0.0
 10
559.7433501724847
 20
597.5549599044404
 30
0.0
 10
559.7433501724847
 20
596.9338922282221
 30
0.0
  0
LINE
  5
222
330
1F
100
AcDbEntity
  8
0
  6
Continuous
 62
     7
370
    25
100
AcDbLine
 10
563.7433501725
 20
598.7535468164
 30
0.0
 11
560.1899321599
 21
598.7535468164
 31
0.0
  0
LINE
  5
223
330
1F
100
AcDbEntity
  8
0
  6
Continuous
 62
     7
370
    25
100
AcDbLine
 10
559.7433501725
 20
592.2636262558
 30
0.0
 11
559.7433501725
 21
588.3820580753
 31
0.0
  0
SPLINE
  5
224
330
1F
100
AcDbEntity
  8
0
  6
Continuous
 62
     7
370
    25
100
AcDbSpline
210
0.0
220
0.0
230
1.0
 70
     8
 71
     3
 72
     8
 73
     4
 74
     0
 42
0.000000001
 43
0.00000001
 40
0.0
 40
0.0
 40
0.0
 40
0.0
 40
1.0
 40
1.0
 40
1.0
 40
1.0
 10
560.189932159876
 20
589.4130148714571
 30
0.0
 10
559.9176654728645
 20
589.0761806418649
 30
0.0
 10
559.7433501724846
 20
588.7339347148994
 30
0.0
 10
559.7433501724846
 20
588.3820580753396
 30
0.0
  0
SPLINE
  5
225
330
1F
100
AcDbEntity
  8
0
  6
Continuous
 62
     7
370
    25
100
AcDbSpline
210
0.0
220
0.0
230
1.0
 70
     8
 71
     3
 72
     8
 73
     4
 74
     0
 42
0.000000001
 43
0.00000001
 40
0.0
 40
0.0
 40
0.0
 40
0.0
 40
1.0
 40
1.0
 40
1.0
 40
1.0
 10
559.7433501724846
 20
588.3820580753396
 30
0.0
 10
559.7433501724846
 20
588.0301814357791
 30
0.0
 10
559.9176654728642
 20
587.687935508815
 30
0.0
 10
560.189932159876
 20
587.3511012792221
 30
0.0
  0
LINE
  5
226
330
1F
100
AcDbEntity
  8
0
  6
Continuous
 62
     7
370
    25
100
AcDbLine
 10
563.7433501725
 20
587.3511012792
 30
0.0
 11
560.1899321599
 21
587.3511012792
 31
0.0
  0
LINE
  5
227
330
1F
100
AcDbEntity
  8
0
  6
Continuous
 62
     7
370
    25
100
AcDbLine
 10
560.0397259296
 20
598.4067882407
 30
0.0
 11
560.1899321599
 21
598.7535468164
 31
0.0
  0
LINE
  5
228
330
1F
100
AcDbEntity
  8
0
  6
Continuous
 62
     7
370
    25
100
AcDbLine
 10
559.7433501725
 20
598.0523240478
 30
0.0
 11
559.7433501725
 21
596.9338922282
 31
0.0
  0
LINE
  5
229
330
1F
100
AcDbEntity
  8
0
  6
Continuous
 62
     7
370
    25
100
AcDbLine
 10
574.7433501725
 20
592.6644819086
 30
0.0
 11
574.7433501725
 21
595.5110740478
 31
0.0
  0
LINE
  5
22A
330
1F
100
AcDbEntity
  8
0
  6
Continuous
 62
     7
370
    25
100
AcDbLine
 10
574.7433501725
 20
590.5935740478
 30
0.0
 11
574.7433501725
 21
592.6644819086
 31
0.0
  0
LINE
  5
22B
330
1F
100
AcDbEntity
  8
0
  6
Continuous
 62
     7
370
    25
100
AcDbLine
 10
574.2021001725
 20
590.0523240478
 30
0.0
 11
574.2021001725
 21
596.0523240478
 31
0.0
  0
LINE
  5
22C
330
1F
100
AcDbEntity
  8
0
  6
Continuous
 62
     7
370
    25
100
AcDbLine
 10
559.7433501725
 20
588.3820580753
 30
0.0
 11
559.7433501725
 21
588.0523240478
 31
0.0
  0
LINE
  5
22D
330
1F
100
AcDbEntity
  8
0
  6
Continuous
 62
     7
370
    25
100
AcDbLine
 10
266.4933501725
 20
611.1523240478
 30
0.0
 11
266.4933501725
 21
611.6523240478
 31
0.0
  0
LINE
  5
22E
330
1F
100
AcDbEntity
  8
0
  6
Continuous
 62
     7
370
    25
100
AcDbLine
 10
275.9933501725
 20
611.6523240478
 30
0.0
 11
275.9933501725
 21
611.1523240478
 31
0.0
  0
LINE
  5
22F
330
1F
100
AcDbEntity
  8
0
  6
Continuous
 62
     7
370
    25
100
AcDbLine
 10
275.9933501725
 20
611.1523240478
 30
0.0
 11
266.4933501725
 21
611.1523240478
 31
0.0
  0
ARC
  5
230
330
1F
100
AcDbEntity
  8
0
  6
Continuous
 62
     7
370
    25
100
AcDbCircle
 10
276.7567501725
 20
612.3889240478
 30
0.0
 40
1.236600000000018
100
AcDbArc
 50
270.0
 51
323.4399088994
  0
LINE
  5
231
330
1F
100
AcDbEntity
  8
0
  6
Continuous
 62
     7
370
    25
100
AcDbLine
 10
276.7567501725
 20
611.1523240478
 30
0.0
 11
275.9933501725
 21
611.1523240478
 31
0.0
  0
LINE
  5
232
330
1F
100
AcDbEntity
  8
0
  6
Continuous
 62
     7
370
    25
100
AcDbLine
 10
266.4933501725
 20
611.1523240478
 30
0.0
 11
265.7299501725
 21
611.1523240478
 31
0.0
  0
ARC
  5
233
330
1F
100
AcDbEntity
  8
0
  6
Continuous
 62
     7
370
    25
100
AcDbCircle
 10
265.7299501725
 20
612.3889240478
 30
0.0
 40
1.236599999999953
100
AcDbArc
 50
216.5600911006
 51
270.0
  0
ARC
  5
234
330
1F
100
AcDbEntity
  8
0
  6
Continuous
 62
     7
370
    25
100
AcDbCircle
 10
258.2433501725
 20
615.6523240478
 30
0.0
 40
3.0
100
AcDbArc
 50
0.0
 51
90.0
  0
LINE
  5
235
330
1F
100
AcDbEntity
  8
0
  6
Continuous
 62
     7
370
    25
100
AcDbLine
 10
246.2433501725
 20
618.6523240478
 30
0.0
 11
258.2433501725
 21
618.6523240478
 31
0.0
  0
ARC
  5
236
330
1F
100
AcDbEntity
  8
0
  6
Continuous
 62
     7
370
    25
100
AcDbCircle
 10
246.2433501725
 20
615.6523240478
 30
0.0
 40
3.0
100
AcDbArc
 50
90.0
 51
180.0
  0
LINE
  5
237
330
1F
100
AcDbEntity
  8
0
  6
Continuous
 62
     7
370
    25
100
AcDbLine
 10
243.2433501725
 20
614.6523240478
 30
0.0
 11
243.2433501725
 21
615.6523240478
 31
0.0
  0
ARC
  5
238
330
1F
100
AcDbEntity
  8
0
  6
Continuous
 62
     7
370
    25
100
AcDbCircle
 10
240.2433501725
 20
614.6523240478
 30
0.0
 40
3.0
100
AcDbArc
 50
270.0
 51
0.0
  0
LINE
  5
239
330
1F
100
AcDbEntity
  8
0
  6
Continuous
 62
     7
370
    25
100
AcDbLine
 10
216.7140608506
 20
611.6523240478
 30
0.0
 11
240.2433501725
 21
611.6523240478
 31
0.0
  0
LINE
  5
23A
330
1F
100
AcDbEntity
  8
0
  6
Continuous
 62
     7
370
    25
100
AcDbLine
 10
216.7140608506
 20
621.2523240478
 30
0.0
 11
216.7140608506
 21
611.6523240478
 31
0.0
  0
LINE
  5
23B
330
1F
100
AcDbEntity
  8
0
  6
Continuous
 62
     7
370
    25
100
AcDbLine
 10
608.7726394944
 20
621.2523240478
 30
0.0
 11
608.7726394944
 21
611.6523240478
 31
0.0
  0
LINE
  5
23C
330
1F
100
AcDbEntity
  8
0
  6
Continuous
 62
     7
370
    25
100
AcDbLine
 10
585.2433501725
 20
611.6523240478
 30
0.0
 11
608.7726394944
 21
611.6523240478
 31
0.0
  0
ARC
  5
23D
330
1F
100
AcDbEntity
  8
0
  6
Continuous
 62
     7
370
    25
100
AcDbCircle
 10
585.2433501725
 20
614.6523240478
 30
0.0
 40
3.0
100
AcDbArc
 50
180.0
 51
270.0
  0
LINE
  5
23E
330
1F
100
AcDbEntity
  8
0
  6
Continuous
 62
     7
370
    25
100
AcDbLine
 10
582.2433501725
 20
614.6523240478
 30
0.0
 11
582.2433501725
 21
615.6523240478
 31
0.0
  0
ARC
  5
23F
330
1F
100
AcDbEntity
  8
0
  6
Continuous
 62
     7
370
    25
100
AcDbCircle
 10
579.2433501725
 20
615.6523240478
 30
0.0
 40
3.0
100
AcDbArc
 50
0.0
 51
90.0
  0
LINE
  5
240
330
1F
100
AcDbEntity
  8
0
  6
Continuous
 62
     7
370
    25
100
AcDbLine
 10
579.2433501725
 20
618.6523240478
 30
0.0
 11
567.2433501725
 21
618.6523240478
 31
0.0
  0
ARC
  5
241
330
1F
100
AcDbEntity
  8
0
  6
Continuous
 62
     7
370
    25
100
AcDbCircle
 10
567.2433501725
 20
615.6523240478
 30
0.0
 40
3.0
100
AcDbArc
 50
90.0
 51
180.0
  0
LINE
  5
242
330
1F
100
AcDbEntity
  8
0
  6
Continuous
 62
     7
370
    25
100
AcDbLine
 10
564.2433501725
 20
614.6523240478
 30
0.0
 11
564.2433501725
 21
615.6523240478
 31
0.0
  0
ARC
  5
243
330
1F
100
AcDbEntity
  8
0
  6
Continuous
 62
     7
370
    25
100
AcDbCircle
 10
561.2433501725
 20
614.6523240478
 30
0.0
 40
3.000000000000114
100
AcDbArc
 50
270.0
 51
0.0
  0
LINE
  5
244
330
1F
100
AcDbEntity
  8
0
  6
Continuous
 62
     7
370
    25
100
AcDbLine
 10
264.2433501725
 20
611.6523240478
 30
0.0
 11
561.2433501725
 21
611.6523240478
 31
0.0
  0
LINE
  5
245
330
1F
100
AcDbEntity
  8
0
  6
Continuous
 62
     7
370
    25
100
AcDbLine
 10
261.2433501725
 20
614.6523240478
 30
0.0
 11
261.2433501725
 21
615.6523240478
 31
0.0
  0
ARC
  5
246
330
1F
100
AcDbEntity
  8
0
  6
Continuous
 62
     7
370
    25
100
AcDbCircle
 10
264.2433501725
 20
614.6523240478
 30
0.0
 40
3.0
100
AcDbArc
 50
180.0
 51
270.0
  0
LINE
  5
247
330
1F
100
AcDbEntity
  8
0
  6
Continuous
 62
     7
370
    25
100
AcDbLine
 10
217.6433501725
 20
623.6523240478
 30
0.0
 11
607.8433501725
 21
623.6523240478
 31
0.0
  0
SPLINE
  5
248
330
1F
100
AcDbEntity
  8
0
  6
Continuous
 62
     7
370
    25
100
AcDbSpline
210
0.0
220
0.0
230
1.0
 70
     8
 71
     3
 72
    20
 73
    16
 74
     0
 42
0.000000001
 43
0.00000001
 40
0.0
 40
0.0
 40
0.0
 40
0.0
 40
0.1249999999999993
 40
0.1249999999999993
 40
0.2499999999999986
 40
0.2499999999999986
 40
0.3749999999999979
 40
0.3749999999999979
 40
0.4999999999999972
 40
0.4999999999999972
 40
0.7499999999999958
 40
0.7499999999999958
 40
0.8749999999999978
 40
0.8749999999999978
 40
1.0
 40
1.0
 40
1.0
 40
1.0
 10
607.8433501724775
 20
623.6523240478091
 30
0.0
 10
607.8823909033321
 20
623.6523240478091
 30
0.0
 10
607.9209096075317
 20
623.6367874873343
 30
0.0
 10
607.9983163588397
 20
623.5754691353736
 30
0.0
 10
608.0374607768264
 20
623.5290453897868
 30
0.0
 10
608.1146115307416
 20
623.4090945196326
 30
0.0
 10
608.1529391124827
 20
623.3354898753494
 30
0.0
 10
608.2304854329592
 20
623.1607595092537
 30
0.0
 10
608.2694616406279
 20
623.0599088803522
 30
0.0
 10
608.384956497073
 20
622.7286236003682
 30
0.0
 10
608.462868940743
 20
622.4609434389843
 30
0.0
 10
608.5783488661439
 20
622.0282694129289
 30
0.0
 10
608.617214662009
 20
621.8767513260777
 30
0.0
 10
608.6949889956775
 20
621.5673255686917
 30
0.0
 10
608.7335987626324
 20
621.4107032389978
 30
0.0
 10
608.7726394943589
 20
621.2523240478092
 30
0.0
  0
SPLINE
  5
249
330
1F
100
AcDbEntity
  8
0
  6
Continuous
 62
     7
370
    25
100
AcDbSpline
210
0.0
220
0.0
230
1.0
 70
     8
 71
     3
 72
    20
 73
    16
 74
     0
 42
0.000000001
 43
0.00000001
 40
0.0
 40
0.0
 40
0.0
 40
0.0
 40
0.1249999999999994
 40
0.1249999999999994
 40
0.2499999999999988
 40
0.2499999999999988
 40
0.3749999999999982
 40
0.3749999999999982
 40
0.4999999999999976
 40
0.4999999999999976
 40
0.7499999999999962
 40
0.7499999999999962
 40
0.8749999999999981
 40
0.8749999999999981
 40
1.0
 40
1.0
 40
1.0
 40
1.0
 10
216.7140608505961
 20
621.2523240478092
 30
0.0
 10
216.7531015814506
 20
621.4107032354599
 30
0.0
 10
216.7916202856504
 20
621.5669489601515
 30
0.0
 10
216.8690270369584
 20
621.8749408095682
 30
0.0
 10
216.908171454945
 20
622.0275849170392
 30
0.0
 10
216.9853222088602
 20
622.3166692062263
 30
0.0
 10
217.0236497906013
 20
622.4544737444103
 30
0.0
 10
217.1011961110777
 20
622.7160924200493
 30
0.0
 10
217.1401723187465
 20
622.838838726732
 30
0.0
 10
217.2556671751916
 20
623.1701631036796
 30
0.0
 10
217.3335796188615
 20
623.3491742277079
 30
0.0
 10
217.4490595442624
 20
623.5287893270888
 30
0.0
 10
217.4879253401274
 20
623.5750336759564
 30
0.0
 10
217.565699673796
 20
623.6367869819677
 30
0.0
 10
217.6043094407508
 20
623.6523240478091
 30
0.0
 10
217.6433501724775
 20
623.6523240478091
 30
0.0
  0
SPLINE
  5
24A
330
1F
100
AcDbEntity
  8
0
  6
Continuous
 62
     7
370
    25
100
AcDbSpline
210
0.0
220
0.0
230
1.0
 70
     8
 71
     3
 72
    20
 73
    16
 74
     0
 42
0.000000001
 43
0.00000001
 40
0.0
 40
0.0
 40
0.0
 40
0.0
 40
0.1249999999999994
 40
0.1249999999999994
 40
0.2499999999999987
 40
0.2499999999999987
 40
0.3749999999999981
 40
0.3749999999999981
 40
0.4999999999999974
 40
0.4999999999999974
 40
0.7500000000000012
 40
0.7500000000000012
 40
0.8750000000000007
 40
0.8750000000000007
 40
1.0
 40
1.0
 40
1.0
 40
1.0
 10
610.2433501724776
 20
621.2523240478091
 30
0.0
 10
610.2433501724776
 20
621.4107032354598
 30
0.0
 10
610.2278136120026
 20
621.5669489601514
 30
0.0
 10
610.166495260042
 20
621.8749408095681
 30
0.0
 10
610.1200715144554
 20
622.0275849170392
 30
0.0
 10
610.0001206443012
 20
622.3166692062263
 30
0.0
 10
609.9265160000178
 20
622.4544737444103
 30
0.0
 10
609.751785633922
 20
622.7160924200492
 30
0.0
 10
609.6509350050205
 20
622.838838726732
 30
0.0
 10
609.3196497250366
 20
623.1701631036796
 30
0.0
 10
609.0519695636527
 20
623.3491742277079
 30
0.0
 10
608.6192955375973
 20
623.5287893270888
 30
0.0
 10
608.4677774507461
 20
623.5750336759564
 30
0.0
 10
608.1583516933599
 20
623.6367869819677
 30
0.0
 10
608.0017293636663
 20
623.6523240478091
 30
0.0
 10
607.8433501724775
 20
623.6523240478091
 30
0.0
  0
LINE
  5
24B
330
1F
100
AcDbEntity
  8
0
  6
Continuous
 62
     7
370
    25
100
AcDbLine
 10
610.2433501725
 20
621.2523240478
 30
0.0
 11
608.8433501725
 21
621.2523240478
 31
0.0
  0
SPLINE
  5
24C
330
1F
100
AcDbEntity
  8
0
  6
Continuous
 62
     7
370
    25
100
AcDbSpline
210
0.0
220
0.0
230
1.0
 70
     8
 71
     3
 72
     9
 73
     5
 74
     0
 42
0.000000001
 43
0.00000001
 40
0.0
 40
0.0
 40
0.0
 40
0.0
 40
0.6784508005730187
 40
1.0
 40
1.0
 40
1.0
 40
1.0
 10
608.8433501724775
 20
621.2523240478091
 30
0.0
 10
608.8301006020131
 20
621.4030312522624
 30
0.0
 10
608.8105714475729
 20
621.6251655681568
 30
0.0
 10
608.669723793934
 20
621.7919986730459
 30
0.0
 10
608.6244343436651
 20
621.8456437243609
 30
0.0
  0
SPLINE
  5
24D
330
1F
100
AcDbEntity
  8
0
  6
Continuous
 62
     7
370
    25
100
AcDbSpline
210
0.0
220
0.0
230
1.0
 70
     8
 71
     3
 72
     9
 73
     5
 74
     0
 42
0.000000001
 43
0.00000001
 40
0.0
 40
0.0
 40
0.0
 40
0.0
 40
0.4825784287291879
 40
1.0
 40
1.0
 40
1.0
 40
1.0
 10
216.867179940531
 20
621.864863786987
 30
0.0
 10
216.8033717474697
 20
621.7767294456708
 30
0.0
 10
216.6711482802305
 20
621.5940972846178
 30
0.0
 10
216.652828975774
 20
621.3688644005732
 30
0.0
 10
216.6433501724775
 20
621.2523240478091
 30
0.0
  0
LINE
  5
24E
330
1F
100
AcDbEntity
  8
0
  6
Continuous
 62
     7
370
    25
100
AcDbLine
 10
215.2433501725
 20
621.2523240478
 30
0.0
 11
216.6433501725
 21
621.2523240478
 31
0.0
  0
SPLINE
  5
24F
330
1F
100
AcDbEntity
  8
0
  6
Continuous
 62
     7
370
    25
100
AcDbSpline
210
0.0
220
0.0
230
1.0
 70
     8
 71
     3
 72
    20
 73
    16
 74
     0
 42
0.000000001
 43
0.00000001
 40
0.0
 40
0.0
 40
0.0
 40
0.0
 40
0.1249999999999981
 40
0.1249999999999981
 40
0.2499999999999961
 40
0.2499999999999961
 40
0.3749999999999942
 40
0.3749999999999942
 40
0.4999999999999922
 40
0.4999999999999922
 40
0.7499999999999936
 40
0.7499999999999936
 40
0.8749999999999968
 40
0.8749999999999968
 40
1.0
 40
1.0
 40
1.0
 40
1.0
 10
217.6433501724775
 20
623.6523240478091
 30
0.0
 10
217.4849709848268
 20
623.6523240478091
 30
0.0
 10
217.3287252601351
 20
623.6367874873342
 30
0.0
 10
217.0207334107185
 20
623.5754691353736
 30
0.0
 10
216.8680893032472
 20
623.5290453897868
 30
0.0
 10
216.5790050140602
 20
623.4090945196326
 30
0.0
 10
216.4412004758762
 20
623.3354898753493
 30
0.0
 10
216.1795818002373
 20
623.1607595092537
 30
0.0
 10
216.0568354935546
 20
623.0599088803522
 30
0.0
 10
215.7255111166069
 20
622.7286236003682
 30
0.0
 10
215.5464999925787
 20
622.4609434389843
 30
0.0
 10
215.3668848931978
 20
622.0282694129289
 30
0.0
 10
215.3206405443301
 20
621.8767513260777
 30
0.0
 10
215.2588872383189
 20
621.5673255686917
 30
0.0
 10
215.2433501724775
 20
621.4107032389978
 30
0.0
 10
215.2433501724775
 20
621.2523240478092
 30
0.0
  0
LINE
  5
250
330
1F
100
AcDbEntity
  8
0
  6
Continuous
 62
     7
370
    25
100
AcDbLine
 10
608.8433501725
 20
621.2523240478
 30
0.0
 11
608.8433501725
 21
611.6523240478
 31
0.0
  0
LINE
  5
251
330
1F
100
AcDbEntity
  8
0
  6
Continuous
 62
     7
370
    25
100
AcDbLine
 10
610.2433501725
 20
621.2523240478
 30
0.0
 11
610.2433501725
 21
611.6523240478
 31
0.0
  0
LINE
  5
252
330
1F
100
AcDbEntity
  8
0
  6
Continuous
 62
     7
370
    25
100
AcDbLine
 10
610.2433501725
 20
611.6523240478
 30
0.0
 11
608.8433501725
 21
611.6523240478
 31
0.0
  0
LINE
  5
253
330
1F
100
AcDbEntity
  8
0
  6
Continuous
 62
     7
370
    25
100
AcDbLine
 10
215.2433501725
 20
611.6523240478
 30
0.0
 11
216.6433501725
 21
611.6523240478
 31
0.0
  0
LINE
  5
254
330
1F
100
AcDbEntity
  8
0
  6
Continuous
 62
     7
370
    25
100
AcDbLine
 10
215.2433501725
 20
621.2523240478
 30
0.0
 11
215.2433501725
 21
611.6523240478
 31
0.0
  0
LINE
  5
255
330
1F
100
AcDbEntity
  8
0
  6
Continuous
 62
     7
370
    25
100
AcDbLine
 10
216.6433501725
 20
621.2523240478
 30
0.0
 11
216.6433501725
 21
611.6523240478
 31
0.0
  0
LINE
  5
256
330
1F
100
AcDbEntity
  8
0
  6
Continuous
 62
     7
370
    25
100
AcDbLine
 10
551.3748974581
 20
607.1523240478
 30
0.0
 11
551.4312394199
 21
607.1523240478
 31
0.0
  0
LINE
  5
257
330
1F
100
AcDbEntity
  8
0
  6
Continuous
 62
     7
370
    25
100
AcDbLine
 10
551.9312394199
 20
606.6523240478
 30
0.0
 11
551.8748974581
 21
606.6523240478
 31
0.0
  0
LINE
  5
258
330
1F
100
AcDbEntity
  8
0
  6
Continuous
 62
     7
370
    25
100
AcDbLine
 10
552.3213086987
 20
607.1523240478
 30
0.0
 11
555.7682983547
 21
607.1523240478
 31
0.0
  0
LINE
  5
259
330
1F
100
AcDbEntity
  8
0
  6
Continuous
 62
     7
370
    25
100
AcDbLine
 10
555.3622429784
 20
606.6523240478
 30
0.0
 11
552.7770007364
 21
606.6523240478
 31
0.0
  0
LINE
  5
25A
330
1F
100
AcDbEntity
  8
0
  6
Continuous
 62
     7
370
    25
100
AcDbLine
 10
555.7682983547
 20
607.1523240478
 30
0.0
 11
556.778955753
 21
607.1523240478
 31
0.0
  0
LINE
  5
25B
330
1F
100
AcDbEntity
  8
0
  6
Continuous
 62
     7
370
    25
100
AcDbLine
 10
556.3729003767
 20
606.6523240478
 30
0.0
 11
555.3622429784
 21
606.6523240478
 31
0.0
  0
LINE
  5
25C
330
1F
100
AcDbEntity
  8
0
  6
Continuous
 62
     7
370
    25
100
AcDbLine
 10
551.6084712691
 20
607.1523240478
 30
0.0
 11
552.3213086987
 21
607.1523240478
 31
0.0
  0
LINE
  5
25D
330
1F
100
AcDbEntity
  8
0
  6
Continuous
 62
     7
370
    25
100
AcDbLine
 10
552.7770007364
 20
606.6523240478
 30
0.0
 11
552.0641633068
 21
606.6523240478
 31
0.0
  0
LINE
  5
25E
330
1F
100
AcDbEntity
  8
0
  6
Continuous
 62
     7
370
    25
100
AcDbLine
 10
556.778955753
 20
607.1523240478
 30
0.0
 11
557.1547342479
 21
607.1523240478
 31
0.0
  0
LINE
  5
25F
330
1F
100
AcDbEntity
  8
0
  6
Continuous
 62
     7
370
    25
100
AcDbLine
 10
556.6547342479
 20
606.6523240478
 30
0.0
 11
556.3729003767
 21
606.6523240478
 31
0.0
  0
LINE
  5
260
330
1F
100
AcDbEntity
  8
0
  6
Continuous
 62
     7
370
    25
100
AcDbLine
 10
551.4312394199
 20
607.1523240478
 30
0.0
 11
551.6084712691
 21
607.1523240478
 31
0.0
  0
LINE
  5
261
330
1F
100
AcDbEntity
  8
0
  6
Continuous
 62
     7
370
    25
100
AcDbLine
 10
552.0641633068
 20
606.6523240478
 30
0.0
 11
551.9312394199
 21
606.6523240478
 31
0.0
  0
LINE
  5
262
330
1F
100
AcDbEntity
  8
0
  6
Continuous
 62
     7
370
    25
100
AcDbLine
 10
273.5812351183
 20
606.6523240478
 30
0.0
 11
272.0005729294
 21
606.6523240478
 31
0.0
  0
LINE
  5
263
330
1F
100
AcDbEntity
  8
0
  6
Continuous
 62
     7
370
    25
100
AcDbLine
 10
271.9736855331
 20
607.1523240478
 30
0.0
 11
274.0812351183
 21
607.1523240478
 31
0.0
  0
LINE
  5
264
330
1F
100
AcDbEntity
  8
0
  6
Continuous
 62
     7
370
    25
100
AcDbLine
 10
272.0005729294
 20
606.6523240478
 30
0.0
 11
270.2710282451
 21
606.6523240478
 31
0.0
  0
LINE
  5
265
330
1F
100
AcDbEntity
  8
0
  6
Continuous
 62
     7
370
    25
100
AcDbLine
 10
270.2441408488
 20
607.1523240478
 30
0.0
 11
271.9736855331
 21
607.1523240478
 31
0.0
  0
LINE
  5
266
330
1F
100
AcDbEntity
  8
0
  6
Continuous
 62
     7
370
    25
100
AcDbLine
 10
268.351690434
 20
607.1523240478
 30
0.0
 11
270.2441408488
 21
607.1523240478
 31
0.0
  0
LINE
  5
267
330
1F
100
AcDbEntity
  8
0
  6
Continuous
 62
     7
370
    25
100
AcDbLine
 10
270.2710282451
 20
606.6523240478
 30
0.0
 11
268.851690434
 21
606.6523240478
 31
0.0
  0
LINE
  5
268
330
1F
100
AcDbEntity
  8
0
  6
Continuous
 62
     7
370
    25
100
AcDbLine
 10
490.7433501725
 20
579.6823240478
 30
0.0
 11
488.2433501725
 21
579.6823240478
 31
0.0
  0
LINE
  5
269
330
1F
100
AcDbEntity
  8
0
  6
Continuous
 62
     7
370
    25
100
AcDbLine
 10
488.2433501725
 20
579.1902732402
 30
0.0
 11
488.2433501725
 21
579.6823240478
 31
0.0
  0
LINE
  5
26A
330
1F
100
AcDbEntity
  8
0
  6
Continuous
 62
     7
370
    25
100
AcDbLine
 10
338.2433501725
 20
579.1902732402
 30
0.0
 11
338.2433501725
 21
579.6823240478
 31
0.0
  0
LINE
  5
26B
330
1F
100
AcDbEntity
  8
0
  6
Continuous
 62
     7
370
    25
100
AcDbLine
 10
338.2433501725
 20
579.6823240478
 30
0.0
 11
335.7433501725
 21
579.6823240478
 31
0.0
  0
LINE
  5
26C
330
1F
100
AcDbEntity
  8
0
  6
Continuous
 62
     7
370
    25
100
AcDbLine
 10
264.7433501725
 20
584.5523240478
 30
0.0
 11
261.5433501725
 21
584.5523240478
 31
0.0
  0
LINE
  5
26D
330
1F
100
AcDbEntity
  8
0
  6
Continuous
 62
     7
370
    25
100
AcDbLine
 10
261.5433501725
 20
603.5523240478
 30
0.0
 11
262.7433501725
 21
603.5523240478
 31
0.0
  0
LINE
  5
26E
330
1F
100
AcDbEntity
  8
0
  6
Continuous
 62
     7
370
    25
100
AcDbLine
 10
262.7433501725
 20
603.5523240478
 30
0.0
 11
262.7433501725
 21
603.7523240478
 31
0.0
  0
LINE
  5
26F
330
1F
100
AcDbEntity
  8
0
  6
Continuous
 62
     7
370
    25
100
AcDbLine
 10
562.7433501725
 20
603.7523240478
 30
0.0
 11
562.7433501725
 21
603.5523240478
 31
0.0
  0
LINE
  5
270
330
1F
100
AcDbEntity
  8
0
  6
Continuous
 62
     7
370
    25
100
AcDbLine
 10
562.7433501725
 20
603.5523240478
 30
0.0
 11
563.9433501725
 21
603.5523240478
 31
0.0
  0
LINE
  5
271
330
1F
100
AcDbEntity
  8
0
  6
Continuous
 62
     7
370
    25
100
AcDbLine
 10
563.9433501725
 20
584.5523240478
 30
0.0
 11
560.7433501725
 21
584.5523240478
 31
0.0
  0
LINE
  5
272
330
1F
100
AcDbEntity
  8
0
  6
Continuous
 62
     7
370
    25
100
AcDbLine
 10
264.7433501725
 20
563.5523240478
 30
0.0
 11
264.7433501725
 21
584.5523240478
 31
0.0
  0
LINE
  5
273
330
1F
100
AcDbEntity
  8
0
  6
Continuous
 62
     7
370
    25
100
AcDbLine
 10
332.7433501725
 20
560.5523240478
 30
0.0
 11
267.7433501725
 21
560.5523240478
 31
0.0
  0
ARC
  5
274
330
1F
100
AcDbEntity
  8
0
  6
Continuous
 62
     7
370
    25
100
AcDbCircle
 10
267.7433501725
 20
563.5523240478
 30
0.0
 40
3.0
100
AcDbArc
 50
180.0
 51
270.0
  0
ARC
  5
275
330
1F
100
AcDbEntity
  8
0
  6
Continuous
 62
     7
370
    25
100
AcDbCircle
 10
557.7433501725
 20
563.5523240478
 30
0.0
 40
3.0
100
AcDbArc
 50
270.0
 51
0.0
  0
ARC
  5
276
330
1F
100
AcDbEntity
  8
0
  6
Continuous
 62
     7
370
    25
100
AcDbCircle
 10
332.7433501725
 20
563.5523240478
 30
0.0
 40
3.0
100
AcDbArc
 50
270.0
 51
0.0
  0
LINE
  5
277
330
1F
100
AcDbEntity
  8
0
  6
Continuous
 62
     7
370
    25
100
AcDbLine
 10
335.7433501725
 20
579.6823240478
 30
0.0
 11
335.7433501725
 21
563.5523240478
 31
0.0
  0
LINE
  5
278
330
1F
100
AcDbEntity
  8
0
  6
Continuous
 62
     7
370
    25
100
AcDbLine
 10
490.7433501725
 20
563.5523240478
 30
0.0
 11
490.7433501725
 21
579.6823240478
 31
0.0
  0
LINE
  5
279
330
1F
100
AcDbEntity
  8
0
  6
Continuous
 62
     7
370
    25
100
AcDbLine
 10
557.7433501725
 20
560.5523240478
 30
0.0
 11
493.7433501725
 21
560.5523240478
 31
0.0
  0
ARC
  5
27A
330
1F
100
AcDbEntity
  8
0
  6
Continuous
 62
     7
370
    25
100
AcDbCircle
 10
493.7433501725
 20
563.5523240478
 30
0.0
 40
3.0
100
AcDbArc
 50
180.0
 51
270.0
  0
LINE
  5
27B
330
1F
100
AcDbEntity
  8
0
  6
Continuous
 62
     7
370
    25
100
AcDbLine
 10
560.7433501725
 20
584.5523240478
 30
0.0
 11
560.7433501725
 21
563.5523240478
 31
0.0
  0
LINE
  5
27C
330
1F
100
AcDbEntity
  8
0
  6
Continuous
 62
     7
370
    25
100
AcDbLine
 10
488.2433501725
 20
579.1902732402
 30
0.0
 11
488.2433501725
 21
578.2902732402
 31
0.0
  0
LINE
  5
27D
330
1F
100
AcDbEntity
  8
0
  6
Continuous
 62
     7
370
    25
100
AcDbLine
 10
338.2433501725
 20
578.2902732402
 30
0.0
 11
338.2433501725
 21
579.1902732402
 31
0.0
  0
LINE
  5
27E
330
1F
100
AcDbEntity
  8
0
  6
Continuous
 62
     7
370
    25
100
AcDbLine
 10
563.9433501725
 20
603.5523240478
 30
0.0
 11
564.7433501725
 21
603.5523240478
 31
0.0
  0
LINE
  5
27F
330
1F
100
AcDbEntity
  8
0
  6
Continuous
 62
     7
370
    25
100
AcDbLine
 10
565.7433501725
 20
584.5523240478
 30
0.0
 11
565.7433501725
 21
585.1523240478
 31
0.0
  0
LINE
  5
280
330
1F
100
AcDbEntity
  8
0
  6
Continuous
 62
     7
370
    25
100
AcDbLine
 10
565.7433501725
 20
584.5523240478
 30
0.0
 11
563.9433501725
 21
584.5523240478
 31
0.0
  0
LINE
  5
281
330
1F
100
AcDbEntity
  8
0
  6
Continuous
 62
     7
370
    25
100
AcDbLine
 10
259.7433501725
 20
584.5523240478
 30
0.0
 11
259.7433501725
 21
585.1523240478
 31
0.0
  0
LINE
  5
282
330
1F
100
AcDbEntity
  8
0
  6
Continuous
 62
     7
370
    25
100
AcDbLine
 10
260.7433501725
 20
603.5523240478
 30
0.0
 11
261.5433501725
 21
603.5523240478
 31
0.0
  0
LINE
  5
283
330
1F
100
AcDbEntity
  8
0
  6
Continuous
 62
     7
370
    25
100
AcDbLine
 10
261.5433501725
 20
584.5523240478
 30
0.0
 11
259.7433501725
 21
584.5523240478
 31
0.0
  0
LINE
  5
284
330
1F
100
AcDbEntity
  8
0
  6
Continuous
 62
     7
370
    25
100
AcDbLine
 10
262.7433501725
 20
603.7523240478
 30
0.0
 11
262.7433501725
 21
605.5523240478
 31
0.0
  0
LINE
  5
285
330
1F
100
AcDbEntity
  8
0
  6
Continuous
 62
     7
370
    25
100
AcDbLine
 10
562.7433501725
 20
605.5523240478
 30
0.0
 11
562.7433501725
 21
603.7523240478
 31
0.0
  0
LINE
  5
286
330
1F
100
AcDbEntity
  8
0
  6
Continuous
 62
     7
370
    25
100
AcDbLine
 10
488.2433501725
 20
571.6654021096
 30
0.0
 11
488.2433501725
 21
578.2902732402
 31
0.0
  0
LINE
  5
287
330
1F
100
AcDbEntity
  8
0
  6
Continuous
 62
     7
370
    25
100
AcDbLine
 10
338.2433501725
 20
578.2902732402
 30
0.0
 11
338.2433501725
 21
571.6654021096
 31
0.0
  0
LINE
  5
288
330
1F
100
AcDbEntity
  8
0
  6
Continuous
 62
     7
370
    25
100
AcDbLine
 10
488.2433501725
 20
571.1654021096
 30
0.0
 11
488.2433501725
 21
571.6654021096
 31
0.0
  0
LINE
  5
289
330
1F
100
AcDbEntity
  8
0
  6
Continuous
 62
     7
370
    25
100
AcDbLine
 10
338.2433501725
 20
571.6654021096
 30
0.0
 11
338.2433501725
 21
571.1654021096
 31
0.0
  0
ARC
  5
28A
330
1F
100
AcDbEntity
  8
0
  6
Continuous
 62
     7
370
    25
100
AcDbCircle
 10
341.2433501725
 20
564.647710656
 30
0.0
 40
3.0
100
AcDbArc
 50
180.0
 51
270.0
  0
LINE
  5
28B
330
1F
100
AcDbEntity
  8
0
  6
Continuous
 62
     7
370
    25
100
AcDbLine
 10
338.2433501725
 20
564.647710656
 30
0.0
 11
338.2433501725
 21
571.1654021096
 31
0.0
  0
LINE
  5
28C
330
1F
100
AcDbEntity
  8
0
  6
Continuous
 62
     7
370
    25
100
AcDbLine
 10
488.2433501725
 20
571.1654021096
 30
0.0
 11
488.2433501725
 21
564.647710656
 31
0.0
  0
ARC
  5
28D
330
1F
100
AcDbEntity
  8
0
  6
Continuous
 62
     7
370
    25
100
AcDbCircle
 10
485.2433501725
 20
564.647710656
 30
0.0
 40
3.0
100
AcDbArc
 50
270.0
 51
0.0
  0
LINE
  5
28E
330
1F
100
AcDbEntity
  8
0
  6
Continuous
 62
     7
370
    25
100
AcDbLine
 10
485.2433501725
 20
561.647710656
 30
0.0
 11
341.2433501725
 21
561.647710656
 31
0.0
  0
LINE
  5
28F
330
1F
100
AcDbEntity
  8
0
  6
Continuous
 62
     7
370
    25
100
AcDbLine
 10
574.4021001725
 20
590.0523240478
 30
0.0
 11
574.4021001725
 21
590.2523240478
 31
0.0
  0
LINE
  5
290
330
1F
100
AcDbEntity
  8
0
  6
Continuous
 62
     7
370
    25
100
AcDbLine
 10
574.4021001725
 20
595.8523240478
 30
0.0
 11
574.4021001725
 21
596.0523240478
 31
0.0
  0
LINE
  5
291
330
1F
100
AcDbEntity
  8
0
  6
Continuous
 62
     7
370
    25
100
AcDbLine
 10
574.9433501725
 20
594.6317273851
 30
0.0
 11
574.9433501725
 21
595.5110740478
 31
0.0
  0
LINE
  5
292
330
1F
100
AcDbEntity
  8
0
  6
Continuous
 62
     7
370
    25
100
AcDbLine
 10
574.9433501725
 20
590.5935740478
 30
0.0
 11
574.9433501725
 21
594.6317273851
 31
0.0
  0
LINE
  5
293
330
1F
100
AcDbEntity
  8
0
  6
Continuous
 62
     7
370
    25
100
AcDbLine
 10
564.2433501725
 20
607.3523240478
 30
0.0
 11
564.7433501725
 21
612.7273240478
 31
0.0
  0
LINE
  5
294
330
1F
100
AcDbEntity
  8
0
  6
Continuous
 62
     7
370
    25
100
AcDbLine
 10
260.7433501725
 20
612.7273240478
 30
0.0
 11
261.2433501725
 21
607.3523240478
 31
0.0
  0
LINE
  5
295
330
1F
100
AcDbEntity
  8
0
  6
Continuous
 62
     7
370
    25
100
AcDbLine
 10
564.2433501725
 20
607.3523240478
 30
0.0
 11
564.2433501725
 21
605.5523240478
 31
0.0
  0
LINE
  5
296
330
1F
100
AcDbEntity
  8
0
  6
Continuous
 62
     7
370
    25
100
AcDbLine
 10
564.2433501725
 20
605.5523240478
 30
0.0
 11
261.2433501725
 21
605.5523240478
 31
0.0
  0
LINE
  5
297
330
1F
100
AcDbEntity
  8
0
  6
Continuous
 62
     7
370
    25
100
AcDbLine
 10
261.2433501725
 20
605.5523240478
 30
0.0
 11
261.2433501725
 21
607.3523240478
 31
0.0
  0
LINE
  5
298
330
1F
100
AcDbEntity
  8
0
  6
Continuous
 62
     7
370
    25
100
AcDbLine
 10
250.5433501725
 20
590.8349859705
 30
0.0
 11
250.5433501725
 21
590.5935740478
 31
0.0
  0
LINE
  5
299
330
1F
100
AcDbEntity
  8
0
  6
Continuous
 62
     7
370
    25
100
AcDbLine
 10
250.5433501725
 20
595.5110740478
 30
0.0
 11
250.5433501725
 21
590.8349859705
 31
0.0
  0
LINE
  5
29A
330
1F
100
AcDbEntity
  8
0
  6
Continuous
 62
     7
370
    25
100
AcDbLine
 10
251.0846001725
 20
596.0523240478
 30
0.0
 11
251.0846001725
 21
595.8523240478
 31
0.0
  0
LINE
  5
29B
330
1F
100
AcDbEntity
  8
0
  6
Continuous
 62
     7
370
    25
100
AcDbLine
 10
251.0846001725
 20
590.2523240478
 30
0.0
 11
251.0846001725
 21
590.0523240478
 31
0.0
  0
SPLINE
  5
29C
330
1F
100
AcDbEntity
  8
0
  6
Continuous
 62
     7
370
    25
100
AcDbSpline
210
0.0
220
0.0
230
1.0
 70
    24
 71
     3
 72
    15
 73
    11
 74
     0
 42
0.000000001
 43
0.00000001
 40
0.0
 40
0.0
 40
0.0
 40
0.0
 40
0.0346967497918696
 40
0.2211884951269676
 40
0.4076802404620665
 40
0.508072015263081
 40
0.6105942475634838
 40
0.7131164798638864
 40
0.8135082546649008
 40
1.0
 40
1.0
 40
1.0
 40
1.0
 10
261.7433501724774
 20
587.2790752384062
 30
0.0
 10
261.7433501724774
 20
587.2723541347749
 30
0.0
 10
261.7433501724774
 20
587.2295077354221
 30
0.0
 10
261.7433501724774
 20
587.7175486981805
 30
0.0
 10
261.7433501724774
 20
588.8134597556491
 30
0.0
 10
261.7433501724774
 20
590.0323568880966
 30
0.0
 10
261.7433501724774
 20
591.1125321159536
 30
0.0
 10
261.7433501724774
 20
592.2730090184192
 30
0.0
 10
261.7433501724775
 20
593.8035839135343
 30
0.0
 10
261.7433501724774
 20
594.8672098021844
 30
0.0
 10
261.7433501724774
 20
595.5586313528676
 30
0.0
  0
SPLINE
  5
29D
330
1F
100
AcDbEntity
  8
0
  6
Continuous
 62
     7
370
    25
100
AcDbSpline
210
0.0
220
0.0
230
1.0
 70
    24
 71
     3
 72
    12
 73
     8
 74
     0
 42
0.000000001
 43
0.00000001
 40
0.0
 40
0.0
 40
0.0
 40
0.0
 40
0.3344405486782647
 40
0.5144757571369875
 40
0.6983315710265398
 40
0.8821873849160913
 40
1.0
 40
1.0
 40
1.0
 40
1.0
 10
261.7433501724774
 20
595.5586313528676
 30
0.0
 10
261.7433501724774
 20
596.1827768883694
 30
0.0
 10
261.7433501724774
 20
597.142910903847
 30
0.0
 10
261.7433501724775
 20
598.0508218101422
 30
0.0
 10
261.7433501724774
 20
598.5565391480584
 30
0.0
 10
261.7433501724775
 20
598.8281588821967
 30
0.0
 10
261.7433501724775
 20
598.8262991507369
 30
0.0
 10
261.7433501724775
 20
598.8255728572119
 30
0.0
  0
LINE
  5
29E
330
1F
100
AcDbEntity
  8
0
  6
Continuous
 62
     7
370
    25
100
AcDbLine
 10
265.7433501725
 20
592.6689290201
 30
0.0
 11
265.7433501725
 21
597.1780049271
 31
0.0
  0
SPLINE
  5
29F
330
1F
100
AcDbEntity
  8
0
  6
Continuous
 62
     7
370
    25
100
AcDbSpline
210
0.0
220
0.0
230
1.0
 70
     8
 71
     3
 72
     8
 73
     4
 74
     0
 42
0.000000001
 43
0.00000001
 40
0.0
 40
0.0
 40
0.0
 40
0.0
 40
1.0
 40
1.0
 40
1.0
 40
1.0
 10
265.7433501724704
 20
592.6689290201226
 30
0.0
 10
265.7433501724704
 20
593.6513074646954
 30
0.0
 10
265.569034872091
 20
594.6067986328851
 30
0.0
 10
265.2967681850791
 20
595.5471812822127
 30
0.0
  0
SPLINE
  5
2A0
330
1F
100
AcDbEntity
  8
0
  6
Continuous
 62
     7
370
    25
100
AcDbSpline
210
0.0
220
0.0
230
1.0
 70
     8
 71
     3
 72
     8
 73
     4
 74
     0
 42
0.000000001
 43
0.00000001
 40
0.0
 40
0.0
 40
0.0
 40
0.0
 40
1.0
 40
1.0
 40
1.0
 40
1.0
 10
265.296768185079
 20
595.5471812822188
 30
0.0
 10
265.5690348720904
 20
596.0800040232837
 30
0.0
 10
265.7433501724703
 20
596.6213872821783
 30
0.0
 10
265.7433501724703
 20
597.1780049271067
 30
0.0
  0
SPLINE
  5
2A1
330
1F
100
AcDbEntity
  8
0
  6
Continuous
 62
     7
370
    25
100
AcDbSpline
210
0.0
220
0.0
230
1.0
 70
     8
 71
     3
 72
     8
 73
     4
 74
     0
 42
0.000000001
 43
0.00000001
 40
0.0
 40
0.0
 40
0.0
 40
0.0
 40
1.0
 40
1.0
 40
1.0
 40
1.0
 10
265.2967681850791
 20
589.7906767580326
 30
0.0
 10
265.5690348720905
 20
590.7310594073584
 30
0.0
 10
265.7433501724704
 20
591.6865505755518
 30
0.0
 10
265.7433501724704
 20
592.6689290201226
 30
0.0
  0
LINE
  5
2A2
330
1F
100
AcDbEntity
  8
0
  6
Continuous
 62
     7
370
    25
100
AcDbLine
 10
261.7433501725
 20
589.790676758
 30
0.0
 11
265.2967681851
 21
589.790676758
 31
0.0
  0
LINE
  5
2A3
330
1F
100
AcDbEntity
  8
0
  6
Continuous
 62
     7
370
    25
100
AcDbLine
 10
261.7433501725
 20
595.5471812822
 30
0.0
 11
265.2967681851
 21
595.5471812822
 31
0.0
  0
LINE
  5
2A4
330
1F
100
AcDbEntity
  8
0
  6
Continuous
 62
     7
370
    25
100
AcDbLine
 10
265.7433501725
 20
588.5432481408
 30
0.0
 11
265.7433501725
 21
592.6689290201
 31
0.0
  0
SPLINE
  5
2A5
330
1F
100
AcDbEntity
  8
0
  6
Continuous
 62
     7
370
    25
100
AcDbSpline
210
0.0
220
0.0
230
1.0
 70
     8
 71
     3
 72
     8
 73
     4
 74
     0
 42
0.000000001
 43
0.00000001
 40
0.0
 40
0.0
 40
0.0
 40
0.0
 40
1.0
 40
1.0
 40
1.0
 40
1.0
 10
265.7433501724703
 20
588.5432481408252
 30
0.0
 10
265.7433501724703
 20
588.9690089404684
 30
0.0
 10
265.5690348720909
 20
589.3831168497654
 30
0.0
 10
265.296768185079
 20
589.7906767580271
 30
0.0
  0
SPLINE
  5
2A6
330
1F
100
AcDbEntity
  8
0
  6
Continuous
 62
     7
370
    25
100
AcDbSpline
210
0.0
220
0.0
230
1.0
 70
     8
 71
     3
 72
     8
 73
     4
 74
     0
 42
0.000000001
 43
0.00000001
 40
0.0
 40
0.0
 40
0.0
 40
0.0
 40
1.0
 40
1.0
 40
1.0
 40
1.0
 10
265.7433501724703
 20
597.1780049271067
 30
0.0
 10
265.7433501724703
 20
597.7346225720365
 30
0.0
 10
265.5690348720912
 20
598.2760058309284
 30
0.0
 10
265.296768185079
 20
598.8088285719946
 30
0.0
  0
LINE
  5
2A7
330
1F
100
AcDbEntity
  8
0
  6
Continuous
 62
     7
370
    25
100
AcDbLine
 10
265.2967681851
 20
598.808828572
 30
0.0
 11
261.7433501725
 21
598.808828572
 31
0.0
  0
SPLINE
  5
2A8
330
1F
100
AcDbEntity
  8
0
  6
Continuous
 62
     7
370
    25
100
AcDbSpline
210
0.0
220
0.0
230
1.0
 70
     8
 71
     3
 72
     8
 73
     4
 74
     0
 42
0.000000001
 43
0.00000001
 40
0.0
 40
0.0
 40
0.0
 40
0.0
 40
1.0
 40
1.0
 40
1.0
 40
1.0
 10
265.296768185079
 20
587.2958195236231
 30
0.0
 10
265.5690348720904
 20
587.7033794318841
 30
0.0
 10
265.7433501724703
 20
588.1174873411826
 30
0.0
 10
265.7433501724703
 20
588.5432481408252
 30
0.0
  0
LINE
  5
2A9
330
1F
100
AcDbEntity
  8
0
  6
Continuous
 62
     7
370
    25
100
AcDbLine
 10
261.7433501725
 20
587.2958195236
 30
0.0
 11
265.2967681851
 21
587.2958195236
 31
0.0
  0
LINE
  5
2AA
330
1F
100
AcDbEntity
  8
0
  6
Continuous
 62
     7
370
    25
100
AcDbLine
 10
250.7433501725
 20
590.8349859705
 30
0.0
 11
250.7433501725
 21
590.5935740478
 31
0.0
  0
LINE
  5
2AB
330
1F
100
AcDbEntity
  8
0
  6
Continuous
 62
     7
370
    25
100
AcDbLine
 10
250.7433501725
 20
595.5110740478
 30
0.0
 11
250.7433501725
 21
590.8349859705
 31
0.0
  0
LINE
  5
2AC
330
1F
100
AcDbEntity
  8
0
  6
Continuous
 62
     7
370
    25
100
AcDbLine
 10
251.2846001725
 20
596.0523240478
 30
0.0
 11
251.2846001725
 21
590.0523240478
 31
0.0
  0
LINE
  5
2AD
330
1F
100
AcDbEntity
  8
0
  6
Continuous
 62
     7
370
    25
100
AcDbLine
 10
265.2967681851
 20
598.808828572
 30
0.0
 11
265.3719559406
 21
598.5988081042
 31
0.0
  0
LINE
  5
2AE
330
1F
100
AcDbEntity
  8
0
  6
Continuous
 62
     7
370
    25
100
AcDbLine
 10
265.7433501725
 20
597.1780049271
 30
0.0
 11
265.7433501725
 21
598.0523240478
 31
0.0
  0
LINE
  5
2AF
330
1F
100
AcDbEntity
  8
0
  6
Continuous
 62
     7
370
    25
100
AcDbLine
 10
265.7433501725
 20
588.0523240478
 30
0.0
 11
265.7433501725
 21
588.5432481408
 31
0.0
  0
LINE
  5
2B0
330
1F
100
AcDbEntity
  8
0
  6
Continuous
 62
     7
370
    25
100
AcDbLine
 10
260.7433501725
 20
585.1523240478
 30
0.0
 11
258.7433501725
 21
585.1523240478
 31
0.0
  0
LINE
  5
2B1
330
1F
100
AcDbEntity
  8
0
  6
Continuous
 62
     7
370
    25
100
AcDbLine
 10
258.7433501725
 20
585.1523240478
 30
0.0
 11
258.7433501725
 21
587.1523240478
 31
0.0
  0
LINE
  5
2B2
330
1F
100
AcDbEntity
  8
0
  6
Continuous
 62
     7
370
    25
100
AcDbLine
 10
260.7433501725
 20
587.1523240478
 30
0.0
 11
260.7433501725
 21
585.1523240478
 31
0.0
  0
LINE
  5
2B3
330
1F
100
AcDbEntity
  8
0
  6
Continuous
 62
     7
370
    25
100
AcDbLine
 10
258.7433501725
 20
587.1523240478
 30
0.0
 11
258.7433501725
 21
616.1523240478
 31
0.0
  0
LINE
  5
2B4
330
1F
100
AcDbEntity
  8
0
  6
Continuous
 62
     7
370
    25
100
AcDbLine
 10
260.7433501725
 20
587.1523240478
 30
0.0
 11
260.7433501725
 21
616.1523240478
 31
0.0
  0
LINE
  5
2B5
330
1F
100
AcDbEntity
  8
0
  6
Continuous
 62
     7
370
    25
100
AcDbLine
 10
258.7450173024
 20
616.2523240478
 30
0.0
 11
258.7433501725
 21
616.1523240478
 31
0.0
  0
LINE
  5
2B6
330
1F
100
AcDbEntity
  8
0
  6
Continuous
 62
     7
370
    25
100
AcDbLine
 10
260.7483627354
 20
616.2523240478
 30
0.0
 11
260.7433501725
 21
616.1523240478
 31
0.0
  0
LINE
  5
2B7
330
1F
100
AcDbEntity
  8
0
  6
Continuous
 62
     7
370
    25
100
AcDbLine
 10
258.7433501725
 20
601.1523240478
 30
0.0
 11
258.6830427933
 21
601.1523240478
 31
0.0
  0
LINE
  5
2B8
330
1F
100
AcDbEntity
  8
0
  6
Continuous
 62
     7
370
    25
100
AcDbLine
 10
258.6830427933
 20
585.1523240478
 30
0.0
 11
258.7433501725
 21
585.1523240478
 31
0.0
  0
LWPOLYLINE
  5
2B9
330
1F
100
AcDbEntity
  8
0
  6
Continuous
 62
     7
370
    25
100
AcDbPolyline
 90
        9
 70
   128
 43
0.0
 10
256.1278037843
 20
587.1523240478
 10
256.1409474266
 20
586.7621434038
 10
256.1798732507
 20
586.3869571831
 10
256.243085359
 20
586.0411835818
 10
256.3281545457
 20
585.7381104854
 10
256.4318116495
 20
585.4893848232
 10
256.5500731862
 20
585.3045649828
 10
256.6783944312
 20
585.190753487
 10
256.811844071
 20
585.1523240478
  0
LINE
  5
2BA
330
1F
100
AcDbEntity
  8
0
  6
Continuous
 62
     7
370
    25
100
AcDbLine
 10
256.1278037843
 20
587.1523240478
 30
0.0
 11
256.1278037843
 21
590.0523240478
 31
0.0
  0
LINE
  5
2BB
330
1F
100
AcDbEntity
  8
0
  6
Continuous
 62
     7
370
    25
100
AcDbLine
 10
256.1278037843
 20
596.0523240478
 30
0.0
 11
256.1278037843
 21
599.1523240478
 31
0.0
  0
LWPOLYLINE
  5
2BC
330
1F
100
AcDbEntity
  8
0
  6
Continuous
 62
     7
370
    25
100
AcDbPolyline
 90
        9
 70
   128
 43
0.0
 10
256.811844071
 20
601.1523240478
 10
256.6783944312
 20
601.1138946086
 10
256.5500731862
 20
601.0000831128
 10
256.4318116495
 20
600.8152632724
 10
256.3281545457
 20
600.5665376102
 10
256.243085359
 20
600.2634645138
 10
256.1798732507
 20
599.9176909125
 10
256.1409474266
 20
599.5425046918
 10
256.1278037843
 20
599.1523240478
  0
LINE
  5
2BD
330
1F
100
AcDbEntity
  8
0
  6
Continuous
 62
     7
370
    25
100
AcDbLine
 10
256.811844071
 20
601.1523240478
 30
0.0
 11
258.6830427933
 21
601.1523240478
 31
0.0
  0
LINE
  5
2BE
330
1F
100
AcDbEntity
  8
0
  6
Continuous
 62
     7
370
    25
100
AcDbLine
 10
258.6830427933
 20
585.1523240478
 30
0.0
 11
256.811844071
 21
585.1523240478
 31
0.0
  0
LINE
  5
2BF
330
1F
100
AcDbEntity
  8
0
  6
Continuous
 62
     7
370
    25
100
AcDbLine
 10
566.7433501725
 20
616.1523240478
 30
0.0
 11
566.7433501725
 21
587.1523240478
 31
0.0
  0
LINE
  5
2C0
330
1F
100
AcDbEntity
  8
0
  6
Continuous
 62
     7
370
    25
100
AcDbLine
 10
564.7433501725
 20
616.1523240478
 30
0.0
 11
564.7433501725
 21
587.1523240478
 31
0.0
  0
LINE
  5
2C1
330
1F
100
AcDbEntity
  8
0
  6
Continuous
 62
     7
370
    25
100
AcDbLine
 10
566.7433501725
 20
585.1523240478
 30
0.0
 11
564.7433501725
 21
585.1523240478
 31
0.0
  0
LINE
  5
2C2
330
1F
100
AcDbEntity
  8
0
  6
Continuous
 62
     7
370
    25
100
AcDbLine
 10
564.7433501725
 20
585.1523240478
 30
0.0
 11
564.7433501725
 21
587.1523240478
 31
0.0
  0
LINE
  5
2C3
330
1F
100
AcDbEntity
  8
0
  6
Continuous
 62
     7
370
    25
100
AcDbLine
 10
566.7433501725
 20
587.1523240478
 30
0.0
 11
566.7433501725
 21
585.1523240478
 31
0.0
  0
LINE
  5
2C4
330
1F
100
AcDbEntity
  8
0
  6
Continuous
 62
     7
370
    25
100
AcDbLine
 10
566.7433501725
 20
616.1523240478
 30
0.0
 11
566.7416830426
 21
616.2523240478
 31
0.0
  0
LINE
  5
2C5
330
1F
100
AcDbEntity
  8
0
  6
Continuous
 62
     7
370
    25
100
AcDbLine
 10
564.7433501725
 20
616.1523240478
 30
0.0
 11
564.7383376096
 21
616.2523240478
 31
0.0
  0
LINE
  5
2C6
330
1F
100
AcDbEntity
  8
0
  6
Continuous
 62
     7
370
    25
100
AcDbLine
 10
566.8036575517
 20
601.1523240478
 30
0.0
 11
566.7433501725
 21
601.1523240478
 31
0.0
  0
LINE
  5
2C7
330
1F
100
AcDbEntity
  8
0
  6
Continuous
 62
     7
370
    25
100
AcDbLine
 10
566.7433501725
 20
585.1523240478
 30
0.0
 11
566.8036575517
 21
585.1523240478
 31
0.0
  0
LWPOLYLINE
  5
2C8
330
1F
100
AcDbEntity
  8
0
  6
Continuous
 62
     7
370
    25
100
AcDbPolyline
 90
        9
 70
   128
 43
0.0
 10
568.674856274
 20
585.1523240478
 10
568.8083059138
 20
585.190753487
 10
568.9366271588
 20
585.3045649828
 10
569.0548886955
 20
585.4893848232
 10
569.1585457993
 20
585.7381104854
 10
569.2436149859
 20
586.0411835818
 10
569.3068270943
 20
586.3869571831
 10
569.3457529184
 20
586.7621434038
 10
569.3588965607
 20
587.1523240478
  0
LINE
  5
2C9
330
1F
100
AcDbEntity
  8
0
  6
Continuous
 62
     7
370
    25
100
AcDbLine
 10
566.8036575517
 20
601.1523240478
 30
0.0
 11
568.674856274
 21
601.1523240478
 31
0.0
  0
LWPOLYLINE
  5
2CA
330
1F
100
AcDbEntity
  8
0
  6
Continuous
 62
     7
370
    25
100
AcDbPolyline
 90
        9
 70
   128
 43
0.0
 10
569.3588965607
 20
599.1523240478
 10
569.3457529184
 20
599.5425046918
 10
569.3068270943
 20
599.9176909125
 10
569.2436149859
 20
600.2634645138
 10
569.1585457993
 20
600.5665376102
 10
569.0548886955
 20
600.8152632724
 10
568.9366271588
 20
601.0000831128
 10
568.8083059138
 20
601.1138946086
 10
568.674856274
 20
601.1523240478
  0
LINE
  5
2CB
330
1F
100
AcDbEntity
  8
0
  6
Continuous
 62
     7
370
    25
100
AcDbLine
 10
569.3588965607
 20
599.1523240478
 30
0.0
 11
569.3588965607
 21
596.0523240478
 31
0.0
  0
LINE
  5
2CC
330
1F
100
AcDbEntity
  8
0
  6
Continuous
 62
     7
370
    25
100
AcDbLine
 10
569.3588965607
 20
590.0523240478
 30
0.0
 11
569.3588965607
 21
587.1523240478
 31
0.0
  0
LINE
  5
2CD
330
1F
100
AcDbEntity
  8
0
  6
Continuous
 62
     7
370
    25
100
AcDbLine
 10
568.674856274
 20
585.1523240478
 30
0.0
 11
566.8036575517
 21
585.1523240478
 31
0.0
  0
LINE
  5
2CE
330
1F
100
AcDbEntity
  8
0
  6
Continuous
 62
     7
370
    25
100
AcDbLine
 10
549.4933501725
 20
611.1523240478
 30
0.0
 11
549.4933501725
 21
611.6523240478
 31
0.0
  0
LINE
  5
2CF
330
1F
100
AcDbEntity
  8
0
  6
Continuous
 62
     7
370
    25
100
AcDbLine
 10
558.9933501725
 20
611.6523240478
 30
0.0
 11
558.9933501725
 21
611.1523240478
 31
0.0
  0
LINE
  5
2D0
330
1F
100
AcDbEntity
  8
0
  6
Continuous
 62
     7
370
    25
100
AcDbLine
 10
558.9933501725
 20
611.1523240478
 30
0.0
 11
549.4933501725
 21
611.1523240478
 31
0.0
  0
ARC
  5
2D1
330
1F
100
AcDbEntity
  8
0
  6
Continuous
 62
     7
370
    25
100
AcDbCircle
 10
559.7567501725
 20
612.3889240478
 30
0.0
 40
1.236600000000067
100
AcDbArc
 50
270.0
 51
323.4399088994
  0
LINE
  5
2D2
330
1F
100
AcDbEntity
  8
0
  6
Continuous
 62
     7
370
    25
100
AcDbLine
 10
549.4933501725
 20
611.1523240478
 30
0.0
 11
548.7299501725
 21
611.1523240478
 31
0.0
  0
ARC
  5
2D3
330
1F
100
AcDbEntity
  8
0
  6
Continuous
 62
     7
370
    25
100
AcDbCircle
 10
548.7299501725
 20
612.3889240478
 30
0.0
 40
1.236600000000106
100
AcDbArc
 50
216.5600911006
 51
270.0
  0
LINE
  5
2D4
330
1F
100
AcDbEntity
  8
0
  6
Continuous
 62
     7
370
    25
100
AcDbLine
 10
559.7567501725
 20
611.1523240478
 30
0.0
 11
558.9933501725
 21
611.1523240478
 31
0.0
  0
ARC
  5
2D5
330
1F
100
AcDbEntity
  8
0
  6
Continuous
 62
     7
370
    25
100
AcDbCircle
 10
573.2433501725
 20
622.2523240478
 30
0.0
 40
6.000000000000114
100
AcDbArc
 50
270.0
 51
323.1301023541
  0
ARC
  5
2D6
330
1F
100
AcDbEntity
  8
0
  6
Continuous
 62
     7
370
    25
100
AcDbCircle
 10
252.2433501725
 20
622.2523240478
 30
0.0
 40
6.000000000000114
100
AcDbArc
 50
216.8698976459
 51
270.0
  0
ARC
  5
2D7
330
1F
100
AcDbEntity
  8
0
  6
Continuous
 62
     7
370
    25
100
AcDbCircle
 10
564.4433501725
 20
-10.7229067997
 30
0.0
 40
0.5000000000001137
100
AcDbArc
 50
180.0
 51
0.0
  0
ARC
  5
2D8
330
1F
100
AcDbEntity
  8
0
  6
Continuous
 62
     7
370
    25
100
AcDbCircle
 10
564.4433501725
 20
0.8770932005
 30
0.0
 40
0.5000000000001137
100
AcDbArc
 50
360.0
 51
180.0
  0
LINE
  5
2D9
330
1F
100
AcDbEntity
  8
0
  6
Continuous
 62
     7
370
    25
100
AcDbLine
 10
574.4021001725
 20
-1.9229067996
 30
0.0
 11
565.7433501725
 21
-1.9229067996
 31
0.0
  0
LINE
  5
2DA
330
1F
100
AcDbEntity
  8
0
  6
Continuous
 62
     7
370
    25
100
AcDbLine
 10
565.7433501725
 20
-7.9229067996
 30
0.0
 11
574.4021001725
 21
-7.9229067996
 31
0.0
  0
LINE
  5
2DB
330
1F
100
AcDbEntity
  8
0
  6
Continuous
 62
     7
370
    25
100
AcDbLine
 10
574.4021001725
 20
-7.9229067996
 30
0.0
 11
574.9433501725
 21
-7.3816567996
 31
0.0
  0
LINE
  5
2DC
330
1F
100
AcDbEntity
  8
0
  6
Continuous
 62
     7
370
    25
100
AcDbLine
 10
574.9433501725
 20
-2.4641567996
 30
0.0
 11
574.4021001725
 21
-1.9229067996
 31
0.0
  0
LINE
  5
2DD
330
1F
100
AcDbEntity
  8
0
  6
Continuous
 62
     7
370
    25
100
AcDbLine
 10
540.6628118775
 20
-16.2743353991
 30
0.0
 11
541.0933501725
 21
-16.5229067996
 31
0.0
  0
LINE
  5
2DE
330
1F
100
AcDbEntity
  8
0
  6
Continuous
 62
     7
370
    25
100
AcDbLine
 10
547.3933501725
 20
-16.5229067996
 30
0.0
 11
547.7885647581
 21
-16.2947295522
 31
0.0
  0
LINE
  5
2DF
330
1F
100
AcDbEntity
  8
0
  6
Continuous
 62
     7
370
    25
100
AcDbLine
 10
547.7885647581
 20
-13.551084047
 30
0.0
 11
547.3933501725
 21
-13.3229067996
 31
0.0
  0
LINE
  5
2E0
330
1F
100
AcDbEntity
  8
0
  6
Continuous
 62
     7
370
    25
100
AcDbLine
 10
541.0933501725
 20
-13.3229067996
 30
0.0
 11
540.6628118775
 21
-13.5714782001
 31
0.0
  0
LINE
  5
2E1
330
1F
100
AcDbEntity
  8
0
  6
Continuous
 62
     7
370
    25
100
AcDbLine
 10
409.1628118775
 20
-16.2743353991
 30
0.0
 11
409.5933501725
 21
-16.5229067996
 31
0.0
  0
LINE
  5
2E2
330
1F
100
AcDbEntity
  8
0
  6
Continuous
 62
     7
370
    25
100
AcDbLine
 10
415.8933501725
 20
-16.5229067996
 30
0.0
 11
416.2885647581
 21
-16.2947295522
 31
0.0
  0
LINE
  5
2E3
330
1F
100
AcDbEntity
  8
0
  6
Continuous
 62
     7
370
    25
100
AcDbLine
 10
416.2885647581
 20
-13.551084047
 30
0.0
 11
415.8933501725
 21
-13.3229067996
 31
0.0
  0
LINE
  5
2E4
330
1F
100
AcDbEntity
  8
0
  6
Continuous
 62
     7
370
    25
100
AcDbLine
 10
409.5933501725
 20
-13.3229067996
 30
0.0
 11
409.1628118775
 21
-13.5714782001
 31
0.0
  0
LINE
  5
2E5
330
1F
100
AcDbEntity
  8
0
  6
Continuous
 62
     7
370
    25
100
AcDbLine
 10
284.7885647581
 20
-13.551084047
 30
0.0
 11
284.3933501725
 21
-13.3229067996
 31
0.0
  0
LINE
  5
2E6
330
1F
100
AcDbEntity
  8
0
  6
Continuous
 62
     7
370
    25
100
AcDbLine
 10
278.0933501725
 20
-13.3229067996
 30
0.0
 11
277.6628118775
 21
-13.5714782001
 31
0.0
  0
LINE
  5
2E7
330
1F
100
AcDbEntity
  8
0
  6
Continuous
 62
     7
370
    25
100
AcDbLine
 10
277.6628118775
 20
-16.2743353991
 30
0.0
 11
278.0933501725
 21
-16.5229067996
 31
0.0
  0
LINE
  5
2E8
330
1F
100
AcDbEntity
  8
0
  6
Continuous
 62
     7
370
    25
100
AcDbLine
 10
284.3933501725
 20
-16.5229067996
 30
0.0
 11
284.7885647581
 21
-16.2947295522
 31
0.0
  0
LINE
  5
2E9
330
1F
100
AcDbEntity
  8
0
  6
Continuous
 62
     7
370
    25
100
AcDbLine
 10
260.2433501725
 20
-29.9729067996
 30
0.0
 11
565.2433501725
 21
-29.9729067996
 31
0.0
  0
LINE
  5
2EA
330
1F
100
AcDbEntity
  8
0
  6
Continuous
 62
     7
370
    25
100
AcDbLine
 10
542.2433501725
 20
-8.2229067996
 30
0.0
 11
542.2433501725
 21
-13.3229067996
 31
0.0
  0
LINE
  5
2EB
330
1F
100
AcDbEntity
  8
0
  6
Continuous
 62
     7
370
    25
100
AcDbLine
 10
542.2433501725
 20
-16.5229067996
 30
0.0
 11
542.2433501725
 21
-16.6229067996
 31
0.0
  0
LINE
  5
2EC
330
1F
100
AcDbEntity
  8
0
  6
Continuous
 62
     7
370
    25
100
AcDbLine
 10
546.2433501725
 20
-16.6229067996
 30
0.0
 11
546.2433501725
 21
-16.5229067996
 31
0.0
  0
LINE
  5
2ED
330
1F
100
AcDbEntity
  8
0
  6
Continuous
 62
     7
370
    25
100
AcDbLine
 10
546.2433501725
 20
-13.3229067996
 30
0.0
 11
546.2433501725
 21
-8.2229067996
 31
0.0
  0
LINE
  5
2EE
330
1F
100
AcDbEntity
  8
0
  6
Continuous
 62
     7
370
    25
100
AcDbLine
 10
410.7433501725
 20
-8.2229067996
 30
0.0
 11
410.7433501725
 21
-13.3229067996
 31
0.0
  0
LINE
  5
2EF
330
1F
100
AcDbEntity
  8
0
  6
Continuous
 62
     7
370
    25
100
AcDbLine
 10
410.7433501725
 20
-16.5229067996
 30
0.0
 11
410.7433501725
 21
-16.6229067996
 31
0.0
  0
LINE
  5
2F0
330
1F
100
AcDbEntity
  8
0
  6
Continuous
 62
     7
370
    25
100
AcDbLine
 10
414.7433501725
 20
-16.6229067996
 30
0.0
 11
414.7433501725
 21
-16.5229067996
 31
0.0
  0
LINE
  5
2F1
330
1F
100
AcDbEntity
  8
0
  6
Continuous
 62
     7
370
    25
100
AcDbLine
 10
414.7433501725
 20
-13.3229067996
 30
0.0
 11
414.7433501725
 21
-8.2229067996
 31
0.0
  0
LINE
  5
2F2
330
1F
100
AcDbEntity
  8
0
  6
Continuous
 62
     7
370
    25
100
AcDbLine
 10
279.2433501725
 20
-8.2229067996
 30
0.0
 11
279.2433501725
 21
-13.3229067996
 31
0.0
  0
LINE
  5
2F3
330
1F
100
AcDbEntity
  8
0
  6
Continuous
 62
     7
370
    25
100
AcDbLine
 10
279.2433501725
 20
-16.5229067996
 30
0.0
 11
279.2433501725
 21
-16.6229067996
 31
0.0
  0
LINE
  5
2F4
330
1F
100
AcDbEntity
  8
0
  6
Continuous
 62
     7
370
    25
100
AcDbLine
 10
283.2433501725
 20
-16.6229067996
 30
0.0
 11
283.2433501725
 21
-16.5229067996
 31
0.0
  0
LINE
  5
2F5
330
1F
100
AcDbEntity
  8
0
  6
Continuous
 62
     7
370
    25
100
AcDbLine
 10
283.2433501725
 20
-13.3229067996
 30
0.0
 11
283.2433501725
 21
-8.2229067996
 31
0.0
  0
ARC
  5
2F6
330
1F
100
AcDbEntity
  8
0
  6
Continuous
 62
     7
370
    25
100
AcDbCircle
 10
261.0433501725
 20
0.8770932005
 30
0.0
 40
0.5
100
AcDbArc
 50
360.0
 51
180.0
  0
ARC
  5
2F7
330
1F
100
AcDbEntity
  8
0
  6
Continuous
 62
     7
370
    25
100
AcDbCircle
 10
261.0433501725
 20
-10.7229067997
 30
0.0
 40
0.5
100
AcDbArc
 50
180.0
 51
0.0
  0
LINE
  5
2F8
330
1F
100
AcDbEntity
  8
0
  6
Continuous
 62
     7
370
    25
100
AcDbLine
 10
251.0846001725
 20
-1.9229067996
 30
0.0
 11
250.5433501725
 21
-2.4641567996
 31
0.0
  0
LINE
  5
2F9
330
1F
100
AcDbEntity
  8
0
  6
Continuous
 62
     7
370
    25
100
AcDbLine
 10
250.5433501725
 20
-7.3816567996
 30
0.0
 11
251.0846001725
 21
-7.9229067996
 31
0.0
  0
LINE
  5
2FA
330
1F
100
AcDbEntity
  8
0
  6
Continuous
 62
     7
370
    25
100
AcDbLine
 10
251.0846001725
 20
-7.9229067996
 30
0.0
 11
259.7433501725
 21
-7.9229067996
 31
0.0
  0
LINE
  5
2FB
330
1F
100
AcDbEntity
  8
0
  6
Continuous
 62
     7
370
    25
100
AcDbLine
 10
259.7433501725
 20
-1.9229067996
 30
0.0
 11
251.0846001725
 21
-1.9229067996
 31
0.0
  0
LINE
  5
2FC
330
1F
100
AcDbEntity
  8
0
  6
Continuous
 62
     7
370
    25
100
AcDbLine
 10
265.5433501725
 20
0.0770932004
 30
0.0
 11
265.2138670767
 21
0.6477746625
 31
0.0
  0
LINE
  5
2FD
330
1F
100
AcDbEntity
  8
0
  6
Continuous
 62
     7
370
    25
100
AcDbLine
 10
265.2138670767
 20
-10.4935882617
 30
0.0
 11
265.5433501725
 21
-9.9229067996
 31
0.0
  0
LINE
  5
2FE
330
1F
100
AcDbEntity
  8
0
  6
Continuous
 62
     7
370
    25
100
AcDbLine
 10
258.2433501725
 20
-28.1229067996
 30
0.0
 11
252.2433501725
 21
-28.1229067996
 31
0.0
  0
LINE
  5
2FF
330
1F
100
AcDbEntity
  8
0
  6
Continuous
 62
     7
370
    25
100
AcDbLine
 10
567.2433501725
 20
-28.1229067996
 30
0.0
 11
565.0712571492
 21
-28.1229067996
 31
0.0
  0
LINE
  5
300
330
1F
100
AcDbEntity
  8
0
  6
Continuous
 62
     7
370
    25
100
AcDbLine
 10
260.4154431957
 20
-28.1229067996
 30
0.0
 11
258.2433501725
 21
-28.1229067996
 31
0.0
  0
LINE
  5
301
330
1F
100
AcDbEntity
  8
0
  6
Continuous
 62
     7
370
    25
100
AcDbLine
 10
573.2433501725
 20
-28.1229067996
 30
0.0
 11
567.2433501725
 21
-28.1229067996
 31
0.0
  0
SPLINE
  5
302
330
1F
100
AcDbEntity
  8
0
  6
Continuous
 62
     7
370
    25
100
AcDbSpline
210
0.0
220
0.0
230
1.0
 70
    24
 71
     3
 72
     9
 73
     5
 74
     0
 42
0.000000001
 43
0.00000001
 40
0.0
 40
0.0
 40
0.0
 40
0.0
 40
0.5153941859596273
 40
1.0
 40
1.0
 40
1.0
 40
1.0
 10
564.9433501724768
 20
0.7521032003762569
 30
0.0
 10
564.9433501724769
 20
0.7958450484311748
 30
0.0
 10
564.9433501724768
 20
0.8807157148968082
 30
0.0
 10
564.9433501724769
 20
0.8579592796534611
 30
0.0
 10
564.9433501724769
 20
0.8469313788276892
 30
0.0
  0
SPLINE
  5
303
330
1F
100
AcDbEntity
  8
0
  6
Continuous
 62
     7
370
    25
100
AcDbSpline
210
0.0
220
0.0
230
1.0
 70
    24
 71
     3
 72
    17
 73
    13
 74
     0
 42
0.000000001
 43
0.00000001
 40
0.0
 40
0.0
 40
0.0
 40
0.0
 40
0.0359921626376374
 40
0.1205930661280436
 40
0.2034359252874614
 40
0.3573281084250907
 40
0.5112202915627208
 40
0.5940631507221371
 40
0.6786640542125447
 40
0.7632649577029526
 40
0.8461078168623681
 40
1.0
 40
1.0
 40
1.0
 40
1.0
 10
563.9433501724769
 20
0.846931378838618
 30
0.0
 10
563.9433501724769
 20
0.8540827658798958
 30
0.0
 10
563.9433501724769
 20
0.8780437514716464
 30
0.0
 10
563.9433501724768
 20
0.660038825235981
 30
0.0
 10
563.9433501724769
 20
0.0882517281488955
 30
0.0
 10
563.9433501724768
 20
-1.108764847941435
 30
0.0
 10
563.9433501724769
 20
-2.754821607818506
 30
0.0
 10
563.9433501724769
 20
-4.24001196003231
 30
0.0
 10
563.9433501724768
 20
-5.436040084406538
 30
0.0
 10
563.9433501724768
 20
-6.605805497195948
 30
0.0
 10
563.9433501724769
 20
-8.027752677779748
 30
0.0
 10
563.9433501724769
 20
-8.840019957639916
 30
0.0
 10
563.9433501724769
 20
-9.368043117101447
 30
0.0
  0
SPLINE
  5
304
330
1F
100
AcDbEntity
  8
0
  6
Continuous
 62
     7
370
    25
100
AcDbSpline
210
0.0
220
0.0
230
1.0
 70
     8
 71
     3
 72
     8
 73
     4
 74
     0
 42
0.000000001
 43
0.00000001
 40
0.0
 40
0.0
 40
0.0
 40
0.0
 40
1.0
 40
1.0
 40
1.0
 40
1.0
 10
559.943350172484
 20
-1.711105401946832
 30
0.0
 10
559.943350172484
 20
-2.466226208254767
 30
0.0
 10
560.1176654728633
 20
-3.20067968219821
 30
0.0
 10
560.3899321598753
 20
-3.923519752968539
 30
0.0
  0
SPLINE
  5
305
330
1F
100
AcDbEntity
  8
0
  6
Continuous
 62
     7
370
    25
100
AcDbSpline
210
0.0
220
0.0
230
1.0
 70
     8
 71
     3
 72
     8
 73
     4
 74
     0
 42
0.000000001
 43
0.00000001
 40
0.0
 40
0.0
 40
0.0
 40
0.0
 40
1.0
 40
1.0
 40
1.0
 40
1.0
 10
560.3899321598753
 20
0.501308949074959
 30
0.0
 10
560.1176654728638
 20
-0.2215311216943157
 30
0.0
 10
559.943350172484
 20
-0.9559845956400069
 30
0.0
 10
559.943350172484
 20
-1.711105401946832
 30
0.0
  0
LINE
  5
306
330
1F
100
AcDbEntity
  8
0
  6
Continuous
 62
     7
370
    25
100
AcDbLine
 10
560.3899321599
 20
0.5013089491
 30
0.0
 11
563.9433501725
 21
0.5013089491
 31
0.0
  0
LINE
  5
307
330
1F
100
AcDbEntity
  8
0
  6
Continuous
 62
     7
370
    25
100
AcDbLine
 10
563.9433501725
 20
-3.923519753
 30
0.0
 11
560.3899321599
 21
-3.923519753
 31
0.0
  0
SPLINE
  5
308
330
1F
100
AcDbEntity
  8
0
  6
Continuous
 62
     7
370
    25
100
AcDbSpline
210
0.0
220
0.0
230
1.0
 70
     8
 71
     3
 72
     8
 73
     4
 74
     0
 42
0.000000001
 43
0.00000001
 40
0.0
 40
0.0
 40
0.0
 40
0.0
 40
1.0
 40
1.0
 40
1.0
 40
1.0
 10
559.9433501724839
 20
-6.635627627323827
 30
0.0
 10
559.9433501724839
 20
-7.561299205944117
 30
0.0
 10
560.1176654728632
 20
-8.461635550763413
 30
0.0
 10
560.3899321598752
 20
-9.347735501672602
 30
0.0
  0
SPLINE
  5
309
330
1F
100
AcDbEntity
  8
0
  6
Continuous
 62
     7
370
    25
100
AcDbSpline
210
0.0
220
0.0
230
1.0
 70
     8
 71
     3
 72
     8
 73
     4
 74
     0
 42
0.000000001
 43
0.00000001
 40
0.0
 40
0.0
 40
0.0
 40
0.0
 40
1.0
 40
1.0
 40
1.0
 40
1.0
 10
560.3899321598752
 20
-3.923519752975152
 30
0.0
 10
560.1176654728637
 20
-4.809619703882662
 30
0.0
 10
559.9433501724839
 20
-5.709956048705297
 30
0.0
 10
559.9433501724839
 20
-6.635627627323827
 30
0.0
  0
LINE
  5
30A
330
1F
100
AcDbEntity
  8
0
  6
Continuous
 62
     7
370
    25
100
AcDbLine
 10
563.9433501725
 20
-9.3477355017
 30
0.0
 11
560.3899321599
 21
-9.3477355017
 31
0.0
  0
LINE
  5
30B
330
1F
100
AcDbEntity
  8
0
  6
Continuous
 62
     7
370
    25
100
AcDbLine
 10
559.9433501725
 20
-1.7111054019
 30
0.0
 11
559.9433501725
 21
-6.6356276273
 31
0.0
  0
SPLINE
  5
30C
330
1F
100
AcDbEntity
  8
0
  6
Continuous
 62
     7
370
    25
100
AcDbSpline
210
0.0
220
0.0
230
1.0
 70
     8
 71
     3
 72
     8
 73
     4
 74
     0
 42
0.000000001
 43
0.00000001
 40
0.0
 40
0.0
 40
0.0
 40
0.0
 40
1.0
 40
1.0
 40
1.0
 40
1.0
 10
560.3899321598753
 20
-9.347735501677018
 30
0.0
 10
560.1176654728639
 20
-9.510995381815432
 30
0.0
 10
559.943350172484
 20
-9.676878252691846
 30
0.0
 10
559.943350172484
 20
-9.847429025003725
 30
0.0
  0
LINE
  5
30D
330
1F
100
AcDbEntity
  8
0
  6
Continuous
 62
     7
370
    25
100
AcDbLine
 10
559.9433501725
 20
-6.6356276273
 30
0.0
 11
559.9433501725
 21
-9.847429025
 31
0.0
  0
SPLINE
  5
30E
330
1F
100
AcDbEntity
  8
0
  6
Continuous
 62
     7
370
    25
100
AcDbSpline
210
0.0
220
0.0
230
1.0
 70
     8
 71
     3
 72
     8
 73
     4
 74
     0
 42
0.000000001
 43
0.00000001
 40
0.0
 40
0.0
 40
0.0
 40
0.0
 40
1.0
 40
1.0
 40
1.0
 40
1.0
 10
559.943350172484
 20
0.0016154257505589
 30
0.0
 10
559.943350172484
 20
0.1721661980628687
 30
0.0
 10
560.1176654728632
 20
0.3380490689384409
 30
0.0
 10
560.3899321598753
 20
0.5013089490772628
 30
0.0
  0
LINE
  5
30F
330
1F
100
AcDbEntity
  8
0
  6
Continuous
 62
     7
370
    25
100
AcDbLine
 10
559.9433501725
 20
-1.7111054019
 30
0.0
 11
559.9433501725
 21
0.0724551661
 31
0.0
  0
SPLINE
  5
310
330
1F
100
AcDbEntity
  8
0
  6
Continuous
 62
     7
370
    25
100
AcDbSpline
210
0.0
220
0.0
230
1.0
 70
     8
 71
     3
 72
     8
 73
     4
 74
     0
 42
0.000000001
 43
0.00000001
 40
0.0
 40
0.0
 40
0.0
 40
0.0
 40
1.0
 40
1.0
 40
1.0
 40
1.0
 10
559.943350172484
 20
-9.847429025003725
 30
0.0
 10
559.943350172484
 20
-10.01797979731592
 30
0.0
 10
560.1176654728635
 20
-10.18386266819173
 30
0.0
 10
560.3899321598753
 20
-10.34712254833043
 30
0.0
  0
LINE
  5
311
330
1F
100
AcDbEntity
  8
0
  6
Continuous
 62
     7
370
    25
100
AcDbLine
 10
563.9433501725
 20
-10.3471225483
 30
0.0
 11
560.3899321599
 21
-10.3471225483
 31
0.0
  0
LINE
  5
312
330
1F
100
AcDbEntity
  8
0
  6
Continuous
 62
     7
370
    25
100
AcDbLine
 10
574.4021001725
 20
-2.995825961
 30
0.0
 11
574.4021001725
 21
-1.9229067996
 31
0.0
  0
LINE
  5
313
330
1F
100
AcDbEntity
  8
0
  6
Continuous
 62
     7
370
    25
100
AcDbLine
 10
574.4021001725
 20
-7.9229067996
 30
0.0
 11
574.4021001725
 21
-2.995825961
 31
0.0
  0
LINE
  5
314
330
1F
100
AcDbEntity
  8
0
  6
Continuous
 62
     7
370
    25
100
AcDbLine
 10
574.9433501725
 20
-7.3816567996
 30
0.0
 11
574.9433501725
 21
-2.4641567996
 31
0.0
  0
ARC
  5
315
330
1F
100
AcDbEntity
  8
0
  6
Continuous
 62
     7
370
    25
100
AcDbCircle
 10
567.2433501725
 20
-27.5229067996
 30
0.0
 40
3.000000000000068
100
AcDbArc
 50
227.6305369016
 51
270.0
  0
LINE
  5
316
330
1F
100
AcDbEntity
  8
0
  6
Continuous
 62
     7
370
    25
100
AcDbLine
 10
579.2433501725
 20
-30.5229067996
 30
0.0
 11
567.2433501725
 21
-30.5229067996
 31
0.0
  0
ARC
  5
317
330
1F
100
AcDbEntity
  8
0
  6
Continuous
 62
     7
370
    25
100
AcDbCircle
 10
579.2433501725
 20
-27.5229067996
 30
0.0
 40
2.999999999999993
100
AcDbArc
 50
270.0
 51
0.0
  0
LINE
  5
318
330
1F
100
AcDbEntity
  8
0
  6
Continuous
 62
     7
370
    25
100
AcDbLine
 10
582.2433501725
 20
-26.5229067996
 30
0.0
 11
582.2433501725
 21
-27.5229067996
 31
0.0
  0
LINE
  5
319
330
1F
100
AcDbEntity
  8
0
  6
Continuous
 62
     7
370
    25
100
AcDbLine
 10
608.7726394944
 20
-23.5229067996
 30
0.0
 11
585.2433501725
 21
-23.5229067996
 31
0.0
  0
LINE
  5
31A
330
1F
100
AcDbEntity
  8
0
  6
Continuous
 62
     7
370
    25
100
AcDbLine
 10
608.7726394944
 20
-33.1229067996
 30
0.0
 11
608.7726394944
 21
-23.5229067996
 31
0.0
  0
LINE
  5
31B
330
1F
100
AcDbEntity
  8
0
  6
Continuous
 62
     7
370
    25
100
AcDbLine
 10
216.7140608506
 20
-33.1229067996
 30
0.0
 11
216.7140608506
 21
-23.5229067996
 31
0.0
  0
LINE
  5
31C
330
1F
100
AcDbEntity
  8
0
  6
Continuous
 62
     7
370
    25
100
AcDbLine
 10
240.2433501725
 20
-23.5229067996
 30
0.0
 11
216.7140608506
 21
-23.5229067996
 31
0.0
  0
ARC
  5
31D
330
1F
100
AcDbEntity
  8
0
  6
Continuous
 62
     7
370
    25
100
AcDbCircle
 10
240.2433501725
 20
-26.5229067996
 30
0.0
 40
3.0
100
AcDbArc
 50
0.0
 51
90.0
  0
LINE
  5
31E
330
1F
100
AcDbEntity
  8
0
  6
Continuous
 62
     7
370
    25
100
AcDbLine
 10
243.2433501725
 20
-26.5229067996
 30
0.0
 11
243.2433501725
 21
-27.5229067996
 31
0.0
  0
ARC
  5
31F
330
1F
100
AcDbEntity
  8
0
  6
Continuous
 62
     7
370
    25
100
AcDbCircle
 10
246.2433501725
 20
-27.5229067996
 30
0.0
 40
3.0
100
AcDbArc
 50
180.0
 51
270.0
  0
LINE
  5
320
330
1F
100
AcDbEntity
  8
0
  6
Continuous
 62
     7
370
    25
100
AcDbLine
 10
246.2433501725
 20
-30.5229067996
 30
0.0
 11
258.2433501725
 21
-30.5229067996
 31
0.0
  0
ARC
  5
321
330
1F
100
AcDbEntity
  8
0
  6
Continuous
 62
     7
370
    25
100
AcDbCircle
 10
258.2433501725
 20
-27.5229067996
 30
0.0
 40
3.00000000000003
100
AcDbArc
 50
270.0
 51
312.3694630984
  0
ARC
  5
322
330
1F
100
AcDbEntity
  8
0
  6
Continuous
 62
     7
370
    25
100
AcDbCircle
 10
585.2433501725
 20
-26.5229067996
 30
0.0
 40
3.000000000000114
100
AcDbArc
 50
90.0
 51
180.0
  0
SPLINE
  5
323
330
1F
100
AcDbEntity
  8
0
  6
Continuous
 62
     7
370
    25
100
AcDbSpline
210
0.0
220
0.0
230
1.0
 70
     8
 71
     3
 72
    20
 73
    16
 74
     0
 42
0.000000001
 43
0.00000001
 40
0.0
 40
0.0
 40
0.0
 40
0.0
 40
0.125
 40
0.125
 40
0.2499999999999999
 40
0.2499999999999999
 40
0.3749999999999999
 40
0.3749999999999999
 40
0.4999999999999999
 40
0.4999999999999999
 40
0.7499999999999998
 40
0.7499999999999998
 40
0.8749999999999998
 40
0.8749999999999998
 40
1.0
 40
1.0
 40
1.0
 40
1.0
 10
217.6433501724775
 20
-35.52290679962374
 30
0.0
 10
217.6043094416229
 20
-35.52290679962374
 30
0.0
 10
217.5657907374231
 20
-35.50737023914889
 30
0.0
 10
217.4883839861152
 20
-35.4460518871883
 30
0.0
 10
217.4492395681285
 20
-35.3996281416015
 30
0.0
 10
217.3720888142134
 20
-35.27967727144737
 30
0.0
 10
217.3337612324723
 20
-35.20607262716394
 30
0.0
 10
217.2562149119958
 20
-35.0313422610683
 30
0.0
 10
217.2172387043271
 20
-34.93049163216676
 30
0.0
 10
217.101743847882
 20
-34.59920635218283
 30
0.0
 10
217.0238314042119
 20
-34.33152619079896
 30
0.0
 10
216.908351478811
 20
-33.89885216474355
 30
0.0
 10
216.869485682946
 20
-33.74733407789241
 30
0.0
 10
216.7917113492774
 20
-33.4379083205063
 30
0.0
 10
216.7531015823228
 20
-33.28128599081254
 30
0.0
 10
216.7140608505961
 20
-33.12290679962381
 30
0.0
  0
LINE
  5
324
330
1F
100
AcDbEntity
  8
0
  6
Continuous
 62
     7
370
    25
100
AcDbLine
 10
607.8433501725
 20
-35.5229067996
 30
0.0
 11
217.6433501725
 21
-35.5229067996
 31
0.0
  0
SPLINE
  5
325
330
1F
100
AcDbEntity
  8
0
  6
Continuous
 62
     7
370
    25
100
AcDbSpline
210
0.0
220
0.0
230
1.0
 70
     8
 71
     3
 72
    20
 73
    16
 74
     0
 42
0.000000001
 43
0.00000001
 40
0.0
 40
0.0
 40
0.0
 40
0.0
 40
0.1250000000000019
 40
0.1250000000000019
 40
0.2500000000000038
 40
0.2500000000000038
 40
0.3750000000000058
 40
0.3750000000000058
 40
0.5000000000000077
 40
0.5000000000000077
 40
0.7500000000000063
 40
0.7500000000000063
 40
0.8750000000000032
 40
0.8750000000000032
 40
1.0
 40
1.0
 40
1.0
 40
1.0
 10
608.7726394943589
 20
-33.12290679962373
 30
0.0
 10
608.7335987635043
 20
-33.28128598727444
 30
0.0
 10
608.6950800593045
 20
-33.43753171196612
 30
0.0
 10
608.6176733079967
 20
-33.74552356138275
 30
0.0
 10
608.5785288900099
 20
-33.89816766885387
 30
0.0
 10
608.5013781360947
 20
-34.18725195804092
 30
0.0
 10
608.4630505543538
 20
-34.32505649622497
 30
0.0
 10
608.3855042338773
 20
-34.58667517186388
 30
0.0
 10
608.3465280262085
 20
-34.70942147854653
 30
0.0
 10
608.2310331697635
 20
-35.04074585549423
 30
0.0
 10
608.1531207260933
 20
-35.21975697952246
 30
0.0
 10
608.0376408006924
 20
-35.39937207890335
 30
0.0
 10
607.9987750048275
 20
-35.44561642777106
 30
0.0
 10
607.9210006711588
 20
-35.50736973378228
 30
0.0
 10
607.8823909042042
 20
-35.52290679962373
 30
0.0
 10
607.8433501724775
 20
-35.52290679962374
 30
0.0
  0
SPLINE
  5
326
330
1F
100
AcDbEntity
  8
0
  6
Continuous
 62
     7
370
    25
100
AcDbSpline
210
0.0
220
0.0
230
1.0
 70
     8
 71
     3
 72
     9
 73
     5
 74
     0
 42
0.000000001
 43
0.00000001
 40
0.0
 40
0.0
 40
0.0
 40
0.0
 40
0.4825784287292649
 40
1.0
 40
1.0
 40
1.0
 40
1.0
 10
608.6195204044241
 20
-33.73544653880177
 30
0.0
 10
608.6833285974855
 20
-33.6473121974854
 30
0.0
 10
608.8155520647246
 20
-33.46468003643239
 30
0.0
 10
608.8338713691811
 20
-33.2394471523879
 30
0.0
 10
608.8433501724775
 20
-33.12290679962377
 30
0.0
  0
LINE
  5
327
330
1F
100
AcDbEntity
  8
0
  6
Continuous
 62
     7
370
    25
100
AcDbLine
 10
610.2433501725
 20
-33.1229067996
 30
0.0
 11
608.8433501725
 21
-33.1229067996
 31
0.0
  0
SPLINE
  5
328
330
1F
100
AcDbEntity
  8
0
  6
Continuous
 62
     7
370
    25
100
AcDbSpline
210
0.0
220
0.0
230
1.0
 70
     8
 71
     3
 72
    20
 73
    16
 74
     0
 42
0.000000001
 43
0.00000001
 40
0.0
 40
0.0
 40
0.0
 40
0.0
 40
0.125
 40
0.125
 40
0.2500000000000001
 40
0.2500000000000001
 40
0.3750000000000001
 40
0.3750000000000001
 40
0.5000000000000001
 40
0.5000000000000001
 40
0.7500000000000002
 40
0.7500000000000002
 40
0.8750000000000001
 40
0.8750000000000001
 40
1.0
 40
1.0
 40
1.0
 40
1.0
 10
607.8433501724775
 20
-35.52290679962377
 30
0.0
 10
608.0017293601283
 20
-35.52290679962377
 30
0.0
 10
608.1579750848198
 20
-35.50737023914891
 30
0.0
 10
608.4659669342365
 20
-35.44605188718832
 30
0.0
 10
608.6186110417076
 20
-35.3996281416015
 30
0.0
 10
608.9076953308947
 20
-35.27967727144738
 30
0.0
 10
609.0454998690788
 20
-35.20607262716396
 30
0.0
 10
609.3071185447177
 20
-35.03134226106832
 30
0.0
 10
609.4298648514002
 20
-34.93049163216677
 30
0.0
 10
609.761189228348
 20
-34.59920635218282
 30
0.0
 10
609.9402003523762
 20
-34.33152619079894
 30
0.0
 10
610.1198154517571
 20
-33.89885216474352
 30
0.0
 10
610.1660598006249
 20
-33.74733407789239
 30
0.0
 10
610.2278131066361
 20
-33.4379083205063
 30
0.0
 10
610.2433501724776
 20
-33.28128599081254
 30
0.0
 10
610.2433501724776
 20
-33.12290679962381
 30
0.0
  0
SPLINE
  5
329
330
1F
100
AcDbEntity
  8
0
  6
Continuous
 62
     7
370
    25
100
AcDbSpline
210
0.0
220
0.0
230
1.0
 70
     8
 71
     3
 72
    20
 73
    16
 74
     0
 42
0.000000001
 43
0.00000001
 40
0.0
 40
0.0
 40
0.0
 40
0.0
 40
0.1249999999999981
 40
0.1249999999999981
 40
0.2499999999999962
 40
0.2499999999999962
 40
0.3749999999999942
 40
0.3749999999999942
 40
0.4999999999999923
 40
0.4999999999999923
 40
0.7499999999999936
 40
0.7499999999999936
 40
0.8749999999999968
 40
0.8749999999999968
 40
1.0
 40
1.0
 40
1.0
 40
1.0
 10
215.2433501724775
 20
-33.12290679962373
 30
0.0
 10
215.2433501724774
 20
-33.28128598727444
 30
0.0
 10
215.2588867329524
 20
-33.43753171196612
 30
0.0
 10
215.320205084913
 20
-33.74552356138275
 30
0.0
 10
215.3666288304998
 20
-33.89816766885389
 30
0.0
 10
215.4865797006539
 20
-34.18725195804096
 30
0.0
 10
215.5601843449373
 20
-34.32505649622501
 30
0.0
 10
215.7349147110329
 20
-34.58667517186394
 30
0.0
 10
215.8357653399344
 20
-34.7094214785466
 30
0.0
 10
216.1670506199185
 20
-35.04074585549429
 30
0.0
 10
216.4347307813024
 20
-35.2197569795225
 30
0.0
 10
216.8674048073576
 20
-35.39937207890339
 30
0.0
 10
217.0189228942088
 20
-35.4456164277711
 30
0.0
 10
217.3283486515949
 20
-35.50736973378233
 30
0.0
 10
217.4849709812887
 20
-35.52290679962377
 30
0.0
 10
217.6433501724775
 20
-35.52290679962377
 30
0.0
  0
LINE
  5
32A
330
1F
100
AcDbEntity
  8
0
  6
Continuous
 62
     7
370
    25
100
AcDbLine
 10
215.2433501725
 20
-33.1229067996
 30
0.0
 11
216.6433501725
 21
-33.1229067996
 31
0.0
  0
SPLINE
  5
32B
330
1F
100
AcDbEntity
  8
0
  6
Continuous
 62
     7
370
    25
100
AcDbSpline
210
0.0
220
0.0
230
1.0
 70
     8
 71
     3
 72
     9
 73
     5
 74
     0
 42
0.000000001
 43
0.00000001
 40
0.0
 40
0.0
 40
0.0
 40
0.0
 40
0.678450800572964
 40
1.0
 40
1.0
 40
1.0
 40
1.0
 10
216.6433501724775
 20
-33.12290679962377
 30
0.0
 10
216.6565997429419
 20
-33.27361400407706
 30
0.0
 10
216.6761288973822
 20
-33.49574831997145
 30
0.0
 10
216.816976551021
 20
-33.66258142486063
 30
0.0
 10
216.8622660012898
 20
-33.71622647617568
 30
0.0
  0
LINE
  5
32C
330
1F
100
AcDbEntity
  8
0
  6
Continuous
 62
     7
370
    25
100
AcDbLine
 10
608.8433501725
 20
-33.1229067996
 30
0.0
 11
608.8433501725
 21
-23.5229067996
 31
0.0
  0
LINE
  5
32D
330
1F
100
AcDbEntity
  8
0
  6
Continuous
 62
     7
370
    25
100
AcDbLine
 10
610.2433501725
 20
-33.1229067996
 30
0.0
 11
610.2433501725
 21
-23.5229067996
 31
0.0
  0
LINE
  5
32E
330
1F
100
AcDbEntity
  8
0
  6
Continuous
 62
     7
370
    25
100
AcDbLine
 10
610.2433501725
 20
-23.5229067996
 30
0.0
 11
608.8433501725
 21
-23.5229067996
 31
0.0
  0
LINE
  5
32F
330
1F
100
AcDbEntity
  8
0
  6
Continuous
 62
     7
370
    25
100
AcDbLine
 10
216.6433501725
 20
-33.1229067996
 30
0.0
 11
216.6433501725
 21
-23.5229067996
 31
0.0
  0
LINE
  5
330
330
1F
100
AcDbEntity
  8
0
  6
Continuous
 62
     7
370
    25
100
AcDbLine
 10
215.2433501725
 20
-23.5229067996
 30
0.0
 11
216.6433501725
 21
-23.5229067996
 31
0.0
  0
LINE
  5
331
330
1F
100
AcDbEntity
  8
0
  6
Continuous
 62
     7
370
    25
100
AcDbLine
 10
215.2433501725
 20
-33.1229067996
 30
0.0
 11
215.2433501725
 21
-23.5229067996
 31
0.0
  0
LINE
  5
332
330
1F
100
AcDbEntity
  8
0
  6
Continuous
 62
     7
370
    25
100
AcDbLine
 10
565.7433501725
 20
0.5770932004
 30
0.0
 11
565.7433501725
 21
-16.4229067996
 31
0.0
  0
LINE
  5
333
330
1F
100
AcDbEntity
  8
0
  6
Continuous
 62
     7
370
    25
100
AcDbLine
 10
564.9433501725
 20
0.5770932004
 30
0.0
 11
564.9433501725
 21
-16.4229067996
 31
0.0
  0
LINE
  5
334
330
1F
100
AcDbEntity
  8
0
  6
Continuous
 62
     7
370
    25
100
AcDbLine
 10
564.9433501725
 20
3.5770932004
 30
0.0
 11
565.7433501725
 21
3.5770932004
 31
0.0
  0
LINE
  5
335
330
1F
100
AcDbEntity
  8
0
  6
Continuous
 62
     7
370
    25
100
AcDbLine
 10
565.7433501725
 20
3.5770932004
 30
0.0
 11
565.7433501725
 21
0.5770932004
 31
0.0
  0
LINE
  5
336
330
1F
100
AcDbEntity
  8
0
  6
Continuous
 62
     7
370
    25
100
AcDbLine
 10
564.9433501725
 20
0.5770932004
 30
0.0
 11
564.9433501725
 21
3.5770932004
 31
0.0
  0
LINE
  5
337
330
1F
100
AcDbEntity
  8
0
  6
Continuous
 62
     7
370
    25
100
AcDbLine
 10
260.5433501725
 20
-16.4229067996
 30
0.0
 11
260.5433501725
 21
0.5770932004
 31
0.0
  0
LINE
  5
338
330
1F
100
AcDbEntity
  8
0
  6
Continuous
 62
     7
370
    25
100
AcDbLine
 10
259.7433501725
 20
-16.4229067996
 30
0.0
 11
259.7433501725
 21
0.5770932004
 31
0.0
  0
LINE
  5
339
330
1F
100
AcDbEntity
  8
0
  6
Continuous
 62
     7
370
    25
100
AcDbLine
 10
259.7433501725
 20
3.5770932004
 30
0.0
 11
260.5433501725
 21
3.5770932004
 31
0.0
  0
LINE
  5
33A
330
1F
100
AcDbEntity
  8
0
  6
Continuous
 62
     7
370
    25
100
AcDbLine
 10
260.5433501725
 20
3.5770932004
 30
0.0
 11
260.5433501725
 21
0.5770932004
 31
0.0
  0
LINE
  5
33B
330
1F
100
AcDbEntity
  8
0
  6
Continuous
 62
     7
370
    25
100
AcDbLine
 10
259.7433501725
 20
0.5770932004
 30
0.0
 11
259.7433501725
 21
3.5770932004
 31
0.0
  0
LINE
  5
33C
330
1F
100
AcDbEntity
  8
0
  6
Continuous
 62
     7
370
    25
100
AcDbLine
 10
565.7433501725
 20
-19.4229067996
 30
0.0
 11
564.9433501725
 21
-19.4229067996
 31
0.0
  0
LINE
  5
33D
330
1F
100
AcDbEntity
  8
0
  6
Continuous
 62
     7
370
    25
100
AcDbLine
 10
565.7433501725
 20
-16.4229067996
 30
0.0
 11
565.7433501725
 21
-19.4229067996
 31
0.0
  0
LINE
  5
33E
330
1F
100
AcDbEntity
  8
0
  6
Continuous
 62
     7
370
    25
100
AcDbLine
 10
564.9433501725
 20
-19.4229067996
 30
0.0
 11
564.9433501725
 21
-16.4229067996
 31
0.0
  0
LINE
  5
33F
330
1F
100
AcDbEntity
  8
0
  6
Continuous
 62
     7
370
    25
100
AcDbLine
 10
260.5433501725
 20
-19.4229067996
 30
0.0
 11
259.7433501725
 21
-19.4229067996
 31
0.0
  0
LINE
  5
340
330
1F
100
AcDbEntity
  8
0
  6
Continuous
 62
     7
370
    25
100
AcDbLine
 10
260.5433501725
 20
-16.4229067996
 30
0.0
 11
260.5433501725
 21
-19.4229067996
 31
0.0
  0
LINE
  5
341
330
1F
100
AcDbEntity
  8
0
  6
Continuous
 62
     7
370
    25
100
AcDbLine
 10
259.7433501725
 20
-19.4229067996
 30
0.0
 11
259.7433501725
 21
-16.4229067996
 31
0.0
  0
LINE
  5
342
330
1F
100
AcDbEntity
  8
0
  6
Continuous
 62
     7
370
    25
100
AcDbLine
 10
562.7433501725
 20
-17.4229067996
 30
0.0
 11
562.7433501725
 21
-16.6229067996
 31
0.0
  0
LINE
  5
343
330
1F
100
AcDbEntity
  8
0
  6
Continuous
 62
     7
370
    25
100
AcDbLine
 10
262.7433501725
 20
-17.4229067996
 30
0.0
 11
262.7433501725
 21
-16.6229067996
 31
0.0
  0
LINE
  5
344
330
1F
100
AcDbEntity
  8
0
  6
Continuous
 62
     7
370
    25
100
AcDbLine
 10
562.7433501725
 20
-16.6229067996
 30
0.0
 11
262.7433501725
 21
-16.6229067996
 31
0.0
  0
LINE
  5
345
330
1F
100
AcDbEntity
  8
0
  6
Continuous
 62
     7
370
    25
100
AcDbLine
 10
338.2433501725
 20
23.4817065922
 30
0.0
 11
338.2433501725
 21
16.9640151385
 31
0.0
  0
ARC
  5
346
330
1F
100
AcDbEntity
  8
0
  6
Continuous
 62
     7
370
    25
100
AcDbCircle
 10
341.2433501725
 20
23.4817065922
 30
0.0
 40
3.000000000000004
100
AcDbArc
 50
90.0
 51
180.0
  0
LINE
  5
347
330
1F
100
AcDbEntity
  8
0
  6
Continuous
 62
     7
370
    25
100
AcDbLine
 10
485.2433501725
 20
26.4817065922
 30
0.0
 11
341.2433501725
 21
26.4817065922
 31
0.0
  0
ARC
  5
348
330
1F
100
AcDbEntity
  8
0
  6
Continuous
 62
     7
370
    25
100
AcDbCircle
 10
485.2433501725
 20
23.4817065922
 30
0.0
 40
3.0
100
AcDbArc
 50
0.0
 51
90.0
  0
LINE
  5
349
330
1F
100
AcDbEntity
  8
0
  6
Continuous
 62
     7
370
    25
100
AcDbLine
 10
488.2433501725
 20
16.9640151385
 30
0.0
 11
488.2433501725
 21
23.4817065922
 31
0.0
  0
LINE
  5
34A
330
1F
100
AcDbEntity
  8
0
  6
Continuous
 62
     7
370
    25
100
AcDbLine
 10
338.2433501725
 20
16.0640151385
 30
0.0
 11
338.2433501725
 21
16.9640151385
 31
0.0
  0
LINE
  5
34B
330
1F
100
AcDbEntity
  8
0
  6
Continuous
 62
     7
370
    25
100
AcDbLine
 10
488.2433501725
 20
16.9640151385
 30
0.0
 11
488.2433501725
 21
16.0640151385
 31
0.0
  0
LINE
  5
34C
330
1F
100
AcDbEntity
  8
0
  6
Continuous
 62
     7
370
    25
100
AcDbLine
 10
488.2433501725
 20
16.0640151385
 30
0.0
 11
488.2433501725
 21
9.4391440079
 31
0.0
  0
LINE
  5
34D
330
1F
100
AcDbEntity
  8
0
  6
Continuous
 62
     7
370
    25
100
AcDbLine
 10
338.2433501725
 20
9.4391440079
 30
0.0
 11
338.2433501725
 21
16.0640151385
 31
0.0
  0
LINE
  5
34E
330
1F
100
AcDbEntity
  8
0
  6
Continuous
 62
     7
370
    25
100
AcDbLine
 10
564.9433501725
 20
3.5770932004
 30
0.0
 11
563.9433501725
 21
3.5770932004
 31
0.0
  0
LINE
  5
34F
330
1F
100
AcDbEntity
  8
0
  6
Continuous
 62
     7
370
    25
100
AcDbLine
 10
563.9433501725
 20
-15.4229067996
 30
0.0
 11
564.9433501725
 21
-15.4229067996
 31
0.0
  0
LINE
  5
350
330
1F
100
AcDbEntity
  8
0
  6
Continuous
 62
     7
370
    25
100
AcDbLine
 10
260.5433501725
 20
-15.4229067996
 30
0.0
 11
261.5433501725
 21
-15.4229067996
 31
0.0
  0
LINE
  5
351
330
1F
100
AcDbEntity
  8
0
  6
Continuous
 62
     7
370
    25
100
AcDbLine
 10
261.5433501725
 20
3.5770932004
 30
0.0
 11
260.5433501725
 21
3.5770932004
 31
0.0
  0
LINE
  5
352
330
1F
100
AcDbEntity
  8
0
  6
Continuous
 62
     7
370
    25
100
AcDbLine
 10
562.7433501725
 20
-16.6229067996
 30
0.0
 11
562.7433501725
 21
-15.6229067996
 31
0.0
  0
LINE
  5
353
330
1F
100
AcDbEntity
  8
0
  6
Continuous
 62
     7
370
    25
100
AcDbLine
 10
262.7433501725
 20
-15.6229067996
 30
0.0
 11
262.7433501725
 21
-16.6229067996
 31
0.0
  0
LINE
  5
354
330
1F
100
AcDbEntity
  8
0
  6
Continuous
 62
     7
370
    25
100
AcDbLine
 10
338.2433501725
 20
9.4391440079
 30
0.0
 11
338.2433501725
 21
8.9391440079
 31
0.0
  0
LINE
  5
355
330
1F
100
AcDbEntity
  8
0
  6
Continuous
 62
     7
370
    25
100
AcDbLine
 10
488.2433501725
 20
8.9391440079
 30
0.0
 11
488.2433501725
 21
9.4391440079
 31
0.0
  0
LINE
  5
356
330
1F
100
AcDbEntity
  8
0
  6
Continuous
 62
     7
370
    25
100
AcDbLine
 10
563.9433501725
 20
3.5770932004
 30
0.0
 11
560.7433501725
 21
3.5770932004
 31
0.0
  0
LINE
  5
357
330
1F
100
AcDbEntity
  8
0
  6
Continuous
 62
     7
370
    25
100
AcDbLine
 10
562.7433501725
 20
-15.4229067996
 30
0.0
 11
563.9433501725
 21
-15.4229067996
 31
0.0
  0
LINE
  5
358
330
1F
100
AcDbEntity
  8
0
  6
Continuous
 62
     7
370
    25
100
AcDbLine
 10
562.7433501725
 20
-15.6229067996
 30
0.0
 11
562.7433501725
 21
-15.4229067996
 31
0.0
  0
LINE
  5
359
330
1F
100
AcDbEntity
  8
0
  6
Continuous
 62
     7
370
    25
100
AcDbLine
 10
262.7433501725
 20
-15.4229067996
 30
0.0
 11
262.7433501725
 21
-15.6229067996
 31
0.0
  0
LINE
  5
35A
330
1F
100
AcDbEntity
  8
0
  6
Continuous
 62
     7
370
    25
100
AcDbLine
 10
261.5433501725
 20
-15.4229067996
 30
0.0
 11
262.7433501725
 21
-15.4229067996
 31
0.0
  0
LINE
  5
35B
330
1F
100
AcDbEntity
  8
0
  6
Continuous
 62
     7
370
    25
100
AcDbLine
 10
264.7433501725
 20
3.5770932004
 30
0.0
 11
261.5433501725
 21
3.5770932004
 31
0.0
  0
LINE
  5
35C
330
1F
100
AcDbEntity
  8
0
  6
Continuous
 62
     7
370
    25
100
AcDbLine
 10
264.7433501725
 20
24.5770932004
 30
0.0
 11
264.7433501725
 21
3.5770932004
 31
0.0
  0
ARC
  5
35D
330
1F
100
AcDbEntity
  8
0
  6
Continuous
 62
     7
370
    25
100
AcDbCircle
 10
267.7433501725
 20
24.5770932004
 30
0.0
 40
3.0
100
AcDbArc
 50
90.0
 51
180.0
  0
LINE
  5
35E
330
1F
100
AcDbEntity
  8
0
  6
Continuous
 62
     7
370
    25
100
AcDbLine
 10
332.7433501725
 20
27.5770932004
 30
0.0
 11
267.7433501725
 21
27.5770932004
 31
0.0
  0
ARC
  5
35F
330
1F
100
AcDbEntity
  8
0
  6
Continuous
 62
     7
370
    25
100
AcDbCircle
 10
332.7433501725
 20
24.5770932004
 30
0.0
 40
3.0
100
AcDbArc
 50
0.0
 51
90.0
  0
LINE
  5
360
330
1F
100
AcDbEntity
  8
0
  6
Continuous
 62
     7
370
    25
100
AcDbLine
 10
335.7433501725
 20
24.5770932004
 30
0.0
 11
335.7433501725
 21
8.4470932004
 31
0.0
  0
LINE
  5
361
330
1F
100
AcDbEntity
  8
0
  6
Continuous
 62
     7
370
    25
100
AcDbLine
 10
335.7433501725
 20
8.4470932004
 30
0.0
 11
338.2433501725
 21
8.4470932004
 31
0.0
  0
LINE
  5
362
330
1F
100
AcDbEntity
  8
0
  6
Continuous
 62
     7
370
    25
100
AcDbLine
 10
338.2433501725
 20
8.9391440079
 30
0.0
 11
338.2433501725
 21
8.4470932004
 31
0.0
  0
LINE
  5
363
330
1F
100
AcDbEntity
  8
0
  6
Continuous
 62
     7
370
    25
100
AcDbLine
 10
488.2433501725
 20
8.9391440079
 30
0.0
 11
488.2433501725
 21
8.4470932004
 31
0.0
  0
LINE
  5
364
330
1F
100
AcDbEntity
  8
0
  6
Continuous
 62
     7
370
    25
100
AcDbLine
 10
488.2433501725
 20
8.4470932004
 30
0.0
 11
490.7433501725
 21
8.4470932004
 31
0.0
  0
LINE
  5
365
330
1F
100
AcDbEntity
  8
0
  6
Continuous
 62
     7
370
    25
100
AcDbLine
 10
490.7433501725
 20
8.4470932004
 30
0.0
 11
490.7433501725
 21
24.5770932004
 31
0.0
  0
ARC
  5
366
330
1F
100
AcDbEntity
  8
0
  6
Continuous
 62
     7
370
    25
100
AcDbCircle
 10
493.7433501725
 20
24.5770932004
 30
0.0
 40
3.000000000000004
100
AcDbArc
 50
90.0
 51
180.0
  0
LINE
  5
367
330
1F
100
AcDbEntity
  8
0
  6
Continuous
 62
     7
370
    25
100
AcDbLine
 10
557.7433501725
 20
27.5770932004
 30
0.0
 11
493.7433501725
 21
27.5770932004
 31
0.0
  0
ARC
  5
368
330
1F
100
AcDbEntity
  8
0
  6
Continuous
 62
     7
370
    25
100
AcDbCircle
 10
557.7433501725
 20
24.5770932004
 30
0.0
 40
3.000000000000004
100
AcDbArc
 50
0.0
 51
90.0
  0
LINE
  5
369
330
1F
100
AcDbEntity
  8
0
  6
Continuous
 62
     7
370
    25
100
AcDbLine
 10
560.7433501725
 20
3.5770932004
 30
0.0
 11
560.7433501725
 21
24.5770932004
 31
0.0
  0
SPLINE
  5
36A
330
1F
100
AcDbEntity
  8
0
  6
Continuous
 62
     7
370
    25
100
AcDbSpline
210
0.0
220
0.0
230
1.0
 70
     8
 71
     3
 72
    12
 73
     8
 74
     0
 42
0.000000001
 43
0.00000001
 40
0.0
 40
0.0
 40
0.0
 40
0.0
 40
0.4999999999999942
 40
0.4999999999999942
 40
0.7499999999999971
 40
0.7499999999999971
 40
1.0
 40
1.0
 40
1.0
 40
1.0
 10
547.3790898953337
 20
-13.83758678500882
 30
0.0
 10
546.7625595054134
 20
-13.6470924955853
 30
0.0
 10
546.1367916329635
 20
-13.52541808252293
 30
0.0
 10
545.1737299235787
 20
-13.5247618919917
 30
0.0
 10
544.853036888449
 20
-13.55459589378609
 30
0.0
 10
544.2230786384531
 20
-13.66352576389368
 30
0.0
 10
543.9118493704221
 20
-13.74222095095655
 30
0.0
 10
543.6032000401376
 20
-13.8375867850093
 30
0.0
  0
LINE
  5
36B
330
1F
100
AcDbEntity
  8
0
  6
Continuous
 62
     7
370
    25
100
AcDbLine
 10
547.3790898953
 20
-13.837586785
 30
0.0
 11
547.3790898953
 21
-16.0082268142
 31
0.0
  0
SPLINE
  5
36C
330
1F
100
AcDbEntity
  8
0
  6
Continuous
 62
     7
370
    25
100
AcDbSpline
210
0.0
220
0.0
230
1.0
 70
     8
 71
     3
 72
    12
 73
     8
 74
     0
 42
0.000000001
 43
0.00000001
 40
0.0
 40
0.0
 40
0.0
 40
0.0
 40
0.5000000000000131
 40
0.5000000000000131
 40
0.7500000000000066
 40
0.7500000000000066
 40
1.0
 40
1.0
 40
1.0
 40
1.0
 10
543.6032000401375
 20
-16.00822681423877
 30
0.0
 10
544.2197304300578
 20
-16.19872110366229
 30
0.0
 10
544.8454983025076
 20
-16.32039551672467
 30
0.0
 10
545.8085600118925
 20
-16.32105170725591
 30
0.0
 10
546.1292530470221
 20
-16.2912177054615
 30
0.0
 10
546.759211297018
 20
-16.18228783535391
 30
0.0
 10
547.070440565049
 20
-16.10359264829104
 30
0.0
 10
547.3790898953337
 20
-16.00822681423829
 30
0.0
  0
LINE
  5
36D
330
1F
100
AcDbEntity
  8
0
  6
Continuous
 62
     7
370
    25
100
AcDbLine
 10
543.6032000401
 20
-13.837586785
 30
0.0
 11
543.6032000401
 21
-16.0082268142
 31
0.0
  0
SPLINE
  5
36E
330
1F
100
AcDbEntity
  8
0
  6
Continuous
 62
     7
370
    25
100
AcDbSpline
210
0.0
220
0.0
230
1.0
 70
     8
 71
     3
 72
     9
 73
     5
 74
     0
 42
0.000000001
 43
0.00000001
 40
0.0
 40
0.0
 40
0.0
 40
0.0
 40
0.6277651913045501
 40
1.0
 40
1.0
 40
1.0
 40
1.0
 10
540.698408133843
 20
-16.21268087467847
 30
0.0
 10
540.6491010337015
 20
-16.20765327520298
 30
0.0
 10
540.5705571755449
 20
-16.19964454909786
 30
0.0
 10
540.4954265509541
 20
-16.06015112301136
 30
0.0
 10
540.4674603172823
 20
-16.00822681423778
 30
0.0
  0
SPLINE
  5
36F
330
1F
100
AcDbEntity
  8
0
  6
Continuous
 62
     7
370
    25
100
AcDbSpline
210
0.0
220
0.0
230
1.0
 70
     8
 71
     3
 72
    12
 73
     8
 74
     0
 42
0.000000001
 43
0.00000001
 40
0.0
 40
0.0
 40
0.0
 40
0.0
 40
0.4999999999999984
 40
0.4999999999999984
 40
0.7499999999999992
 40
0.7499999999999992
 40
1.0
 40
1.0
 40
1.0
 40
1.0
 10
540.4674603172822
 20
-16.00822681423878
 30
0.0
 10
540.9794664689871
 20
-16.1987211036623
 30
0.0
 10
541.4991440152553
 20
-16.32039551672467
 30
0.0
 10
542.2989318728179
 20
-16.3210517072559
 30
0.0
 10
542.5652558196659
 20
-16.29121770546151
 30
0.0
 10
543.0884133226674
 20
-16.18228783535392
 30
0.0
 10
543.3468779538157
 20
-16.10359264829103
 30
0.0
 10
543.6032000401377
 20
-16.00822681423829
 30
0.0
  0
SPLINE
  5
370
330
1F
100
AcDbEntity
  8
0
  6
Continuous
 62
     7
370
    25
100
AcDbSpline
210
0.0
220
0.0
230
1.0
 70
     8
 71
     3
 72
    14
 73
    10
 74
     0
 42
0.000000001
 43
0.00000001
 40
0.0
 40
0.0
 40
0.0
 40
0.0
 40
0.25
 40
0.25
 40
0.5
 40
0.5
 40
0.75
 40
0.75
 40
1.0
 40
1.0
 40
1.0
 40
1.0
 10
547.3790898953335
 20
-16.00822681423779
 30
0.0
 10
547.4311476042244
 20
-16.1031014235484
 30
0.0
 10
547.4844811425525
 20
-16.18270634842416
 30
0.0
 10
547.5914131501805
 20
-16.29154296331839
 30
0.0
 10
547.6451665166283
 20
-16.32086656900888
 30
0.0
 10
547.7533455680519
 20
-16.32080178726329
 30
0.0
 10
547.8081742646398
 20
-16.29064559393693
 30
0.0
 10
547.9150812472997
 20
-16.18106039257122
 30
0.0
 10
547.967502762272
 20
-16.10251741876905
 30
0.0
 10
548.0192400276742
 20
-16.00822681423779
 30
0.0
  0
LINE
  5
371
330
1F
100
AcDbEntity
  8
0
  6
Continuous
 62
     7
370
    25
100
AcDbLine
 10
547.3933501725
 20
-16.5229067996
 30
0.0
 11
541.0933501725
 21
-16.5229067996
 31
0.0
  0
SPLINE
  5
372
330
1F
100
AcDbEntity
  8
0
  6
Continuous
 62
     7
370
    25
100
AcDbSpline
210
0.0
220
0.0
230
1.0
 70
     8
 71
     3
 72
    14
 73
    10
 74
     0
 42
0.000000001
 43
0.00000001
 40
0.0
 40
0.0
 40
0.0
 40
0.0
 40
0.25
 40
0.25
 40
0.5
 40
0.5
 40
0.75
 40
0.75
 40
1.0
 40
1.0
 40
1.0
 40
1.0
 10
547.3790898953335
 20
-13.8375867850098
 30
0.0
 10
547.4311476042244
 20
-13.74271217569919
 30
0.0
 10
547.4844811425525
 20
-13.66310725082343
 30
0.0
 10
547.5914131501805
 20
-13.55427063592921
 30
0.0
 10
547.6451665166283
 20
-13.52494703023871
 30
0.0
 10
547.7533455680519
 20
-13.52501181198431
 30
0.0
 10
547.8081742646398
 20
-13.55516800531066
 30
0.0
 10
547.9150812472997
 20
-13.66475320667637
 30
0.0
 10
547.967502762272
 20
-13.74329618047854
 30
0.0
 10
548.0192400276742
 20
-13.8375867850098
 30
0.0
  0
SPLINE
  5
373
330
1F
100
AcDbEntity
  8
0
  6
Continuous
 62
     7
370
    25
100
AcDbSpline
210
0.0
220
0.0
230
1.0
 70
     8
 71
     3
 72
    12
 73
     8
 74
     0
 42
0.000000001
 43
0.00000001
 40
0.0
 40
0.0
 40
0.0
 40
0.0
 40
0.5000000000000142
 40
0.5000000000000142
 40
0.7500000000000071
 40
0.7500000000000071
 40
1.0
 40
1.0
 40
1.0
 40
1.0
 10
543.6032000401377
 20
-13.83758678500881
 30
0.0
 10
543.0911938884328
 20
-13.64709249558529
 30
0.0
 10
542.5715163421646
 20
-13.52541808252292
 30
0.0
 10
541.7717284846021
 20
-13.52476189199169
 30
0.0
 10
541.505404537754
 20
-13.55459589378609
 30
0.0
 10
540.9822470347526
 20
-13.66352576389368
 30
0.0
 10
540.7237824036043
 20
-13.74222095095656
 30
0.0
 10
540.4674603172823
 20
-13.8375867850093
 30
0.0
  0
SPLINE
  5
374
330
1F
100
AcDbEntity
  8
0
  6
Continuous
 62
     7
370
    25
100
AcDbSpline
210
0.0
220
0.0
230
1.0
 70
     8
 71
     3
 72
     9
 73
     5
 74
     0
 42
0.000000001
 43
0.00000001
 40
0.0
 40
0.0
 40
0.0
 40
0.0
 40
0.3722348086954365
 40
1.0
 40
1.0
 40
1.0
 40
1.0
 10
540.4674603172823
 20
-13.83758678500981
 30
0.0
 10
540.4954265509541
 20
-13.78566247623622
 30
0.0
 10
540.5705571755449
 20
-13.64616905014971
 30
0.0
 10
540.6491010337015
 20
-13.63816032404459
 30
0.0
 10
540.698408133843
 20
-13.63313272456911
 30
0.0
  0
LINE
  5
375
330
1F
100
AcDbEntity
  8
0
  6
Continuous
 62
     7
370
    25
100
AcDbLine
 10
547.3933501725
 20
-13.3229067996
 30
0.0
 11
541.0933501725
 21
-13.3229067996
 31
0.0
  0
LINE
  5
376
330
1F
100
AcDbEntity
  8
0
  6
Continuous
 62
     7
370
    25
100
AcDbLine
 10
540.4674603173
 20
-13.837586785
 30
0.0
 11
540.4674603173
 21
-16.0082268142
 31
0.0
  0
LINE
  5
377
330
1F
100
AcDbEntity
  8
0
  6
Continuous
 62
     7
370
    25
100
AcDbLine
 10
548.0192400277
 20
-13.837586785
 30
0.0
 11
548.0192400277
 21
-16.0082268142
 31
0.0
  0
SPLINE
  5
378
330
1F
100
AcDbEntity
  8
0
  6
Continuous
 62
     7
370
    25
100
AcDbSpline
210
0.0
220
0.0
230
1.0
 70
     8
 71
     3
 72
     9
 73
     5
 74
     0
 42
0.000000001
 43
0.00000001
 40
0.0
 40
0.0
 40
0.0
 40
0.0
 40
0.6277651913045492
 40
1.0
 40
1.0
 40
1.0
 40
1.0
 10
409.198408133843
 20
-16.21268087467843
 30
0.0
 10
409.1491010337015
 20
-16.20765327520295
 30
0.0
 10
409.0705571755449
 20
-16.19964454909783
 30
0.0
 10
408.9954265509541
 20
-16.06015112301132
 30
0.0
 10
408.9674603172822
 20
-16.00822681423774
 30
0.0
  0
SPLINE
  5
379
330
1F
100
AcDbEntity
  8
0
  6
Continuous
 62
     7
370
    25
100
AcDbSpline
210
0.0
220
0.0
230
1.0
 70
     8
 71
     3
 72
    12
 73
     8
 74
     0
 42
0.000000001
 43
0.00000001
 40
0.0
 40
0.0
 40
0.0
 40
0.0
 40
0.5000000000000063
 40
0.5000000000000063
 40
0.7500000000000031
 40
0.7500000000000031
 40
1.0
 40
1.0
 40
1.0
 40
1.0
 10
408.9674603172821
 20
-16.00822681423873
 30
0.0
 10
409.4794664689871
 20
-16.19872110366225
 30
0.0
 10
409.9991440152554
 20
-16.32039551672462
 30
0.0
 10
410.7989318728178
 20
-16.32105170725585
 30
0.0
 10
411.0652558196659
 20
-16.29121770546146
 30
0.0
 10
411.5884133226673
 20
-16.18228783535388
 30
0.0
 10
411.8468779538156
 20
-16.10359264829101
 30
0.0
 10
412.1032000401377
 20
-16.00822681423825
 30
0.0
  0
SPLINE
  5
37A
330
1F
100
AcDbEntity
  8
0
  6
Continuous
 62
     7
370
    25
100
AcDbSpline
210
0.0
220
0.0
230
1.0
 70
     8
 71
     3
 72
    12
 73
     8
 74
     0
 42
0.000000001
 43
0.00000001
 40
0.0
 40
0.0
 40
0.0
 40
0.0
 40
0.5000000000000037
 40
0.5000000000000037
 40
0.7500000000000018
 40
0.7500000000000018
 40
1.0
 40
1.0
 40
1.0
 40
1.0
 10
412.1032000401374
 20
-16.00822681423873
 30
0.0
 10
412.7197304300578
 20
-16.19872110366225
 30
0.0
 10
413.3454983025076
 20
-16.32039551672462
 30
0.0
 10
414.3085600118924
 20
-16.32105170725586
 30
0.0
 10
414.6292530470221
 20
-16.29121770546146
 30
0.0
 10
415.2592112970181
 20
-16.18228783535388
 30
0.0
 10
415.570440565049
 20
-16.103592648291
 30
0.0
 10
415.8790898953336
 20
-16.00822681423825
 30
0.0
  0
SPLINE
  5
37B
330
1F
100
AcDbEntity
  8
0
  6
Continuous
 62
     7
370
    25
100
AcDbSpline
210
0.0
220
0.0
230
1.0
 70
     8
 71
     3
 72
    14
 73
    10
 74
     0
 42
0.000000001
 43
0.00000001
 40
0.0
 40
0.0
 40
0.0
 40
0.0
 40
0.25
 40
0.25
 40
0.5
 40
0.5
 40
0.75
 40
0.75
 40
1.0
 40
1.0
 40
1.0
 40
1.0
 10
415.8790898953335
 20
-16.00822681423775
 30
0.0
 10
415.9311476042243
 20
-16.10310142354836
 30
0.0
 10
415.9844811425525
 20
-16.18270634842411
 30
0.0
 10
416.0914131501805
 20
-16.29154296331835
 30
0.0
 10
416.1451665166281
 20
-16.32086656900884
 30
0.0
 10
416.2533455680518
 20
-16.32080178726325
 30
0.0
 10
416.3081742646398
 20
-16.29064559393689
 30
0.0
 10
416.4150812472997
 20
-16.18106039257117
 30
0.0
 10
416.467502762272
 20
-16.102517418769
 30
0.0
 10
416.5192400276741
 20
-16.00822681423775
 30
0.0
  0
LINE
  5
37C
330
1F
100
AcDbEntity
  8
0
  6
Continuous
 62
     7
370
    25
100
AcDbLine
 10
415.8933501725
 20
-16.5229067996
 30
0.0
 11
409.5933501725
 21
-16.5229067996
 31
0.0
  0
SPLINE
  5
37D
330
1F
100
AcDbEntity
  8
0
  6
Continuous
 62
     7
370
    25
100
AcDbSpline
210
0.0
220
0.0
230
1.0
 70
     8
 71
     3
 72
    14
 73
    10
 74
     0
 42
0.000000001
 43
0.00000001
 40
0.0
 40
0.0
 40
0.0
 40
0.0
 40
0.25
 40
0.25
 40
0.5
 40
0.5
 40
0.75
 40
0.75
 40
1.0
 40
1.0
 40
1.0
 40
1.0
 10
415.8790898953335
 20
-13.83758678500976
 30
0.0
 10
415.9311476042243
 20
-13.74271217569915
 30
0.0
 10
415.9844811425525
 20
-13.66310725082339
 30
0.0
 10
416.0914131501805
 20
-13.55427063592918
 30
0.0
 10
416.1451665166281
 20
-13.52494703023866
 30
0.0
 10
416.2533455680518
 20
-13.52501181198427
 30
0.0
 10
416.3081742646398
 20
-13.55516800531062
 30
0.0
 10
416.4150812472997
 20
-13.66475320667633
 30
0.0
 10
416.467502762272
 20
-13.7432961804785
 30
0.0
 10
416.5192400276741
 20
-13.83758678500976
 30
0.0
  0
SPLINE
  5
37E
330
1F
100
AcDbEntity
  8
0
  6
Continuous
 62
     7
370
    25
100
AcDbSpline
210
0.0
220
0.0
230
1.0
 70
     8
 71
     3
 72
    12
 73
     8
 74
     0
 42
0.000000001
 43
0.00000001
 40
0.0
 40
0.0
 40
0.0
 40
0.0
 40
0.5000000000000037
 40
0.5000000000000037
 40
0.7500000000000018
 40
0.7500000000000018
 40
1.0
 40
1.0
 40
1.0
 40
1.0
 10
415.8790898953337
 20
-13.83758678500878
 30
0.0
 10
415.2625595054134
 20
-13.64709249558526
 30
0.0
 10
414.6367916329637
 20
-13.52541808252288
 30
0.0
 10
413.6737299235788
 20
-13.52476189199165
 30
0.0
 10
413.353036888449
 20
-13.55459589378604
 30
0.0
 10
412.7230786384531
 20
-13.66352576389364
 30
0.0
 10
412.4118493704222
 20
-13.74222095095651
 30
0.0
 10
412.1032000401376
 20
-13.83758678500926
 30
0.0
  0
SPLINE
  5
37F
330
1F
100
AcDbEntity
  8
0
  6
Continuous
 62
     7
370
    25
100
AcDbSpline
210
0.0
220
0.0
230
1.0
 70
     8
 71
     3
 72
    12
 73
     8
 74
     0
 42
0.000000001
 43
0.00000001
 40
0.0
 40
0.0
 40
0.0
 40
0.0
 40
0.5000000000000064
 40
0.5000000000000064
 40
0.7500000000000032
 40
0.7500000000000032
 40
1.0
 40
1.0
 40
1.0
 40
1.0
 10
412.1032000401377
 20
-13.83758678500878
 30
0.0
 10
411.5911938884328
 20
-13.64709249558525
 30
0.0
 10
411.0715163421646
 20
-13.52541808252289
 30
0.0
 10
410.271728484602
 20
-13.52476189199165
 30
0.0
 10
410.005404537754
 20
-13.55459589378605
 30
0.0
 10
409.4822470347526
 20
-13.66352576389362
 30
0.0
 10
409.2237824036043
 20
-13.74222095095651
 30
0.0
 10
408.9674603172822
 20
-13.83758678500926
 30
0.0
  0
SPLINE
  5
380
330
1F
100
AcDbEntity
  8
0
  6
Continuous
 62
     7
370
    25
100
AcDbSpline
210
0.0
220
0.0
230
1.0
 70
     8
 71
     3
 72
     9
 73
     5
 74
     0
 42
0.000000001
 43
0.00000001
 40
0.0
 40
0.0
 40
0.0
 40
0.0
 40
0.3722348086954371
 40
1.0
 40
1.0
 40
1.0
 40
1.0
 10
408.9674603172822
 20
-13.83758678500977
 30
0.0
 10
408.9954265509541
 20
-13.78566247623619
 30
0.0
 10
409.0705571755449
 20
-13.64616905014968
 30
0.0
 10
409.1491010337016
 20
-13.63816032404456
 30
0.0
 10
409.1984081338431
 20
-13.63313272456907
 30
0.0
  0
LINE
  5
381
330
1F
100
AcDbEntity
  8
0
  6
Continuous
 62
     7
370
    25
100
AcDbLine
 10
415.8933501725
 20
-13.3229067996
 30
0.0
 11
409.5933501725
 21
-13.3229067996
 31
0.0
  0
LINE
  5
382
330
1F
100
AcDbEntity
  8
0
  6
Continuous
 62
     7
370
    25
100
AcDbLine
 10
415.8790898953
 20
-13.837586785
 30
0.0
 11
415.8790898953
 21
-16.0082268142
 31
0.0
  0
LINE
  5
383
330
1F
100
AcDbEntity
  8
0
  6
Continuous
 62
     7
370
    25
100
AcDbLine
 10
412.1032000401
 20
-13.837586785
 30
0.0
 11
412.1032000401
 21
-16.0082268142
 31
0.0
  0
LINE
  5
384
330
1F
100
AcDbEntity
  8
0
  6
Continuous
 62
     7
370
    25
100
AcDbLine
 10
408.9674603173
 20
-13.837586785
 30
0.0
 11
408.9674603173
 21
-16.0082268142
 31
0.0
  0
LINE
  5
385
330
1F
100
AcDbEntity
  8
0
  6
Continuous
 62
     7
370
    25
100
AcDbLine
 10
416.5192400277
 20
-13.837586785
 30
0.0
 11
416.5192400277
 21
-16.0082268142
 31
0.0
  0
SPLINE
  5
386
330
1F
100
AcDbEntity
  8
0
  6
Continuous
 62
     7
370
    25
100
AcDbSpline
210
0.0
220
0.0
230
1.0
 70
     8
 71
     3
 72
    14
 73
    10
 74
     0
 42
0.000000001
 43
0.00000001
 40
0.0
 40
0.0
 40
0.0
 40
0.0
 40
0.25
 40
0.25
 40
0.5
 40
0.5
 40
0.75
 40
0.75
 40
1.0
 40
1.0
 40
1.0
 40
1.0
 10
284.3790898953335
 20
-13.83758678500983
 30
0.0
 10
284.4311476042244
 20
-13.74271217569922
 30
0.0
 10
284.4844811425525
 20
-13.66310725082347
 30
0.0
 10
284.5914131501805
 20
-13.55427063592924
 30
0.0
 10
284.6451665166281
 20
-13.52494703023874
 30
0.0
 10
284.7533455680519
 20
-13.52501181198434
 30
0.0
 10
284.8081742646398
 20
-13.5551680053107
 30
0.0
 10
284.9150812472996
 20
-13.66475320667641
 30
0.0
 10
284.967502762272
 20
-13.74329618047858
 30
0.0
 10
285.0192400276741
 20
-13.83758678500983
 30
0.0
  0
SPLINE
  5
387
330
1F
100
AcDbEntity
  8
0
  6
Continuous
 62
     7
370
    25
100
AcDbSpline
210
0.0
220
0.0
230
1.0
 70
     8
 71
     3
 72
    12
 73
     8
 74
     0
 42
0.000000001
 43
0.00000001
 40
0.0
 40
0.0
 40
0.0
 40
0.0
 40
0.4999999999999942
 40
0.4999999999999942
 40
0.7499999999999971
 40
0.7499999999999971
 40
1.0
 40
1.0
 40
1.0
 40
1.0
 10
284.3790898953337
 20
-13.83758678500885
 30
0.0
 10
283.7625595054134
 20
-13.64709249558533
 30
0.0
 10
283.1367916329637
 20
-13.52541808252297
 30
0.0
 10
282.1737299235788
 20
-13.52476189199174
 30
0.0
 10
281.8530368884491
 20
-13.55459589378612
 30
0.0
 10
281.2230786384532
 20
-13.66352576389372
 30
0.0
 10
280.9118493704223
 20
-13.74222095095659
 30
0.0
 10
280.6032000401376
 20
-13.83758678500934
 30
0.0
  0
SPLINE
  5
388
330
1F
100
AcDbEntity
  8
0
  6
Continuous
 62
     7
370
    25
100
AcDbSpline
210
0.0
220
0.0
230
1.0
 70
     8
 71
     3
 72
    12
 73
     8
 74
     0
 42
0.000000001
 43
0.00000001
 40
0.0
 40
0.0
 40
0.0
 40
0.0
 40
0.5000000000000142
 40
0.5000000000000142
 40
0.7500000000000071
 40
0.7500000000000071
 40
1.0
 40
1.0
 40
1.0
 40
1.0
 10
280.6032000401377
 20
-13.83758678500885
 30
0.0
 10
280.0911938884328
 20
-13.64709249558532
 30
0.0
 10
279.5715163421646
 20
-13.52541808252296
 30
0.0
 10
278.7717284846021
 20
-13.52476189199173
 30
0.0
 10
278.505404537754
 20
-13.55459589378612
 30
0.0
 10
277.9822470347526
 20
-13.66352576389371
 30
0.0
 10
277.7237824036044
 20
-13.74222095095659
 30
0.0
 10
277.4674603172822
 20
-13.83758678500933
 30
0.0
  0
SPLINE
  5
389
330
1F
100
AcDbEntity
  8
0
  6
Continuous
 62
     7
370
    25
100
AcDbSpline
210
0.0
220
0.0
230
1.0
 70
     8
 71
     3
 72
     9
 73
     5
 74
     0
 42
0.000000001
 43
0.00000001
 40
0.0
 40
0.0
 40
0.0
 40
0.0
 40
0.3722348086954365
 40
1.0
 40
1.0
 40
1.0
 40
1.0
 10
277.4674603172823
 20
-13.83758678500984
 30
0.0
 10
277.4954265509541
 20
-13.78566247623626
 30
0.0
 10
277.5705571755449
 20
-13.64616905014975
 30
0.0
 10
277.6491010337015
 20
-13.63816032404463
 30
0.0
 10
277.698408133843
 20
-13.63313272456915
 30
0.0
  0
LINE
  5
38A
330
1F
100
AcDbEntity
  8
0
  6
Continuous
 62
     7
370
    25
100
AcDbLine
 10
284.3933501725
 20
-13.3229067996
 30
0.0
 11
278.0933501725
 21
-13.3229067996
 31
0.0
  0
LINE
  5
38B
330
1F
100
AcDbEntity
  8
0
  6
Continuous
 62
     7
370
    25
100
AcDbLine
 10
284.3790898953
 20
-13.837586785
 30
0.0
 11
284.3790898953
 21
-16.0082268142
 31
0.0
  0
SPLINE
  5
38C
330
1F
100
AcDbEntity
  8
0
  6
Continuous
 62
     7
370
    25
100
AcDbSpline
210
0.0
220
0.0
230
1.0
 70
     8
 71
     3
 72
    12
 73
     8
 74
     0
 42
0.000000001
 43
0.00000001
 40
0.0
 40
0.0
 40
0.0
 40
0.0
 40
0.5000000000000131
 40
0.5000000000000131
 40
0.7500000000000066
 40
0.7500000000000066
 40
1.0
 40
1.0
 40
1.0
 40
1.0
 10
280.6032000401375
 20
-16.00822681423881
 30
0.0
 10
281.2197304300578
 20
-16.19872110366233
 30
0.0
 10
281.8454983025076
 20
-16.3203955167247
 30
0.0
 10
282.8085600118925
 20
-16.32105170725594
 30
0.0
 10
283.1292530470221
 20
-16.29121770546154
 30
0.0
 10
283.7592112970181
 20
-16.18228783535395
 30
0.0
 10
284.070440565049
 20
-16.10359264829108
 30
0.0
 10
284.3790898953337
 20
-16.00822681423833
 30
0.0
  0
LINE
  5
38D
330
1F
100
AcDbEntity
  8
0
  6
Continuous
 62
     7
370
    25
100
AcDbLine
 10
280.6032000401
 20
-13.837586785
 30
0.0
 11
280.6032000401
 21
-16.0082268142
 31
0.0
  0
SPLINE
  5
38E
330
1F
100
AcDbEntity
  8
0
  6
Continuous
 62
     7
370
    25
100
AcDbSpline
210
0.0
220
0.0
230
1.0
 70
     8
 71
     3
 72
     9
 73
     5
 74
     0
 42
0.000000001
 43
0.00000001
 40
0.0
 40
0.0
 40
0.0
 40
0.0
 40
0.6277651913045501
 40
1.0
 40
1.0
 40
1.0
 40
1.0
 10
277.698408133843
 20
-16.21268087467851
 30
0.0
 10
277.6491010337015
 20
-16.20765327520301
 30
0.0
 10
277.5705571755449
 20
-16.19964454909789
 30
0.0
 10
277.4954265509541
 20
-16.0601511230114
 30
0.0
 10
277.4674603172823
 20
-16.00822681423782
 30
0.0
  0
SPLINE
  5
38F
330
1F
100
AcDbEntity
  8
0
  6
Continuous
 62
     7
370
    25
100
AcDbSpline
210
0.0
220
0.0
230
1.0
 70
     8
 71
     3
 72
    12
 73
     8
 74
     0
 42
0.000000001
 43
0.00000001
 40
0.0
 40
0.0
 40
0.0
 40
0.0
 40
0.4999999999999984
 40
0.4999999999999984
 40
0.7499999999999992
 40
0.7499999999999992
 40
1.0
 40
1.0
 40
1.0
 40
1.0
 10
277.4674603172822
 20
-16.00822681423882
 30
0.0
 10
277.9794664689871
 20
-16.19872110366234
 30
0.0
 10
278.4991440152554
 20
-16.32039551672471
 30
0.0
 10
279.2989318728179
 20
-16.32105170725594
 30
0.0
 10
279.5652558196659
 20
-16.29121770546155
 30
0.0
 10
280.0884133226673
 20
-16.18228783535396
 30
0.0
 10
280.3468779538156
 20
-16.10359264829108
 30
0.0
 10
280.6032000401377
 20
-16.00822681423833
 30
0.0
  0
SPLINE
  5
390
330
1F
100
AcDbEntity
  8
0
  6
Continuous
 62
     7
370
    25
100
AcDbSpline
210
0.0
220
0.0
230
1.0
 70
     8
 71
     3
 72
    14
 73
    10
 74
     0
 42
0.000000001
 43
0.00000001
 40
0.0
 40
0.0
 40
0.0
 40
0.0
 40
0.25
 40
0.25
 40
0.5
 40
0.5
 40
0.75
 40
0.75
 40
1.0
 40
1.0
 40
1.0
 40
1.0
 10
284.3790898953335
 20
-16.00822681423783
 30
0.0
 10
284.4311476042244
 20
-16.10310142354845
 30
0.0
 10
284.4844811425525
 20
-16.1827063484242
 30
0.0
 10
284.5914131501805
 20
-16.29154296331843
 30
0.0
 10
284.6451665166281
 20
-16.32086656900892
 30
0.0
 10
284.7533455680519
 20
-16.32080178726333
 30
0.0
 10
284.8081742646398
 20
-16.29064559393697
 30
0.0
 10
284.9150812472996
 20
-16.18106039257125
 30
0.0
 10
284.967502762272
 20
-16.10251741876909
 30
0.0
 10
285.0192400276741
 20
-16.00822681423783
 30
0.0
  0
LINE
  5
391
330
1F
100
AcDbEntity
  8
0
  6
Continuous
 62
     7
370
    25
100
AcDbLine
 10
284.3933501725
 20
-16.5229067996
 30
0.0
 11
278.0933501725
 21
-16.5229067996
 31
0.0
  0
LINE
  5
392
330
1F
100
AcDbEntity
  8
0
  6
Continuous
 62
     7
370
    25
100
AcDbLine
 10
277.4674603173
 20
-13.837586785
 30
0.0
 11
277.4674603173
 21
-16.0082268142
 31
0.0
  0
LINE
  5
393
330
1F
100
AcDbEntity
  8
0
  6
Continuous
 62
     7
370
    25
100
AcDbLine
 10
285.0192400277
 20
-13.837586785
 30
0.0
 11
285.0192400277
 21
-16.0082268142
 31
0.0
  0
LINE
  5
394
330
1F
100
AcDbEntity
  8
0
  6
Continuous
 62
     7
370
    25
100
AcDbLine
 10
564.2433501725
 20
-19.2229067996
 30
0.0
 11
565.164280405
 21
-29.1229067996
 31
0.0
  0
LINE
  5
395
330
1F
100
AcDbEntity
  8
0
  6
Continuous
 62
     7
370
    25
100
AcDbLine
 10
260.3224199399
 20
-29.1229067996
 30
0.0
 11
261.2433501725
 21
-19.2229067996
 31
0.0
  0
LINE
  5
396
330
1F
100
AcDbEntity
  8
0
  6
Continuous
 62
     7
370
    25
100
AcDbLine
 10
261.2433501725
 20
-17.4229067996
 30
0.0
 11
564.2433501725
 21
-17.4229067996
 31
0.0
  0
LINE
  5
397
330
1F
100
AcDbEntity
  8
0
  6
Continuous
 62
     7
370
    25
100
AcDbLine
 10
261.2433501725
 20
-19.2229067996
 30
0.0
 11
261.2433501725
 21
-17.4229067996
 31
0.0
  0
LINE
  5
398
330
1F
100
AcDbEntity
  8
0
  6
Continuous
 62
     7
370
    25
100
AcDbLine
 10
564.2433501725
 20
-17.4229067996
 30
0.0
 11
564.2433501725
 21
-19.2229067996
 31
0.0
  0
LINE
  5
399
330
1F
100
AcDbEntity
  8
0
  6
Continuous
 62
     7
370
    25
100
AcDbLine
 10
260.2433501725
 20
-29.9729067996
 30
0.0
 11
260.3224199399
 21
-29.1229067996
 31
0.0
  0
LINE
  5
39A
330
1F
100
AcDbEntity
  8
0
  6
Continuous
 62
     7
370
    25
100
AcDbLine
 10
565.164280405
 20
-29.1229067996
 30
0.0
 11
565.2433501725
 21
-29.9729067996
 31
0.0
  0
LINE
  5
39B
330
1F
100
AcDbEntity
  8
0
  6
Continuous
 62
     7
370
    25
100
AcDbLine
 10
543.9265580143
 20
-8.2229067996
 30
0.0
 11
546.2433501725
 21
-8.2229067996
 31
0.0
  0
LINE
  5
39C
330
1F
100
AcDbEntity
  8
0
  6
Continuous
 62
     7
370
    25
100
AcDbLine
 10
542.2433501725
 20
-8.2229067996
 30
0.0
 11
543.9265580143
 21
-8.2229067996
 31
0.0
  0
LINE
  5
39D
330
1F
100
AcDbEntity
  8
0
  6
Continuous
 62
     7
370
    25
100
AcDbLine
 10
412.4265580143
 20
-8.2229067996
 30
0.0
 11
414.7433501725
 21
-8.2229067996
 31
0.0
  0
LINE
  5
39E
330
1F
100
AcDbEntity
  8
0
  6
Continuous
 62
     7
370
    25
100
AcDbLine
 10
410.7433501725
 20
-8.2229067996
 30
0.0
 11
412.4265580143
 21
-8.2229067996
 31
0.0
  0
LINE
  5
39F
330
1F
100
AcDbEntity
  8
0
  6
Continuous
 62
     7
370
    25
100
AcDbLine
 10
280.9265580143
 20
-8.2229067996
 30
0.0
 11
283.2433501725
 21
-8.2229067996
 31
0.0
  0
LINE
  5
3A0
330
1F
100
AcDbEntity
  8
0
  6
Continuous
 62
     7
370
    25
100
AcDbLine
 10
279.2433501725
 20
-8.2229067996
 30
0.0
 11
280.9265580143
 21
-8.2229067996
 31
0.0
  0
LINE
  5
3A1
330
1F
100
AcDbEntity
  8
0
  6
Continuous
 62
     7
370
    25
100
AcDbLine
 10
565.7433501725
 20
2.9770932004
 30
0.0
 11
566.7433501725
 21
2.9770932004
 31
0.0
  0
LINE
  5
3A2
330
1F
100
AcDbEntity
  8
0
  6
Continuous
 62
     7
370
    25
100
AcDbLine
 10
566.7433501725
 20
2.9770932004
 30
0.0
 11
566.7433501725
 21
0.9770932004
 31
0.0
  0
LINE
  5
3A3
330
1F
100
AcDbEntity
  8
0
  6
Continuous
 62
     7
370
    25
100
AcDbLine
 10
564.7433501725
 20
-15.4229067996
 30
0.0
 11
564.7433501725
 21
-24.5979067996
 31
0.0
  0
LINE
  5
3A4
330
1F
100
AcDbEntity
  8
0
  6
Continuous
 62
     7
370
    25
100
AcDbLine
 10
566.7433501725
 20
0.9770932004
 30
0.0
 11
566.7433501725
 21
-1.9229067996
 31
0.0
  0
LINE
  5
3A5
330
1F
100
AcDbEntity
  8
0
  6
Continuous
 62
     7
370
    25
100
AcDbLine
 10
566.7433501725
 20
-7.9229067996
 30
0.0
 11
566.7433501725
 21
-28.0229067996
 31
0.0
  0
LINE
  5
3A6
330
1F
100
AcDbEntity
  8
0
  6
Continuous
 62
     7
370
    25
100
AcDbLine
 10
566.7416830426
 20
-28.1229067996
 30
0.0
 11
566.7433501725
 21
-28.0229067996
 31
0.0
  0
LINE
  5
3A7
330
1F
100
AcDbEntity
  8
0
  6
Continuous
 62
     7
370
    25
100
AcDbLine
 10
566.8036575517
 20
2.9770932004
 30
0.0
 11
566.7433501725
 21
2.9770932004
 31
0.0
  0
LINE
  5
3A8
330
1F
100
AcDbEntity
  8
0
  6
Continuous
 62
     7
370
    25
100
AcDbLine
 10
566.7433501725
 20
-13.0229067996
 30
0.0
 11
566.8036575517
 21
-13.0229067996
 31
0.0
  0
LINE
  5
3A9
330
1F
100
AcDbEntity
  8
0
  6
Continuous
 62
     7
370
    25
100
AcDbLine
 10
566.8036575517
 20
2.9770932004
 30
0.0
 11
568.674856274
 21
2.9770932004
 31
0.0
  0
LWPOLYLINE
  5
3AA
330
1F
100
AcDbEntity
  8
0
  6
Continuous
 62
     7
370
    25
100
AcDbPolyline
 90
        9
 70
   128
 43
0.0
 10
569.3588965607
 20
0.9770932004
 10
569.3457529184
 20
1.3672738444
 10
569.3068270943
 20
1.7424600651
 10
569.2436149859
 20
2.0882336664
 10
569.1585457993
 20
2.3913067627
 10
569.0548886955
 20
2.640032425
 10
568.9366271588
 20
2.8248522654
 10
568.8083059138
 20
2.9386637612
 10
568.674856274
 20
2.9770932004
  0
LINE
  5
3AB
330
1F
100
AcDbEntity
  8
0
  6
Continuous
 62
     7
370
    25
100
AcDbLine
 10
569.3588965607
 20
0.9770932004
 30
0.0
 11
569.3588965607
 21
-1.9229067996
 31
0.0
  0
LINE
  5
3AC
330
1F
100
AcDbEntity
  8
0
  6
Continuous
 62
     7
370
    25
100
AcDbLine
 10
569.3588965607
 20
-7.9229067996
 30
0.0
 11
569.3588965607
 21
-11.0229067996
 31
0.0
  0
LWPOLYLINE
  5
3AD
330
1F
100
AcDbEntity
  8
0
  6
Continuous
 62
     7
370
    25
100
AcDbPolyline
 90
        9
 70
   128
 43
0.0
 10
568.674856274
 20
-13.0229067996
 10
568.8083059138
 20
-12.9844773604
 10
568.9366271588
 20
-12.8706658646
 10
569.0548886955
 20
-12.6858460242
 10
569.1585457993
 20
-12.437120362
 10
569.2436149859
 20
-12.1340472657
 10
569.3068270943
 20
-11.7882736644
 10
569.3457529184
 20
-11.4130874437
 10
569.3588965607
 20
-11.0229067996
  0
LINE
  5
3AE
330
1F
100
AcDbEntity
  8
0
  6
Continuous
 62
     7
370
    25
100
AcDbLine
 10
568.674856274
 20
-13.0229067996
 30
0.0
 11
566.8036575517
 21
-13.0229067996
 31
0.0
  0
LINE
  5
3AF
330
1F
100
AcDbEntity
  8
0
  6
Continuous
 62
     7
370
    25
100
AcDbLine
 10
258.7433501725
 20
2.9770932004
 30
0.0
 11
259.7433501725
 21
2.9770932004
 31
0.0
  0
LINE
  5
3B0
330
1F
100
AcDbEntity
  8
0
  6
Continuous
 62
     7
370
    25
100
AcDbLine
 10
258.7433501725
 20
0.9770932004
 30
0.0
 11
258.7433501725
 21
2.9770932004
 31
0.0
  0
LINE
  5
3B1
330
1F
100
AcDbEntity
  8
0
  6
Continuous
 62
     7
370
    25
100
AcDbLine
 10
260.7433501725
 20
-24.5979067996
 30
0.0
 11
260.7433501725
 21
-15.4229067996
 31
0.0
  0
LINE
  5
3B2
330
1F
100
AcDbEntity
  8
0
  6
Continuous
 62
     7
370
    25
100
AcDbLine
 10
258.7433501725
 20
-28.0229067996
 30
0.0
 11
258.7433501725
 21
-7.9229067996
 31
0.0
  0
LINE
  5
3B3
330
1F
100
AcDbEntity
  8
0
  6
Continuous
 62
     7
370
    25
100
AcDbLine
 10
258.7433501725
 20
-1.9229067996
 30
0.0
 11
258.7433501725
 21
0.9770932004
 31
0.0
  0
LINE
  5
3B4
330
1F
100
AcDbEntity
  8
0
  6
Continuous
 62
     7
370
    25
100
AcDbLine
 10
258.7433501725
 20
-28.0229067996
 30
0.0
 11
258.7450173024
 21
-28.1229067996
 31
0.0
  0
LINE
  5
3B5
330
1F
100
AcDbEntity
  8
0
  6
Continuous
 62
     7
370
    25
100
AcDbLine
 10
258.6830427933
 20
-13.0229067996
 30
0.0
 11
258.7433501725
 21
-13.0229067996
 31
0.0
  0
LINE
  5
3B6
330
1F
100
AcDbEntity
  8
0
  6
Continuous
 62
     7
370
    25
100
AcDbLine
 10
258.7433501725
 20
2.9770932004
 30
0.0
 11
258.6830427933
 21
2.9770932004
 31
0.0
  0
LWPOLYLINE
  5
3B7
330
1F
100
AcDbEntity
  8
0
  6
Continuous
 62
     7
370
    25
100
AcDbPolyline
 90
        9
 70
   128
 43
0.0
 10
256.811844071
 20
2.9770932004
 10
256.6783944312
 20
2.9386637612
 10
256.5500731862
 20
2.8248522654
 10
256.4318116495
 20
2.640032425
 10
256.3281545457
 20
2.3913067627
 10
256.243085359
 20
2.0882336664
 10
256.1798732507
 20
1.7424600651
 10
256.1409474266
 20
1.3672738444
 10
256.1278037843
 20
0.9770932004
  0
LINE
  5
3B8
330
1F
100
AcDbEntity
  8
0
  6
Continuous
 62
     7
370
    25
100
AcDbLine
 10
256.811844071
 20
2.9770932004
 30
0.0
 11
258.6830427933
 21
2.9770932004
 31
0.0
  0
LINE
  5
3B9
330
1F
100
AcDbEntity
  8
0
  6
Continuous
 62
     7
370
    25
100
AcDbLine
 10
258.6830427933
 20
-13.0229067996
 30
0.0
 11
256.811844071
 21
-13.0229067996
 31
0.0
  0
LWPOLYLINE
  5
3BA
330
1F
100
AcDbEntity
  8
0
  6
Continuous
 62
     7
370
    25
100
AcDbPolyline
 90
        9
 70
   128
 43
0.0
 10
256.1278037843
 20
-11.0229067996
 10
256.1409474266
 20
-11.4130874437
 10
256.1798732507
 20
-11.7882736644
 10
256.243085359
 20
-12.1340472657
 10
256.3281545457
 20
-12.437120362
 10
256.4318116495
 20
-12.6858460242
 10
256.5500731862
 20
-12.8706658646
 10
256.6783944312
 20
-12.9844773604
 10
256.811844071
 20
-13.0229067996
  0
LINE
  5
3BB
330
1F
100
AcDbEntity
  8
0
  6
Continuous
 62
     7
370
    25
100
AcDbLine
 10
256.1278037843
 20
-11.0229067996
 30
0.0
 11
256.1278037843
 21
-7.9229067996
 31
0.0
  0
LINE
  5
3BC
330
1F
100
AcDbEntity
  8
0
  6
Continuous
 62
     7
370
    25
100
AcDbLine
 10
256.1278037843
 20
-1.9229067996
 30
0.0
 11
256.1278037843
 21
0.9770932004
 31
0.0
  0
SPLINE
  5
3BD
330
1F
100
AcDbEntity
  8
0
  6
Continuous
 62
     7
370
    25
100
AcDbSpline
210
0.0
220
0.0
230
1.0
 70
    24
 71
     3
 72
     9
 73
     5
 74
     0
 42
0.000000001
 43
0.00000001
 40
0.0
 40
0.0
 40
0.0
 40
0.0
 40
0.7059102712398755
 40
1.0
 40
1.0
 40
1.0
 40
1.0
 10
260.5433501724776
 20
0.8503420097664025
 30
0.0
 10
260.5433501724776
 20
0.8605947790629618
 30
0.0
 10
260.5433501724776
 20
0.8751189611216235
 30
0.0
 10
260.5433501724776
 20
0.7800670045132488
 30
0.0
 10
260.5433501724776
 20
0.7521132003761822
 30
0.0
  0
SPLINE
  5
3BE
330
1F
100
AcDbEntity
  8
0
  6
Continuous
 62
     7
370
    25
100
AcDbSpline
210
0.0
220
0.0
230
1.0
 70
    24
 71
     3
 72
    12
 73
     8
 74
     0
 42
0.000000001
 43
0.00000001
 40
0.0
 40
0.0
 40
0.0
 40
0.0
 40
0.3344405486782629
 40
0.514475757136985
 40
0.6983315710265364
 40
0.8821873849160873
 40
1.0
 40
1.0
 40
1.0
 40
1.0
 10
261.5433501724777
 20
-2.416599494567084
 30
0.0
 10
261.5433501724777
 20
-1.792453959065234
 30
0.0
 10
261.5433501724777
 20
-0.8323199435876548
 30
0.0
 10
261.5433501724776
 20
0.0755909627076388
 30
0.0
 10
261.5433501724777
 20
0.5813083006237671
 30
0.0
 10
261.5433501724776
 20
0.8529280347619834
 30
0.0
 10
261.5433501724776
 20
0.8510683033022227
 30
0.0
 10
261.5433501724776
 20
0.8503420097773452
 30
0.0
  0
SPLINE
  5
3BF
330
1F
100
AcDbEntity
  8
0
  6
Continuous
 62
     7
370
    25
100
AcDbSpline
210
0.0
220
0.0
230
1.0
 70
    24
 71
     3
 72
    15
 73
    11
 74
     0
 42
0.000000001
 43
0.00000001
 40
0.0
 40
0.0
 40
0.0
 40
0.0
 40
0.034696749791865
 40
0.2211884951269639
 40
0.4076802404620633
 40
0.5080720152630784
 40
0.6105942475634817
 40
0.7131164798638854
 40
0.8135082546649
 40
1.0
 40
1.0
 40
1.0
 40
1.0
 10
261.5433501724777
 20
-10.69615560902838
 30
0.0
 10
261.5433501724777
 20
-10.7028767126598
 30
0.0
 10
261.5433501724777
 20
-10.7457231120126
 30
0.0
 10
261.5433501724777
 20
-10.25768214925411
 30
0.0
 10
261.5433501724777
 20
-9.161771091785534
 30
0.0
 10
261.5433501724777
 20
-7.942873959338067
 30
0.0
 10
261.5433501724777
 20
-6.862698731481093
 30
0.0
 10
261.5433501724777
 20
-5.702221829015406
 30
0.0
 10
261.5433501724777
 20
-4.171646933900289
 30
0.0
 10
261.5433501724777
 20
-3.10802104525022
 30
0.0
 10
261.5433501724776
 20
-2.416599494567078
 30
0.0
  0
LINE
  5
3C0
330
1F
100
AcDbEntity
  8
0
  6
Continuous
 62
     7
370
    25
100
AcDbLine
 10
265.5433501725
 20
-5.3063018273
 30
0.0
 11
265.5433501725
 21
-0.7972259203
 31
0.0
  0
SPLINE
  5
3C1
330
1F
100
AcDbEntity
  8
0
  6
Continuous
 62
     7
370
    25
100
AcDbSpline
210
0.0
220
0.0
230
1.0
 70
     8
 71
     3
 72
     8
 73
     4
 74
     0
 42
0.000000001
 43
0.00000001
 40
0.0
 40
0.0
 40
0.0
 40
0.0
 40
1.0
 40
1.0
 40
1.0
 40
1.0
 10
265.5433501724706
 20
-5.30630182731199
 30
0.0
 10
265.5433501724706
 20
-4.32392338273921
 30
0.0
 10
265.3690348720913
 20
-3.368432214549477
 30
0.0
 10
265.0967681850793
 20
-2.428049565221903
 30
0.0
  0
SPLINE
  5
3C2
330
1F
100
AcDbEntity
  8
0
  6
Continuous
 62
     7
370
    25
100
AcDbSpline
210
0.0
220
0.0
230
1.0
 70
     8
 71
     3
 72
     8
 73
     4
 74
     0
 42
0.000000001
 43
0.00000001
 40
0.0
 40
0.0
 40
0.0
 40
0.0
 40
1.0
 40
1.0
 40
1.0
 40
1.0
 10
265.0967681850792
 20
-2.428049565215783
 30
0.0
 10
265.3690348720907
 20
-1.895226824150939
 30
0.0
 10
265.5433501724705
 20
-1.353843565256347
 30
0.0
 10
265.5433501724705
 20
-0.7972259203279072
 30
0.0
  0
SPLINE
  5
3C3
330
1F
100
AcDbEntity
  8
0
  6
Continuous
 62
     7
370
    25
100
AcDbSpline
210
0.0
220
0.0
230
1.0
 70
     8
 71
     3
 72
     8
 73
     4
 74
     0
 42
0.000000001
 43
0.00000001
 40
0.0
 40
0.0
 40
0.0
 40
0.0
 40
1.0
 40
1.0
 40
1.0
 40
1.0
 10
265.0967681850793
 20
-8.184554089401972
 30
0.0
 10
265.3690348720908
 20
-7.244171440076179
 30
0.0
 10
265.5433501724706
 20
-6.288680271882908
 30
0.0
 10
265.5433501724706
 20
-5.30630182731199
 30
0.0
  0
LINE
  5
3C4
330
1F
100
AcDbEntity
  8
0
  6
Continuous
 62
     7
370
    25
100
AcDbLine
 10
261.5433501725
 20
-8.1845540894
 30
0.0
 11
265.0967681851
 21
-8.1845540894
 31
0.0
  0
LINE
  5
3C5
330
1F
100
AcDbEntity
  8
0
  6
Continuous
 62
     7
370
    25
100
AcDbLine
 10
261.5433501725
 20
-2.4280495652
 30
0.0
 11
265.0967681851
 21
-2.4280495652
 31
0.0
  0
LINE
  5
3C6
330
1F
100
AcDbEntity
  8
0
  6
Continuous
 62
     7
370
    25
100
AcDbLine
 10
265.5433501725
 20
-9.4319827066
 30
0.0
 11
265.5433501725
 21
-5.3063018273
 31
0.0
  0
SPLINE
  5
3C7
330
1F
100
AcDbEntity
  8
0
  6
Continuous
 62
     7
370
    25
100
AcDbSpline
210
0.0
220
0.0
230
1.0
 70
     8
 71
     3
 72
     8
 73
     4
 74
     0
 42
0.000000001
 43
0.00000001
 40
0.0
 40
0.0
 40
0.0
 40
0.0
 40
1.0
 40
1.0
 40
1.0
 40
1.0
 10
265.5433501724705
 20
-9.431982706609505
 30
0.0
 10
265.5433501724705
 20
-9.006221906966285
 30
0.0
 10
265.3690348720912
 20
-8.59211399766923
 30
0.0
 10
265.0967681850793
 20
-8.18455408940756
 30
0.0
  0
SPLINE
  5
3C8
330
1F
100
AcDbEntity
  8
0
  6
Continuous
 62
     7
370
    25
100
AcDbSpline
210
0.0
220
0.0
230
1.0
 70
     8
 71
     3
 72
     8
 73
     4
 74
     0
 42
0.000000001
 43
0.00000001
 40
0.0
 40
0.0
 40
0.0
 40
0.0
 40
1.0
 40
1.0
 40
1.0
 40
1.0
 10
265.5433501724705
 20
-0.7972259203279072
 30
0.0
 10
265.5433501724705
 20
-0.2406082753984616
 30
0.0
 10
265.3690348720911
 20
0.3007749834941674
 30
0.0
 10
265.0967681850792
 20
0.8335977245599686
 30
0.0
  0
LINE
  5
3C9
330
1F
100
AcDbEntity
  8
0
  6
Continuous
 62
     7
370
    25
100
AcDbLine
 10
261.5433501725
 20
0.8335977246
 30
0.0
 11
265.0967681851
 21
0.8335977246
 31
0.0
  0
SPLINE
  5
3CA
330
1F
100
AcDbEntity
  8
0
  6
Continuous
 62
     7
370
    25
100
AcDbSpline
210
0.0
220
0.0
230
1.0
 70
     8
 71
     3
 72
     8
 73
     4
 74
     0
 42
0.000000001
 43
0.00000001
 40
0.0
 40
0.0
 40
0.0
 40
0.0
 40
1.0
 40
1.0
 40
1.0
 40
1.0
 10
265.0967681850793
 20
-10.6794113238115
 30
0.0
 10
265.3690348720908
 20
-10.27185141555044
 30
0.0
 10
265.5433501724705
 20
-9.85774350625209
 30
0.0
 10
265.5433501724705
 20
-9.431982706609505
 30
0.0
  0
LINE
  5
3CB
330
1F
100
AcDbEntity
  8
0
  6
Continuous
 62
     7
370
    25
100
AcDbLine
 10
265.0967681851
 20
-10.6794113238
 30
0.0
 11
261.5433501725
 21
-10.6794113238
 31
0.0
  0
LINE
  5
3CC
330
1F
100
AcDbEntity
  8
0
  6
Continuous
 62
     7
370
    25
100
AcDbLine
 10
250.5433501725
 20
-2.4641567996
 30
0.0
 11
250.5433501725
 21
-7.3816567996
 31
0.0
  0
LINE
  5
3CD
330
1F
100
AcDbEntity
  8
0
  6
Continuous
 62
     7
370
    25
100
AcDbLine
 10
251.0846001725
 20
-7.6283523438
 30
0.0
 11
251.0846001725
 21
-7.9229067996
 31
0.0
  0
LINE
  5
3CE
330
1F
100
AcDbEntity
  8
0
  6
Continuous
 62
     7
370
    25
100
AcDbLine
 10
251.0846001725
 20
-1.9229067996
 30
0.0
 11
251.0846001725
 21
-7.6283523438
 31
0.0
  0
LINE
  5
3CF
330
1F
100
AcDbEntity
  8
0
  6
Continuous
 62
     7
370
    25
100
AcDbLine
 10
265.0967681851
 20
0.8335977246
 30
0.0
 11
265.1719559406
 21
0.6235772567
 31
0.0
  0
LINE
  5
3D0
330
1F
100
AcDbEntity
  8
0
  6
Continuous
 62
     7
370
    25
100
AcDbLine
 10
265.5433501725
 20
-0.7972259203
 30
0.0
 11
265.5433501725
 21
0.0770932004
 31
0.0
  0
LINE
  5
3D1
330
1F
100
AcDbEntity
  8
0
  6
Continuous
 62
     7
370
    25
100
AcDbLine
 10
265.5433501725
 20
-9.9229067996
 30
0.0
 11
265.5433501725
 21
-9.4319827066
 31
0.0
  0
ARC
  5
3D2
330
1F
100
AcDbEntity
  8
0
  6
Continuous
 62
     7
370
    25
100
AcDbCircle
 10
252.2433501725
 20
-34.1229067996
 30
0.0
 40
6.000000000000007
100
AcDbArc
 50
90.0
 51
143.1301023541
  0
ARC
  5
3D3
330
1F
100
AcDbEntity
  8
0
  6
Continuous
 62
     7
370
    25
100
AcDbCircle
 10
573.2433501725
 20
-34.1229067996
 30
0.0
 40
6.000000000000007
100
AcDbArc
 50
36.8698976459
 51
90.0
  0
LINE
  5
3D4
330
1F
100
AcDbEntity
  8
0
  6
Continuous
 62
     7
370
    25
100
AcDbLine
 10
95.9247050282
 20
473.1075204992
 30
0.0
 11
95.5617672499
 21
472.4788938271
 31
0.0
  0
LINE
  5
3D5
330
1F
100
AcDbEntity
  8
0
  6
Continuous
 62
     7
370
    25
100
AcDbLine
 10
95.5617672499
 20
466.1788938271
 30
0.0
 11
95.9247050282
 21
465.550267155
 31
0.0
  0
LINE
  5
3D6
330
1F
100
AcDbEntity
  8
0
  6
Continuous
 62
     7
370
    25
100
AcDbLine
 10
95.5617672499
 20
465.1788938271
 30
0.0
 11
95.9247050282
 21
464.550267155
 31
0.0
  0
LINE
  5
3D7
330
1F
100
AcDbEntity
  8
0
  6
Continuous
 62
     7
370
    25
100
AcDbLine
 10
93.8617672499
 20
473.3288938271
 30
0.0
 11
91.8617672499
 21
473.3288938271
 31
0.0
  0
LINE
  5
3D8
330
1F
100
AcDbEntity
  8
0
  6
Continuous
 62
     7
370
    25
100
AcDbLine
 10
91.8617672499
 20
465.3288938271
 30
0.0
 11
93.8617672499
 21
465.3288938271
 31
0.0
  0
ARC
  5
3D9
330
1F
100
AcDbEntity
  8
0
  6
Continuous
 62
     7
370
    25
100
AcDbCircle
 10
98.7899704801
 20
469.3288938271
 30
0.0
 40
8.000000000000004
100
AcDbArc
 50
195.2747479997
 51
210.0
  0
ARC
  5
3DA
330
1F
100
AcDbEntity
  8
0
  6
Continuous
 62
     7
370
    25
100
AcDbCircle
 10
98.7899704801
 20
469.3288938271
 30
0.0
 40
8.000000000000004
100
AcDbArc
 50
150.0
 51
164.7252520003
  0
LINE
  5
3DB
330
1F
100
AcDbEntity
  8
0
  6
Continuous
 62
     7
370
    25
100
AcDbLine
 10
95.5617672499
 20
471.3288938271
 30
0.0
 11
95.4617672499
 21
471.3288938271
 31
0.0
  0
LINE
  5
3DC
330
1F
100
AcDbEntity
  8
0
  6
Continuous
 62
     7
370
    25
100
AcDbLine
 10
95.4617672499
 20
467.3288938271
 30
0.0
 11
95.5617672499
 21
467.3288938271
 31
0.0
  0
LINE
  5
3DD
330
1F
100
AcDbEntity
  8
0
  6
Continuous
 62
     7
370
    25
100
AcDbLine
 10
91.8617672499
 20
464.3288938271
 30
0.0
 11
93.8617672499
 21
464.3288938271
 31
0.0
  0
ARC
  5
3DE
330
1F
100
AcDbEntity
  8
0
  6
Continuous
 62
     7
370
    25
100
AcDbCircle
 10
98.7899704801
 20
468.3288938271
 30
0.0
 40
7.99999999999999
100
AcDbArc
 50
195.2747479997
 51
210.0
  0
LINE
  5
3DF
330
1F
100
AcDbEntity
  8
0
  6
Continuous
 62
     7
370
    25
100
AcDbLine
 10
95.4617672499
 20
466.3288938271
 30
0.0
 11
95.5617672499
 21
466.3288938271
 31
0.0
  0
CIRCLE
  5
3E0
330
1F
100
AcDbEntity
  8
0
  6
Continuous
 62
     7
370
    25
100
AcDbCircle
 10
107.1617672499
 20
118.3288938271
 30
0.0
 40
2.458750000016605
  0
CIRCLE
  5
3E1
330
1F
100
AcDbEntity
  8
0
  6
Continuous
 62
     7
370
    25
100
AcDbCircle
 10
107.1617672499
 20
118.3288938271
 30
0.0
 40
2.999999999999994
  0
CIRCLE
  5
3E2
330
1F
100
AcDbEntity
  8
0
  6
Continuous
 62
     7
370
    25
100
AcDbCircle
 10
107.1617672499
 20
493.3288938271
 30
0.0
 40
2.458750000016673
  0
CIRCLE
  5
3E3
330
1F
100
AcDbEntity
  8
0
  6
Continuous
 62
     7
370
    25
100
AcDbCircle
 10
107.1617672499
 20
493.3288938271
 30
0.0
 40
2.99999999999996
  0
LINE
  5
3E4
330
1F
100
AcDbEntity
  8
0
  6
Continuous
 62
     7
370
    25
100
AcDbLine
 10
88.5617672499
 20
71.7996045052
 30
0.0
 11
88.5617672499
 21
464.858183149
 31
0.0
  0
LINE
  5
3E5
330
1F
100
AcDbEntity
  8
0
  6
Continuous
 62
     7
370
    25
100
AcDbLine
 10
78.9617672499
 20
71.7996045052
 30
0.0
 11
88.5617672499
 21
71.7996045052
 31
0.0
  0
LINE
  5
3E6
330
1F
100
AcDbEntity
  8
0
  6
Continuous
 62
     7
370
    25
100
AcDbLine
 10
78.9617672499
 20
464.858183149
 30
0.0
 11
88.5617672499
 21
464.858183149
 31
0.0
  0
LINE
  5
3E7
330
1F
100
AcDbEntity
  8
0
  6
Continuous
 62
     7
370
    25
100
AcDbLine
 10
76.5617672499
 20
72.7288938271
 30
0.0
 11
76.5617672499
 21
463.9288938271
 31
0.0
  0
SPLINE
  5
3E8
330
1F
100
AcDbEntity
  8
0
  6
Continuous
 62
     7
370
    25
100
AcDbSpline
210
0.0
220
0.0
230
1.0
 70
     8
 71
     3
 72
    20
 73
    16
 74
     0
 42
0.000000001
 43
0.00000001
 40
0.0
 40
0.0
 40
0.0
 40
0.0
 40
0.125
 40
0.125
 40
0.2500000000000001
 40
0.2500000000000001
 40
0.3750000000000001
 40
0.3750000000000001
 40
0.5000000000000001
 40
0.5000000000000001
 40
0.7500000000000002
 40
0.7500000000000002
 40
0.8750000000000001
 40
0.8750000000000001
 40
1.0
 40
1.0
 40
1.0
 40
1.0
 10
76.56176724986547
 20
463.9288938270943
 30
0.0
 10
76.56176724986547
 20
463.9679345579489
 30
0.0
 10
76.57730381034033
 20
464.0064532621487
 30
0.0
 10
76.63862216230092
 20
464.0838600134566
 30
0.0
 10
76.68504590788773
 20
464.1230044314433
 30
0.0
 10
76.80499677804185
 20
464.2001551853585
 30
0.0
 10
76.87860142232526
 20
464.2384827670996
 30
0.0
 10
77.05333178842092
 20
464.3160290875761
 30
0.0
 10
77.15418241732247
 20
464.3550052952449
 30
0.0
 10
77.4854676973064
 20
464.4705001516898
 30
0.0
 10
77.7531478586903
 20
464.5484125953599
 30
0.0
 10
78.1858218847457
 20
464.6638925207608
 30
0.0
 10
78.33733997159683
 20
464.7027583166258
 30
0.0
 10
78.64676572898294
 20
464.7805326502945
 30
0.0
 10
78.80338805867669
 20
464.8191424172492
 30
0.0
 10
78.96176724986542
 20
464.8581831489757
 30
0.0
  0
SPLINE
  5
3E9
330
1F
100
AcDbEntity
  8
0
  6
Continuous
 62
     7
370
    25
100
AcDbSpline
210
0.0
220
0.0
230
1.0
 70
     8
 71
     3
 72
    20
 73
    16
 74
     0
 42
0.000000001
 43
0.00000001
 40
0.0
 40
0.0
 40
0.0
 40
0.0
 40
0.1249999999999994
 40
0.1249999999999994
 40
0.2499999999999987
 40
0.2499999999999987
 40
0.3749999999999981
 40
0.3749999999999981
 40
0.4999999999999974
 40
0.4999999999999974
 40
0.7500000000000012
 40
0.7500000000000012
 40
0.8750000000000007
 40
0.8750000000000007
 40
1.0
 40
1.0
 40
1.0
 40
1.0
 10
78.96176724986549
 20
71.79960450521286
 30
0.0
 10
78.8033880622148
 20
71.83864523606736
 30
0.0
 10
78.64714233752309
 20
71.8771639402672
 30
0.0
 10
78.33915048810647
 20
71.95457069157519
 30
0.0
 10
78.18650638063534
 20
71.99371510956182
 30
0.0
 10
77.89742209144826
 20
72.07086586347694
 30
0.0
 10
77.75961755326422
 20
72.10919344521807
 30
0.0
 10
77.49799887762529
 20
72.1867397656946
 30
0.0
 10
77.37525257094266
 20
72.22571597336325
 30
0.0
 10
77.04392819399496
 20
72.34121082980835
 30
0.0
 10
76.86491706996674
 20
72.41912327347829
 30
0.0
 10
76.68530197058584
 20
72.53460319887928
 30
0.0
 10
76.63905762171814
 20
72.57346899474437
 30
0.0
 10
76.5773043157069
 20
72.65124332841286
 30
0.0
 10
76.56176724986547
 20
72.6898530953676
 30
0.0
 10
76.56176724986547
 20
72.72889382709427
 30
0.0
  0
SPLINE
  5
3EA
330
1F
100
AcDbEntity
  8
0
  6
Continuous
 62
     7
370
    25
100
AcDbSpline
210
0.0
220
0.0
230
1.0
 70
     8
 71
     3
 72
    20
 73
    16
 74
     0
 42
0.000000001
 43
0.00000001
 40
0.0
 40
0.0
 40
0.0
 40
0.0
 40
0.1249999999999993
 40
0.1249999999999993
 40
0.2499999999999986
 40
0.2499999999999986
 40
0.3749999999999979
 40
0.3749999999999979
 40
0.4999999999999972
 40
0.4999999999999972
 40
0.7499999999999958
 40
0.7499999999999958
 40
0.8749999999999978
 40
0.8749999999999978
 40
1.0
 40
1.0
 40
1.0
 40
1.0
 10
76.56176724986545
 20
72.7288938270943
 30
0.0
 10
76.56176724986545
 20
72.57051463944356
 30
0.0
 10
76.57730381034031
 20
72.41426891475191
 30
0.0
 10
76.63862216230092
 20
72.10627706533529
 30
0.0
 10
76.68504590788771
 20
71.95363295786409
 30
0.0
 10
76.80499677804185
 20
71.66454866867703
 30
0.0
 10
76.87860142232525
 20
71.52674413049299
 30
0.0
 10
77.05333178842089
 20
71.26512545485406
 30
0.0
 10
77.15418241732242
 20
71.14237914817137
 30
0.0
 10
77.48546769730635
 20
70.81105477122371
 30
0.0
 10
77.75314785869028
 20
70.63204364719559
 30
0.0
 10
78.18582188474568
 20
70.45242854781469
 30
0.0
 10
78.3373399715968
 20
70.40618419894693
 30
0.0
 10
78.64676572898293
 20
70.34443089293568
 30
0.0
 10
78.8033880586767
 20
70.32889382709423
 30
0.0
 10
78.96176724986545
 20
70.32889382709429
 30
0.0
  0
SPLINE
  5
3EB
330
1F
100
AcDbEntity
  8
0
  6
Continuous
 62
     7
370
    25
100
AcDbSpline
210
0.0
220
0.0
230
1.0
 70
     8
 71
     3
 72
     9
 73
     5
 74
     0
 42
0.000000001
 43
0.00000001
 40
0.0
 40
0.0
 40
0.0
 40
0.0
 40
0.425869494152421
 40
1.0
 40
1.0
 40
1.0
 40
1.0
 10
78.4053758228563
 20
71.9189723897715
 30
0.0
 10
78.47577999946115
 20
71.86905076492697
 30
0.0
 10
78.64109866532375
 20
71.75182794072855
 30
0.0
 10
78.84481022758017
 20
71.73725855556701
 30
0.0
 10
78.96176724986545
 20
71.7288938270943
 30
0.0
  0
LINE
  5
3EC
330
1F
100
AcDbEntity
  8
0
  6
Continuous
 62
     7
370
    25
100
AcDbLine
 10
78.9617672499
 20
70.3288938271
 30
0.0
 11
78.9617672499
 21
71.7288938271
 31
0.0
  0
SPLINE
  5
3ED
330
1F
100
AcDbEntity
  8
0
  6
Continuous
 62
     7
370
    25
100
AcDbSpline
210
0.0
220
0.0
230
1.0
 70
     8
 71
     3
 72
    20
 73
    16
 74
     0
 42
0.000000001
 43
0.00000001
 40
0.0
 40
0.0
 40
0.0
 40
0.0
 40
0.1250000000000019
 40
0.1250000000000019
 40
0.2500000000000038
 40
0.2500000000000038
 40
0.3750000000000058
 40
0.3750000000000058
 40
0.5000000000000077
 40
0.5000000000000077
 40
0.7500000000000063
 40
0.7500000000000063
 40
0.8750000000000032
 40
0.8750000000000032
 40
1.0
 40
1.0
 40
1.0
 40
1.0
 10
78.96176724986549
 20
466.3288938270943
 30
0.0
 10
78.8033880622148
 20
466.3288938270943
 30
0.0
 10
78.6471423375231
 20
466.3133572666196
 30
0.0
 10
78.33915048810648
 20
466.2520389146588
 30
0.0
 10
78.18650638063536
 20
466.2056151690721
 30
0.0
 10
77.89742209144832
 20
466.0856642989179
 30
0.0
 10
77.75961755326426
 20
466.0120596546345
 30
0.0
 10
77.49799887762535
 20
465.8373292885389
 30
0.0
 10
77.3752525709427
 20
465.7364786596373
 30
0.0
 10
77.043928193995
 20
465.4051933796535
 30
0.0
 10
76.86491706996678
 20
465.1375132182695
 30
0.0
 10
76.68530197058588
 20
464.7048391922142
 30
0.0
 10
76.63905762171818
 20
464.553321105363
 30
0.0
 10
76.57730431570694
 20
464.2438953479769
 30
0.0
 10
76.5617672498655
 20
464.087273018283
 30
0.0
 10
76.5617672498655
 20
463.9288938270943
 30
0.0
  0
LINE
  5
3EE
330
1F
100
AcDbEntity
  8
0
  6
Continuous
 62
     7
370
    25
100
AcDbLine
 10
78.9617672499
 20
466.3288938271
 30
0.0
 11
78.9617672499
 21
464.9288938271
 31
0.0
  0
SPLINE
  5
3EF
330
1F
100
AcDbEntity
  8
0
  6
Continuous
 62
     7
370
    25
100
AcDbSpline
210
0.0
220
0.0
230
1.0
 70
     8
 71
     3
 72
     9
 73
     5
 74
     0
 42
0.000000001
 43
0.00000001
 40
0.0
 40
0.0
 40
0.0
 40
0.0
 40
0.7584558214374881
 40
1.0
 40
1.0
 40
1.0
 40
1.0
 10
78.96176724986546
 20
464.9288938270943
 30
0.0
 10
78.81005947192922
 20
464.9178392912609
 30
0.0
 10
78.61003756735909
 20
464.9032642355739
 30
0.0
 10
78.45948347596759
 20
464.7801678519743
 30
0.0
 10
78.4231180116332
 20
464.7504346371136
 30
0.0
  0
LINE
  5
3F0
330
1F
100
AcDbEntity
  8
0
  6
Continuous
 62
     7
370
    25
100
AcDbLine
 10
88.5617672499
 20
70.3288938271
 30
0.0
 11
88.5617672499
 21
71.7288938271
 31
0.0
  0
LINE
  5
3F1
330
1F
100
AcDbEntity
  8
0
  6
Continuous
 62
     7
370
    25
100
AcDbLine
 10
78.9617672499
 20
70.3288938271
 30
0.0
 11
88.5617672499
 21
70.3288938271
 31
0.0
  0
LINE
  5
3F2
330
1F
100
AcDbEntity
  8
0
  6
Continuous
 62
     7
370
    25
100
AcDbLine
 10
78.9617672499
 20
71.7288938271
 30
0.0
 11
88.5617672499
 21
71.7288938271
 31
0.0
  0
LINE
  5
3F3
330
1F
100
AcDbEntity
  8
0
  6
Continuous
 62
     7
370
    25
100
AcDbLine
 10
78.9617672499
 20
466.3288938271
 30
0.0
 11
88.5617672499
 21
466.3288938271
 31
0.0
  0
LINE
  5
3F4
330
1F
100
AcDbEntity
  8
0
  6
Continuous
 62
     7
370
    25
100
AcDbLine
 10
78.9617672499
 20
464.9288938271
 30
0.0
 11
88.5617672499
 21
464.9288938271
 31
0.0
  0
LINE
  5
3F5
330
1F
100
AcDbEntity
  8
0
  6
Continuous
 62
     7
370
    25
100
AcDbLine
 10
88.5617672499
 20
466.3288938271
 30
0.0
 11
88.5617672499
 21
464.9288938271
 31
0.0
  0
LINE
  5
3F6
330
1F
100
AcDbEntity
  8
0
  6
Continuous
 62
     7
370
    25
100
AcDbLine
 10
96.6617672499
 20
479.8288938271
 30
0.0
 11
96.6617672499
 21
462.6288938271
 31
0.0
  0
LINE
  5
3F7
330
1F
100
AcDbEntity
  8
0
  6
Continuous
 62
     7
370
    25
100
AcDbLine
 10
92.6617672499
 20
479.8288938271
 30
0.0
 11
96.6617672499
 21
479.8288938271
 31
0.0
  0
LINE
  5
3F8
330
1F
100
AcDbEntity
  8
0
  6
Continuous
 62
     7
370
    25
100
AcDbLine
 10
92.6617672499
 20
496.8288938271
 30
0.0
 11
92.6617672499
 21
479.8288938271
 31
0.0
  0
ARC
  5
3F9
330
1F
100
AcDbEntity
  8
0
  6
Continuous
 62
     7
370
    25
100
AcDbCircle
 10
95.6617672499
 20
496.8288938271
 30
0.0
 40
3.000000000000057
100
AcDbArc
 50
90.0
 51
180.0
  0
LINE
  5
3FA
330
1F
100
AcDbEntity
  8
0
  6
Continuous
 62
     7
370
    25
100
AcDbLine
 10
112.6617672499
 20
499.8288938271
 30
0.0
 11
95.6617672499
 21
499.8288938271
 31
0.0
  0
ARC
  5
3FB
330
1F
100
AcDbEntity
  8
0
  6
Continuous
 62
     7
370
    25
100
AcDbCircle
 10
112.6617672499
 20
496.8288938271
 30
0.0
 40
3.000000000000057
100
AcDbArc
 50
0.0
 51
90.0
  0
LINE
  5
3FC
330
1F
100
AcDbEntity
  8
0
  6
Continuous
 62
     7
370
    25
100
AcDbLine
 10
115.6617672499
 20
462.6288938271
 30
0.0
 11
115.6617672499
 21
496.8288938271
 31
0.0
  0
CIRCLE
  5
3FD
330
1F
100
AcDbEntity
  8
0
  6
Continuous
 62
     7
370
    25
100
AcDbCircle
 10
107.1617672499
 20
493.3288938271
 30
0.0
 40
3.250000000000171
  0
CIRCLE
  5
3FE
330
1F
100
AcDbEntity
  8
0
  6
Continuous
 62
     7
370
    25
100
AcDbCircle
 10
107.1617672499
 20
468.3288938271
 30
0.0
 40
3.250000000000114
  0
LINE
  5
3FF
330
1F
100
AcDbEntity
  8
0
  6
Continuous
 62
     7
370
    25
100
AcDbLine
 10
96.6617672499
 20
460.8288938271
 30
0.0
 11
96.6617672499
 21
462.6288938271
 31
0.0
  0
LINE
  5
400
330
1F
100
AcDbEntity
  8
0
  6
Continuous
 62
     7
370
    25
100
AcDbLine
 10
115.6617672499
 20
460.8288938271
 30
0.0
 11
96.6617672499
 21
460.8288938271
 31
0.0
  0
LINE
  5
401
330
1F
100
AcDbEntity
  8
0
  6
Continuous
 62
     7
370
    25
100
AcDbLine
 10
115.6617672499
 20
462.6288938271
 30
0.0
 11
115.6617672499
 21
460.8288938271
 31
0.0
  0
LINE
  5
402
330
1F
100
AcDbEntity
  8
0
  6
Continuous
 62
     7
370
    25
100
AcDbLine
 10
96.4617672499
 20
461.6288938271
 30
0.0
 11
96.6617672499
 21
461.6288938271
 31
0.0
  0
LINE
  5
403
330
1F
100
AcDbEntity
  8
0
  6
Continuous
 62
     7
370
    25
100
AcDbLine
 10
96.4617672499
 20
460.8288938271
 30
0.0
 11
96.6617672499
 21
460.8288938271
 31
0.0
  0
ARC
  5
404
330
1F
100
AcDbEntity
  8
0
  6
Continuous
 62
     7
370
    25
100
AcDbCircle
 10
96.4617672499
 20
462.6288938271
 30
0.0
 40
1.799999999999997
100
AcDbArc
 50
180.0
 51
270.0
  0
ARC
  5
405
330
1F
100
AcDbEntity
  8
0
  6
Continuous
 62
     7
370
    25
100
AcDbCircle
 10
96.4617672499
 20
462.6288938271
 30
0.0
 40
1.0
100
AcDbArc
 50
180.0
 51
270.0
  0
LINE
  5
406
330
1F
100
AcDbEntity
  8
0
  6
Continuous
 62
     7
370
    25
100
AcDbLine
 10
95.4617672499
 20
462.6288938271
 30
0.0
 11
95.4617672499
 21
472.8288938271
 31
0.0
  0
LINE
  5
407
330
1F
100
AcDbEntity
  8
0
  6
Continuous
 62
     7
370
    25
100
AcDbLine
 10
94.6617672499
 20
472.8288938271
 30
0.0
 11
95.4617672499
 21
472.8288938271
 31
0.0
  0
LINE
  5
408
330
1F
100
AcDbEntity
  8
0
  6
Continuous
 62
     7
370
    25
100
AcDbLine
 10
139.6617672499
 20
461.6288938271
 30
0.0
 11
139.6617672499
 21
460.8288938271
 31
0.0
  0
LINE
  5
409
330
1F
100
AcDbEntity
  8
0
  6
Continuous
 62
     7
370
    25
100
AcDbLine
 10
136.6617672499
 20
461.6288938271
 30
0.0
 11
139.6617672499
 21
461.6288938271
 31
0.0
  0
LINE
  5
40A
330
1F
100
AcDbEntity
  8
0
  6
Continuous
 62
     7
370
    25
100
AcDbLine
 10
139.6617672499
 20
460.8288938271
 30
0.0
 11
136.6617672499
 21
460.8288938271
 31
0.0
  0
LINE
  5
40B
330
1F
100
AcDbEntity
  8
0
  6
Continuous
 62
     7
370
    25
100
AcDbLine
 10
115.6617672499
 20
461.6288938271
 30
0.0
 11
136.6617672499
 21
461.6288938271
 31
0.0
  0
LINE
  5
40C
330
1F
100
AcDbEntity
  8
0
  6
Continuous
 62
     7
370
    25
100
AcDbLine
 10
115.6617672499
 20
460.8288938271
 30
0.0
 11
136.6617672499
 21
460.8288938271
 31
0.0
  0
LINE
  5
40D
330
1F
100
AcDbEntity
  8
0
  6
Continuous
 62
     7
370
    25
100
AcDbLine
 10
138.5663806417
 20
465.8288938271
 30
0.0
 11
138.5663806417
 21
465.0288938271
 31
0.0
  0
LINE
  5
40E
330
1F
100
AcDbEntity
  8
0
  6
Continuous
 62
     7
370
    25
100
AcDbLine
 10
138.5663806417
 20
465.0288938271
 30
0.0
 11
135.5663806417
 21
465.0288938271
 31
0.0
  0
LINE
  5
40F
330
1F
100
AcDbEntity
  8
0
  6
Continuous
 62
     7
370
    25
100
AcDbLine
 10
135.5663806417
 20
465.8288938271
 30
0.0
 11
138.5663806417
 21
465.8288938271
 31
0.0
  0
LINE
  5
410
330
1F
100
AcDbEntity
  8
0
  6
Continuous
 62
     7
370
    25
100
AcDbLine
 10
129.048689188
 20
465.8288938271
 30
0.0
 11
135.5663806417
 21
465.8288938271
 31
0.0
  0
LINE
  5
411
330
1F
100
AcDbEntity
  8
0
  6
Continuous
 62
     7
370
    25
100
AcDbLine
 10
129.048689188
 20
465.0288938271
 30
0.0
 11
135.5663806417
 21
465.0288938271
 31
0.0
  0
LINE
  5
412
330
1F
100
AcDbEntity
  8
0
  6
Continuous
 62
     7
370
    25
100
AcDbLine
 10
128.548689188
 20
464.8949192309
 30
0.0
 11
122.8917672499
 21
461.6288938271
 31
0.0
  0
LINE
  5
413
330
1F
100
AcDbEntity
  8
0
  6
Continuous
 62
     7
370
    25
100
AcDbLine
 10
128.148689188
 20
465.5877395539
 30
0.0
 11
121.5238180574
 21
461.7628684233
 31
0.0
  0
ARC
  5
414
330
1F
100
AcDbEntity
  8
0
  6
Continuous
 62
     7
370
    25
100
AcDbCircle
 10
129.048689188
 20
464.0288938271
 30
0.0
 40
1.800000000000011
100
AcDbArc
 50
90.0
 51
120.0
  0
ARC
  5
415
330
1F
100
AcDbEntity
  8
0
  6
Continuous
 62
     7
370
    25
100
AcDbCircle
 10
129.048689188
 20
464.0288938271
 30
0.0
 40
1.0
100
AcDbArc
 50
90.0
 51
120.0
  0
ARC
  5
416
330
1F
100
AcDbEntity
  8
0
  6
Continuous
 62
     7
370
    25
100
AcDbCircle
 10
121.0238180574
 20
462.6288938271
 30
0.0
 40
0.9999999999999432
100
AcDbArc
 50
270.0
 51
300.0
  0
CIRCLE
  5
417
330
1F
100
AcDbEntity
  8
0
  6
Continuous
 62
     7
370
    25
100
AcDbCircle
 10
107.1617672499
 20
468.3288938271
 30
0.0
 40
2.458750000016648
  0
CIRCLE
  5
418
330
1F
100
AcDbEntity
  8
0
  6
Continuous
 62
     7
370
    25
100
AcDbCircle
 10
107.1617672499
 20
468.3288938271
 30
0.0
 40
2.99999999999995
  0
LINE
  5
419
330
1F
100
AcDbEntity
  8
0
  6
Continuous
 62
     7
370
    25
100
AcDbLine
 10
96.6617672499
 20
467.8880645052
 30
0.0
 11
96.0764472353
 21
467.8880645052
 31
0.0
  0
SPLINE
  5
41A
330
1F
100
AcDbEntity
  8
0
  6
Continuous
 62
     7
370
    25
100
AcDbSpline
210
0.0
220
0.0
230
1.0
 70
     8
 71
     3
 72
    14
 73
    10
 74
     0
 42
0.000000001
 43
0.00000001
 40
0.0
 40
0.0
 40
0.0
 40
0.0
 40
0.25
 40
0.25
 40
0.5
 40
0.5
 40
0.75
 40
0.75
 40
1.0
 40
1.0
 40
1.0
 40
1.0
 10
96.07644723525144
 20
471.8784957026508
 30
0.0
 10
95.98157262594083
 20
471.5539894733622
 30
0.0
 10
95.90196770106508
 20
471.2215302509678
 30
0.0
 10
95.79313108617083
 20
470.5549603360595
 30
0.0
 10
95.76380748048034
 20
470.2198840787843
 30
0.0
 10
95.76387226222593
 20
469.5455406085567
 30
0.0
 10
95.7940284555523
 20
469.2037611878778
 30
0.0
 10
95.90361365691803
 20
468.5373472682729
 30
0.0
 10
95.98215663072018
 20
468.2105732223202
 30
0.0
 10
96.07644723525144
 20
467.8880645052239
 30
0.0
  0
LINE
  5
41B
330
1F
100
AcDbEntity
  8
0
  6
Continuous
 62
     7
370
    25
100
AcDbLine
 10
96.6617672499
 20
471.8784957027
 30
0.0
 11
96.0764472353
 21
471.8784957027
 31
0.0
  0
SPLINE
  5
41C
330
1F
100
AcDbEntity
  8
0
  6
Continuous
 62
     7
370
    25
100
AcDbSpline
210
0.0
220
0.0
230
1.0
 70
     8
 71
     3
 72
    12
 73
     8
 74
     0
 42
0.000000001
 43
0.00000001
 40
0.0
 40
0.0
 40
0.0
 40
0.0
 40
0.4999999999999984
 40
0.4999999999999984
 40
0.7499999999999992
 40
0.7499999999999992
 40
1.0
 40
1.0
 40
1.0
 40
1.0
 10
96.07644723525046
 20
467.888064505224
 30
0.0
 10
95.88595294582694
 20
467.4717634215694
 30
0.0
 10
95.76427853276456
 20
467.0492248935809
 30
0.0
 10
95.76362234223333
 20
466.3989347541201
 30
0.0
 10
95.79345634402772
 20
466.1823925362058
 30
0.0
 10
95.90238621413532
 20
465.7570245309655
 30
0.0
 10
95.9810814011982
 20
465.5468725519802
 30
0.0
 10
96.07644723525094
 20
465.3384626296675
 30
0.0
  0
LINE
  5
41D
330
1F
100
AcDbEntity
  8
0
  6
Continuous
 62
     7
370
    25
100
AcDbLine
 10
96.0764472353
 20
465.3384626297
 30
0.0
 11
95.978572198
 21
465.58136738
 31
0.0
  0
SPLINE
  5
41E
330
1F
100
AcDbEntity
  8
0
  6
Continuous
 62
     7
370
    25
100
AcDbSpline
210
0.0
220
0.0
230
1.0
 70
     8
 71
     3
 72
    12
 73
     8
 74
     0
 42
0.000000001
 43
0.00000001
 40
0.0
 40
0.0
 40
0.0
 40
0.0
 40
0.5000000000000131
 40
0.5000000000000131
 40
0.7500000000000066
 40
0.7500000000000066
 40
1.0
 40
1.0
 40
1.0
 40
1.0
 10
96.07644723525046
 20
473.3193250245213
 30
0.0
 10
95.88595294582694
 20
473.0840652320782
 30
0.0
 10
95.76427853276456
 20
472.8452805392277
 30
0.0
 10
95.76362234223332
 20
472.4777890066707
 30
0.0
 10
95.79345634402772
 20
472.3554168120214
 30
0.0
 10
95.90238621413533
 20
472.1150331268619
 30
0.0
 10
95.9810814011982
 20
471.9962721798003
 30
0.0
 10
96.07644723525094
 20
471.8784957026508
 30
0.0
  0
LINE
  5
41F
330
1F
100
AcDbEntity
  8
0
  6
Continuous
 62
     7
370
    25
100
AcDbLine
 10
95.5617672499
 20
466.1788938271
 30
0.0
 11
95.5617672499
 21
472.4788938271
 31
0.0
  0
LINE
  5
420
330
1F
100
AcDbEntity
  8
0
  6
Continuous
 62
     7
370
    25
100
AcDbLine
 10
96.6617672499
 20
465.3384626297
 30
0.0
 11
96.0764472353
 21
465.3384626297
 31
0.0
  0
LINE
  5
421
330
1F
100
AcDbEntity
  8
0
  6
Continuous
 62
     7
370
    25
100
AcDbLine
 10
96.6617672499
 20
473.3193250245
 30
0.0
 11
96.0764472353
 21
473.3193250245
 31
0.0
  0
SPLINE
  5
422
330
1F
100
AcDbEntity
  8
0
  6
Continuous
 62
     7
370
    25
100
AcDbSpline
210
0.0
220
0.0
230
1.0
 70
     8
 71
     3
 72
     9
 73
     5
 74
     0
 42
0.000000001
 43
0.00000001
 40
0.0
 40
0.0
 40
0.0
 40
0.0
 40
0.1547274116027635
 40
1.0
 40
1.0
 40
1.0
 40
1.0
 10
95.81506401074427
 20
465.7401709678588
 30
0.0
 10
95.79581112181658
 20
465.6676551157986
 30
0.0
 10
95.67138010646987
 20
465.1989866923495
 30
0.0
 10
95.89089625347634
 20
464.7326468853785
 30
0.0
 10
96.07644723525149
 20
464.3384626296675
 30
0.0
  0
LINE
  5
423
330
1F
100
AcDbEntity
  8
0
  6
Continuous
 62
     7
370
    25
100
AcDbLine
 10
96.0764472353
 20
464.3384626297
 30
0.0
 11
95.978572198
 21
464.58136738
 31
0.0
  0
LINE
  5
424
330
1F
100
AcDbEntity
  8
0
  6
Continuous
 62
     7
370
    25
100
AcDbLine
 10
95.5617672499
 20
465.1788938271
 30
0.0
 11
95.5617672499
 21
466.1788938271
 31
0.0
  0
LINE
  5
425
330
1F
100
AcDbEntity
  8
0
  6
Continuous
 62
     7
370
    25
100
AcDbLine
 10
96.6617672499
 20
464.3384626297
 30
0.0
 11
96.0764472353
 21
464.3384626297
 31
0.0
  0
LINE
  5
426
330
1F
100
AcDbEntity
  8
0
  6
Continuous
 62
     7
370
    25
100
AcDbLine
 10
92.8617672499
 20
460.1288938271
 30
0.0
 11
88.5617672499
 21
460.1288938271
 31
0.0
  0
LINE
  5
427
330
1F
100
AcDbEntity
  8
0
  6
Continuous
 62
     7
370
    25
100
AcDbLine
 10
92.8617672499
 20
459.3288938271
 30
0.0
 11
92.8617672499
 21
460.1288938271
 31
0.0
  0
LINE
  5
428
330
1F
100
AcDbEntity
  8
0
  6
Continuous
 62
     7
370
    25
100
AcDbLine
 10
92.8617672499
 20
459.3288938271
 30
0.0
 11
88.5617672499
 21
459.3288938271
 31
0.0
  0
LINE
  5
429
330
1F
100
AcDbEntity
  8
0
  6
Continuous
 62
     7
370
    25
100
AcDbLine
 10
92.8617672499
 20
479.3288938271
 30
0.0
 11
82.9617672499
 21
479.3288938271
 31
0.0
  0
LINE
  5
42A
330
1F
100
AcDbEntity
  8
0
  6
Continuous
 62
     7
370
    25
100
AcDbLine
 10
92.8617672499
 20
478.5288938271
 30
0.0
 11
92.8617672499
 21
479.3288938271
 31
0.0
  0
LINE
  5
42B
330
1F
100
AcDbEntity
  8
0
  6
Continuous
 62
     7
370
    25
100
AcDbLine
 10
82.9617672499
 20
478.5288938271
 30
0.0
 11
92.8617672499
 21
478.5288938271
 31
0.0
  0
LINE
  5
42C
330
1F
100
AcDbEntity
  8
0
  6
Continuous
 62
     7
370
    25
100
AcDbLine
 10
82.9617672499
 20
478.5288938271
 30
0.0
 11
82.9617672499
 21
478.4288938271
 31
0.0
  0
LINE
  5
42D
330
1F
100
AcDbEntity
  8
0
  6
Continuous
 62
     7
370
    25
100
AcDbLine
 10
82.9617672499
 20
478.4288938271
 30
0.0
 11
88.1117672499
 21
478.4288938271
 31
0.0
  0
LINE
  5
42E
330
1F
100
AcDbEntity
  8
0
  6
Continuous
 62
     7
370
    25
100
AcDbLine
 10
88.1117672499
 20
477.6288938271
 30
0.0
 11
88.1117672499
 21
478.4288938271
 31
0.0
  0
LINE
  5
42F
330
1F
100
AcDbEntity
  8
0
  6
Continuous
 62
     7
370
    25
100
AcDbLine
 10
82.9617672499
 20
477.6288938271
 30
0.0
 11
88.1117672499
 21
477.6288938271
 31
0.0
  0
ARC
  5
430
330
1F
100
AcDbEntity
  8
0
  6
Continuous
 62
     7
370
    25
100
AcDbCircle
 10
82.9617672499
 20
478.4788938271
 30
0.0
 40
0.8500000000000227
100
AcDbArc
 50
90.0
 51
270.0
  0
ARC
  5
431
330
1F
100
AcDbEntity
  8
0
  6
Continuous
 62
     7
370
    25
100
AcDbCircle
 10
92.8617672499
 20
461.1288938271
 30
0.0
 40
1.800000000000011
100
AcDbArc
 50
270.0
 51
0.0
  0
ARC
  5
432
330
1F
100
AcDbEntity
  8
0
  6
Continuous
 62
     7
370
    25
100
AcDbCircle
 10
92.8617672499
 20
477.5288938271
 30
0.0
 40
1.0
100
AcDbArc
 50
360.0
 51
90.0
  0
ARC
  5
433
330
1F
100
AcDbEntity
  8
0
  6
Continuous
 62
     7
370
    25
100
AcDbCircle
 10
92.8617672499
 20
461.1288938271
 30
0.0
 40
1.000000000000014
100
AcDbArc
 50
270.0
 51
0.0
  0
LINE
  5
434
330
1F
100
AcDbEntity
  8
0
  6
Continuous
 62
     7
370
    25
100
AcDbLine
 10
94.6617672499
 20
461.1288938271
 30
0.0
 11
94.6617672499
 21
477.5288938271
 31
0.0
  0
LINE
  5
435
330
1F
100
AcDbEntity
  8
0
  6
Continuous
 62
     7
370
    25
100
AcDbLine
 10
93.8617672499
 20
461.1288938271
 30
0.0
 11
93.8617672499
 21
477.5288938271
 31
0.0
  0
ARC
  5
436
330
1F
100
AcDbEntity
  8
0
  6
Continuous
 62
     7
370
    25
100
AcDbCircle
 10
92.8617672499
 20
477.5288938271
 30
0.0
 40
1.800000000000011
100
AcDbArc
 50
360.0
 51
90.0
  0
LINE
  5
437
330
1F
100
AcDbEntity
  8
0
  6
Continuous
 62
     7
370
    25
100
AcDbLine
 10
91.8617672499
 20
473.3288938271
 30
0.0
 11
91.8617672499
 21
465.3288938271
 31
0.0
  0
LWPOLYLINE
  5
438
330
1F
100
AcDbEntity
  8
0
  6
Continuous
 62
     7
370
    25
100
AcDbPolyline
 90
        3
 70
   128
 43
0.0
 10
90.8557231331
 20
470.0526752279
 10
90.8513226083
 20
470.0099799009
 10
90.8350977596
 20
469.826281572
  0
ARC
  5
439
330
1F
100
AcDbEntity
  8
0
  6
Continuous
 62
     7
370
    25
100
AcDbCircle
 10
91.359490684
 20
470.1394094095
 30
0.0
 40
0.6107675350079428
100
AcDbArc
 50
210.8424581413
 51
243.3898036633
  0
LWPOLYLINE
  5
43A
330
1F
100
AcDbEntity
  8
0
  6
Continuous
 62
     7
370
    25
100
AcDbPolyline
 90
        3
 70
   128
 43
0.0
 10
91.0697949803
 20
469.2396476687
 10
91.0678194416
 20
469.1469504097
 10
91.0667747406
 20
469.052953455
  0
ARC
  5
43B
330
1F
100
AcDbEntity
  8
0
  6
Continuous
 62
     7
370
    25
100
AcDbCircle
 10
98.5987471476
 20
469.234756552
 30
0.0
 40
7.786288415099434
100
AcDbArc
 50
184.3702527064
 51
195.2299003794
  0
ARC
  5
43C
330
1F
100
AcDbEntity
  8
0
  6
Continuous
 62
     7
370
    25
100
AcDbCircle
 10
91.3070388149
 20
467.2843927108
 30
0.0
 40
0.2406805056723804
100
AcDbArc
 50
156.7420981705
 51
203.2579018295
  0
ARC
  5
43D
330
1F
100
AcDbEntity
  8
0
  6
Continuous
 62
     7
370
    25
100
AcDbCircle
 10
98.5987471476
 20
469.4248318469
 30
0.0
 40
7.786288415097323
100
AcDbArc
 50
184.3702527064
 51
195.2299003794
  0
ARC
  5
43E
330
1F
100
AcDbEntity
  8
0
  6
Continuous
 62
     7
370
    25
100
AcDbCircle
 10
91.359490684
 20
468.5183782446
 30
0.0
 40
0.6107675350086532
100
AcDbArc
 50
116.6101963367
 51
149.1575418587
  0
ARC
  5
43F
330
1F
100
AcDbEntity
  8
0
  6
Continuous
 62
     7
370
    25
100
AcDbCircle
 10
100.1655528255
 20
469.6568753397
 30
0.0
 40
9.098942710251828
100
AcDbArc
 50
176.2668736478
 51
183.7331263522
  0
ARC
  5
440
330
1F
100
AcDbEntity
  8
0
  6
Continuous
 62
     7
370
    25
100
AcDbCircle
 10
91.359490684
 20
469.7032290294
 30
0.0
 40
0.6107675350083265
100
AcDbArc
 50
116.6101963367
 51
149.1575418587
  0
ARC
  5
441
330
1F
100
AcDbEntity
  8
0
  6
Continuous
 62
     7
370
    25
100
AcDbCircle
 10
98.5987471476
 20
469.4230311022
 30
0.0
 40
7.786288415098588
100
AcDbArc
 50
164.7700996206
 51
175.6297472936
  0
ARC
  5
442
330
1F
100
AcDbEntity
  8
0
  6
Continuous
 62
     7
370
    25
100
AcDbCircle
 10
91.2190010285
 20
471.3944962039
 30
0.0
 40
0.1522432420584259
100
AcDbArc
 50
150.9451665854
 51
179.1449116538
  0
LINE
  5
443
330
1F
100
AcDbEntity
  8
0
  6
Continuous
 62
     7
370
    25
100
AcDbLine
 10
90.8350977596
 20
470.016356867
 30
0.0
 11
91.0736534175
 21
470.016356867
 31
0.0
  0
LINE
  5
444
330
1F
100
AcDbEntity
  8
0
  6
Continuous
 62
     7
370
    25
100
AcDbLine
 10
90.8350977596
 20
468.6414307872
 30
0.0
 11
90.8519647513
 21
468.6414307872
 31
0.0
  0
LINE
  5
445
330
1F
100
AcDbEntity
  8
0
  6
Continuous
 62
     7
370
    25
100
AcDbLine
 10
90.8350977596
 20
469.826281572
 30
0.0
 11
91.068148076
 21
469.826281572
 31
0.0
  0
LINE
  5
446
330
1F
100
AcDbEntity
  8
0
  6
Continuous
 62
     7
370
    25
100
AcDbLine
 10
91.8617672499
 20
465.3288938271
 30
0.0
 11
91.8617672499
 21
464.3288938271
 31
0.0
  0
LWPOLYLINE
  5
447
330
1F
100
AcDbEntity
  8
0
  6
Continuous
 62
     7
370
    25
100
AcDbPolyline
 90
        3
 70
   128
 43
0.0
 10
90.8519647513
 20
469.016356867
 10
90.8513226083
 20
469.0099799009
 10
90.8350977596
 20
468.826281572
  0
ARC
  5
448
330
1F
100
AcDbEntity
  8
0
  6
Continuous
 62
     7
370
    25
100
AcDbCircle
 10
98.5987471476
 20
468.234756552
 30
0.0
 40
7.786288415097005
100
AcDbArc
 50
184.3702527064
 51
195.2299003794
  0
ARC
  5
449
330
1F
100
AcDbEntity
  8
0
  6
Continuous
 62
     7
370
    25
100
AcDbCircle
 10
91.3070388149
 20
466.2843927108
 30
0.0
 40
0.2406805056721882
100
AcDbArc
 50
156.7420981705
 51
203.2579018295
  0
ARC
  5
44A
330
1F
100
AcDbEntity
  8
0
  6
Continuous
 62
     7
370
    25
100
AcDbCircle
 10
98.5987471476
 20
468.4248318469
 30
0.0
 40
7.786288415096033
100
AcDbArc
 50
184.3702527064
 51
195.2299003794
  0
ARC
  5
44B
330
1F
100
AcDbEntity
  8
0
  6
Continuous
 62
     7
370
    25
100
AcDbCircle
 10
91.1855647377
 20
467.6532693829
 30
0.0
 40
0.3931862455559238
100
AcDbArc
 50
132.4316597626
 51
153.0435149334
  0
ARC
  5
44C
330
1F
100
AcDbEntity
  8
0
  6
Continuous
 62
     7
370
    25
100
AcDbCircle
 10
91.359490684
 20
468.7032290294
 30
0.0
 40
0.6107675350076806
100
AcDbArc
 50
116.6101963366
 51
149.1575418587
  0
ARC
  5
44D
330
1F
100
AcDbEntity
  8
0
  6
Continuous
 62
     7
370
    25
100
AcDbCircle
 10
98.5948723121
 20
468.4235212381
 30
0.0
 40
7.782387499229682
100
AcDbArc
 50
169.6157904358
 51
175.6311714676
  0
LINE
  5
44E
330
1F
100
AcDbEntity
  8
0
  6
Continuous
 62
     7
370
    25
100
AcDbLine
 10
90.8350977596
 20
469.016356867
 30
0.0
 11
91.010661136
 21
469.016356867
 31
0.0
  0
LINE
  5
44F
330
1F
100
AcDbEntity
  8
0
  6
Continuous
 62
     7
370
    25
100
AcDbLine
 10
90.8350977596
 20
467.6414307872
 30
0.0
 11
90.8519647513
 21
467.6414307872
 31
0.0
  0
LINE
  5
450
330
1F
100
AcDbEntity
  8
0
  6
Continuous
 62
     7
370
    25
100
AcDbLine
 10
90.8350977596
 20
468.826281572
 30
0.0
 11
90.835498629
 21
468.826281572
 31
0.0
  0
LINE
  5
451
330
1F
100
AcDbEntity
  8
0
  6
Continuous
 62
     7
370
    25
100
AcDbLine
 10
113.0617672499
 20
402.9586988994
 30
0.0
 11
101.0617672499
 21
402.9586988994
 31
0.0
  0
LINE
  5
452
330
1F
100
AcDbEntity
  8
0
  6
Continuous
 62
     7
370
    25
100
AcDbLine
 10
113.0617672499
 20
403.642739186
 30
0.0
 11
101.0617672499
 21
403.642739186
 31
0.0
  0
ARC
  5
453
330
1F
100
AcDbEntity
  8
0
  6
Continuous
 62
     7
370
    25
100
AcDbCircle
 10
113.1202561391
 20
405.5843670035
 30
0.0
 40
1.942508566655243
100
AcDbArc
 50
268.2745645851
 51
358.1637932023
  0
LINE
  5
454
330
1F
100
AcDbEntity
  8
0
  6
Continuous
 62
     7
370
    25
100
AcDbLine
 10
115.0617672499
 20
405.5221244276
 30
0.0
 11
115.0617672499
 21
404.838084141
 31
0.0
  0
ARC
  5
455
330
1F
100
AcDbEntity
  8
0
  6
Continuous
 62
     7
370
    25
100
AcDbCircle
 10
113.1202561391
 20
404.9003267168
 30
0.0
 40
1.942508566655301
100
AcDbArc
 50
268.2745645851
 51
358.1637932023
  0
LINE
  5
456
330
1F
100
AcDbEntity
  8
0
  6
Continuous
 62
     7
370
    25
100
AcDbLine
 10
115.0617672499
 20
410.6632006645
 30
0.0
 11
115.0617672499
 21
405.5221244276
 31
0.0
  0
ARC
  5
457
330
1F
100
AcDbEntity
  8
0
  6
Continuous
 62
     7
370
    25
100
AcDbCircle
 10
101.0032783606
 20
405.5843670035
 30
0.0
 40
1.942508566655243
100
AcDbArc
 50
181.8362067977
 51
271.7254354149
  0
LINE
  5
458
330
1F
100
AcDbEntity
  8
0
  6
Continuous
 62
     7
370
    25
100
AcDbLine
 10
99.0617672499
 20
405.5221244276
 30
0.0
 11
99.0617672499
 21
410.6632006645
 31
0.0
  0
LINE
  5
459
330
1F
100
AcDbEntity
  8
0
  6
Continuous
 62
     7
370
    25
100
AcDbLine
 10
99.0617672499
 20
404.838084141
 30
0.0
 11
99.0617672499
 21
405.5221244276
 31
0.0
  0
ARC
  5
45A
330
1F
100
AcDbEntity
  8
0
  6
Continuous
 62
     7
370
    25
100
AcDbCircle
 10
101.0032783606
 20
404.9003267168
 30
0.0
 40
1.942508566655212
100
AcDbArc
 50
181.8362067977
 51
271.7254354149
  0
LINE
  5
45B
330
1F
100
AcDbEntity
  8
0
  6
Continuous
 62
     7
370
    25
100
AcDbLine
 10
99.0617672499
 20
411.0052208078
 30
0.0
 11
99.0617672499
 21
410.6632006645
 31
0.0
  0
LINE
  5
45C
330
1F
100
AcDbEntity
  8
0
  6
Continuous
 62
     7
370
    25
100
AcDbLine
 10
115.0617672499
 20
410.6632006645
 30
0.0
 11
115.0617672499
 21
411.0052208078
 31
0.0
  0
LINE
  5
45D
330
1F
100
AcDbEntity
  8
0
  6
Continuous
 62
     7
370
    25
100
AcDbLine
 10
88.5617672499
 20
410.8288938271
 30
0.0
 11
99.0617672499
 21
410.8288938271
 31
0.0
  0
LINE
  5
45E
330
1F
100
AcDbEntity
  8
0
  6
Continuous
 62
     7
370
    25
100
AcDbLine
 10
113.0617672499
 20
425.8288938271
 30
0.0
 11
88.5617672499
 21
425.8288938271
 31
0.0
  0
LINE
  5
45F
330
1F
100
AcDbEntity
  8
0
  6
Continuous
 62
     7
370
    25
100
AcDbLine
 10
115.0617672499
 20
411.0052208078
 30
0.0
 11
115.0617672499
 21
423.8288938271
 31
0.0
  0
CIRCLE
  5
460
330
1F
100
AcDbEntity
  8
0
  6
Continuous
 62
     7
370
    25
100
AcDbCircle
 10
107.1617672499
 20
418.3288938271
 30
0.0
 40
3.500000000000014
  0
ARC
  5
461
330
1F
100
AcDbEntity
  8
0
  6
Continuous
 62
     7
370
    25
100
AcDbCircle
 10
113.0617672499
 20
423.8288938271
 30
0.0
 40
2.0
100
AcDbArc
 50
0.0
 51
90.0
  0
ARC
  5
462
330
1F
100
AcDbEntity
  8
0
  6
Continuous
 62
     7
370
    25
100
AcDbCircle
 10
113.1202561391
 20
131.0734206507
 30
0.0
 40
1.942508566655271
100
AcDbArc
 50
1.8362067977
 51
91.7254354149
  0
LINE
  5
463
330
1F
100
AcDbEntity
  8
0
  6
Continuous
 62
     7
370
    25
100
AcDbLine
 10
115.0617672499
 20
131.1356632266
 30
0.0
 11
115.0617672499
 21
125.9945869897
 31
0.0
  0
LINE
  5
464
330
1F
100
AcDbEntity
  8
0
  6
Continuous
 62
     7
370
    25
100
AcDbLine
 10
99.0617672499
 20
125.9945869897
 30
0.0
 11
99.0617672499
 21
131.1356632266
 31
0.0
  0
ARC
  5
465
330
1F
100
AcDbEntity
  8
0
  6
Continuous
 62
     7
370
    25
100
AcDbCircle
 10
101.0032783606
 20
131.0734206507
 30
0.0
 40
1.942508566655259
100
AcDbArc
 50
88.2745645851
 51
178.1637932023
  0
LINE
  5
466
330
1F
100
AcDbEntity
  8
0
  6
Continuous
 62
     7
370
    25
100
AcDbLine
 10
101.0617672499
 20
133.0150484681
 30
0.0
 11
113.0617672499
 21
133.0150484681
 31
0.0
  0
LINE
  5
467
330
1F
100
AcDbEntity
  8
0
  6
Continuous
 62
     7
370
    25
100
AcDbLine
 10
101.0617672499
 20
133.6990887548
 30
0.0
 11
113.0617672499
 21
133.6990887548
 31
0.0
  0
LINE
  5
468
330
1F
100
AcDbEntity
  8
0
  6
Continuous
 62
     7
370
    25
100
AcDbLine
 10
115.0617672499
 20
131.8197035132
 30
0.0
 11
115.0617672499
 21
131.1356632266
 31
0.0
  0
ARC
  5
469
330
1F
100
AcDbEntity
  8
0
  6
Continuous
 62
     7
370
    25
100
AcDbCircle
 10
113.1202561391
 20
131.7574609374
 30
0.0
 40
1.942508566655271
100
AcDbArc
 50
1.8362067977
 51
91.7254354149
  0
LINE
  5
46A
330
1F
100
AcDbEntity
  8
0
  6
Continuous
 62
     7
370
    25
100
AcDbLine
 10
99.0617672499
 20
131.1356632266
 30
0.0
 11
99.0617672499
 21
131.8197035132
 31
0.0
  0
ARC
  5
46B
330
1F
100
AcDbEntity
  8
0
  6
Continuous
 62
     7
370
    25
100
AcDbCircle
 10
101.0032783606
 20
131.7574609374
 30
0.0
 40
1.942508566655201
100
AcDbArc
 50
88.2745645851
 51
178.1637932023
  0
LINE
  5
46C
330
1F
100
AcDbEntity
  8
0
  6
Continuous
 62
     7
370
    25
100
AcDbLine
 10
99.0617672499
 20
125.9945869897
 30
0.0
 11
99.0617672499
 21
125.6525668464
 31
0.0
  0
LINE
  5
46D
330
1F
100
AcDbEntity
  8
0
  6
Continuous
 62
     7
370
    25
100
AcDbLine
 10
115.0617672499
 20
125.6525668464
 30
0.0
 11
115.0617672499
 21
125.9945869897
 31
0.0
  0
LINE
  5
46E
330
1F
100
AcDbEntity
  8
0
  6
Continuous
 62
     7
370
    25
100
AcDbLine
 10
99.0617672499
 20
125.8288938271
 30
0.0
 11
88.5617672499
 21
125.8288938271
 31
0.0
  0
LINE
  5
46F
330
1F
100
AcDbEntity
  8
0
  6
Continuous
 62
     7
370
    25
100
AcDbLine
 10
115.0617672499
 20
112.8288938271
 30
0.0
 11
115.0617672499
 21
125.6525668464
 31
0.0
  0
CIRCLE
  5
470
330
1F
100
AcDbEntity
  8
0
  6
Continuous
 62
     7
370
    25
100
AcDbCircle
 10
107.1617672499
 20
118.3288938271
 30
0.0
 40
3.500000000000014
  0
LINE
  5
471
330
1F
100
AcDbEntity
  8
0
  6
Continuous
 62
     7
370
    25
100
AcDbLine
 10
88.5617672499
 20
110.8288938271
 30
0.0
 11
113.0617672499
 21
110.8288938271
 31
0.0
  0
ARC
  5
472
330
1F
100
AcDbEntity
  8
0
  6
Continuous
 62
     7
370
    25
100
AcDbCircle
 10
113.0617672499
 20
112.8288938271
 30
0.0
 40
2.0
100
AcDbArc
 50
270.0
 51
0.0
  0
CIRCLE
  5
473
330
1F
100
AcDbEntity
  8
0
  6
Continuous
 62
     7
370
    25
100
AcDbCircle
 10
107.1617672499
 20
418.3288938271
 30
0.0
 40
2.458750000016647
  0
CIRCLE
  5
474
330
1F
100
AcDbEntity
  8
0
  6
Continuous
 62
     7
370
    25
100
AcDbCircle
 10
107.1617672499
 20
418.3288938271
 30
0.0
 40
2.999999999999997
  0
ENDSEC
  0
SECTION
  2
OBJECTS
  0
DICTIONARY
  5
C
330
0
100
AcDbDictionary
281
     1
  3
ACAD_GROUP
350
D
  3
ACAD_LAYOUT
350
1A
  3
ACAD_MLINESTYLE
350
17
  3
ACAD_PLOTSETTINGS
350
19
  3
ACAD_PLOTSTYLENAME
350
E
  3
ACAD_SCALELIST
350
47
  0
DICTIONARY
  5
D
102
{ACAD_REACTORS
330
C
102
}
330
C
100
AcDbDictionary
281
     1
  0
DICTIONARY
  5
1A
102
{ACAD_REACTORS
330
C
102
}
330
C
100
AcDbDictionary
281
     1
  3
Layout1
350
1E
  3
Layout2
350
26
  3
Model
350
22
  0
DICTIONARY
  5
17
102
{ACAD_REACTORS
330
C
102
}
330
C
100
AcDbDictionary
281
     1
  3
Standard
350
18
  0
DICTIONARY
  5
19
102
{ACAD_REACTORS
330
C
102
}
330
C
100
AcDbDictionary
281
     1
  0
ACDBDICTIONARYWDFLT
  5
E
102
{ACAD_REACTORS
330
C
102
}
330
C
100
AcDbDictionary
281
     1
  3
Normal
350
F
100
AcDbDictionaryWithDefault
340
F
  0
DICTIONARY
  5
47
102
{ACAD_REACTORS
330
C
102
}
330
C
100
AcDbDictionary
281
     1
  3
A0
350
48
  3
A1
350
49
  3
A2
350
4A
  3
A3
350
4B
  3
A4
350
4C
  3
A5
350
4D
  3
A6
350
4E
  3
A7
350
4F
  3
A8
350
50
  3
A9
350
51
  3
B0
350
52
  3
B1
350
53
  3
B2
350
54
  3
B3
350
55
  3
B4
350
56
  3
B5
350
57
  3
B6
350
58
  3
B7
350
59
  3
B8
350
5A
  3
B9
350
5B
  3
C0
350
5C
  3
C1
350
5D
  3
C2
350
5E
  3
C3
350
5F
  3
C4
350
60
  3
C5
350
61
  3
C6
350
62
  3
C7
350
63
  3
C8
350
64
  3
C9
350
65
  3
D0
350
66
  3
D1
350
67
  3
D2
350
68
  0
LAYOUT
  5
1E
102
{ACAD_REACTORS
330
1A
102
}
330
1A
100
AcDbPlotSettings
  1

  2
none_device
  4

  6

 40
0.0
 41
0.0
 42
0.0
 43
0.0
 44
0.0
 45
0.0
 46
0.0
 47
0.0
 48
0.0
 49
0.0
140
0.0
141
0.0
142
1.0
143
1.0
 70
   688
 72
     1
 73
     0
 74
     5
  7

 75
    16
147
1.0
148
0.0
149
0.0
100
AcDbLayout
  1
Layout1
 70
     1
 71
     1
 10
0.0
 20
0.0
 11
420.0
 21
297.0
 12
0.0
 22
0.0
 32
0.0
 14
1.0000000000E+20
 24
1.0000000000E+20
 34
1.0000000000E+20
 15
-1.0000000000E+20
 25
-1.0000000000E+20
 35
-1.0000000000E+20
146
0.0
 13
0.0
 23
0.0
 33
0.0
 16
1.0
 26
0.0
 36
0.0
 17
0.0
 27
1.0
 37
0.0
 76
     0
330
1B
  0
LAYOUT
  5
26
102
{ACAD_REACTORS
330
1A
102
}
330
1A
100
AcDbPlotSettings
  1

  2
none_device
  4

  6

 40
0.0
 41
0.0
 42
0.0
 43
0.0
 44
0.0
 45
0.0
 46
0.0
 47
0.0
 48
0.0
 49
0.0
140
0.0
141
0.0
142
1.0
143
1.0
 70
   688
 72
     1
 73
     0
 74
     5
  7

 75
    16
147
1.0
148
0.0
149
0.0
100
AcDbLayout
  1
Layout2
 70
     1
 71
     2
 10
0.0
 20
0.0
 11
0.0
 21
0.0
 12
0.0
 22
0.0
 32
0.0
 14
0.0
 24
0.0
 34
0.0
 15
0.0
 25
0.0
 35
0.0
146
0.0
 13
0.0
 23
0.0
 33
0.0
 16
1.0
 26
0.0
 36
0.0
 17
0.0
 27
1.0
 37
0.0
 76
     0
330
23
  0
LAYOUT
  5
22
102
{ACAD_REACTORS
330
1A
102
}
330
1A
100
AcDbPlotSettings
  1

  2
none_device
  4
Letter_(8.50_x_11.00_Inches)
  6

 40
6.35
 41
6.35
 42
6.35000508
 43
6.35000508
 44
215.9
 45
279.4
 46
0.0
 47
0.0
 48
0.0
 49
0.0
140
0.0
141
0.0
142
1.0
143
1.0
 70
  1712
 72
     1
 73
     0
 74
     0
  7

 75
     0
147
1.0
148
0.0
149
0.0
100
AcDbLayout
  1
Model
 70
     1
 71
     0
 10
0.0
 20
0.0
 11
841.0
 21
594.0
 12
0.0
 22
0.0
 32
0.0
 14
0.0
 24
0.0
 34
0.0
 15
841.0
 25
594.0
 35
0.0
146
0.0
 13
0.0
 23
0.0
 33
0.0
 16
1.0
 26
0.0
 36
0.0
 17
0.0
 27
1.0
 37
0.0
 76
     0
330
1F
331
29
  0
MLINESTYLE
  5
18
102
{ACAD_REACTORS
330
17
102
}
330
17
100
AcDbMlineStyle
  2
Standard
 70
     0
  3

 62
   256
 51
90.0
 52
90.0
 71
     2
 49
0.5
 62
   256
  6
BYLAYER
 49
-0.5
 62
   256
  6
BYLAYER
  0
ACDBPLACEHOLDER
  5
F
102
{ACAD_REACTORS
330
E
102
}
330
E
  0
SCALE
  5
48
102
{ACAD_REACTORS
330
47
102
}
330
47
100
AcDbScale
 70
     0
300
1:1
140
1.0
141
1.0
290
     1
  0
SCALE
  5
49
102
{ACAD_REACTORS
330
47
102
}
330
47
100
AcDbScale
 70
     0
300
1:2
140
1.0
141
2.0
290
     0
  0
SCALE
  5
4A
102
{ACAD_REACTORS
330
47
102
}
330
47
100
AcDbScale
 70
     0
300
1:4
140
1.0
141
4.0
290
     0
  0
SCALE
  5
4B
102
{ACAD_REACTORS
330
47
102
}
330
47
100
AcDbScale
 70
     0
300
1:5
140
1.0
141
5.0
290
     0
  0
SCALE
  5
4C
102
{ACAD_REACTORS
330
47
102
}
330
47
100
AcDbScale
 70
     0
300
1:8
140
1.0
141
8.0
290
     0
  0
SCALE
  5
4D
102
{ACAD_REACTORS
330
47
102
}
330
47
100
AcDbScale
 70
     0
300
1:10
140
1.0
141
10.0
290
     0
  0
SCALE
  5
4E
102
{ACAD_REACTORS
330
47
102
}
330
47
100
AcDbScale
 70
     0
300
1:16
140
1.0
141
16.0
290
     0
  0
SCALE
  5
4F
102
{ACAD_REACTORS
330
47
102
}
330
47
100
AcDbScale
 70
     0
300
1:20
140
1.0
141
20.0
290
     0
  0
SCALE
  5
50
102
{ACAD_REACTORS
330
47
102
}
330
47
100
AcDbScale
 70
     0
300
1:30
140
1.0
141
30.0
290
     0
  0
SCALE
  5
51
102
{ACAD_REACTORS
330
47
102
}
330
47
100
AcDbScale
 70
     0
300
1:40
140
1.0
141
40.0
290
     0
  0
SCALE
  5
52
102
{ACAD_REACTORS
330
47
102
}
330
47
100
AcDbScale
 70
     0
300
1:50
140
1.0
141
50.0
290
     0
  0
SCALE
  5
53
102
{ACAD_REACTORS
330
47
102
}
330
47
100
AcDbScale
 70
     0
300
1:100
140
1.0
141
100.0
290
     0
  0
SCALE
  5
54
102
{ACAD_REACTORS
330
47
102
}
330
47
100
AcDbScale
 70
     0
300
2:1
140
2.0
141
1.0
290
     0
  0
SCALE
  5
55
102
{ACAD_REACTORS
330
47
102
}
330
47
100
AcDbScale
 70
     0
300
4:1
140
4.0
141
1.0
290
     0
  0
SCALE
  5
56
102
{ACAD_REACTORS
330
47
102
}
330
47
100
AcDbScale
 70
     0
300
8:1
140
8.0
141
1.0
290
     0
  0
SCALE
  5
57
102
{ACAD_REACTORS
330
47
102
}
330
47
100
AcDbScale
 70
     0
300
10:1
140
10.0
141
1.0
290
     0
  0
SCALE
  5
58
102
{ACAD_REACTORS
330
47
102
}
330
47
100
AcDbScale
 70
     0
300
100:1
140
100.0
141
1.0
290
     0
  0
SCALE
  5
59
102
{ACAD_REACTORS
330
47
102
}
330
47
100
AcDbScale
 70
     0
300
1/128" = 1'-0"
140
0.0078125
141
12.0
290
     0
  0
SCALE
  5
5A
102
{ACAD_REACTORS
330
47
102
}
330
47
100
AcDbScale
 70
     0
300
1/64" = 1'-0"
140
0.015625
141
12.0
290
     0
  0
SCALE
  5
5B
102
{ACAD_REACTORS
330
47
102
}
330
47
100
AcDbScale
 70
     0
300
1/32" = 1'-0"
140
0.03125
141
12.0
290
     0
  0
SCALE
  5
5C
102
{ACAD_REACTORS
330
47
102
}
330
47
100
AcDbScale
 70
     0
300
1/16" = 1'-0"
140
0.0625
141
12.0
290
     0
  0
SCALE
  5
5D
102
{ACAD_REACTORS
330
47
102
}
330
47
100
AcDbScale
 70
     0
300
3/32" = 1'-0"
140
0.09375
141
12.0
290
     0
  0
SCALE
  5
5E
102
{ACAD_REACTORS
330
47
102
}
330
47
100
AcDbScale
 70
     0
300
1/8" = 1'-0"
140
0.125
141
12.0
290
     0
  0
SCALE
  5
5F
102
{ACAD_REACTORS
330
47
102
}
330
47
100
AcDbScale
 70
     0
300
3/16" = 1'-0"
140
0.1875
141
12.0
290
     0
  0
SCALE
  5
60
102
{ACAD_REACTORS
330
47
102
}
330
47
100
AcDbScale
 70
     0
300
1/4" = 1'-0"
140
0.25
141
12.0
290
     0
  0
SCALE
  5
61
102
{ACAD_REACTORS
330
47
102
}
330
47
100
AcDbScale
 70
     0
300
3/8" = 1'-0"
140
0.375
141
12.0
290
     0
  0
SCALE
  5
62
102
{ACAD_REACTORS
330
47
102
}
330
47
100
AcDbScale
 70
     0
300
1/2" = 1'-0"
140
0.5
141
12.0
290
     0
  0
SCALE
  5
63
102
{ACAD_REACTORS
330
47
102
}
330
47
100
AcDbScale
 70
     0
300
3/4" = 1'-0"
140
0.75
141
12.0
290
     0
  0
SCALE
  5
64
102
{ACAD_REACTORS
330
47
102
}
330
47
100
AcDbScale
 70
     0
300
1" = 1'-0"
140
1.0
141
12.0
290
     0
  0
SCALE
  5
65
102
{ACAD_REACTORS
330
47
102
}
330
47
100
AcDbScale
 70
     0
300
1-1/2" = 1'-0"
140
1.5
141
12.0
290
     0
  0
SCALE
  5
66
102
{ACAD_REACTORS
330
47
102
}
330
47
100
AcDbScale
 70
     0
300
3" = 1'-0"
140
3.0
141
12.0
290
     0
  0
SCALE
  5
67
102
{ACAD_REACTORS
330
47
102
}
330
47
100
AcDbScale
 70
     0
300
6" = 1'-0"
140
6.0
141
12.0
290
     0
  0
SCALE
  5
68
102
{ACAD_REACTORS
330
47
102
}
330
47
100
AcDbScale
 70
     0
300
1'-0" = 1'-0"
140
12.0
141
12.0
290
     0
  0
ENDSEC
  0
EOF
