  0
SECTION
  2
HEADER
  9
$ACADVER
  1
AC1015
  9
$ACADMAINTVER
 70
     6
  9
$DWGCODEPAGE
  3
ANSI_1251
  9
$INSBASE
 10
0.0
 20
0.0
 30
0.0
  9
$EXTMIN
 10
0.0
 20
0.0
 30
0.0
  9
$EXTMAX
 10
431.8
 20
279.4
 30
0.0
  9
$LIMMIN
 10
0.0
 20
0.0
  9
$LIMMAX
 10
431.8
 20
279.4
  9
$ORTHOMODE
 70
     0
  9
$REGENMODE
 70
     1
  9
$FILLMODE
 70
     1
  9
$QTEXTMODE
 70
     0
  9
$MIRRTEXT
 70
     1
  9
$LTSCALE
 40
1.0
  9
$ATTMODE
 70
     1
  9
$TEXTSIZE
 40
3.5
  9
$TRACEWID
 40
1.0
  9
$TEXTSTYLE
  7
STANDARD
  9
$CLAYER
  8
0
  9
$CELTYPE
  6
ByLayer
  9
$CECOLOR
 62
   256
  9
$CELTSCALE
 40
1.0
  9
$DISPSILH
 70
     0
  9
$DIMSCALE
 40
1.0
  9
$DIMASZ
 40
5.0
  9
$DIMEXO
 40
0.0
  9
$DIMDLI
 40
3.75
  9
$DIMRND
 40
0.0
  9
$DIMDLE
 40
0.0
  9
$DIMEXE
 40
1.0
  9
$DIMTP
 40
0.0
  9
$DIMTM
 40
0.0
  9
$DIMTXT
 40
3.5
  9
$DIMCEN
 40
2.5
  9
$DIMTSZ
 40
0.0
  9
$DIMTOL
 70
     0
  9
$DIMLIM
 70
     0
  9
$DIMTIH
 70
     1
  9
$DIMTOH
 70
     1
  9
$DIMSE1
 70
     0
  9
$DIMSE2
 70
     0
  9
$DIMTAD
 70
     1
  9
$DIMZIN
 70
     0
  9
$DIMBLK
  1

  9
$DIMASO
 70
     1
  9
$DIMSHO
 70
     1
  9
$DIMPOST
  1

  9
$DIMAPOST
  1

  9
$DIMALT
 70
     0
  9
$DIMALTD
 70
     3
  9
$DIMALTF
 40
0.0393700787
  9
$DIMLFAC
 40
1.0
  9
$DIMTOFL
 70
     1
  9
$DIMTVP
 40
0.0
  9
$DIMTIX
 70
     0
  9
$DIMSOXD
 70
     0
  9
$DIMSAH
 70
     0
  9
$DIMBLK1
  1

  9
$DIMBLK2
  1

  9
$DIMSTYLE
  2
ISO-25
  9
$DIMCLRD
 70
     0
  9
$DIMCLRE
 70
     0
  9
$DIMCLRT
 70
     0
  9
$DIMTFAC
 40
1.0
  9
$DIMGAP
 40
1.5
  9
$DIMJUST
 70
     0
  9
$DIMSD1
 70
     0
  9
$DIMSD2
 70
     0
  9
$DIMTOLJ
 70
     0
  9
$DIMTZIN
 70
     0
  9
$DIMALTZ
 70
     0
  9
$DIMALTTZ
 70
     0
  9
$DIMUPT
 70
     0
  9
$DIMDEC
 70
     1
  9
$DIMTDEC
 70
     3
  9
$DIMALTU
 70
     2
  9
$DIMALTTD
 70
     3
  9
$DIMTXSTY
  7
STANDARD
  9
$DIMAUNIT
 70
     0
  9
$DIMADEC
 70
     2
  9
$DIMALTRND
 40
0.0
  9
$DIMAZIN
 70
     0
  9
$DIMDSEP
 70
    44
  9
$DIMATFIT
 70
     3
  9
$DIMFRAC
 70
     0
  9
$DIMLDRBLK
  1

  9
$DIMLUNIT
 70
     2
  9
$DIMLWD
 70
    -2
  9
$DIMLWE
 70
    -2
  9
$DIMTMOVE
 70
     0
  9
$LUNITS
 70
     2
  9
$LUPREC
 70
     1
  9
$SKETCHINC
 40
1.0
  9
$FILLETRAD
 40
0.0
  9
$AUNITS
 70
     0
  9
$AUPREC
 70
     2
  9
$MENU
  1
.
  9
$ELEVATION
 40
0.0
  9
$PELEVATION
 40
0.0
  9
$THICKNESS
 40
0.0
  9
$LIMCHECK
 70
     0
  9
$CHAMFERA
 40
0.0
  9
$CHAMFERB
 40
0.0
  9
$CHAMFERC
 40
0.0
  9
$CHAMFERD
 40
0.0
  9
$SKPOLY
 70
     0
  9
$TDCREATE
 40
2460920.632410255
  9
$TDUCREATE
 40
2460920.507410255
  9
$TDUPDATE
 40
2460920.632411169
  9
$TDUUPDATE
 40
2460920.507411169
  9
$TDINDWG
 40
0.0000000116
  9
$TDUSRTIMER
 40
0.0000000116
  9
$USRTIMER
 70
     1
  9
$ANGBASE
 50
0.0
  9
$ANGDIR
 70
     0
  9
$PDMODE
 70
     0
  9
$PDSIZE
 40
-1.0
  9
$PLINEWID
 40
0.0
  9
$SPLFRAME
 70
     0
  9
$SPLINETYPE
 70
     6
  9
$SPLINESEGS
 70
     8
  9
$HANDSEED
  5
3CE
  9
$SURFTAB1
 70
     6
  9
$SURFTAB2
 70
     6
  9
$SURFTYPE
 70
     6
  9
$SURFU
 70
     6
  9
$SURFV
 70
     6
  9
$UCSBASE
  2

  9
$UCSNAME
  2

  9
$UCSORG
 10
0.0
 20
0.0
 30
0.0
  9
$UCSXDIR
 10
1.0
 20
0.0
 30
0.0
  9
$UCSYDIR
 10
0.0
 20
1.0
 30
0.0
  9
$UCSORTHOREF
  2

  9
$UCSORTHOVIEW
 70
     0
  9
$UCSORGTOP
 10
0.0
 20
0.0
 30
0.0
  9
$UCSORGBOTTOM
 10
0.0
 20
0.0
 30
0.0
  9
$UCSORGLEFT
 10
0.0
 20
0.0
 30
0.0
  9
$UCSORGRIGHT
 10
0.0
 20
0.0
 30
0.0
  9
$UCSORGFRONT
 10
0.0
 20
0.0
 30
0.0
  9
$UCSORGBACK
 10
0.0
 20
0.0
 30
0.0
  9
$PUCSBASE
  2

  9
$PUCSNAME
  2

  9
$PUCSORG
 10
0.0
 20
0.0
 30
0.0
  9
$PUCSXDIR
 10
1.0
 20
0.0
 30
0.0
  9
$PUCSYDIR
 10
0.0
 20
1.0
 30
0.0
  9
$PUCSORTHOREF
  2

  9
$PUCSORTHOVIEW
 70
     0
  9
$PUCSORGTOP
 10
0.0
 20
0.0
 30
0.0
  9
$PUCSORGBOTTOM
 10
0.0
 20
0.0
 30
0.0
  9
$PUCSORGLEFT
 10
0.0
 20
0.0
 30
0.0
  9
$PUCSORGRIGHT
 10
0.0
 20
0.0
 30
0.0
  9
$PUCSORGFRONT
 10
0.0
 20
0.0
 30
0.0
  9
$PUCSORGBACK
 10
0.0
 20
0.0
 30
0.0
  9
$USERI1
 70
     0
  9
$USERI2
 70
     0
  9
$USERI3
 70
     0
  9
$USERI4
 70
     0
  9
$USERI5
 70
     0
  9
$USERR1
 40
0.0
  9
$USERR2
 40
0.0
  9
$USERR3
 40
0.0
  9
$USERR4
 40
0.0
  9
$USERR5
 40
0.0
  9
$WORLDVIEW
 70
     1
  9
$SHADEDGE
 70
     3
  9
$SHADEDIF
 70
    70
  9
$TILEMODE
 70
     1
  9
$MAXACTVP
 70
    64
  9
$PINSBASE
 10
0.0
 20
0.0
 30
0.0
  9
$PLIMCHECK
 70
     0
  9
$PEXTMIN
 10
1.0000000000E+20
 20
1.0000000000E+20
 30
1.0000000000E+20
  9
$PEXTMAX
 10
-1.0000000000E+20
 20
-1.0000000000E+20
 30
-1.0000000000E+20
  9
$PLIMMIN
 10
0.0
 20
0.0
  9
$PLIMMAX
 10
420.0
 20
297.0
  9
$UNITMODE
 70
     0
  9
$VISRETAIN
 70
     1
  9
$PLINEGEN
 70
     0
  9
$PSLTSCALE
 70
     1
  9
$TREEDEPTH
 70
  3020
  9
$CMLSTYLE
  2
Standard
  9
$CMLJUST
 70
     0
  9
$CMLSCALE
 40
20.0
  9
$PROXYGRAPHICS
 70
     1
  9
$MEASUREMENT
 70
     1
  9
$CELWEIGHT
370
    -1
  9
$ENDCAPS
280
     0
  9
$JOINSTYLE
280
     0
  9
$LWDISPLAY
290
     1
  9
$INSUNITS
 70
     4
  9
$HYPERLINKBASE
  1

  9
$STYLESHEET
  1

  9
$XEDIT
290
     1
  9
$CEPSNTYPE
380
     0
  9
$PSTYLEMODE
290
     1
  9
$FINGERPRINTGUID
  2
{e5c8edbe-c704-46cc-9c3d-13d76a016f8d}
  9
$VERSIONGUID
  2
{FAEB1C32-E019-11D5-929B-00C0DF256EC4}
  9
$EXTNAMES
290
     1
  9
$PSVPSCALE
 40
0.0
  9
$OLESTARTUP
290
     0
  0
ENDSEC
  0
SECTION
  2
CLASSES
  0
CLASS
  1
ACDBDICTIONARYWDFLT
  2
AcDbDictionaryWithDefault
  3
ObjectDBX Classes
 90
        0
280
     0
281
     0
  0
CLASS
  1
VISUALSTYLE
  2
AcDbVisualStyle
  3
ObjectDBX Classes
 90
     4095
280
     0
281
     0
  0
CLASS
  1
MATERIAL
  2
AcDbMaterial
  3
ObjectDBX Classes
 90
     1153
280
     0
281
     0
  0
CLASS
  1
SCALE
  2
AcDbScale
  3
ObjectDBX Classes
 90
     1153
280
     0
281
     0
  0
CLASS
  1
TABLESTYLE
  2
AcDbTableStyle
  3
ObjectDBX Classes
 90
     4095
280
     0
281
     0
  0
CLASS
  1
MLEADERSTYLE
  2
AcDbMLeaderStyle
  3
ACDB_MLEADERSTYLE_CLASS
 90
     4095
280
     0
281
     0
  0
CLASS
  1
SUN
  2
AcDbSun
  3
SCENEOE
 90
     1153
280
     0
281
     0
  0
CLASS
  1
ACDBPLACEHOLDER
  2
AcDbPlaceHolder
  3
ObjectDBX Classes
 90
        0
280
     0
281
     0
  0
CLASS
  1
LAYOUT
  2
AcDbLayout
  3
ObjectDBX Classes
 90
        0
280
     0
281
     0
  0
ENDSEC
  0
SECTION
  2
TABLES
  0
TABLE
  2
VPORT
  5
8
330
0
100
AcDbSymbolTable
 70
     1
  0
VPORT
  5
29
330
8
100
AcDbSymbolTableRecord
100
AcDbViewportTableRecord
  2
*Active
 70
     0
 10
0.0
 20
0.0
 11
1.0
 21
1.0
 12
215.9
 22
139.7
 13
0.0
 23
0.0
 14
10.0
 24
10.0
 15
10.0
 25
10.0
 16
0.0
 26
0.0
 36
1.0
 17
0.0
 27
0.0
 37
0.0
 40
279.4
 41
1.5454545455
 42
50.0
 43
0.0
 44
0.0
 50
0.0
 51
0.0
 71
     0
 72
  2000
 73
     1
 74
     3
 75
     0
 76
     0
 77
     0
 78
     0
281
     0
 65
     1
110
0.0
120
0.0
130
0.0
111
1.0
121
0.0
131
0.0
112
0.0
122
1.0
132
0.0
 79
     0
146
0.0
  0
ENDTAB
  0
TABLE
  2
LTYPE
  5
5
330
0
100
AcDbSymbolTable
 70
     8
  0
LTYPE
  5
14
330
5
100
AcDbSymbolTableRecord
100
AcDbLinetypeTableRecord
  2
ByBlock
 70
     0
  3

 72
    65
 73
     0
 40
0.0
  0
LTYPE
  5
15
330
5
100
AcDbSymbolTableRecord
100
AcDbLinetypeTableRecord
  2
ByLayer
 70
     0
  3

 72
    65
 73
     0
 40
0.0
  0
LTYPE
  5
16
330
5
100
AcDbSymbolTableRecord
100
AcDbLinetypeTableRecord
  2
Continuous
 70
     0
  3
Solid line
 72
    65
 73
     0
 40
0.0
  0
LTYPE
  5
5E
330
5
100
AcDbSymbolTableRecord
100
AcDbLinetypeTableRecord
  2
SLD-Сплошная
 70
     0
  3
SolidWorks Line Style
 72
    65
 73
     0
 40
0.0
  0
LTYPE
  5
5F
330
5
100
AcDbSymbolTableRecord
100
AcDbLinetypeTableRecord
  2
SLD-Штриховая
 70
     0
  3
SolidWorks Line Style
 72
    65
 73
     2
 40
1.905
 49
1.27
 74
     0
 49
-0.635
 74
     0
  0
LTYPE
  5
60
330
5
100
AcDbSymbolTableRecord
100
AcDbLinetypeTableRecord
  2
SLD-Штрихпункт.-с-двумя-точками
 70
     0
  3
SolidWorks Line Style
 72
    65
 73
     6
 40
12.7
 49
6.35
 74
     0
 49
-1.27
 74
     0
 49
1.27
 74
     0
 49
-1.27
 74
     0
 49
1.27
 74
     0
 49
-1.27
 74
     0
  0
LTYPE
  5
61
330
5
100
AcDbSymbolTableRecord
100
AcDbLinetypeTableRecord
  2
SLD-Штрихпункт.-утолщ.
 70
     0
  3
SolidWorks Line Style
 72
    65
 73
     4
 40
10.16
 49
6.35
 74
     0
 49
-1.27
 74
     0
 49
1.27
 74
     0
 49
-1.27
 74
     0
  0
LTYPE
  5
62
330
5
100
AcDbSymbolTableRecord
100
AcDbLinetypeTableRecord
  2
SLD-Осевая
 70
     0
  3
SolidWorks Line Style
 72
    65
 73
     4
 40
19.05
 49
15.24
 74
     0
 49
-1.27
 74
     0
 49
1.27
 74
     0
 49
-1.27
 74
     0
  0
LTYPE
  5
63
330
5
100
AcDbSymbolTableRecord
100
AcDbLinetypeTableRecord
  2
SLD-Сшитая
 70
     0
  3
SolidWorks Line Style
 72
    65
 73
     2
 40
0.635
 49
0.0
 74
     0
 49
-0.635
 74
     0
  0
LTYPE
  5
64
330
5
100
AcDbSymbolTableRecord
100
AcDbLinetypeTableRecord
  2
SLD-Тонкая-Толстая
 70
     0
  3
SolidWorks Line Style
 72
    65
 73
     2
 40
5.080508
 49
0.000508
 74
     0
 49
-5.08
 74
     0
  0
ENDTAB
  0
TABLE
  2
LAYER
  5
2
330
0
100
AcDbSymbolTable
 70
     3
  0
LAYER
  5
10
330
2
100
AcDbSymbolTableRecord
100
AcDbLayerTableRecord
  2
0
 70
     0
 62
     7
  6
Continuous
370
    -3
390
F
  0
LAYER
  5
65
330
2
100
AcDbSymbolTableRecord
100
AcDbLayerTableRecord
  2
ВОДЯНОЙ_ЗНАК
 70
     0
 62
    11
  6
SLD-Сплошная
370
    -3
390
F
  0
LAYER
  5
66
330
2
100
AcDbSymbolTableRecord
100
AcDbLayerTableRecord
  2
ОСНОВНОЙ
 70
     0
 62
     7
  6
SLD-Сплошная
370
    -3
390
F
  0
ENDTAB
  0
TABLE
  2
STYLE
  5
3
330
0
100
AcDbSymbolTable
 70
     1
  0
STYLE
  5
11
330
3
100
AcDbSymbolTableRecord
100
AcDbTextStyleTableRecord
  2
STANDARD
 70
     0
 40
0.0
 41
1.0
 50
0.0
 71
     0
 42
3.5
  3
GOST-TYPE-A.TTF
  4

1001
ACAD
1000
GOST TYPE A
1071
 16777250
  0
ENDTAB
  0
TABLE
  2
VIEW
  5
6
330
0
100
AcDbSymbolTable
 70
     0
  0
ENDTAB
  0
TABLE
  2
UCS
  5
7
330
0
100
AcDbSymbolTable
 70
     0
  0
ENDTAB
  0
TABLE
  2
APPID
  5
9
330
0
100
AcDbSymbolTable
 70
     1
  0
APPID
  5
12
330
9
100
AcDbSymbolTableRecord
100
AcDbRegAppTableRecord
  2
ACAD
 70
     0
  0
ENDTAB
  0
TABLE
  2
DIMSTYLE
  5
A
330
0
100
AcDbSymbolTable
 70
     1
100
AcDbDimStyleTable
  0
DIMSTYLE
105
27
330
A
100
AcDbSymbolTableRecord
100
AcDbDimStyleTableRecord
  2
ISO-25
 70
     0
 41
2.5
 42
0.625
 43
3.75
 44
1.25
 73
     0
 74
     0
 77
     1
 78
     8
140
2.5
141
2.5
143
0.0393700787
147
0.625
171
     3
172
     1
178
     0
271
     2
272
     2
274
     3
278
    44
283
     0
284
     8
340
11
  0
ENDTAB
  0
TABLE
  2
BLOCK_RECORD
  5
1
330
0
100
AcDbSymbolTable
 70
     1
  0
BLOCK_RECORD
  5
1F
330
1
100
AcDbSymbolTableRecord
100
AcDbBlockTableRecord
  2
*Model_Space
340
22
  0
BLOCK_RECORD
  5
1B
330
1
100
AcDbSymbolTableRecord
100
AcDbBlockTableRecord
  2
*Paper_Space
340
1E
  0
BLOCK_RECORD
  5
23
330
1
100
AcDbSymbolTableRecord
100
AcDbBlockTableRecord
  2
*Paper_Space0
340
26
  0
ENDTAB
  0
ENDSEC
  0
SECTION
  2
BLOCKS
  0
BLOCK
  5
20
330
1F
100
AcDbEntity
  8
0
100
AcDbBlockBegin
  2
*Model_Space
 70
     0
 10
0.0
 20
0.0
 30
0.0
  3
*Model_Space
  1

  0
ENDBLK
  5
21
330
1F
100
AcDbEntity
  8
0
100
AcDbBlockEnd
  0
BLOCK
  5
1C
330
1B
100
AcDbEntity
 67
     1
  8
0
100
AcDbBlockBegin
  2
*Paper_Space
 70
     0
 10
0.0
 20
0.0
 30
0.0
  3
*Paper_Space
  1

  0
ENDBLK
  5
1D
330
1B
100
AcDbEntity
 67
     1
  8
0
100
AcDbBlockEnd
  0
BLOCK
  5
24
330
23
100
AcDbEntity
  8
0
100
AcDbBlockBegin
  2
*Paper_Space0
 70
     0
 10
0.0
 20
0.0
 30
0.0
  3
*Paper_Space0
  1

  0
ENDBLK
  5
25
330
23
100
AcDbEntity
  8
0
100
AcDbBlockEnd
  0
ENDSEC
  0
SECTION
  2
ENTITIES
  0
ARC
  5
67
330
1F
100
AcDbEntity
  8
0
  6
SLD-Сплошная
 62
     7
370
    25
100
AcDbCircle
 10
279.1159321466
 20
147.370852807
 30
0.0
 40
150.0000000000001
100
AcDbArc
 50
172.4868308156
 51
187.4769274143
  0
LINE
  5
68
330
1F
100
AcDbEntity
  8
0
  6
SLD-Сплошная
 62
     7
370
    25
100
AcDbLine
 10
132.5038248703
 20
115.670852807
 30
0.0
 11
133.0599182097
 21
113.2000934817
 31
0.0
  0
LINE
  5
69
330
1F
100
AcDbEntity
  8
0
  6
SLD-Сплошная
 62
     7
370
    25
100
AcDbLine
 10
128.1992886409
 20
125.370852807
 30
0.0
 11
128.1992886409
 21
118.170852807
 31
0.0
  0
LINE
  5
6A
330
1F
100
AcDbEntity
  8
0
  6
SLD-Сплошная
 62
     7
370
    25
100
AcDbLine
 10
142.6905271727
 20
190.3447590979
 30
0.0
 11
130.9316528938
 21
183.7564867094
 31
0.0
  0
ARC
  5
6B
330
1F
100
AcDbEntity
  8
0
  6
SLD-Сплошная
 62
     7
370
    25
100
AcDbCircle
 10
130.6992886409
 20
125.370852807
 30
0.0
 40
2.5
100
AcDbArc
 50
92.7706834286
 51
180.0
  0
ARC
  5
6C
330
1F
100
AcDbEntity
  8
0
  6
SLD-Сплошная
 62
     7
370
    25
100
AcDbCircle
 10
130.6992886409
 20
118.170852807
 30
0.0
 40
2.5
100
AcDbArc
 50
180.0
 51
270.0
  0
LINE
  5
6D
330
1F
100
AcDbEntity
  8
0
  6
SLD-Сплошная
 62
     7
370
    25
100
AcDbLine
 10
130.6992886409
 20
115.670852807
 30
0.0
 11
132.6894739175
 21
115.670852807
 31
0.0
  0
LINE
  5
6E
330
1F
100
AcDbEntity
  8
0
  6
SLD-Сплошная
 62
     7
370
    25
100
AcDbLine
 10
128.6471833674
 20
179.8579434177
 30
0.0
 11
128.6471833674
 21
169.370852807
 31
0.0
  0
ARC
  5
6F
330
1F
100
AcDbEntity
  8
0
  6
SLD-Сплошная
 62
     7
370
    25
100
AcDbCircle
 10
133.1159321466
 20
179.8579434177
 30
0.0
 40
4.468748779201519
100
AcDbArc
 50
119.2610759674
 51
180.0
  0
ARC
  5
70
330
1F
100
AcDbEntity
  8
0
  6
SLD-Сплошная
 62
     7
370
    25
100
AcDbCircle
 10
131.1471833674
 20
169.370852807
 30
0.0
 40
2.500000000000632
100
AcDbArc
 50
180.0
 51
257.0383079201
  0
LINE
  5
71
330
1F
100
AcDbEntity
  8
0
  6
SLD-Сплошная
 62
     7
370
    25
100
AcDbLine
 10
133.062891872
 20
113.170852807
 30
0.0
 11
136.1159321466
 21
113.170852807
 31
0.0
  0
LINE
  5
72
330
1F
100
AcDbEntity
  8
0
  6
SLD-Сплошная
 62
     7
370
    25
100
AcDbLine
 10
136.1159321466
 20
114.8154282854
 30
0.0
 11
139.1159321466
 21
114.8154282854
 31
0.0
  0
LINE
  5
73
330
1F
100
AcDbEntity
  8
0
  6
SLD-Сплошная
 62
     7
370
    25
100
AcDbLine
 10
146.6159321466
 20
176.570852807
 30
0.0
 11
139.1159321466
 21
176.570852807
 31
0.0
  0
LINE
  5
74
330
1F
100
AcDbEntity
  8
0
  6
SLD-Сплошная
 62
     7
370
    25
100
AcDbLine
 10
181.6159321466
 20
176.570852807
 30
0.0
 11
173.0083060739
 21
176.570852807
 31
0.0
  0
SPLINE
  5
75
330
1F
100
AcDbEntity
  8
0
  6
SLD-Сплошная
 62
     7
370
    25
100
AcDbSpline
210
0.0
220
0.0
230
1.0
 70
     8
 71
     3
 72
    10
 73
     6
 74
     0
 42
0.00000001
 43
0.00000001
 40
0.0
 40
0.0
 40
0.0
 40
0.0
 40
0.4234291917692543
 40
0.8489091871470542
 40
1.0
 40
1.0
 40
1.0
 40
1.0
 10
244.0891435251314
 20
137.3160282355507
 30
0.0
 10
244.0720521419977
 20
137.7259989590059
 30
0.0
 10
244.037786596671
 20
138.5479260258393
 30
0.0
 10
243.9346333211814
 20
139.5677307498704
 30
0.0
 10
243.7815014693946
 20
140.1473118613712
 30
0.0
 10
243.741373152751
 20
140.2991915264545
 30
0.0
  0
ARC
  5
76
330
1F
100
AcDbEntity
  8
0
  6
SLD-Сплошная
 62
     7
370
    25
100
AcDbCircle
 10
192.615643375
 20
371.0087898822
 30
0.0
 40
250.0000000000001
100
AcDbArc
 50
276.6782123538
 51
280.7713940354
  0
ARC
  5
77
330
1F
100
AcDbEntity
  8
0
  6
SLD-Сплошная
 62
     7
370
    25
100
AcDbCircle
 10
192.615643375
 20
371.0087898822
 30
0.0
 40
250.0000000000001
100
AcDbArc
 50
272.063160079
 51
275.3024704619
  0
LINE
  5
78
330
1F
100
AcDbEntity
  8
0
  6
SLD-Сплошная
 62
     7
370
    25
100
AcDbLine
 10
181.6159321466
 20
121.170852807
 30
0.0
 11
193.6142659426
 21
121.170852807
 31
0.0
  0
LINE
  5
79
330
1F
100
AcDbEntity
  8
0
  6
SLD-Сплошная
 62
     7
370
    25
100
AcDbLine
 10
201.6159321466
 20
173.570852807
 30
0.0
 11
181.6159321466
 21
173.570852807
 31
0.0
  0
ARC
  5
7A
330
1F
100
AcDbEntity
  8
0
  6
SLD-Сплошная
 62
     7
370
    25
100
AcDbCircle
 10
192.615643375
 20
-76.2670842683
 30
0.0
 40
250.0000000000001
100
AcDbArc
 50
78.1118880111
 51
87.936839921
  0
LINE
  5
7B
330
1F
100
AcDbEntity
  8
0
  6
SLD-Сплошная
 62
     7
370
    25
100
AcDbLine
 10
253.6653767967
 20
172.7710181107
 30
0.0
 11
251.6653767967
 21
172.7710181107
 31
0.0
  0
LINE
  5
7C
330
1F
100
AcDbEntity
  8
0
  6
SLD-Сплошная
 62
     7
370
    25
100
AcDbLine
 10
251.6653767967
 20
121.9699136984
 30
0.0
 11
253.6653767967
 21
121.9699136984
 31
0.0
  0
ARC
  5
7D
330
1F
100
AcDbEntity
  8
0
  6
SLD-Сплошная
 62
     7
370
    25
100
AcDbCircle
 10
241.6312505176
 20
126.370852807
 30
0.0
 40
2.484681628997066
100
AcDbArc
 50
202.6595060243
 51
0.0
  0
LINE
  5
7E
330
1F
100
AcDbEntity
  8
0
  6
SLD-Сплошная
 62
     7
370
    25
100
AcDbLine
 10
199.6175983506
 20
121.170852807
 30
0.0
 11
201.6159321466
 21
121.170852807
 31
0.0
  0
LINE
  5
7F
330
1F
100
AcDbEntity
  8
0
  6
SLD-Сплошная
 62
     7
370
    25
100
AcDbLine
 10
244.1159321466
 20
136.370852807
 30
0.0
 11
251.6653767967
 21
136.370852807
 31
0.0
  0
LINE
  5
80
330
1F
100
AcDbEntity
  8
0
  6
SLD-Сплошная
 62
     7
370
    25
100
AcDbLine
 10
251.6653767967
 20
158.370852807
 30
0.0
 11
244.1159321466
 21
158.370852807
 31
0.0
  0
LINE
  5
81
330
1F
100
AcDbEntity
  8
0
  6
SLD-Сплошная
 62
     7
370
    25
100
AcDbLine
 10
139.1159321466
 20
114.945852807
 30
0.0
 11
181.6159321466
 21
114.945852807
 31
0.0
  0
LINE
  5
82
330
1F
100
AcDbEntity
  8
0
  6
SLD-Сплошная
 62
     7
370
    25
100
AcDbLine
 10
284.1634946925
 20
134.0019062355
 30
0.0
 11
284.2337167442
 21
135.8105847304
 31
0.0
  0
LINE
  5
83
330
1F
100
AcDbEntity
  8
0
  6
SLD-Сплошная
 62
     7
370
    25
100
AcDbLine
 10
284.2337167442
 20
158.9303470787
 30
0.0
 11
284.1634946925
 21
160.7390255736
 31
0.0
  0
LINE
  5
84
330
1F
100
AcDbEntity
  8
0
  6
SLD-Сплошная
 62
     7
370
    25
100
AcDbLine
 10
262.6653767967
 20
129.8704659046
 30
0.0
 11
274.6749957399
 21
129.8704659046
 31
0.0
  0
ARC
  5
85
330
1F
100
AcDbEntity
  8
0
  6
SLD-Сплошная
 62
     7
370
    25
100
AcDbCircle
 10
281.6653767967
 20
134.0988958135
 30
0.0
 40
2.50000000000004
100
AcDbArc
 50
297.7766046258
 51
357.7766046258
  0
ARC
  5
86
330
1F
100
AcDbEntity
  8
0
  6
SLD-Сплошная
 62
     7
370
    25
100
AcDbCircle
 10
274.6749957399
 20
147.3704659046
 30
0.0
 40
17.5
100
AcDbArc
 50
270.0
 51
297.7766046258
  0
ARC
  5
87
330
1F
100
AcDbEntity
  8
0
  6
SLD-Сплошная
 62
     7
370
    25
100
AcDbCircle
 10
281.6653767967
 20
160.6420359956
 30
0.0
 40
2.50000000000002
100
AcDbArc
 50
2.2233953742
 51
62.2233953742
  0
ARC
  5
88
330
1F
100
AcDbEntity
  8
0
  6
SLD-Сплошная
 62
     7
370
    25
100
AcDbCircle
 10
274.6749957399
 20
147.3704659046
 30
0.0
 40
17.5
100
AcDbArc
 50
62.2233953742
 51
90.0
  0
LINE
  5
89
330
1F
100
AcDbEntity
  8
0
  6
SLD-Сплошная
 62
     7
370
    25
100
AcDbLine
 10
274.6749957399
 20
164.8704659046
 30
0.0
 11
262.6653767967
 21
164.8704659046
 31
0.0
  0
ARC
  5
8A
330
1F
100
AcDbEntity
  8
0
  6
SLD-Сплошная
 62
     7
370
    25
100
AcDbCircle
 10
121.0002516256
 20
170.1254166187
 30
0.0
 40
10.10329244507804
100
AcDbArc
 50
341.5894217613
 51
355.7168799507
  0
LINE
  5
8B
330
1F
100
AcDbEntity
  8
0
  6
SLD-Сплошная
 62
     7
370
    25
100
AcDbLine
 10
131.0753273913
 20
169.370852807
 30
0.0
 11
131.075397157
 21
169.370852807
 31
0.0
  0
ARC
  5
8C
330
1F
100
AcDbEntity
  8
0
  6
SLD-Сплошная
 62
     7
370
    25
100
AcDbCircle
 10
279.1159321466
 20
147.370852807
 30
0.0
 40
149.6662954709589
100
AcDbArc
 50
171.3623056046
 51
171.547253945
  0
ARC
  5
8D
330
1F
100
AcDbEntity
  8
0
  6
SLD-Сплошная
 62
     7
370
    25
100
AcDbCircle
 10
279.1159321466
 20
147.370852807
 30
0.0
 40
149.6662954709577
100
AcDbArc
 50
169.4377887228
 51
171.3623056046
  0
LINE
  5
8E
330
1F
100
AcDbEntity
  8
0
  6
SLD-Сплошная
 62
     7
370
    25
100
AcDbLine
 10
131.9855138097
 20
119.9365676878
 30
0.0
 11
131.9855138097
 21
174.8051379261
 31
0.0
  0
ARC
  5
8F
330
1F
100
AcDbEntity
  8
0
  6
SLD-Сплошная
 62
     7
370
    25
100
AcDbCircle
 10
279.1159321466
 20
147.370852807
 30
0.0
 40
149.6662954709577
100
AcDbArc
 50
188.452746055
 51
190.5622112772
  0
SPLINE
  5
90
330
1F
100
AcDbEntity
  8
0
  6
SLD-Сплошная
 62
     7
370
    25
100
AcDbSpline
210
0.0
220
0.0
230
1.0
 70
     8
 71
     3
 72
    14
 73
    10
 74
     0
 42
0.00000001
 43
0.00000001
 40
0.0
 40
0.0
 40
0.0
 40
0.0
 40
0.25
 40
0.25
 40
0.5
 40
0.5
 40
0.75
 40
0.75
 40
1.0
 40
1.0
 40
1.0
 40
1.0
 10
131.0753971570223
 20
125.3708528069523
 30
0.0
 10
131.0439970801243
 20
125.5821475425291
 30
0.0
 10
131.0110997133196
 20
125.7943848581345
 30
0.0
 10
130.9446039908859
 20
126.2056759695141
 30
0.0
 10
130.9115842580485
 20
126.401354677858
 30
0.0
 10
130.8460005541439
 20
126.7727600163893
 30
0.0
 10
130.8140192801421
 20
126.9449770294666
 30
0.0
 10
130.7539150415622
 20
127.2506619792033
 30
0.0
 10
130.7252376369605
 20
127.3868989165044
 30
0.0
 10
130.6992886409491
 20
127.4995789195828
 30
0.0
  0
ARC
  5
91
330
1F
100
AcDbEntity
  8
0
  6
SLD-Сплошная
 62
     7
370
    25
100
AcDbCircle
 10
129.9683779125
 20
127.4637847035
 30
0.0
 40
0.7317866621258163
100
AcDbArc
 50
2.8036534283
 51
33.5230521418
  0
SPLINE
  5
92
330
1F
100
AcDbEntity
  8
0
  6
SLD-Сплошная
 62
     7
370
    25
100
AcDbSpline
210
0.0
220
0.0
230
1.0
 70
     8
 71
     3
 72
    10
 73
     6
 74
     0
 42
0.00000001
 43
0.00000001
 40
0.0
 40
0.0
 40
0.0
 40
0.0
 40
0.1501812995041128
 40
0.6697142495812479
 40
0.9999999999999999
 40
0.9999999999999999
 40
0.9999999999999999
 40
0.9999999999999999
 10
132.6729056823795
 20
116.1708528069523
 30
0.0
 10
132.678693660884
 20
116.1250035691891
 30
0.0
 10
132.7045044089167
 20
115.9205447719634
 30
0.0
 10
132.7229587494851
 20
115.6970375301304
 30
0.0
 10
132.6988455988323
 20
115.7006948559358
 30
0.0
 10
132.6894739174917
 20
115.7021162915873
 30
0.0
  0
SPLINE
  5
93
330
1F
100
AcDbEntity
  8
0
  6
SLD-Сплошная
 62
     7
370
    25
100
AcDbSpline
210
0.0
220
0.0
230
1.0
 70
     8
 71
     3
 72
    12
 73
     8
 74
     0
 42
0.00000001
 43
0.00000001
 40
0.0
 40
0.0
 40
0.0
 40
0.0
 40
0.0429410178190104
 40
0.2989560290925233
 40
0.5623938133873774
 40
0.7790033718522453
 40
1.0
 40
1.0
 40
1.0
 40
1.0
 10
133.0628746167939
 20
113.2004274064071
 30
0.0
 10
133.0641162542465
 20
113.1909820684259
 30
0.0
 10
133.0727605533629
 20
113.1252234795585
 30
0.0
 10
133.0355992419384
 20
113.4078849041869
 30
0.0
 10
132.953412330944
 20
114.0333396704117
 30
0.0
 10
132.8301138060809
 20
114.9722025685832
 30
0.0
 10
132.7256574539736
 20
115.7686412538413
 30
0.0
 10
132.6729056823795
 20
116.1708528069523
 30
0.0
  0
LINE
  5
94
330
1F
100
AcDbEntity
  8
0
  6
SLD-Сплошная
 62
     7
370
    25
100
AcDbLine
 10
136.1159321466
 20
118.869668621
 30
0.0
 11
139.1159321466
 21
118.869668621
 31
0.0
  0
LINE
  5
95
330
1F
100
AcDbEntity
  8
0
  6
SLD-Сплошная
 62
     7
370
    25
100
AcDbLine
 10
136.1159321466
 20
119.9365676878
 30
0.0
 11
131.9855138097
 21
119.9365676878
 31
0.0
  0
LINE
  5
96
330
1F
100
AcDbEntity
  8
0
  6
SLD-Сплошная
 62
     7
370
    25
100
AcDbLine
 10
131.9855138097
 20
174.8051379261
 30
0.0
 11
139.1159321466
 21
174.8051379261
 31
0.0
  0
LINE
  5
97
330
1F
100
AcDbEntity
  8
0
  6
SLD-Сплошная
 62
     7
370
    25
100
AcDbLine
 10
139.1159321466
 20
118.869668621
 30
0.0
 11
139.1159321466
 21
174.8051379261
 31
0.0
  0
LINE
  5
98
330
1F
100
AcDbEntity
  8
0
  6
SLD-Сплошная
 62
     7
370
    25
100
AcDbLine
 10
139.1159321466
 20
176.6881061718
 30
0.0
 11
141.0832758241
 21
177.9186636383
 31
0.0
  0
LINE
  5
99
330
1F
100
AcDbEntity
  8
0
  6
SLD-Сплошная
 62
     7
370
    25
100
AcDbLine
 10
152.859982937
 20
190.3447590979
 30
0.0
 11
147.8051991789
 21
190.3447590979
 31
0.0
  0
ARC
  5
9A
330
1F
100
AcDbEntity
  8
0
  6
SLD-Сплошная
 62
     7
370
    25
100
AcDbCircle
 10
151.6159321466
 20
184.270852807
 30
0.0
 40
6.200000000000016
100
AcDbArc
 50
21.2506791171
 51
78.4248320536
  0
LINE
  5
9B
330
1F
100
AcDbEntity
  8
0
  6
SLD-Сплошная
 62
     7
370
    25
100
AcDbLine
 10
146.6159321466
 20
178.070852807
 30
0.0
 11
141.6135746024
 21
178.070852807
 31
0.0
  0
ARC
  5
9C
330
1F
100
AcDbEntity
  8
0
  6
SLD-Сплошная
 62
     7
370
    25
100
AcDbCircle
 10
141.6135746024
 20
177.070852807
 30
0.0
 40
1.0
100
AcDbArc
 50
90.0
 51
122.0256442949
  0
LINE
  5
9D
330
1F
100
AcDbEntity
  8
0
  6
SLD-Сплошная
 62
     7
370
    25
100
AcDbLine
 10
139.1159321466
 20
176.6881061718
 30
0.0
 11
139.1159321466
 21
174.8051379261
 31
0.0
  0
LINE
  5
9E
330
1F
100
AcDbEntity
  8
0
  6
SLD-Сплошная
 62
     7
370
    25
100
AcDbLine
 10
142.6905271727
 20
190.3447590979
 30
0.0
 11
147.8051991789
 21
190.3447590979
 31
0.0
  0
LINE
  5
9F
330
1F
100
AcDbEntity
  8
0
  6
SLD-Сплошная
 62
     7
370
    25
100
AcDbLine
 10
136.1159321466
 20
118.170852807
 30
0.0
 11
136.1159321466
 21
116.170852807
 31
0.0
  0
LINE
  5
A0
330
1F
100
AcDbEntity
  8
0
  6
SLD-Сплошная
 62
     7
370
    25
100
AcDbLine
 10
136.1159321466
 20
119.9365676878
 30
0.0
 11
136.1159321466
 21
118.170852807
 31
0.0
  0
LINE
  5
A1
330
1F
100
AcDbEntity
  8
0
  6
SLD-Сплошная
 62
     7
370
    25
100
AcDbLine
 10
136.1159321466
 20
116.170852807
 30
0.0
 11
136.1159321466
 21
113.170852807
 31
0.0
  0
LINE
  5
A2
330
1F
100
AcDbEntity
  8
0
  6
SLD-Сплошная
 62
     7
370
    25
100
AcDbLine
 10
139.1159321466
 20
114.8154282854
 30
0.0
 11
139.1159321466
 21
118.869668621
 31
0.0
  0
LINE
  5
A3
330
1F
100
AcDbEntity
  8
0
  6
SLD-Сплошная
 62
     7
370
    25
100
AcDbLine
 10
154.559982937
 20
196.2998462124
 30
0.0
 11
153.4663375729
 21
197.6378732871
 31
0.0
  0
LINE
  5
A4
330
1F
100
AcDbEntity
  8
0
  6
SLD-Сплошная
 62
     7
370
    25
100
AcDbLine
 10
152.859982937
 20
190.3447590979
 30
0.0
 11
154.559982937
 21
196.2998462124
 31
0.0
  0
ARC
  5
A5
330
1F
100
AcDbEntity
  8
0
  6
SLD-Сплошная
 62
     7
370
    25
100
AcDbCircle
 10
134.6159321466
 20
204.320852807
 30
0.0
 40
20.00000000000005
100
AcDbArc
 50
315.6688177564
 51
340.4792040697
  0
SPLINE
  5
A6
330
1F
100
AcDbEntity
  8
0
  6
SLD-Сплошная
 62
     7
370
    25
100
AcDbSpline
210
0.0
220
0.0
230
1.0
 70
     8
 71
     3
 72
     8
 73
     4
 74
     0
 42
0.00000001
 43
0.00000001
 40
0.0
 40
0.0
 40
0.0
 40
0.0
 40
1.0
 40
1.0
 40
1.0
 40
1.0
 10
193.2748819638835
 20
150.0762725106657
 30
0.0
 10
189.3873215817017
 20
151.1281888561005
 30
0.0
 10
185.5004107381346
 20
152.1754833372231
 30
0.0
 10
181.6159321465987
 20
153.2173698313976
 30
0.0
  0
SPLINE
  5
A7
330
1F
100
AcDbEntity
  8
0
  6
SLD-Сплошная
 62
     7
370
    25
100
AcDbSpline
210
0.0
220
0.0
230
1.0
 70
     8
 71
     3
 72
     8
 73
     4
 74
     0
 42
0.00000001
 43
0.00000001
 40
0.0
 40
0.0
 40
0.0
 40
0.0
 40
1.0
 40
1.0
 40
1.0
 40
1.0
 10
181.6159321465987
 20
148.1564046773345
 30
0.0
 10
185.0751618213901
 20
147.2026177319588
 30
0.0
 10
188.5370619143908
 20
146.2574089947624
 30
0.0
 10
191.9989654898395
 20
145.3158609618442
 30
0.0
  0
SPLINE
  5
A8
330
1F
100
AcDbEntity
  8
0
  6
SLD-Сплошная
 62
     7
370
    25
100
AcDbSpline
210
0.0
220
0.0
230
1.0
 70
     8
 71
     3
 72
    14
 73
    10
 74
     0
 42
0.00000001
 43
0.00000001
 40
0.0
 40
0.0
 40
0.0
 40
0.0
 40
0.25
 40
0.25
 40
0.5
 40
0.5
 40
0.75
 40
0.75
 40
1.0
 40
1.0
 40
1.0
 40
1.0
 10
191.9989654898395
 20
145.3158609618442
 30
0.0
 10
192.5893918585564
 20
145.1552802946093
 30
0.0
 10
193.1872191126041
 20
145.0313314718375
 30
0.0
 10
194.3911125992363
 20
144.8241169068547
 30
0.0
 10
194.9978058459206
 20
144.7423057792957
 30
0.0
 10
196.2143612785763
 20
144.6413111818636
 30
0.0
 10
196.826621477218
 20
144.6251750897451
 30
0.0
 10
198.048441468235
 20
144.6504394195469
 30
0.0
 10
198.6583428711786
 20
144.6847720817789
 30
0.0
 10
199.2669576407507
 20
144.7468215160263
 30
0.0
  0
SPLINE
  5
A9
330
1F
100
AcDbEntity
  8
0
  6
SLD-Сплошная
 62
     7
370
    25
100
AcDbSpline
210
0.0
220
0.0
230
1.0
 70
     8
 71
     3
 72
    14
 73
    10
 74
     0
 42
0.00000001
 43
0.00000001
 40
0.0
 40
0.0
 40
0.0
 40
0.0
 40
0.25
 40
0.25
 40
0.5
 40
0.5
 40
0.75
 40
0.75
 40
1.0
 40
1.0
 40
1.0
 40
1.0
 10
198.773605069064
 20
149.649612366239
 30
0.0
 10
198.3132772288359
 20
149.6027500337566
 30
0.0
 10
197.8526119768511
 20
149.5755895191853
 30
0.0
 10
196.9306691325008
 20
149.5570526161676
 30
0.0
 10
196.4691267098774
 20
149.5694035227222
 30
0.0
 10
195.5460086759429
 20
149.6441823644025
 30
0.0
 10
195.0872759931882
 20
149.7044645050299
 30
0.0
 10
194.1745682788466
 20
149.8605405068643
 30
0.0
 10
193.7218661104593
 20
149.955325211149
 30
0.0
 10
193.2748819638835
 20
150.0762725106657
 30
0.0
  0
LINE
  5
AA
330
1F
100
AcDbEntity
  8
0
  6
SLD-Сплошная
 62
     7
370
    25
100
AcDbLine
 10
201.6159321466
 20
149.9377904497
 30
0.0
 11
201.3938486512
 21
149.9162601542
 31
0.0
  0
SPLINE
  5
AB
330
1F
100
AcDbEntity
  8
0
  6
SLD-Сплошная
 62
     7
370
    25
100
AcDbSpline
210
0.0
220
0.0
230
1.0
 70
     8
 71
     3
 72
     8
 73
     4
 74
     0
 42
0.00000001
 43
0.00000001
 40
0.0
 40
0.0
 40
0.0
 40
0.0
 40
1.0
 40
1.0
 40
1.0
 40
1.0
 10
226.9042224120424
 20
152.5016514827196
 30
0.0
 10
218.5339733485202
 20
151.6558888780194
 30
0.0
 10
210.0871288446444
 20
150.7989050291962
 30
0.0
 10
201.6159321465987
 20
149.9377904496914
 30
0.0
  0
SPLINE
  5
AC
330
1F
100
AcDbEntity
  8
0
  6
SLD-Сплошная
 62
     7
370
    25
100
AcDbSpline
210
0.0
220
0.0
230
1.0
 70
     8
 71
     3
 72
     8
 73
     4
 74
     0
 42
0.00000001
 43
0.00000001
 40
0.0
 40
0.0
 40
0.0
 40
0.0
 40
1.0
 40
1.0
 40
1.0
 40
1.0
 10
201.8874300322041
 20
145.0127895053526
 30
0.0
 10
210.4469460807938
 20
145.8846778861432
 30
0.0
 10
218.9891787810811
 20
146.7582370796899
 30
0.0
 10
227.4667575165122
 20
147.6337803261334
 30
0.0
  0
SPLINE
  5
AD
330
1F
100
AcDbEntity
  8
0
  6
SLD-Сплошная
 62
     7
370
    25
100
AcDbSpline
210
0.0
220
0.0
230
1.0
 70
     8
 71
     3
 72
    11
 73
     7
 74
     0
 42
0.00000001
 43
0.00000001
 40
0.0
 40
0.0
 40
0.0
 40
0.0
 40
0.001180637684977
 40
0.001180637684977
 40
0.001180637684977
 40
0.0023612756289565
 40
0.0023612756289565
 40
0.0023612756289565
 40
0.0023612756289565
 10
201.6159321465987
 20
144.986428932158
 30
0.0
 10
201.2244368128882
 20
144.9464734307008
 30
0.0
 10
200.8329412700878
 20
144.9065282431803
 30
0.0
 10
200.4414455474318
 20
144.8665937156482
 30
0.0
 10
200.0499497388875
 20
144.826659179355
 30
0.0
 10
199.6584537303739
 20
144.7867352875707
 30
0.0
 10
199.2669576407507
 20
144.7468215160264
 30
0.0
  0
SPLINE
  5
AE
330
1F
100
AcDbEntity
  8
0
  6
SLD-Сплошная
 62
     7
370
    25
100
AcDbSpline
210
0.0
220
0.0
230
1.0
 70
     8
 71
     3
 72
    14
 73
    10
 74
     0
 42
0.00000001
 43
0.00000001
 40
0.0
 40
0.0
 40
0.0
 40
0.0
 40
0.0013169456970121
 40
0.0013169456970121
 40
0.0013169456970121
 40
0.0019754186899862
 40
0.0019754186899862
 40
0.0019754186899862
 40
0.0026338917274289
 40
0.0026338917274289
 40
0.0026338917274289
 40
0.0026338917274289
 10
198.773605069064
 20
149.649612366239
 30
0.0
 10
199.2103126953905
 20
149.6940701117717
 30
0.0
 10
199.64702012282
 20
149.7385200244471
 30
0.0
 10
200.083727340667
 20
149.7829613348275
 30
0.0
 10
200.3020810030237
 20
149.8051819954554
 30
0.0
 10
200.5204346161571
 20
149.827400529034
 30
0.0
 10
200.7387881650735
 20
149.8496169723898
 30
0.0
 10
200.9571417287353
 20
149.8718334172459
 30
0.0
 10
201.1754952317645
 20
149.8940477732567
 30
0.0
 10
201.3938486512455
 20
149.9162601542159
 30
0.0
  0
SPLINE
  5
AF
330
1F
100
AcDbEntity
  8
0
  6
SLD-Сплошная
 62
     7
370
    25
100
AcDbSpline
210
0.0
220
0.0
230
1.0
 70
     8
 71
     3
 72
     8
 73
     4
 74
     0
 42
0.00000001
 43
0.00000001
 40
0.0
 40
0.0
 40
0.0
 40
0.0
 40
0.0002728797068755
 40
0.0002728797068755
 40
0.0002728797068755
 40
0.0002728797068755
 10
201.8874300322041
 20
145.0127895053526
 30
0.0
 10
201.7969319632227
 20
145.0040056527105
 30
0.0
 10
201.7064326227628
 20
144.9952189355442
 30
0.0
 10
201.6159321465987
 20
144.986428932158
 30
0.0
  0
LINE
  5
B0
330
1F
100
AcDbEntity
  8
0
  6
SLD-Сплошная
 62
     7
370
    25
100
AcDbLine
 10
181.6159321466
 20
176.570852807
 30
0.0
 11
181.6159321466
 21
118.8542230134
 31
0.0
  0
LINE
  5
B1
330
1F
100
AcDbEntity
  8
0
  6
SLD-Сплошная
 62
     7
370
    25
100
AcDbLine
 10
181.6159321466
 20
118.8542230134
 30
0.0
 11
139.1159321466
 21
118.8542230134
 31
0.0
  0
LINE
  5
B2
330
1F
100
AcDbEntity
  8
0
  6
SLD-Сплошная
 62
     7
370
    25
100
AcDbLine
 10
139.1159321466
 20
174.8051379261
 30
0.0
 11
139.1159321466
 21
118.8542230134
 31
0.0
  0
LINE
  5
B3
330
1F
100
AcDbEntity
  8
0
  6
SLD-Сплошная
 62
     7
370
    25
100
AcDbLine
 10
151.5159321466
 20
160.7740228462
 30
0.0
 11
151.5159321466
 21
133.9523180133
 31
0.0
  0
LINE
  5
B4
330
1F
100
AcDbEntity
  8
0
  6
SLD-Сплошная
 62
     7
370
    25
100
AcDbLine
 10
151.5159321466
 20
133.9523180133
 30
0.0
 11
168.1159321466
 21
133.9523180133
 31
0.0
  0
LINE
  5
B5
330
1F
100
AcDbEntity
  8
0
  6
SLD-Сплошная
 62
     7
370
    25
100
AcDbLine
 10
168.1159321466
 20
160.7740228462
 30
0.0
 11
168.1159321466
 21
133.9523180133
 31
0.0
  0
LINE
  5
B6
330
1F
100
AcDbEntity
  8
0
  6
SLD-Сплошная
 62
     7
370
    25
100
AcDbLine
 10
168.1159321466
 20
160.7740228462
 30
0.0
 11
151.5159321466
 21
160.7740228462
 31
0.0
  0
LINE
  5
B7
330
1F
100
AcDbEntity
  8
0
  6
SLD-Сплошная
 62
     7
370
    25
100
AcDbLine
 10
146.6159321466
 20
172.8296430374
 30
0.0
 11
178.8808290901
 21
172.8296430374
 31
0.0
  0
LINE
  5
B8
330
1F
100
AcDbEntity
  8
0
  6
SLD-Сплошная
 62
     7
370
    25
100
AcDbLine
 10
160.9899671466
 20
148.1721739142
 30
0.0
 11
158.6418971466
 21
148.1721739142
 31
0.0
  0
LINE
  5
B9
330
1F
100
AcDbEntity
  8
0
  6
SLD-Сплошная
 62
     7
370
    25
100
AcDbLine
 10
161.7726666226
 20
142.6478427013
 30
0.0
 11
160.9899671466
 21
142.6478427013
 31
0.0
  0
LINE
  5
BA
330
1F
100
AcDbEntity
  8
0
  6
SLD-Сплошная
 62
     7
370
    25
100
AcDbLine
 10
161.7726666226
 20
148.1721739142
 30
0.0
 11
161.7726666226
 21
142.6478427013
 31
0.0
  0
LINE
  5
BB
330
1F
100
AcDbEntity
  8
0
  6
SLD-Сплошная
 62
     7
370
    25
100
AcDbLine
 10
164.1207366226
 20
148.1721739142
 30
0.0
 11
161.7726666226
 21
148.1721739142
 31
0.0
  0
LINE
  5
BC
330
1F
100
AcDbEntity
  8
0
  6
SLD-Сплошная
 62
     7
370
    25
100
AcDbLine
 10
158.6418971466
 20
139.9710493653
 30
0.0
 11
164.1207366226
 21
139.9710493653
 31
0.0
  0
LINE
  5
BD
330
1F
100
AcDbEntity
  8
0
  6
SLD-Сплошная
 62
     7
370
    25
100
AcDbLine
 10
164.1207366226
 20
148.1721739142
 30
0.0
 11
164.1207366226
 21
139.9710493653
 31
0.0
  0
LINE
  5
BE
330
1F
100
AcDbEntity
  8
0
  6
SLD-Сплошная
 62
     7
370
    25
100
AcDbLine
 10
158.6418971466
 20
148.1721739142
 30
0.0
 11
158.6418971466
 21
139.9710493653
 31
0.0
  0
LINE
  5
BF
330
1F
100
AcDbEntity
  8
0
  6
SLD-Сплошная
 62
     7
370
    25
100
AcDbLine
 10
160.9899671466
 20
148.1721739142
 30
0.0
 11
160.9899671466
 21
142.6478427013
 31
0.0
  0
LINE
  5
C0
330
1F
100
AcDbEntity
  8
0
  6
SLD-Сплошная
 62
     7
370
    25
100
AcDbLine
 10
157.8591976706
 20
148.1721739142
 30
0.0
 11
155.5111276706
 21
148.1721739142
 31
0.0
  0
LINE
  5
C1
330
1F
100
AcDbEntity
  8
0
  6
SLD-Сплошная
 62
     7
370
    25
100
AcDbLine
 10
155.5111276706
 20
139.9710493653
 30
0.0
 11
157.8591976706
 21
139.9710493653
 31
0.0
  0
LINE
  5
C2
330
1F
100
AcDbEntity
  8
0
  6
SLD-Сплошная
 62
     7
370
    25
100
AcDbLine
 10
157.8591976706
 20
148.1721739142
 30
0.0
 11
157.8591976706
 21
139.9710493653
 31
0.0
  0
LINE
  5
C3
330
1F
100
AcDbEntity
  8
0
  6
SLD-Сплошная
 62
     7
370
    25
100
AcDbLine
 10
155.5111276706
 20
148.1721739142
 30
0.0
 11
155.5111276706
 21
139.9710493653
 31
0.0
  0
LINE
  5
C4
330
1F
100
AcDbEntity
  8
0
  6
SLD-Сплошная
 62
     7
370
    25
100
AcDbLine
 10
155.5111276706
 20
151.6780565543
 30
0.0
 11
155.5111276706
 21
148.9541781507
 31
0.0
  0
LINE
  5
C5
330
1F
100
AcDbEntity
  8
0
  6
SLD-Сплошная
 62
     7
370
    25
100
AcDbLine
 10
159.7060127767
 20
151.6780565543
 30
0.0
 11
155.5111276706
 21
151.6780565543
 31
0.0
  0
LINE
  5
C6
330
1F
100
AcDbEntity
  8
0
  6
SLD-Сплошная
 62
     7
370
    25
100
AcDbLine
 10
159.7060127767
 20
151.7689997272
 30
0.0
 11
159.7060127767
 21
151.6780565543
 31
0.0
  0
SPLINE
  5
C7
330
1F
100
AcDbEntity
  8
0
  6
SLD-Сплошная
 62
     7
370
    25
100
AcDbSpline
210
0.0
220
0.0
230
1.0
 70
     8
 71
     3
 72
     8
 73
     4
 74
     0
 42
0.00000001
 43
0.00000001
 40
0.0
 40
0.0
 40
0.0
 40
0.0
 40
1.0
 40
1.0
 40
1.0
 40
1.0
 10
155.5111276705983
 20
155.1976091084417
 30
0.0
 10
156.9097723222564
 20
154.0710330189092
 30
0.0
 10
158.3078049075682
 20
152.9255411094414
 30
0.0
 10
159.7060127767387
 20
151.7689997272485
 30
0.0
  0
LINE
  5
C8
330
1F
100
AcDbEntity
  8
0
  6
SLD-Сплошная
 62
     7
370
    25
100
AcDbLine
 10
155.5111276706
 20
158.0946134482
 30
0.0
 11
155.5111276706
 21
155.1976091084
 31
0.0
  0
SPLINE
  5
C9
330
1F
100
AcDbEntity
  8
0
  6
SLD-Сплошная
 62
     7
370
    25
100
AcDbSpline
210
0.0
220
0.0
230
1.0
 70
     8
 71
     3
 72
     8
 73
     4
 74
     0
 42
0.00000001
 43
0.00000001
 40
0.0
 40
0.0
 40
0.0
 40
0.0
 40
1.0
 40
1.0
 40
1.0
 40
1.0
 10
159.8159321466
 20
154.6755845592583
 30
0.0
 10
158.3812192809276
 20
155.8371390770794
 30
0.0
 10
156.9465783177053
 20
156.9795680570863
 30
0.0
 10
155.5111276705983
 20
158.0946134482334
 30
0.0
  0
SPLINE
  5
CA
330
1F
100
AcDbEntity
  8
0
  6
SLD-Сплошная
 62
     7
370
    25
100
AcDbSpline
210
0.0
220
0.0
230
1.0
 70
     8
 71
     3
 72
     8
 73
     4
 74
     0
 42
0.00000001
 43
0.00000001
 40
0.0
 40
0.0
 40
0.0
 40
0.0
 40
1.0
 40
1.0
 40
1.0
 40
1.0
 10
164.1207366225981
 20
158.0946134482334
 30
0.0
 10
162.6852858137426
 20
156.9795679314405
 30
0.0
 10
161.2506451504011
 20
155.8371391889105
 30
0.0
 10
159.8159321466
 20
154.6755845592583
 30
0.0
  0
LINE
  5
CB
330
1F
100
AcDbEntity
  8
0
  6
SLD-Сплошная
 62
     7
370
    25
100
AcDbLine
 10
164.1207366226
 20
158.0946134482
 30
0.0
 11
164.1207366226
 21
155.1976091084
 31
0.0
  0
SPLINE
  5
CC
330
1F
100
AcDbEntity
  8
0
  6
SLD-Сплошная
 62
     7
370
    25
100
AcDbSpline
210
0.0
220
0.0
230
1.0
 70
     8
 71
     3
 72
     8
 73
     4
 74
     0
 42
0.00000001
 43
0.00000001
 40
0.0
 40
0.0
 40
0.0
 40
0.0
 40
1.0
 40
1.0
 40
1.0
 40
1.0
 10
159.9258515164568
 20
151.7689997272502
 30
0.0
 10
161.3240593095814
 20
152.9255410465402
 30
0.0
 10
162.7220920645484
 20
154.0710330943094
 30
0.0
 10
164.1207366225981
 20
155.1976091084417
 30
0.0
  0
LINE
  5
CD
330
1F
100
AcDbEntity
  8
0
  6
SLD-Сплошная
 62
     7
370
    25
100
AcDbLine
 10
159.9258515165
 20
151.7689997273
 30
0.0
 11
159.9258515165
 21
151.6780565543
 31
0.0
  0
LINE
  5
CE
330
1F
100
AcDbEntity
  8
0
  6
SLD-Сплошная
 62
     7
370
    25
100
AcDbLine
 10
164.1207366226
 20
151.6780565543
 30
0.0
 11
159.9258515165
 21
151.6780565543
 31
0.0
  0
LINE
  5
CF
330
1F
100
AcDbEntity
  8
0
  6
SLD-Сплошная
 62
     7
370
    25
100
AcDbLine
 10
164.1207366226
 20
151.6780565543
 30
0.0
 11
164.1207366226
 21
148.9541781507
 31
0.0
  0
LINE
  5
D0
330
1F
100
AcDbEntity
  8
0
  6
SLD-Сплошная
 62
     7
370
    25
100
AcDbLine
 10
155.5111276706
 20
148.9541781507
 30
0.0
 11
164.1207366226
 21
148.9541781507
 31
0.0
  0
LINE
  5
D1
330
1F
100
AcDbEntity
  8
0
  6
SLD-Сплошная
 62
     7
370
    25
100
AcDbLine
 10
168.1159321466
 20
160.5904177771
 30
0.0
 11
151.5159321466
 21
160.5904177771
 31
0.0
  0
LINE
  5
D2
330
1F
100
AcDbEntity
  8
0
  6
SLD-Сплошная
 62
     7
370
    25
100
AcDbLine
 10
151.5159321466
 20
134.1361335584
 30
0.0
 11
168.1159321466
 21
134.1361335584
 31
0.0
  0
LINE
  5
D3
330
1F
100
AcDbEntity
  8
0
  6
SLD-Сплошная
 62
     7
370
    25
100
AcDbLine
 10
158.6418971466
 20
139.2174614364
 30
0.0
 11
158.6418971466
 21
136.6310409709
 31
0.0
  0
LINE
  5
D4
330
1F
100
AcDbEntity
  8
0
  6
SLD-Сплошная
 62
     7
370
    25
100
AcDbLine
 10
164.1207366226
 20
139.2174614364
 30
0.0
 11
158.6418971466
 21
139.2174614364
 31
0.0
  0
LINE
  5
D5
330
1F
100
AcDbEntity
  8
0
  6
SLD-Сплошная
 62
     7
370
    25
100
AcDbLine
 10
164.1207366226
 20
139.2174614364
 30
0.0
 11
164.1207366226
 21
136.6310409709
 31
0.0
  0
LINE
  5
D6
330
1F
100
AcDbEntity
  8
0
  6
SLD-Сплошная
 62
     7
370
    25
100
AcDbLine
 10
158.6418971466
 20
136.6310409709
 30
0.0
 11
164.1207366226
 21
136.6310409709
 31
0.0
  0
LINE
  5
D7
330
1F
100
AcDbEntity
  8
0
  6
SLD-Сплошная
 62
     7
370
    25
100
AcDbLine
 10
155.5111276706
 20
139.2174614364
 30
0.0
 11
155.5111276706
 21
136.6310409709
 31
0.0
  0
LINE
  5
D8
330
1F
100
AcDbEntity
  8
0
  6
SLD-Сплошная
 62
     7
370
    25
100
AcDbLine
 10
157.8591976706
 20
139.2174614364
 30
0.0
 11
155.5111276706
 21
139.2174614364
 31
0.0
  0
LINE
  5
D9
330
1F
100
AcDbEntity
  8
0
  6
SLD-Сплошная
 62
     7
370
    25
100
AcDbLine
 10
155.5111276706
 20
136.6310409709
 30
0.0
 11
157.8591976706
 21
136.6310409709
 31
0.0
  0
LINE
  5
DA
330
1F
100
AcDbEntity
  8
0
  6
SLD-Сплошная
 62
     7
370
    25
100
AcDbLine
 10
157.8591976706
 20
139.2174614364
 30
0.0
 11
157.8591976706
 21
136.6310409709
 31
0.0
  0
SPLINE
  5
DB
330
1F
100
AcDbEntity
  8
0
  6
SLD-Сплошная
 62
     7
370
    25
100
AcDbSpline
210
0.0
220
0.0
230
1.0
 70
     8
 71
     3
 72
    32
 73
    28
 74
     0
 42
0.00000001
 43
0.00000001
 40
0.0
 40
0.0
 40
0.0
 40
0.0
 40
0.0625000000000001
 40
0.0625000000000001
 40
0.1250000000000001
 40
0.1250000000000001
 40
0.1875000000000002
 40
0.1875000000000002
 40
0.2500000000000002
 40
0.2500000000000002
 40
0.3750000000000002
 40
0.3750000000000002
 40
0.4375000000000002
 40
0.4375000000000002
 40
0.5000000000000002
 40
0.5000000000000002
 40
0.5625000000000001
 40
0.5625000000000001
 40
0.6250000000000001
 40
0.6250000000000001
 40
0.7500000000000007
 40
0.7500000000000007
 40
0.8125000000000004
 40
0.8125000000000004
 40
0.8750000000000003
 40
0.8750000000000003
 40
1.0
 40
1.0
 40
1.0
 40
1.0
 10
227.4667575165122
 20
147.6337803261334
 30
0.0
 10
227.8521396381357
 20
147.6735816331364
 30
0.0
 10
228.2354719200362
 20
147.685892841424
 30
0.0
 10
228.9994833656575
 20
147.6757540904635
 30
0.0
 10
229.3801222519592
 20
147.6527497559911
 30
0.0
 10
230.1385721976547
 20
147.570087805258
 30
0.0
 10
230.5162802699486
 20
147.5089246184245
 30
0.0
 10
231.2682591645256
 20
147.3431263362075
 30
0.0
 10
231.6406838765179
 20
147.2388068402789
 30
0.0
 10
232.7255104271705
 20
146.8681451694233
 30
0.0
 10
233.416151233765
 20
146.5474998625766
 30
0.0
 10
234.4046749062413
 20
145.9645892961803
 30
0.0
 10
234.7266292080722
 20
145.7519126778847
 30
0.0
 10
235.3381036232272
 20
145.2995278908118
 30
0.0
 10
235.6293650601278
 20
145.0586773985903
 30
0.0
 10
236.181635648785
 20
144.5470863774426
 30
0.0
 10
236.4428382693576
 20
144.2765616579153
 30
0.0
 10
236.9369182887334
 20
143.7086750727061
 30
0.0
 10
237.1711917609386
 20
143.4095274094699
 30
0.0
 10
237.8182687195727
 20
142.4880550316994
 30
0.0
 10
238.1759613835168
 20
141.8428914253448
 30
0.0
 10
238.6036093511438
 20
140.8344696551879
 30
0.0
 10
238.7289521895251
 20
140.4904260804759
 30
0.0
 10
238.9450574435576
 20
139.7982799874929
 30
0.0
 10
239.0355472511775
 20
139.4522895457294
 30
0.0
 10
239.2569395404224
 20
138.4155848317601
 30
0.0
 10
239.3383599743248
 20
137.7262079049264
 30
0.0
 10
239.3383599743248
 20
137.0367662529665
 30
0.0
  0
SPLINE
  5
DC
330
1F
100
AcDbEntity
  8
0
  6
SLD-Сплошная
 62
     7
370
    25
100
AcDbSpline
210
0.0
220
0.0
230
1.0
 70
     8
 71
     3
 72
    17
 73
    13
 74
     0
 42
0.00000001
 43
0.00000001
 40
0.0
 40
0.0
 40
0.0
 40
0.0
 40
0.0660809817922269
 40
0.1672370935968952
 40
0.2712218368087519
 40
0.375296274121741
 40
0.4821393863008716
 40
0.5908697883306548
 40
0.7023190215685587
 40
0.8186975665670425
 40
0.938580646756317
 40
1.0
 40
1.0
 40
1.0
 40
1.0
 10
243.7412898633591
 20
140.3740662463877
 30
0.0
 10
243.6455799947514
 20
140.8376474115736
 30
0.0
 10
243.403358408141
 20
142.0108740285103
 30
0.0
 10
242.6177459269349
 20
143.8824328317804
 30
0.0
 10
241.4393353427664
 20
145.896411834302
 30
0.0
 10
239.923300737148
 20
147.7672610651809
 30
0.0
 10
238.0931496396548
 20
149.4024863797071
 30
0.0
 10
235.9729178436936
 20
150.7520741646443
 30
0.0
 10
233.6050216614356
 20
151.795543992129
 30
0.0
 10
231.0161400822569
 20
152.4393602251539
 30
0.0
 10
228.742757537479
 20
152.6279848950871
 30
0.0
 10
227.3694531598308
 20
152.5336194267056
 30
0.0
 10
226.9042224120424
 20
152.5016514827196
 30
0.0
  0
LINE
  5
DD
330
1F
100
AcDbEntity
  8
0
  6
SLD-Сплошная
 62
     7
370
    25
100
AcDbLine
 10
244.0891970423
 20
137.3161984592
 30
0.0
 11
244.1159321466
 21
137.4872844254
 31
0.0
  0
SPLINE
  5
DE
330
1F
100
AcDbEntity
  8
0
  6
SLD-Сплошная
 62
     7
370
    25
100
AcDbSpline
210
0.0
220
0.0
230
1.0
 70
     8
 71
     3
 72
    22
 73
    18
 74
     0
 42
0.00000001
 43
0.00000001
 40
0.0
 40
0.0
 40
0.0
 40
0.0
 40
0.125
 40
0.125
 40
0.25
 40
0.25
 40
0.375
 40
0.375
 40
0.5
 40
0.5
 40
0.625
 40
0.625
 40
0.75
 40
0.75
 40
0.875
 40
0.875
 40
1.0
 40
1.0
 40
1.0
 40
1.0
 10
204.2396761733492
 20
134.2244187380042
 30
0.0
 10
204.1138270483391
 20
134.1429635072456
 30
0.0
 10
203.9514711205768
 20
134.0723753937157
 30
0.0
 10
203.5488971706841
 20
133.9699575404528
 30
0.0
 10
203.308454892837
 20
133.938387806854
 30
0.0
 10
202.7634608490321
 20
133.9279984501559
 30
0.0
 10
202.4590818192762
 20
133.9493936346807
 30
0.0
 10
201.8210316135939
 20
134.0476971236594
 30
0.0
 10
201.4879288342635
 20
134.1245597947063
 30
0.0
 10
200.8366836596763
 20
134.3220892512707
 30
0.0
 10
200.5190664303504
 20
134.4424700562044
 30
0.0
 10
199.9341786113926
 20
134.7062213327761
 30
0.0
 10
199.66702656923
 20
134.8493137971111
 30
0.0
 10
199.1989348508317
 20
135.1380305078028
 30
0.0
 10
198.997787460596
 20
135.2835492323498
 30
0.0
 10
198.6600383592062
 20
135.5632021210506
 30
0.0
 10
198.523169539694
 20
135.6973720606059
 30
0.0
 10
198.4130298346961
 20
135.8225644237266
 30
0.0
  0
SPLINE
  5
DF
330
1F
100
AcDbEntity
  8
0
  6
SLD-Сплошная
 62
     7
370
    25
100
AcDbSpline
210
0.0
220
0.0
230
1.0
 70
     8
 71
     3
 72
     8
 73
     4
 74
     0
 42
0.00000001
 43
0.00000001
 40
0.0
 40
0.0
 40
0.0
 40
0.0
 40
1.0
 40
1.0
 40
1.0
 40
1.0
 10
198.4130298346961
 20
135.8225644237266
 30
0.0
 10
198.6962122717115
 20
136.6556425496263
 30
0.0
 10
198.9864058111572
 20
137.5082478801995
 30
0.0
 10
199.2824505987123
 20
138.3761597214394
 30
0.0
  0
SPLINE
  5
E0
330
1F
100
AcDbEntity
  8
0
  6
SLD-Сплошная
 62
     7
370
    25
100
AcDbSpline
210
0.0
220
0.0
230
1.0
 70
     8
 71
     3
 72
     8
 73
     4
 74
     0
 42
0.00000001
 43
0.00000001
 40
0.0
 40
0.0
 40
0.0
 40
0.0
 40
1.0
 40
1.0
 40
1.0
 40
1.0
 10
205.0779902448935
 20
136.6168144690592
 30
0.0
 10
204.7924105465795
 20
135.801065084153
 30
0.0
 10
204.5125617650927
 20
135.0023216928496
 30
0.0
 10
204.2396761733538
 20
134.2244187380072
 30
0.0
  0
SPLINE
  5
E1
330
1F
100
AcDbEntity
  8
0
  6
SLD-Сплошная
 62
     7
370
    25
100
AcDbSpline
210
0.0
220
0.0
230
1.0
 70
     8
 71
     3
 72
    12
 73
     8
 74
     0
 42
0.00000001
 43
0.00000001
 40
0.0
 40
0.0
 40
0.0
 40
0.0
 40
0.25
 40
0.25
 40
0.5
 40
0.5
 40
1.0
 40
1.0
 40
1.0
 40
1.0
 10
201.6159321465987
 20
126.8332093123447
 30
0.0
 10
201.8010306744712
 20
127.3503411938975
 30
0.0
 10
201.9954713735187
 20
127.8951178785696
 30
0.0
 10
202.3990775869526
 20
129.0394333999299
 30
0.0
 10
202.6074727401915
 20
129.6397734148758
 30
0.0
 10
203.2470121167582
 20
131.501084166432
 30
0.0
 10
203.7000449315472
 20
132.8277028414633
 30
0.0
 10
204.2396761733537
 20
134.2244187380071
 30
0.0
  0
SPLINE
  5
E2
330
1F
100
AcDbEntity
  8
0
  6
SLD-Сплошная
 62
     7
370
    25
100
AcDbSpline
210
0.0
220
0.0
230
1.0
 70
     8
 71
     3
 72
    20
 73
    16
 74
     0
 42
0.00000001
 43
0.00000001
 40
0.0
 40
0.0
 40
0.0
 40
0.0
 40
0.2499999999999995
 40
0.2499999999999995
 40
0.3749999999999996
 40
0.3749999999999996
 40
0.4999999999999997
 40
0.4999999999999997
 40
0.6249999999999998
 40
0.6249999999999998
 40
0.7499999999999998
 40
0.7499999999999998
 40
0.8749999999999999
 40
0.8749999999999999
 40
1.0
 40
1.0
 40
1.0
 40
1.0
 10
205.0779902448934
 20
136.6168144690591
 30
0.0
 10
205.0046316962699
 20
136.9830561221358
 30
0.0
 10
204.8600903934423
 20
137.3380319331461
 30
0.0
 10
204.5502935691133
 20
137.8223122610464
 30
0.0
 10
204.4329339583967
 20
137.9739790795911
 30
0.0
 10
204.170690946489
 20
138.2578458625139
 30
0.0
 10
204.0242329190254
 20
138.3911651055218
 30
0.0
 10
203.7103267767211
 20
138.6304708806753
 30
0.0
 10
203.5437591925472
 20
138.7362791586526
 30
0.0
 10
203.1917455413104
 20
138.9203073638627
 30
0.0
 10
203.0043195225362
 20
138.9990605744308
 30
0.0
 10
202.621099298317
 20
139.12316792801
 30
0.0
 10
202.4254056320378
 20
139.1689545180025
 30
0.0
 10
202.0259599447303
 20
139.2281755158699
 30
0.0
 10
201.8209827948782
 20
139.2415017055313
 30
0.0
 10
201.6159321465987
 20
139.2375509600637
 30
0.0
  0
LINE
  5
E3
330
1F
100
AcDbEntity
  8
0
  6
SLD-Сплошная
 62
     7
370
    25
100
AcDbLine
 10
239.3383599743
 20
125.4136194216
 30
0.0
 11
239.3383599743
 21
137.036766253
 31
0.0
  0
SPLINE
  5
E4
330
1F
100
AcDbEntity
  8
0
  6
SLD-Сплошная
 62
     7
370
    25
100
AcDbSpline
210
0.0
220
0.0
230
1.0
 70
     8
 71
     3
 72
    26
 73
    22
 74
     0
 42
0.00000001
 43
0.00000001
 40
0.0
 40
0.0
 40
0.0
 40
0.0
 40
0.1250000000000001
 40
0.1250000000000001
 40
0.2500000000000002
 40
0.2500000000000002
 40
0.3750000000000001
 40
0.3750000000000001
 40
0.5
 40
0.5
 40
0.5625
 40
0.5625
 40
0.625
 40
0.625
 40
0.75
 40
0.75
 40
0.8125
 40
0.8125
 40
0.8750000000000001
 40
0.8750000000000001
 40
1.0
 40
1.0
 40
1.0
 40
1.0
 10
221.6890561179892
 20
122.7050712804341
 30
0.0
 10
221.6896071020577
 20
122.7051357941165
 30
0.0
 10
221.7204330758378
 20
122.7906965058582
 30
0.0
 10
221.8403985542808
 20
123.125872947259
 30
0.0
 10
221.9296203976018
 20
123.3755133342045
 30
0.0
 10
222.1688265493677
 20
124.0428960554186
 30
0.0
 10
222.3163250467605
 20
124.4542128950221
 30
0.0
 10
222.6616671399372
 20
125.4196805509914
 30
0.0
 10
222.8597708299984
 20
125.9745367299297
 30
0.0
 10
223.1953308889661
 20
126.9159465055856
 30
0.0
 10
223.3130711224284
 20
127.2466363369087
 30
0.0
 10
223.5576460971785
 20
127.9343272634559
 30
0.0
 10
223.6848155675804
 20
128.2922646638243
 30
0.0
 10
224.0806135927847
 20
129.4072901666825
 30
0.0
 10
224.3634606963372
 20
130.205389018558
 30
0.0
 10
224.8162228775643
 20
131.484270430219
 30
0.0
 10
224.9724509007492
 20
131.925730696947
 30
0.0
 10
225.291352015786
 20
132.8274594756469
 30
0.0
 10
225.4540179375052
 20
133.2877297107663
 30
0.0
 10
225.9511749698191
 20
134.6961965997092
 30
0.0
 10
226.2947898126372
 20
135.671908449099
 30
0.0
 10
226.6496872509934
 20
136.6846238982687
 30
0.0
  0
SPLINE
  5
E5
330
1F
100
AcDbEntity
  8
0
  6
SLD-Сплошная
 62
     7
370
    25
100
AcDbSpline
210
0.0
220
0.0
230
1.0
 70
     8
 71
     3
 72
    26
 73
    22
 74
     0
 42
0.00000001
 43
0.00000001
 40
0.0
 40
0.0
 40
0.0
 40
0.0
 40
0.1250000000000022
 40
0.1250000000000022
 40
0.1875000000000033
 40
0.1875000000000033
 40
0.2500000000000044
 40
0.2500000000000044
 40
0.3750000000000036
 40
0.3750000000000036
 40
0.4375000000000032
 40
0.4375000000000032
 40
0.5000000000000028
 40
0.5000000000000028
 40
0.6250000000000021
 40
0.6250000000000021
 40
0.7500000000000013
 40
0.7500000000000013
 40
0.8750000000000007
 40
0.8750000000000007
 40
1.0
 40
1.0
 40
1.0
 40
1.0
 10
220.9950572782784
 20
138.1669909984807
 30
0.0
 10
221.2241512059455
 20
138.3614730124865
 30
0.0
 10
221.4772663192911
 20
138.5288819206182
 30
0.0
 10
221.8829528617161
 20
138.7324602254672
 30
0.0
 10
222.0234078710309
 20
138.7927126943002
 30
0.0
 10
222.307144297069
 20
138.8948774865848
 30
0.0
 10
222.4512122854175
 20
138.9372461919327
 30
0.0
 10
222.8899894469768
 20
139.038361046096
 30
0.0
 10
223.1948227170415
 20
139.0707596442039
 30
0.0
 10
223.6413350306416
 20
139.0635339142478
 30
0.0
 10
223.7891616396498
 20
139.0520973859487
 30
0.0
 10
224.0827611348631
 20
139.0110567181636
 30
0.0
 10
224.229573963167
 20
138.9811175226093
 30
0.0
 10
224.6565876153715
 20
138.8656127224465
 30
0.0
 10
224.9246422750585
 20
138.7552595255712
 30
0.0
 10
225.4269521644634
 20
138.4686121607832
 30
0.0
 10
225.6546307264475
 20
138.2952957780874
 30
0.0
 10
226.051291442784
 20
137.9010350774089
 30
0.0
 10
226.2226093227205
 20
137.6764994163183
 30
0.0
 10
226.4896598346174
 20
137.2025339549851
 30
0.0
 10
226.5891478827915
 20
136.948212722743
 30
0.0
 10
226.6496872509908
 20
136.6846238982695
 30
0.0
  0
SPLINE
  5
E6
330
1F
100
AcDbEntity
  8
0
  6
SLD-Сплошная
 62
     7
370
    25
100
AcDbSpline
210
0.0
220
0.0
230
1.0
 70
     8
 71
     3
 72
    28
 73
    24
 74
     0
 42
0.00000001
 43
0.00000001
 40
0.0
 40
0.0
 40
0.0
 40
0.0
 40
0.1249999999999993
 40
0.1249999999999993
 40
0.1874999999999991
 40
0.1874999999999991
 40
0.2499999999999988
 40
0.2499999999999988
 40
0.3749999999999987
 40
0.3749999999999987
 40
0.4374999999999987
 40
0.4374999999999987
 40
0.4999999999999988
 40
0.4999999999999988
 40
0.624999999999999
 40
0.624999999999999
 40
0.6874999999999992
 40
0.6874999999999992
 40
0.7499999999999993
 40
0.7499999999999993
 40
0.8749999999999997
 40
0.8749999999999997
 40
1.0
 40
1.0
 40
1.0
 40
1.0
 10
220.9950572782757
 20
138.1669909984812
 30
0.0
 10
220.618912110855
 20
137.0168682533337
 30
0.0
 10
220.2550363800741
 20
135.9066944912366
 30
0.0
 10
219.7273944027112
 20
134.30058363064
 30
0.0
 10
219.5545850520987
 20
133.775106584337
 30
0.0
 10
219.2155451710402
 20
132.7442624654859
 30
0.0
 10
219.0488010327954
 20
132.2372048740375
 30
0.0
 10
218.5639102734744
 20
130.7616810932645
 30
0.0
 10
218.2611005437277
 20
129.8393936637527
 30
0.0
 10
217.8374180173677
 20
128.5482832570691
 30
0.0
 10
217.7013077256085
 20
128.1333638729639
 30
0.0
 10
217.4396331407317
 20
127.3352843738207
 30
0.0
 10
217.31399488863
 20
126.9517816288317
 30
0.0
 10
216.9591772958188
 20
125.8681803487211
 30
0.0
 10
216.7487762839866
 20
125.2279100632024
 30
0.0
 10
216.4740413409707
 20
124.3902001195228
 30
0.0
 10
216.389266528938
 20
124.1315021710399
 30
0.0
 10
216.2336975980837
 20
123.6562152075171
 30
0.0
 10
216.1627168967221
 20
123.4390042899079
 30
0.0
 10
215.9725300081988
 20
122.8575675001406
 30
0.0
 10
215.8776810771167
 20
122.5676530954263
 30
0.0
 10
215.753293144185
 20
122.1783880533066
 30
0.0
 10
215.7230082921913
 20
122.0789810865639
 30
0.0
 10
215.7185044276985
 20
122.0785630892925
 30
0.0
  0
SPLINE
  5
E7
330
1F
100
AcDbEntity
  8
0
  6
SLD-Сплошная
 62
     7
370
    25
100
AcDbSpline
210
0.0
220
0.0
230
1.0
 70
     8
 71
     3
 72
    14
 73
    10
 74
     0
 42
0.00000001
 43
0.00000001
 40
0.0
 40
0.0
 40
0.0
 40
0.0
 40
0.25
 40
0.25
 40
0.5
 40
0.5
 40
0.75
 40
0.75
 40
1.0
 40
1.0
 40
1.0
 40
1.0
 10
199.2824505987122
 20
138.3761597214394
 30
0.0
 10
199.4412970127915
 20
138.5119526776299
 30
0.0
 10
199.613343424155
 20
138.6342195268361
 30
0.0
 10
199.9759302540148
 20
138.8464802495772
 30
0.0
 10
200.168973212599
 20
138.9377873578558
 30
0.0
 10
200.5662112807653
 20
139.084552093851
 30
0.0
 10
200.7697528099789
 20
139.1401898049611
 30
0.0
 10
201.1865625048794
 20
139.2161668490437
 30
0.0
 10
201.4011380037513
 20
139.2363911952669
 30
0.0
 10
201.6159321465987
 20
139.2375509600636
 30
0.0
  0
SPLINE
  5
E8
330
1F
100
AcDbEntity
  8
0
  6
SLD-Сплошная
 62
     7
370
    25
100
AcDbSpline
210
0.0
220
0.0
230
1.0
 70
     8
 71
     3
 72
    28
 73
    24
 74
     0
 42
0.00000001
 43
0.00000001
 40
0.0
 40
0.0
 40
0.0
 40
0.0
 40
0.1249999999999997
 40
0.1249999999999997
 40
0.1874999999999996
 40
0.1874999999999996
 40
0.2499999999999994
 40
0.2499999999999994
 40
0.3749999999999994
 40
0.3749999999999994
 40
0.4999999999999994
 40
0.4999999999999994
 40
0.5624999999999994
 40
0.5624999999999994
 40
0.6249999999999996
 40
0.6249999999999996
 40
0.7499999999999997
 40
0.7499999999999997
 40
0.8124999999999997
 40
0.8124999999999997
 40
0.8749999999999998
 40
0.8749999999999998
 40
1.0
 40
1.0
 40
1.0
 40
1.0
 10
198.4130298346961
 20
135.8225644237266
 30
0.0
 10
198.1171319157601
 20
134.7401152591455
 30
0.0
 10
197.7830114432148
 20
133.7131620229064
 30
0.0
 10
197.2736110771839
 20
132.2405057813026
 30
0.0
 10
197.1030282366789
 20
131.7608603914405
 30
0.0
 10
196.7715351921348
 20
130.8218552593806
 30
0.0
 10
196.6111896782198
 20
130.3613932586488
 30
0.0
 10
196.1557738365034
 20
129.0166974382168
 30
0.0
 10
195.8838982376608
 20
128.1739199678163
 30
0.0
 10
195.3820910086747
 20
126.602835601875
 30
0.0
 10
195.1533567607032
 20
125.8812577368707
 30
0.0
 10
194.8373857855046
 20
124.9026946291754
 30
0.0
 10
194.7366674449675
 20
124.5931011835801
 30
0.0
 10
194.5461795348386
 20
124.0128715249602
 30
0.0
 10
194.4562476624372
 20
123.7417234220501
 30
0.0
 10
194.2022574354739
 20
122.9854720449868
 30
0.0
 10
194.0525946373801
 20
122.5572516489957
 30
0.0
 10
193.8844911609773
 20
122.0411023292781
 30
0.0
 10
193.8377866165043
 20
121.8896020661168
 30
0.0
 10
193.7684499315094
 20
121.6284040838976
 30
0.0
 10
193.7472475480955
 20
121.5196825821902
 30
0.0
 10
193.6981488998765
 20
121.2585208857833
 30
0.0
 10
193.6825378791482
 20
121.1708528069523
 30
0.0
 10
193.614265942638
 20
121.1708528069523
 30
0.0
  0
LINE
  5
E9
330
1F
100
AcDbEntity
  8
0
  6
SLD-Сплошная
 62
     7
370
    25
100
AcDbLine
 10
244.1159321466
 20
168.370852807
 30
0.0
 11
244.1159321466
 21
137.4872844254
 31
0.0
  0
ARC
  5
EA
330
1F
100
AcDbEntity
  8
0
  6
SLD-Сплошная
 62
     7
370
    25
100
AcDbCircle
 10
196.6159321466
 20
122.970852807
 30
0.0
 40
3.499999999999996
100
AcDbArc
 50
210.9497230789
 51
329.0502769211
  0
SPLINE
  5
EB
330
1F
100
AcDbEntity
  8
0
  6
SLD-Сплошная
 62
     7
370
    25
100
AcDbSpline
210
0.0
220
0.0
230
1.0
 70
     8
 71
     3
 72
    18
 73
    14
 74
     0
 42
0.00000001
 43
0.00000001
 40
0.0
 40
0.0
 40
0.0
 40
0.0
 40
0.2499999999999999
 40
0.2499999999999999
 40
0.3749999999999999
 40
0.3749999999999999
 40
0.4999999999999999
 40
0.4999999999999999
 40
0.7500000000000001
 40
0.7500000000000001
 40
0.875
 40
0.875
 40
1.0
 40
1.0
 40
1.0
 40
1.0
 10
199.6175983505594
 20
121.1708528069523
 30
0.0
 10
199.597599805135
 20
121.1708528069523
 30
0.0
 10
199.6525860142375
 20
121.2960108459682
 30
0.0
 10
199.7935093256676
 20
121.6649219060346
 30
0.0
 10
199.8493188494751
 20
121.8182853436201
 30
0.0
 10
199.9799923145123
 20
122.1867438320657
 30
0.0
 10
200.0548583963531
 20
122.4013163833331
 30
0.0
 10
200.3075907984145
 20
123.1264510136421
 30
0.0
 10
200.51526474457
 20
123.7202629262178
 30
0.0
 10
200.8868245044889
 20
124.774203666337
 30
0.0
 10
201.0208380716583
 20
125.1534053758612
 30
0.0
 10
201.3057087852602
 20
125.9575837443055
 30
0.0
 10
201.4568955477364
 20
126.3835147874414
 30
0.0
 10
201.6159321465987
 20
126.8332093123447
 30
0.0
  0
LINE
  5
EC
330
1F
100
AcDbEntity
  8
0
  6
SLD-Сплошная
 62
     7
370
    25
100
AcDbLine
 10
253.6653767967
 20
172.6785782873
 30
0.0
 11
253.6653767967
 21
172.7710181107
 31
0.0
  0
LINE
  5
ED
330
1F
100
AcDbEntity
  8
0
  6
SLD-Сплошная
 62
     7
370
    25
100
AcDbLine
 10
253.6653767967
 20
161.8995220959
 30
0.0
 11
253.6653767967
 21
172.6785782873
 31
0.0
  0
LINE
  5
EE
330
1F
100
AcDbEntity
  8
0
  6
SLD-Сплошная
 62
     7
370
    25
100
AcDbLine
 10
253.6653767967
 20
158.1495220959
 30
0.0
 11
253.6653767967
 21
161.8995220959
 31
0.0
  0
LINE
  5
EF
330
1F
100
AcDbEntity
  8
0
  6
SLD-Сплошная
 62
     7
370
    25
100
AcDbLine
 10
253.6653767967
 20
147.3704659046
 30
0.0
 11
253.6653767967
 21
158.1495220959
 31
0.0
  0
LINE
  5
F0
330
1F
100
AcDbEntity
  8
0
  6
SLD-Сплошная
 62
     7
370
    25
100
AcDbLine
 10
251.6653767967
 20
147.3704659046
 30
0.0
 11
251.6653767967
 21
172.7710181107
 31
0.0
  0
LINE
  5
F1
330
1F
100
AcDbEntity
  8
0
  6
SLD-Сплошная
 62
     7
370
    25
100
AcDbLine
 10
253.6653767967
 20
132.8414097132
 30
0.0
 11
253.6653767967
 21
136.5914097132
 31
0.0
  0
LINE
  5
F2
330
1F
100
AcDbEntity
  8
0
  6
SLD-Сплошная
 62
     7
370
    25
100
AcDbLine
 10
253.6653767967
 20
122.0623535219
 30
0.0
 11
253.6653767967
 21
132.8414097132
 31
0.0
  0
LINE
  5
F3
330
1F
100
AcDbEntity
  8
0
  6
SLD-Сплошная
 62
     7
370
    25
100
AcDbLine
 10
253.6653767967
 20
121.9699136984
 30
0.0
 11
253.6653767967
 21
122.0623535219
 31
0.0
  0
LINE
  5
F4
330
1F
100
AcDbEntity
  8
0
  6
SLD-Сплошная
 62
     7
370
    25
100
AcDbLine
 10
251.6653767967
 20
121.9699136984
 30
0.0
 11
251.6653767967
 21
147.3704659046
 31
0.0
  0
LINE
  5
F5
330
1F
100
AcDbEntity
  8
0
  6
SLD-Сплошная
 62
     7
370
    25
100
AcDbLine
 10
253.6653767967
 20
136.5914097132
 30
0.0
 11
253.6653767967
 21
147.3704659046
 31
0.0
  0
ARC
  5
F6
330
1F
100
AcDbEntity
  8
0
  6
SLD-Сплошная
 62
     7
370
    25
100
AcDbCircle
 10
218.5159321466
 20
124.1819884285
 30
0.0
 40
3.500000000000035
100
AcDbArc
 50
216.9400218043
 51
335.0405756466
  0
LINE
  5
F7
330
1F
100
AcDbEntity
  8
0
  6
SLD-Сплошная
 62
     7
370
    25
100
AcDbLine
 10
253.6653767967
 20
161.8995220959
 30
0.0
 11
262.6653767967
 21
161.8995220959
 31
0.0
  0
LINE
  5
F8
330
1F
100
AcDbEntity
  8
0
  6
SLD-Сплошная
 62
     7
370
    25
100
AcDbLine
 10
262.6653767967
 20
158.1495220959
 30
0.0
 11
262.6653767967
 21
161.8995220959
 31
0.0
  0
LINE
  5
F9
330
1F
100
AcDbEntity
  8
0
  6
SLD-Сплошная
 62
     7
370
    25
100
AcDbLine
 10
262.6653767967
 20
158.1495220959
 30
0.0
 11
253.6653767967
 21
158.1495220959
 31
0.0
  0
LINE
  5
FA
330
1F
100
AcDbEntity
  8
0
  6
SLD-Сплошная
 62
     7
370
    25
100
AcDbLine
 10
253.6653767967
 20
136.5914097132
 30
0.0
 11
262.6653767967
 21
136.5914097132
 31
0.0
  0
LINE
  5
FB
330
1F
100
AcDbEntity
  8
0
  6
SLD-Сплошная
 62
     7
370
    25
100
AcDbLine
 10
262.6653767967
 20
136.5914097132
 30
0.0
 11
262.6653767967
 21
158.1495220959
 31
0.0
  0
LINE
  5
FC
330
1F
100
AcDbEntity
  8
0
  6
SLD-Сплошная
 62
     7
370
    25
100
AcDbLine
 10
262.6653767967
 20
132.8414097132
 30
0.0
 11
253.6653767967
 21
132.8414097132
 31
0.0
  0
LINE
  5
FD
330
1F
100
AcDbEntity
  8
0
  6
SLD-Сплошная
 62
     7
370
    25
100
AcDbLine
 10
262.6653767967
 20
132.8414097132
 30
0.0
 11
262.6653767967
 21
136.5914097132
 31
0.0
  0
LINE
  5
FE
330
1F
100
AcDbEntity
  8
0
  6
SLD-Сплошная
 62
     7
370
    25
100
AcDbLine
 10
253.6653767967
 20
122.0623535219
 30
0.0
 11
262.6653767967
 21
122.0623535219
 31
0.0
  0
LINE
  5
FF
330
1F
100
AcDbEntity
  8
0
  6
SLD-Сплошная
 62
     7
370
    25
100
AcDbLine
 10
262.6653767967
 20
122.0623535219
 30
0.0
 11
262.6653767967
 21
132.8414097132
 31
0.0
  0
LINE
  5
100
330
1F
100
AcDbEntity
  8
0
  6
SLD-Сплошная
 62
     7
370
    25
100
AcDbLine
 10
262.6653767967
 20
172.6785782873
 30
0.0
 11
253.6653767967
 21
172.6785782873
 31
0.0
  0
LINE
  5
101
330
1F
100
AcDbEntity
  8
0
  6
SLD-Сплошная
 62
     7
370
    25
100
AcDbLine
 10
262.6653767967
 20
161.8995220959
 30
0.0
 11
262.6653767967
 21
172.6785782873
 31
0.0
  0
LINE
  5
102
330
1F
100
AcDbEntity
  8
0
  6
SLD-Сплошная
 62
     7
370
    25
100
AcDbLine
 10
244.1159321466
 20
137.4872844254
 30
0.0
 11
244.1159321466
 21
126.370852807
 31
0.0
  0
LINE
  5
103
330
1F
100
AcDbEntity
  8
0
  6
SLD-Сплошная
 62
     7
370
    25
100
AcDbLine
 10
274.6749957399
 20
144.3003818105
 30
0.0
 11
281.5173943282
 21
144.3003818105
 31
0.0
  0
LINE
  5
104
330
1F
100
AcDbEntity
  8
0
  6
SLD-Сплошная
 62
     7
370
    25
100
AcDbLine
 10
274.6749957399
 20
150.4405499987
 30
0.0
 11
281.5173943282
 21
150.4405499987
 31
0.0
  0
LINE
  5
105
330
1F
100
AcDbEntity
  8
0
  6
SLD-Сплошная
 62
     7
370
    25
100
AcDbLine
 10
274.6749957399
 20
150.4405499987
 30
0.0
 11
262.6653767967
 21
150.4405499987
 31
0.0
  0
LINE
  5
106
330
1F
100
AcDbEntity
  8
0
  6
SLD-Сплошная
 62
     7
370
    25
100
AcDbLine
 10
274.6749957399
 20
144.3003818105
 30
0.0
 11
262.6653767967
 21
144.3003818105
 31
0.0
  0
ARC
  5
107
330
1F
100
AcDbEntity
  8
0
  6
SLD-Сплошная
 62
     7
370
    25
100
AcDbCircle
 10
274.6749957399
 20
147.3704659046
 30
0.0
 40
15.00000000000006
100
AcDbArc
 50
309.5869195216
 51
330.0
  0
LINE
  5
108
330
1F
100
AcDbEntity
  8
0
  6
SLD-Сплошная
 62
     7
370
    25
100
AcDbLine
 10
284.2337167442
 20
135.8105847304
 30
0.0
 11
281.5173943282
 21
134.3798475508
 31
0.0
  0
ARC
  5
109
330
1F
100
AcDbEntity
  8
0
  6
SLD-Сплошная
 62
     7
370
    25
100
AcDbCircle
 10
274.6749957399
 20
147.3704659046
 30
0.0
 40
14.68245836551859
100
AcDbArc
 50
270.0
 51
297.7766046258
  0
ARC
  5
10A
330
1F
100
AcDbEntity
  8
0
  6
SLD-Сплошная
 62
     7
370
    25
100
AcDbCircle
 10
281.2141708373
 20
147.3704659046
 30
0.0
 40
3.085022014554614
100
AcDbArc
 50
275.6406475516
 51
84.3593524483
  0
ARC
  5
10B
330
1F
100
AcDbEntity
  8
0
  6
SLD-Сплошная
 62
     7
370
    25
100
AcDbCircle
 10
274.6749957399
 20
147.3704659046
 30
0.0
 40
14.68245836551853
100
AcDbArc
 50
62.2233953742
 51
90.0
  0
LINE
  5
10C
330
1F
100
AcDbEntity
  8
0
  6
SLD-Сплошная
 62
     7
370
    25
100
AcDbLine
 10
281.5173943282
 20
160.3610842584
 30
0.0
 11
284.2337167442
 21
158.9303470787
 31
0.0
  0
ARC
  5
10D
330
1F
100
AcDbEntity
  8
0
  6
SLD-Сплошная
 62
     7
370
    25
100
AcDbCircle
 10
274.6749957399
 20
147.3704659046
 30
0.0
 40
15.00000000000008
100
AcDbArc
 50
30.0
 51
50.4130804784
  0
LINE
  5
10E
330
1F
100
AcDbEntity
  8
0
  6
SLD-Сплошная
 62
     7
370
    25
100
AcDbLine
 10
287.6653767967
 20
147.3704659046
 30
0.0
 11
287.6653767967
 21
154.8704659046
 31
0.0
  0
LINE
  5
10F
330
1F
100
AcDbEntity
  8
0
  6
SLD-Сплошная
 62
     7
370
    25
100
AcDbLine
 10
287.6653767967
 20
139.8704659046
 30
0.0
 11
287.6653767967
 21
147.3704659046
 31
0.0
  0
LINE
  5
110
330
1F
100
AcDbEntity
  8
0
  6
SLD-Сплошная
 62
     7
370
    25
100
AcDbLine
 10
274.6749957399
 20
162.0529242701
 30
0.0
 11
262.6653767967
 21
162.0529242701
 31
0.0
  0
LINE
  5
111
330
1F
100
AcDbEntity
  8
0
  6
SLD-Сплошная
 62
     7
370
    25
100
AcDbLine
 10
274.6749957399
 20
132.6880075391
 30
0.0
 11
262.6653767967
 21
132.6880075391
 31
0.0
  0
CIRCLE
  5
112
330
1F
100
AcDbEntity
  8
0
  6
SLD-Сплошная
 62
     7
370
    25
100
AcDbCircle
 10
151.6159321466
 20
184.270852807
 30
0.0
 40
2.099999999999994
  0
LINE
  5
113
330
1F
100
AcDbEntity
  8
0
  6
SLD-Сплошная
 62
     7
370
    25
100
AcDbLine
 10
146.6159321466
 20
172.8296430374
 30
0.0
 11
146.6159321466
 21
184.270852807
 31
0.0
  0
ARC
  5
114
330
1F
100
AcDbEntity
  8
0
  6
SLD-Сплошная
 62
     7
370
    25
100
AcDbCircle
 10
151.6159321466
 20
184.270852807
 30
0.0
 40
5.0
100
AcDbArc
 50
57.5
 51
180.0
  0
LINE
  5
115
330
1F
100
AcDbEntity
  8
0
  6
SLD-Сплошная
 62
     7
370
    25
100
AcDbLine
 10
154.3024301883
 20
188.487810036
 30
0.0
 11
178.8808290901
 21
172.8296430374
 31
0.0
  0
LINE
  5
116
330
1F
100
AcDbEntity
  8
0
  6
SLD-Сплошная
 62
     7
370
    25
100
AcDbLine
 10
181.6159321466
 20
114.945852807
 30
0.0
 11
181.6159321466
 21
118.8542230134
 31
0.0
  0
LINE
  5
117
330
1F
100
AcDbEntity
  8
0
  6
SLD-Сплошная
 62
     7
370
    25
100
AcDbLine
 10
60.3598265802
 20
146.2879778538
 30
0.0
 11
60.3598265802
 21
145.420852807
 31
0.0
  0
LINE
  5
118
330
1F
100
AcDbEntity
  8
0
  6
SLD-Сплошная
 62
     7
370
    25
100
AcDbLine
 10
66.3598265802
 20
145.420852807
 30
0.0
 11
66.3598265802
 21
146.2879778538
 31
0.0
  0
SPLINE
  5
119
330
1F
100
AcDbEntity
  8
0
  6
SLD-Сплошная
 62
     7
370
    25
100
AcDbSpline
210
0.0
220
0.0
230
1.0
 70
     8
 71
     3
 72
    12
 73
     8
 74
     0
 42
0.00000001
 43
0.00000001
 40
0.0
 40
0.0
 40
0.0
 40
0.0
 40
0.1670469230156161
 40
0.3566992833382572
 40
0.5674448845131794
 40
0.797691018818062
 40
0.9999999999999999
 40
0.9999999999999999
 40
0.9999999999999999
 40
0.9999999999999999
 10
91.45054838523868
 20
148.3270409509938
 30
0.0
 10
91.35113303022024
 20
148.5625904144486
 30
0.0
 10
91.13884904888299
 20
149.0655648080396
 30
0.0
 10
90.66179623744452
 20
149.8002083659148
 30
0.0
 10
90.00609411599626
 20
150.5705145614961
 30
0.0
 10
89.2075143166643
 20
151.3113128516512
 30
0.0
 10
88.54574857174406
 20
151.7704110774894
 30
0.0
 10
88.23623621402926
 20
151.9851344526302
 30
0.0
  0
SPLINE
  5
11A
330
1F
100
AcDbEntity
  8
0
  6
SLD-Сплошная
 62
     7
370
    25
100
AcDbSpline
210
0.0
220
0.0
230
1.0
 70
     8
 71
     3
 72
    12
 73
     8
 74
     0
 42
0.00000001
 43
0.00000001
 40
0.0
 40
0.0
 40
0.0
 40
0.0
 40
0.0991458197260572
 40
0.2910951839883069
 40
0.5059095316183712
 40
0.7432451182476973
 40
1.0
 40
1.0
 40
1.0
 40
1.0
 10
38.37152481761737
 20
151.912143327028
 30
0.0
 10
38.21907666710838
 20
151.8080031311511
 30
0.0
 10
37.77148419630416
 20
151.5022443047765
 30
0.0
 10
37.09665397260235
 20
150.9339652926081
 30
0.0
 10
36.35421475565676
 20
150.1771439648329
 30
0.0
 10
35.70029696557376
 20
149.3030342612878
 30
0.0
 10
35.41655284801521
 20
148.6607861715388
 30
0.0
 10
35.26910477521535
 20
148.3270409509939
 30
0.0
  0
SPLINE
  5
11B
330
1F
100
AcDbEntity
  8
0
  6
SLD-Сплошная
 62
     7
370
    25
100
AcDbSpline
210
0.0
220
0.0
230
1.0
 70
     8
 71
     3
 72
    23
 73
    19
 74
     0
 42
0.00000001
 43
0.00000001
 40
0.0
 40
0.0
 40
0.0
 40
0.0
 40
0.0834449480980507
 40
0.1561468206586453
 40
0.2187733271135017
 40
0.2846520471297243
 40
0.3333873886646004
 40
0.3665366991877519
 40
0.3982408532215557
 40
0.4321544120407795
 40
0.4683172855200619
 40
0.5068107984369902
 40
0.5711677437226174
 40
0.6408955331810421
 40
0.7164684152379379
 40
0.8010731147006721
 40
0.8955044581661605
 40
0.9999999999999999
 40
0.9999999999999999
 40
0.9999999999999999
 40
0.9999999999999999
 10
63.359826580227
 20
120.6819886745925
 30
0.0
 10
64.22644730931057
 20
120.7086890076594
 30
0.0
 10
65.84811614184754
 20
120.7586521535891
 30
0.0
 10
68.097335560517
 20
121.0940534180318
 30
0.0
 10
70.12978556446392
 20
121.5596811918684
 30
0.0
 10
71.87905198613183
 20
122.1097623241976
 30
0.0
 10
73.29815432477277
 20
122.6654535655525
 30
0.0
 10
74.36487542532603
 20
123.1453421913855
 30
0.0
 10
75.27435302571078
 20
123.5978900885581
 30
0.0
 10
76.19115174630444
 20
124.1000247222027
 30
0.0
 10
77.14425882085192
 20
124.6752177764031
 30
0.0
 10
78.32858595303259
 20
125.4632743908361
 30
0.0
 10
79.73302454705474
 20
126.5275669732978
 30
0.0
 10
81.32417712074944
 20
127.9469664272626
 30
0.0
 10
82.92282126904554
 20
129.6399262863424
 30
0.0
 10
84.4966908148591
 20
131.6686553417115
 30
0.0
 10
86.0154148731195
 20
134.0831788053625
 30
0.0
 10
86.82085113549628
 20
135.8994187821636
 30
0.0
 10
87.24394376333812
 20
136.8534827850787
 30
0.0
  0
SPLINE
  5
11C
330
1F
100
AcDbEntity
  8
0
  6
SLD-Сплошная
 62
     7
370
    25
100
AcDbSpline
210
0.0
220
0.0
230
1.0
 70
     8
 71
     3
 72
    20
 73
    16
 74
     0
 42
0.00000001
 43
0.00000001
 40
0.0
 40
0.0
 40
0.0
 40
0.0
 40
0.1045063671948504
 40
0.19894749340672
 40
0.283560957610981
 40
0.3946395890239146
 40
0.4931634065274709
 40
0.552026711158587
 40
0.6053633042929153
 40
0.6541241084977278
 40
0.7060135997283551
 40
0.7812040087593598
 40
0.8438370030942666
 40
0.9165464073064781
 40
0.9999999999999999
 40
0.9999999999999999
 40
0.9999999999999999
 40
0.9999999999999999
 10
39.47570939711589
 20
136.8534827850787
 30
0.0
 10
39.89880030982965
 20
135.8994276612474
 30
0.0
 10
40.70423330713807
 20
134.0832045874496
 30
0.0
 10
42.22297928936765
 20
131.6685676251263
 30
0.0
 10
44.01617644047588
 20
129.3574374130528
 30
0.0
 10
46.11248711724901
 20
127.2286068881045
 30
0.0
 10
48.26315354974055
 20
125.5279797909597
 30
0.0
 10
50.07437369265256
 20
124.3540044695154
 30
0.0
 10
51.51839575934547
 20
123.549178240322
 30
0.0
 10
52.94764172282643
 20
122.863782353565
 30
0.0
 10
54.62667162352962
 20
122.1806729026362
 30
0.0
 10
56.49594420363483
 20
121.5812395686454
 30
0.0
 10
58.6223008214316
 20
121.0940454396126
 30
0.0
 10
60.87154224088542
 20
120.7586546368574
 30
0.0
 10
62.49320766995716
 20
120.7086898725313
 30
0.0
 10
63.359826580227
 20
120.6819886745925
 30
0.0
  0
SPLINE
  5
11D
330
1F
100
AcDbEntity
  8
0
  6
SLD-Сплошная
 62
     7
370
    25
100
AcDbSpline
210
0.0
220
0.0
230
1.0
 70
     8
 71
     3
 72
    11
 73
     7
 74
     0
 42
0.00000001
 43
0.00000001
 40
0.0
 40
0.0
 40
0.0
 40
0.0
 40
0.23188979178118
 40
0.5630774707835047
 40
0.8790091749973368
 40
1.0
 40
1.0
 40
1.0
 40
1.0
 10
39.66583039167833
 20
138.5069250863288
 30
0.0
 10
39.58880159915584
 20
138.39221881262
 30
0.0
 10
39.40175939545248
 20
138.1136877139165
 30
0.0
 10
39.31920360968424
 20
137.5955394479164
 30
0.0
 10
39.36729752780728
 20
137.1534589394852
 30
0.0
 10
39.45201343239942
 20
136.9189999326971
 30
0.0
 10
39.47547261910198
 20
136.8540744899385
 30
0.0
  0
SPLINE
  5
11E
330
1F
100
AcDbEntity
  8
0
  6
SLD-Сплошная
 62
     7
370
    25
100
AcDbSpline
210
0.0
220
0.0
230
1.0
 70
     8
 71
     3
 72
    11
 73
     7
 74
     0
 42
0.00000001
 43
0.00000001
 40
0.0
 40
0.0
 40
0.0
 40
0.0
 40
0.2044602521244519
 40
0.5489505310083928
 40
0.8714562597832339
 40
1.0
 40
1.0
 40
1.0
 40
1.0
 10
87.24418054135202
 20
136.8540744899385
 30
0.0
 10
87.2793433159613
 20
136.9567148472711
 30
0.0
 10
87.37375102402639
 20
137.2322915330826
 30
0.0
 10
87.38863614412409
 20
137.7008207287985
 30
0.0
 10
87.30397135489015
 20
138.1344492431843
 30
0.0
 10
87.16225895292729
 20
138.3386746041428
 30
0.0
 10
87.12187260190431
 20
138.3968764058286
 30
0.0
  0
SPLINE
  5
11F
330
1F
100
AcDbEntity
  8
0
  6
SLD-Сплошная
 62
     7
370
    25
100
AcDbSpline
210
0.0
220
0.0
230
1.0
 70
     8
 71
     3
 72
    13
 73
     9
 74
     0
 42
0.00000001
 43
0.00000001
 40
0.0
 40
0.0
 40
0.0
 40
0.0
 40
0.1253787506554694
 40
0.3314150740408977
 40
0.5276567363979762
 40
0.7152770837954716
 40
0.8980806132456203
 40
0.9999999999999999
 40
0.9999999999999999
 40
0.9999999999999999
 40
0.9999999999999999
 10
89.20732655251773
 20
136.843992922434
 30
0.0
 10
89.24529490058883
 20
136.9566770776284
 30
0.0
 10
89.34565706579949
 20
137.2545363834657
 30
0.0
 10
89.36437585269918
 20
137.7645732803742
 30
0.0
 10
89.22332012200974
 20
138.3172089550208
 30
0.0
 10
88.92986560802822
 20
138.7868238862552
 30
0.0
 10
88.57476914263758
 20
139.0963443541168
 30
0.0
 10
88.32034748169559
 20
139.2110898547088
 30
0.0
 10
88.22927472925998
 20
139.2521641426834
 30
0.0
  0
SPLINE
  5
120
330
1F
100
AcDbEntity
  8
0
  6
SLD-Сплошная
 62
     7
370
    25
100
AcDbSpline
210
0.0
220
0.0
230
1.0
 70
     8
 71
     3
 72
    13
 73
     9
 74
     0
 42
0.00000001
 43
0.00000001
 40
0.0
 40
0.0
 40
0.0
 40
0.0
 40
0.094752538523547
 40
0.2851078905196456
 40
0.488304508822071
 40
0.7037058436591982
 40
0.9242012605326272
 40
1.0
 40
1.0
 40
1.0
 40
1.0
 10
38.49037843119402
 20
139.2521641426834
 30
0.0
 10
38.40566234909195
 20
139.2143072986914
 30
0.0
 10
38.15075389136019
 20
139.1003970531141
 30
0.0
 10
37.78118754856653
 20
138.7823825179971
 30
0.0
 10
37.47247563203092
 20
138.2726733612223
 30
0.0
 10
37.34273669122437
 20
137.6675040945426
 30
0.0
 10
37.39318649283528
 20
137.1752959628398
 30
0.0
 10
37.4880566725347
 20
136.9114823938197
 30
0.0
 10
37.51232660793628
 20
136.843992922434
 30
0.0
  0
LINE
  5
121
330
1F
100
AcDbEntity
  8
0
  6
SLD-Сплошная
 62
     7
370
    25
100
AcDbLine
 10
87.9827609145
 20
134.1852542811
 30
0.0
 11
89.2072317513
 21
136.8437549536
 31
0.0
  0
LINE
  5
122
330
1F
100
AcDbEntity
  8
0
  6
SLD-Сплошная
 62
     7
370
    25
100
AcDbLine
 10
37.5124214091
 20
136.8437549536
 30
0.0
 11
38.7368922459
 21
134.1852542811
 31
0.0
  0
SPLINE
  5
123
330
1F
100
AcDbEntity
  8
0
  6
SLD-Сплошная
 62
     7
370
    25
100
AcDbSpline
210
0.0
220
0.0
230
1.0
 70
     8
 71
     3
 72
    19
 73
    15
 74
     0
 42
0.00000001
 43
0.00000001
 40
0.0
 40
0.0
 40
0.0
 40
0.0
 40
0.1278736974216831
 40
0.2387647242040643
 40
0.3333956562797546
 40
0.4112860263515722
 40
0.4736660049085234
 40
0.5329096569251619
 40
0.5921729436137367
 40
0.6514103326737697
 40
0.7133296965268876
 40
0.7910637244403161
 40
0.8864141042777768
 40
1.0
 40
1.0
 40
1.0
 40
1.0
 10
63.359826580227
 20
119.4708530365166
 30
0.0
 10
64.66091594969478
 20
119.5428108893114
 30
0.0
 10
67.09029940172232
 20
119.6771700047768
 30
0.0
 10
70.43762864310557
 20
120.2946463118096
 30
0.0
 10
73.16783180371888
 20
121.2038636676558
 30
0.0
 10
75.34399309865056
 20
122.1525775015316
 30
0.0
 10
77.12422646090843
 20
123.0869601579261
 30
0.0
 10
78.67828010576666
 20
124.0311893136757
 30
0.0
 10
80.14305200221789
 20
125.0471469661578
 30
0.0
 10
81.55889502738655
 20
126.1668146863933
 30
0.0
 10
83.0276810693998
 20
127.5015453347639
 30
0.0
 10
84.6121343413789
 20
129.2136411286764
 30
0.0
 10
86.28643027215591
 20
131.4901846464054
 30
0.0
 10
87.37732814747754
 20
133.222201782952
 30
0.0
 10
87.97038271388999
 20
134.1637937460225
 30
0.0
  0
SPLINE
  5
124
330
1F
100
AcDbEntity
  8
0
  6
SLD-Сплошная
 62
     7
370
    25
100
AcDbSpline
210
0.0
220
0.0
230
1.0
 70
     8
 71
     3
 72
    19
 73
    15
 74
     0
 42
0.00000001
 43
0.00000001
 40
0.0
 40
0.0
 40
0.0
 40
0.0
 40
0.1135858957222248
 40
0.2089362755596849
 40
0.2866703034731131
 40
0.3485896673262313
 40
0.4078270563862641
 40
0.4670903430748386
 40
0.526333995091477
 40
0.5887139736484283
 40
0.6666043437202457
 40
0.7612352757959359
 40
0.872126302578317
 40
0.9999999999999999
 40
0.9999999999999999
 40
0.9999999999999999
 40
0.9999999999999999
 10
38.74927044656403
 20
134.1637937460225
 30
0.0
 10
39.34232501297648
 20
133.222201782952
 30
0.0
 10
40.43322288829812
 20
131.4901846464053
 30
0.0
 10
42.10751881907511
 20
129.2136411286764
 30
0.0
 10
43.69197209105422
 20
127.5015453347639
 30
0.0
 10
45.16075813306745
 20
126.1668146863933
 30
0.0
 10
46.57660115823613
 20
125.0471469661578
 30
0.0
 10
48.04137305468736
 20
124.0311893136757
 30
0.0
 10
49.5954266995456
 20
123.0869601579261
 30
0.0
 10
51.37566006180347
 20
122.1525775015317
 30
0.0
 10
53.55182135673513
 20
121.2038636676558
 30
0.0
 10
56.28202451734845
 20
120.2946463118096
 30
0.0
 10
59.6293537587317
 20
119.6771700047768
 30
0.0
 10
62.05873721075923
 20
119.5428108893114
 30
0.0
 10
63.359826580227
 20
119.4708530365166
 30
0.0
  0
LINE
  5
125
330
1F
100
AcDbEntity
  8
0
  6
SLD-Сплошная
 62
     7
370
    25
100
AcDbLine
 10
91.6077706584
 20
147.1987393893
 30
0.0
 11
91.6052843476
 21
147.492328546
 31
0.0
  0
LINE
  5
126
330
1F
100
AcDbEntity
  8
0
  6
SLD-Сплошная
 62
     7
370
    25
100
AcDbLine
 10
35.1143688129
 20
147.492328546
 30
0.0
 11
35.111882502
 21
147.1987393893
 31
0.0
  0
SPLINE
  5
127
330
1F
100
AcDbEntity
  8
0
  6
SLD-Сплошная
 62
     7
370
    25
100
AcDbSpline
210
0.0
220
0.0
230
1.0
 70
     8
 71
     3
 72
    11
 73
     7
 74
     0
 42
0.00000001
 43
0.00000001
 40
0.0
 40
0.0
 40
0.0
 40
0.0
 40
0.2238953964153862
 40
0.4910023596698808
 40
0.745392487867769
 40
1.0
 40
1.0
 40
1.0
 40
1.0
 10
35.10304523019413
 20
147.7506916851231
 30
0.0
 10
35.10155399596326
 20
147.629117444447
 30
0.0
 10
35.09828372092459
 20
147.3625052674987
 30
0.0
 10
35.10663494015829
 20
147.0504878804126
 30
0.0
 10
35.121182538524
 20
146.7821931183378
 30
0.0
 10
35.13776361781341
 20
146.7059681136647
 30
0.0
 10
35.1460576982017
 20
146.6678393341491
 30
0.0
  0
LINE
  5
128
330
1F
100
AcDbEntity
  8
0
  6
SLD-Сплошная
 62
     7
370
    25
100
AcDbLine
 10
35.1119150381
 20
147.2131631095
 30
0.0
 11
35.1070825426
 21
147.1274166908
 31
0.0
  0
SPLINE
  5
129
330
1F
100
AcDbEntity
  8
0
  6
SLD-Сплошная
 62
     7
370
    25
100
AcDbSpline
210
0.0
220
0.0
230
1.0
 70
     8
 71
     3
 72
    13
 73
     9
 74
     0
 42
0.00000001
 43
0.00000001
 40
0.0
 40
0.0
 40
0.0
 40
0.0
 40
0.16244390332082
 40
0.3198498555458541
 40
0.4689392612415492
 40
0.6074563217902904
 40
0.8480871891364172
 40
1.0
 40
1.0
 40
1.0
 40
1.0
 10
35.10778486545866
 20
147.00247835656
 30
0.0
 10
35.12745978640736
 20
146.8158749123585
 30
0.0
 10
35.16619944049514
 20
146.448455246541
 30
0.0
 10
35.37238797544952
 20
145.9431620488912
 30
0.0
 10
35.65693769232943
 20
145.5135692580651
 30
0.0
 10
36.09099240946933
 20
145.0862057547197
 30
0.0
 10
36.62970121454276
 20
144.7594615777487
 30
0.0
 10
37.07718750614716
 20
144.6850494520785
 30
0.0
 10
37.25036288548478
 20
144.6562522613443
 30
0.0
  0
SPLINE
  5
12A
330
1F
100
AcDbEntity
  8
0
  6
SLD-Сплошная
 62
     7
370
    25
100
AcDbSpline
210
0.0
220
0.0
230
1.0
 70
     8
 71
     3
 72
    13
 73
     9
 74
     0
 42
0.00000001
 43
0.00000001
 40
0.0
 40
0.0
 40
0.0
 40
0.0
 40
0.150679282814005
 40
0.3917559182054814
 40
0.5304869076136434
 40
0.6797796579559227
 40
0.8373765793191152
 40
1.0
 40
1.0
 40
1.0
 40
1.0
 10
89.4719414711816
 20
144.6577784538635
 30
0.0
 10
89.64348280145339
 20
144.6862117946448
 30
0.0
 10
90.08947862845618
 20
144.7601365526965
 30
0.0
 10
90.62724080943377
 20
145.0861283263715
 30
0.0
 10
91.06187351585265
 20
145.5135438171182
 30
0.0
 10
91.34678619689338
 20
145.9432753033142
 30
0.0
 10
91.55326701332388
 20
146.4487563447312
 30
0.0
 10
91.59209964213561
 20
146.8163549393799
 30
0.0
 10
91.61182073446562
 20
147.0030393346237
 30
0.0
  0
SPLINE
  5
12B
330
1F
100
AcDbEntity
  8
0
  6
SLD-Сплошная
 62
     7
370
    25
100
AcDbSpline
210
0.0
220
0.0
230
1.0
 70
     8
 71
     3
 72
     9
 73
     5
 74
     0
 42
0.00000001
 43
0.00000001
 40
0.0
 40
0.0
 40
0.0
 40
0.0
 40
0.5038018073210334
 40
1.0
 40
1.0
 40
1.0
 40
1.0
 10
91.57454062003879
 20
146.6712507713779
 30
0.0
 10
91.58988053983728
 20
146.7699608116271
 30
0.0
 10
91.62032886212508
 20
146.9658911136125
 30
0.0
 10
91.61784194231907
 20
147.4904207396904
 30
0.0
 10
91.61660793720601
 20
147.7506913921569
 30
0.0
  0
LINE
  5
12C
330
1F
100
AcDbEntity
  8
0
  6
SLD-Сплошная
 62
     7
370
    25
100
AcDbLine
 10
91.6126067236
 20
147.1226175401
 30
0.0
 11
91.6077381236
 21
147.2131628509
 31
0.0
  0
LINE
  5
12D
330
1F
100
AcDbEntity
  8
0
  6
SLD-Сплошная
 62
     7
370
    25
100
AcDbLine
 10
91.6167068555
 20
147.7463475155
 30
0.0
 11
91.3573357323
 21
150.988791978
 31
0.0
  0
LINE
  5
12E
330
1F
100
AcDbEntity
  8
0
  6
SLD-Сплошная
 62
     7
370
    25
100
AcDbLine
 10
35.3623174282
 20
150.988791978
 30
0.0
 11
35.1029463049
 21
147.7463475155
 31
0.0
  0
LINE
  5
12F
330
1F
100
AcDbEntity
  8
0
  6
SLD-Сплошная
 62
     7
370
    25
100
AcDbLine
 10
77.6598265802
 20
189.270852807
 30
0.0
 11
73.6598265802
 21
189.270852807
 31
0.0
  0
LINE
  5
130
330
1F
100
AcDbEntity
  8
0
  6
SLD-Сплошная
 62
     7
370
    25
100
AcDbLine
 10
53.0598265802
 20
189.270852807
 30
0.0
 11
49.0598265802
 21
189.270852807
 31
0.0
  0
LINE
  5
131
330
1F
100
AcDbEntity
  8
0
  6
SLD-Сплошная
 62
     7
370
    25
100
AcDbLine
 10
60.3598265802
 20
146.2879778538
 30
0.0
 11
65.0140234806
 21
146.2879778538
 31
0.0
  0
LINE
  5
132
330
1F
100
AcDbEntity
  8
0
  6
SLD-Сплошная
 62
     7
370
    25
100
AcDbLine
 10
65.0140234806
 20
145.420852807
 30
0.0
 11
65.0140234806
 21
146.2879778538
 31
0.0
  0
LINE
  5
133
330
1F
100
AcDbEntity
  8
0
  6
SLD-Сплошная
 62
     7
370
    25
100
AcDbLine
 10
65.862551618
 20
145.420852807
 30
0.0
 11
65.862551618
 21
146.2879778538
 31
0.0
  0
LINE
  5
134
330
1F
100
AcDbEntity
  8
0
  6
SLD-Сплошная
 62
     7
370
    25
100
AcDbLine
 10
65.862551618
 20
146.2879778538
 30
0.0
 11
66.3598265802
 21
146.2879778538
 31
0.0
  0
LINE
  5
135
330
1F
100
AcDbEntity
  8
0
  6
SLD-Сплошная
 62
     7
370
    25
100
AcDbLine
 10
65.862551618
 20
146.2879778538
 30
0.0
 11
65.0140234806
 21
146.2879778538
 31
0.0
  0
LINE
  5
136
330
1F
100
AcDbEntity
  8
0
  6
SLD-Сплошная
 62
     7
370
    25
100
AcDbLine
 10
53.3598265802
 20
190.3447590979
 30
0.0
 11
58.3687151307
 21
190.3447590979
 31
0.0
  0
LINE
  5
137
330
1F
100
AcDbEntity
  8
0
  6
SLD-Сплошная
 62
     7
370
    25
100
AcDbLine
 10
58.3687151307
 20
190.3447590979
 30
0.0
 11
68.3598265802
 21
190.3447590979
 31
0.0
  0
LINE
  5
138
330
1F
100
AcDbEntity
  8
0
  6
SLD-Сплошная
 62
     7
370
    25
100
AcDbLine
 10
68.3598265802
 20
190.3447590979
 30
0.0
 11
73.3598265802
 21
190.3447590979
 31
0.0
  0
LINE
  5
139
330
1F
100
AcDbEntity
  8
0
  6
SLD-Сплошная
 62
     7
370
    25
100
AcDbLine
 10
53.3598265802
 20
190.3447590979
 30
0.0
 11
53.3598265802
 21
180.9656155192
 31
0.0
  0
LINE
  5
13A
330
1F
100
AcDbEntity
  8
0
  6
SLD-Сплошная
 62
     7
370
    25
100
AcDbLine
 10
73.3598265802
 20
180.9656155192
 30
0.0
 11
73.3598265802
 21
190.3447590979
 31
0.0
  0
LINE
  5
13B
330
1F
100
AcDbEntity
  8
0
  6
SLD-Сплошная
 62
     7
370
    25
100
AcDbLine
 10
58.3687151307
 20
197.6378732871
 30
0.0
 11
68.3598265802
 21
197.6378732871
 31
0.0
  0
LINE
  5
13C
330
1F
100
AcDbEntity
  8
0
  6
SLD-Сплошная
 62
     7
370
    25
100
AcDbLine
 10
68.3598265802
 20
196.2998462124
 30
0.0
 11
68.3598265802
 21
197.6378732871
 31
0.0
  0
LINE
  5
13D
330
1F
100
AcDbEntity
  8
0
  6
SLD-Сплошная
 62
     7
370
    25
100
AcDbLine
 10
68.3598265802
 20
196.2998462124
 30
0.0
 11
58.3687151307
 21
196.2998462124
 31
0.0
  0
LINE
  5
13E
330
1F
100
AcDbEntity
  8
0
  6
SLD-Сплошная
 62
     7
370
    25
100
AcDbLine
 10
58.3687151307
 20
196.2998462124
 30
0.0
 11
58.3687151307
 21
197.6378732871
 31
0.0
  0
LINE
  5
13F
330
1F
100
AcDbEntity
  8
0
  6
SLD-Сплошная
 62
     7
370
    25
100
AcDbLine
 10
58.3687151307
 20
190.3447590979
 30
0.0
 11
58.3687151307
 21
196.2998462124
 31
0.0
  0
LINE
  5
140
330
1F
100
AcDbEntity
  8
0
  6
SLD-Сплошная
 62
     7
370
    25
100
AcDbLine
 10
68.3598265802
 20
196.2998462124
 30
0.0
 11
68.3598265802
 21
190.3447590979
 31
0.0
  0
ARC
  5
141
330
1F
100
AcDbEntity
  8
0
  6
SLD-Сплошная
 62
     7
370
    25
100
AcDbCircle
 10
63.3598265802
 20
121.8154282854
 30
0.0
 40
7.000000000000011
100
AcDbArc
 50
204.8865457737
 51
335.1134542263
  0
ARC
  5
142
330
1F
100
AcDbEntity
  8
0
  6
SLD-Сплошная
 62
     7
370
    25
100
AcDbCircle
 10
55.8598265802
 20
118.170852807
 30
0.0
 40
2.5
100
AcDbArc
 50
180.0
 51
233.1301023542
  0
LINE
  5
143
330
1F
100
AcDbEntity
  8
0
  6
SLD-Сплошная
 62
     7
370
    25
100
AcDbLine
 10
53.3598265802
 20
119.9365676878
 30
0.0
 11
53.3598265802
 21
118.170852807
 31
0.0
  0
ARC
  5
144
330
1F
100
AcDbEntity
  8
0
  6
SLD-Сплошная
 62
     7
370
    25
100
AcDbCircle
 10
70.8598265802
 20
118.170852807
 30
0.0
 40
2.5
100
AcDbArc
 50
306.8698976458
 51
0.0
  0
ARC
  5
145
330
1F
100
AcDbEntity
  8
0
  6
SLD-Сплошная
 62
     7
370
    25
100
AcDbCircle
 10
63.3598265802
 20
128.170852807
 30
0.0
 40
15.00000000000003
100
AcDbArc
 50
233.1301023542
 51
306.8698976458
  0
LINE
  5
146
330
1F
100
AcDbEntity
  8
0
  6
SLD-Сплошная
 62
     7
370
    25
100
AcDbLine
 10
73.3598265802
 20
118.170852807
 30
0.0
 11
73.3598265802
 21
119.9365676878
 31
0.0
  0
LWPOLYLINE
  5
147
330
1F
100
AcDbEntity
  8
0
  6
SLD-Сплошная
 62
     7
370
    25
100
AcDbPolyline
 90
        9
 70
   128
 43
0.0
 10
63.3604166046
 20
158.9303470787
 10
63.9593602991
 20
158.9578382925
 10
64.5352869234
 20
159.0392554617
 10
65.0660639402
 20
159.1714697703
 10
65.5312938864
 20
159.3494002966
 10
65.9130982361
 20
159.5662092701
 10
66.1968044622
 20
159.8135648436
 10
66.3715098937
 20
160.0819612813
 10
66.4305006987
 20
160.3610842584
  0
LINE
  5
148
330
1F
100
AcDbEntity
  8
0
  6
SLD-Сплошная
 62
     7
370
    25
100
AcDbLine
 10
66.4305006987
 20
162.0529242701
 30
0.0
 11
66.4305006987
 21
160.3610842584
 31
0.0
  0
ARC
  5
149
330
1F
100
AcDbEntity
  8
0
  6
SLD-Сплошная
 62
     7
370
    25
100
AcDbCircle
 10
63.3604166046
 20
147.3704659046
 30
0.0
 40
14.99999999999998
100
AcDbArc
 50
11.8103148958
 51
78.1896851042
  0
LINE
  5
14A
330
1F
100
AcDbEntity
  8
0
  6
SLD-Сплошная
 62
     7
370
    25
100
AcDbLine
 10
78.0428749701
 20
150.4405499987
 30
0.0
 11
76.3510349584
 21
150.4405499987
 31
0.0
  0
LWPOLYLINE
  5
14B
330
1F
100
AcDbEntity
  8
0
  6
SLD-Сплошная
 62
     7
370
    25
100
AcDbPolyline
 90
       13
 70
   128
 43
0.0
 10
76.3510349584
 20
150.4405499987
 10
75.9807329278
 20
150.3359394199
 10
75.6356663686
 20
150.0292367218
 10
75.3393509966
 20
149.5413431863
 10
75.1119802147
 20
148.9055079516
 10
74.969048966
 20
148.1650621382
 10
74.9202977788
 20
147.3704659046
 10
74.969048966
 20
146.575869671
 10
75.1119802147
 20
145.8354238575
 10
75.3393509966
 20
145.1995886228
 10
75.6356663686
 20
144.7116950873
 10
75.9807329278
 20
144.4049923892
 10
76.3510349584
 20
144.3003818105
  0
LINE
  5
14C
330
1F
100
AcDbEntity
  8
0
  6
SLD-Сплошная
 62
     7
370
    25
100
AcDbLine
 10
78.0428749701
 20
144.3003818105
 30
0.0
 11
76.3510349584
 21
144.3003818105
 31
0.0
  0
ARC
  5
14D
330
1F
100
AcDbEntity
  8
0
  6
SLD-Сплошная
 62
     7
370
    25
100
AcDbCircle
 10
63.3604166046
 20
147.3704659046
 30
0.0
 40
15.00000000000002
100
AcDbArc
 50
281.8103148958
 51
348.1896851042
  0
LINE
  5
14E
330
1F
100
AcDbEntity
  8
0
  6
SLD-Сплошная
 62
     7
370
    25
100
AcDbLine
 10
66.4305006987
 20
132.6880075391
 30
0.0
 11
66.4305006987
 21
134.3798475508
 31
0.0
  0
LWPOLYLINE
  5
14F
330
1F
100
AcDbEntity
  8
0
  6
SLD-Сплошная
 62
     7
370
    25
100
AcDbPolyline
 90
        9
 70
   128
 43
0.0
 10
66.4305006987
 20
134.3798475508
 10
66.3715098937
 20
134.6589705279
 10
66.1968044622
 20
134.9273669655
 10
65.9130982361
 20
135.1747225391
 10
65.5312938864
 20
135.3915315126
 10
65.0660639402
 20
135.5694620388
 10
64.5352869234
 20
135.7016763474
 10
63.9593602991
 20
135.7830935167
 10
63.3604166046
 20
135.8105847304
  0
ARC
  5
150
330
1F
100
AcDbEntity
  8
0
  6
SLD-Сплошная
 62
     7
370
    25
100
AcDbCircle
 10
63.3604166046
 20
147.3704659046
 30
0.0
 40
7.500000000000007
100
AcDbArc
 50
270.0
 51
0.0
  0
ARC
  5
151
330
1F
100
AcDbEntity
  8
0
  6
SLD-Сплошная
 62
     7
370
    25
100
AcDbCircle
 10
63.3604166046
 20
147.3704659046
 30
0.0
 40
7.500000000000007
100
AcDbArc
 50
0.0
 51
90.0
  0
LWPOLYLINE
  5
152
330
1F
100
AcDbEntity
  8
0
  6
SLD-Сплошная
 62
     7
370
    25
100
AcDbPolyline
 90
        9
 70
   128
 43
0.0
 10
63.3604166046
 20
135.8105847304
 10
62.7614729101
 20
135.7830935167
 10
62.1855462858
 20
135.7016763474
 10
61.6547692691
 20
135.5694620388
 10
61.1895393229
 20
135.3915315126
 10
60.8077349732
 20
135.1747225391
 10
60.524028747
 20
134.9273669655
 10
60.3493233155
 20
134.6589705279
 10
60.2903325105
 20
134.3798475508
  0
LINE
  5
153
330
1F
100
AcDbEntity
  8
0
  6
SLD-Сплошная
 62
     7
370
    25
100
AcDbLine
 10
60.2903325105
 20
132.6880075391
 30
0.0
 11
60.2903325105
 21
134.3798475508
 31
0.0
  0
ARC
  5
154
330
1F
100
AcDbEntity
  8
0
  6
SLD-Сплошная
 62
     7
370
    25
100
AcDbCircle
 10
63.3604166046
 20
147.3704659046
 30
0.0
 40
15.00000000000001
100
AcDbArc
 50
191.8103148958
 51
258.1896851042
  0
LINE
  5
155
330
1F
100
AcDbEntity
  8
0
  6
SLD-Сплошная
 62
     7
370
    25
100
AcDbLine
 10
48.6779582391
 20
144.3003818105
 30
0.0
 11
50.3697982508
 21
144.3003818105
 31
0.0
  0
LWPOLYLINE
  5
156
330
1F
100
AcDbEntity
  8
0
  6
SLD-Сплошная
 62
     7
370
    25
100
AcDbPolyline
 90
       13
 70
   128
 43
0.0
 10
50.3697982508
 20
144.3003818105
 10
50.7401002814
 20
144.4049923892
 10
51.0851668406
 20
144.7116950873
 10
51.3814822126
 20
145.1995886228
 10
51.6088529945
 20
145.8354238575
 10
51.7517842432
 20
146.575869671
 10
51.8005354304
 20
147.3704659046
 10
51.7517842432
 20
148.1650621382
 10
51.6088529945
 20
148.9055079516
 10
51.3814822126
 20
149.5413431863
 10
51.0851668406
 20
150.0292367218
 10
50.7401002814
 20
150.3359394199
 10
50.3697982508
 20
150.4405499987
  0
LINE
  5
157
330
1F
100
AcDbEntity
  8
0
  6
SLD-Сплошная
 62
     7
370
    25
100
AcDbLine
 10
48.6779582391
 20
150.4405499987
 30
0.0
 11
50.3697982508
 21
150.4405499987
 31
0.0
  0
ARC
  5
158
330
1F
100
AcDbEntity
  8
0
  6
SLD-Сплошная
 62
     7
370
    25
100
AcDbCircle
 10
63.3604166046
 20
147.3704659046
 30
0.0
 40
15.0
100
AcDbArc
 50
101.8103148958
 51
168.1896851042
  0
LINE
  5
159
330
1F
100
AcDbEntity
  8
0
  6
SLD-Сплошная
 62
     7
370
    25
100
AcDbLine
 10
60.2903325105
 20
162.0529242701
 30
0.0
 11
60.2903325105
 21
160.3610842584
 31
0.0
  0
LWPOLYLINE
  5
15A
330
1F
100
AcDbEntity
  8
0
  6
SLD-Сплошная
 62
     7
370
    25
100
AcDbPolyline
 90
        9
 70
   128
 43
0.0
 10
60.2903325105
 20
160.3610842584
 10
60.3493233155
 20
160.0819612813
 10
60.524028747
 20
159.8135648436
 10
60.8077349732
 20
159.5662092701
 10
61.1895393229
 20
159.3494002966
 10
61.6547692691
 20
159.1714697703
 10
62.1855462858
 20
159.0392554617
 10
62.7614729101
 20
158.9578382925
 10
63.3604166046
 20
158.9303470787
  0
ARC
  5
15B
330
1F
100
AcDbEntity
  8
0
  6
SLD-Сплошная
 62
     7
370
    25
100
AcDbCircle
 10
63.3604166046
 20
147.3704659046
 30
0.0
 40
7.5
100
AcDbArc
 50
180.0
 51
270.0
  0
ARC
  5
15C
330
1F
100
AcDbEntity
  8
0
  6
SLD-Сплошная
 62
     7
370
    25
100
AcDbCircle
 10
63.3604166046
 20
147.3704659046
 30
0.0
 40
7.5
100
AcDbArc
 50
90.0
 51
180.0
  0
ARC
  5
15D
330
1F
100
AcDbEntity
  8
0
  6
SLD-Сплошная
 62
     7
370
    25
100
AcDbCircle
 10
78.3604166046
 20
147.3704659046
 30
0.0
 40
2.499999999999994
100
AcDbArc
 50
300.0
 51
60.0
  0
ARC
  5
15E
330
1F
100
AcDbEntity
  8
0
  6
SLD-Сплошная
 62
     7
370
    25
100
AcDbCircle
 10
63.3604166046
 20
162.3704659046
 30
0.0
 40
2.500000000000002
100
AcDbArc
 50
30.0
 51
150.0
  0
ARC
  5
15F
330
1F
100
AcDbEntity
  8
0
  6
SLD-Сплошная
 62
     7
370
    25
100
AcDbCircle
 10
63.3604166046
 20
132.3704659046
 30
0.0
 40
2.500000000000002
100
AcDbArc
 50
210.0
 51
330.0
  0
ARC
  5
160
330
1F
100
AcDbEntity
  8
0
  6
SLD-Сплошная
 62
     7
370
    25
100
AcDbCircle
 10
48.3604166046
 20
147.3704659046
 30
0.0
 40
2.500000000000008
100
AcDbArc
 50
120.0
 51
240.0
  0
LINE
  5
161
330
1F
100
AcDbEntity
  8
0
  6
SLD-Сплошная
 62
     7
370
    25
100
AcDbLine
 10
79.6104166046
 20
145.2054023951
 30
0.0
 11
78.0428749701
 21
144.3003818105
 31
0.0
  0
LINE
  5
162
330
1F
100
AcDbEntity
  8
0
  6
SLD-Сплошная
 62
     7
370
    25
100
AcDbLine
 10
78.0428749701
 20
150.4405499987
 30
0.0
 11
79.6104166046
 21
149.535529414
 31
0.0
  0
LINE
  5
163
330
1F
100
AcDbEntity
  8
0
  6
SLD-Сплошная
 62
     7
370
    25
100
AcDbLine
 10
65.5254801141
 20
163.6204659046
 30
0.0
 11
66.4305006987
 21
162.0529242701
 31
0.0
  0
LINE
  5
164
330
1F
100
AcDbEntity
  8
0
  6
SLD-Сплошная
 62
     7
370
    25
100
AcDbLine
 10
66.4305006987
 20
132.6880075391
 30
0.0
 11
65.5254801141
 21
131.1204659046
 31
0.0
  0
LINE
  5
165
330
1F
100
AcDbEntity
  8
0
  6
SLD-Сплошная
 62
     7
370
    25
100
AcDbLine
 10
61.1953530951
 20
131.1204659046
 30
0.0
 11
60.2903325105
 21
132.6880075391
 31
0.0
  0
LINE
  5
166
330
1F
100
AcDbEntity
  8
0
  6
SLD-Сплошная
 62
     7
370
    25
100
AcDbLine
 10
60.2903325105
 20
162.0529242701
 30
0.0
 11
61.1953530951
 21
163.6204659046
 31
0.0
  0
LINE
  5
167
330
1F
100
AcDbEntity
  8
0
  6
SLD-Сплошная
 62
     7
370
    25
100
AcDbLine
 10
47.1104166046
 20
149.535529414
 30
0.0
 11
48.6779582391
 21
150.4405499987
 31
0.0
  0
LINE
  5
168
330
1F
100
AcDbEntity
  8
0
  6
SLD-Сплошная
 62
     7
370
    25
100
AcDbLine
 10
48.6779582391
 20
144.3003818105
 30
0.0
 11
47.1104166046
 21
145.2054023951
 31
0.0
  0
ARC
  5
169
330
1F
100
AcDbEntity
  8
0
  6
SLD-Сплошная
 62
     7
370
    25
100
AcDbCircle
 10
63.3598265802
 20
147.370852807
 30
0.0
 40
3.999999999997776
100
AcDbArc
 50
146.7455026688
 51
326.7455026688
  0
ARC
  5
16A
330
1F
100
AcDbEntity
  8
0
  6
SLD-Сплошная
 62
     7
370
    25
100
AcDbCircle
 10
63.3598265802
 20
147.370852807
 30
0.0
 40
3.999999999997776
100
AcDbArc
 50
326.7455026688
 51
146.7455026688
  0
LINE
  5
16B
330
1F
100
AcDbEntity
  8
0
  6
SLD-Сплошная
 62
     7
370
    25
100
AcDbLine
 10
86.3604166046
 20
136.5914097132
 30
0.0
 11
86.3604166046
 21
158.1495220959
 31
0.0
  0
LINE
  5
16C
330
1F
100
AcDbEntity
  8
0
  6
SLD-Сплошная
 62
     7
370
    25
100
AcDbLine
 10
84.1953530951
 20
132.8414097132
 30
0.0
 11
86.3604166046
 21
136.5914097132
 31
0.0
  0
LINE
  5
16D
330
1F
100
AcDbEntity
  8
0
  6
SLD-Сплошная
 62
     7
370
    25
100
AcDbLine
 10
65.5254801141
 20
122.0623535219
 30
0.0
 11
84.1953530951
 21
132.8414097132
 31
0.0
  0
LINE
  5
16E
330
1F
100
AcDbEntity
  8
0
  6
SLD-Сплошная
 62
     7
370
    25
100
AcDbLine
 10
61.1953530951
 20
122.0623535219
 30
0.0
 11
65.5254801141
 21
122.0623535219
 31
0.0
  0
LINE
  5
16F
330
1F
100
AcDbEntity
  8
0
  6
SLD-Сплошная
 62
     7
370
    25
100
AcDbLine
 10
61.1953530951
 20
122.0623535219
 30
0.0
 11
42.5254801141
 21
132.8414097132
 31
0.0
  0
LINE
  5
170
330
1F
100
AcDbEntity
  8
0
  6
SLD-Сплошная
 62
     7
370
    25
100
AcDbLine
 10
42.5254801141
 20
132.8414097132
 30
0.0
 11
40.3604166046
 21
136.5914097132
 31
0.0
  0
LINE
  5
171
330
1F
100
AcDbEntity
  8
0
  6
SLD-Сплошная
 62
     7
370
    25
100
AcDbLine
 10
40.3604166046
 20
136.5914097132
 30
0.0
 11
40.3604166046
 21
158.1495220959
 31
0.0
  0
LINE
  5
172
330
1F
100
AcDbEntity
  8
0
  6
SLD-Сплошная
 62
     7
370
    25
100
AcDbLine
 10
40.3604166046
 20
158.1495220959
 30
0.0
 11
42.5254801141
 21
161.8995220959
 31
0.0
  0
LINE
  5
173
330
1F
100
AcDbEntity
  8
0
  6
SLD-Сплошная
 62
     7
370
    25
100
AcDbLine
 10
42.5254801141
 20
161.8995220959
 30
0.0
 11
61.1953530951
 21
172.6785782873
 31
0.0
  0
LINE
  5
174
330
1F
100
AcDbEntity
  8
0
  6
SLD-Сплошная
 62
     7
370
    25
100
AcDbLine
 10
65.5254801141
 20
172.6785782873
 30
0.0
 11
61.1953530951
 21
172.6785782873
 31
0.0
  0
LINE
  5
175
330
1F
100
AcDbEntity
  8
0
  6
SLD-Сплошная
 62
     7
370
    25
100
AcDbLine
 10
84.1953530951
 20
161.8995220959
 30
0.0
 11
65.5254801141
 21
172.6785782873
 31
0.0
  0
LINE
  5
176
330
1F
100
AcDbEntity
  8
0
  6
SLD-Сплошная
 62
     7
370
    25
100
AcDbLine
 10
86.3604166046
 20
158.1495220959
 30
0.0
 11
84.1953530951
 21
161.8995220959
 31
0.0
  0
ARC
  5
177
330
1F
100
AcDbEntity
  8
0
  6
SLD-Сплошная
 62
     7
370
    25
100
AcDbCircle
 10
63.3604166046
 20
147.3704659046
 30
0.0
 40
25.40055220613379
100
AcDbArc
 50
25.1103541747
 51
34.8896458253
  0
ARC
  5
178
330
1F
100
AcDbEntity
  8
0
  6
SLD-Сплошная
 62
     7
370
    25
100
AcDbCircle
 10
63.3604166046
 20
147.3704659046
 30
0.0
 40
25.40055220613376
100
AcDbArc
 50
325.1103541747
 51
334.8896458253
  0
ARC
  5
179
330
1F
100
AcDbEntity
  8
0
  6
SLD-Сплошная
 62
     7
370
    25
100
AcDbCircle
 10
63.3604166046
 20
147.3704659046
 30
0.0
 40
25.40055220613378
100
AcDbArc
 50
0.0
 51
25.1103541747
  0
ARC
  5
17A
330
1F
100
AcDbEntity
  8
0
  6
SLD-Сплошная
 62
     7
370
    25
100
AcDbCircle
 10
63.3604166046
 20
147.3704659046
 30
0.0
 40
25.40055220613377
100
AcDbArc
 50
334.8896458253
 51
0.0
  0
ARC
  5
17B
330
1F
100
AcDbEntity
  8
0
  6
SLD-Сплошная
 62
     7
370
    25
100
AcDbCircle
 10
63.3604166046
 20
147.3704659046
 30
0.0
 40
25.40055220613379
100
AcDbArc
 50
34.8896458253
 51
85.1103541747
  0
ARC
  5
17C
330
1F
100
AcDbEntity
  8
0
  6
SLD-Сплошная
 62
     7
370
    25
100
AcDbCircle
 10
63.3604166046
 20
147.3704659046
 30
0.0
 40
25.40055220613376
100
AcDbArc
 50
274.8896458253
 51
325.1103541747
  0
ARC
  5
17D
330
1F
100
AcDbEntity
  8
0
  6
SLD-Сплошная
 62
     7
370
    25
100
AcDbCircle
 10
63.3604166046
 20
147.3704659046
 30
0.0
 40
25.40055220613378
100
AcDbArc
 50
85.1103541747
 51
94.8896458253
  0
ARC
  5
17E
330
1F
100
AcDbEntity
  8
0
  6
SLD-Сплошная
 62
     7
370
    25
100
AcDbCircle
 10
63.3604166046
 20
147.3704659046
 30
0.0
 40
25.40055220613376
100
AcDbArc
 50
265.1103541747
 51
274.8896458253
  0
ARC
  5
17F
330
1F
100
AcDbEntity
  8
0
  6
SLD-Сплошная
 62
     7
370
    25
100
AcDbCircle
 10
63.3604166046
 20
147.3704659046
 30
0.0
 40
25.40055220613375
100
AcDbArc
 50
214.8896458253
 51
265.1103541747
  0
ARC
  5
180
330
1F
100
AcDbEntity
  8
0
  6
SLD-Сплошная
 62
     7
370
    25
100
AcDbCircle
 10
63.3604166046
 20
147.3704659046
 30
0.0
 40
25.40055220613378
100
AcDbArc
 50
94.8896458253
 51
145.1103541747
  0
ARC
  5
181
330
1F
100
AcDbEntity
  8
0
  6
SLD-Сплошная
 62
     7
370
    25
100
AcDbCircle
 10
63.3604166046
 20
147.3704659046
 30
0.0
 40
25.40055220613373
100
AcDbArc
 50
205.1103541747
 51
214.8896458253
  0
ARC
  5
182
330
1F
100
AcDbEntity
  8
0
  6
SLD-Сплошная
 62
     7
370
    25
100
AcDbCircle
 10
63.3604166046
 20
147.3704659046
 30
0.0
 40
25.40055220613373
100
AcDbArc
 50
145.1103541747
 51
154.8896458253
  0
ARC
  5
183
330
1F
100
AcDbEntity
  8
0
  6
SLD-Сплошная
 62
     7
370
    25
100
AcDbCircle
 10
63.3604166046
 20
147.3704659046
 30
0.0
 40
25.40055220613373
100
AcDbArc
 50
154.8896458253
 51
180.0
  0
ARC
  5
184
330
1F
100
AcDbEntity
  8
0
  6
SLD-Сплошная
 62
     7
370
    25
100
AcDbCircle
 10
63.3604166046
 20
147.3704659046
 30
0.0
 40
25.40055220613373
100
AcDbArc
 50
180.0
 51
205.1103541747
  0
ARC
  5
185
330
1F
100
AcDbEntity
  8
0
  6
SLD-Сплошная
 62
     7
370
    25
100
AcDbCircle
 10
63.3598265802
 20
147.370852807
 30
0.0
 40
26.2
100
AcDbArc
 50
8.6514863442
 51
171.5189242343
  0
SPLINE
  5
186
330
1F
100
AcDbEntity
  8
0
  6
SLD-Сплошная
 62
     7
370
    25
100
AcDbSpline
210
0.0
220
0.0
230
1.0
 70
     8
 71
     3
 72
    12
 73
     8
 74
     0
 42
0.00000001
 43
0.00000001
 40
0.0
 40
0.0
 40
0.0
 40
0.0
 40
0.0578541861608262
 40
0.3325187727178087
 40
0.6069503726858014
 40
0.8813023150286652
 40
1.0
 40
1.0
 40
1.0
 40
1.0
 10
38.4542167489581
 20
139.2375509600636
 30
0.0
 10
38.45742164030894
 20
139.2373972479596
 30
0.0
 10
38.47584185515235
 20
139.2365137827588
 30
0.0
 10
38.57200009323897
 20
139.0497145955388
 30
0.0
 10
38.82528567846732
 20
138.4535571545462
 30
0.0
 10
39.11742522593551
 20
137.7577263975616
 30
0.0
 10
39.3344783168759
 20
137.2743635910728
 30
0.0
 10
39.40002652661863
 20
137.1283920848192
 30
0.0
  0
ARC
  5
187
330
1F
100
AcDbEntity
  8
0
  6
SLD-Сплошная
 62
     7
370
    25
100
AcDbCircle
 10
63.3598265802
 20
147.370852807
 30
0.0
 40
26.20000000000002
100
AcDbArc
 50
185.2216305806
 51
198.0852286567
  0
SPLINE
  5
188
330
1F
100
AcDbEntity
  8
0
  6
SLD-Сплошная
 62
     7
370
    25
100
AcDbSpline
210
0.0
220
0.0
230
1.0
 70
     8
 71
     3
 72
     8
 73
     4
 74
     0
 42
0.00000001
 43
0.00000001
 40
0.0
 40
0.0
 40
0.0
 40
0.0
 40
0.0002728797068755
 40
0.0002728797068755
 40
0.0002728797068755
 40
0.0002728797068755
 10
37.27612681407825
 20
145.0127895053526
 30
0.0
 10
37.27354858438665
 20
145.0040056527105
 30
0.0
 10
37.27102417851051
 20
144.9952189355442
 30
0.0
 10
37.26855365640605
 20
144.986428932158
 30
0.0
  0
SPLINE
  5
189
330
1F
100
AcDbEntity
  8
0
  6
SLD-Сплошная
 62
     7
370
    25
100
AcDbSpline
210
0.0
220
0.0
230
1.0
 70
     8
 71
     3
 72
     9
 73
     5
 74
     0
 42
0.00000001
 43
0.00000001
 40
0.0
 40
0.0
 40
0.0
 40
0.0
 40
0.4009014805317453
 40
1.0
 40
1.0
 40
1.0
 40
1.0
 10
37.27612681407825
 20
145.0127895053526
 30
0.0
 10
37.32911393365336
 20
145.180486522826
 30
0.0
 10
37.46128386105005
 20
145.5987863436472
 30
0.0
 10
37.79949187183039
 20
146.0179988272036
 30
0.0
 10
38.0021117903612
 20
146.2691484054448
 30
0.0
  0
SPLINE
  5
18A
330
1F
100
AcDbEntity
  8
0
  6
SLD-Сплошная
 62
     7
370
    25
100
AcDbSpline
210
0.0
220
0.0
230
1.0
 70
     8
 71
     3
 72
     9
 73
     5
 74
     0
 42
0.00000001
 43
0.00000001
 40
0.0
 40
0.0
 40
0.0
 40
0.0
 40
0.3796024461891778
 40
1.0
 40
1.0
 40
1.0
 40
1.0
 10
89.4435263463661
 20
145.0127895053513
 30
0.0
 10
89.38995278647693
 20
145.1804891205111
 30
0.0
 10
89.24882208400908
 20
145.6222660817592
 30
0.0
 10
88.89009275037205
 20
146.0650069141435
 30
0.0
 10
88.66753794930344
 20
146.3396822435269
 30
0.0
  0
SPLINE
  5
18B
330
1F
100
AcDbEntity
  8
0
  6
SLD-Сплошная
 62
     7
370
    25
100
AcDbSpline
210
0.0
220
0.0
230
1.0
 70
     8
 71
     3
 72
     8
 73
     4
 74
     0
 42
0.00000001
 43
0.00000001
 40
0.0000000000000001
 40
0.0000000000000001
 40
0.0000000000000001
 40
0.0000000000000001
 40
0.0002728797068755
 40
0.0002728797068755
 40
0.0002728797068755
 40
0.0002728797068755
 10
89.44352634637576
 20
145.0127895053526
 30
0.0
 10
89.44610457606736
 20
145.0040056527105
 30
0.0
 10
89.4486289819435
 20
144.9952189355442
 30
0.0
 10
89.45109950404795
 20
144.986428932158
 30
0.0
  0
ARC
  5
18C
330
1F
100
AcDbEntity
  8
0
  6
SLD-Сплошная
 62
     7
370
    25
100
AcDbCircle
 10
63.3598265802
 20
147.370852807
 30
0.0
 40
26.20000000000002
100
AcDbArc
 50
341.9147713433
 51
354.7783694194
  0
SPLINE
  5
18D
330
1F
100
AcDbEntity
  8
0
  6
SLD-Сплошная
 62
     7
370
    25
100
AcDbSpline
210
0.0
220
0.0
230
1.0
 70
     8
 71
     3
 72
    12
 73
     8
 74
     0
 42
0.00000001
 43
0.00000001
 40
0.0
 40
0.0
 40
0.0
 40
0.0
 40
0.1085191160935585
 40
0.3860396761675555
 40
0.6636408138695115
 40
0.9414776290305517
 40
1.0
 40
1.0
 40
1.0
 40
1.0
 10
87.33814700701936
 20
137.1698695014296
 30
0.0
 10
87.39730812845924
 20
137.301665901449
 30
0.0
 10
87.60776450687896
 20
137.7705108516759
 30
0.0
 10
87.89417220101394
 20
138.4532378567116
 30
0.0
 10
88.1477075655815
 20
139.0498037041199
 30
0.0
 10
88.24380905830998
 20
139.2365101087728
 30
0.0
 10
88.26223118713564
 20
139.2373967034662
 30
0.0
 10
88.2654364114959
 20
139.2375509600636
 30
0.0
  0
ARC
  5
18E
330
1F
100
AcDbEntity
  8
0
  6
SLD-Сплошная
 62
     7
370
    25
100
AcDbCircle
 10
63.3598265802
 20
142.320852807
 30
0.0
 40
2.85000000000001
100
AcDbArc
 50
37.7558546577
 51
142.2441453423
  0
ARC
  5
18F
330
1F
100
AcDbEntity
  8
0
  6
SLD-Сплошная
 62
     7
370
    25
100
AcDbCircle
 10
63.3598265802
 20
142.320852807
 30
0.0
 40
2.500000000000016
100
AcDbArc
 50
38.5986649369
 51
141.4013350631
  0
LINE
  5
190
330
1F
100
AcDbEntity
  8
0
  6
SLD-Сплошная
 62
     7
370
    25
100
AcDbLine
 10
59.8673346332
 20
145.420852807
 30
0.0
 11
66.8523185272
 21
145.420852807
 31
0.0
  0
SPLINE
  5
191
330
1F
100
AcDbEntity
  8
0
  6
SLD-Сплошная
 62
     7
370
    25
100
AcDbSpline
210
0.0
220
0.0
230
1.0
 70
     8
 71
     3
 72
    11
 73
     7
 74
     0
 42
0.00000001
 43
0.00000001
 40
0.0
 40
0.0
 40
0.0
 40
0.0
 40
0.2544624332631862
 40
0.5331822060700495
 40
0.825827877523925
 40
1.0
 40
1.0
 40
1.0
 40
1.0
 10
85.89750745380806
 20
134.2244187380057
 30
0.0
 10
86.1629881573072
 20
134.1430310135369
 30
0.0
 10
86.71925725111993
 20
133.9724970532866
 30
0.0
 10
87.39289376687333
 20
133.9086652840338
 30
0.0
 10
87.84635529012776
 20
133.9766933783036
 30
0.0
 10
87.91584935851533
 20
134.1447813222898
 30
0.0
 10
87.94177795324319
 20
134.2074957996457
 30
0.0
  0
SPLINE
  5
192
330
1F
100
AcDbEntity
  8
0
  6
SLD-Сплошная
 62
     7
370
    25
100
AcDbSpline
210
0.0
220
0.0
230
1.0
 70
     8
 71
     3
 72
    11
 73
     7
 74
     0
 42
0.00000001
 43
0.00000001
 40
0.0
 40
0.0
 40
0.0
 40
0.0
 40
0.2544624332631878
 40
0.5331822060700532
 40
0.8258278775239296
 40
1.0
 40
1.0
 40
1.0
 40
1.0
 10
40.82214570664595
 20
134.2244187380057
 30
0.0
 10
40.55666500314681
 20
134.1430310135369
 30
0.0
 10
40.00039590933407
 20
133.9724970532866
 30
0.0
 10
39.32675939358069
 20
133.9086652840338
 30
0.0
 10
38.87329787032625
 20
133.9766933783036
 30
0.0
 10
38.80380380193868
 20
134.1447813222898
 30
0.0
 10
38.77787520721082
 20
134.2074957996457
 30
0.0
  0
LINE
  5
193
330
1F
100
AcDbEntity
  8
0
  6
SLD-Сплошная
 62
     7
370
    25
100
AcDbLine
 10
63.3598265802
 20
119.4708534036
 30
0.0
 11
63.3598265802
 21
120.6388418718
 31
0.0
  0
SPLINE
  5
194
330
1F
100
AcDbEntity
  8
0
  6
SLD-Сплошная
 62
     7
370
    25
100
AcDbSpline
210
0.0
220
0.0
230
1.0
 70
     8
 71
     3
 72
    12
 73
     8
 74
     0
 42
0.00000001
 43
0.00000001
 40
0.0
 40
0.0
 40
0.0
 40
0.0
 40
0.1782244122873701
 40
0.3979721596881304
 40
0.5971763874139759
 40
0.8188987157957824
 40
1.0
 40
1.0
 40
1.0
 40
1.0
 10
88.8991734529031
 20
153.2173698313976
 30
0.0
 10
89.11338835876099
 20
153.1981084112873
 30
0.0
 10
89.5917266942758
 20
153.155097979318
 30
0.0
 10
90.25342663071339
 20
152.8319691549628
 30
0.0
 10
90.82215845561237
 20
152.3081048551735
 30
0.0
 10
91.21806022447113
 20
151.6794783509306
 30
0.0
 10
91.29807595813091
 20
151.199123361019
 30
0.0
 10
91.33404940077322
 20
150.983165550134
 30
0.0
  0
SPLINE
  5
195
330
1F
100
AcDbEntity
  8
0
  6
SLD-Сплошная
 62
     7
370
    25
100
AcDbSpline
210
0.0
220
0.0
230
1.0
 70
     8
 71
     3
 72
    12
 73
     8
 74
     0
 42
0.00000001
 43
0.00000001
 40
0.0
 40
0.0
 40
0.0
 40
0.0
 40
0.1782244122873783
 40
0.3979721596881478
 40
0.5971763874140034
 40
0.8188987157958184
 40
1.0
 40
1.0
 40
1.0
 40
1.0
 10
37.82047970755089
 20
153.2173698313976
 30
0.0
 10
37.60626480169302
 20
153.1981084112873
 30
0.0
 10
37.1279264661782
 20
153.1550979793181
 30
0.0
 10
36.46622652974062
 20
152.8319691549628
 30
0.0
 10
35.89749470484165
 20
152.3081048551735
 30
0.0
 10
35.5015929359829
 20
151.6794783509306
 30
0.0
 10
35.42157720232313
 20
151.1991233610191
 30
0.0
 10
35.38560375968083
 20
150.9831655501341
 30
0.0
  0
ARC
  5
196
330
1F
100
AcDbEntity
  8
0
  6
SLD-Сплошная
 62
     7
370
    25
100
AcDbCircle
 10
63.3598265802
 20
121.945852807
 30
0.0
 40
6.999999999999994
100
AcDbArc
 50
206.2099330649
 51
333.7900669351
  0
ARC
  5
197
330
1F
100
AcDbEntity
  8
0
  6
SLD-Сплошная
 62
     7
370
    25
100
AcDbCircle
 10
63.3598265802
 20
147.370852807
 30
0.0
 40
29.20000000000003
100
AcDbArc
 50
282.4200935923
 51
257.5799064077
  0
LINE
  5
198
330
1F
100
AcDbEntity
  8
0
  6
SLD-Сплошная
 62
     7
370
    25
100
AcDbLine
 10
73.6598265802
 20
188.487810036
 30
0.0
 11
73.6598265802
 21
180.9656155192
 31
0.0
  0
LINE
  5
199
330
1F
100
AcDbEntity
  8
0
  6
SLD-Сплошная
 62
     7
370
    25
100
AcDbLine
 10
77.6598265802
 20
188.487810036
 30
0.0
 11
77.6598265802
 21
172.8296430374
 31
0.0
  0
LINE
  5
19A
330
1F
100
AcDbEntity
  8
0
  6
SLD-Сплошная
 62
     7
370
    25
100
AcDbLine
 10
49.0598265802
 20
188.487810036
 30
0.0
 11
49.0598265802
 21
172.8296430374
 31
0.0
  0
LINE
  5
19B
330
1F
100
AcDbEntity
  8
0
  6
SLD-Сплошная
 62
     7
370
    25
100
AcDbLine
 10
53.0598265802
 20
188.487810036
 30
0.0
 11
53.0598265802
 21
180.9656155192
 31
0.0
  0
LINE
  5
19C
330
1F
100
AcDbEntity
  8
0
  6
SLD-Сплошная
 62
     7
370
    25
100
AcDbLine
 10
53.0598265802
 20
180.9656155192
 30
0.0
 11
73.6598265802
 21
180.9656155192
 31
0.0
  0
LINE
  5
19D
330
1F
100
AcDbEntity
  8
0
  6
SLD-Сплошная
 62
     7
370
    25
100
AcDbLine
 10
73.6598265802
 20
189.270852807
 30
0.0
 11
73.6598265802
 21
188.487810036
 31
0.0
  0
LINE
  5
19E
330
1F
100
AcDbEntity
  8
0
  6
SLD-Сплошная
 62
     7
370
    25
100
AcDbLine
 10
77.6598265802
 20
189.270852807
 30
0.0
 11
77.6598265802
 21
188.487810036
 31
0.0
  0
LINE
  5
19F
330
1F
100
AcDbEntity
  8
0
  6
SLD-Сплошная
 62
     7
370
    25
100
AcDbLine
 10
53.0598265802
 20
189.270852807
 30
0.0
 11
53.0598265802
 21
188.487810036
 31
0.0
  0
LINE
  5
1A0
330
1F
100
AcDbEntity
  8
0
  6
SLD-Сплошная
 62
     7
370
    25
100
AcDbLine
 10
49.0598265802
 20
189.270852807
 30
0.0
 11
49.0598265802
 21
188.487810036
 31
0.0
  0
LINE
  5
1A1
330
1F
100
AcDbEntity
  8
0
  6
SLD-Сплошная
 62
     7
370
    25
100
AcDbLine
 10
330.8884846029
 20
189.270852807
 30
0.0
 11
326.8884846029
 21
189.270852807
 31
0.0
  0
LINE
  5
1A2
330
1F
100
AcDbEntity
  8
0
  6
SLD-Сплошная
 62
     7
370
    25
100
AcDbLine
 10
355.4884846029
 20
189.270852807
 30
0.0
 11
351.4884846029
 21
189.270852807
 31
0.0
  0
ARC
  5
1A3
330
1F
100
AcDbEntity
  8
0
  6
SLD-Сплошная
 62
     7
370
    25
100
AcDbCircle
 10
348.6884846029
 20
125.370852807
 30
0.0
 40
2.5
100
AcDbArc
 50
159.2752697025
 51
180.0
  0
ARC
  5
1A4
330
1F
100
AcDbEntity
  8
0
  6
SLD-Сплошная
 62
     7
370
    25
100
AcDbCircle
 10
348.6914356738
 20
125.3621963323
 30
0.0
 40
2.505833375051361
100
AcDbArc
 50
58.5353943648
 51
159.1140256717
  0
ARC
  5
1A5
330
1F
100
AcDbEntity
  8
0
  6
SLD-Сплошная
 62
     7
370
    25
100
AcDbCircle
 10
348.6884846029
 20
125.370852807
 30
0.0
 40
2.5
100
AcDbArc
 50
0.0
 51
58.374150334
  0
ARC
  5
1A6
330
1F
100
AcDbEntity
  8
0
  6
SLD-Сплошная
 62
     7
370
    25
100
AcDbCircle
 10
348.6884846029
 20
118.170852807
 30
0.0
 40
2.5
100
AcDbArc
 50
180.0
 51
0.0
  0
LINE
  5
1A7
330
1F
100
AcDbEntity
  8
0
  6
SLD-Сплошная
 62
     7
370
    25
100
AcDbLine
 10
331.1884846029
 20
118.170852807
 30
0.0
 11
331.1884846029
 21
125.370852807
 31
0.0
  0
LINE
  5
1A8
330
1F
100
AcDbEntity
  8
0
  6
SLD-Сплошная
 62
     7
370
    25
100
AcDbLine
 10
336.1884846029
 20
118.170852807
 30
0.0
 11
336.1884846029
 21
125.370852807
 31
0.0
  0
ARC
  5
1A9
330
1F
100
AcDbEntity
  8
0
  6
SLD-Сплошная
 62
     7
370
    25
100
AcDbCircle
 10
333.6884846029
 20
125.370852807
 30
0.0
 40
2.5
100
AcDbArc
 50
121.625849666
 51
180.0
  0
ARC
  5
1AA
330
1F
100
AcDbEntity
  8
0
  6
SLD-Сплошная
 62
     7
370
    25
100
AcDbCircle
 10
333.685533532
 20
125.3621963323
 30
0.0
 40
2.505833375051391
100
AcDbArc
 50
20.8859743283
 51
121.4646056352
  0
ARC
  5
1AB
330
1F
100
AcDbEntity
  8
0
  6
SLD-Сплошная
 62
     7
370
    25
100
AcDbCircle
 10
333.6884846029
 20
125.370852807
 30
0.0
 40
2.5
100
AcDbArc
 50
0.0
 51
20.7247302975
  0
ARC
  5
1AC
330
1F
100
AcDbEntity
  8
0
  6
SLD-Сплошная
 62
     7
370
    25
100
AcDbCircle
 10
333.6884846029
 20
118.170852807
 30
0.0
 40
2.5
100
AcDbArc
 50
180.0
 51
0.0
  0
LINE
  5
1AD
330
1F
100
AcDbEntity
  8
0
  6
SLD-Сплошная
 62
     7
370
    25
100
AcDbLine
 10
346.1884846029
 20
118.170852807
 30
0.0
 11
346.1884846029
 21
125.370852807
 31
0.0
  0
LINE
  5
1AE
330
1F
100
AcDbEntity
  8
0
  6
SLD-Сплошная
 62
     7
370
    25
100
AcDbLine
 10
351.1884846029
 20
118.170852807
 30
0.0
 11
351.1884846029
 21
125.370852807
 31
0.0
  0
LINE
  5
1AF
330
1F
100
AcDbEntity
  8
0
  6
SLD-Сплошная
 62
     7
370
    25
100
AcDbLine
 10
346.1884846029
 20
179.8579434177
 30
0.0
 11
346.1884846029
 21
171.4592189765
 31
0.0
  0
LINE
  5
1B0
330
1F
100
AcDbEntity
  8
0
  6
SLD-Сплошная
 62
     7
370
    25
100
AcDbLine
 10
351.1884846029
 20
179.8579434177
 30
0.0
 11
351.1884846029
 21
169.8486059135
 31
0.0
  0
ARC
  5
1B1
330
1F
100
AcDbEntity
  8
0
  6
SLD-Сплошная
 62
     7
370
    25
100
AcDbCircle
 10
348.6985210562
 20
169.4173465783
 30
0.0
 40
2.489364896119654
100
AcDbArc
 50
181.0701732705
 51
358.9298267295
  0
LINE
  5
1B2
330
1F
100
AcDbEntity
  8
0
  6
SLD-Сплошная
 62
     7
370
    25
100
AcDbLine
 10
331.1884846029
 20
179.8579434177
 30
0.0
 11
331.1884846029
 21
169.8486059135
 31
0.0
  0
LINE
  5
1B3
330
1F
100
AcDbEntity
  8
0
  6
SLD-Сплошная
 62
     7
370
    25
100
AcDbLine
 10
336.1884846029
 20
179.8579434177
 30
0.0
 11
336.1884846029
 21
171.4592189765
 31
0.0
  0
LINE
  5
1B4
330
1F
100
AcDbEntity
  8
0
  6
SLD-Сплошная
 62
     7
370
    25
100
AcDbLine
 10
331.1884846029
 20
179.8579434177
 30
0.0
 11
331.1884846029
 21
181.5754828734
 31
0.0
  0
LINE
  5
1B5
330
1F
100
AcDbEntity
  8
0
  6
SLD-Сплошная
 62
     7
370
    25
100
AcDbLine
 10
336.1884846029
 20
179.8579434177
 30
0.0
 11
336.1884846029
 21
181.5754828734
 31
0.0
  0
ARC
  5
1B6
330
1F
100
AcDbEntity
  8
0
  6
SLD-Сплошная
 62
     7
370
    25
100
AcDbCircle
 10
333.6784481496
 20
169.4173465783
 30
0.0
 40
2.489364896119655
100
AcDbArc
 50
181.0701732705
 51
358.9298267295
  0
LINE
  5
1B7
330
1F
100
AcDbEntity
  8
0
  6
SLD-Сплошная
 62
     7
370
    25
100
AcDbLine
 10
346.1884846029
 20
179.8579434177
 30
0.0
 11
346.1884846029
 21
181.5754828734
 31
0.0
  0
LINE
  5
1B8
330
1F
100
AcDbEntity
  8
0
  6
SLD-Сплошная
 62
     7
370
    25
100
AcDbLine
 10
351.1884846029
 20
179.8579434177
 30
0.0
 11
351.1884846029
 21
181.5754828734
 31
0.0
  0
LINE
  5
1B9
330
1F
100
AcDbEntity
  8
0
  6
SLD-Сплошная
 62
     7
370
    25
100
AcDbLine
 10
346.1884846029
 20
169.370852807
 30
0.0
 11
346.1884846029
 21
171.4592189765
 31
0.0
  0
LINE
  5
1BA
330
1F
100
AcDbEntity
  8
0
  6
SLD-Сплошная
 62
     7
370
    25
100
AcDbLine
 10
346.1884846029
 20
169.370852807
 30
0.0
 11
346.2095903792
 21
169.370852807
 31
0.0
  0
LINE
  5
1BB
330
1F
100
AcDbEntity
  8
0
  6
SLD-Сплошная
 62
     7
370
    25
100
AcDbLine
 10
351.1874517333
 20
169.370852807
 30
0.0
 11
351.1884846029
 21
169.370852807
 31
0.0
  0
LINE
  5
1BC
330
1F
100
AcDbEntity
  8
0
  6
SLD-Сплошная
 62
     7
370
    25
100
AcDbLine
 10
351.1884846029
 20
169.370852807
 30
0.0
 11
351.1884846029
 21
169.8486059135
 31
0.0
  0
ARC
  5
1BD
330
1F
100
AcDbEntity
  8
0
  6
SLD-Сплошная
 62
     7
370
    25
100
AcDbCircle
 10
341.1884846029
 20
147.370852807
 30
0.0
 40
29.20000000000002
100
AcDbArc
 50
290.027172484
 51
69.972827516
  0
SPLINE
  5
1BE
330
1F
100
AcDbEntity
  8
0
  6
SLD-Сплошная
 62
     7
370
    25
100
AcDbSpline
210
0.0
220
0.0
230
1.0
 70
     8
 71
     3
 72
    27
 73
    23
 74
     0
 42
0.00000001
 43
0.00000001
 40
0.0
 40
0.0
 40
0.0
 40
0.0
 40
0.125
 40
0.2500000000000001
 40
0.2500000000000001
 40
0.3125000000000001
 40
0.3125000000000001
 40
0.3750000000000001
 40
0.3750000000000001
 40
0.5
 40
0.5
 40
0.5625
 40
0.5625
 40
0.625
 40
0.625
 40
0.75
 40
0.75
 40
0.8125000000000001
 40
0.8125000000000001
 40
0.8750000000000001
 40
0.8750000000000001
 40
1.0
 40
1.0
 40
1.0
 40
1.0
 10
332.1884846029173
 20
116.1708528069523
 30
0.0
 10
332.8364272054033
 20
115.6848958550878
 30
0.0
 10
334.1936121666949
 20
114.8299139090755
 30
0.0
 10
335.6687262530573
 20
114.1998745652783
 30
0.0
 10
336.8210383060908
 20
113.8150385088401
 30
0.0
 10
337.2107581839674
 20
113.7022812370343
 30
0.0
 10
337.99207463209
 20
113.5098557727719
 30
0.0
 10
338.3850432635471
 20
113.4297175153464
 30
0.0
 10
339.5707831985478
 20
113.2368495164353
 30
0.0
 10
340.3703436055112
 20
113.1713538395924
 30
0.0
 10
341.5836977827292
 20
113.1706065578612
 30
0.0
 10
341.9906539693071
 20
113.1868929805708
 30
0.0
 10
342.7943469941828
 20
113.2516124190737
 30
0.0
 10
343.1929771961825
 20
113.299991440958
 30
0.0
 10
344.3793982132173
 20
113.4922934899106
 30
0.0
 10
345.1577803965822
 20
113.6830778209201
 30
0.0
 10
346.3061131380063
 20
114.0650876216559
 30
0.0
 10
346.6868629625642
 20
114.2090897566206
 30
0.0
 10
347.4299160546738
 20
114.5250649772788
 30
0.0
 10
347.7934512535667
 20
114.6973367103369
 30
0.0
 10
348.8604730740653
 20
115.2563077221901
 30
0.0
 10
349.5405301938978
 20
115.6848870001877
 30
0.0
 10
350.1884846029173
 20
116.1708528069523
 30
0.0
  0
ARC
  5
1BF
330
1F
100
AcDbEntity
  8
0
  6
SLD-Сплошная
 62
     7
370
    25
100
AcDbCircle
 10
341.1884846029
 20
147.370852807
 30
0.0
 40
29.20000000000002
100
AcDbArc
 50
110.027172484
 51
249.972827516
  0
LINE
  5
1C0
330
1F
100
AcDbEntity
  8
0
  6
SLD-Сплошная
 62
     7
370
    25
100
AcDbLine
 10
331.1884846029
 20
169.370852807
 30
0.0
 11
331.1884846029
 21
169.8486059135
 31
0.0
  0
LINE
  5
1C1
330
1F
100
AcDbEntity
  8
0
  6
SLD-Сплошная
 62
     7
370
    25
100
AcDbLine
 10
331.1895174725
 20
169.370852807
 30
0.0
 11
331.1884846029
 21
169.370852807
 31
0.0
  0
LINE
  5
1C2
330
1F
100
AcDbEntity
  8
0
  6
SLD-Сплошная
 62
     7
370
    25
100
AcDbLine
 10
336.1884846029
 20
169.370852807
 30
0.0
 11
336.1673788267
 21
169.370852807
 31
0.0
  0
LINE
  5
1C3
330
1F
100
AcDbEntity
  8
0
  6
SLD-Сплошная
 62
     7
370
    25
100
AcDbLine
 10
336.1884846029
 20
169.370852807
 30
0.0
 11
336.1884846029
 21
171.4592189765
 31
0.0
  0
ARC
  5
1C4
330
1F
100
AcDbEntity
  8
0
  6
SLD-Сплошная
 62
     7
370
    25
100
AcDbCircle
 10
341.1884846029
 20
147.370852807
 30
0.0
 40
29.20000000000004
100
AcDbArc
 50
80.140491156
 51
99.859508844
  0
LINE
  5
1C5
330
1F
100
AcDbEntity
  8
0
  6
SLD-Сплошная
 62
     7
370
    25
100
AcDbLine
 10
351.1884846029
 20
181.5754828734
 30
0.0
 11
351.1884846029
 21
190.3447590979
 31
0.0
  0
LINE
  5
1C6
330
1F
100
AcDbEntity
  8
0
  6
SLD-Сплошная
 62
     7
370
    25
100
AcDbLine
 10
346.1884846029
 20
181.5754828734
 30
0.0
 11
346.1884846029
 21
190.3447590979
 31
0.0
  0
LINE
  5
1C7
330
1F
100
AcDbEntity
  8
0
  6
SLD-Сплошная
 62
     7
370
    25
100
AcDbLine
 10
346.1884846029
 20
190.3447590979
 30
0.0
 11
351.1884846029
 21
190.3447590979
 31
0.0
  0
LINE
  5
1C8
330
1F
100
AcDbEntity
  8
0
  6
SLD-Сплошная
 62
     7
370
    25
100
AcDbLine
 10
331.1884846029
 20
181.5754828734
 30
0.0
 11
331.1884846029
 21
190.3447590979
 31
0.0
  0
LINE
  5
1C9
330
1F
100
AcDbEntity
  8
0
  6
SLD-Сплошная
 62
     7
370
    25
100
AcDbLine
 10
336.1884846029
 20
190.3447590979
 30
0.0
 11
331.1884846029
 21
190.3447590979
 31
0.0
  0
LINE
  5
1CA
330
1F
100
AcDbEntity
  8
0
  6
SLD-Сплошная
 62
     7
370
    25
100
AcDbLine
 10
336.1884846029
 20
181.5754828734
 30
0.0
 11
336.1884846029
 21
190.3447590979
 31
0.0
  0
LINE
  5
1CB
330
1F
100
AcDbEntity
  8
0
  6
SLD-Сплошная
 62
     7
370
    25
100
AcDbLine
 10
346.1884846029
 20
189.1398309075
 30
0.0
 11
336.1884846029
 21
189.1398309075
 31
0.0
  0
LINE
  5
1CC
330
1F
100
AcDbEntity
  8
0
  6
SLD-Сплошная
 62
     7
370
    25
100
AcDbLine
 10
336.1884846029
 20
180.370852807
 30
0.0
 11
346.1884846029
 21
180.370852807
 31
0.0
  0
LINE
  5
1CD
330
1F
100
AcDbEntity
  8
0
  6
SLD-Сплошная
 62
     7
370
    25
100
AcDbLine
 10
336.1884846029
 20
190.3447590979
 30
0.0
 11
336.1884846029
 21
197.6378732871
 31
0.0
  0
LINE
  5
1CE
330
1F
100
AcDbEntity
  8
0
  6
SLD-Сплошная
 62
     7
370
    25
100
AcDbLine
 10
346.1795960525
 20
197.6378732871
 30
0.0
 11
336.1884846029
 21
197.6378732871
 31
0.0
  0
LINE
  5
1CF
330
1F
100
AcDbEntity
  8
0
  6
SLD-Сплошная
 62
     7
370
    25
100
AcDbLine
 10
346.1795960525
 20
190.3447590979
 30
0.0
 11
346.1795960525
 21
197.6378732871
 31
0.0
  0
LINE
  5
1D0
330
1F
100
AcDbEntity
  8
0
  6
SLD-Сплошная
 62
     7
370
    25
100
AcDbLine
 10
346.1884846029
 20
190.3447590979
 30
0.0
 11
346.1795960525
 21
190.3447590979
 31
0.0
  0
LINE
  5
1D1
330
1F
100
AcDbEntity
  8
0
  6
SLD-Сплошная
 62
     7
370
    25
100
AcDbLine
 10
330.8884846029
 20
184.270852807
 30
0.0
 11
330.8884846029
 21
189.270852807
 31
0.0
  0
LINE
  5
1D2
330
1F
100
AcDbEntity
  8
0
  6
SLD-Сплошная
 62
     7
370
    25
100
AcDbLine
 10
326.8884846029
 20
184.270852807
 30
0.0
 11
326.8884846029
 21
189.270852807
 31
0.0
  0
LINE
  5
1D3
330
1F
100
AcDbEntity
  8
0
  6
SLD-Сплошная
 62
     7
370
    25
100
AcDbLine
 10
351.4884846029
 20
184.270852807
 30
0.0
 11
351.4884846029
 21
189.270852807
 31
0.0
  0
LINE
  5
1D4
330
1F
100
AcDbEntity
  8
0
  6
SLD-Сплошная
 62
     7
370
    25
100
AcDbLine
 10
355.4884846029
 20
184.270852807
 30
0.0
 11
355.4884846029
 21
189.270852807
 31
0.0
  0
LINE
  5
1D5
330
1F
100
AcDbEntity
  8
0
  6
SLD-Сплошная
 62
     7
370
    25
100
AcDbLine
 10
330.8884846029
 20
174.6939199847
 30
0.0
 11
330.8884846029
 21
184.270852807
 31
0.0
  0
LINE
  5
1D6
330
1F
100
AcDbEntity
  8
0
  6
SLD-Сплошная
 62
     7
370
    25
100
AcDbLine
 10
326.8884846029
 20
172.8296430374
 30
0.0
 11
326.8884846029
 21
184.270852807
 31
0.0
  0
LINE
  5
1D7
330
1F
100
AcDbEntity
  8
0
  6
SLD-Сплошная
 62
     7
370
    25
100
AcDbLine
 10
355.4884846029
 20
172.8296430374
 30
0.0
 11
355.4884846029
 21
184.270852807
 31
0.0
  0
LINE
  5
1D8
330
1F
100
AcDbEntity
  8
0
  6
SLD-Сплошная
 62
     7
370
    25
100
AcDbLine
 10
351.4884846029
 20
174.6939199847
 30
0.0
 11
351.4884846029
 21
184.270852807
 31
0.0
  0
LINE
  5
1D9
330
1F
100
AcDbEntity
  8
0
  6
SLD-Сплошная
 62
     7
370
    25
100
AcDbLine
 10
330.8884846029
 20
179.2788326275
 30
0.0
 11
331.1884846029
 21
179.2788326275
 31
0.0
  0
LINE
  5
1DA
330
1F
100
AcDbEntity
  8
0
  6
SLD-Сплошная
 62
     7
370
    25
100
AcDbLine
 10
351.1884846029
 20
179.2788326275
 30
0.0
 11
351.4884846029
 21
179.2788326275
 31
0.0
  0
LINE
  5
1DB
330
1F
100
AcDbEntity
  8
0
  6
SLD-Сплошная
 62
     7
370
    25
100
AcDbLine
 10
351.4884846029
 20
180.9656155192
 30
0.0
 11
351.1884846029
 21
180.9656155192
 31
0.0
  0
LINE
  5
1DC
330
1F
100
AcDbEntity
  8
0
  6
SLD-Сплошная
 62
     7
370
    25
100
AcDbLine
 10
331.1884846029
 20
180.9656155192
 30
0.0
 11
330.8884846029
 21
180.9656155192
 31
0.0
  0
ARC
  5
1DD
330
1F
100
AcDbEntity
  8
0
  6
SLD-Сплошная
 62
     7
370
    25
100
AcDbCircle
 10
279.1159321466
 20
239.3092644201
 30
0.0
 40
150.0
100
AcDbArc
 50
168.7747481503
 51
176.3106913217
  0
LWPOLYLINE
  5
1DE
330
1F
100
AcDbEntity
  8
0
  6
SLD-Сплошная
 62
     7
370
    25
100
AcDbPolyline
 90
        3
 70
   128
 43
0.0
 10
129.2163349789
 20
244.7965924557
 10
129.1159321466
 20
239.3092644201
 10
129.2163349789
 20
233.8219363845
  0
ARC
  5
1DF
330
1F
100
AcDbEntity
  8
0
  6
SLD-Сплошная
 62
     7
370
    25
100
AcDbCircle
 10
279.1159321466
 20
239.3092644201
 30
0.0
 40
150.0
100
AcDbArc
 50
183.6893086783
 51
191.2252518497
  0
LINE
  5
1E0
330
1F
100
AcDbEntity
  8
0
  6
SLD-Сплошная
 62
     7
370
    25
100
AcDbLine
 10
131.9855138097
 20
210.1092644201
 30
0.0
 11
139.1159321466
 21
210.1092644201
 31
0.0
  0
LINE
  5
1E1
330
1F
100
AcDbEntity
  8
0
  6
SLD-Сплошная
 62
     7
370
    25
100
AcDbLine
 10
139.1159321466
 20
268.5092644201
 30
0.0
 11
131.9855138097
 21
268.5092644201
 31
0.0
  0
LINE
  5
1E2
330
1F
100
AcDbEntity
  8
0
  6
SLD-Сплошная
 62
     7
370
    25
100
AcDbLine
 10
151.5159321466
 20
268.5092644201
 30
0.0
 11
139.1159321466
 21
268.5092644201
 31
0.0
  0
LINE
  5
1E3
330
1F
100
AcDbEntity
  8
0
  6
SLD-Сплошная
 62
     7
370
    25
100
AcDbLine
 10
181.6159321466
 20
268.5092644201
 30
0.0
 11
168.1159321466
 21
268.5092644201
 31
0.0
  0
LINE
  5
1E4
330
1F
100
AcDbEntity
  8
0
  6
SLD-Сплошная
 62
     7
370
    25
100
AcDbLine
 10
139.1159321466
 20
210.1092644201
 30
0.0
 11
181.6159321466
 21
210.1092644201
 31
0.0
  0
LINE
  5
1E5
330
1F
100
AcDbEntity
  8
0
  6
SLD-Сплошная
 62
     7
370
    25
100
AcDbLine
 10
220.4508603048
 20
217.0243461826
 30
0.0
 11
221.5226710143
 21
215.881945656
 31
0.0
  0
LINE
  5
1E6
330
1F
100
AcDbEntity
  8
0
  6
SLD-Сплошная
 62
     7
370
    25
100
AcDbLine
 10
221.5226710143
 20
262.7365831842
 30
0.0
 11
220.4508602852
 21
261.5941826367
 31
0.0
  0
ARC
  5
1E7
330
1F
100
AcDbEntity
  8
0
  6
SLD-Сплошная
 62
     7
370
    25
100
AcDbCircle
 10
192.615643375
 20
462.9472014954
 30
0.0
 40
250.0
100
AcDbArc
 50
277.403343976
 51
278.8664494011
  0
ARC
  5
1E8
330
1F
100
AcDbEntity
  8
0
  6
SLD-Сплошная
 62
     7
370
    25
100
AcDbCircle
 10
192.615643375
 20
15.6713273448
 30
0.0
 40
250.0000000000001
100
AcDbArc
 50
81.136677024
 51
82.5898665722
  0
LINE
  5
1E9
330
1F
100
AcDbEntity
  8
0
  6
SLD-Сплошная
 62
     7
370
    25
100
AcDbLine
 10
184.478340494
 20
265.5092644201
 30
0.0
 11
181.6159321466
 21
265.5092644201
 31
0.0
  0
LINE
  5
1EA
330
1F
100
AcDbEntity
  8
0
  6
SLD-Сплошная
 62
     7
370
    25
100
AcDbLine
 10
181.6159321466
 20
213.1092644201
 30
0.0
 11
184.4783221888
 21
213.1092644201
 31
0.0
  0
ARC
  5
1EB
330
1F
100
AcDbEntity
  8
0
  6
SLD-Сплошная
 62
     7
370
    25
100
AcDbCircle
 10
274.6749957399
 20
239.3086743957
 30
0.0
 40
15.00000000000004
100
AcDbArc
 50
309.5869195216
 51
330.0
  0
ARC
  5
1EC
330
1F
100
AcDbEntity
  8
0
  6
SLD-Сплошная
 62
     7
370
    25
100
AcDbCircle
 10
274.6749957399
 20
239.3086743957
 30
0.0
 40
15.00000000000003
100
AcDbArc
 50
30.0
 51
50.4130804784
  0
LINE
  5
1ED
330
1F
100
AcDbEntity
  8
0
  6
SLD-Сплошная
 62
     7
370
    25
100
AcDbLine
 10
198.7858254147
 20
215.3653384568
 30
0.0
 11
199.8327523334
 21
214.0868337304
 31
0.0
  0
LINE
  5
1EE
330
1F
100
AcDbEntity
  8
0
  6
SLD-Сплошная
 62
     7
370
    25
100
AcDbLine
 10
199.8327523334
 20
264.5316951098
 30
0.0
 11
198.7858254147
 21
263.2531903834
 31
0.0
  0
LINE
  5
1EF
330
1F
100
AcDbEntity
  8
0
  6
SLD-Сплошная
 62
     7
370
    25
100
AcDbLine
 10
155.5111276706
 20
268.1092644201
 30
0.0
 11
151.5159321466
 21
268.1092644201
 31
0.0
  0
LINE
  5
1F0
330
1F
100
AcDbEntity
  8
0
  6
SLD-Сплошная
 62
     7
370
    25
100
AcDbLine
 10
158.6418971466
 20
268.1092644201
 30
0.0
 11
157.8591976706
 21
268.1092644201
 31
0.0
  0
LINE
  5
1F1
330
1F
100
AcDbEntity
  8
0
  6
SLD-Сплошная
 62
     7
370
    25
100
AcDbLine
 10
168.1159321466
 20
268.1092644201
 30
0.0
 11
164.1207366226
 21
268.1092644201
 31
0.0
  0
SPLINE
  5
1F2
330
1F
100
AcDbEntity
  8
0
  6
SLD-Сплошная
 62
     7
370
    25
100
AcDbSpline
210
0.0
220
0.0
230
1.0
 70
     8
 71
     3
 72
    23
 73
    19
 74
     0
 42
0.00000001
 43
0.00000001
 40
0.0
 40
0.0
 40
0.0
 40
0.0
 40
0.0985955925751607
 40
0.1775695718120912
 40
0.2349431193020431
 40
0.273533705752481
 40
0.3339276487893286
 40
0.4133355439890457
 40
0.4907106547766193
 40
0.5559568351660528
 40
0.6092619598103952
 40
0.6516693155611453
 40
0.7002094714517395
 40
0.7752432907301503
 40
0.822775823395589
 40
0.8769265889245134
 40
0.9372595918450253
 40
1.0
 40
1.0
 40
1.0
 40
1.0
 10
227.5144004957281
 20
213.503492860477
 30
0.0
 10
228.3037986318246
 20
213.6210980210465
 30
0.0
 10
229.7254959446032
 20
213.8329036145806
 30
0.0
 10
231.6015278203646
 20
214.0913958640021
 30
0.0
 10
232.9423202187407
 20
214.2758309383239
 30
0.0
 10
234.1126501407068
 20
214.4394909986453
 30
0.0
 10
235.4184576148833
 20
214.6299019029865
 30
0.0
 10
236.9109895949547
 20
214.8735278596596
 30
0.0
 10
238.3049857655569
 20
215.1568717031826
 30
0.0
 10
239.4471750069697
 20
215.4650604416198
 30
0.0
 10
240.317021753419
 20
215.7737609372488
 30
0.0
 10
241.0466536105191
 20
216.097270032488
 30
0.0
 10
241.910162863147
 20
216.5871288102791
 30
0.0
 10
242.6603862667527
 20
217.2137537825876
 30
0.0
 10
243.2595210063141
 20
217.9468381985011
 30
0.0
 10
243.6610137536904
 20
218.6603341791486
 30
0.0
 10
243.9649203658934
 20
219.4637925171328
 30
0.0
 10
244.047199326658
 20
220.1232618109121
 30
0.0
 10
244.0891435251313
 20
220.4594463067818
 30
0.0
  0
SPLINE
  5
1F3
330
1F
100
AcDbEntity
  8
0
  6
SLD-Сплошная
 62
     7
370
    25
100
AcDbSpline
210
0.0
220
0.0
230
1.0
 70
     8
 71
     3
 72
    24
 73
    20
 74
     0
 42
0.00000001
 43
0.00000001
 40
0.0
 40
0.0
 40
0.0
 40
0.0
 40
0.0561390141287283
 40
0.1101378059777327
 40
0.2012923231773533
 40
0.2687148043380695
 40
0.3126839562394825
 40
0.3667435788477484
 40
0.4318682875980173
 40
0.4958448839670677
 40
0.5557005624555799
 40
0.6089168302655663
 40
0.6569552382969897
 40
0.7103511264532546
 40
0.7853799015374249
 40
0.8311976647222695
 40
0.8826277225695285
 40
0.939306835574146
 40
1.0
 40
1.0
 40
1.0
 40
1.0
 10
244.0891435251314
 20
258.1590825334126
 30
0.0
 10
244.0544063858216
 20
258.4577042996288
 30
0.0
 10
243.9862564126007
 20
259.0435632901844
 30
0.0
 10
243.6764897251263
 20
259.9558439973162
 30
0.0
 10
243.1423615809119
 20
260.8872711813187
 30
0.0
 10
242.3460330030842
 20
261.6865896839966
 30
0.0
 10
241.5271926168323
 20
262.2644176683259
 30
0.0
 10
240.6824156678803
 20
262.7005708017251
 30
0.0
 10
239.717621047342
 20
263.0694799293769
 30
0.0
 10
238.6233970859069
 20
263.3818603256993
 30
0.0
 10
237.5310667595568
 20
263.6222875480764
 30
0.0
 10
236.4698146091285
 20
263.8170408750142
 30
0.0
 10
235.4031268400613
 20
263.989234497041
 30
0.0
 10
234.1632747279724
 20
264.1714801877191
 30
0.0
 10
232.8601201172249
 20
264.3500886495241
 30
0.0
 10
231.5187633464762
 20
264.5343261885538
 30
0.0
 10
230.2924625656591
 20
264.705677855138
 30
0.0
 10
228.9337324092857
 20
264.9012610960584
 30
0.0
 10
227.9981762598874
 20
265.0421713405782
 30
0.0
 10
227.5144004957281
 20
265.1150359797174
 30
0.0
  0
LINE
  5
1F4
330
1F
100
AcDbEntity
  8
0
  6
SLD-Сплошная
 62
     7
370
    25
100
AcDbLine
 10
251.6653767967
 20
250.3092644201
 30
0.0
 11
244.1159321466
 21
250.3092644201
 31
0.0
  0
SPLINE
  5
1F5
330
1F
100
AcDbEntity
  8
0
  6
SLD-Сплошная
 62
     7
370
    25
100
AcDbSpline
210
0.0
220
0.0
230
1.0
 70
     8
 71
     3
 72
    18
 73
    14
 74
     0
 42
0.00000001
 43
0.00000001
 40
0.0
 40
0.0
 40
0.0
 40
0.0
 40
0.0790449218383602
 40
0.177891279412168
 40
0.2830804234532425
 40
0.3916891344792183
 40
0.501605757319473
 40
0.6128366067185459
 40
0.7138209919405513
 40
0.8059813604726054
 40
0.8891862809953291
 40
0.9614991899776495
 40
1.0
 40
1.0
 40
1.0
 40
1.0
 10
199.6204026079691
 20
214.2895049363447
 30
0.0
 10
199.7454919814987
 20
214.170132282281
 30
0.0
 10
200.0270066971883
 20
213.9014830931322
 30
0.0
 10
200.5915771342651
 20
213.5849838175955
 30
0.0
 10
201.2700652987203
 20
213.3637162365659
 30
0.0
 10
202.0114100104736
 20
213.2952780945781
 30
0.0
 10
202.7632966212227
 20
213.3938075930131
 30
0.0
 10
203.4576487611292
 20
213.6522377312993
 30
0.0
 10
204.0427265004352
 20
214.0303552910052
 30
0.0
 10
204.4924203185731
 20
214.469543719414
 30
0.0
 10
204.8098228888966
 20
214.9218950168975
 30
0.0
 10
204.9931050605018
 20
215.3046527592878
 30
0.0
 10
205.0561025667199
 20
215.5099356501125
 30
0.0
 10
205.0779902448934
 20
215.581258566187
 30
0.0
  0
SPLINE
  5
1F6
330
1F
100
AcDbEntity
  8
0
  6
SLD-Сплошная
 62
     7
370
    25
100
AcDbSpline
210
0.0
220
0.0
230
1.0
 70
     8
 71
     3
 72
    19
 73
    15
 74
     0
 42
0.00000001
 43
0.00000001
 40
0.0
 40
0.0
 40
0.0
 40
0.0
 40
0.0702279707472698
 40
0.1525235924329489
 40
0.2434834644225328
 40
0.3402800618037318
 40
0.440223395016588
 40
0.5413702879166277
 40
0.6437265514246437
 40
0.7366538679004334
 40
0.8214611944418173
 40
0.8980275860157229
 40
0.9645709883794849
 40
1.0
 40
1.0
 40
1.0
 40
1.0
 10
205.0779902448934
 20
263.0372702740074
 30
0.0
 10
205.0293725467798
 20
263.1821872168418
 30
0.0
 10
204.9237829093005
 20
263.496922962305
 30
0.0
 10
204.611280676882
 20
264.0045704654651
 30
0.0
 10
204.1619690609606
 20
264.4922228882304
 30
0.0
 10
203.576066983333
 20
264.9046517049543
 30
0.0
 10
202.8894393470152
 20
265.1900321112047
 30
0.0
 10
202.1418967552782
 20
265.3190225483904
 30
0.0
 10
201.40220902162
 20
265.2782609598359
 30
0.0
 10
200.7312679331999
 20
265.0907734549676
 30
0.0
 10
200.1715153426676
 20
264.8047958331788
 30
0.0
 10
199.7341854866328
 20
264.4669947592478
 30
0.0
 10
199.4455867383166
 20
264.1558573512897
 30
0.0
 10
199.3245153164568
 20
263.9785117404292
 30
0.0
 10
199.2824505987122
 20
263.9168952751272
 30
0.0
  0
SPLINE
  5
1F7
330
1F
100
AcDbEntity
  8
0
  6
SLD-Сплошная
 62
     7
370
    25
100
AcDbSpline
210
0.0
220
0.0
230
1.0
 70
     8
 71
     3
 72
    17
 73
    13
 74
     0
 42
0.00000001
 43
0.00000001
 40
0.0
 40
0.0
 40
0.0
 40
0.0
 40
0.0852614000855772
 40
0.1834652231956275
 40
0.290207522460143
 40
0.4026643380137082
 40
0.5179575977608266
 40
0.643817393564331
 40
0.7574118591685055
 40
0.8608249231947921
 40
0.9552485832308469
 40
1.0
 40
1.0
 40
1.0
 40
1.0
 10
226.6496872509908
 20
260.8375327597401
 30
0.0
 10
226.602163792117
 20
261.0015857363692
 30
0.0
 10
226.4999029568439
 20
261.354594436003
 30
0.0
 10
226.192546594852
 20
261.9006795397511
 30
0.0
 10
225.7477691010306
 20
262.4232270321265
 30
0.0
 10
225.1666689266445
 20
262.8657101818104
 30
0.0
 10
224.4644266174061
 20
263.1891191220515
 30
0.0
 10
223.7024972166908
 20
263.3429071639599
 30
0.0
 10
222.952737303624
 20
263.3206100480439
 30
0.0
 10
222.2982288614098
 20
263.1556602152584
 30
0.0
 10
221.8138012597189
 20
262.9450789997162
 30
0.0
 10
221.5787235471588
 20
262.7715562174317
 30
0.0
 10
221.503134864692
 20
262.715760377205
 30
0.0
  0
SPLINE
  5
1F8
330
1F
100
AcDbEntity
  8
0
  6
SLD-Сплошная
 62
     7
370
    25
100
AcDbSpline
210
0.0
220
0.0
230
1.0
 70
     8
 71
     3
 72
    17
 73
    13
 74
     0
 42
0.00000001
 43
0.00000001
 40
0.0
 40
0.0
 40
0.0
 40
0.0
 40
0.0738748198496094
 40
0.1806156978212695
 40
0.2930710159921663
 40
0.4083627405888581
 40
0.5342208605466177
 40
0.6478138136201153
 40
0.7512255006829054
 40
0.8456479034509998
 40
0.9305292608143441
 40
1.0
 40
1.0
 40
1.0
 40
1.0
 10
221.5029639043128
 20
215.9029506828773
 30
0.0
 10
221.6317763714773
 20
215.8145390367499
 30
0.0
 10
221.9467084916825
 20
215.5983824194704
 30
0.0
 10
222.5489594624594
 20
215.3809120595416
 30
0.0
 10
223.2676952989898
 20
215.2679201655739
 30
0.0
 10
224.0398789223164
 20
215.3212893041368
 30
0.0
 10
224.7825659319686
 20
215.5509357810864
 30
0.0
 10
225.4285135303087
 20
215.9300704460122
 30
0.0
 10
225.9291146354749
 20
216.3872557864231
 30
0.0
 10
226.2905781285766
 20
216.8767676722056
 30
0.0
 10
226.5299700978719
 20
217.3522761956165
 30
0.0
 10
226.6125291161067
 20
217.6479288391002
 30
0.0
 10
226.6496872509908
 20
217.7809960804543
 30
0.0
  0
LWPOLYLINE
  5
1F9
330
1F
100
AcDbEntity
  8
0
  6
SLD-Сплошная
 62
     7
370
    25
100
AcDbPolyline
 90
        3
 70
   128
 43
0.0
 10
243.4316416925
 20
218.1662089429
 10
243.6231424762
 20
218.2060422364
 10
244.1159321466
 20
218.3092644201
  0
LWPOLYLINE
  5
1FA
330
1F
100
AcDbEntity
  8
0
  6
SLD-Сплошная
 62
     7
370
    25
100
AcDbPolyline
 90
        3
 70
   128
 43
0.0
 10
244.1159321466
 20
260.3092644201
 10
243.6230783486
 20
260.4124999689
 10
243.3927238407
 20
260.4603959312
  0
LINE
  5
1FB
330
1F
100
AcDbEntity
  8
0
  6
SLD-Сплошная
 62
     7
370
    25
100
AcDbLine
 10
157.8591976706
 20
268.5092644201
 30
0.0
 11
155.5111276706
 21
268.5092644201
 31
0.0
  0
LINE
  5
1FC
330
1F
100
AcDbEntity
  8
0
  6
SLD-Сплошная
 62
     7
370
    25
100
AcDbLine
 10
160.9899671466
 20
268.5092644201
 30
0.0
 11
158.6418971466
 21
268.5092644201
 31
0.0
  0
LINE
  5
1FD
330
1F
100
AcDbEntity
  8
0
  6
SLD-Сплошная
 62
     7
370
    25
100
AcDbLine
 10
164.1207366226
 20
268.5092644201
 30
0.0
 11
161.7726666226
 21
268.5092644201
 31
0.0
  0
LINE
  5
1FE
330
1F
100
AcDbEntity
  8
0
  6
SLD-Сплошная
 62
     7
370
    25
100
AcDbLine
 10
244.1159321466
 20
228.3092644201
 30
0.0
 11
251.6653767967
 21
228.3092644201
 31
0.0
  0
LINE
  5
1FF
330
1F
100
AcDbEntity
  8
0
  6
SLD-Сплошная
 62
     7
370
    25
100
AcDbLine
 10
284.1634946925
 20
225.9401147266
 30
0.0
 11
284.2337167442
 21
227.7487932215
 31
0.0
  0
LINE
  5
200
330
1F
100
AcDbEntity
  8
0
  6
SLD-Сплошная
 62
     7
370
    25
100
AcDbLine
 10
284.2337167442
 20
250.8685555699
 30
0.0
 11
284.1634946925
 21
252.6772340648
 31
0.0
  0
SPLINE
  5
201
330
1F
100
AcDbEntity
  8
0
  6
SLD-Сплошная
 62
     7
370
    25
100
AcDbSpline
210
0.0
220
0.0
230
1.0
 70
     8
 71
     3
 72
    12
 73
     8
 74
     0
 42
0.00000001
 43
0.00000001
 40
0.0
 40
0.0
 40
0.0
 40
0.0
 40
0.1927255452264733
 40
0.4002870124483949
 40
0.6008833632923278
 40
0.8164510018009559
 40
1.0
 40
1.0
 40
1.0
 40
1.0
 10
199.0205454523993
 20
267.5572068777848
 30
0.0
 10
198.6075142090401
 20
267.5582594808093
 30
0.0
 10
197.7496567711076
 20
267.5604457157451
 30
0.0
 10
196.4558842316534
 20
267.566052620373
 30
0.0
 10
195.1181106171372
 20
267.5683100459693
 30
0.0
 10
193.8459396771733
 20
267.5704087076783
 30
0.0
 10
193.0077802511356
 20
267.5678639401004
 30
0.0
 10
192.6223206916209
 20
267.5666936317329
 30
0.0
  0
SPLINE
  5
202
330
1F
100
AcDbEntity
  8
0
  6
SLD-Сплошная
 62
     7
370
    25
100
AcDbSpline
210
0.0
220
0.0
230
1.0
 70
     8
 71
     3
 72
    10
 73
     6
 74
     0
 42
0.00000001
 43
0.00000001
 40
0.0
 40
0.0
 40
0.0
 40
0.0
 40
0.3330515684792769
 40
0.6673629143695116
 40
0.9999999999999999
 40
0.9999999999999999
 40
0.9999999999999999
 40
0.9999999999999999
 10
192.6223206112078
 20
211.0518352089789
 30
0.0
 10
193.3215945326985
 20
211.0504104948816
 30
0.0
 10
194.7227873999756
 20
211.0475556776638
 30
0.0
 10
196.8754814923916
 20
211.054351373595
 30
0.0
 10
198.3067217783299
 20
211.0590023243761
 30
0.0
 10
199.0205454790109
 20
211.0613219620574
 30
0.0
  0
LINE
  5
203
330
1F
100
AcDbEntity
  8
0
  6
SLD-Сплошная
 62
     7
370
    25
100
AcDbLine
 10
199.0220149049
 20
211.0613458535
 30
0.0
 11
201.6834428054
 21
211.0637157741
 31
0.0
  0
LINE
  5
204
330
1F
100
AcDbEntity
  8
0
  6
SLD-Сплошная
 62
     7
370
    25
100
AcDbLine
 10
201.6834428054
 20
267.554813066
 30
0.0
 11
199.0220149049
 21
267.5571829867
 31
0.0
  0
SPLINE
  5
205
330
1F
100
AcDbEntity
  8
0
  6
SLD-Сплошная
 62
     7
370
    25
100
AcDbSpline
210
0.0
220
0.0
230
1.0
 70
     8
 71
     3
 72
    12
 73
     8
 74
     0
 42
0.00000001
 43
0.00000001
 40
0.0
 40
0.0
 40
0.0
 40
0.0
 40
0.2397091384906916
 40
0.4610656123932996
 40
0.6616602981360971
 40
0.8412528247051316
 40
1.0
 40
1.0
 40
1.0
 40
1.0
 10
201.6849573839927
 20
211.0638329634163
 30
0.0
 10
203.7571456861655
 20
211.1574734070996
 30
0.0
 10
207.7428709470012
 20
211.3375849739071
 30
0.0
 10
213.4518412723004
 20
211.7835660733406
 30
0.0
 10
218.6308977859816
 20
212.3083006717025
 30
0.0
 10
223.2603800924004
 20
212.875962415015
 30
0.0
 10
226.1569957059813
 20
213.3033052492145
 30
0.0
 10
227.5160722318451
 20
213.5038122173236
 30
0.0
  0
SPLINE
  5
206
330
1F
100
AcDbEntity
  8
0
  6
SLD-Сплошная
 62
     7
370
    25
100
AcDbSpline
210
0.0
220
0.0
230
1.0
 70
     8
 71
     3
 72
    12
 73
     8
 74
     0
 42
0.00000001
 43
0.00000001
 40
0.0
 40
0.0
 40
0.0
 40
0.0
 40
0.1587471752948681
 40
0.3383397018639026
 40
0.5389343876066999
 40
0.7602908615093084
 40
1.0
 40
1.0
 40
1.0
 40
1.0
 10
227.516072231845
 20
265.1147166228708
 30
0.0
 10
226.1569957059812
 20
265.31522359098
 30
0.0
 10
223.2603800924003
 20
265.7425664251795
 30
0.0
 10
218.6308977859816
 20
266.310228168492
 30
0.0
 10
213.4518412723004
 20
266.8349627668538
 30
0.0
 10
207.7428709470013
 20
267.2809438662873
 30
0.0
 10
203.7571456861655
 20
267.4610554330948
 30
0.0
 10
201.6849573839927
 20
267.5546958767782
 30
0.0
  0
LINE
  5
207
330
1F
100
AcDbEntity
  8
0
  6
SLD-Сплошная
 62
     7
370
    25
100
AcDbLine
 10
262.6653767967
 20
221.8086743957
 30
0.0
 11
274.6749957399
 21
221.8086743957
 31
0.0
  0
ARC
  5
208
330
1F
100
AcDbEntity
  8
0
  6
SLD-Сплошная
 62
     7
370
    25
100
AcDbCircle
 10
274.6749957399
 20
239.3086743957
 30
0.0
 40
17.49999999999998
100
AcDbArc
 50
270.0
 51
297.7766046258
  0
ARC
  5
209
330
1F
100
AcDbEntity
  8
0
  6
SLD-Сплошная
 62
     7
370
    25
100
AcDbCircle
 10
281.6653767967
 20
226.0371043047
 30
0.0
 40
2.500000000000021
100
AcDbArc
 50
297.7766046258
 51
357.7766046258
  0
ARC
  5
20A
330
1F
100
AcDbEntity
  8
0
  6
SLD-Сплошная
 62
     7
370
    25
100
AcDbCircle
 10
281.6653767967
 20
252.5802444867
 30
0.0
 40
2.500000000000023
100
AcDbArc
 50
2.2233953742
 51
62.2233953742
  0
ARC
  5
20B
330
1F
100
AcDbEntity
  8
0
  6
SLD-Сплошная
 62
     7
370
    25
100
AcDbCircle
 10
274.6749957399
 20
239.3086743957
 30
0.0
 40
17.5
100
AcDbArc
 50
62.2233953742
 51
90.0
  0
LINE
  5
20C
330
1F
100
AcDbEntity
  8
0
  6
SLD-Сплошная
 62
     7
370
    25
100
AcDbLine
 10
274.6749957399
 20
256.8086743957
 30
0.0
 11
262.6653767967
 21
256.8086743957
 31
0.0
  0
LINE
  5
20D
330
1F
100
AcDbEntity
  8
0
  6
SLD-Сплошная
 62
     7
370
    25
100
AcDbLine
 10
181.6159321466
 20
211.2861910258
 30
0.0
 11
192.6211767532
 21
211.0518465006
 31
0.0
  0
LINE
  5
20E
330
1F
100
AcDbEntity
  8
0
  6
SLD-Сплошная
 62
     7
370
    25
100
AcDbLine
 10
192.6211767532
 20
267.5666823396
 30
0.0
 11
181.6159321466
 21
267.3323378144
 31
0.0
  0
LINE
  5
20F
330
1F
100
AcDbEntity
  8
0
  6
SLD-Сплошная
 62
     7
370
    25
100
AcDbLine
 10
131.9855138097
 20
249.3092644201
 30
0.0
 11
131.9855138097
 21
268.5092644201
 31
0.0
  0
SPLINE
  5
210
330
1F
100
AcDbEntity
  8
0
  6
SLD-Сплошная
 62
     7
370
    25
100
AcDbSpline
210
0.0
220
0.0
230
1.0
 70
     8
 71
     3
 72
    24
 73
    20
 74
     0
 42
0.00000001
 43
0.00000001
 40
0.0
 40
0.0
 40
0.0
 40
0.0
 40
0.1250000000000007
 40
0.1250000000000007
 40
0.2500000000000014
 40
0.2500000000000014
 40
0.3125000000000016
 40
0.3125000000000016
 40
0.3750000000000018
 40
0.3750000000000018
 40
0.5000000000000014
 40
0.5000000000000014
 40
0.6250000000000011
 40
0.6250000000000011
 40
0.7500000000000008
 40
0.7500000000000008
 40
0.8750000000000003
 40
0.8750000000000003
 40
1.0
 40
1.0
 40
1.0
 40
1.0
 10
132.6729056823795
 20
248.3092644200972
 30
0.0
 10
132.6911177639649
 20
248.1240538405428
 30
0.0
 10
132.7033116962489
 20
247.9165578746114
 30
0.0
 10
132.714062638814
 20
247.48371515347
 30
0.0
 10
132.7127524137258
 20
247.2518949094916
 30
0.0
 10
132.7008776123627
 20
246.9054682271375
 30
0.0
 10
132.6953036380011
 20
246.7896812554261
 30
0.0
 10
132.6808933992743
 20
246.5574782788067
 30
0.0
 10
132.6719851170407
 20
246.4405184421824
 30
0.0
 10
132.6411314732772
 20
246.0993169246425
 30
0.0
 10
132.6147655896534
 20
245.8798286549242
 30
0.0
 10
132.5515903467202
 20
245.466498393073
 30
0.0
 10
132.5158307964618
 20
245.2788458042334
 30
0.0
 10
132.4361520672009
 20
244.9408058621246
 30
0.0
 10
132.3932096185619
 20
244.7952275127507
 30
0.0
 10
132.3036431891283
 20
244.5573557810154
 30
0.0
 10
132.2565732591705
 20
244.4645643775179
 30
0.0
 10
132.1634484474988
 20
244.3414366841575
 30
0.0
 10
132.1162593824263
 20
244.3092644200972
 30
0.0
 10
132.0704969913377
 20
244.3092644200972
 30
0.0
  0
SPLINE
  5
211
330
1F
100
AcDbEntity
  8
0
  6
SLD-Сплошная
 62
     7
370
    25
100
AcDbSpline
210
0.0
220
0.0
230
1.0
 70
     8
 71
     3
 72
    27
 73
    23
 74
     0
 42
0.00000001
 43
0.00000001
 40
0.0
 40
0.0
 40
0.0
 40
0.0
 40
0.125
 40
0.2500000000000001
 40
0.2500000000000001
 40
0.3125000000000001
 40
0.3125000000000001
 40
0.3750000000000001
 40
0.3750000000000001
 40
0.5
 40
0.5
 40
0.5625
 40
0.5625
 40
0.625
 40
0.625
 40
0.75
 40
0.75
 40
0.8125000000000001
 40
0.8125000000000001
 40
0.8750000000000001
 40
0.8750000000000001
 40
1.0
 40
1.0
 40
1.0
 40
1.0
 10
132.6729056823795
 20
230.3092644200972
 30
0.0
 10
132.7366190165072
 20
230.9572070225832
 30
0.0
 10
132.8487964555052
 20
232.3143919838748
 30
0.0
 10
132.9315432006607
 20
233.7895060702372
 30
0.0
 10
132.9820995993514
 20
234.9418181232707
 30
0.0
 10
132.9969155485827
 20
235.3315380011474
 30
0.0
 10
133.0222023915418
 20
236.1128544492699
 30
0.0
 10
133.0327350423199
 20
236.505823080727
 30
0.0
 10
133.0580855266205
 20
237.6915630157277
 30
0.0
 10
133.0666964770558
 20
238.4911234226911
 30
0.0
 10
133.0667947166365
 20
239.7044775999092
 30
0.0
 10
133.0646536148354
 20
240.111433786487
 30
0.0
 10
133.0561458014133
 20
240.9151268113627
 30
0.0
 10
133.0497861902793
 20
241.3137570133624
 30
0.0
 10
133.0245100638035
 20
242.5001780303973
 30
0.0
 10
132.999435610783
 20
243.2785602137621
 30
0.0
 10
132.94925024978
 20
244.4268929551862
 30
0.0
 10
132.9303352866115
 20
244.8076427797441
 30
0.0
 10
132.8888410253431
 20
245.5506958718537
 30
0.0
 10
132.8662224715688
 20
245.9142310707467
 30
0.0
 10
132.7928517344251
 20
246.9812528912453
 30
0.0
 10
132.7366201774644
 20
247.6613100110777
 30
0.0
 10
132.6729056823795
 20
248.3092644200972
 30
0.0
  0
SPLINE
  5
212
330
1F
100
AcDbEntity
  8
0
  6
SLD-Сплошная
 62
     7
370
    25
100
AcDbSpline
210
0.0
220
0.0
230
1.0
 70
     8
 71
     3
 72
    28
 73
    24
 74
     0
 42
0.00000001
 43
0.00000001
 40
0.0
 40
0.0
 40
0.0
 40
0.0
 40
0.1249999999999994
 40
0.1249999999999994
 40
0.1874999999999991
 40
0.1874999999999991
 40
0.2499999999999988
 40
0.2499999999999988
 40
0.3750000000000004
 40
0.3750000000000004
 40
0.4375000000000009
 40
0.4375000000000009
 40
0.5000000000000014
 40
0.5000000000000014
 40
0.6250000000000014
 40
0.6250000000000014
 40
0.7500000000000016
 40
0.7500000000000016
 40
0.8125000000000017
 40
0.8125000000000017
 40
0.8750000000000019
 40
0.8750000000000019
 40
1.0
 40
1.0
 40
1.0
 40
1.0
 10
132.0704969913379
 20
234.3092644200972
 30
0.0
 10
132.1162993791561
 20
234.3092644200972
 30
0.0
 10
132.1626192079912
 20
234.2779422239271
 30
0.0
 10
132.2328538505903
 20
234.185446710303
 30
0.0
 10
132.256533484048
 20
234.146563039046
 30
0.0
 10
132.302829794636
 20
234.05528230397
 30
0.0
 10
132.3255786961411
 20
234.0027993720422
 30
0.0
 10
132.3926392639051
 20
233.8250463859333
 30
0.0
 10
132.4362441643048
 20
233.6771933116081
 30
0.0
 10
132.4955231734805
 20
233.4259077452186
 30
0.0
 10
132.5143942023965
 20
233.3369525414932
 30
0.0
 10
132.5503200247051
 20
233.1484403070916
 30
0.0
 10
132.5674712452359
 20
233.048135202344
 30
0.0
 10
132.6146343968827
 20
232.7395443150159
 30
0.0
 10
132.6408777313746
 20
232.5219566295904
 30
0.0
 10
132.6824717178545
 20
232.0621033824032
 30
0.0
 10
132.6968164619055
 20
231.8309645454962
 30
0.0
 10
132.7087917258251
 20
231.4824647176854
 30
0.0
 10
132.7111446414174
 20
231.3655964964824
 30
0.0
 10
132.7124231809749
 20
231.1386781411722
 30
0.0
 10
132.7113936709843
 20
231.0277046661983
 30
0.0
 10
132.7033342084525
 20
230.7021890733742
 30
0.0
 10
132.6910993869058
 20
230.494288111308
 30
0.0
 10
132.6729056823795
 20
230.3092644200972
 30
0.0
  0
LINE
  5
213
330
1F
100
AcDbEntity
  8
0
  6
SLD-Сплошная
 62
     7
370
    25
100
AcDbLine
 10
131.9855138097
 20
210.1092644201
 30
0.0
 11
131.9855138097
 21
229.3092644201
 31
0.0
  0
LINE
  5
214
330
1F
100
AcDbEntity
  8
0
  6
SLD-Сплошная
 62
     7
370
    25
100
AcDbLine
 10
136.1159321466
 20
248.3092644201
 30
0.0
 11
136.1159321466
 21
230.3092644201
 31
0.0
  0
LINE
  5
215
330
1F
100
AcDbEntity
  8
0
  6
SLD-Сплошная
 62
     7
370
    25
100
AcDbLine
 10
136.1159321466
 20
232.9592644201
 30
0.0
 11
139.1159321466
 21
232.9592644201
 31
0.0
  0
LINE
  5
216
330
1F
100
AcDbEntity
  8
0
  6
SLD-Сплошная
 62
     7
370
    25
100
AcDbLine
 10
136.1159321466
 20
245.6592644201
 30
0.0
 11
139.1159321466
 21
245.6592644201
 31
0.0
  0
LINE
  5
217
330
1F
100
AcDbEntity
  8
0
  6
SLD-Сплошная
 62
     7
370
    25
100
AcDbLine
 10
139.1159321466
 20
232.9592644201
 30
0.0
 11
139.1159321466
 21
245.6592644201
 31
0.0
  0
ARC
  5
218
330
1F
100
AcDbEntity
  8
0
  6
SLD-Сплошная
 62
     7
370
    25
100
AcDbCircle
 10
130.6992886409
 20
231.8092644201
 30
0.0
 40
2.500000000000028
100
AcDbArc
 50
90.0
 51
270.0
  0
LINE
  5
219
330
1F
100
AcDbEntity
  8
0
  6
SLD-Сплошная
 62
     7
370
    25
100
AcDbLine
 10
136.1159321466
 20
229.3092644201
 30
0.0
 11
130.6992886409
 21
229.3092644201
 31
0.0
  0
LINE
  5
21A
330
1F
100
AcDbEntity
  8
0
  6
SLD-Сплошная
 62
     7
370
    25
100
AcDbLine
 10
132.0704969913
 20
234.3092644201
 30
0.0
 11
130.6992886409
 21
234.3092644201
 31
0.0
  0
LINE
  5
21B
330
1F
100
AcDbEntity
  8
0
  6
SLD-Сплошная
 62
     7
370
    25
100
AcDbLine
 10
136.1159321466
 20
230.3092644201
 30
0.0
 11
136.1159321466
 21
229.3092644201
 31
0.0
  0
LINE
  5
21C
330
1F
100
AcDbEntity
  8
0
  6
SLD-Сплошная
 62
     7
370
    25
100
AcDbLine
 10
136.1159321466
 20
249.3092644201
 30
0.0
 11
130.6992886409
 21
249.3092644201
 31
0.0
  0
LINE
  5
21D
330
1F
100
AcDbEntity
  8
0
  6
SLD-Сплошная
 62
     7
370
    25
100
AcDbLine
 10
132.0704969913
 20
244.3092644201
 30
0.0
 11
130.6992886409
 21
244.3092644201
 31
0.0
  0
LINE
  5
21E
330
1F
100
AcDbEntity
  8
0
  6
SLD-Сплошная
 62
     7
370
    25
100
AcDbLine
 10
136.1159321466
 20
249.3092644201
 30
0.0
 11
136.1159321466
 21
248.3092644201
 31
0.0
  0
ARC
  5
21F
330
1F
100
AcDbEntity
  8
0
  6
SLD-Сплошная
 62
     7
370
    25
100
AcDbCircle
 10
130.6992886409
 20
246.8092644201
 30
0.0
 40
2.5
100
AcDbArc
 50
90.0
 51
270.0
  0
LINE
  5
220
330
1F
100
AcDbEntity
  8
0
  6
SLD-Сплошная
 62
     7
370
    25
100
AcDbLine
 10
139.1159321466
 20
210.1092644201
 30
0.0
 11
139.1159321466
 21
232.9592644201
 31
0.0
  0
LINE
  5
221
330
1F
100
AcDbEntity
  8
0
  6
SLD-Сплошная
 62
     7
370
    25
100
AcDbLine
 10
139.1159321466
 20
245.6592644201
 30
0.0
 11
139.1159321466
 21
268.5092644201
 31
0.0
  0
LINE
  5
222
330
1F
100
AcDbEntity
  8
0
  6
SLD-Сплошная
 62
     7
370
    25
100
AcDbLine
 10
181.6159321466
 20
245.5895371228
 30
0.0
 11
139.1159321466
 21
245.5895371228
 31
0.0
  0
LINE
  5
223
330
1F
100
AcDbEntity
  8
0
  6
SLD-Сплошная
 62
     7
370
    25
100
AcDbLine
 10
139.1159321466
 20
233.0289917174
 30
0.0
 11
181.6159321466
 21
233.0289917174
 31
0.0
  0
LINE
  5
224
330
1F
100
AcDbEntity
  8
0
  6
SLD-Сплошная
 62
     7
370
    25
100
AcDbLine
 10
181.6159321466
 20
233.0289917174
 30
0.0
 11
181.6159321466
 21
245.5895371228
 31
0.0
  0
SPLINE
  5
225
330
1F
100
AcDbEntity
  8
0
  6
SLD-Сплошная
 62
     7
370
    25
100
AcDbSpline
210
0.0
220
0.0
230
1.0
 70
     8
 71
     3
 72
    28
 73
    24
 74
     0
 42
0.00000001
 43
0.00000001
 40
0.0
 40
0.0
 40
0.0
 40
0.0
 40
0.1249999999999997
 40
0.1249999999999997
 40
0.1874999999999996
 40
0.1874999999999996
 40
0.2499999999999994
 40
0.2499999999999994
 40
0.3749999999999994
 40
0.3749999999999994
 40
0.4999999999999994
 40
0.4999999999999994
 40
0.5624999999999994
 40
0.5624999999999994
 40
0.6249999999999996
 40
0.6249999999999996
 40
0.7499999999999997
 40
0.7499999999999997
 40
0.8124999999999997
 40
0.8124999999999997
 40
0.8749999999999998
 40
0.8749999999999998
 40
1.0
 40
1.0
 40
1.0
 40
1.0
 10
198.4130298346961
 20
215.7916745049325
 30
0.0
 10
198.1171319157601
 20
216.3232100558907
 30
0.0
 10
197.7830114432148
 20
216.9193360818516
 30
0.0
 10
197.2736110771839
 20
217.9115320397839
 30
0.0
 10
197.1030282366789
 20
218.2588068310489
 30
0.0
 10
196.7715351921348
 20
218.9887253502023
 30
0.0
 10
196.6111896782198
 20
219.3723732321454
 30
0.0
 10
196.1557738365034
 20
220.5739939880286
 30
0.0
 10
195.8838982376608
 20
221.4376960545997
 30
0.0
 10
195.3820910086747
 20
223.2903803252995
 30
0.0
 10
195.1533567607032
 20
224.2717605904102
 30
0.0
 10
194.8373857855046
 20
225.8187428392101
 30
0.0
 10
194.7366674449675
 20
226.348229229883
 30
0.0
 10
194.5461795348386
 20
227.425699607798
 30
0.0
 10
194.4562476624372
 20
227.9743682370533
 30
0.0
 10
194.2022574354739
 20
229.6502938243611
 30
0.0
 10
194.0525946373801
 20
230.8096438035043
 30
0.0
 10
193.8844911609773
 20
232.5844351284495
 30
0.0
 10
193.8377866165043
 20
233.1830855710391
 30
0.0
 10
193.7684499315094
 20
234.3949444926934
 30
0.0
 10
193.7472475480955
 20
235.0036697340534
 30
0.0
 10
193.6981488998765
 20
236.8372789834178
 30
0.0
 10
193.6825378791482
 20
238.0694957596858
 30
0.0
 10
193.614265942638
 20
239.3092644200972
 30
0.0
  0
SPLINE
  5
226
330
1F
100
AcDbEntity
  8
0
  6
SLD-Сплошная
 62
     7
370
    25
100
AcDbSpline
210
0.0
220
0.0
230
1.0
 70
     8
 71
     3
 72
    18
 73
    14
 74
     0
 42
0.00000001
 43
0.00000001
 40
0.0
 40
0.0
 40
0.0
 40
0.0
 40
0.2499999999999998
 40
0.2499999999999998
 40
0.3749999999999998
 40
0.3749999999999998
 40
0.4999999999999998
 40
0.4999999999999998
 40
0.7499999999999998
 40
0.7499999999999998
 40
0.8749999999999999
 40
0.8749999999999999
 40
1.0
 40
1.0
 40
1.0
 40
1.0
 10
199.6175983505594
 20
239.3092644200972
 30
0.0
 10
199.597599805135
 20
237.8247763860038
 30
0.0
 10
199.6525860142375
 20
236.3608637788208
 30
0.0
 10
199.7935093256676
 20
234.192358233231
 30
0.0
 10
199.8493188494751
 20
233.4740665949625
 30
0.0
 10
199.9799923145123
 20
232.046765348315
 30
0.0
 10
200.0548583963531
 20
231.3407536865371
 30
0.0
 10
200.3075907984145
 20
229.2699102690694
 30
0.0
 10
200.51526474457
 20
227.9422124939604
 30
0.0
 10
200.8868245044889
 20
226.0291471233457
 30
0.0
 10
201.0208380716583
 20
225.4041510343802
 30
0.0
 10
201.3057087852602
 20
224.1950639227625
 30
0.0
 10
201.4568955477364
 20
223.6090677016853
 30
0.0
 10
201.6159321465987
 20
223.0413450790013
 30
0.0
  0
SPLINE
  5
227
330
1F
100
AcDbEntity
  8
0
  6
SLD-Сплошная
 62
     7
370
    25
100
AcDbSpline
210
0.0
220
0.0
230
1.0
 70
     8
 71
     3
 72
    12
 73
     8
 74
     0
 42
0.00000001
 43
0.00000001
 40
0.0
 40
0.0
 40
0.0
 40
0.0
 40
0.2499999999999998
 40
0.2499999999999998
 40
0.4999999999999996
 40
0.4999999999999996
 40
1.0
 40
1.0
 40
1.0
 40
1.0
 10
201.6159321465987
 20
223.0413450790014
 30
0.0
 10
201.8010306744712
 20
222.3992244599594
 30
0.0
 10
201.9954713735187
 20
221.7855832714826
 30
0.0
 10
202.3990775869526
 20
220.6134835711968
 30
0.0
 10
202.6074727401915
 20
220.0546352764307
 30
0.0
 10
203.2470121167582
 20
218.4790458336448
 30
0.0
 10
203.7000449315472
 20
217.5572218081687
 30
0.0
 10
204.2396761733537
 20
216.7715835465205
 30
0.0
  0
SPLINE
  5
228
330
1F
100
AcDbEntity
  8
0
  6
SLD-Сплошная
 62
     7
370
    25
100
AcDbSpline
210
0.0
220
0.0
230
1.0
 70
     8
 71
     3
 72
    28
 73
    24
 74
     0
 42
0.00000001
 43
0.00000001
 40
0.0
 40
0.0
 40
0.0
 40
0.0
 40
0.1249999999999997
 40
0.1249999999999997
 40
0.1874999999999996
 40
0.1874999999999996
 40
0.2499999999999994
 40
0.2499999999999994
 40
0.3749999999999994
 40
0.3749999999999994
 40
0.4999999999999994
 40
0.4999999999999994
 40
0.5624999999999994
 40
0.5624999999999994
 40
0.6249999999999996
 40
0.6249999999999996
 40
0.7499999999999997
 40
0.7499999999999997
 40
0.8124999999999997
 40
0.8124999999999997
 40
0.8749999999999998
 40
0.8749999999999998
 40
1.0
 40
1.0
 40
1.0
 40
1.0
 10
198.4130298346961
 20
262.8268543352619
 30
0.0
 10
198.1171319157601
 20
262.2953187843038
 30
0.0
 10
197.7830114432148
 20
261.6991927583429
 30
0.0
 10
197.2736110771839
 20
260.7069968004105
 30
0.0
 10
197.1030282366789
 20
260.3597220091456
 30
0.0
 10
196.7715351921348
 20
259.6298034899921
 30
0.0
 10
196.6111896782198
 20
259.2461556080491
 30
0.0
 10
196.1557738365034
 20
258.0445348521658
 30
0.0
 10
195.8838982376608
 20
257.1808327855948
 30
0.0
 10
195.3820910086747
 20
255.328148514895
 30
0.0
 10
195.1533567607032
 20
254.3467682497843
 30
0.0
 10
194.8373857855046
 20
252.7997860009843
 30
0.0
 10
194.7366674449675
 20
252.2702996103114
 30
0.0
 10
194.5461795348386
 20
251.1928292323964
 30
0.0
 10
194.4562476624372
 20
250.6441606031412
 30
0.0
 10
194.2022574354739
 20
248.9682350158334
 30
0.0
 10
194.0525946373801
 20
247.8088850366901
 30
0.0
 10
193.8844911609773
 20
246.034093711745
 30
0.0
 10
193.8377866165043
 20
245.4354432691553
 30
0.0
 10
193.7684499315094
 20
244.223584347501
 30
0.0
 10
193.7472475480955
 20
243.6148591061411
 30
0.0
 10
193.6981488998765
 20
241.7812498567766
 30
0.0
 10
193.6825378791482
 20
240.5490330805087
 30
0.0
 10
193.614265942638
 20
239.3092644200972
 30
0.0
  0
SPLINE
  5
229
330
1F
100
AcDbEntity
  8
0
  6
SLD-Сплошная
 62
     7
370
    25
100
AcDbSpline
210
0.0
220
0.0
230
1.0
 70
     8
 71
     3
 72
    12
 73
     8
 74
     0
 42
0.00000001
 43
0.00000001
 40
0.0
 40
0.0
 40
0.0
 40
0.0
 40
0.25
 40
0.25
 40
0.5
 40
0.5
 40
1.0
 40
1.0
 40
1.0
 40
1.0
 10
201.6159321465987
 20
255.5771837611931
 30
0.0
 10
201.8010306744712
 20
256.219304380235
 30
0.0
 10
201.9954713735187
 20
256.8329455687119
 30
0.0
 10
202.3990775869526
 20
258.0050452689976
 30
0.0
 10
202.6074727401915
 20
258.5638935637638
 30
0.0
 10
203.2470121167582
 20
260.1394830065497
 30
0.0
 10
203.7000449315472
 20
261.0613070320257
 30
0.0
 10
204.2396761733537
 20
261.846945293674
 30
0.0
  0
SPLINE
  5
22A
330
1F
100
AcDbEntity
  8
0
  6
SLD-Сплошная
 62
     7
370
    25
100
AcDbSpline
210
0.0
220
0.0
230
1.0
 70
     8
 71
     3
 72
    18
 73
    14
 74
     0
 42
0.00000001
 43
0.00000001
 40
0.0
 40
0.0
 40
0.0
 40
0.0
 40
0.2499999999999999
 40
0.2499999999999999
 40
0.3749999999999999
 40
0.3749999999999999
 40
0.4999999999999999
 40
0.4999999999999999
 40
0.7500000000000001
 40
0.7500000000000001
 40
0.875
 40
0.875
 40
1.0
 40
1.0
 40
1.0
 40
1.0
 10
199.6175983505594
 20
239.3092644200972
 30
0.0
 10
199.597599805135
 20
240.7937524541906
 30
0.0
 10
199.6525860142375
 20
242.2576650613736
 30
0.0
 10
199.7935093256676
 20
244.4261706069634
 30
0.0
 10
199.8493188494751
 20
245.1444622452319
 30
0.0
 10
199.9799923145123
 20
246.5717634918794
 30
0.0
 10
200.0548583963531
 20
247.2777751536573
 30
0.0
 10
200.3075907984145
 20
249.348618571125
 30
0.0
 10
200.51526474457
 20
250.676316346234
 30
0.0
 10
200.8868245044889
 20
252.5893817168487
 30
0.0
 10
201.0208380716583
 20
253.2143778058142
 30
0.0
 10
201.3057087852602
 20
254.4234649174319
 30
0.0
 10
201.4568955477364
 20
255.009461138509
 30
0.0
 10
201.6159321465987
 20
255.5771837611931
 30
0.0
  0
LINE
  5
22B
330
1F
100
AcDbEntity
  8
0
  6
SLD-Сплошная
 62
     7
370
    25
100
AcDbLine
 10
151.5159321466
 20
268.5092644201
 30
0.0
 11
151.5159321466
 21
265.2434681671
 31
0.0
  0
LINE
  5
22C
330
1F
100
AcDbEntity
  8
0
  6
SLD-Сплошная
 62
     7
370
    25
100
AcDbLine
 10
151.5159321466
 20
265.2434681671
 30
0.0
 11
168.1159321466
 21
265.2434681671
 31
0.0
  0
LINE
  5
22D
330
1F
100
AcDbEntity
  8
0
  6
SLD-Сплошная
 62
     7
370
    25
100
AcDbLine
 10
168.1159321466
 20
268.5092644201
 30
0.0
 11
168.1159321466
 21
265.2434681671
 31
0.0
  0
LINE
  5
22E
330
1F
100
AcDbEntity
  8
0
  6
SLD-Сплошная
 62
     7
370
    25
100
AcDbLine
 10
181.6159321466
 20
233.0289917174
 30
0.0
 11
181.6159321466
 21
210.1092644201
 31
0.0
  0
LINE
  5
22F
330
1F
100
AcDbEntity
  8
0
  6
SLD-Сплошная
 62
     7
370
    25
100
AcDbLine
 10
181.6159321466
 20
268.5092644201
 30
0.0
 11
181.6159321466
 21
245.5895371228
 31
0.0
  0
LINE
  5
230
330
1F
100
AcDbEntity
  8
0
  6
SLD-Сплошная
 62
     7
370
    25
100
AcDbLine
 10
139.1159321466
 20
233.0289917174
 30
0.0
 11
139.1159321466
 21
210.1092644201
 31
0.0
  0
LINE
  5
231
330
1F
100
AcDbEntity
  8
0
  6
SLD-Сплошная
 62
     7
370
    25
100
AcDbLine
 10
139.1159321466
 20
268.5092644201
 30
0.0
 11
139.1159321466
 21
245.5895371228
 31
0.0
  0
LINE
  5
232
330
1F
100
AcDbEntity
  8
0
  6
SLD-Сплошная
 62
     7
370
    25
100
AcDbLine
 10
220.9950572783
 20
216.3384938606
 30
0.0
 11
221.5215919431
 21
215.8826614678
 31
0.0
  0
SPLINE
  5
233
330
1F
100
AcDbEntity
  8
0
  6
SLD-Сплошная
 62
     7
370
    25
100
AcDbSpline
210
0.0
220
0.0
230
1.0
 70
     8
 71
     3
 72
    28
 73
    24
 74
     0
 42
0.00000001
 43
0.00000001
 40
0.0
 40
0.0
 40
0.0
 40
0.0
 40
0.1250000000000003
 40
0.1250000000000003
 40
0.1875000000000004
 40
0.1875000000000004
 40
0.2500000000000004
 40
0.2500000000000004
 40
0.3750000000000004
 40
0.3750000000000004
 40
0.4375000000000002
 40
0.4375000000000002
 40
0.5000000000000001
 40
0.5000000000000001
 40
0.6250000000000002
 40
0.6250000000000002
 40
0.6875000000000001
 40
0.6875000000000001
 40
0.7500000000000001
 40
0.7500000000000001
 40
0.8750000000000001
 40
0.8750000000000001
 40
1.0
 40
1.0
 40
1.0
 40
1.0
 10
220.9950572782757
 20
216.3384938605664
 30
0.0
 10
220.6189121197145
 20
216.7530233246786
 30
0.0
 10
220.255036193733
 20
217.2509120803294
 30
0.0
 10
219.727394234899
 20
218.1211720580483
 30
0.0
 10
219.554584890366
 20
218.4319227309883
 30
0.0
 10
219.2155450213369
 20
219.0956366873035
 30
0.0
 10
219.0488008890268
 20
219.4499383058387
 30
0.0
 10
218.5639101498623
 20
220.5674075945323
 30
0.0
 10
218.2611004324536
 20
221.3831816382251
 30
0.0
 10
217.8374179233174
 20
222.7132224119413
 30
0.0
 10
217.7013076370824
 20
223.1743755101641
 30
0.0
 10
217.4396330628482
 20
224.1332919593652
 30
0.0
 10
217.3139948165269
 20
224.6319202694052
 30
0.0
 10
216.959177239453
 20
226.1589781537652
 30
0.0
 10
216.7487762370019
 20
227.2256797220793
 30
0.0
 10
216.4740413062246
 20
228.8987482902106
 30
0.0
 10
216.3892664979786
 20
229.4686538412069
 30
0.0
 10
216.2336975740805
 20
230.6335161618738
 30
0.0
 10
216.1627168758544
 20
231.2304570900261
 30
0.0
 10
215.9725299961797
 20
233.0468210223985
 30
0.0
 10
215.8776810697682
 20
234.2752509098532
 30
0.0
 10
215.7532931427443
 20
236.7664404230071
 30
0.0
 10
215.7230082920852
 20
238.0291514711943
 30
0.0
 10
215.7185044276985
 20
239.3092644200972
 30
0.0
  0
SPLINE
  5
234
330
1F
100
AcDbEntity
  8
0
  6
SLD-Сплошная
 62
     7
370
    25
100
AcDbSpline
210
0.0
220
0.0
230
1.0
 70
     8
 71
     3
 72
    26
 73
    22
 74
     0
 42
0.00000001
 43
0.00000001
 40
0.0
 40
0.0
 40
0.0
 40
0.0
 40
0.1250000000000001
 40
0.1250000000000001
 40
0.2500000000000002
 40
0.2500000000000002
 40
0.3750000000000001
 40
0.3750000000000001
 40
0.5
 40
0.5
 40
0.5625
 40
0.5625
 40
0.625
 40
0.625
 40
0.75
 40
0.75
 40
0.8125
 40
0.8125
 40
0.8750000000000001
 40
0.8750000000000001
 40
1.0
 40
1.0
 40
1.0
 40
1.0
 10
221.6890561179892
 20
239.3092644200972
 30
0.0
 10
221.6896071020577
 20
238.1451157864616
 30
0.0
 10
221.7204330758378
 20
236.9954857204571
 30
0.0
 10
221.8403985542808
 20
234.7240965476777
 30
0.0
 10
221.9296203976018
 20
233.6023456061377
 30
0.0
 10
222.1688265493677
 20
231.3874568154742
 30
0.0
 10
222.3163250467605
 20
230.3166688065885
 30
0.0
 10
222.6616671399372
 20
228.2574465012441
 30
0.0
 10
222.8597708299984
 20
227.2668012747221
 30
0.0
 10
223.1953308889661
 20
225.83977811411
 30
0.0
 10
223.3130711224284
 20
225.376281087127
 30
0.0
 10
223.5576460971785
 20
224.482006882744
 30
0.0
 10
223.6848155675804
 20
224.0497911576772
 30
0.0
 10
224.0806135927847
 20
222.7967869996157
 30
0.0
 10
224.3634606963372
 20
222.0194268104439
 30
0.0
 10
224.8162228775643
 20
220.9399893059026
 30
0.0
 10
224.9724509007492
 20
220.5936365141524
 30
0.0
 10
225.291352015786
 20
219.936905467838
 30
0.0
 10
225.4540179375052
 20
219.6263063533306
 30
0.0
 10
225.9511749698191
 20
218.7465726802871
 30
0.0
 10
226.2947898126372
 20
218.2292430071843
 30
0.0
 10
226.6496872509934
 20
217.7809960804553
 30
0.0
  0
SPLINE
  5
235
330
1F
100
AcDbEntity
  8
0
  6
SLD-Сплошная
 62
     7
370
    25
100
AcDbSpline
210
0.0
220
0.0
230
1.0
 70
     8
 71
     3
 72
    28
 73
    24
 74
     0
 42
0.00000001
 43
0.00000001
 40
0.0
 40
0.0
 40
0.0
 40
0.0
 40
0.1249999999999993
 40
0.1249999999999993
 40
0.1874999999999991
 40
0.1874999999999991
 40
0.2499999999999988
 40
0.2499999999999988
 40
0.3749999999999987
 40
0.3749999999999987
 40
0.4374999999999987
 40
0.4374999999999987
 40
0.4999999999999988
 40
0.4999999999999988
 40
0.624999999999999
 40
0.624999999999999
 40
0.6874999999999992
 40
0.6874999999999992
 40
0.7499999999999993
 40
0.7499999999999993
 40
0.8749999999999997
 40
0.8749999999999997
 40
1.0
 40
1.0
 40
1.0
 40
1.0
 10
220.9950572782757
 20
262.2800349796281
 30
0.0
 10
220.618912110855
 20
261.8655055057523
 30
0.0
 10
220.2550363800741
 20
261.3676170331966
 30
0.0
 10
219.7273944027112
 20
260.4973570759292
 30
0.0
 10
219.5545850520987
 20
260.1866064089143
 30
0.0
 10
219.2155451710402
 20
259.5228924628584
 30
0.0
 10
219.0488010327954
 20
259.1685908489076
 30
0.0
 10
218.5639102734744
 20
258.0511215640848
 30
0.0
 10
218.2611005437277
 20
257.235347519321
 30
0.0
 10
217.8374180173677
 20
255.9053067394816
 30
0.0
 10
217.7013077256085
 20
255.4441536384575
 30
0.0
 10
217.4396331407317
 20
254.4852371822165
 30
0.0
 10
217.31399488863
 20
253.9866088659084
 30
0.0
 10
216.9591772958188
 20
252.459550959408
 30
0.0
 10
216.7487762839866
 20
251.3928493739095
 30
0.0
 10
216.4740413409707
 20
249.7197807767444
 30
0.0
 10
216.389266528938
 20
249.1498752155248
 30
0.0
 10
216.2336975980837
 20
247.98501287333
 30
0.0
 10
216.1627168967221
 20
247.3880719347282
 30
0.0
 10
215.9725300081988
 20
245.5717079620543
 30
0.0
 10
215.8776810771167
 20
244.3432780468834
 30
0.0
 10
215.753293144185
 20
241.8520884766729
 30
0.0
 10
215.7230082921913
 20
240.5893773991511
 30
0.0
 10
215.7185044276985
 20
239.3092644200972
 30
0.0
  0
LINE
  5
236
330
1F
100
AcDbEntity
  8
0
  6
SLD-Сплошная
 62
     7
370
    25
100
AcDbLine
 10
220.9950572783
 20
262.2800349796
 30
0.0
 11
221.5215919431
 21
262.7358673723
 31
0.0
  0
SPLINE
  5
237
330
1F
100
AcDbEntity
  8
0
  6
SLD-Сплошная
 62
     7
370
    25
100
AcDbSpline
210
0.0
220
0.0
230
1.0
 70
     8
 71
     3
 72
    26
 73
    22
 74
     0
 42
0.00000001
 43
0.00000001
 40
0.0
 40
0.0
 40
0.0
 40
0.0
 40
0.1250000000000001
 40
0.1250000000000001
 40
0.2500000000000002
 40
0.2500000000000002
 40
0.3750000000000001
 40
0.3750000000000001
 40
0.5
 40
0.5
 40
0.5625
 40
0.5625
 40
0.625
 40
0.625
 40
0.75
 40
0.75
 40
0.8125
 40
0.8125
 40
0.8750000000000001
 40
0.8750000000000001
 40
1.0
 40
1.0
 40
1.0
 40
1.0
 10
221.6890561179892
 20
239.3092644200972
 30
0.0
 10
221.6896071020577
 20
240.4734130537328
 30
0.0
 10
221.7204330758378
 20
241.6230431197374
 30
0.0
 10
221.8403985542808
 20
243.8944322925168
 30
0.0
 10
221.9296203976018
 20
245.0161832340568
 30
0.0
 10
222.1688265493677
 20
247.2310720247203
 30
0.0
 10
222.3163250467605
 20
248.3018600336059
 30
0.0
 10
222.6616671399372
 20
250.3610823389504
 30
0.0
 10
222.8597708299984
 20
251.3517275654723
 30
0.0
 10
223.1953308889661
 20
252.7787507260844
 30
0.0
 10
223.3130711224284
 20
253.2422477530675
 30
0.0
 10
223.5576460971785
 20
254.1365219574504
 30
0.0
 10
223.6848155675804
 20
254.5687376825173
 30
0.0
 10
224.0806135927847
 20
255.8217418405788
 30
0.0
 10
224.3634606963372
 20
256.5991020297505
 30
0.0
 10
224.8162228775643
 20
257.6785395342918
 30
0.0
 10
224.9724509007492
 20
258.0248923260421
 30
0.0
 10
225.291352015786
 20
258.6816233723565
 30
0.0
 10
225.4540179375052
 20
258.9922224868639
 30
0.0
 10
225.9511749698191
 20
259.8719561599074
 30
0.0
 10
226.2947898126372
 20
260.3892858330101
 30
0.0
 10
226.6496872509934
 20
260.8375327597391
 30
0.0
  0
SPLINE
  5
238
330
1F
100
AcDbEntity
  8
0
  6
SLD-Сплошная
 62
     7
370
    25
100
AcDbSpline
210
0.0
220
0.0
230
1.0
 70
     8
 71
     3
 72
     8
 73
     4
 74
     0
 42
0.00000001
 43
0.00000001
 40
0.0
 40
0.0
 40
0.0
 40
0.0
 40
1.0
 40
1.0
 40
1.0
 40
1.0
 10
205.0779902448935
 20
263.0372702740075
 30
0.0
 10
204.7924105465795
 20
262.6832045479581
 30
0.0
 10
204.5125617650927
 20
262.2859983198707
 30
0.0
 10
204.2396761733538
 20
261.846945293674
 30
0.0
  0
SPLINE
  5
239
330
1F
100
AcDbEntity
  8
0
  6
SLD-Сплошная
 62
     7
370
    25
100
AcDbSpline
210
0.0
220
0.0
230
1.0
 70
     8
 71
     3
 72
     8
 73
     4
 74
     0
 42
0.00000001
 43
0.00000001
 40
0.0
 40
0.0
 40
0.0
 40
0.0
 40
0.0002728797068755
 40
0.0002728797068755
 40
0.0002728797068755
 40
0.0002728797068755
 10
201.8874300322041
 20
265.392964186246
 30
0.0
 10
201.7969319632227
 20
265.3955424159376
 30
0.0
 10
201.7064326227628
 20
265.3980668218137
 30
0.0
 10
201.6159321465987
 20
265.4005373439182
 30
0.0
  0
SPLINE
  5
23A
330
1F
100
AcDbEntity
  8
0
  6
SLD-Сплошная
 62
     7
370
    25
100
AcDbSpline
210
0.0
220
0.0
230
1.0
 70
     8
 71
     3
 72
    10
 73
     6
 74
     0
 42
0.00000001
 43
0.00000001
 40
0.0
 40
0.0
 40
0.0
 40
0.0
 40
0.2143339868834321
 40
0.6629129194195973
 40
0.9999999999999999
 40
0.9999999999999999
 40
0.9999999999999999
 40
0.9999999999999999
 10
201.8874300322041
 20
265.392964186246
 30
0.0
 10
203.5331702371112
 20
265.3349785264254
 30
0.0
 10
208.6232749830028
 20
265.1556348600518
 30
0.0
 10
216.2935405979153
 20
264.6236306918439
 30
0.0
 10
222.2826216234476
 20
263.8646133226566
 30
0.0
 10
224.8522145605887
 20
263.5389597436323
 30
0.0
  0
SPLINE
  5
23B
330
1F
100
AcDbEntity
  8
0
  6
SLD-Сплошная
 62
     7
370
    25
100
AcDbSpline
210
0.0
220
0.0
230
1.0
 70
     8
 71
     3
 72
    16
 73
    12
 74
     0
 42
0.00000001
 43
0.00000001
 40
0.0
 40
0.0
 40
0.0
 40
0.0
 40
0.0006356257630018
 40
0.1235250165904337
 40
0.2498339067062916
 40
0.3756134850200195
 40
0.5054050225425718
 40
0.6266209325628482
 40
0.7513085492556048
 40
0.8741545090267022
 40
1.0
 40
1.0
 40
1.0
 40
1.0
 10
231.1348621786751
 20
262.6859992574998
 30
0.0
 10
231.1379317422528
 20
262.6855351155094
 30
0.0
 10
231.7344586830025
 20
262.5953355823831
 30
0.0
 10
232.8781672329324
 20
262.4058522712562
 30
0.0
 10
234.501325707907
 20
262.1032275175872
 30
0.0
 10
235.9742380859632
 20
261.7515396007318
 30
0.0
 10
237.1898020436062
 20
261.337905331552
 30
0.0
 10
238.1541148402161
 20
260.8353376112559
 30
0.0
 10
238.8143957129952
 20
260.2388102459574
 30
0.0
 10
239.2474288198531
 20
259.5290531931269
 30
0.0
 10
239.3078068445674
 20
258.9670213617123
 30
0.0
 10
239.3383599743248
 20
258.6826160411624
 30
0.0
  0
LINE
  5
23C
330
1F
100
AcDbEntity
  8
0
  6
SLD-Сплошная
 62
     7
370
    25
100
AcDbLine
 10
239.3383599743
 20
219.935912799
 30
0.0
 11
239.3383599743
 21
258.6826160412
 31
0.0
  0
SPLINE
  5
23D
330
1F
100
AcDbEntity
  8
0
  6
SLD-Сплошная
 62
     7
370
    25
100
AcDbSpline
210
0.0
220
0.0
230
1.0
 70
     8
 71
     3
 72
    15
 73
    11
 74
     0
 42
0.00000001
 43
0.00000001
 40
0.0
 40
0.0
 40
0.0
 40
0.0
 40
0.122703287188894
 40
0.2491305968040515
 40
0.3750280983666686
 40
0.5049413205059778
 40
0.626270875158541
 40
0.7510753913436775
 40
0.87403652398213
 40
1.0
 40
1.0
 40
1.0
 40
1.0
 10
231.1482426237122
 20
215.9346058127367
 30
0.0
 10
231.7223478211699
 20
216.0261319131335
 30
0.0
 10
232.8879822043041
 20
216.2119619144105
 30
0.0
 10
234.4990290139836
 20
216.5155597051361
 30
0.0
 10
235.9748756188363
 20
216.8669175157757
 30
0.0
 10
237.1896417834431
 20
217.2806415382222
 30
0.0
 10
238.1541578739736
 20
217.7831863875573
 30
0.0
 10
238.8143843012771
 20
218.3797198780775
 30
0.0
 10
239.2474317360208
 20
219.0894753189931
 30
0.0
 10
239.3078078244081
 20
219.6515073682481
 30
0.0
 10
239.3383599743248
 20
219.935912799032
 30
0.0
  0
SPLINE
  5
23E
330
1F
100
AcDbEntity
  8
0
  6
SLD-Сплошная
 62
     7
370
    25
100
AcDbSpline
210
0.0
220
0.0
230
1.0
 70
     8
 71
     3
 72
    10
 73
     6
 74
     0
 42
0.00000001
 43
0.00000001
 40
0.0
 40
0.0
 40
0.0
 40
0.0
 40
0.2146081063119563
 40
0.6637607425449854
 40
1.0
 40
1.0
 40
1.0
 40
1.0
 10
201.887430032204
 20
213.2255646539581
 30
0.0
 10
203.5331696744219
 20
213.2835554743068
 30
0.0
 10
208.6232726799738
 20
213.4629151016615
 30
0.0
 10
216.2837627531674
 20
213.994040667812
 30
0.0
 10
222.2631175693357
 20
214.7517269984172
 30
0.0
 10
224.8229782447593
 20
215.0761050461587
 30
0.0
  0
SPLINE
  5
23F
330
1F
100
AcDbEntity
  8
0
  6
SLD-Сплошная
 62
     7
370
    25
100
AcDbSpline
210
0.0
220
0.0
230
1.0
 70
     8
 71
     3
 72
     8
 73
     4
 74
     0
 42
0.00000001
 43
0.00000001
 40
0.0000000000000001
 40
0.0000000000000001
 40
0.0000000000000001
 40
0.0000000000000001
 40
0.0002728797068755
 40
0.0002728797068755
 40
0.0002728797068755
 40
0.0002728797068755
 10
201.8874300322041
 20
213.2255646539485
 30
0.0
 10
201.7969319632227
 20
213.2229864242569
 30
0.0
 10
201.7064326227628
 20
213.2204620183807
 30
0.0
 10
201.6159321465987
 20
213.2179914962763
 30
0.0
  0
SPLINE
  5
240
330
1F
100
AcDbEntity
  8
0
  6
SLD-Сплошная
 62
     7
370
    25
100
AcDbSpline
210
0.0
220
0.0
230
1.0
 70
     8
 71
     3
 72
     8
 73
     4
 74
     0
 42
0.00000001
 43
0.00000001
 40
0.0
 40
0.0
 40
0.0
 40
0.0
 40
1.0
 40
1.0
 40
1.0
 40
1.0
 10
205.0779902448935
 20
215.581258566187
 30
0.0
 10
204.7924105465794
 20
215.9353242922364
 30
0.0
 10
204.5125617650927
 20
216.3325305203238
 30
0.0
 10
204.2396761733538
 20
216.7715835465205
 30
0.0
  0
SPLINE
  5
241
330
1F
100
AcDbEntity
  8
0
  6
SLD-Сплошная
 62
     7
370
    25
100
AcDbSpline
210
0.0
220
0.0
230
1.0
 70
     8
 71
     3
 72
    11
 73
     7
 74
     0
 42
0.00000001
 43
0.00000001
 40
0.0
 40
0.0
 40
0.0
 40
0.0
 40
0.001180637684977
 40
0.001180637684977
 40
0.001180637684977
 40
0.0023612756289565
 40
0.0023612756289565
 40
0.0023612756289565
 40
0.0023612756289565
 10
201.6159321465987
 20
213.2179914962763
 30
0.0
 10
201.2244368128882
 20
213.2216429414121
 30
0.0
 10
200.8329412700878
 20
213.2253859907877
 30
0.0
 10
200.4414455474318
 20
213.2292205857088
 30
0.0
 10
200.0499497388875
 20
213.2330551814712
 30
0.0
 10
199.6584537303739
 20
213.2369813229602
 30
0.0
 10
199.2669576407507
 20
213.2409990427415
 30
0.0
  0
SPLINE
  5
242
330
1F
100
AcDbEntity
  8
0
  6
SLD-Сплошная
 62
     7
370
    25
100
AcDbSpline
210
0.0
220
0.0
230
1.0
 70
     8
 71
     3
 72
    14
 73
    10
 74
     0
 42
0.00000001
 43
0.00000001
 40
0.0
 40
0.0
 40
0.0
 40
0.0
 40
0.25
 40
0.25
 40
0.5
 40
0.5
 40
0.75
 40
0.75
 40
1.0
 40
1.0
 40
1.0
 40
1.0
 10
191.9989654898395
 20
213.1899801933704
 30
0.0
 10
192.5891919670617
 20
213.2026099514652
 30
0.0
 10
193.1848758458365
 20
213.2146071041873
 30
0.0
 10
194.3888273184705
 20
213.2340277242162
 30
0.0
 10
194.9971014225512
 20
213.2414334443328
 30
0.0
 10
196.2151190742845
 20
213.2510174068324
 30
0.0
 10
196.8272934852941
 20
213.2532747889628
 30
0.0
 10
198.0490447112623
 20
213.25146566647
 30
0.0
 10
198.6585005141926
 20
213.2472433202662
 30
0.0
 10
199.2669576407507
 20
213.2409990427415
 30
0.0
  0
SPLINE
  5
243
330
1F
100
AcDbEntity
  8
0
  6
SLD-Сплошная
 62
     7
370
    25
100
AcDbSpline
210
0.0
220
0.0
230
1.0
 70
     8
 71
     3
 72
    10
 73
     6
 74
     0
 42
0.00000001
 43
0.00000001
 40
0.0
 40
0.0
 40
0.0
 40
0.0
 40
0.2558569396146269
 40
0.6279174209501529
 40
0.9999999999999999
 40
0.9999999999999999
 40
0.9999999999999999
 40
0.9999999999999999
 10
184.4783221888327
 20
213.1171813445276
 30
0.0
 10
185.1195376620557
 20
213.1150649907396
 30
0.0
 10
186.6931919347363
 20
213.1098710905295
 30
0.0
 10
189.2002946749519
 20
213.1376011276586
 30
0.0
 10
191.0660567499526
 20
213.1725201591535
 30
0.0
 10
191.9989654898395
 20
213.1899801933704
 30
0.0
  0
SPLINE
  5
244
330
1F
100
AcDbEntity
  8
0
  6
SLD-Сплошная
 62
     7
370
    25
100
AcDbSpline
210
0.0
220
0.0
230
1.0
 70
     8
 71
     3
 72
    10
 73
     6
 74
     0
 42
0.00000001
 43
0.00000001
 40
0.0
 40
0.0
 40
0.0
 40
0.0
 40
0.2558198186680259
 40
0.6278988367778274
 40
0.9999999999999999
 40
0.9999999999999999
 40
0.9999999999999999
 40
0.9999999999999999
 10
184.4783404939677
 20
265.5013487091555
 30
0.0
 10
185.1194654049482
 20
265.5034654738736
 30
0.0
 10
186.6930791614193
 20
265.5086609826155
 30
0.0
 10
189.2000872619878
 20
265.4809165471556
 30
0.0
 10
191.0659875722368
 20
265.4460049598977
 30
0.0
 10
191.9989654898395
 20
265.428548646824
 30
0.0
  0
SPLINE
  5
245
330
1F
100
AcDbEntity
  8
0
  6
SLD-Сплошная
 62
     7
370
    25
100
AcDbSpline
210
0.0
220
0.0
230
1.0
 70
     8
 71
     3
 72
    14
 73
    10
 74
     0
 42
0.00000001
 43
0.00000001
 40
0.0
 40
0.0
 40
0.0
 40
0.0
 40
0.25
 40
0.25
 40
0.5
 40
0.5
 40
0.75
 40
0.75
 40
1.0
 40
1.0
 40
1.0
 40
1.0
 10
191.9989654898395
 20
265.428548646824
 30
0.0
 10
192.5893918585564
 20
265.41591461142
 30
0.0
 10
193.1872191126041
 20
265.4048094144233
 30
0.0
 10
194.3911125992363
 20
265.3854022645616
 30
0.0
 10
194.9978058459206
 20
265.3771242755656
 30
0.0
 10
196.2143612785763
 20
265.366742798441
 30
0.0
 10
196.826621477218
 20
265.3650011243302
 30
0.0
 10
198.048441468235
 20
265.3676510226616
 30
0.0
 10
198.6583428711786
 20
265.3712839021203
 30
0.0
 10
199.2669576407507
 20
265.3775297974529
 30
0.0
  0
SPLINE
  5
246
330
1F
100
AcDbEntity
  8
0
  6
SLD-Сплошная
 62
     7
370
    25
100
AcDbSpline
210
0.0
220
0.0
230
1.0
 70
     8
 71
     3
 72
    11
 73
     7
 74
     0
 42
0.00000001
 43
0.00000001
 40
0.0
 40
0.0
 40
0.0
 40
0.0
 40
0.001180637684977
 40
0.001180637684977
 40
0.001180637684977
 40
0.0023612756289565
 40
0.0023612756289565
 40
0.0023612756289565
 40
0.0023612756289565
 10
201.6159321465987
 20
265.4005373439182
 30
0.0
 10
201.2244368128882
 20
265.3968858987824
 30
0.0
 10
200.8329412700878
 20
265.3931428494067
 30
0.0
 10
200.4414455474318
 20
265.3893082544856
 30
0.0
 10
200.0499497388875
 20
265.3854736587233
 30
0.0
 10
199.6584537303739
 20
265.3815475172343
 30
0.0
 10
199.2669576407507
 20
265.377529797453
 30
0.0
  0
LINE
  5
247
330
1F
100
AcDbEntity
  8
0
  6
SLD-Сплошная
 62
     7
370
    25
100
AcDbLine
 10
251.6653767967
 20
264.7092266019
 30
0.0
 11
253.6653767967
 21
264.7092266019
 31
0.0
  0
LINE
  5
248
330
1F
100
AcDbEntity
  8
0
  6
SLD-Сплошная
 62
     7
370
    25
100
AcDbLine
 10
253.6653767967
 20
262.3086743957
 30
0.0
 11
253.6653767967
 21
264.7092266019
 31
0.0
  0
LINE
  5
249
330
1F
100
AcDbEntity
  8
0
  6
SLD-Сплошная
 62
     7
370
    25
100
AcDbLine
 10
253.6653767967
 20
260.1436108863
 30
0.0
 11
253.6653767967
 21
262.3086743957
 31
0.0
  0
LINE
  5
24A
330
1F
100
AcDbEntity
  8
0
  6
SLD-Сплошная
 62
     7
370
    25
100
AcDbLine
 10
253.6653767967
 20
241.4737379052
 30
0.0
 11
253.6653767967
 21
260.1436108863
 31
0.0
  0
LINE
  5
24B
330
1F
100
AcDbEntity
  8
0
  6
SLD-Сплошная
 62
     7
370
    25
100
AcDbLine
 10
253.6653767967
 20
237.1436108863
 30
0.0
 11
253.6653767967
 21
241.4737379052
 31
0.0
  0
LINE
  5
24C
330
1F
100
AcDbEntity
  8
0
  6
SLD-Сплошная
 62
     7
370
    25
100
AcDbLine
 10
253.6653767967
 20
218.4737379052
 30
0.0
 11
253.6653767967
 21
237.1436108863
 31
0.0
  0
LINE
  5
24D
330
1F
100
AcDbEntity
  8
0
  6
SLD-Сплошная
 62
     7
370
    25
100
AcDbLine
 10
253.6653767967
 20
216.3086743957
 30
0.0
 11
253.6653767967
 21
218.4737379052
 31
0.0
  0
LINE
  5
24E
330
1F
100
AcDbEntity
  8
0
  6
SLD-Сплошная
 62
     7
370
    25
100
AcDbLine
 10
253.6653767967
 20
213.9081221896
 30
0.0
 11
253.6653767967
 21
216.3086743957
 31
0.0
  0
LINE
  5
24F
330
1F
100
AcDbEntity
  8
0
  6
SLD-Сплошная
 62
     7
370
    25
100
AcDbLine
 10
251.6653767967
 20
213.9081221896
 30
0.0
 11
253.6653767967
 21
213.9081221896
 31
0.0
  0
LINE
  5
250
330
1F
100
AcDbEntity
  8
0
  6
SLD-Сплошная
 62
     7
370
    25
100
AcDbLine
 10
251.6653767967
 20
213.9081221896
 30
0.0
 11
251.6653767967
 21
264.7092266019
 31
0.0
  0
LINE
  5
251
330
1F
100
AcDbEntity
  8
0
  6
SLD-Сплошная
 62
     7
370
    25
100
AcDbLine
 10
262.6653767967
 20
237.1436108863
 30
0.0
 11
253.6653767967
 21
237.1436108863
 31
0.0
  0
LINE
  5
252
330
1F
100
AcDbEntity
  8
0
  6
SLD-Сплошная
 62
     7
370
    25
100
AcDbLine
 10
253.6653767967
 20
218.4737379052
 30
0.0
 11
262.6653767967
 21
218.4737379052
 31
0.0
  0
LINE
  5
253
330
1F
100
AcDbEntity
  8
0
  6
SLD-Сплошная
 62
     7
370
    25
100
AcDbLine
 10
262.6653767967
 20
237.1436108863
 30
0.0
 11
262.6653767967
 21
218.4737379052
 31
0.0
  0
LINE
  5
254
330
1F
100
AcDbEntity
  8
0
  6
SLD-Сплошная
 62
     7
370
    25
100
AcDbLine
 10
253.6653767967
 20
241.4737379052
 30
0.0
 11
262.6653767967
 21
241.4737379052
 31
0.0
  0
LINE
  5
255
330
1F
100
AcDbEntity
  8
0
  6
SLD-Сплошная
 62
     7
370
    25
100
AcDbLine
 10
262.6653767967
 20
241.4737379052
 30
0.0
 11
262.6653767967
 21
237.1436108863
 31
0.0
  0
LINE
  5
256
330
1F
100
AcDbEntity
  8
0
  6
SLD-Сплошная
 62
     7
370
    25
100
AcDbLine
 10
262.6653767967
 20
260.1436108863
 30
0.0
 11
253.6653767967
 21
260.1436108863
 31
0.0
  0
LINE
  5
257
330
1F
100
AcDbEntity
  8
0
  6
SLD-Сплошная
 62
     7
370
    25
100
AcDbLine
 10
262.6653767967
 20
241.4737379052
 30
0.0
 11
262.6653767967
 21
260.1436108863
 31
0.0
  0
LINE
  5
258
330
1F
100
AcDbEntity
  8
0
  6
SLD-Сплошная
 62
     7
370
    25
100
AcDbLine
 10
244.0891017046
 20
220.4591971596
 30
0.0
 11
244.1159321466
 21
220.7805009415
 31
0.0
  0
LINE
  5
259
330
1F
100
AcDbEntity
  8
0
  6
SLD-Сплошная
 62
     7
370
    25
100
AcDbLine
 10
244.0891143574
 20
258.159256322
 30
0.0
 11
244.1159321466
 21
257.8380278987
 31
0.0
  0
LINE
  5
25A
330
1F
100
AcDbEntity
  8
0
  6
SLD-Сплошная
 62
     7
370
    25
100
AcDbLine
 10
244.1159321466
 20
257.8380278987
 30
0.0
 11
244.1159321466
 21
220.7805009415
 31
0.0
  0
LINE
  5
25B
330
1F
100
AcDbEntity
  8
0
  6
SLD-Сплошная
 62
     7
370
    25
100
AcDbLine
 10
274.6749957399
 20
236.2385903016
 30
0.0
 11
281.5173943282
 21
236.2385903016
 31
0.0
  0
LINE
  5
25C
330
1F
100
AcDbEntity
  8
0
  6
SLD-Сплошная
 62
     7
370
    25
100
AcDbLine
 10
274.6749957399
 20
236.2385903016
 30
0.0
 11
262.6653767967
 21
236.2385903016
 31
0.0
  0
LINE
  5
25D
330
1F
100
AcDbEntity
  8
0
  6
SLD-Сплошная
 62
     7
370
    25
100
AcDbLine
 10
274.6749957399
 20
242.3787584898
 30
0.0
 11
281.5173943282
 21
242.3787584898
 31
0.0
  0
LINE
  5
25E
330
1F
100
AcDbEntity
  8
0
  6
SLD-Сплошная
 62
     7
370
    25
100
AcDbLine
 10
274.6749957399
 20
242.3787584898
 30
0.0
 11
262.6653767967
 21
242.3787584898
 31
0.0
  0
LINE
  5
25F
330
1F
100
AcDbEntity
  8
0
  6
SLD-Сплошная
 62
     7
370
    25
100
AcDbLine
 10
274.6749957399
 20
224.6262160302
 30
0.0
 11
262.6653767967
 21
224.6262160302
 31
0.0
  0
LINE
  5
260
330
1F
100
AcDbEntity
  8
0
  6
SLD-Сплошная
 62
     7
370
    25
100
AcDbLine
 10
284.2337167442
 20
227.7487932215
 30
0.0
 11
281.5173943282
 21
226.3180560419
 31
0.0
  0
ARC
  5
261
330
1F
100
AcDbEntity
  8
0
  6
SLD-Сплошная
 62
     7
370
    25
100
AcDbCircle
 10
274.6749957399
 20
239.3086743957
 30
0.0
 40
14.68245836551861
100
AcDbArc
 50
270.0
 51
297.7766046258
  0
ARC
  5
262
330
1F
100
AcDbEntity
  8
0
  6
SLD-Сплошная
 62
     7
370
    25
100
AcDbCircle
 10
281.3289954046
 20
239.1419844278
 30
0.0
 40
2.909500233045028
100
AcDbArc
 50
273.712672293
 51
3.2843661583
  0
LINE
  5
263
330
1F
100
AcDbEntity
  8
0
  6
SLD-Сплошная
 62
     7
370
    25
100
AcDbLine
 10
287.6653767967
 20
231.8086743957
 30
0.0
 11
287.6653767967
 21
239.3086743957
 31
0.0
  0
ARC
  5
264
330
1F
100
AcDbEntity
  8
0
  6
SLD-Сплошная
 62
     7
370
    25
100
AcDbCircle
 10
281.3289954046
 20
239.4753643637
 30
0.0
 40
2.90950023304532
100
AcDbArc
 50
356.7156338417
 51
86.287327707
  0
ARC
  5
265
330
1F
100
AcDbEntity
  8
0
  6
SLD-Сплошная
 62
     7
370
    25
100
AcDbCircle
 10
274.6749957399
 20
239.3086743957
 30
0.0
 40
14.68245836551856
100
AcDbArc
 50
62.2233953742
 51
90.0
  0
LINE
  5
266
330
1F
100
AcDbEntity
  8
0
  6
SLD-Сплошная
 62
     7
370
    25
100
AcDbLine
 10
281.5173943282
 20
252.2992927495
 30
0.0
 11
284.2337167442
 21
250.8685555699
 31
0.0
  0
LINE
  5
267
330
1F
100
AcDbEntity
  8
0
  6
SLD-Сплошная
 62
     7
370
    25
100
AcDbLine
 10
287.6653767967
 20
239.3086743957
 30
0.0
 11
287.6653767967
 21
246.8086743957
 31
0.0
  0
LINE
  5
268
330
1F
100
AcDbEntity
  8
0
  6
SLD-Сплошная
 62
     7
370
    25
100
AcDbLine
 10
274.6749957399
 20
253.9911327612
 30
0.0
 11
262.6653767967
 21
253.9911327612
 31
0.0
  0
LINE
  5
269
330
1F
100
AcDbEntity
  8
0
  6
SLD-Сплошная
 62
     7
370
    25
100
AcDbLine
 10
262.6653767967
 20
216.3086743957
 30
0.0
 11
253.6653767967
 21
216.3086743957
 31
0.0
  0
LINE
  5
26A
330
1F
100
AcDbEntity
  8
0
  6
SLD-Сплошная
 62
     7
370
    25
100
AcDbLine
 10
262.6653767967
 20
218.4737379052
 30
0.0
 11
262.6653767967
 21
216.3086743957
 31
0.0
  0
LINE
  5
26B
330
1F
100
AcDbEntity
  8
0
  6
SLD-Сплошная
 62
     7
370
    25
100
AcDbLine
 10
253.6653767967
 20
262.3086743957
 30
0.0
 11
262.6653767967
 21
262.3086743957
 31
0.0
  0
LINE
  5
26C
330
1F
100
AcDbEntity
  8
0
  6
SLD-Сплошная
 62
     7
370
    25
100
AcDbLine
 10
262.6653767967
 20
260.1436108863
 30
0.0
 11
262.6653767967
 21
262.3086743957
 31
0.0
  0
LWPOLYLINE
  5
26D
330
1F
100
AcDbEntity
  8
0
  6
SLD-Сплошная
 62
     7
370
    25
100
AcDbPolyline
 90
        3
 70
   128
 43
0.0
 10
199.6106895074
 20
214.291131102
 10
199.8264646458
 20
214.0920210038
 10
199.8335795262
 20
214.0861536505
  0
LINE
  5
26E
330
1F
100
AcDbEntity
  8
0
  6
SLD-Сплошная
 62
     7
370
    25
100
AcDbLine
 10
155.5111276706
 20
266.0318474114
 30
0.0
 11
157.8591976706
 21
266.0318474114
 31
0.0
  0
LINE
  5
26F
330
1F
100
AcDbEntity
  8
0
  6
SLD-Сплошная
 62
     7
370
    25
100
AcDbLine
 10
158.6418971466
 20
266.0318474114
 30
0.0
 11
164.1207366226
 21
266.0318474114
 31
0.0
  0
LINE
  5
270
330
1F
100
AcDbEntity
  8
0
  6
SLD-Сплошная
 62
     7
370
    25
100
AcDbLine
 10
244.1159321466
 20
220.7805009415
 30
0.0
 11
244.1159321466
 21
218.3092644201
 31
0.0
  0
LINE
  5
271
330
1F
100
AcDbEntity
  8
0
  6
SLD-Сплошная
 62
     7
370
    25
100
AcDbLine
 10
244.1159321466
 20
260.3092644201
 30
0.0
 11
244.1159321466
 21
257.8380278987
 31
0.0
  0
LINE
  5
272
330
1F
100
AcDbEntity
  8
0
  6
SLD-Сплошная
 62
     7
370
    25
100
AcDbLine
 10
155.5111276706
 20
266.4624675778
 30
0.0
 11
157.8591976706
 21
266.4624675778
 31
0.0
  0
LINE
  5
273
330
1F
100
AcDbEntity
  8
0
  6
SLD-Сплошная
 62
     7
370
    25
100
AcDbLine
 10
155.5111276706
 20
266.0318474114
 30
0.0
 11
155.5111276706
 21
266.4624675778
 31
0.0
  0
LINE
  5
274
330
1F
100
AcDbEntity
  8
0
  6
SLD-Сплошная
 62
     7
370
    25
100
AcDbLine
 10
157.8591976706
 20
266.0318474114
 30
0.0
 11
157.8591976706
 21
266.4624675778
 31
0.0
  0
LINE
  5
275
330
1F
100
AcDbEntity
  8
0
  6
SLD-Сплошная
 62
     7
370
    25
100
AcDbLine
 10
158.6418971466
 20
266.4624675778
 30
0.0
 11
164.1207366226
 21
266.4624675778
 31
0.0
  0
LINE
  5
276
330
1F
100
AcDbEntity
  8
0
  6
SLD-Сплошная
 62
     7
370
    25
100
AcDbLine
 10
158.6418971466
 20
266.0318474114
 30
0.0
 11
158.6418971466
 21
266.4624675778
 31
0.0
  0
LINE
  5
277
330
1F
100
AcDbEntity
  8
0
  6
SLD-Сплошная
 62
     7
370
    25
100
AcDbLine
 10
164.1207366226
 20
266.0318474114
 30
0.0
 11
164.1207366226
 21
266.4624675778
 31
0.0
  0
LINE
  5
278
330
1F
100
AcDbEntity
  8
0
  6
SLD-Сплошная
 62
     7
370
    25
100
AcDbLine
 10
157.8591976706
 20
267.3478487132
 30
0.0
 11
155.5111276706
 21
267.3478487132
 31
0.0
  0
LINE
  5
279
330
1F
100
AcDbEntity
  8
0
  6
SLD-Сплошная
 62
     7
370
    25
100
AcDbLine
 10
155.5111276706
 20
267.3478487132
 30
0.0
 11
155.5111276706
 21
266.4624675778
 31
0.0
  0
LINE
  5
27A
330
1F
100
AcDbEntity
  8
0
  6
SLD-Сплошная
 62
     7
370
    25
100
AcDbLine
 10
157.8591976706
 20
267.3478487132
 30
0.0
 11
157.8591976706
 21
266.4624675778
 31
0.0
  0
LINE
  5
27B
330
1F
100
AcDbEntity
  8
0
  6
SLD-Сплошная
 62
     7
370
    25
100
AcDbLine
 10
164.1207366226
 20
267.3478487132
 30
0.0
 11
158.6418971466
 21
267.3478487132
 31
0.0
  0
LINE
  5
27C
330
1F
100
AcDbEntity
  8
0
  6
SLD-Сплошная
 62
     7
370
    25
100
AcDbLine
 10
158.6418971466
 20
267.3478487132
 30
0.0
 11
158.6418971466
 21
266.4624675778
 31
0.0
  0
LINE
  5
27D
330
1F
100
AcDbEntity
  8
0
  6
SLD-Сплошная
 62
     7
370
    25
100
AcDbLine
 10
164.1207366226
 20
267.3478487132
 30
0.0
 11
164.1207366226
 21
266.4624675778
 31
0.0
  0
LINE
  5
27E
330
1F
100
AcDbEntity
  8
0
  6
SLD-Сплошная
 62
     7
370
    25
100
AcDbLine
 10
155.5111276706
 20
267.5560856399
 30
0.0
 11
157.8591976706
 21
267.5560856399
 31
0.0
  0
LINE
  5
27F
330
1F
100
AcDbEntity
  8
0
  6
SLD-Сплошная
 62
     7
370
    25
100
AcDbLine
 10
157.8591976706
 20
267.3478487132
 30
0.0
 11
157.8591976706
 21
267.5560856399
 31
0.0
  0
LINE
  5
280
330
1F
100
AcDbEntity
  8
0
  6
SLD-Сплошная
 62
     7
370
    25
100
AcDbLine
 10
155.5111276706
 20
267.3478487132
 30
0.0
 11
155.5111276706
 21
267.5560856399
 31
0.0
  0
LINE
  5
281
330
1F
100
AcDbEntity
  8
0
  6
SLD-Сплошная
 62
     7
370
    25
100
AcDbLine
 10
157.8591976706
 20
268.5092644201
 30
0.0
 11
157.8591976706
 21
267.5560856399
 31
0.0
  0
LINE
  5
282
330
1F
100
AcDbEntity
  8
0
  6
SLD-Сплошная
 62
     7
370
    25
100
AcDbLine
 10
155.5111276706
 20
268.5092644201
 30
0.0
 11
155.5111276706
 21
267.5560856399
 31
0.0
  0
LINE
  5
283
330
1F
100
AcDbEntity
  8
0
  6
SLD-Сплошная
 62
     7
370
    25
100
AcDbLine
 10
158.6418971466
 20
267.5560856399
 30
0.0
 11
164.1207366226
 21
267.5560856399
 31
0.0
  0
LINE
  5
284
330
1F
100
AcDbEntity
  8
0
  6
SLD-Сплошная
 62
     7
370
    25
100
AcDbLine
 10
164.1207366226
 20
267.3478487132
 30
0.0
 11
164.1207366226
 21
267.5560856399
 31
0.0
  0
LINE
  5
285
330
1F
100
AcDbEntity
  8
0
  6
SLD-Сплошная
 62
     7
370
    25
100
AcDbLine
 10
158.6418971466
 20
267.3478487132
 30
0.0
 11
158.6418971466
 21
267.5560856399
 31
0.0
  0
LINE
  5
286
330
1F
100
AcDbEntity
  8
0
  6
SLD-Сплошная
 62
     7
370
    25
100
AcDbLine
 10
160.9899671466
 20
268.5092644201
 30
0.0
 11
160.9899671466
 21
268.1247667676
 31
0.0
  0
LINE
  5
287
330
1F
100
AcDbEntity
  8
0
  6
SLD-Сплошная
 62
     7
370
    25
100
AcDbLine
 10
161.7726666226
 20
268.1247667676
 30
0.0
 11
160.9899671466
 21
268.1247667676
 31
0.0
  0
LINE
  5
288
330
1F
100
AcDbEntity
  8
0
  6
SLD-Сплошная
 62
     7
370
    25
100
AcDbLine
 10
161.7726666226
 20
268.5092644201
 30
0.0
 11
161.7726666226
 21
268.1247667676
 31
0.0
  0
LINE
  5
289
330
1F
100
AcDbEntity
  8
0
  6
SLD-Сплошная
 62
     7
370
    25
100
AcDbLine
 10
164.1207366226
 20
268.5092644201
 30
0.0
 11
164.1207366226
 21
267.5560856399
 31
0.0
  0
LINE
  5
28A
330
1F
100
AcDbEntity
  8
0
  6
SLD-Сплошная
 62
     7
370
    25
100
AcDbLine
 10
158.6418971466
 20
268.5092644201
 30
0.0
 11
158.6418971466
 21
267.5560856399
 31
0.0
  0
LINE
  5
28B
330
1F
100
AcDbEntity
  8
0
  6
SLD-Сплошная
 62
     7
370
    25
100
AcDbLine
 10
157.8591976706
 20
268.4663061228
 30
0.0
 11
158.6418971466
 21
268.4663061228
 31
0.0
  0
LINE
  5
28C
330
1F
100
AcDbEntity
  8
0
  6
SLD-Сплошная
 62
     7
370
    25
100
AcDbLine
 10
160.9899671466
 20
268.4663061228
 30
0.0
 11
161.7726666226
 21
268.4663061228
 31
0.0
  0
LINE
  5
28D
330
1F
100
AcDbEntity
  8
0
  6
SLD-Сплошная
 62
     7
370
    25
100
AcDbLine
 10
157.8159321466
 20
46.373019187
 30
0.0
 11
157.8159321466
 21
66.373019187
 31
0.0
  0
ARC
  5
28E
330
1F
100
AcDbEntity
  8
0
  6
SLD-Сплошная
 62
     7
370
    25
100
AcDbCircle
 10
279.1159321466
 20
56.373019187
 30
0.0
 40
150.0000000000001
100
AcDbArc
 50
168.7747481503
 51
176.4484329448
  0
ARC
  5
28F
330
1F
100
AcDbEntity
  8
0
  6
SLD-Сплошная
 62
     7
370
    25
100
AcDbCircle
 10
279.1159321466
 20
56.373019187
 30
0.0
 40
150.0000000000001
100
AcDbArc
 50
177.7483022664
 51
182.2516977336
  0
ARC
  5
290
330
1F
100
AcDbEntity
  8
0
  6
SLD-Сплошная
 62
     7
370
    25
100
AcDbCircle
 10
279.1159321466
 20
56.373019187
 30
0.0
 40
150.0
100
AcDbArc
 50
183.5515670552
 51
191.2252518497
  0
LINE
  5
291
330
1F
100
AcDbEntity
  8
0
  6
SLD-Сплошная
 62
     7
370
    25
100
AcDbLine
 10
139.1159321466
 20
85.573019187
 30
0.0
 11
131.9855138097
 21
85.573019187
 31
0.0
  0
LINE
  5
292
330
1F
100
AcDbEntity
  8
0
  6
SLD-Сплошная
 62
     7
370
    25
100
AcDbLine
 10
131.9855138097
 20
27.173019187
 30
0.0
 11
139.1159321466
 21
27.173019187
 31
0.0
  0
LINE
  5
293
330
1F
100
AcDbEntity
  8
0
  6
SLD-Сплошная
 62
     7
370
    25
100
AcDbLine
 10
181.6159321466
 20
85.573019187
 30
0.0
 11
139.1159321466
 21
85.573019187
 31
0.0
  0
LINE
  5
294
330
1F
100
AcDbEntity
  8
0
  6
SLD-Сплошная
 62
     7
370
    25
100
AcDbLine
 10
168.1159321466
 20
27.173019187
 30
0.0
 11
181.6159321466
 21
27.173019187
 31
0.0
  0
LINE
  5
295
330
1F
100
AcDbEntity
  8
0
  6
SLD-Сплошная
 62
     7
370
    25
100
AcDbLine
 10
139.1159321466
 20
27.173019187
 30
0.0
 11
151.5159321466
 21
27.173019187
 31
0.0
  0
ARC
  5
296
330
1F
100
AcDbEntity
  8
0
  6
SLD-Сплошная
 62
     7
370
    25
100
AcDbCircle
 10
192.615643375
 20
280.0109562623
 30
0.0
 40
250.0000000000001
100
AcDbArc
 50
280.9649909494
 51
281.8881119889
  0
ARC
  5
297
330
1F
100
AcDbEntity
  8
0
  6
SLD-Сплошная
 62
     7
370
    25
100
AcDbCircle
 10
192.615643375
 20
-167.2649178882
 30
0.0
 40
250.0000000000001
100
AcDbArc
 50
78.1118880111
 51
79.0351291527
  0
ARC
  5
298
330
1F
100
AcDbEntity
  8
0
  6
SLD-Сплошная
 62
     7
370
    25
100
AcDbCircle
 10
274.6749957399
 20
56.3736092114
 30
0.0
 40
15.00000000000003
100
AcDbArc
 50
30.0
 51
50.4130804784
  0
ARC
  5
299
330
1F
100
AcDbEntity
  8
0
  6
SLD-Сплошная
 62
     7
370
    25
100
AcDbCircle
 10
274.6749957399
 20
56.3736092114
 30
0.0
 40
15.00000000000005
100
AcDbArc
 50
309.5869195216
 51
330.0
  0
LINE
  5
29A
330
1F
100
AcDbEntity
  8
0
  6
SLD-Сплошная
 62
     7
370
    25
100
AcDbLine
 10
164.1207366226
 20
27.573019187
 30
0.0
 11
168.1159321466
 21
27.573019187
 31
0.0
  0
LINE
  5
29B
330
1F
100
AcDbEntity
  8
0
  6
SLD-Сплошная
 62
     7
370
    25
100
AcDbLine
 10
151.5159321466
 20
27.573019187
 30
0.0
 11
155.5111276706
 21
27.573019187
 31
0.0
  0
LINE
  5
29C
330
1F
100
AcDbEntity
  8
0
  6
SLD-Сплошная
 62
     7
370
    25
100
AcDbLine
 10
251.6653767967
 20
67.373019187
 30
0.0
 11
244.1159321466
 21
67.373019187
 31
0.0
  0
LINE
  5
29D
330
1F
100
AcDbEntity
  8
0
  6
SLD-Сплошная
 62
     7
370
    25
100
AcDbLine
 10
244.1159321466
 20
45.373019187
 30
0.0
 11
251.6653767967
 21
45.373019187
 31
0.0
  0
LINE
  5
29E
330
1F
100
AcDbEntity
  8
0
  6
SLD-Сплошная
 62
     7
370
    25
100
AcDbLine
 10
192.6211767532
 20
84.6304371066
 30
0.0
 11
181.6159321466
 21
84.3960925813
 31
0.0
  0
LINE
  5
29F
330
1F
100
AcDbEntity
  8
0
  6
SLD-Сплошная
 62
     7
370
    25
100
AcDbLine
 10
181.6159321466
 20
28.3499457927
 30
0.0
 11
192.6211767532
 21
28.1156012675
 31
0.0
  0
SPLINE
  5
2A0
330
1F
100
AcDbEntity
  8
0
  6
SLD-Сплошная
 62
     7
370
    25
100
AcDbSpline
210
0.0
220
0.0
230
1.0
 70
     8
 71
     3
 72
    22
 73
    18
 74
     0
 42
0.00000001
 43
0.00000001
 40
0.0
 40
0.0
 40
0.0
 40
0.0
 40
0.0554969468813968
 40
0.1352266667188941
 40
0.1872219078052543
 40
0.2511495249868835
 40
0.3281620391181921
 40
0.4038168654735451
 40
0.474598545328913
 40
0.537528862490833
 40
0.5943361580374759
 40
0.6574788832810824
 40
0.746203343049213
 40
0.8003846392492243
 40
0.8612026932987896
 40
0.9282279602824232
 40
1.0
 40
1.0
 40
1.0
 40
1.0
 10
243.3717198433863
 20
77.42261715739372
 30
0.0
 10
243.2621450602496
 20
77.62902229727598
 30
0.0
 10
242.9951496035141
 20
78.13195949703895
 30
0.0
 10
242.3409587453874
 20
78.74912452737141
 30
0.0
 10
241.5285869888318
 20
79.32850766207977
 30
0.0
 10
240.6819171193946
 20
79.76420571053069
 30
0.0
 10
239.7177625302686
 20
80.13326871081723
 30
0.0
 10
238.6233619999377
 20
80.44560665747116
 30
0.0
 10
237.531074798304
 20
80.68604424764214
 30
0.0
 10
236.4698127925915
 20
80.88079520522973
 30
0.0
 10
235.4031273590993
 20
81.05298938876199
 30
0.0
 10
234.163274513699
 20
81.2352349031416
 30
0.0
 10
232.8601201550301
 20
81.41384342554987
 30
0.0
 10
231.5187633374093
 20
81.59808095331078
 30
0.0
 10
230.2924625684768
 20
81.7694326227523
 30
0.0
 10
228.9337324084924
 20
81.96501586280452
 30
0.0
 10
227.9981762596171
 20
82.10592610744999
 30
0.0
 10
227.5144004957281
 20
82.17879074665427
 30
0.0
  0
SPLINE
  5
2A1
330
1F
100
AcDbEntity
  8
0
  6
SLD-Сплошная
 62
     7
370
    25
100
AcDbSpline
210
0.0
220
0.0
230
1.0
 70
     8
 71
     3
 72
    21
 73
    17
 74
     0
 42
0.00000001
 43
0.00000001
 40
0.0
 40
0.0
 40
0.0
 40
0.0
 40
0.1161886618873627
 40
0.2092544950732065
 40
0.276865587379456
 40
0.3223421496071938
 40
0.3935125867867635
 40
0.4870897624552776
 40
0.5782714304283297
 40
0.6551599220404752
 40
0.7179766356724144
 40
0.7679510188083026
 40
0.8251525185247613
 40
0.9135751227259669
 40
0.9695892022833732
 40
0.9999999999999999
 40
0.9999999999999999
 40
0.9999999999999999
 40
0.9999999999999999
 10
227.5144004957281
 20
30.56724762741385
 30
0.0
 10
228.3037986334195
 20
30.68485278760958
 30
0.0
 10
229.7254959490705
 20
30.89665838047044
 30
0.0
 10
231.6015278080983
 20
31.15515063381359
 30
0.0
 10
232.9423202468094
 20
31.3395856986827
 30
0.0
 10
234.112650057139
 20
31.50324578516673
 30
0.0
 10
235.4184582102421
 20
31.69365653039777
 30
0.0
 10
236.9109866633552
 20
31.93728331363267
 30
0.0
 10
238.3049955944622
 20
32.22062416666223
 30
0.0
 10
239.4471469672561
 20
32.52882177981552
 30
0.0
 10
240.3170986340485
 20
32.83749768679345
 30
0.0
 10
241.0464164349516
 20
33.16108038280451
 30
0.0
 10
241.911443095732
 20
33.65058354777103
 30
0.0
 10
242.6539154025438
 20
34.27902503162239
 30
0.0
 10
243.1751553809768
 20
34.89025944540973
 30
0.0
 10
243.3502659945565
 20
35.21393281978892
 30
0.0
 10
243.4118831309131
 20
35.32782555328155
 30
0.0
  0
SPLINE
  5
2A2
330
1F
100
AcDbEntity
  8
0
  6
SLD-Сплошная
 62
     7
370
    25
100
AcDbSpline
210
0.0
220
0.0
230
1.0
 70
     8
 71
     3
 72
    12
 73
     8
 74
     0
 42
0.00000001
 43
0.00000001
 40
0.0
 40
0.0
 40
0.0
 40
0.0
 40
0.1587471752948676
 40
0.3383397018639023
 40
0.5389343876066992
 40
0.7602908615093082
 40
1.0
 40
1.0
 40
1.0
 40
1.0
 10
227.516072231845
 20
82.17847138980765
 30
0.0
 10
226.1569957059813
 20
82.37897835791678
 30
0.0
 10
223.2603800924003
 20
82.80632119211629
 30
0.0
 10
218.6308977859817
 20
83.37398293542884
 30
0.0
 10
213.4518412723004
 20
83.8987175337906
 30
0.0
 10
207.7428709470013
 20
84.3446986332242
 30
0.0
 10
203.7571456861655
 20
84.52481020003167
 30
0.0
 10
201.6849573839927
 20
84.61845064371497
 30
0.0
  0
SPLINE
  5
2A3
330
1F
100
AcDbEntity
  8
0
  6
SLD-Сплошная
 62
     7
370
    25
100
AcDbSpline
210
0.0
220
0.0
230
1.0
 70
     8
 71
     3
 72
    12
 73
     8
 74
     0
 42
0.00000001
 43
0.00000001
 40
0.0
 40
0.0
 40
0.0
 40
0.0
 40
0.2397091384906922
 40
0.4610656123933012
 40
0.6616602981360985
 40
0.8412528247051323
 40
1.0
 40
1.0
 40
1.0
 40
1.0
 10
201.6849573839927
 20
28.12758773035314
 30
0.0
 10
203.7571456861655
 20
28.22122817403646
 30
0.0
 10
207.7428709470013
 20
28.40133974084392
 30
0.0
 10
213.4518412723004
 20
28.8473208402775
 30
0.0
 10
218.6308977859817
 20
29.37205543863925
 30
0.0
 10
223.2603800924003
 20
29.93971718195183
 30
0.0
 10
226.1569957059812
 20
30.36706001615132
 30
0.0
 10
227.516072231845
 20
30.56756698426043
 30
0.0
  0
LINE
  5
2A4
330
1F
100
AcDbEntity
  8
0
  6
SLD-Сплошная
 62
     7
370
    25
100
AcDbLine
 10
284.1634946925
 20
43.0050495423
 30
0.0
 11
284.2337167442
 21
44.8137280372
 31
0.0
  0
LINE
  5
2A5
330
1F
100
AcDbEntity
  8
0
  6
SLD-Сплошная
 62
     7
370
    25
100
AcDbLine
 10
284.2337167442
 20
67.9334903856
 30
0.0
 11
284.1634946925
 21
69.7421688805
 31
0.0
  0
SPLINE
  5
2A6
330
1F
100
AcDbEntity
  8
0
  6
SLD-Сплошная
 62
     7
370
    25
100
AcDbSpline
210
0.0
220
0.0
230
1.0
 70
     8
 71
     3
 72
    12
 73
     8
 74
     0
 42
0.00000001
 43
0.00000001
 40
0.0
 40
0.0
 40
0.0
 40
0.0
 40
0.1835489981990447
 40
0.3991166367076728
 40
0.5997129875516045
 40
0.8072744547735241
 40
1.0
 40
1.0
 40
1.0
 40
1.0
 10
192.6223206916209
 20
28.11558997539834
 30
0.0
 10
193.0077802511356
 20
28.11441966703079
 30
0.0
 10
193.8459396771733
 20
28.11187489945294
 30
0.0
 10
195.1181106171372
 20
28.11397356116203
 30
0.0
 10
196.4558842316534
 20
28.11623098675833
 30
0.0
 10
197.7496567711076
 20
28.12183789138621
 30
0.0
 10
198.6075142090401
 20
28.12402412632197
 30
0.0
 10
199.0205454523993
 20
28.12507672934651
 30
0.0
  0
SPLINE
  5
2A7
330
1F
100
AcDbEntity
  8
0
  6
SLD-Сплошная
 62
     7
370
    25
100
AcDbSpline
210
0.0
220
0.0
230
1.0
 70
     8
 71
     3
 72
    10
 73
     6
 74
     0
 42
0.00000001
 43
0.00000001
 40
0.0
 40
0.0
 40
0.0
 40
0.0
 40
0.3326370856304875
 40
0.666948431520723
 40
1.0
 40
1.0
 40
1.0
 40
1.0
 10
199.0205454790109
 20
84.6209616450739
 30
0.0
 10
198.3067217783299
 20
84.62328128275517
 30
0.0
 10
196.8754814923916
 20
84.62793223353623
 30
0.0
 10
194.7227873999756
 20
84.63472792946753
 30
0.0
 10
193.3215945326985
 20
84.63187311224966
 30
0.0
 10
192.6223206112078
 20
84.63044839815235
 30
0.0
  0
LINE
  5
2A8
330
1F
100
AcDbEntity
  8
0
  6
SLD-Сплошная
 62
     7
370
    25
100
AcDbLine
 10
201.6834428054
 20
84.618567833
 30
0.0
 11
199.0220149049
 21
84.6209377536
 31
0.0
  0
LINE
  5
2A9
330
1F
100
AcDbEntity
  8
0
  6
SLD-Сплошная
 62
     7
370
    25
100
AcDbLine
 10
199.0220149049
 20
28.1251006205
 30
0.0
 11
201.6834428054
 21
28.1274705411
 31
0.0
  0
ARC
  5
2AA
330
1F
100
AcDbEntity
  8
0
  6
SLD-Сплошная
 62
     7
370
    25
100
AcDbCircle
 10
274.6749957399
 20
56.3736092114
 30
0.0
 40
17.5
100
AcDbArc
 50
270.0
 51
297.7766046258
  0
LINE
  5
2AB
330
1F
100
AcDbEntity
  8
0
  6
SLD-Сплошная
 62
     7
370
    25
100
AcDbLine
 10
262.6653767967
 20
38.8736092114
 30
0.0
 11
274.6749957399
 21
38.8736092114
 31
0.0
  0
ARC
  5
2AC
330
1F
100
AcDbEntity
  8
0
  6
SLD-Сплошная
 62
     7
370
    25
100
AcDbCircle
 10
281.6653767967
 20
43.1020391204
 30
0.0
 40
2.500000000000022
100
AcDbArc
 50
297.7766046258
 51
357.7766046258
  0
ARC
  5
2AD
330
1F
100
AcDbEntity
  8
0
  6
SLD-Сплошная
 62
     7
370
    25
100
AcDbCircle
 10
274.6749957399
 20
56.3736092114
 30
0.0
 40
17.5
100
AcDbArc
 50
62.2233953742
 51
90.0
  0
ARC
  5
2AE
330
1F
100
AcDbEntity
  8
0
  6
SLD-Сплошная
 62
     7
370
    25
100
AcDbCircle
 10
281.6653767967
 20
69.6451793024
 30
0.0
 40
2.500000000000022
100
AcDbArc
 50
2.2233953742
 51
62.2233953742
  0
LINE
  5
2AF
330
1F
100
AcDbEntity
  8
0
  6
SLD-Сплошная
 62
     7
370
    25
100
AcDbLine
 10
274.6749957399
 20
73.8736092114
 30
0.0
 11
262.6653767967
 21
73.8736092114
 31
0.0
  0
LINE
  5
2B0
330
1F
100
AcDbEntity
  8
0
  6
SLD-Сплошная
 62
     7
370
    25
100
AcDbLine
 10
161.7726666226
 20
27.173019187
 30
0.0
 11
164.1207366226
 21
27.173019187
 31
0.0
  0
LINE
  5
2B1
330
1F
100
AcDbEntity
  8
0
  6
SLD-Сплошная
 62
     7
370
    25
100
AcDbLine
 10
158.6418971466
 20
27.173019187
 30
0.0
 11
160.9899671466
 21
27.173019187
 31
0.0
  0
LINE
  5
2B2
330
1F
100
AcDbEntity
  8
0
  6
SLD-Сплошная
 62
     7
370
    25
100
AcDbLine
 10
155.5111276706
 20
27.173019187
 30
0.0
 11
157.8591976706
 21
27.173019187
 31
0.0
  0
LINE
  5
2B3
330
1F
100
AcDbEntity
  8
0
  6
SLD-Сплошная
 62
     7
370
    25
100
AcDbLine
 10
148.9221826909
 20
61.373019187
 30
0.0
 11
153.4663375729
 21
61.373019187
 31
0.0
  0
LINE
  5
2B4
330
1F
100
AcDbEntity
  8
0
  6
SLD-Сплошная
 62
     7
370
    25
100
AcDbLine
 10
153.4663375729
 20
51.3819077375
 30
0.0
 11
153.4663375729
 21
61.373019187
 31
0.0
  0
LINE
  5
2B5
330
1F
100
AcDbEntity
  8
0
  6
SLD-Сплошная
 62
     7
370
    25
100
AcDbLine
 10
148.9221826909
 20
51.3819077375
 30
0.0
 11
153.4663375729
 21
51.3819077375
 31
0.0
  0
LINE
  5
2B6
330
1F
100
AcDbEntity
  8
0
  6
SLD-Сплошная
 62
     7
370
    25
100
AcDbLine
 10
148.9221826908
 20
51.373019187
 30
0.0
 11
148.9221826909
 21
51.3819077375
 31
0.0
  0
LINE
  5
2B7
330
1F
100
AcDbEntity
  8
0
  6
SLD-Сплошная
 62
     7
370
    25
100
AcDbLine
 10
147.6365532565
 20
51.373019187
 30
0.0
 11
147.6365532565
 21
61.373019187
 31
0.0
  0
LINE
  5
2B8
330
1F
100
AcDbEntity
  8
0
  6
SLD-Сплошная
 62
     7
370
    25
100
AcDbLine
 10
154.559982937
 20
61.373019187
 30
0.0
 11
153.4663375729
 21
61.373019187
 31
0.0
  0
LINE
  5
2B9
330
1F
100
AcDbEntity
  8
0
  6
SLD-Сплошная
 62
     7
370
    25
100
AcDbLine
 10
154.559982937
 20
61.373019187
 30
0.0
 11
154.559982937
 21
51.3819077375
 31
0.0
  0
LINE
  5
2BA
330
1F
100
AcDbEntity
  8
0
  6
SLD-Сплошная
 62
     7
370
    25
100
AcDbLine
 10
154.559982937
 20
51.3819077375
 30
0.0
 11
153.4663375729
 21
51.3819077375
 31
0.0
  0
LINE
  5
2BB
330
1F
100
AcDbEntity
  8
0
  6
SLD-Сплошная
 62
     7
370
    25
100
AcDbLine
 10
132.1536276348
 20
66.373019187
 30
0.0
 11
147.8051991789
 21
66.373019187
 31
0.0
  0
ELLIPSE
  5
2BC
330
1F
100
AcDbEntity
  8
0
  6
SLD-Сплошная
 62
     7
370
    25
100
AcDbEllipse
 10
147.8051991789
 20
63.873019187
 30
0.0
 11
5.114672006131713
 21
0.0
 31
0.0
210
0.0
220
0.0
230
1.0
 40
0.4887898964
 41
1.570796326794897
 42
4.712388980380696
  0
LINE
  5
2BD
330
1F
100
AcDbEntity
  8
0
  6
SLD-Сплошная
 62
     7
370
    25
100
AcDbLine
 10
132.1536276348
 20
61.373019187
 30
0.0
 11
147.8051991788
 21
61.373019187
 31
0.0
  0
LINE
  5
2BE
330
1F
100
AcDbEntity
  8
0
  6
SLD-Сплошная
 62
     7
370
    25
100
AcDbLine
 10
152.859982937
 20
46.373019187
 30
0.0
 11
152.859982937
 21
51.3819077375
 31
0.0
  0
LINE
  5
2BF
330
1F
100
AcDbEntity
  8
0
  6
SLD-Сплошная
 62
     7
370
    25
100
AcDbLine
 10
152.859982937
 20
61.373019187
 30
0.0
 11
152.859982937
 21
66.373019187
 31
0.0
  0
LINE
  5
2C0
330
1F
100
AcDbEntity
  8
0
  6
SLD-Сплошная
 62
     7
370
    25
100
AcDbLine
 10
152.859982937
 20
46.373019187
 30
0.0
 11
157.8159321466
 21
46.373019187
 31
0.0
  0
LINE
  5
2C1
330
1F
100
AcDbEntity
  8
0
  6
SLD-Сплошная
 62
     7
370
    25
100
AcDbLine
 10
157.8159321466
 20
66.373019187
 30
0.0
 11
152.859982937
 21
66.373019187
 31
0.0
  0
LINE
  5
2C2
330
1F
100
AcDbEntity
  8
0
  6
SLD-Сплошная
 62
     7
370
    25
100
AcDbLine
 10
148.9221826909
 20
61.373019187
 30
0.0
 11
147.8051991788
 21
61.373019187
 31
0.0
  0
LINE
  5
2C3
330
1F
100
AcDbEntity
  8
0
  6
SLD-Сплошная
 62
     7
370
    25
100
AcDbLine
 10
147.8051991789
 20
66.373019187
 30
0.0
 11
152.859982937
 21
66.373019187
 31
0.0
  0
LINE
  5
2C4
330
1F
100
AcDbEntity
  8
0
  6
SLD-Сплошная
 62
     7
370
    25
100
AcDbLine
 10
132.1536276348
 20
46.373019187
 30
0.0
 11
147.8051991789
 21
46.373019187
 31
0.0
  0
ELLIPSE
  5
2C5
330
1F
100
AcDbEntity
  8
0
  6
SLD-Сплошная
 62
     7
370
    25
100
AcDbEllipse
 10
147.8051991789
 20
48.873019187
 30
0.0
 11
5.114672006131713
 21
0.0
 31
0.0
210
0.0
220
0.0
230
1.0
 40
0.4887898964
 41
1.570796326798898
 42
4.712388980384697
  0
LINE
  5
2C6
330
1F
100
AcDbEntity
  8
0
  6
SLD-Сплошная
 62
     7
370
    25
100
AcDbLine
 10
132.1536276348
 20
51.373019187
 30
0.0
 11
147.8051991788
 21
51.373019187
 31
0.0
  0
LINE
  5
2C7
330
1F
100
AcDbEntity
  8
0
  6
SLD-Сплошная
 62
     7
370
    25
100
AcDbLine
 10
152.859982937
 20
46.373019187
 30
0.0
 11
147.8051991789
 21
46.373019187
 31
0.0
  0
LINE
  5
2C8
330
1F
100
AcDbEntity
  8
0
  6
SLD-Сплошная
 62
     7
370
    25
100
AcDbLine
 10
148.9221826908
 20
51.373019187
 30
0.0
 11
147.8051991788
 21
51.373019187
 31
0.0
  0
LINE
  5
2C9
330
1F
100
AcDbEntity
  8
0
  6
SLD-Сплошная
 62
     7
370
    25
100
AcDbLine
 10
131.9855138097
 20
61.373019187
 30
0.0
 11
131.9855138097
 21
51.373019187
 31
0.0
  0
ARC
  5
2CA
330
1F
100
AcDbEntity
  8
0
  6
SLD-Сплошная
 62
     7
370
    25
100
AcDbCircle
 10
131.1471833674
 20
63.873019187
 30
0.0
 40
2.500000000000007
100
AcDbArc
 50
90.0
 51
270.0
  0
LINE
  5
2CB
330
1F
100
AcDbEntity
  8
0
  6
SLD-Сплошная
 62
     7
370
    25
100
AcDbLine
 10
131.1471833674
 20
61.373019187
 30
0.0
 11
132.1536276348
 21
61.373019187
 31
0.0
  0
LINE
  5
2CC
330
1F
100
AcDbEntity
  8
0
  6
SLD-Сплошная
 62
     7
370
    25
100
AcDbLine
 10
131.1471833674
 20
66.373019187
 30
0.0
 11
132.1536276348
 21
66.373019187
 31
0.0
  0
ARC
  5
2CD
330
1F
100
AcDbEntity
  8
0
  6
SLD-Сплошная
 62
     7
370
    25
100
AcDbCircle
 10
131.1471833674
 20
48.873019187
 30
0.0
 40
2.500000000000007
100
AcDbArc
 50
90.0
 51
270.0
  0
LINE
  5
2CE
330
1F
100
AcDbEntity
  8
0
  6
SLD-Сплошная
 62
     7
370
    25
100
AcDbLine
 10
131.1471833674
 20
46.373019187
 30
0.0
 11
132.1536276348
 21
46.373019187
 31
0.0
  0
LINE
  5
2CF
330
1F
100
AcDbEntity
  8
0
  6
SLD-Сплошная
 62
     7
370
    25
100
AcDbLine
 10
131.1471833674
 20
51.373019187
 30
0.0
 11
132.1536276348
 21
51.373019187
 31
0.0
  0
LINE
  5
2D0
330
1F
100
AcDbEntity
  8
0
  6
SLD-Сплошная
 62
     7
370
    25
100
AcDbLine
 10
130.822304502
 20
51.373019187
 30
0.0
 11
131.1471833674
 21
51.373019187
 31
0.0
  0
LWPOLYLINE
  5
2D1
330
1F
100
AcDbEntity
  8
0
  6
SLD-Сплошная
 62
     7
370
    25
100
AcDbPolyline
 90
        9
 70
   128
 43
0.0
 10
130.822304502
 20
51.373019187
 10
130.8223934783
 20
51.3703809595
 10
130.8224825016
 20
51.3677427335
 10
130.8225715718
 20
51.3651045091
 10
130.8226606889
 20
51.3624662862
 10
130.822749853
 20
51.359828065
 10
130.822839064
 20
51.3571898453
 10
130.8229283219
 20
51.3545516273
 10
130.8230176268
 20
51.3519134108
  0
LINE
  5
2D2
330
1F
100
AcDbEntity
  8
0
  6
SLD-Сплошная
 62
     7
370
    25
100
AcDbLine
 10
131.0753273913
 20
46.3740520567
 30
0.0
 11
131.075397157
 21
46.373019187
 31
0.0
  0
LINE
  5
2D3
330
1F
100
AcDbEntity
  8
0
  6
SLD-Сплошная
 62
     7
370
    25
100
AcDbLine
 10
131.075397157
 20
46.373019187
 30
0.0
 11
131.1471833674
 21
46.373019187
 31
0.0
  0
LINE
  5
2D4
330
1F
100
AcDbEntity
  8
0
  6
SLD-Сплошная
 62
     7
370
    25
100
AcDbLine
 10
131.9855138097
 20
27.173019187
 30
0.0
 11
131.9855138097
 21
46.373019187
 31
0.0
  0
LINE
  5
2D5
330
1F
100
AcDbEntity
  8
0
  6
SLD-Сплошная
 62
     7
370
    25
100
AcDbLine
 10
131.9855138097
 20
66.373019187
 30
0.0
 11
131.9855138097
 21
85.573019187
 31
0.0
  0
LINE
  5
2D6
330
1F
100
AcDbEntity
  8
0
  6
SLD-Сплошная
 62
     7
370
    25
100
AcDbLine
 10
131.075397157
 20
66.373019187
 30
0.0
 11
131.1471833674
 21
66.373019187
 31
0.0
  0
LINE
  5
2D7
330
1F
100
AcDbEntity
  8
0
  6
SLD-Сплошная
 62
     7
370
    25
100
AcDbLine
 10
131.0753273913
 20
66.3719863174
 30
0.0
 11
131.075397157
 21
66.373019187
 31
0.0
  0
LWPOLYLINE
  5
2D8
330
1F
100
AcDbEntity
  8
0
  6
SLD-Сплошная
 62
     7
370
    25
100
AcDbPolyline
 90
        9
 70
   128
 43
0.0
 10
130.822304502
 20
61.373019187
 10
130.8223934783
 20
61.3756574146
 10
130.8224825016
 20
61.3782956406
 10
130.8225715718
 20
61.380933865
 10
130.8226606889
 20
61.3835720878
 10
130.822749853
 20
61.3862103091
 10
130.822839064
 20
61.3888485287
 10
130.8229283219
 20
61.3914867468
 10
130.8230176268
 20
61.3941249633
  0
LINE
  5
2D9
330
1F
100
AcDbEntity
  8
0
  6
SLD-Сплошная
 62
     7
370
    25
100
AcDbLine
 10
130.822304502
 20
61.373019187
 30
0.0
 11
131.1471833674
 21
61.373019187
 31
0.0
  0
LINE
  5
2DA
330
1F
100
AcDbEntity
  8
0
  6
SLD-Сплошная
 62
     7
370
    25
100
AcDbLine
 10
139.1159321466
 20
66.373019187
 30
0.0
 11
139.1159321466
 21
85.573019187
 31
0.0
  0
LINE
  5
2DB
330
1F
100
AcDbEntity
  8
0
  6
SLD-Сплошная
 62
     7
370
    25
100
AcDbLine
 10
139.1159321466
 20
27.173019187
 30
0.0
 11
139.1159321466
 21
46.373019187
 31
0.0
  0
ARC
  5
2DC
330
1F
100
AcDbEntity
  8
0
  6
SLD-Сплошная
 62
     7
370
    25
100
AcDbCircle
 10
130.6992886409
 20
63.873019187
 30
0.0
 40
2.500000000000013
100
AcDbArc
 50
120.5973197656
 51
233.6168988607
  0
ARC
  5
2DD
330
1F
100
AcDbEntity
  8
0
  6
SLD-Сплошная
 62
     7
370
    25
100
AcDbCircle
 10
130.6992886409
 20
48.873019187
 30
0.0
 40
2.500000000000008
100
AcDbArc
 50
126.3831011393
 51
239.4026802344
  0
LINE
  5
2DE
330
1F
100
AcDbEntity
  8
0
  6
SLD-Сплошная
 62
     7
370
    25
100
AcDbLine
 10
146.6159321466
 20
66.673019187
 30
0.0
 11
154.3024301883
 21
66.673019187
 31
0.0
  0
LINE
  5
2DF
330
1F
100
AcDbEntity
  8
0
  6
SLD-Сплошная
 62
     7
370
    25
100
AcDbLine
 10
146.6159321466
 20
66.673019187
 30
0.0
 11
146.6159321466
 21
70.673019187
 31
0.0
  0
LINE
  5
2E0
330
1F
100
AcDbEntity
  8
0
  6
SLD-Сплошная
 62
     7
370
    25
100
AcDbLine
 10
146.6159321466
 20
70.673019187
 30
0.0
 11
154.3024301883
 21
70.673019187
 31
0.0
  0
LINE
  5
2E1
330
1F
100
AcDbEntity
  8
0
  6
SLD-Сплошная
 62
     7
370
    25
100
AcDbLine
 10
146.6159321466
 20
42.073019187
 30
0.0
 11
154.3024301883
 21
42.073019187
 31
0.0
  0
LINE
  5
2E2
330
1F
100
AcDbEntity
  8
0
  6
SLD-Сплошная
 62
     7
370
    25
100
AcDbLine
 10
146.6159321466
 20
46.073019187
 30
0.0
 11
146.6159321466
 21
42.073019187
 31
0.0
  0
LINE
  5
2E3
330
1F
100
AcDbEntity
  8
0
  6
SLD-Сплошная
 62
     7
370
    25
100
AcDbLine
 10
146.6159321466
 20
46.073019187
 30
0.0
 11
154.3024301883
 21
46.073019187
 31
0.0
  0
ELLIPSE
  5
2E4
330
1F
100
AcDbEntity
  8
0
  6
SLD-Сплошная
 62
     7
370
    25
100
AcDbEllipse
 10
218.8431249258
 20
56.373019187
 30
0.0
 11
45.83481885183068
 21
-7.105427357601002E-15
 31
0.0
210
0.0
220
0.0
230
1.0
 40
0.6370702608
 41
2.62981716171021
 42
3.653368145469396
  0
LINE
  5
2E5
330
1F
100
AcDbEntity
  8
0
  6
SLD-Сплошная
 62
     7
370
    25
100
AcDbLine
 10
166.1099104297
 20
46.073019187
 30
0.0
 11
166.1099104297
 21
66.673019187
 31
0.0
  0
LINE
  5
2E6
330
1F
100
AcDbEntity
  8
0
  6
SLD-Сплошная
 62
     7
370
    25
100
AcDbLine
 10
154.3024301883
 20
42.073019187
 30
0.0
 11
178.8808290901
 21
42.073019187
 31
0.0
  0
LINE
  5
2E7
330
1F
100
AcDbEntity
  8
0
  6
SLD-Сплошная
 62
     7
370
    25
100
AcDbLine
 10
154.3024301883
 20
46.073019187
 30
0.0
 11
166.1099104297
 21
46.073019187
 31
0.0
  0
LINE
  5
2E8
330
1F
100
AcDbEntity
  8
0
  6
SLD-Сплошная
 62
     7
370
    25
100
AcDbLine
 10
154.3024301883
 20
66.673019187
 30
0.0
 11
166.1099104297
 21
66.673019187
 31
0.0
  0
LINE
  5
2E9
330
1F
100
AcDbEntity
  8
0
  6
SLD-Сплошная
 62
     7
370
    25
100
AcDbLine
 10
154.3024301883
 20
70.673019187
 30
0.0
 11
178.8808290901
 21
70.673019187
 31
0.0
  0
LINE
  5
2EA
330
1F
100
AcDbEntity
  8
0
  6
SLD-Сплошная
 62
     7
370
    25
100
AcDbLine
 10
165.035311213
 20
66.673019187
 30
0.0
 11
165.035311213
 21
46.073019187
 31
0.0
  0
LINE
  5
2EB
330
1F
100
AcDbEntity
  8
0
  6
SLD-Сплошная
 62
     7
370
    25
100
AcDbLine
 10
151.5159321466
 20
30.4308713789
 30
0.0
 11
151.5159321466
 21
27.173019187
 31
0.0
  0
LINE
  5
2EC
330
1F
100
AcDbEntity
  8
0
  6
SLD-Сплошная
 62
     7
370
    25
100
AcDbLine
 10
168.1159321466
 20
30.4308713789
 30
0.0
 11
168.1159321466
 21
27.173019187
 31
0.0
  0
LINE
  5
2ED
330
1F
100
AcDbEntity
  8
0
  6
SLD-Сплошная
 62
     7
370
    25
100
AcDbLine
 10
168.1159321466
 20
30.4308713789
 30
0.0
 11
151.5159321466
 21
30.4308713789
 31
0.0
  0
LINE
  5
2EE
330
1F
100
AcDbEntity
  8
0
  6
SLD-Сплошная
 62
     7
370
    25
100
AcDbLine
 10
181.6159321466
 20
85.573019187
 30
0.0
 11
181.6159321466
 21
27.173019187
 31
0.0
  0
LINE
  5
2EF
330
1F
100
AcDbEntity
  8
0
  6
SLD-Сплошная
 62
     7
370
    25
100
AcDbLine
 10
201.6159321466
 20
30.2990699055
 30
0.0
 11
201.3938486512
 21
30.2969592577
 31
0.0
  0
SPLINE
  5
2F0
330
1F
100
AcDbEntity
  8
0
  6
SLD-Сплошная
 62
     7
370
    25
100
AcDbSpline
210
0.0
220
0.0
230
1.0
 70
     8
 71
     3
 72
    14
 73
    10
 74
     0
 42
0.00000001
 43
0.00000001
 40
0.0
 40
0.0
 40
0.0
 40
0.0
 40
0.0013169456970121
 40
0.0013169456970121
 40
0.0013169456970121
 40
0.0019754186899862
 40
0.0019754186899862
 40
0.0019754186899862
 40
0.0026338917274289
 40
0.0026338917274289
 40
0.0026338917274289
 40
0.0026338917274289
 10
198.773605069064
 20
30.27230550194566
 30
0.0
 10
199.2103126953905
 20
30.27618694801795
 30
0.0
 10
199.64702012282
 20
30.28018216495582
 30
0.0
 10
200.083727340667
 20
30.28429111436341
 30
0.0
 10
200.3020810030237
 20
30.28634558956994
 30
0.0
 10
200.5204346161571
 20
30.28842849986203
 30
0.0
 10
200.7387881650735
 20
30.29053985296495
 30
0.0
 10
200.9571417287353
 20
30.29265120621045
 30
0.0
 10
201.1754952317645
 20
30.29479100233534
 30
0.0
 10
201.3938486512455
 20
30.2969592577331
 30
0.0
  0
SPLINE
  5
2F1
330
1F
100
AcDbEntity
  8
0
  6
SLD-Сплошная
 62
     7
370
    25
100
AcDbSpline
210
0.0
220
0.0
230
1.0
 70
     8
 71
     3
 72
    14
 73
    10
 74
     0
 42
0.00000001
 43
0.00000001
 40
0.0
 40
0.0
 40
0.0
 40
0.0
 40
0.25
 40
0.25
 40
0.5
 40
0.5
 40
0.75
 40
0.75
 40
1.0
 40
1.0
 40
1.0
 40
1.0
 10
198.773605069064
 20
30.27230550194566
 30
0.0
 10
198.3132772288359
 20
30.26821412002396
 30
0.0
 10
197.8526119768511
 20
30.26594691645192
 30
0.0
 10
196.9306691325008
 20
30.26438810637697
 30
0.0
 10
196.4691267098774
 20
30.26539993564965
 30
0.0
 10
195.5460086759429
 20
30.27180502086369
 30
0.0
 10
195.0872759931882
 20
30.2770348520501
 30
0.0
 10
194.1745682788466
 20
30.29146254012283
 30
0.0
 10
193.7218661104593
 20
30.3005185724263
 30
0.0
 10
193.2748819638835
 20
30.31307474682545
 30
0.0
  0
SPLINE
  5
2F2
330
1F
100
AcDbEntity
  8
0
  6
SLD-Сплошная
 62
     7
370
    25
100
AcDbSpline
210
0.0
220
0.0
230
1.0
 70
     8
 71
     3
 72
     8
 73
     4
 74
     0
 42
0.00000001
 43
0.00000001
 40
0.0
 40
0.0
 40
0.0
 40
0.0
 40
1.0
 40
1.0
 40
1.0
 40
1.0
 10
193.2748819638835
 20
30.31307474682545
 30
0.0
 10
189.3873215817017
 20
30.42227970749324
 30
0.0
 10
185.5004107381346
 20
30.59516162901821
 30
0.0
 10
181.6159321465987
 20
30.83367231435795
 30
0.0
  0
SPLINE
  5
2F3
330
1F
100
AcDbEntity
  8
0
  6
SLD-Сплошная
 62
     7
370
    25
100
AcDbSpline
210
0.0
220
0.0
230
1.0
 70
     8
 71
     3
 72
     8
 73
     4
 74
     0
 42
0.00000001
 43
0.00000001
 40
0.0
 40
0.0
 40
0.0
 40
0.0
 40
1.0
 40
1.0
 40
1.0
 40
1.0
 10
193.2748819638835
 20
82.43296362724266
 30
0.0
 10
189.387321630195
 20
82.32375866793708
 30
0.0
 10
185.5004107803264
 20
82.15087674764051
 30
0.0
 10
181.6159321465987
 20
81.91236605971015
 30
0.0
  0
SPLINE
  5
2F4
330
1F
100
AcDbEntity
  8
0
  6
SLD-Сплошная
 62
     7
370
    25
100
AcDbSpline
210
0.0
220
0.0
230
1.0
 70
     8
 71
     3
 72
    14
 73
    10
 74
     0
 42
0.00000001
 43
0.00000001
 40
0.0
 40
0.0
 40
0.0
 40
0.0
 40
0.25
 40
0.25
 40
0.5
 40
0.5
 40
0.75
 40
0.75
 40
1.0
 40
1.0
 40
1.0
 40
1.0
 10
198.773605069064
 20
82.47373287212245
 30
0.0
 10
198.3130530424317
 20
82.47782624660711
 30
0.0
 10
197.8522709464483
 20
82.48052827764532
 30
0.0
 10
196.9298628281438
 20
82.48147009016371
 30
0.0
 10
196.4681560373034
 20
82.48006798190008
 30
0.0
 10
195.5448059575262
 20
82.47423460006443
 30
0.0
 10
195.0851231380335
 20
82.46975823308682
 30
0.0
 10
194.1723204395998
 20
82.45539361298992
 30
0.0
 10
193.7216334588006
 20
82.44551326625388
 30
0.0
 10
193.2748819638835
 20
82.43296362724266
 30
0.0
  0
SPLINE
  5
2F5
330
1F
100
AcDbEntity
  8
0
  6
SLD-Сплошная
 62
     7
370
    25
100
AcDbSpline
210
0.0
220
0.0
230
1.0
 70
     8
 71
     3
 72
    14
 73
    10
 74
     0
 42
0.00000001
 43
0.00000001
 40
0.0
 40
0.0
 40
0.0
 40
0.0
 40
0.0013169456970121
 40
0.0013169456970121
 40
0.0013169456970121
 40
0.0019754186899862
 40
0.0019754186899862
 40
0.0019754186899862
 40
0.0026338917274289
 40
0.0026338917274289
 40
0.0026338917274289
 40
0.0026338917274289
 10
198.773605069064
 20
82.47373287212245
 30
0.0
 10
199.2103126953905
 20
82.46985142605016
 30
0.0
 10
199.64702012282
 20
82.46585620911229
 30
0.0
 10
200.083727340667
 20
82.46174725970471
 30
0.0
 10
200.3020810030237
 20
82.45969278449816
 30
0.0
 10
200.5204346161571
 20
82.45760987420609
 30
0.0
 10
200.7387881650735
 20
82.45549852110315
 30
0.0
 10
200.9571417287353
 20
82.45338716785766
 30
0.0
 10
201.1754952317645
 20
82.45124737173276
 30
0.0
 10
201.3938486512455
 20
82.449079116335
 30
0.0
  0
LINE
  5
2F6
330
1F
100
AcDbEntity
  8
0
  6
SLD-Сплошная
 62
     7
370
    25
100
AcDbLine
 10
201.6159321466
 20
82.4469684686
 30
0.0
 11
201.3938486512
 21
82.4490791163
 31
0.0
  0
SPLINE
  5
2F7
330
1F
100
AcDbEntity
  8
0
  6
SLD-Сплошная
 62
     7
370
    25
100
AcDbSpline
210
0.0
220
0.0
230
1.0
 70
     8
 71
     3
 72
    14
 73
    10
 74
     0
 42
0.00000001
 43
0.00000001
 40
0.0
 40
0.0
 40
0.0
 40
0.0
 40
0.0297772604886443
 40
0.1957145083426079
 40
0.3645828921147667
 40
0.537673872541529
 40
0.7184205306313812
 40
0.9046100564242279
 40
0.9999999999999999
 40
0.9999999999999999
 40
0.9999999999999999
 40
0.9999999999999999
 10
240.1657453528477
 20
34.58716162776822
 30
0.0
 10
240.0749814901916
 20
34.56567049590165
 30
0.0
 10
239.4784254449577
 20
34.42441753179522
 30
0.0
 10
238.0759367285571
 20
34.2627837785888
 30
0.0
 10
235.9776868456825
 20
34.03894214161998
 30
0.0
 10
233.6036665187374
 20
33.81573024906815
 30
0.0
 10
231.016528621727
 20
33.52782350925017
 30
0.0
 10
228.7427125383375
 20
33.22044209074853
 30
0.0
 10
227.3694417730566
 20
33.00229848488481
 30
0.0
 10
226.9042224120424
 20
32.928398543595
 30
0.0
  0
SPLINE
  5
2F8
330
1F
100
AcDbEntity
  8
0
  6
SLD-Сплошная
 62
     7
370
    25
100
AcDbSpline
210
0.0
220
0.0
230
1.0
 70
     8
 71
     3
 72
     8
 73
     4
 74
     0
 42
0.00000001
 43
0.00000001
 40
0.0
 40
0.0
 40
0.0
 40
0.0
 40
1.0
 40
1.0
 40
1.0
 40
1.0
 10
226.9042224120424
 20
32.928398543595
 30
0.0
 10
218.5339733485202
 20
31.55690765968636
 30
0.0
 10
210.0871288446444
 20
30.69049122367195
 30
0.0
 10
201.6159321465987
 20
30.2990699054563
 30
0.0
  0
SPLINE
  5
2F9
330
1F
100
AcDbEntity
  8
0
  6
SLD-Сплошная
 62
     7
370
    25
100
AcDbSpline
210
0.0
220
0.0
230
1.0
 70
     8
 71
     3
 72
     8
 73
     4
 74
     0
 42
0.00000001
 43
0.00000001
 40
0.0
 40
0.0
 40
0.0
 40
0.0
 40
1.0
 40
1.0
 40
1.0
 40
1.0
 10
226.9042224120424
 20
79.8176398304731
 30
0.0
 10
218.5339733485202
 20
81.18913071438175
 30
0.0
 10
210.0871288446444
 20
82.05554715039617
 30
0.0
 10
201.6159321465987
 20
82.44696846861181
 30
0.0
  0
SPLINE
  5
2FA
330
1F
100
AcDbEntity
  8
0
  6
SLD-Сплошная
 62
     7
370
    25
100
AcDbSpline
210
0.0
220
0.0
230
1.0
 70
     8
 71
     3
 72
    14
 73
    10
 74
     0
 42
0.00000001
 43
0.00000001
 40
0.0
 40
0.0
 40
0.0
 40
0.0
 40
0.0297282954004038
 40
0.1956739177560696
 40
0.3645508239581569
 40
0.5376505399203637
 40
0.7184063199115095
 40
0.9046052422956631
 40
0.9999999999999999
 40
0.9999999999999999
 40
0.9999999999999999
 40
0.9999999999999999
 10
240.1652777509079
 20
78.15898387577148
 30
0.0
 10
240.0746660198867
 20
78.18043799578659
 30
0.0
 10
239.4782526647057
 20
78.32165065728712
 30
0.0
 10
238.0759278130097
 20
78.48325148806815
 30
0.0
 10
235.9776893158204
 20
78.70709709338618
 30
0.0
 10
233.6036658168318
 20
78.93030788035885
 30
0.0
 10
231.0165288229738
 20
79.21821493496017
 30
0.0
 10
228.7427125150299
 20
79.52559627519598
 30
0.0
 10
227.3694417671587
 20
79.74373988712767
 30
0.0
 10
226.9042224120424
 20
79.8176398304731
 30
0.0
  0
LINE
  5
2FB
330
1F
100
AcDbEntity
  8
0
  6
SLD-Сплошная
 62
     7
370
    25
100
AcDbLine
 10
244.1159321466
 20
77.373019187
 30
0.0
 11
244.1159321466
 21
35.373019187
 31
0.0
  0
LINE
  5
2FC
330
1F
100
AcDbEntity
  8
0
  6
SLD-Сплошная
 62
     7
370
    25
100
AcDbLine
 10
253.6653767967
 20
79.3736092114
 30
0.0
 11
253.6653767967
 21
81.7741614175
 31
0.0
  0
LINE
  5
2FD
330
1F
100
AcDbEntity
  8
0
  6
SLD-Сплошная
 62
     7
370
    25
100
AcDbLine
 10
253.6653767967
 20
77.208545702
 30
0.0
 11
253.6653767967
 21
79.3736092114
 31
0.0
  0
LINE
  5
2FE
330
1F
100
AcDbEntity
  8
0
  6
SLD-Сплошная
 62
     7
370
    25
100
AcDbLine
 10
253.6653767967
 20
58.5386727209
 30
0.0
 11
253.6653767967
 21
77.208545702
 31
0.0
  0
LINE
  5
2FF
330
1F
100
AcDbEntity
  8
0
  6
SLD-Сплошная
 62
     7
370
    25
100
AcDbLine
 10
253.6653767967
 20
54.208545702
 30
0.0
 11
253.6653767967
 21
58.5386727209
 31
0.0
  0
LINE
  5
300
330
1F
100
AcDbEntity
  8
0
  6
SLD-Сплошная
 62
     7
370
    25
100
AcDbLine
 10
253.6653767967
 20
35.5386727209
 30
0.0
 11
253.6653767967
 21
54.208545702
 31
0.0
  0
LINE
  5
301
330
1F
100
AcDbEntity
  8
0
  6
SLD-Сплошная
 62
     7
370
    25
100
AcDbLine
 10
253.6653767967
 20
33.3736092114
 30
0.0
 11
253.6653767967
 21
35.5386727209
 31
0.0
  0
LINE
  5
302
330
1F
100
AcDbEntity
  8
0
  6
SLD-Сплошная
 62
     7
370
    25
100
AcDbLine
 10
253.6653767967
 20
30.9730570053
 30
0.0
 11
253.6653767967
 21
33.3736092114
 31
0.0
  0
LINE
  5
303
330
1F
100
AcDbEntity
  8
0
  6
SLD-Сплошная
 62
     7
370
    25
100
AcDbLine
 10
251.6653767967
 20
30.9730570053
 30
0.0
 11
253.6653767967
 21
30.9730570053
 31
0.0
  0
LINE
  5
304
330
1F
100
AcDbEntity
  8
0
  6
SLD-Сплошная
 62
     7
370
    25
100
AcDbLine
 10
251.6653767967
 20
30.9730570053
 30
0.0
 11
251.6653767967
 21
81.7741614175
 31
0.0
  0
LINE
  5
305
330
1F
100
AcDbEntity
  8
0
  6
SLD-Сплошная
 62
     7
370
    25
100
AcDbLine
 10
251.6653767967
 20
81.7741614175
 30
0.0
 11
253.6653767967
 21
81.7741614175
 31
0.0
  0
LINE
  5
306
330
1F
100
AcDbEntity
  8
0
  6
SLD-Сплошная
 62
     7
370
    25
100
AcDbLine
 10
262.6653767967
 20
77.208545702
 30
0.0
 11
253.6653767967
 21
77.208545702
 31
0.0
  0
LINE
  5
307
330
1F
100
AcDbEntity
  8
0
  6
SLD-Сплошная
 62
     7
370
    25
100
AcDbLine
 10
253.6653767967
 20
58.5386727209
 30
0.0
 11
262.6653767967
 21
58.5386727209
 31
0.0
  0
LINE
  5
308
330
1F
100
AcDbEntity
  8
0
  6
SLD-Сплошная
 62
     7
370
    25
100
AcDbLine
 10
262.6653767967
 20
77.208545702
 30
0.0
 11
262.6653767967
 21
58.5386727209
 31
0.0
  0
LINE
  5
309
330
1F
100
AcDbEntity
  8
0
  6
SLD-Сплошная
 62
     7
370
    25
100
AcDbLine
 10
262.6653767967
 20
54.208545702
 30
0.0
 11
253.6653767967
 21
54.208545702
 31
0.0
  0
LINE
  5
30A
330
1F
100
AcDbEntity
  8
0
  6
SLD-Сплошная
 62
     7
370
    25
100
AcDbLine
 10
262.6653767967
 20
58.5386727209
 30
0.0
 11
262.6653767967
 21
54.208545702
 31
0.0
  0
LINE
  5
30B
330
1F
100
AcDbEntity
  8
0
  6
SLD-Сплошная
 62
     7
370
    25
100
AcDbLine
 10
253.6653767967
 20
35.5386727209
 30
0.0
 11
262.6653767967
 21
35.5386727209
 31
0.0
  0
LINE
  5
30C
330
1F
100
AcDbEntity
  8
0
  6
SLD-Сплошная
 62
     7
370
    25
100
AcDbLine
 10
262.6653767967
 20
35.5386727209
 30
0.0
 11
262.6653767967
 21
54.208545702
 31
0.0
  0
LINE
  5
30D
330
1F
100
AcDbEntity
  8
0
  6
SLD-Сплошная
 62
     7
370
    25
100
AcDbLine
 10
274.6749957399
 20
59.4436933055
 30
0.0
 11
281.5173943282
 21
59.4436933055
 31
0.0
  0
LINE
  5
30E
330
1F
100
AcDbEntity
  8
0
  6
SLD-Сплошная
 62
     7
370
    25
100
AcDbLine
 10
274.6749957399
 20
59.4436933055
 30
0.0
 11
262.6653767967
 21
59.4436933055
 31
0.0
  0
LINE
  5
30F
330
1F
100
AcDbEntity
  8
0
  6
SLD-Сплошная
 62
     7
370
    25
100
AcDbLine
 10
274.6749957399
 20
53.3035251173
 30
0.0
 11
281.5173943282
 21
53.3035251173
 31
0.0
  0
LINE
  5
310
330
1F
100
AcDbEntity
  8
0
  6
SLD-Сплошная
 62
     7
370
    25
100
AcDbLine
 10
274.6749957399
 20
53.3035251173
 30
0.0
 11
262.6653767967
 21
53.3035251173
 31
0.0
  0
ARC
  5
311
330
1F
100
AcDbEntity
  8
0
  6
SLD-Сплошная
 62
     7
370
    25
100
AcDbCircle
 10
281.3289954046
 20
56.5402991794
 30
0.0
 40
2.909500233045342
100
AcDbArc
 50
356.7156338417
 51
86.287327707
  0
ARC
  5
312
330
1F
100
AcDbEntity
  8
0
  6
SLD-Сплошная
 62
     7
370
    25
100
AcDbCircle
 10
274.6749957399
 20
56.3736092114
 30
0.0
 40
14.68245836551851
100
AcDbArc
 50
62.2233953742
 51
90.0
  0
LINE
  5
313
330
1F
100
AcDbEntity
  8
0
  6
SLD-Сплошная
 62
     7
370
    25
100
AcDbLine
 10
281.5173943282
 20
69.3642275652
 30
0.0
 11
284.2337167442
 21
67.9334903856
 31
0.0
  0
LINE
  5
314
330
1F
100
AcDbEntity
  8
0
  6
SLD-Сплошная
 62
     7
370
    25
100
AcDbLine
 10
287.6653767967
 20
56.3736092114
 30
0.0
 11
287.6653767967
 21
63.8736092114
 31
0.0
  0
LINE
  5
315
330
1F
100
AcDbEntity
  8
0
  6
SLD-Сплошная
 62
     7
370
    25
100
AcDbLine
 10
274.6749957399
 20
71.0560675769
 30
0.0
 11
262.6653767967
 21
71.0560675769
 31
0.0
  0
LINE
  5
316
330
1F
100
AcDbEntity
  8
0
  6
SLD-Сплошная
 62
     7
370
    25
100
AcDbLine
 10
284.2337167442
 20
44.8137280372
 30
0.0
 11
281.5173943282
 21
43.3829908576
 31
0.0
  0
ARC
  5
317
330
1F
100
AcDbEntity
  8
0
  6
SLD-Сплошная
 62
     7
370
    25
100
AcDbCircle
 10
274.6749957399
 20
56.3736092114
 30
0.0
 40
14.68245836551862
100
AcDbArc
 50
270.0
 51
297.7766046258
  0
ARC
  5
318
330
1F
100
AcDbEntity
  8
0
  6
SLD-Сплошная
 62
     7
370
    25
100
AcDbCircle
 10
281.3289954046
 20
56.2069192435
 30
0.0
 40
2.909500233044975
100
AcDbArc
 50
273.712672293
 51
3.2843661583
  0
LINE
  5
319
330
1F
100
AcDbEntity
  8
0
  6
SLD-Сплошная
 62
     7
370
    25
100
AcDbLine
 10
287.6653767967
 20
48.8736092114
 30
0.0
 11
287.6653767967
 21
56.3736092114
 31
0.0
  0
LINE
  5
31A
330
1F
100
AcDbEntity
  8
0
  6
SLD-Сплошная
 62
     7
370
    25
100
AcDbLine
 10
274.6749957399
 20
41.6911508459
 30
0.0
 11
262.6653767967
 21
41.6911508459
 31
0.0
  0
LINE
  5
31B
330
1F
100
AcDbEntity
  8
0
  6
SLD-Сплошная
 62
     7
370
    25
100
AcDbLine
 10
253.6653767967
 20
79.3736092114
 30
0.0
 11
262.6653767967
 21
79.3736092114
 31
0.0
  0
LINE
  5
31C
330
1F
100
AcDbEntity
  8
0
  6
SLD-Сплошная
 62
     7
370
    25
100
AcDbLine
 10
262.6653767967
 20
79.3736092114
 30
0.0
 11
262.6653767967
 21
77.208545702
 31
0.0
  0
LINE
  5
31D
330
1F
100
AcDbEntity
  8
0
  6
SLD-Сплошная
 62
     7
370
    25
100
AcDbLine
 10
262.6653767967
 20
33.3736092114
 30
0.0
 11
253.6653767967
 21
33.3736092114
 31
0.0
  0
LINE
  5
31E
330
1F
100
AcDbEntity
  8
0
  6
SLD-Сплошная
 62
     7
370
    25
100
AcDbLine
 10
262.6653767967
 20
33.3736092114
 30
0.0
 11
262.6653767967
 21
35.5386727209
 31
0.0
  0
SPLINE
  5
31F
330
1F
100
AcDbEntity
  8
0
  6
SLD-Сплошная
 62
     7
370
    25
100
AcDbSpline
210
0.0
220
0.0
230
1.0
 70
     8
 71
     3
 72
     8
 73
     4
 74
     0
 42
0.00000001
 43
0.00000001
 40
0.0
 40
0.0
 40
0.0
 40
0.0
 40
1.0
 40
1.0
 40
1.0
 40
1.0
 10
164.1207366225981
 20
29.64399081508406
 30
0.0
 10
162.6856815203586
 20
29.19675476986586
 30
0.0
 10
161.2509872488735
 20
28.81943564018004
 30
0.0
 10
159.8159321466
 20
28.51479070733976
 30
0.0
  0
SPLINE
  5
320
330
1F
100
AcDbEntity
  8
0
  6
SLD-Сплошная
 62
     7
370
    25
100
AcDbSpline
210
0.0
220
0.0
230
1.0
 70
     8
 71
     3
 72
     8
 73
     4
 74
     0
 42
0.00000001
 43
0.00000001
 40
0.0
 40
0.0
 40
0.0
 40
0.0
 40
1.0
 40
1.0
 40
1.0
 40
1.0
 10
159.8159321466
 20
28.51479070733976
 30
0.0
 10
158.3808770437864
 20
28.81943564029445
 30
0.0
 10
156.9461827734418
 20
29.19675476967801
 30
0.0
 10
155.5111276705983
 20
29.64399081508406
 30
0.0
  0
LINE
  5
321
330
1F
100
AcDbEntity
  8
0
  6
SLD-Сплошная
 62
     7
370
    25
100
AcDbLine
 10
157.211416423
 20
27.8969240215
 30
0.0
 11
155.5111276706
 21
27.8969240215
 31
0.0
  0
LINE
  5
322
330
1F
100
AcDbEntity
  8
0
  6
SLD-Сплошная
 62
     7
370
    25
100
AcDbLine
 10
164.1207366226
 20
27.8969240215
 30
0.0
 11
162.396536596
 21
27.8969240215
 31
0.0
  0
SPLINE
  5
323
330
1F
100
AcDbEntity
  8
0
  6
SLD-Сплошная
 62
     7
370
    25
100
AcDbSpline
210
0.0
220
0.0
230
1.0
 70
     8
 71
     3
 72
     8
 73
     4
 74
     0
 42
0.00000001
 43
0.00000001
 40
0.0
 40
0.0
 40
0.0
 40
0.0
 40
1.0
 40
1.0
 40
1.0
 40
1.0
 10
164.1207366225981
 20
29.2134728412552
 30
0.0
 10
162.6852858137426
 20
28.77320476483059
 30
0.0
 10
161.2506451504011
 20
28.40158240299948
 30
0.0
 10
159.8159321466
 20
28.10146291528185
 30
0.0
  0
LINE
  5
324
330
1F
100
AcDbEntity
  8
0
  6
SLD-Сплошная
 62
     7
370
    25
100
AcDbLine
 10
159.8159321466
 20
28.5147907073
 30
0.0
 11
159.8159321466
 21
28.1014629153
 31
0.0
  0
LINE
  5
325
330
1F
100
AcDbEntity
  8
0
  6
SLD-Сплошная
 62
     7
370
    25
100
AcDbLine
 10
164.1207366226
 20
29.6439908151
 30
0.0
 11
164.1207366226
 21
29.2134728413
 31
0.0
  0
SPLINE
  5
326
330
1F
100
AcDbEntity
  8
0
  6
SLD-Сплошная
 62
     7
370
    25
100
AcDbSpline
210
0.0
220
0.0
230
1.0
 70
     8
 71
     3
 72
     8
 73
     4
 74
     0
 42
0.00000001
 43
0.00000001
 40
0.0
 40
0.0
 40
0.0
 40
0.0
 40
1.0
 40
1.0
 40
1.0
 40
1.0
 10
159.8159321466
 20
28.10146291528185
 30
0.0
 10
158.3812192809276
 20
28.40158237410486
 30
0.0
 10
156.9465783177053
 20
28.773204814441
 30
0.0
 10
155.5111276705983
 20
29.21347284125525
 30
0.0
  0
LINE
  5
327
330
1F
100
AcDbEntity
  8
0
  6
SLD-Сплошная
 62
     7
370
    25
100
AcDbLine
 10
155.5111276706
 20
29.6439908151
 30
0.0
 11
155.5111276706
 21
29.2134728413
 31
0.0
  0
LINE
  5
328
330
1F
100
AcDbEntity
  8
0
  6
SLD-Сплошная
 62
     7
370
    25
100
AcDbLine
 10
155.5111276706
 20
27.4924375468
 30
0.0
 11
155.5111276706
 21
27.2159774843
 31
0.0
  0
LINE
  5
329
330
1F
100
AcDbEntity
  8
0
  6
SLD-Сплошная
 62
     7
370
    25
100
AcDbLine
 10
159.7060127767
 20
27.4924375468
 30
0.0
 11
155.5111276706
 21
27.4924375468
 31
0.0
  0
LINE
  5
32A
330
1F
100
AcDbEntity
  8
0
  6
SLD-Сплошная
 62
     7
370
    25
100
AcDbLine
 10
159.7060127767
 20
27.5061471073
 30
0.0
 11
159.7060127767
 21
27.4924375468
 31
0.0
  0
SPLINE
  5
32B
330
1F
100
AcDbEntity
  8
0
  6
SLD-Сплошная
 62
     7
370
    25
100
AcDbSpline
210
0.0
220
0.0
230
1.0
 70
     8
 71
     3
 72
     8
 73
     4
 74
     0
 42
0.00000001
 43
0.00000001
 40
0.0
 40
0.0
 40
0.0
 40
0.0
 40
1.0
 40
1.0
 40
1.0
 40
1.0
 10
155.5111276705983
 20
28.24150863752575
 30
0.0
 10
156.9097723222564
 20
27.92807234009203
 30
0.0
 10
158.3078049075682
 20
27.68235736327639
 30
0.0
 10
159.7060127767387
 20
27.50614710730416
 30
0.0
  0
SPLINE
  5
32C
330
1F
100
AcDbEntity
  8
0
  6
SLD-Сплошная
 62
     7
370
    25
100
AcDbSpline
210
0.0
220
0.0
230
1.0
 70
     8
 71
     3
 72
     8
 73
     4
 74
     0
 42
0.00000001
 43
0.00000001
 40
0.0
 40
0.0
 40
0.0
 40
0.0
 40
1.0
 40
1.0
 40
1.0
 40
1.0
 10
159.9258515164568
 20
27.50614710730445
 30
0.0
 10
161.3240593095814
 20
27.68235735369289
 30
0.0
 10
162.7220920645484
 20
27.92807236106989
 30
0.0
 10
164.1207366225981
 20
28.24150863752575
 30
0.0
  0
LINE
  5
32D
330
1F
100
AcDbEntity
  8
0
  6
SLD-Сплошная
 62
     7
370
    25
100
AcDbLine
 10
159.9258515165
 20
27.5061471073
 30
0.0
 11
159.9258515165
 21
27.4924375468
 31
0.0
  0
LINE
  5
32E
330
1F
100
AcDbEntity
  8
0
  6
SLD-Сплошная
 62
     7
370
    25
100
AcDbLine
 10
164.1207366226
 20
27.4924375468
 30
0.0
 11
159.9258515165
 21
27.4924375468
 31
0.0
  0
LINE
  5
32F
330
1F
100
AcDbEntity
  8
0
  6
SLD-Сплошная
 62
     7
370
    25
100
AcDbLine
 10
164.1207366226
 20
27.4924375468
 30
0.0
 11
164.1207366226
 21
27.2159774843
 31
0.0
  0
LINE
  5
330
330
1F
100
AcDbEntity
  8
0
  6
SLD-Сплошная
 62
     7
370
    25
100
AcDbLine
 10
155.5111276706
 20
27.2159774843
 30
0.0
 11
164.1207366226
 21
27.2159774843
 31
0.0
  0
LINE
  5
331
330
1F
100
AcDbEntity
  8
0
  6
SLD-Сплошная
 62
     7
370
    25
100
AcDbLine
 10
164.1207366226
 20
29.2134728413
 30
0.0
 11
164.1207366226
 21
28.2415086375
 31
0.0
  0
LINE
  5
332
330
1F
100
AcDbEntity
  8
0
  6
SLD-Сплошная
 62
     7
370
    25
100
AcDbLine
 10
155.5111276706
 20
29.2134728413
 30
0.0
 11
155.5111276706
 21
28.2415086375
 31
0.0
  0
LINE
  5
333
330
1F
100
AcDbEntity
  8
0
  6
SLD-Сплошная
 62
     7
370
    25
100
AcDbLine
 10
155.5111276706
 20
27.8969240215
 30
0.0
 11
155.5111276706
 21
27.4924375468
 31
0.0
  0
LINE
  5
334
330
1F
100
AcDbEntity
  8
0
  6
SLD-Сплошная
 62
     7
370
    25
100
AcDbLine
 10
164.1207366226
 20
27.8969240215
 30
0.0
 11
164.1207366226
 21
27.4924375468
 31
0.0
  0
LINE
  5
335
330
1F
100
AcDbEntity
  8
0
  6
SLD-Сплошная
 62
     7
370
    25
100
AcDbLine
 10
160.9899671466
 20
27.1840163866
 30
0.0
 11
158.6418971466
 21
27.1840163866
 31
0.0
  0
LINE
  5
336
330
1F
100
AcDbEntity
  8
0
  6
SLD-Сплошная
 62
     7
370
    25
100
AcDbLine
 10
160.9899671466
 20
27.1840163866
 30
0.0
 11
160.9899671466
 21
27.173019187
 31
0.0
  0
LINE
  5
337
330
1F
100
AcDbEntity
  8
0
  6
SLD-Сплошная
 62
     7
370
    25
100
AcDbLine
 10
161.7726666226
 20
27.1840163866
 30
0.0
 11
161.7726666226
 21
27.173019187
 31
0.0
  0
LINE
  5
338
330
1F
100
AcDbEntity
  8
0
  6
SLD-Сплошная
 62
     7
370
    25
100
AcDbLine
 10
164.1207366226
 20
27.1840163866
 30
0.0
 11
161.7726666226
 21
27.1840163866
 31
0.0
  0
LINE
  5
339
330
1F
100
AcDbEntity
  8
0
  6
SLD-Сплошная
 62
     7
370
    25
100
AcDbLine
 10
164.1207366226
 20
27.1840163866
 30
0.0
 11
164.1207366226
 21
27.173019187
 31
0.0
  0
LINE
  5
33A
330
1F
100
AcDbEntity
  8
0
  6
SLD-Сплошная
 62
     7
370
    25
100
AcDbLine
 10
158.6418971466
 20
27.1840163866
 30
0.0
 11
158.6418971466
 21
27.173019187
 31
0.0
  0
LINE
  5
33B
330
1F
100
AcDbEntity
  8
0
  6
SLD-Сплошная
 62
     7
370
    25
100
AcDbLine
 10
157.8591976706
 20
27.1840163866
 30
0.0
 11
155.5111276706
 21
27.1840163866
 31
0.0
  0
LINE
  5
33C
330
1F
100
AcDbEntity
  8
0
  6
SLD-Сплошная
 62
     7
370
    25
100
AcDbLine
 10
157.8591976706
 20
27.1840163866
 30
0.0
 11
157.8591976706
 21
27.173019187
 31
0.0
  0
LINE
  5
33D
330
1F
100
AcDbEntity
  8
0
  6
SLD-Сплошная
 62
     7
370
    25
100
AcDbLine
 10
155.5111276706
 20
27.1840163866
 30
0.0
 11
155.5111276706
 21
27.173019187
 31
0.0
  0
LINE
  5
33E
330
1F
100
AcDbEntity
  8
0
  6
SLD-Сплошная
 62
     7
370
    25
100
AcDbLine
 10
164.1207366226
 20
27.2159774843
 30
0.0
 11
164.1207366226
 21
27.1840163866
 31
0.0
  0
LINE
  5
33F
330
1F
100
AcDbEntity
  8
0
  6
SLD-Сплошная
 62
     7
370
    25
100
AcDbLine
 10
161.7726666226
 20
27.2159774843
 30
0.0
 11
161.7726666226
 21
27.1840163866
 31
0.0
  0
LINE
  5
340
330
1F
100
AcDbEntity
  8
0
  6
SLD-Сплошная
 62
     7
370
    25
100
AcDbLine
 10
157.8591976706
 20
27.2159774843
 30
0.0
 11
157.8591976706
 21
27.1840163866
 31
0.0
  0
LINE
  5
341
330
1F
100
AcDbEntity
  8
0
  6
SLD-Сплошная
 62
     7
370
    25
100
AcDbLine
 10
155.5111276706
 20
27.2159774843
 30
0.0
 11
155.5111276706
 21
27.1840163866
 31
0.0
  0
LINE
  5
342
330
1F
100
AcDbEntity
  8
0
  6
SLD-Сплошная
 62
     7
370
    25
100
AcDbLine
 10
160.9899671466
 20
27.2159774843
 30
0.0
 11
160.9899671466
 21
27.1840163866
 31
0.0
  0
LINE
  5
343
330
1F
100
AcDbEntity
  8
0
  6
SLD-Сплошная
 62
     7
370
    25
100
AcDbLine
 10
158.6418971466
 20
27.2159774843
 30
0.0
 11
158.6418971466
 21
27.1840163866
 31
0.0
  0
LINE
  5
344
330
1F
100
AcDbEntity
  8
0
  6
SLD-Сплошная
 62
     7
370
    25
100
AcDbLine
 10
559.1905254828
 20
113.1995134782
 30
0.0
 11
559.746754519
 21
115.670852807
 31
0.0
  0
ARC
  5
345
330
1F
100
AcDbEntity
  8
0
  6
SLD-Сплошная
 62
     7
370
    25
100
AcDbCircle
 10
413.1346472427
 20
147.370852807
 30
0.0
 40
150.0
100
AcDbArc
 50
352.5230725857
 51
7.5131691844
  0
LINE
  5
346
330
1F
100
AcDbEntity
  8
0
  6
SLD-Сплошная
 62
     7
370
    25
100
AcDbLine
 10
561.3189264955
 20
183.7564867094
 30
0.0
 11
549.5600522166
 21
190.3447590979
 31
0.0
  0
LINE
  5
347
330
1F
100
AcDbEntity
  8
0
  6
SLD-Сплошная
 62
     7
370
    25
100
AcDbLine
 10
559.561648113
 20
115.670852807
 30
0.0
 11
561.5512907484
 21
115.670852807
 31
0.0
  0
ARC
  5
348
330
1F
100
AcDbEntity
  8
0
  6
SLD-Сплошная
 62
     7
370
    25
100
AcDbCircle
 10
559.1346472427
 20
179.8579434177
 30
0.0
 40
4.468748779201633
100
AcDbArc
 50
0.0
 51
60.7389240326
  0
LINE
  5
349
330
1F
100
AcDbEntity
  8
0
  6
SLD-Сплошная
 62
     7
370
    25
100
AcDbLine
 10
563.6033960219
 20
169.370852807
 30
0.0
 11
563.6033960219
 21
179.8579434177
 31
0.0
  0
ARC
  5
34A
330
1F
100
AcDbEntity
  8
0
  6
SLD-Сплошная
 62
     7
370
    25
100
AcDbCircle
 10
561.5512907484
 20
118.170852807
 30
0.0
 40
2.5
100
AcDbArc
 50
270.0
 51
0.0
  0
ARC
  5
34B
330
1F
100
AcDbEntity
  8
0
  6
SLD-Сплошная
 62
     7
370
    25
100
AcDbCircle
 10
561.5512907484
 20
125.370852807
 30
0.0
 40
2.5
100
AcDbArc
 50
0.0
 51
87.2293165714
  0
LINE
  5
34C
330
1F
100
AcDbEntity
  8
0
  6
SLD-Сплошная
 62
     7
370
    25
100
AcDbLine
 10
564.0512907484
 20
118.170852807
 30
0.0
 11
564.0512907484
 21
125.370852807
 31
0.0
  0
ARC
  5
34D
330
1F
100
AcDbEntity
  8
0
  6
SLD-Сплошная
 62
     7
370
    25
100
AcDbCircle
 10
561.1033960219
 20
169.370852807
 30
0.0
 40
2.500000000000613
100
AcDbArc
 50
282.9616920799
 51
0.0
  0
LINE
  5
34E
330
1F
100
AcDbEntity
  8
0
  6
SLD-Сплошная
 62
     7
370
    25
100
AcDbLine
 10
556.1346472427
 20
113.170852807
 30
0.0
 11
559.1876875174
 21
113.170852807
 31
0.0
  0
LINE
  5
34F
330
1F
100
AcDbEntity
  8
0
  6
SLD-Сплошная
 62
     7
370
    25
100
AcDbLine
 10
553.1346472427
 20
114.8154282854
 30
0.0
 11
556.1346472427
 21
114.8154282854
 31
0.0
  0
LINE
  5
350
330
1F
100
AcDbEntity
  8
0
  6
SLD-Сплошная
 62
     7
370
    25
100
AcDbLine
 10
519.2422733154
 20
176.570852807
 30
0.0
 11
510.6346472427
 21
176.570852807
 31
0.0
  0
LINE
  5
351
330
1F
100
AcDbEntity
  8
0
  6
SLD-Сплошная
 62
     7
370
    25
100
AcDbLine
 10
553.1346472427
 20
176.570852807
 30
0.0
 11
545.6346472427
 21
176.570852807
 31
0.0
  0
SPLINE
  5
352
330
1F
100
AcDbEntity
  8
0
  6
SLD-Сплошная
 62
     7
370
    25
100
AcDbSpline
210
0.0
220
0.0
230
1.0
 70
     8
 71
     3
 72
    10
 73
     6
 74
     0
 42
0.00000001
 43
0.00000001
 40
0.0
 40
0.0
 40
0.0
 40
0.0
 40
0.1675045259836575
 40
0.5869233941471266
 40
1.0
 40
1.0
 40
1.0
 40
1.0
 10
448.5819589716764
 20
140.5841987595313
 30
0.0
 10
448.5286199177515
 20
140.4004667619373
 30
0.0
 10
448.3417238420402
 20
139.75668351484
 30
0.0
 10
448.2213450858389
 20
138.6366452409948
 30
0.0
 10
448.1813039218662
 20
137.7539924441718
 30
0.0
 10
448.1614358641716
 20
137.3160282355507
 30
0.0
  0
ARC
  5
353
330
1F
100
AcDbEntity
  8
0
  6
SLD-Сплошная
 62
     7
370
    25
100
AcDbCircle
 10
499.6349360143
 20
371.0087898822
 30
0.0
 40
250.0000000000001
100
AcDbArc
 50
264.6975582436
 51
267.936839921
  0
ARC
  5
354
330
1F
100
AcDbEntity
  8
0
  6
SLD-Сплошная
 62
     7
370
    25
100
AcDbCircle
 10
499.6349360143
 20
371.0087898822
 30
0.0
 40
250.0000000000001
100
AcDbArc
 50
259.2286059646
 51
263.3217318005
  0
LINE
  5
355
330
1F
100
AcDbEntity
  8
0
  6
SLD-Сплошная
 62
     7
370
    25
100
AcDbLine
 10
498.6363134467
 20
121.170852807
 30
0.0
 11
510.6346472427
 21
121.170852807
 31
0.0
  0
LINE
  5
356
330
1F
100
AcDbEntity
  8
0
  6
SLD-Сплошная
 62
     7
370
    25
100
AcDbLine
 10
510.6346472427
 20
173.570852807
 30
0.0
 11
490.6346472427
 21
173.570852807
 31
0.0
  0
ARC
  5
357
330
1F
100
AcDbEntity
  8
0
  6
SLD-Сплошная
 62
     7
370
    25
100
AcDbCircle
 10
499.6349360143
 20
-76.2670842683
 30
0.0
 40
250.0000000000001
100
AcDbArc
 50
92.063160079
 51
101.8881119889
  0
LINE
  5
358
330
1F
100
AcDbEntity
  8
0
  6
SLD-Сплошная
 62
     7
370
    25
100
AcDbLine
 10
440.5852025927
 20
172.7710181107
 30
0.0
 11
438.5852025927
 21
172.7710181107
 31
0.0
  0
LINE
  5
359
330
1F
100
AcDbEntity
  8
0
  6
SLD-Сплошная
 62
     7
370
    25
100
AcDbLine
 10
438.5852025927
 20
121.9699136984
 30
0.0
 11
440.5852025927
 21
121.9699136984
 31
0.0
  0
ARC
  5
35A
330
1F
100
AcDbEntity
  8
0
  6
SLD-Сплошная
 62
     7
370
    25
100
AcDbCircle
 10
450.6193288717
 20
126.370852807
 30
0.0
 40
2.484681628997071
100
AcDbArc
 50
180.0
 51
337.3404939757
  0
LINE
  5
35B
330
1F
100
AcDbEntity
  8
0
  6
SLD-Сплошная
 62
     7
370
    25
100
AcDbLine
 10
490.6346472427
 20
121.170852807
 30
0.0
 11
492.6329810387
 21
121.170852807
 31
0.0
  0
LINE
  5
35C
330
1F
100
AcDbEntity
  8
0
  6
SLD-Сплошная
 62
     7
370
    25
100
AcDbLine
 10
448.1346472427
 20
158.370852807
 30
0.0
 11
440.5852025927
 21
158.370852807
 31
0.0
  0
LINE
  5
35D
330
1F
100
AcDbEntity
  8
0
  6
SLD-Сплошная
 62
     7
370
    25
100
AcDbLine
 10
440.5852025927
 20
136.370852807
 30
0.0
 11
448.1346472427
 21
136.370852807
 31
0.0
  0
LINE
  5
35E
330
1F
100
AcDbEntity
  8
0
  6
SLD-Сплошная
 62
     7
370
    25
100
AcDbLine
 10
510.6346472427
 20
114.945852807
 30
0.0
 11
553.1346472427
 21
114.945852807
 31
0.0
  0
LINE
  5
35F
330
1F
100
AcDbEntity
  8
0
  6
SLD-Сплошная
 62
     7
370
    25
100
AcDbLine
 10
408.0870846968
 20
160.7390255736
 30
0.0
 11
408.0168626451
 21
158.9303470787
 31
0.0
  0
LINE
  5
360
330
1F
100
AcDbEntity
  8
0
  6
SLD-Сплошная
 62
     7
370
    25
100
AcDbLine
 10
408.0168626451
 20
135.8105847304
 30
0.0
 11
408.0870846968
 21
134.0019062355
 31
0.0
  0
ARC
  5
361
330
1F
100
AcDbEntity
  8
0
  6
SLD-Сплошная
 62
     7
370
    25
100
AcDbCircle
 10
410.5852025927
 20
160.6420359956
 30
0.0
 40
2.50000000000002
100
AcDbArc
 50
117.7766046258
 51
177.7766046258
  0
ARC
  5
362
330
1F
100
AcDbEntity
  8
0
  6
SLD-Сплошная
 62
     7
370
    25
100
AcDbCircle
 10
417.5755836494
 20
147.3704659046
 30
0.0
 40
17.5
100
AcDbArc
 50
90.0
 51
117.7766046258
  0
LINE
  5
363
330
1F
100
AcDbEntity
  8
0
  6
SLD-Сплошная
 62
     7
370
    25
100
AcDbLine
 10
429.5852025927
 20
164.8704659046
 30
0.0
 11
417.5755836494
 21
164.8704659046
 31
0.0
  0
ARC
  5
364
330
1F
100
AcDbEntity
  8
0
  6
SLD-Сплошная
 62
     7
370
    25
100
AcDbCircle
 10
410.5852025927
 20
134.0988958135
 30
0.0
 40
2.50000000000004
100
AcDbArc
 50
182.2233953742
 51
242.2233953742
  0
ARC
  5
365
330
1F
100
AcDbEntity
  8
0
  6
SLD-Сплошная
 62
     7
370
    25
100
AcDbCircle
 10
417.5755836494
 20
147.3704659046
 30
0.0
 40
17.5
100
AcDbArc
 50
242.2233953742
 51
270.0
  0
LINE
  5
366
330
1F
100
AcDbEntity
  8
0
  6
SLD-Сплошная
 62
     7
370
    25
100
AcDbLine
 10
417.5755836494
 20
129.8704659046
 30
0.0
 11
429.5852025927
 21
129.8704659046
 31
0.0
  0
LINE
  5
367
330
1F
100
AcDbEntity
  8
0
  6
SLD-Сплошная
 62
     7
370
    25
100
AcDbLine
 10
553.1346472427
 20
174.8051379261
 30
0.0
 11
560.2650655796
 21
174.8051379261
 31
0.0
  0
LINE
  5
368
330
1F
100
AcDbEntity
  8
0
  6
SLD-Сплошная
 62
     7
370
    25
100
AcDbLine
 10
560.2650655796
 20
174.8051379261
 30
0.0
 11
560.2650655796
 21
119.9365676878
 31
0.0
  0
LINE
  5
369
330
1F
100
AcDbEntity
  8
0
  6
SLD-Сплошная
 62
     7
370
    25
100
AcDbLine
 10
556.1346472427
 20
119.9365676878
 30
0.0
 11
560.2650655796
 21
119.9365676878
 31
0.0
  0
LINE
  5
36A
330
1F
100
AcDbEntity
  8
0
  6
SLD-Сплошная
 62
     7
370
    25
100
AcDbLine
 10
556.1346472427
 20
118.869668621
 30
0.0
 11
553.1346472427
 21
118.869668621
 31
0.0
  0
LINE
  5
36B
330
1F
100
AcDbEntity
  8
0
  6
SLD-Сплошная
 62
     7
370
    25
100
AcDbLine
 10
553.1346472427
 20
174.8051379261
 30
0.0
 11
553.1346472427
 21
118.869668621
 31
0.0
  0
SPLINE
  5
36C
330
1F
100
AcDbEntity
  8
0
  6
SLD-Сплошная
 62
     7
370
    25
100
AcDbSpline
210
0.0
220
0.0
230
1.0
 70
     8
 71
     3
 72
    11
 73
     7
 74
     0
 42
0.00000001
 43
0.00000001
 40
0.0
 40
0.0
 40
0.0
 40
0.0
 40
0.2569956992250265
 40
0.5214113544424879
 40
0.7784308628031228
 40
1.0
 40
1.0
 40
1.0
 40
1.0
 10
559.5776737069234
 20
116.1708528069523
 30
0.0
 10
559.5167808672974
 20
115.7065997237166
 30
0.0
 10
559.3932370956273
 20
114.7646896852842
 30
0.0
 10
559.2703853290095
 20
113.8294933157662
 30
0.0
 10
559.1948849713121
 20
113.2550298863077
 30
0.0
 10
559.1899766280773
 20
113.217703939335
 30
0.0
 10
559.18770424367
 20
113.2004233833866
 30
0.0
  0
SPLINE
  5
36D
330
1F
100
AcDbEntity
  8
0
  6
SLD-Сплошная
 62
     7
370
    25
100
AcDbSpline
210
0.0
220
0.0
230
1.0
 70
     8
 71
     3
 72
    10
 73
     6
 74
     0
 42
0.00000001
 43
0.00000001
 40
0.0
 40
0.0
 40
0.0
 40
0.0
 40
0.2214867865618049
 40
0.7369179574935334
 40
1.0
 40
1.0
 40
1.0
 40
1.0
 10
559.561648112975
 20
115.7054520717444
 30
0.0
 10
559.553949078463
 20
115.6972520163111
 30
0.0
 10
559.5283332985089
 20
115.6699692686807
 30
0.0
 10
559.5401761119379
 20
115.8642792677491
 30
0.0
 10
559.5682027115232
 20
116.0934196654209
 30
0.0
 10
559.5776737069234
 20
116.1708528069523
 30
0.0
  0
ARC
  5
36E
330
1F
100
AcDbEntity
  8
0
  6
SLD-Сплошная
 62
     7
370
    25
100
AcDbCircle
 10
562.2822014768
 20
127.4637847035
 30
0.0
 40
0.7317866621258745
100
AcDbArc
 50
146.4769478582
 51
177.1963465717
  0
SPLINE
  5
36F
330
1F
100
AcDbEntity
  8
0
  6
SLD-Сплошная
 62
     7
370
    25
100
AcDbSpline
210
0.0
220
0.0
230
1.0
 70
     8
 71
     3
 72
    14
 73
    10
 74
     0
 42
0.00000001
 43
0.00000001
 40
0.0
 40
0.0
 40
0.0
 40
0.0
 40
0.25
 40
0.25
 40
0.5
 40
0.5
 40
0.75
 40
0.75
 40
1.0
 40
1.0
 40
1.0
 40
1.0
 10
561.5512907483537
 20
127.4995789195828
 30
0.0
 10
561.5256607624159
 20
127.3882841745716
 30
0.0
 10
561.4969045387297
 20
127.2518388801893
 30
0.0
 10
561.4367424775495
 20
126.9459489161193
 30
0.0
 10
561.4047183128521
 20
126.773527187913
 30
0.0
 10
561.339108019407
 20
126.4020165855306
 30
0.0
 10
561.3060616586428
 20
126.2062015126122
 30
0.0
 10
561.2394849558043
 20
125.7944254999822
 30
0.0
 10
561.2065967745498
 20
125.5822448816784
 30
0.0
 10
561.1751822322807
 20
125.3708528069523
 30
0.0
  0
ARC
  5
370
330
1F
100
AcDbEntity
  8
0
  6
SLD-Сплошная
 62
     7
370
    25
100
AcDbCircle
 10
413.1346472427
 20
147.370852807
 30
0.0
 40
149.6662954709578
100
AcDbArc
 50
349.4377887228
 51
351.547253945
  0
ARC
  5
371
330
1F
100
AcDbEntity
  8
0
  6
SLD-Сплошная
 62
     7
370
    25
100
AcDbCircle
 10
413.1346472427
 20
147.370852807
 30
0.0
 40
149.6662954709577
100
AcDbArc
 50
8.6376943954
 51
10.5622112772
  0
ARC
  5
372
330
1F
100
AcDbEntity
  8
0
  6
SLD-Сплошная
 62
     7
370
    25
100
AcDbCircle
 10
413.1346472427
 20
147.370852807
 30
0.0
 40
149.6662954709589
100
AcDbArc
 50
8.452746055
 51
8.6376943954
  0
LINE
  5
373
330
1F
100
AcDbEntity
  8
0
  6
SLD-Сплошная
 62
     7
370
    25
100
AcDbLine
 10
561.175251998
 20
169.370852807
 30
0.0
 11
561.1751822323
 21
169.370852807
 31
0.0
  0
ARC
  5
374
330
1F
100
AcDbEntity
  8
0
  6
SLD-Сплошная
 62
     7
370
    25
100
AcDbCircle
 10
571.2503277637
 20
170.1254166187
 30
0.0
 40
10.10329244503993
100
AcDbArc
 50
184.2831200493
 51
198.4105782387
  0
ARC
  5
375
330
1F
100
AcDbEntity
  8
0
  6
SLD-Сплошная
 62
     7
370
    25
100
AcDbCircle
 10
550.6370047869
 20
177.070852807
 30
0.0
 40
1.0
100
AcDbArc
 50
57.9743557051
 51
90.0
  0
LINE
  5
376
330
1F
100
AcDbEntity
  8
0
  6
SLD-Сплошная
 62
     7
370
    25
100
AcDbLine
 10
550.6370047869
 20
178.070852807
 30
0.0
 11
545.6346472427
 21
178.070852807
 31
0.0
  0
LINE
  5
377
330
1F
100
AcDbEntity
  8
0
  6
SLD-Сплошная
 62
     7
370
    25
100
AcDbLine
 10
544.4453802104
 20
190.3447590979
 30
0.0
 11
539.3905964523
 21
190.3447590979
 31
0.0
  0
LINE
  5
378
330
1F
100
AcDbEntity
  8
0
  6
SLD-Сплошная
 62
     7
370
    25
100
AcDbLine
 10
553.1346472427
 20
176.6881061718
 30
0.0
 11
551.1673035652
 21
177.9186636383
 31
0.0
  0
ARC
  5
379
330
1F
100
AcDbEntity
  8
0
  6
SLD-Сплошная
 62
     7
370
    25
100
AcDbCircle
 10
540.6346472427
 20
184.270852807
 30
0.0
 40
6.200000000000085
100
AcDbArc
 50
101.5751679464
 51
158.7493208829
  0
LINE
  5
37A
330
1F
100
AcDbEntity
  8
0
  6
SLD-Сплошная
 62
     7
370
    25
100
AcDbLine
 10
553.1346472427
 20
174.8051379261
 30
0.0
 11
553.1346472427
 21
176.6881061718
 31
0.0
  0
LINE
  5
37B
330
1F
100
AcDbEntity
  8
0
  6
SLD-Сплошная
 62
     7
370
    25
100
AcDbLine
 10
549.5600522166
 20
190.3447590979
 30
0.0
 11
544.4453802104
 21
190.3447590979
 31
0.0
  0
LINE
  5
37C
330
1F
100
AcDbEntity
  8
0
  6
SLD-Сплошная
 62
     7
370
    25
100
AcDbLine
 10
556.1346472427
 20
116.170852807
 30
0.0
 11
556.1346472427
 21
118.170852807
 31
0.0
  0
LINE
  5
37D
330
1F
100
AcDbEntity
  8
0
  6
SLD-Сплошная
 62
     7
370
    25
100
AcDbLine
 10
556.1346472427
 20
118.170852807
 30
0.0
 11
556.1346472427
 21
119.9365676878
 31
0.0
  0
LINE
  5
37E
330
1F
100
AcDbEntity
  8
0
  6
SLD-Сплошная
 62
     7
370
    25
100
AcDbLine
 10
556.1346472427
 20
113.170852807
 30
0.0
 11
556.1346472427
 21
116.170852807
 31
0.0
  0
LINE
  5
37F
330
1F
100
AcDbEntity
  8
0
  6
SLD-Сплошная
 62
     7
370
    25
100
AcDbLine
 10
553.1346472427
 20
118.869668621
 30
0.0
 11
553.1346472427
 21
114.8154282854
 31
0.0
  0
ARC
  5
380
330
1F
100
AcDbEntity
  8
0
  6
SLD-Сплошная
 62
     7
370
    25
100
AcDbCircle
 10
557.6346472427
 20
204.320852807
 30
0.0
 40
20.00000000000014
100
AcDbArc
 50
199.5207959303
 51
224.3311822436
  0
LINE
  5
381
330
1F
100
AcDbEntity
  8
0
  6
SLD-Сплошная
 62
     7
370
    25
100
AcDbLine
 10
537.6905964523
 20
196.2998462124
 30
0.0
 11
538.7842418164
 21
197.6378732871
 31
0.0
  0
LINE
  5
382
330
1F
100
AcDbEntity
  8
0
  6
SLD-Сплошная
 62
     7
370
    25
100
AcDbLine
 10
537.6905964523
 20
196.2998462124
 30
0.0
 11
539.3905964523
 21
190.3447590979
 31
0.0
  0
SPLINE
  5
383
330
1F
100
AcDbEntity
  8
0
  6
SLD-Сплошная
 62
     7
370
    25
100
AcDbSpline
210
0.0
220
0.0
230
1.0
 70
     8
 71
     3
 72
     8
 73
     4
 74
     0
 42
0.00000001
 43
0.00000001
 40
0.0
 40
0.0
 40
0.0
 40
0.0
 40
1.0
 40
1.0
 40
1.0
 40
1.0
 10
498.9756974254194
 20
150.0762725106657
 30
0.0
 10
502.8632577591079
 20
151.128188842979
 30
0.0
 10
506.7501686089765
 20
152.1754833259065
 30
0.0
 10
510.6346472427043
 20
153.2173698313976
 30
0.0
  0
SPLINE
  5
384
330
1F
100
AcDbEntity
  8
0
  6
SLD-Сплошная
 62
     7
370
    25
100
AcDbSpline
210
0.0
220
0.0
230
1.0
 70
     8
 71
     3
 72
     8
 73
     4
 74
     0
 42
0.00000001
 43
0.00000001
 40
0.0
 40
0.0
 40
0.0
 40
0.0
 40
1.0
 40
1.0
 40
1.0
 40
1.0
 10
510.6346472427043
 20
148.1564046773345
 30
0.0
 10
507.1754177011465
 20
147.2026177686943
 30
0.0
 10
503.7135175231468
 20
146.257409007881
 30
0.0
 10
500.2516138994635
 20
145.3158609618442
 30
0.0
  0
SPLINE
  5
385
330
1F
100
AcDbEntity
  8
0
  6
SLD-Сплошная
 62
     7
370
    25
100
AcDbSpline
210
0.0
220
0.0
230
1.0
 70
     8
 71
     3
 72
    14
 73
    10
 74
     0
 42
0.00000001
 43
0.00000001
 40
0.0
 40
0.0
 40
0.0
 40
0.0
 40
0.25
 40
0.25
 40
0.5
 40
0.5
 40
0.75
 40
0.75
 40
1.0
 40
1.0
 40
1.0
 40
1.0
 10
500.2516138994635
 20
145.3158609618442
 30
0.0
 10
499.6613874222412
 20
145.1553346599143
 30
0.0
 10
499.0657035434664
 20
145.0214658407579
 30
0.0
 10
497.8617520708323
 20
144.8149203341596
 30
0.0
 10
497.2534779667517
 20
144.7420906761911
 30
0.0
 10
496.0354603150184
 20
144.6487277699959
 30
0.0
 10
495.4232859040088
 20
144.6275920740367
 30
0.0
 10
494.2015346780406
 20
144.6448302057981
 30
0.0
 10
493.5920788751103
 20
144.6847881537843
 30
0.0
 10
492.9836217485521
 20
144.7468215160263
 30
0.0
  0
SPLINE
  5
386
330
1F
100
AcDbEntity
  8
0
  6
SLD-Сплошная
 62
     7
370
    25
100
AcDbSpline
210
0.0
220
0.0
230
1.0
 70
     8
 71
     3
 72
    14
 73
    10
 74
     0
 42
0.00000001
 43
0.00000001
 40
0.0
 40
0.0
 40
0.0
 40
0.0
 40
0.25
 40
0.25
 40
0.5
 40
0.5
 40
0.75
 40
0.75
 40
1.0
 40
1.0
 40
1.0
 40
1.0
 10
493.4769743202389
 20
149.649612366239
 30
0.0
 10
493.9375263468712
 20
149.6027272111139
 30
0.0
 10
494.3983084428546
 20
149.5703983754686
 30
0.0
 10
495.3207165611591
 20
149.5591907751824
 30
0.0
 10
495.7824233519996
 20
149.5761119335773
 30
0.0
 10
496.7057734317767
 20
149.6441144627373
 30
0.0
 10
497.1654562512694
 20
149.6960071680147
 30
0.0
 10
498.0782589497031
 20
149.8519565824493
 30
0.0
 10
498.5289459305023
 20
149.9553881632471
 30
0.0
 10
498.9756974254194
 20
150.0762725106657
 30
0.0
  0
SPLINE
  5
387
330
1F
100
AcDbEntity
  8
0
  6
SLD-Сплошная
 62
     7
370
    25
100
AcDbSpline
210
0.0
220
0.0
230
1.0
 70
     8
 71
     3
 72
     8
 73
     4
 74
     0
 42
0.00000001
 43
0.00000001
 40
0.0
 40
0.0
 40
0.0
 40
0.0
 40
1.0
 40
1.0
 40
1.0
 40
1.0
 10
465.3463569772605
 20
152.5016514827196
 30
0.0
 10
473.7166060407828
 20
151.6558888780194
 30
0.0
 10
482.1634505446585
 20
150.7989050291962
 30
0.0
 10
490.6346472427042
 20
149.9377904496914
 30
0.0
  0
LINE
  5
388
330
1F
100
AcDbEntity
  8
0
  6
SLD-Сплошная
 62
     7
370
    25
100
AcDbLine
 10
490.6346472427
 20
149.9377904497
 30
0.0
 11
490.8567307381
 21
149.9162601542
 31
0.0
  0
SPLINE
  5
389
330
1F
100
AcDbEntity
  8
0
  6
SLD-Сплошная
 62
     7
370
    25
100
AcDbSpline
210
0.0
220
0.0
230
1.0
 70
     8
 71
     3
 72
     8
 73
     4
 74
     0
 42
0.00000001
 43
0.00000001
 40
0.0
 40
0.0
 40
0.0
 40
0.0
 40
1.0
 40
1.0
 40
1.0
 40
1.0
 10
490.3631493570988
 20
145.0127895053526
 30
0.0
 10
481.8036333085092
 20
145.8846778861432
 30
0.0
 10
473.2614006082217
 20
146.7582370796899
 30
0.0
 10
464.7838218727908
 20
147.6337803261334
 30
0.0
  0
SPLINE
  5
38A
330
1F
100
AcDbEntity
  8
0
  6
SLD-Сплошная
 62
     7
370
    25
100
AcDbSpline
210
0.0
220
0.0
230
1.0
 70
     8
 71
     3
 72
    14
 73
    10
 74
     0
 42
0.00000001
 43
0.00000001
 40
0.0
 40
0.0
 40
0.0
 40
0.0
 40
0.0013169456970121
 40
0.0013169456970121
 40
0.0013169456970121
 40
0.0019754186899862
 40
0.0019754186899862
 40
0.0019754186899862
 40
0.0026338917274289
 40
0.0026338917274289
 40
0.0026338917274289
 40
0.0026338917274289
 10
493.4769743202389
 20
149.649612366239
 30
0.0
 10
493.0402666939123
 20
149.6940701117717
 30
0.0
 10
492.6035592664829
 20
149.7385200244471
 30
0.0
 10
492.1668520486359
 20
149.7829613348275
 30
0.0
 10
491.9484983862793
 20
149.8051819954554
 30
0.0
 10
491.7301447731458
 20
149.827400529034
 30
0.0
 10
491.5117912242295
 20
149.8496169723898
 30
0.0
 10
491.2934376605676
 20
149.8718334172459
 30
0.0
 10
491.0750841575384
 20
149.8940477732567
 30
0.0
 10
490.8567307380574
 20
149.9162601542159
 30
0.0
  0
SPLINE
  5
38B
330
1F
100
AcDbEntity
  8
0
  6
SLD-Сплошная
 62
     7
370
    25
100
AcDbSpline
210
0.0
220
0.0
230
1.0
 70
     8
 71
     3
 72
    11
 73
     7
 74
     0
 42
0.00000001
 43
0.00000001
 40
0.0
 40
0.0
 40
0.0
 40
0.0
 40
0.001180637684977
 40
0.001180637684977
 40
0.001180637684977
 40
0.0023612756289565
 40
0.0023612756289565
 40
0.0023612756289565
 40
0.0023612756289565
 10
490.6346472427042
 20
144.986428932158
 30
0.0
 10
491.0261425764147
 20
144.9464734307008
 30
0.0
 10
491.4176381192152
 20
144.9065282431803
 30
0.0
 10
491.8091338418711
 20
144.8665937156482
 30
0.0
 10
492.2006296504154
 20
144.826659179355
 30
0.0
 10
492.592125658929
 20
144.7867352875707
 30
0.0
 10
492.9836217485521
 20
144.7468215160264
 30
0.0
  0
SPLINE
  5
38C
330
1F
100
AcDbEntity
  8
0
  6
SLD-Сплошная
 62
     7
370
    25
100
AcDbSpline
210
0.0
220
0.0
230
1.0
 70
     8
 71
     3
 72
     8
 73
     4
 74
     0
 42
0.00000001
 43
0.00000001
 40
0.0000000000000001
 40
0.0000000000000001
 40
0.0000000000000001
 40
0.0000000000000001
 40
0.0002728797068755
 40
0.0002728797068755
 40
0.0002728797068755
 40
0.0002728797068755
 10
490.3631493570988
 20
145.0127895053526
 30
0.0
 10
490.4536474260802
 20
145.0040056527105
 30
0.0
 10
490.5441467665401
 20
144.9952189355442
 30
0.0
 10
490.6346472427042
 20
144.986428932158
 30
0.0
  0
LINE
  5
38D
330
1F
100
AcDbEntity
  8
0
  6
SLD-Сплошная
 62
     7
370
    25
100
AcDbLine
 10
510.6346472427
 20
118.8542230134
 30
0.0
 11
510.6346472427
 21
176.570852807
 31
0.0
  0
LINE
  5
38E
330
1F
100
AcDbEntity
  8
0
  6
SLD-Сплошная
 62
     7
370
    25
100
AcDbLine
 10
553.1346472427
 20
118.8542230134
 30
0.0
 11
553.1346472427
 21
174.8051379261
 31
0.0
  0
LINE
  5
38F
330
1F
100
AcDbEntity
  8
0
  6
SLD-Сплошная
 62
     7
370
    25
100
AcDbLine
 10
553.1346472427
 20
118.8542230134
 30
0.0
 11
510.6346472427
 21
118.8542230134
 31
0.0
  0
LINE
  5
390
330
1F
100
AcDbEntity
  8
0
  6
SLD-Сплошная
 62
     7
370
    25
100
AcDbLine
 10
545.6346472427
 20
172.8296430374
 30
0.0
 11
513.3697502992
 21
172.8296430374
 31
0.0
  0
SPLINE
  5
391
330
1F
100
AcDbEntity
  8
0
  6
SLD-Сплошная
 62
     7
370
    25
100
AcDbSpline
210
0.0
220
0.0
230
1.0
 70
     8
 71
     3
 72
    32
 73
    28
 74
     0
 42
0.00000001
 43
0.00000001
 40
0.0
 40
0.0
 40
0.0
 40
0.0
 40
0.0625000000000001
 40
0.0625000000000001
 40
0.1250000000000001
 40
0.1250000000000001
 40
0.1875000000000002
 40
0.1875000000000002
 40
0.2500000000000002
 40
0.2500000000000002
 40
0.3750000000000002
 40
0.3750000000000002
 40
0.4375000000000002
 40
0.4375000000000002
 40
0.5000000000000002
 40
0.5000000000000002
 40
0.5625000000000001
 40
0.5625000000000001
 40
0.6250000000000001
 40
0.6250000000000001
 40
0.7500000000000007
 40
0.7500000000000007
 40
0.8125000000000004
 40
0.8125000000000004
 40
0.8750000000000003
 40
0.8750000000000003
 40
1.0
 40
1.0
 40
1.0
 40
1.0
 10
464.7838218727908
 20
147.6337803261334
 30
0.0
 10
464.3984397511672
 20
147.6735816331364
 30
0.0
 10
464.0151074692666
 20
147.685892841424
 30
0.0
 10
463.2510960236454
 20
147.6757540904635
 30
0.0
 10
462.8704571373437
 20
147.6527497559911
 30
0.0
 10
462.1120071916482
 20
147.570087805258
 30
0.0
 10
461.7342991193543
 20
147.5089246184245
 30
0.0
 10
460.9823202247773
 20
147.3431263362075
 30
0.0
 10
460.609895512785
 20
147.2388068402789
 30
0.0
 10
459.5250689621324
 20
146.8681451694233
 30
0.0
 10
458.8344281555379
 20
146.5474998625766
 30
0.0
 10
457.8459044830616
 20
145.9645892961803
 30
0.0
 10
457.5239501812306
 20
145.7519126778847
 30
0.0
 10
456.9124757660757
 20
145.2995278908118
 30
0.0
 10
456.6212143291751
 20
145.0586773985903
 30
0.0
 10
456.0689437405179
 20
144.5470863774426
 30
0.0
 10
455.8077411199453
 20
144.2765616579153
 30
0.0
 10
455.3136611005695
 20
143.7086750727061
 30
0.0
 10
455.0793876283644
 20
143.4095274094699
 30
0.0
 10
454.4323106697302
 20
142.4880550316994
 30
0.0
 10
454.0746180057861
 20
141.8428914253448
 30
0.0
 10
453.6469700381591
 20
140.8344696551879
 30
0.0
 10
453.5216271997779
 20
140.4904260804759
 30
0.0
 10
453.3055219457453
 20
139.7982799874929
 30
0.0
 10
453.2150321381254
 20
139.4522895457294
 30
0.0
 10
452.9936398488805
 20
138.4155848317601
 30
0.0
 10
452.912219414978
 20
137.7262079049264
 30
0.0
 10
452.912219414978
 20
137.0367662529665
 30
0.0
  0
LINE
  5
392
330
1F
100
AcDbEntity
  8
0
  6
SLD-Сплошная
 62
     7
370
    25
100
AcDbLine
 10
448.1613826899
 20
137.3161973677
 30
0.0
 11
448.1346472427
 21
137.4872844254
 31
0.0
  0
SPLINE
  5
393
330
1F
100
AcDbEntity
  8
0
  6
SLD-Сплошная
 62
     7
370
    25
100
AcDbSpline
210
0.0
220
0.0
230
1.0
 70
     8
 71
     3
 72
    17
 73
    13
 74
     0
 42
0.00000001
 43
0.00000001
 40
0.0
 40
0.0
 40
0.0
 40
0.0
 40
0.053179884486898
 40
0.1557333603199005
 40
0.2611545420925869
 40
0.366666656994955
 40
0.4749856930601548
 40
0.5852180898767299
 40
0.6982068756610266
 40
0.816193066401814
 40
0.9377322037573216
 40
1.0
 40
1.0
 40
1.0
 40
1.0
 10
448.5762918854597
 20
140.6602151171664
 30
0.0
 10
448.6535580409087
 20
141.0281047223885
 30
0.0
 10
448.879826265129
 20
142.1054422345094
 30
0.0
 10
449.6352121093611
 20
143.8822441477307
 30
0.0
 10
450.8105992543252
 20
145.8964629818686
 30
0.0
 10
452.3274564988994
 20
147.7672469576466
 30
0.0
 10
454.157380665617
 20
149.402490273254
 30
0.0
 10
456.2776751448105
 20
150.7520730858998
 30
0.0
 10
458.6455538635665
 20
151.7955442986613
 30
0.0
 10
461.2344404149982
 20
152.4393601372666
 30
0.0
 10
463.5078217235051
 20
152.6279849052659
 30
0.0
 10
464.8811261970018
 20
152.5336194292813
 30
0.0
 10
465.3463569772605
 20
152.5016514827195
 30
0.0
  0
SPLINE
  5
394
330
1F
100
AcDbEntity
  8
0
  6
SLD-Сплошная
 62
     7
370
    25
100
AcDbSpline
210
0.0
220
0.0
230
1.0
 70
     8
 71
     3
 72
     8
 73
     4
 74
     0
 42
0.00000001
 43
0.00000001
 40
0.0
 40
0.0
 40
0.0
 40
0.0
 40
1.0
 40
1.0
 40
1.0
 40
1.0
 10
493.8375495546068
 20
135.8225644237266
 30
0.0
 10
493.5543671175914
 20
136.6556425496262
 30
0.0
 10
493.2641735781457
 20
137.5082478801995
 30
0.0
 10
492.9681287905906
 20
138.3761597214394
 30
0.0
  0
SPLINE
  5
395
330
1F
100
AcDbEntity
  8
0
  6
SLD-Сплошная
 62
     7
370
    25
100
AcDbSpline
210
0.0
220
0.0
230
1.0
 70
     8
 71
     3
 72
    22
 73
    18
 74
     0
 42
0.00000001
 43
0.00000001
 40
0.0
 40
0.0
 40
0.0
 40
0.0
 40
0.125
 40
0.125
 40
0.25
 40
0.25
 40
0.375
 40
0.375
 40
0.5
 40
0.5
 40
0.625
 40
0.625
 40
0.75
 40
0.75
 40
0.875
 40
0.875
 40
1.0
 40
1.0
 40
1.0
 40
1.0
 10
493.8375495546068
 20
135.8225644237266
 30
0.0
 10
493.7274098496089
 20
135.6973720606059
 30
0.0
 10
493.5905410300967
 20
135.5632021210506
 30
0.0
 10
493.252791928707
 20
135.2835492323498
 30
0.0
 10
493.0516445384712
 20
135.1380305078028
 30
0.0
 10
492.583552820073
 20
134.8493137971111
 30
0.0
 10
492.3164007779104
 20
134.7062213327761
 30
0.0
 10
491.7315129589525
 20
134.4424700562044
 30
0.0
 10
491.4138957296266
 20
134.3220892512707
 30
0.0
 10
490.7626505550394
 20
134.1245597947063
 30
0.0
 10
490.429547775709
 20
134.0476971236594
 30
0.0
 10
489.7914975700267
 20
133.9493936346807
 30
0.0
 10
489.4871185402708
 20
133.9279984501559
 30
0.0
 10
488.9421244964659
 20
133.938387806854
 30
0.0
 10
488.7016822186188
 20
133.9699575404528
 30
0.0
 10
488.2991082687261
 20
134.0723753937157
 30
0.0
 10
488.1367523409638
 20
134.1429635072456
 30
0.0
 10
488.0109032159537
 20
134.2244187380042
 30
0.0
  0
SPLINE
  5
396
330
1F
100
AcDbEntity
  8
0
  6
SLD-Сплошная
 62
     7
370
    25
100
AcDbSpline
210
0.0
220
0.0
230
1.0
 70
     8
 71
     3
 72
     8
 73
     4
 74
     0
 42
0.00000001
 43
0.00000001
 40
0.0
 40
0.0
 40
0.0
 40
0.0
 40
1.0
 40
1.0
 40
1.0
 40
1.0
 10
487.1725891444094
 20
136.6168144690592
 30
0.0
 10
487.4581688427234
 20
135.801065084153
 30
0.0
 10
487.7380176242102
 20
135.0023216928496
 30
0.0
 10
488.0109032159492
 20
134.2244187380072
 30
0.0
  0
SPLINE
  5
397
330
1F
100
AcDbEntity
  8
0
  6
SLD-Сплошная
 62
     7
370
    25
100
AcDbSpline
210
0.0
220
0.0
230
1.0
 70
     8
 71
     3
 72
    12
 73
     8
 74
     0
 42
0.00000001
 43
0.00000001
 40
0.0
 40
0.0
 40
0.0
 40
0.0
 40
0.2499999999999998
 40
0.2499999999999998
 40
0.4999999999999996
 40
0.4999999999999996
 40
1.0
 40
1.0
 40
1.0
 40
1.0
 10
490.6346472427042
 20
126.8332093123447
 30
0.0
 10
490.4495487148317
 20
127.3503411938975
 30
0.0
 10
490.2551080157842
 20
127.8951178785697
 30
0.0
 10
489.8515018023503
 20
129.0394333999299
 30
0.0
 10
489.6431066491114
 20
129.6397734148758
 30
0.0
 10
489.0035672725447
 20
131.501084166432
 30
0.0
 10
488.5505344577557
 20
132.8277028414633
 30
0.0
 10
488.0109032159492
 20
134.2244187380072
 30
0.0
  0
LINE
  5
398
330
1F
100
AcDbEntity
  8
0
  6
SLD-Сплошная
 62
     7
370
    25
100
AcDbLine
 10
452.912219415
 20
137.036766253
 30
0.0
 11
452.912219415
 21
125.4136194216
 31
0.0
  0
SPLINE
  5
399
330
1F
100
AcDbEntity
  8
0
  6
SLD-Сплошная
 62
     7
370
    25
100
AcDbSpline
210
0.0
220
0.0
230
1.0
 70
     8
 71
     3
 72
    20
 73
    16
 74
     0
 42
0.00000001
 43
0.00000001
 40
0.0
 40
0.0
 40
0.0
 40
0.0
 40
0.2500000000000008
 40
0.2500000000000008
 40
0.3750000000000007
 40
0.3750000000000007
 40
0.5000000000000006
 40
0.5000000000000006
 40
0.6250000000000004
 40
0.6250000000000004
 40
0.7500000000000002
 40
0.7500000000000002
 40
0.8750000000000001
 40
0.8750000000000001
 40
1.0
 40
1.0
 40
1.0
 40
1.0
 10
487.1725891444094
 20
136.6168144690591
 30
0.0
 10
487.2459638134526
 20
136.983136603133
 30
0.0
 10
487.3905548018668
 20
137.3381911165862
 30
0.0
 10
487.7004571615492
 20
137.8225519201782
 30
0.0
 10
487.8178576708439
 20
137.9742415194739
 30
0.0
 10
488.0801948862478
 20
138.2581448103555
 30
0.0
 10
488.2267088504934
 20
138.391478826685
 30
0.0
 10
488.5407180415386
 20
138.6307881394313
 30
0.0
 10
488.7073408065047
 20
138.7365927311209
 30
0.0
 10
489.0594736233971
 20
138.920600289142
 30
0.0
 10
489.2469648371494
 20
138.9993355214791
 30
0.0
 10
489.6302909797049
 20
139.1233837129931
 30
0.0
 10
489.8260390669537
 20
139.1691346794972
 30
0.0
 10
490.2255975206323
 20
139.2282684110882
 30
0.0
 10
490.4313287016611
 20
139.2414683327289
 30
0.0
 10
490.6346472427043
 20
139.2375509600639
 30
0.0
  0
SPLINE
  5
39A
330
1F
100
AcDbEntity
  8
0
  6
SLD-Сплошная
 62
     7
370
    25
100
AcDbSpline
210
0.0
220
0.0
230
1.0
 70
     8
 71
     3
 72
    28
 73
    24
 74
     0
 42
0.00000001
 43
0.00000001
 40
0.0
 40
0.0
 40
0.0
 40
0.0
 40
0.1250000000000003
 40
0.1250000000000003
 40
0.1875000000000004
 40
0.1875000000000004
 40
0.2500000000000004
 40
0.2500000000000004
 40
0.3750000000000004
 40
0.3750000000000004
 40
0.4375000000000002
 40
0.4375000000000002
 40
0.5000000000000001
 40
0.5000000000000001
 40
0.6250000000000002
 40
0.6250000000000002
 40
0.6875000000000001
 40
0.6875000000000001
 40
0.7500000000000001
 40
0.7500000000000001
 40
0.8750000000000001
 40
0.8750000000000001
 40
1.0
 40
1.0
 40
1.0
 40
1.0
 10
471.2555221110272
 20
138.1669909984812
 30
0.0
 10
471.6316672695884
 20
137.0168682804229
 30
0.0
 10
471.9955431955699
 20
135.9066939233395
 30
0.0
 10
472.523185154404
 20
134.3005831201725
 30
0.0
 10
472.6959944989369
 20
133.7751060925737
 30
0.0
 10
473.035034367966
 20
132.7442620103347
 30
0.0
 10
473.2017785002761
 20
132.2372044366842
 30
0.0
 10
473.6866692394406
 20
130.7616807168426
 30
0.0
 10
473.9894789568493
 20
129.8393933247998
 30
0.0
 10
474.4131614659855
 20
128.5482829703954
 30
0.0
 10
474.5492717522204
 20
128.1333636030565
 30
0.0
 10
474.8109463264547
 20
127.3352841361964
 30
0.0
 10
474.936584572776
 20
126.9517814083605
 30
0.0
 10
475.2914021498499
 20
125.8681801771246
 30
0.0
 10
475.501803152301
 20
125.2279099200348
 30
0.0
 10
475.7765380830783
 20
124.3902000135285
 30
0.0
 10
475.8613128913243
 20
124.1315020765163
 30
0.0
 10
476.0168818152224
 20
123.6562151341216
 30
0.0
 10
476.0878625134485
 20
123.439004225937
 30
0.0
 10
476.2780493931232
 20
122.8575674637449
 30
0.0
 10
476.3728983195347
 20
122.5676530725779
 30
0.0
 10
476.4972862465586
 20
122.1783880486493
 30
0.0
 10
476.5275710972177
 20
122.0789810865541
 30
0.0
 10
476.5320749616043
 20
122.0785630892925
 30
0.0
  0
SPLINE
  5
39B
330
1F
100
AcDbEntity
  8
0
  6
SLD-Сплошная
 62
     7
370
    25
100
AcDbSpline
210
0.0
220
0.0
230
1.0
 70
     8
 71
     3
 72
    26
 73
    22
 74
     0
 42
0.00000001
 43
0.00000001
 40
0.0
 40
0.0
 40
0.0
 40
0.0
 40
0.1249999999999979
 40
0.1249999999999979
 40
0.1874999999999974
 40
0.1874999999999974
 40
0.249999999999997
 40
0.249999999999997
 40
0.374999999999997
 40
0.374999999999997
 40
0.4374999999999973
 40
0.4374999999999973
 40
0.4999999999999976
 40
0.4999999999999976
 40
0.6249999999999982
 40
0.6249999999999982
 40
0.7499999999999988
 40
0.7499999999999988
 40
0.8749999999999994
 40
0.8749999999999994
 40
1.0
 40
1.0
 40
1.0
 40
1.0
 10
465.6008921383121
 20
136.6846238982695
 30
0.0
 10
465.6614740401594
 20
136.948208741621
 30
0.0
 10
465.7609034445612
 20
137.2030764509667
 30
0.0
 10
465.9634233601545
 20
137.561650659686
 30
0.0
 10
466.0403623944028
 20
137.6779056223221
 30
0.0
 10
466.2086480383016
 20
137.8975317371007
 30
0.0
 10
466.3003488064883
 20
138.0016501194742
 30
0.0
 10
466.5978105557872
 20
138.2968103237559
 30
0.0
 10
466.8290472789414
 20
138.472097495214
 30
0.0
 10
467.2028503520847
 20
138.6848187374137
 30
0.0
 10
467.332422392234
 20
138.7479616035674
 30
0.0
 10
467.6015522553548
 20
138.858415297479
 30
0.0
 10
467.7421772516266
 20
138.9059563581307
 30
0.0
 10
468.1693637292553
 20
139.0207104841451
 30
0.0
 10
468.4619301328107
 20
139.0614891870388
 30
0.0
 10
469.0625588007032
 20
139.070525785762
 30
0.0
 10
469.3630565802208
 20
139.0380231606252
 30
0.0
 10
469.9486734248991
 20
138.9026062826717
 30
0.0
 10
470.2379139329478
 20
138.7978379788539
 30
0.0
 10
470.7736405885216
 20
138.528427987641
 30
0.0
 10
471.0269571632149
 20
138.362031646965
 30
0.0
 10
471.2555221110246
 20
138.1669909984808
 30
0.0
  0
SPLINE
  5
39C
330
1F
100
AcDbEntity
  8
0
  6
SLD-Сплошная
 62
     7
370
    25
100
AcDbSpline
210
0.0
220
0.0
230
1.0
 70
     8
 71
     3
 72
    26
 73
    22
 74
     0
 42
0.00000001
 43
0.00000001
 40
0.0
 40
0.0
 40
0.0
 40
0.0
 40
0.1250000000000001
 40
0.1250000000000001
 40
0.2500000000000002
 40
0.2500000000000002
 40
0.3750000000000001
 40
0.3750000000000001
 40
0.5
 40
0.5
 40
0.5625
 40
0.5625
 40
0.625
 40
0.625
 40
0.75
 40
0.75
 40
0.8125
 40
0.8125
 40
0.8750000000000001
 40
0.8750000000000001
 40
1.0
 40
1.0
 40
1.0
 40
1.0
 10
470.5615232713137
 20
122.7050712804341
 30
0.0
 10
470.5609722872452
 20
122.7051357941165
 30
0.0
 10
470.5301463134651
 20
122.7906965058582
 30
0.0
 10
470.4101808350221
 20
123.125872947259
 30
0.0
 10
470.3209589917012
 20
123.3755133342045
 30
0.0
 10
470.0817528399352
 20
124.0428960554186
 30
0.0
 10
469.9342543425424
 20
124.4542128950221
 30
0.0
 10
469.5889122493657
 20
125.4196805509914
 30
0.0
 10
469.3908085593045
 20
125.9745367299297
 30
0.0
 10
469.0552485003368
 20
126.9159465055856
 30
0.0
 10
468.9375082668745
 20
127.2466363369087
 30
0.0
 10
468.6929332921243
 20
127.9343272634559
 30
0.0
 10
468.5657638217226
 20
128.2922646638243
 30
0.0
 10
468.1699657965182
 20
129.4072901666825
 30
0.0
 10
467.8871186929657
 20
130.205389018558
 30
0.0
 10
467.4343565117387
 20
131.484270430219
 30
0.0
 10
467.2781284885536
 20
131.925730696947
 30
0.0
 10
466.9592273735169
 20
132.8274594756469
 30
0.0
 10
466.7965614517977
 20
133.2877297107663
 30
0.0
 10
466.2994044194838
 20
134.6961965997092
 30
0.0
 10
465.9557895766657
 20
135.671908449099
 30
0.0
 10
465.6008921383096
 20
136.6846238982687
 30
0.0
  0
SPLINE
  5
39D
330
1F
100
AcDbEntity
  8
0
  6
SLD-Сплошная
 62
     7
370
    25
100
AcDbSpline
210
0.0
220
0.0
230
1.0
 70
     8
 71
     3
 72
    28
 73
    24
 74
     0
 42
0.00000001
 43
0.00000001
 40
0.0
 40
0.0
 40
0.0
 40
0.0
 40
0.1249999999999997
 40
0.1249999999999997
 40
0.1874999999999996
 40
0.1874999999999996
 40
0.2499999999999994
 40
0.2499999999999994
 40
0.3749999999999994
 40
0.3749999999999994
 40
0.4999999999999994
 40
0.4999999999999994
 40
0.5624999999999994
 40
0.5624999999999994
 40
0.6249999999999996
 40
0.6249999999999996
 40
0.7499999999999997
 40
0.7499999999999997
 40
0.8124999999999997
 40
0.8124999999999997
 40
0.8749999999999998
 40
0.8749999999999998
 40
1.0
 40
1.0
 40
1.0
 40
1.0
 10
493.8375495546068
 20
135.8225644237266
 30
0.0
 10
494.1334474735428
 20
134.7401152591455
 30
0.0
 10
494.4675679460881
 20
133.7131620229064
 30
0.0
 10
494.9769683121191
 20
132.2405057813026
 30
0.0
 10
495.147551152624
 20
131.7608603914405
 30
0.0
 10
495.4790441971681
 20
130.8218552593806
 30
0.0
 10
495.6393897110831
 20
130.3613932586488
 30
0.0
 10
496.0948055527995
 20
129.0166974382168
 30
0.0
 10
496.3666811516422
 20
128.1739199678163
 30
0.0
 10
496.8684883806282
 20
126.602835601875
 30
0.0
 10
497.0972226285998
 20
125.8812577368707
 30
0.0
 10
497.4131936037983
 20
124.9026946291754
 30
0.0
 10
497.5139119443354
 20
124.5931011835801
 30
0.0
 10
497.7043998544643
 20
124.0128715249602
 30
0.0
 10
497.7943317268657
 20
123.7417234220501
 30
0.0
 10
498.0483219538291
 20
122.9854720449868
 30
0.0
 10
498.1979847519228
 20
122.5572516489957
 30
0.0
 10
498.3660882283256
 20
122.0411023292781
 30
0.0
 10
498.4127927727985
 20
121.8896020661168
 30
0.0
 10
498.4821294577935
 20
121.6284040838976
 30
0.0
 10
498.5033318412075
 20
121.5196825821902
 30
0.0
 10
498.5524304894264
 20
121.2585208857833
 30
0.0
 10
498.5680415101547
 20
121.1708528069523
 30
0.0
 10
498.6363134466649
 20
121.1708528069523
 30
0.0
  0
SPLINE
  5
39E
330
1F
100
AcDbEntity
  8
0
  6
SLD-Сплошная
 62
     7
370
    25
100
AcDbSpline
210
0.0
220
0.0
230
1.0
 70
     8
 71
     3
 72
    14
 73
    10
 74
     0
 42
0.00000001
 43
0.00000001
 40
0.0
 40
0.0
 40
0.0
 40
0.0
 40
0.25
 40
0.25
 40
0.5
 40
0.5
 40
0.75
 40
0.75
 40
1.0
 40
1.0
 40
1.0
 40
1.0
 10
492.9681287905906
 20
138.3761597214394
 30
0.0
 10
492.8092823765115
 20
138.5119526776299
 30
0.0
 10
492.6372359651479
 20
138.6342195268361
 30
0.0
 10
492.2746491352881
 20
138.8464802495772
 30
0.0
 10
492.0816061767039
 20
138.9377873578558
 30
0.0
 10
491.6843681085376
 20
139.084552093851
 30
0.0
 10
491.480826579324
 20
139.1401898049611
 30
0.0
 10
491.0640168844236
 20
139.2161668490437
 30
0.0
 10
490.8494413855516
 20
139.2363911952669
 30
0.0
 10
490.6346472427042
 20
139.2375509600636
 30
0.0
  0
LINE
  5
39F
330
1F
100
AcDbEntity
  8
0
  6
SLD-Сплошная
 62
     7
370
    25
100
AcDbLine
 10
448.1346472427
 20
137.4872844254
 30
0.0
 11
448.1346472427
 21
168.370852807
 31
0.0
  0
ARC
  5
3A0
330
1F
100
AcDbEntity
  8
0
  6
SLD-Сплошная
 62
     7
370
    25
100
AcDbCircle
 10
495.6346472427
 20
122.970852807
 30
0.0
 40
3.499999999999996
100
AcDbArc
 50
210.9497230789
 51
329.0502769211
  0
SPLINE
  5
3A1
330
1F
100
AcDbEntity
  8
0
  6
SLD-Сплошная
 62
     7
370
    25
100
AcDbSpline
210
0.0
220
0.0
230
1.0
 70
     8
 71
     3
 72
    18
 73
    14
 74
     0
 42
0.00000001
 43
0.00000001
 40
0.0
 40
0.0
 40
0.0
 40
0.0
 40
0.2499999999999998
 40
0.2499999999999998
 40
0.3749999999999998
 40
0.3749999999999998
 40
0.4999999999999998
 40
0.4999999999999998
 40
0.7499999999999998
 40
0.7499999999999998
 40
0.8749999999999999
 40
0.8749999999999999
 40
1.0
 40
1.0
 40
1.0
 40
1.0
 10
492.6329810387435
 20
121.1708528069523
 30
0.0
 10
492.6529795841679
 20
121.1708528069523
 30
0.0
 10
492.5979933750654
 20
121.2960108459682
 30
0.0
 10
492.4570700636353
 20
121.6649219060346
 30
0.0
 10
492.4012605398278
 20
121.8182853436202
 30
0.0
 10
492.2705870747907
 20
122.1867438320658
 30
0.0
 10
492.1957209929498
 20
122.4013163833331
 30
0.0
 10
491.9429885908884
 20
123.1264510136421
 30
0.0
 10
491.7353146447329
 20
123.7202629262178
 30
0.0
 10
491.3637548848141
 20
124.774203666337
 30
0.0
 10
491.2297413176447
 20
125.1534053758613
 30
0.0
 10
490.9448706040427
 20
125.9575837443055
 30
0.0
 10
490.7936838415665
 20
126.3835147874414
 30
0.0
 10
490.6346472427042
 20
126.8332093123447
 30
0.0
  0
LINE
  5
3A2
330
1F
100
AcDbEntity
  8
0
  6
SLD-Сплошная
 62
     7
370
    25
100
AcDbLine
 10
438.5852025927
 20
161.8995220959
 30
0.0
 11
438.5852025927
 21
158.1495220959
 31
0.0
  0
LINE
  5
3A3
330
1F
100
AcDbEntity
  8
0
  6
SLD-Сплошная
 62
     7
370
    25
100
AcDbLine
 10
438.5852025927
 20
172.6785782873
 30
0.0
 11
438.5852025927
 21
161.8995220959
 31
0.0
  0
LINE
  5
3A4
330
1F
100
AcDbEntity
  8
0
  6
SLD-Сплошная
 62
     7
370
    25
100
AcDbLine
 10
438.5852025927
 20
172.7710181107
 30
0.0
 11
438.5852025927
 21
172.6785782873
 31
0.0
  0
LINE
  5
3A5
330
1F
100
AcDbEntity
  8
0
  6
SLD-Сплошная
 62
     7
370
    25
100
AcDbLine
 10
440.5852025927
 20
172.7710181107
 30
0.0
 11
440.5852025927
 21
147.3704659046
 31
0.0
  0
LINE
  5
3A6
330
1F
100
AcDbEntity
  8
0
  6
SLD-Сплошная
 62
     7
370
    25
100
AcDbLine
 10
438.5852025927
 20
158.1495220959
 30
0.0
 11
438.5852025927
 21
147.3704659046
 31
0.0
  0
LINE
  5
3A7
330
1F
100
AcDbEntity
  8
0
  6
SLD-Сплошная
 62
     7
370
    25
100
AcDbLine
 10
438.5852025927
 20
122.0623535219
 30
0.0
 11
438.5852025927
 21
121.9699136984
 31
0.0
  0
LINE
  5
3A8
330
1F
100
AcDbEntity
  8
0
  6
SLD-Сплошная
 62
     7
370
    25
100
AcDbLine
 10
438.5852025927
 20
132.8414097132
 30
0.0
 11
438.5852025927
 21
122.0623535219
 31
0.0
  0
LINE
  5
3A9
330
1F
100
AcDbEntity
  8
0
  6
SLD-Сплошная
 62
     7
370
    25
100
AcDbLine
 10
438.5852025927
 20
136.5914097132
 30
0.0
 11
438.5852025927
 21
132.8414097132
 31
0.0
  0
LINE
  5
3AA
330
1F
100
AcDbEntity
  8
0
  6
SLD-Сплошная
 62
     7
370
    25
100
AcDbLine
 10
440.5852025927
 20
147.3704659046
 30
0.0
 11
440.5852025927
 21
121.9699136984
 31
0.0
  0
LINE
  5
3AB
330
1F
100
AcDbEntity
  8
0
  6
SLD-Сплошная
 62
     7
370
    25
100
AcDbLine
 10
438.5852025927
 20
147.3704659046
 30
0.0
 11
438.5852025927
 21
136.5914097132
 31
0.0
  0
ARC
  5
3AC
330
1F
100
AcDbEntity
  8
0
  6
SLD-Сплошная
 62
     7
370
    25
100
AcDbCircle
 10
473.7346472427
 20
124.1819884285
 30
0.0
 40
3.500000000000035
100
AcDbArc
 50
204.9594243534
 51
323.0599781957
  0
LINE
  5
3AD
330
1F
100
AcDbEntity
  8
0
  6
SLD-Сплошная
 62
     7
370
    25
100
AcDbLine
 10
438.5852025927
 20
132.8414097132
 30
0.0
 11
429.5852025927
 21
132.8414097132
 31
0.0
  0
LINE
  5
3AE
330
1F
100
AcDbEntity
  8
0
  6
SLD-Сплошная
 62
     7
370
    25
100
AcDbLine
 10
429.5852025927
 20
136.5914097132
 30
0.0
 11
438.5852025927
 21
136.5914097132
 31
0.0
  0
LINE
  5
3AF
330
1F
100
AcDbEntity
  8
0
  6
SLD-Сплошная
 62
     7
370
    25
100
AcDbLine
 10
429.5852025927
 20
132.8414097132
 30
0.0
 11
429.5852025927
 21
136.5914097132
 31
0.0
  0
LINE
  5
3B0
330
1F
100
AcDbEntity
  8
0
  6
SLD-Сплошная
 62
     7
370
    25
100
AcDbLine
 10
438.5852025927
 20
158.1495220959
 30
0.0
 11
429.5852025927
 21
158.1495220959
 31
0.0
  0
LINE
  5
3B1
330
1F
100
AcDbEntity
  8
0
  6
SLD-Сплошная
 62
     7
370
    25
100
AcDbLine
 10
429.5852025927
 20
136.5914097132
 30
0.0
 11
429.5852025927
 21
158.1495220959
 31
0.0
  0
LINE
  5
3B2
330
1F
100
AcDbEntity
  8
0
  6
SLD-Сплошная
 62
     7
370
    25
100
AcDbLine
 10
429.5852025927
 20
161.8995220959
 30
0.0
 11
438.5852025927
 21
161.8995220959
 31
0.0
  0
LINE
  5
3B3
330
1F
100
AcDbEntity
  8
0
  6
SLD-Сплошная
 62
     7
370
    25
100
AcDbLine
 10
429.5852025927
 20
158.1495220959
 30
0.0
 11
429.5852025927
 21
161.8995220959
 31
0.0
  0
LINE
  5
3B4
330
1F
100
AcDbEntity
  8
0
  6
SLD-Сплошная
 62
     7
370
    25
100
AcDbLine
 10
438.5852025927
 20
172.6785782873
 30
0.0
 11
429.5852025927
 21
172.6785782873
 31
0.0
  0
LINE
  5
3B5
330
1F
100
AcDbEntity
  8
0
  6
SLD-Сплошная
 62
     7
370
    25
100
AcDbLine
 10
429.5852025927
 20
161.8995220959
 30
0.0
 11
429.5852025927
 21
172.6785782873
 31
0.0
  0
LINE
  5
3B6
330
1F
100
AcDbEntity
  8
0
  6
SLD-Сплошная
 62
     7
370
    25
100
AcDbLine
 10
429.5852025927
 20
122.0623535219
 30
0.0
 11
438.5852025927
 21
122.0623535219
 31
0.0
  0
LINE
  5
3B7
330
1F
100
AcDbEntity
  8
0
  6
SLD-Сплошная
 62
     7
370
    25
100
AcDbLine
 10
429.5852025927
 20
122.0623535219
 30
0.0
 11
429.5852025927
 21
132.8414097132
 31
0.0
  0
LINE
  5
3B8
330
1F
100
AcDbEntity
  8
0
  6
SLD-Сплошная
 62
     7
370
    25
100
AcDbLine
 10
448.1346472427
 20
126.370852807
 30
0.0
 11
448.1346472427
 21
137.4872844254
 31
0.0
  0
LINE
  5
3B9
330
1F
100
AcDbEntity
  8
0
  6
SLD-Сплошная
 62
     7
370
    25
100
AcDbLine
 10
417.5755836494
 20
150.4405499987
 30
0.0
 11
410.7331850611
 21
150.4405499987
 31
0.0
  0
LINE
  5
3BA
330
1F
100
AcDbEntity
  8
0
  6
SLD-Сплошная
 62
     7
370
    25
100
AcDbLine
 10
417.5755836494
 20
150.4405499987
 30
0.0
 11
429.5852025927
 21
150.4405499987
 31
0.0
  0
LINE
  5
3BB
330
1F
100
AcDbEntity
  8
0
  6
SLD-Сплошная
 62
     7
370
    25
100
AcDbLine
 10
417.5755836494
 20
144.3003818105
 30
0.0
 11
410.7331850611
 21
144.3003818105
 31
0.0
  0
LINE
  5
3BC
330
1F
100
AcDbEntity
  8
0
  6
SLD-Сплошная
 62
     7
370
    25
100
AcDbLine
 10
417.5755836494
 20
144.3003818105
 30
0.0
 11
429.5852025927
 21
144.3003818105
 31
0.0
  0
LINE
  5
3BD
330
1F
100
AcDbEntity
  8
0
  6
SLD-Сплошная
 62
     7
370
    25
100
AcDbLine
 10
408.0168626451
 20
158.9303470787
 30
0.0
 11
410.7331850611
 21
160.3610842584
 31
0.0
  0
ARC
  5
3BE
330
1F
100
AcDbEntity
  8
0
  6
SLD-Сплошная
 62
     7
370
    25
100
AcDbCircle
 10
417.5755836494
 20
147.3704659046
 30
0.0
 40
14.68245836551861
100
AcDbArc
 50
90.0
 51
117.7766046258
  0
ARC
  5
3BF
330
1F
100
AcDbEntity
  8
0
  6
SLD-Сплошная
 62
     7
370
    25
100
AcDbCircle
 10
411.036408552
 20
147.3704659046
 30
0.0
 40
3.085022014554648
100
AcDbArc
 50
95.6406475517
 51
264.3593524483
  0
ARC
  5
3C0
330
1F
100
AcDbEntity
  8
0
  6
SLD-Сплошная
 62
     7
370
    25
100
AcDbCircle
 10
417.5755836494
 20
147.3704659046
 30
0.0
 40
14.68245836551858
100
AcDbArc
 50
242.2233953742
 51
270.0
  0
LINE
  5
3C1
330
1F
100
AcDbEntity
  8
0
  6
SLD-Сплошная
 62
     7
370
    25
100
AcDbLine
 10
410.7331850611
 20
134.3798475508
 30
0.0
 11
408.0168626451
 21
135.8105847304
 31
0.0
  0
ARC
  5
3C2
330
1F
100
AcDbEntity
  8
0
  6
SLD-Сплошная
 62
     7
370
    25
100
AcDbCircle
 10
417.5755836494
 20
147.3704659046
 30
0.0
 40
15.00000000000006
100
AcDbArc
 50
210.0
 51
230.4130804784
  0
LINE
  5
3C3
330
1F
100
AcDbEntity
  8
0
  6
SLD-Сплошная
 62
     7
370
    25
100
AcDbLine
 10
404.5852025927
 20
147.3704659046
 30
0.0
 11
404.5852025927
 21
139.8704659046
 31
0.0
  0
LINE
  5
3C4
330
1F
100
AcDbEntity
  8
0
  6
SLD-Сплошная
 62
     7
370
    25
100
AcDbLine
 10
404.5852025927
 20
154.8704659046
 30
0.0
 11
404.5852025927
 21
147.3704659046
 31
0.0
  0
ARC
  5
3C5
330
1F
100
AcDbEntity
  8
0
  6
SLD-Сплошная
 62
     7
370
    25
100
AcDbCircle
 10
417.5755836494
 20
147.3704659046
 30
0.0
 40
15.00000000000008
100
AcDbArc
 50
129.5869195216
 51
150.0
  0
LINE
  5
3C6
330
1F
100
AcDbEntity
  8
0
  6
SLD-Сплошная
 62
     7
370
    25
100
AcDbLine
 10
417.5755836494
 20
162.0529242701
 30
0.0
 11
429.5852025927
 21
162.0529242701
 31
0.0
  0
LINE
  5
3C7
330
1F
100
AcDbEntity
  8
0
  6
SLD-Сплошная
 62
     7
370
    25
100
AcDbLine
 10
417.5755836494
 20
132.6880075391
 30
0.0
 11
429.5852025927
 21
132.6880075391
 31
0.0
  0
CIRCLE
  5
3C8
330
1F
100
AcDbEntity
  8
0
  6
SLD-Сплошная
 62
     7
370
    25
100
AcDbCircle
 10
540.6346472427
 20
184.270852807
 30
0.0
 40
2.099999999999909
  0
ARC
  5
3C9
330
1F
100
AcDbEntity
  8
0
  6
SLD-Сплошная
 62
     7
370
    25
100
AcDbCircle
 10
540.6346472427
 20
184.270852807
 30
0.0
 40
5.000000000000045
100
AcDbArc
 50
0.0
 51
122.5
  0
LINE
  5
3CA
330
1F
100
AcDbEntity
  8
0
  6
SLD-Сплошная
 62
     7
370
    25
100
AcDbLine
 10
545.6346472427
 20
172.8296430374
 30
0.0
 11
545.6346472427
 21
184.270852807
 31
0.0
  0
LINE
  5
3CB
330
1F
100
AcDbEntity
  8
0
  6
SLD-Сплошная
 62
     7
370
    25
100
AcDbLine
 10
537.948149201
 20
188.487810036
 30
0.0
 11
513.3697502992
 21
172.8296430374
 31
0.0
  0
LINE
  5
3CC
330
1F
100
AcDbEntity
  8
0
  6
SLD-Сплошная
 62
     7
370
    25
100
AcDbLine
 10
510.6346472427
 20
118.8542230134
 30
0.0
 11
510.6346472427
 21
114.945852807
 31
0.0
  0
ENDSEC
  0
SECTION
  2
OBJECTS
  0
DICTIONARY
  5
C
330
0
100
AcDbDictionary
281
     1
  3
ACAD_GROUP
350
D
  3
ACAD_LAYOUT
350
1A
  3
ACAD_MLINESTYLE
350
17
  3
ACAD_PLOTSETTINGS
350
19
  3
ACAD_PLOTSTYLENAME
350
E
  3
ACAD_SCALELIST
350
47
  3
DWGPROPS
350
3CD
  0
DICTIONARY
  5
D
102
{ACAD_REACTORS
330
C
102
}
330
C
100
AcDbDictionary
281
     1
  0
DICTIONARY
  5
1A
102
{ACAD_REACTORS
330
C
102
}
330
C
100
AcDbDictionary
281
     1
  3
Layout1
350
1E
  3
Layout2
350
26
  3
Model
350
22
  0
DICTIONARY
  5
17
102
{ACAD_REACTORS
330
C
102
}
330
C
100
AcDbDictionary
281
     1
  3
Standard
350
18
  0
DICTIONARY
  5
19
102
{ACAD_REACTORS
330
C
102
}
330
C
100
AcDbDictionary
281
     1
  0
ACDBDICTIONARYWDFLT
  5
E
102
{ACAD_REACTORS
330
C
102
}
330
C
100
AcDbDictionary
281
     1
  3
Normal
350
F
100
AcDbDictionaryWithDefault
340
F
  0
DICTIONARY
  5
47
102
{ACAD_REACTORS
330
C
102
}
330
C
100
AcDbDictionary
281
     1
  3
A0
350
48
  3
A1
350
49
  3
A2
350
4A
  3
A3
350
4B
  3
A4
350
4C
  3
A5
350
4D
  3
A6
350
4E
  3
A7
350
4F
  3
A8
350
50
  3
A9
350
51
  3
B0
350
52
  3
B1
350
53
  3
B2
350
54
  3
B3
350
55
  3
B4
350
56
  3
B5
350
57
  3
B6
350
58
  0
XRECORD
  5
3CD
102
{ACAD_REACTORS
330
C
102
}
330
C
100
AcDbXrecord
280
     1
  1
DWGPROPS COOKIE
  2

  3

  4

  6

  7

  8
inyankin
  9

300
=
301
=
302
=
303
=
304
=
305
=
306
=
307
=
308
=
309
=
 40
0.0
 41
2460920.507410255
 42
2460920.507411169
  1

 90
        0
  0
LAYOUT
  5
1E
102
{ACAD_REACTORS
330
1A
102
}
330
1A
100
AcDbPlotSettings
  1

  2
none_device
  4

  6

 40
0.0
 41
0.0
 42
0.0
 43
0.0
 44
0.0
 45
0.0
 46
0.0
 47
0.0
 48
0.0
 49
0.0
140
0.0
141
0.0
142
1.0
143
1.0
 70
   688
 72
     1
 73
     0
 74
     5
  7

 75
    16
147
1.0
148
0.0
149
0.0
100
AcDbLayout
  1
Layout1
 70
     1
 71
     1
 10
0.0
 20
0.0
 11
420.0
 21
297.0
 12
0.0
 22
0.0
 32
0.0
 14
1.0000000000E+20
 24
1.0000000000E+20
 34
1.0000000000E+20
 15
-1.0000000000E+20
 25
-1.0000000000E+20
 35
-1.0000000000E+20
146
0.0
 13
0.0
 23
0.0
 33
0.0
 16
1.0
 26
0.0
 36
0.0
 17
0.0
 27
1.0
 37
0.0
 76
     0
330
1B
  0
LAYOUT
  5
26
102
{ACAD_REACTORS
330
1A
102
}
330
1A
100
AcDbPlotSettings
  1

  2
none_device
  4

  6

 40
0.0
 41
0.0
 42
0.0
 43
0.0
 44
0.0
 45
0.0
 46
0.0
 47
0.0
 48
0.0
 49
0.0
140
0.0
141
0.0
142
1.0
143
1.0
 70
   688
 72
     1
 73
     0
 74
     5
  7

 75
    16
147
1.0
148
0.0
149
0.0
100
AcDbLayout
  1
Layout2
 70
     1
 71
     2
 10
0.0
 20
0.0
 11
0.0
 21
0.0
 12
0.0
 22
0.0
 32
0.0
 14
0.0
 24
0.0
 34
0.0
 15
0.0
 25
0.0
 35
0.0
146
0.0
 13
0.0
 23
0.0
 33
0.0
 16
1.0
 26
0.0
 36
0.0
 17
0.0
 27
1.0
 37
0.0
 76
     0
330
23
  0
LAYOUT
  5
22
102
{ACAD_REACTORS
330
1A
102
}
330
1A
100
AcDbPlotSettings
  1

  2
none_device
  4
Letter_(8.50_x_11.00_Inches)
  6

 40
6.35
 41
6.35
 42
6.35000508
 43
6.35000508
 44
215.9
 45
279.4
 46
0.0
 47
0.0
 48
0.0
 49
0.0
140
0.0
141
0.0
142
1.0
143
1.0
 70
  1712
 72
     1
 73
     0
 74
     0
  7

 75
     0
147
1.0
148
0.0
149
0.0
100
AcDbLayout
  1
Model
 70
     1
 71
     0
 10
0.0
 20
0.0
 11
431.8
 21
279.4
 12
0.0
 22
0.0
 32
0.0
 14
0.0
 24
0.0
 34
0.0
 15
431.8
 25
279.4
 35
0.0
146
0.0
 13
0.0
 23
0.0
 33
0.0
 16
1.0
 26
0.0
 36
0.0
 17
0.0
 27
1.0
 37
0.0
 76
     0
330
1F
331
29
  0
MLINESTYLE
  5
18
102
{ACAD_REACTORS
330
17
102
}
330
17
100
AcDbMlineStyle
  2
Standard
 70
     0
  3

 62
   256
 51
90.0
 52
90.0
 71
     2
 49
0.5
 62
   256
  6
BYLAYER
 49
-0.5
 62
   256
  6
BYLAYER
  0
ACDBPLACEHOLDER
  5
F
102
{ACAD_REACTORS
330
E
102
}
330
E
  0
SCALE
  5
48
102
{ACAD_REACTORS
330
47
102
}
330
47
100
AcDbScale
 70
     0
300
1:1
140
1.0
141
1.0
290
     1
  0
SCALE
  5
49
102
{ACAD_REACTORS
330
47
102
}
330
47
100
AcDbScale
 70
     0
300
1:2
140
1.0
141
2.0
290
     0
  0
SCALE
  5
4A
102
{ACAD_REACTORS
330
47
102
}
330
47
100
AcDbScale
 70
     0
300
1:4
140
1.0
141
4.0
290
     0
  0
SCALE
  5
4B
102
{ACAD_REACTORS
330
47
102
}
330
47
100
AcDbScale
 70
     0
300
1:5
140
1.0
141
5.0
290
     0
  0
SCALE
  5
4C
102
{ACAD_REACTORS
330
47
102
}
330
47
100
AcDbScale
 70
     0
300
1:8
140
1.0
141
8.0
290
     0
  0
SCALE
  5
4D
102
{ACAD_REACTORS
330
47
102
}
330
47
100
AcDbScale
 70
     0
300
1:10
140
1.0
141
10.0
290
     0
  0
SCALE
  5
4E
102
{ACAD_REACTORS
330
47
102
}
330
47
100
AcDbScale
 70
     0
300
1:16
140
1.0
141
16.0
290
     0
  0
SCALE
  5
4F
102
{ACAD_REACTORS
330
47
102
}
330
47
100
AcDbScale
 70
     0
300
1:20
140
1.0
141
20.0
290
     0
  0
SCALE
  5
50
102
{ACAD_REACTORS
330
47
102
}
330
47
100
AcDbScale
 70
     0
300
1:30
140
1.0
141
30.0
290
     0
  0
SCALE
  5
51
102
{ACAD_REACTORS
330
47
102
}
330
47
100
AcDbScale
 70
     0
300
1:40
140
1.0
141
40.0
290
     0
  0
SCALE
  5
52
102
{ACAD_REACTORS
330
47
102
}
330
47
100
AcDbScale
 70
     0
300
1:50
140
1.0
141
50.0
290
     0
  0
SCALE
  5
53
102
{ACAD_REACTORS
330
47
102
}
330
47
100
AcDbScale
 70
     0
300
1:100
140
1.0
141
100.0
290
     0
  0
SCALE
  5
54
102
{ACAD_REACTORS
330
47
102
}
330
47
100
AcDbScale
 70
     0
300
2:1
140
2.0
141
1.0
290
     0
  0
SCALE
  5
55
102
{ACAD_REACTORS
330
47
102
}
330
47
100
AcDbScale
 70
     0
300
4:1
140
4.0
141
1.0
290
     0
  0
SCALE
  5
56
102
{ACAD_REACTORS
330
47
102
}
330
47
100
AcDbScale
 70
     0
300
8:1
140
8.0
141
1.0
290
     0
  0
SCALE
  5
57
102
{ACAD_REACTORS
330
47
102
}
330
47
100
AcDbScale
 70
     0
300
10:1
140
10.0
141
1.0
290
     0
  0
SCALE
  5
58
102
{ACAD_REACTORS
330
47
102
}
330
47
100
AcDbScale
 70
     0
300
100:1
140
100.0
141
1.0
290
     0
  0
ENDSEC
  0
EOF
