ISO-10303-21;
HEADER;
FILE_DESCRIPTION (( 'STEP AP214' ),
    '1' );
FILE_NAME ('ÀÃÈÅ 010.00.02.002_Êðûøêà 60.STEP',
    '2016-07-13T07:12:41',
    ( '' ),
    ( '' ),
    'SwSTEP 2.0',
    'SolidWorks 2014',
    '' );
FILE_SCHEMA (( 'AUTOMOTIVE_DESIGN' ));
ENDSEC;

DATA;
#1 = EDGE_CURVE ( 'NONE', #199, #240, #269, .T. ) ;
#2 = DIRECTION ( 'NONE',  ( 0.0000000000000000000, 0.0000000000000000000, 1.000000000000000000 ) ) ;
#3 = SURFACE_SIDE_STYLE ('',( #210 ) ) ;
#4 = DIRECTION ( 'NONE',  ( -0.0000000000000000000, 1.000000000000000000, -0.0000000000000000000 ) ) ;
#5 = CARTESIAN_POINT ( 'NONE',  ( -28.00000000000000700, -0.3271201533561196600, -1000.000000000000000 ) ) ;
#6 = FILL_AREA_STYLE ('',( #12 ) ) ;
#7 = CARTESIAN_POINT ( 'NONE',  ( -29.50000000000000400, -5.862658967302425400, 1000.000000000000000 ) ) ;
#8 = DIRECTION ( 'NONE',  ( -0.0000000000000000000, -0.0000000000000000000, -1.000000000000000000 ) ) ;
#9 = CARTESIAN_POINT ( 'NONE',  ( 28.00000000000001400, -0.3271201533561127800, 1000.000000000000000 ) ) ;
#10 = CARTESIAN_POINT ( 'NONE',  ( -29.50000000000000400, -5.862658967302425400, -1000.000000000000000 ) ) ;
#11 = DIRECTION ( 'NONE',  ( -8.147862726888376200E-015, 1.000000000000000000, -0.0000000000000000000 ) ) ;
#12 = FILL_AREA_STYLE_COLOUR ( '', #337 ) ;
#13 = CARTESIAN_POINT ( 'NONE',  ( 29.50000000000000700, -5.862658967302427200, 1000.000000000000000 ) ) ;
#14 = CARTESIAN_POINT ( 'NONE',  ( 1.505952737535038500E-013, -1198.499999999999800, 1000.000000000000000 ) ) ;
#15 = CARTESIAN_POINT ( 'NONE',  ( -29.50000000000000400, 1.137341032697577200, 1000.000000000000000 ) ) ;
#16 = PLANE ( 'NONE',  #144 ) ;
#17 = CARTESIAN_POINT ( 'NONE',  ( 29.50000000000000700, 1.137341032697584600, -1000.000000000000000 ) ) ;
#18 = CARTESIAN_POINT ( 'NONE',  ( 27.99999999999997200, -5.862658967302418300, -1000.000000000000000 ) ) ;
#19 = CARTESIAN_POINT ( 'NONE',  ( 29.50000000000000700, -5.862658967302427200, 1000.000000000000000 ) ) ;
#20 = EDGE_CURVE ( 'NONE', #176, #172, #186, .T. ) ;
#21 = CARTESIAN_POINT ( 'NONE',  ( -27.99999999999996100, -5.862658967302424500, 1000.000000000000000 ) ) ;
#22 = CARTESIAN_POINT ( 'NONE',  ( -29.50000000000000400, -5.862658967302425400, 1000.000000000000000 ) ) ;
#23 = CARTESIAN_POINT ( 'NONE',  ( 28.00000000000001400, -0.3271201533561127800, 1000.000000000000000 ) ) ;
#24 = APPLICATION_CONTEXT ( 'automotive_design' ) ;
#25 = CARTESIAN_POINT ( 'NONE',  ( 27.99999999999997200, -5.862658967302418300, 1000.000000000000000 ) ) ;
#26 = EDGE_CURVE ( 'NONE', #260, #172, #268, .T. ) ;
#27 = EDGE_CURVE ( 'NONE', #233, #251, #271, .T. ) ;
#28 = APPLICATION_PROTOCOL_DEFINITION ( 'draft international standard', 'automotive_design', 1998, #24 ) ;
#29 = CARTESIAN_POINT ( 'NONE',  ( -29.50000000000000400, 1.137341032697577200, -1000.000000000000000 ) ) ;
#30 = CARTESIAN_POINT ( 'NONE',  ( 28.00000000000001400, -0.3271201533561127800, -1000.000000000000000 ) ) ;
#31 = EDGE_CURVE ( 'NONE', #251, #199, #276, .T. ) ;
#32 = CARTESIAN_POINT ( 'NONE',  ( 29.50000000000000700, -5.862658967302427200, 1000.000000000000000 ) ) ;
#33 = EDGE_CURVE ( 'NONE', #240, #176, #279, .T. ) ;
#34 = CARTESIAN_POINT ( 'NONE',  ( 29.50000000000000700, 1.137341032697584600, 1000.000000000000000 ) ) ;
#35 = CARTESIAN_POINT ( 'NONE',  ( -27.99999999999989300, -0.3271201533561196600, 1000.000000000000000 ) ) ;
#36 = DIRECTION ( 'NONE',  ( 1.000000000000000000, 0.0000000000000000000, -0.0000000000000000000 ) ) ;
#37 = EDGE_CURVE ( 'NONE', #256, #181, #280, .T. ) ;
#38 = CARTESIAN_POINT ( 'NONE',  ( -29.50000000000000400, 1.137341032697577200, 1000.000000000000000 ) ) ;
#39 = PLANE ( 'NONE',  #76 ) ;
#40 = CARTESIAN_POINT ( 'NONE',  ( -27.99999999999996100, -5.862658967302424500, -1000.000000000000000 ) ) ;
#41 = EDGE_CURVE ( 'NONE', #115, #161, #273, .T. ) ;
#42 = DIRECTION ( 'NONE',  ( 0.0000000000000000000, 0.0000000000000000000, 1.000000000000000000 ) ) ;
#43 = DIRECTION ( 'NONE',  ( -0.0000000000000000000, 0.0000000000000000000, -1.000000000000000000 ) ) ;
#44 = EDGE_CURVE ( 'NONE', #181, #115, #283, .T. ) ;
#45 = CARTESIAN_POINT ( 'NONE',  ( -28.00000000000000700, -0.3271201533561196600, 1000.000000000000000 ) ) ;
#46 =( GEOMETRIC_REPRESENTATION_CONTEXT ( 3 ) GLOBAL_UNCERTAINTY_ASSIGNED_CONTEXT ( ( #79 ) ) GLOBAL_UNIT_ASSIGNED_CONTEXT ( ( #54, #112, #78 ) ) REPRESENTATION_CONTEXT ( 'NONE', 'WORKASPACE' ) );
#47 = EDGE_CURVE ( 'NONE', #177, #253, #284, .T. ) ;
#48 = EDGE_CURVE ( 'NONE', #237, #115, #288, .T. ) ;
#49 = EDGE_CURVE ( 'NONE', #251, #197, #289, .T. ) ;
#50 = DIRECTION ( 'NONE',  ( 7.521104055589268000E-015, 1.000000000000000000, 0.0000000000000000000 ) ) ;
#51 =( LENGTH_UNIT ( ) NAMED_UNIT ( * ) SI_UNIT ( .MILLI., .METRE. ) );
#52 = EDGE_CURVE ( 'NONE', #233, #161, #286, .T. ) ;
#53 = EDGE_CURVE ( 'NONE', #177, #256, #292, .T. ) ;
#54 =( LENGTH_UNIT ( ) NAMED_UNIT ( * ) SI_UNIT ( .MILLI., .METRE. ) );
#55 = EDGE_CURVE ( 'NONE', #172, #256, #297, .T. ) ;
#56 = MECHANICAL_DESIGN_GEOMETRIC_PRESENTATION_REPRESENTATION (  '', ( #106 ), #128 ) ;
#57 = PLANE ( 'NONE',  #108 ) ;
#58 = DIRECTION ( 'NONE',  ( -0.0000000000000000000, -0.0000000000000000000, -1.000000000000000000 ) ) ;
#59 = DIRECTION ( 'NONE',  ( 1.000000000000000000, -7.521104055589268000E-015, 0.0000000000000000000 ) ) ;
#60 = DIRECTION ( 'NONE',  ( 1.000000000000000000, 5.782411586589204800E-016, 0.0000000000000000000 ) ) ;
#61 = DIRECTION ( 'NONE',  ( -1.000000000000000000, -8.147862726888376200E-015, 0.0000000000000000000 ) ) ;
#62 = EDGE_CURVE ( 'NONE', #199, #231, #299, .T. ) ;
#63 = EDGE_CURVE ( 'NONE', #231, #260, #294, .T. ) ;
#64 = CARTESIAN_POINT ( 'NONE',  ( 29.50000000000000700, -5.862658967302427200, -1000.000000000000000 ) ) ;
#65 = AXIS2_PLACEMENT_3D ( 'NONE', #219, #221, #216 ) ;
#66 = DIRECTION ( 'NONE',  ( -1.000000000000000000, 5.782411586589219200E-015, 0.0000000000000000000 ) ) ;
#67 = DIRECTION ( 'NONE',  ( 5.782411586589219200E-015, 1.000000000000000000, -0.0000000000000000000 ) ) ;
#68 = EDGE_CURVE ( 'NONE', #197, #231, #304, .T. ) ;
#69 = EDGE_CURVE ( 'NONE', #253, #237, #306, .T. ) ;
#70 = AXIS2_PLACEMENT_3D ( 'NONE', #90, #151, #267 ) ;
#71 = DIRECTION ( 'NONE',  ( -1.000000000000000000, 0.0000000000000000000, 0.0000000000000000000 ) ) ;
#72 = ADVANCED_FACE ( 'NONE', ( #313 ), #74, .T. ) ;
#73 = DIRECTION ( 'NONE',  ( 1.000000000000000000, 0.0000000000000000000, -0.0000000000000000000 ) ) ;
#74 = PLANE ( 'NONE',  #83 ) ;
#75 = AXIS2_PLACEMENT_3D ( 'NONE', #111, #58, #99 ) ;
#76 = AXIS2_PLACEMENT_3D ( 'NONE', #45, #61, #225 ) ;
#77 = STYLED_ITEM ( 'NONE', ( #162 ), #336 ) ;
#78 =( NAMED_UNIT ( * ) SI_UNIT ( $, .STERADIAN. ) SOLID_ANGLE_UNIT ( ) );
#79 = UNCERTAINTY_MEASURE_WITH_UNIT (LENGTH_MEASURE( 1.000000000000000100E-005 ), #54, 'distance_accuracy_value', 'NONE');
#80 = EDGE_CURVE ( 'NONE', #240, #260, #314, .T. ) ;
#81 = MECHANICAL_DESIGN_GEOMETRIC_PRESENTATION_REPRESENTATION (  '', ( #77 ), #122 ) ;
#82 = DIRECTION ( 'NONE',  ( 1.000000000000000000, 0.0000000000000000000, 0.0000000000000000000 ) ) ;
#83 = AXIS2_PLACEMENT_3D ( 'NONE', #212, #213, #202 ) ;
#84 = DIRECTION ( 'NONE',  ( -7.521104055589268000E-015, -1.000000000000000000, 0.0000000000000000000 ) ) ;
#85 = AXIS2_PLACEMENT_3D ( 'NONE', #184, #159, #150 ) ;
#86 = PLANE ( 'NONE',  #129 ) ;
#87 = EDGE_CURVE ( 'NONE', #253, #181, #308, .T. ) ;
#88 = CARTESIAN_POINT ( 'NONE',  ( -29.50000000000000400, -5.862658967302425400, -1000.000000000000000 ) ) ;
#89 = ADVANCED_FACE ( 'NONE', ( #319 ), #167, .F. ) ;
#90 = CARTESIAN_POINT ( 'NONE',  ( 1.505952737535038500E-013, -1198.499999999999800, -1000.000000000000000 ) ) ;
#91 = AXIS2_PLACEMENT_3D ( 'NONE', #154, #148, #145 ) ;
#92 = PRESENTATION_LAYER_ASSIGNMENT (  '', '', ( #106 ) ) ;
#93 =( LENGTH_UNIT ( ) NAMED_UNIT ( * ) SI_UNIT ( .MILLI., .METRE. ) );
#94 = AXIS2_PLACEMENT_3D ( 'NONE', #149, #113, #73 ) ;
#95 = DIRECTION ( 'NONE',  ( -0.0000000000000000000, -0.0000000000000000000, -1.000000000000000000 ) ) ;
#96 =( NAMED_UNIT ( * ) PLANE_ANGLE_UNIT ( ) SI_UNIT ( $, .RADIAN. ) );
#97 = AXIS2_PLACEMENT_3D ( 'NONE', #309, #2, #82 ) ;
#98 = DIRECTION ( 'NONE',  ( 0.0000000000000000000, -1.000000000000000000, 0.0000000000000000000 ) ) ;
#99 = DIRECTION ( 'NONE',  ( -1.000000000000000000, 0.0000000000000000000, 0.0000000000000000000 ) ) ;
#100 = DIRECTION ( 'NONE',  ( 1.000000000000000000, -5.782411586589219200E-015, -0.0000000000000000000 ) ) ;
#101 = FILL_AREA_STYLE ('',( #243 ) ) ;
#102 = CARTESIAN_POINT ( 'NONE',  ( -29.50000000000000400, -5.862658967302425400, 1000.000000000000000 ) ) ;
#103 = ADVANCED_FACE ( 'NONE', ( #317 ), #200, .F. ) ;
#104 = AXIS2_PLACEMENT_3D ( 'NONE', #135, #254, #120 ) ;
#105 = ADVANCED_FACE ( 'NONE', ( #320 ), #139, .F. ) ;
#106 = STYLED_ITEM ( 'NONE', ( #201 ), #266 ) ;
#107 = EDGE_CURVE ( 'NONE', #161, #197, #321, .T. ) ;
#108 = AXIS2_PLACEMENT_3D ( 'NONE', #38, #36, #43 ) ;
#109 = EDGE_CURVE ( 'NONE', #176, #177, #312, .T. ) ;
#110 = AXIS2_PLACEMENT_3D ( 'NONE', #14, #8, #71 ) ;
#111 = CARTESIAN_POINT ( 'NONE',  ( 1.505952737535038500E-013, -1198.499999999999800, 1000.000000000000000 ) ) ;
#112 =( NAMED_UNIT ( * ) PLANE_ANGLE_UNIT ( ) SI_UNIT ( $, .RADIAN. ) );
#113 = DIRECTION ( 'NONE',  ( 0.0000000000000000000, 0.0000000000000000000, 1.000000000000000000 ) ) ;
#114 = EDGE_LOOP ( 'NONE', ( #227, #247, #171, #165 ) ) ;
#115 = VERTEX_POINT ( 'NONE', #10 ) ;
#116 = CARTESIAN_POINT ( 'NONE',  ( 29.50000000000000700, -5.862658967302427200, 1000.000000000000000 ) ) ;
#117 = ORIENTED_EDGE ( 'NONE', *, *, #62, .F. ) ;
#118 = ORIENTED_EDGE ( 'NONE', *, *, #49, .T. ) ;
#119 = PRODUCT_DEFINITION_FORMATION_WITH_SPECIFIED_SOURCE ( 'ANY', '', #138, .NOT_KNOWN. ) ;
#120 = DIRECTION ( 'NONE',  ( 1.000000000000000000, 0.0000000000000000000, 0.0000000000000000000 ) ) ;
#121 = APPLICATION_CONTEXT ( 'automotive_design' ) ;
#122 =( GEOMETRIC_REPRESENTATION_CONTEXT ( 3 ) GLOBAL_UNCERTAINTY_ASSIGNED_CONTEXT ( ( #163 ) ) GLOBAL_UNIT_ASSIGNED_CONTEXT ( ( #93, #96, #296 ) ) REPRESENTATION_CONTEXT ( 'NONE', 'WORKASPACE' ) );
#123 = PRESENTATION_LAYER_ASSIGNMENT (  '', '', ( #77 ) ) ;
#124 = CARTESIAN_POINT ( 'NONE',  ( 29.50000000000000700, -5.862658967302427200, -1000.000000000000000 ) ) ;
#125 = CARTESIAN_POINT ( 'NONE',  ( -28.00000000000000700, -0.3271201533561196600, 1000.000000000000000 ) ) ;
#126 = AXIS2_PLACEMENT_3D ( 'NONE', #215, #42, #318 ) ;
#127 = DIRECTION ( 'NONE',  ( -8.147862726888376200E-015, 1.000000000000000000, -0.0000000000000000000 ) ) ;
#128 =( GEOMETRIC_REPRESENTATION_CONTEXT ( 3 ) GLOBAL_UNCERTAINTY_ASSIGNED_CONTEXT ( ( #132 ) ) GLOBAL_UNIT_ASSIGNED_CONTEXT ( ( #51, #164, #130 ) ) REPRESENTATION_CONTEXT ( 'NONE', 'WORKASPACE' ) );
#129 = AXIS2_PLACEMENT_3D ( 'NONE', #9, #59, #50 ) ;
#130 =( NAMED_UNIT ( * ) SI_UNIT ( $, .STERADIAN. ) SOLID_ANGLE_UNIT ( ) );
#131 = DIRECTION ( 'NONE',  ( -0.0000000000000000000, -0.0000000000000000000, -1.000000000000000000 ) ) ;
#132 = UNCERTAINTY_MEASURE_WITH_UNIT (LENGTH_MEASURE( 1.000000000000000100E-005 ), #51, 'distance_accuracy_value', 'NONE');
#133 = PRODUCT_DEFINITION ( 'UNKNOWN', '', #119, #211 ) ;
#134 = EDGE_CURVE ( 'NONE', #237, #233, #262, .T. ) ;
#135 = CARTESIAN_POINT ( 'NONE',  ( 1.505952737535038500E-013, -1198.499999999999800, 1000.000000000000000 ) ) ;
#136 = DIRECTION ( 'NONE',  ( 1.000000000000000000, 5.782411586589204800E-016, 0.0000000000000000000 ) ) ;
#137 = CARTESIAN_POINT ( 'NONE',  ( -29.50000000000000400, 1.137341032697577200, 1000.000000000000000 ) ) ;
#138 = PRODUCT ( 'ÀÃÈÅ 010.00.02.002_Êðûøêà 60', 'ÀÃÈÅ 010.00.02.002_Êðûøêà 60', '', ( #334 ) ) ;
#139 = PLANE ( 'NONE',  #94 ) ;
#140 = DIRECTION ( 'NONE',  ( -0.0000000000000000000, -0.0000000000000000000, -1.000000000000000000 ) ) ;
#141 = ADVANCED_FACE ( 'NONE', ( #242 ), #206, .F. ) ;
#142 = CARTESIAN_POINT ( 'NONE',  ( 29.50000000000000700, 1.137341032697584600, 1000.000000000000000 ) ) ;
#143 = CARTESIAN_POINT ( 'NONE',  ( 29.50000000000000700, 1.137341032697584600, -1000.000000000000000 ) ) ;
#144 = AXIS2_PLACEMENT_3D ( 'NONE', #13, #67, #66 ) ;
#145 = DIRECTION ( 'NONE',  ( 0.0000000000000000000, 0.0000000000000000000, 1.000000000000000000 ) ) ;
#146 = ORIENTED_EDGE ( 'NONE', *, *, #55, .T. ) ;
#147 = ORIENTED_EDGE ( 'NONE', *, *, #47, .T. ) ;
#148 = DIRECTION ( 'NONE',  ( -1.000000000000000000, 0.0000000000000000000, 0.0000000000000000000 ) ) ;
#149 = CARTESIAN_POINT ( 'NONE',  ( 1.505952737535038500E-013, -1198.499999999999800, -1000.000000000000000 ) ) ;
#150 = DIRECTION ( 'NONE',  ( -1.000000000000000000, -5.782411586589204800E-016, 0.0000000000000000000 ) ) ;
#151 = DIRECTION ( 'NONE',  ( 0.0000000000000000000, 0.0000000000000000000, 1.000000000000000000 ) ) ;
#152 = CARTESIAN_POINT ( 'NONE',  ( 28.00000000000001400, -0.3271201533561127800, 1000.000000000000000 ) ) ;
#153 = DIRECTION ( 'NONE',  ( -0.0000000000000000000, -0.0000000000000000000, -1.000000000000000000 ) ) ;
#154 = CARTESIAN_POINT ( 'NONE',  ( 29.50000000000000700, 1.137341032697584600, 1000.000000000000000 ) ) ;
#155 = PRODUCT_RELATED_PRODUCT_CATEGORY ( 'part', '', ( #138 ) ) ;
#156 = SURFACE_STYLE_FILL_AREA ( #101 ) ;
#157 = EDGE_LOOP ( 'NONE', ( #170, #173, #330, #185 ) ) ;
#158 = SHAPE_DEFINITION_REPRESENTATION ( #192, #336 ) ;
#159 = DIRECTION ( 'NONE',  ( -5.782411586589204800E-016, 1.000000000000000000, 0.0000000000000000000 ) ) ;
#160 = ORIENTED_EDGE ( 'NONE', *, *, #41, .T. ) ;
#161 = VERTEX_POINT ( 'NONE', #40 ) ;
#162 = PRESENTATION_STYLE_ASSIGNMENT (( #291 ) ) ;
#163 = UNCERTAINTY_MEASURE_WITH_UNIT (LENGTH_MEASURE( 1.000000000000000100E-005 ), #93, 'distance_accuracy_value', 'NONE');
#164 =( NAMED_UNIT ( * ) PLANE_ANGLE_UNIT ( ) SI_UNIT ( $, .RADIAN. ) );
#165 = ORIENTED_EDGE ( 'NONE', *, *, #53, .T. ) ;
#166 = ORIENTED_EDGE ( 'NONE', *, *, #107, .F. ) ;
#167 = PLANE ( 'NONE',  #85 ) ;
#168 = ORIENTED_EDGE ( 'NONE', *, *, #26, .T. ) ;
#169 = ORIENTED_EDGE ( 'NONE', *, *, #55, .F. ) ;
#170 = ORIENTED_EDGE ( 'NONE', *, *, #63, .T. ) ;
#171 = ORIENTED_EDGE ( 'NONE', *, *, #47, .F. ) ;
#172 = VERTEX_POINT ( 'NONE', #64 ) ;
#173 = ORIENTED_EDGE ( 'NONE', *, *, #80, .F. ) ;
#174 = ORIENTED_EDGE ( 'NONE', *, *, #31, .F. ) ;
#175 = ORIENTED_EDGE ( 'NONE', *, *, #27, .T. ) ;
#176 = VERTEX_POINT ( 'NONE', #32 ) ;
#177 = VERTEX_POINT ( 'NONE', #34 ) ;
#178 = EDGE_LOOP ( 'NONE', ( #160, #246, #182, #250 ) ) ;
#179 = DIRECTION ( 'NONE',  ( -0.0000000000000000000, -0.0000000000000000000, -1.000000000000000000 ) ) ;
#180 = EDGE_LOOP ( 'NONE', ( #232, #255, #264, #190 ) ) ;
#181 = VERTEX_POINT ( 'NONE', #29 ) ;
#182 = ORIENTED_EDGE ( 'NONE', *, *, #134, .F. ) ;
#183 = CARTESIAN_POINT ( 'NONE',  ( 27.99999999999997200, -5.862658967302418300, 1000.000000000000000 ) ) ;
#184 = CARTESIAN_POINT ( 'NONE',  ( -29.50000000000000400, -5.862658967302425400, 1000.000000000000000 ) ) ;
#185 = ORIENTED_EDGE ( 'NONE', *, *, #62, .T. ) ;
#186 = LINE ( 'NONE', #19, #272 ) ;
#187 = ORIENTED_EDGE ( 'NONE', *, *, #63, .F. ) ;
#188 = EDGE_LOOP ( 'NONE', ( #226, #191, #203, #236 ) ) ;
#189 = ORIENTED_EDGE ( 'NONE', *, *, #20, .F. ) ;
#190 = ORIENTED_EDGE ( 'NONE', *, *, #52, .T. ) ;
#191 = ORIENTED_EDGE ( 'NONE', *, *, #48, .F. ) ;
#192 = PRODUCT_DEFINITION_SHAPE ( 'NONE', 'NONE',  #133 ) ;
#193 = DIRECTION ( 'NONE',  ( 1.000000000000000000, -5.782411586589219200E-015, -0.0000000000000000000 ) ) ;
#194 = CARTESIAN_POINT ( 'NONE',  ( -27.99999999999989300, -0.3271201533561196600, 1000.000000000000000 ) ) ;
#195 = ORIENTED_EDGE ( 'NONE', *, *, #41, .F. ) ;
#196 = ORIENTED_EDGE ( 'NONE', *, *, #109, .T. ) ;
#197 = VERTEX_POINT ( 'NONE', #198 ) ;
#198 = CARTESIAN_POINT ( 'NONE',  ( -27.99999999999989300, -0.3271201533561196600, -1000.000000000000000 ) ) ;
#199 = VERTEX_POINT ( 'NONE', #23 ) ;
#200 = PLANE ( 'NONE',  #91 ) ;
#201 = PRESENTATION_STYLE_ASSIGNMENT (( #301 ) ) ;
#202 = DIRECTION ( 'NONE',  ( 1.000000000000000000, 0.0000000000000000000, -0.0000000000000000000 ) ) ;
#203 = ORIENTED_EDGE ( 'NONE', *, *, #69, .F. ) ;
#204 = COLOUR_RGB ( '',1.000000000000000000, 1.000000000000000000, 1.000000000000000000 ) ;
#205 = VECTOR ( 'NONE', #60, 1000.000000000000000 ) ;
#206 = CYLINDRICAL_SURFACE ( 'NONE', #110, 1198.499999999999800 ) ;
#207 = FACE_OUTER_BOUND ( 'NONE', #188, .T. ) ;
#208 = FACE_OUTER_BOUND ( 'NONE', #157, .T. ) ;
#209 = CARTESIAN_POINT ( 'NONE',  ( -29.50000000000000400, 1.137341032697577200, -1000.000000000000000 ) ) ;
#210 = SURFACE_STYLE_FILL_AREA ( #6 ) ;
#211 = PRODUCT_DEFINITION_CONTEXT ( 'detailed design', #24, 'design' ) ;
#212 = CARTESIAN_POINT ( 'NONE',  ( 1.505952737535038500E-013, -1198.499999999999800, 1000.000000000000000 ) ) ;
#213 = DIRECTION ( 'NONE',  ( 0.0000000000000000000, 0.0000000000000000000, 1.000000000000000000 ) ) ;
#214 = CARTESIAN_POINT ( 'NONE',  ( -29.50000000000000400, 1.137341032697577200, 1000.000000000000000 ) ) ;
#215 = CARTESIAN_POINT ( 'NONE',  ( 1.505952737535038500E-013, -1198.499999999999800, 1000.000000000000000 ) ) ;
#216 = DIRECTION ( 'NONE',  ( 1.000000000000000000, 0.0000000000000000000, 0.0000000000000000000 ) ) ;
#217 = CLOSED_SHELL ( 'NONE', ( #328, #327, #89, #325, #141, #278, #274, #103, #72, #105 ) ) ;
#218 = CARTESIAN_POINT ( 'NONE',  ( 28.00000000000001400, -0.3271201533561127800, -1000.000000000000000 ) ) ;
#219 = CARTESIAN_POINT ( 'NONE',  ( 1.505952737535038500E-013, -1198.499999999999800, -1000.000000000000000 ) ) ;
#220 = DIRECTION ( 'NONE',  ( -0.0000000000000000000, -0.0000000000000000000, -1.000000000000000000 ) ) ;
#221 = DIRECTION ( 'NONE',  ( -0.0000000000000000000, -0.0000000000000000000, -1.000000000000000000 ) ) ;
#222 = CYLINDRICAL_SURFACE ( 'NONE', #75, 1200.000000000000000 ) ;
#223 = ORIENTED_EDGE ( 'NONE', *, *, #31, .T. ) ;
#224 = ORIENTED_EDGE ( 'NONE', *, *, #44, .F. ) ;
#225 = DIRECTION ( 'NONE',  ( 8.147862726888376200E-015, -1.000000000000000000, 0.0000000000000000000 ) ) ;
#226 = ORIENTED_EDGE ( 'NONE', *, *, #44, .T. ) ;
#227 = ORIENTED_EDGE ( 'NONE', *, *, #37, .T. ) ;
#228 = EDGE_LOOP ( 'NONE', ( #230, #169, #245, #187, #238, #166, #195, #224 ) ) ;
#229 = ORIENTED_EDGE ( 'NONE', *, *, #80, .T. ) ;
#230 = ORIENTED_EDGE ( 'NONE', *, *, #37, .F. ) ;
#231 = VERTEX_POINT ( 'NONE', #30 ) ;
#232 = ORIENTED_EDGE ( 'NONE', *, *, #107, .T. ) ;
#233 = VERTEX_POINT ( 'NONE', #21 ) ;
#234 = EDGE_LOOP ( 'NONE', ( #147, #248, #261, #175, #223, #249, #263, #196 ) ) ;
#235 = EDGE_LOOP ( 'NONE', ( #335, #117, #174, #118 ) ) ;
#236 = ORIENTED_EDGE ( 'NONE', *, *, #87, .T. ) ;
#237 = VERTEX_POINT ( 'NONE', #22 ) ;
#238 = ORIENTED_EDGE ( 'NONE', *, *, #68, .F. ) ;
#239 = DIRECTION ( 'NONE',  ( -0.0000000000000000000, -0.0000000000000000000, -1.000000000000000000 ) ) ;
#240 = VERTEX_POINT ( 'NONE', #25 ) ;
#241 = ORIENTED_EDGE ( 'NONE', *, *, #53, .F. ) ;
#242 = FACE_OUTER_BOUND ( 'NONE', #235, .T. ) ;
#243 = FILL_AREA_STYLE_COLOUR ( '', #204 ) ;
#244 = EDGE_LOOP ( 'NONE', ( #168, #189, #322, #229 ) ) ;
#245 = ORIENTED_EDGE ( 'NONE', *, *, #26, .F. ) ;
#246 = ORIENTED_EDGE ( 'NONE', *, *, #52, .F. ) ;
#247 = ORIENTED_EDGE ( 'NONE', *, *, #87, .F. ) ;
#248 = ORIENTED_EDGE ( 'NONE', *, *, #69, .T. ) ;
#249 = ORIENTED_EDGE ( 'NONE', *, *, #1, .T. ) ;
#250 = ORIENTED_EDGE ( 'NONE', *, *, #48, .T. ) ;
#251 = VERTEX_POINT ( 'NONE', #35 ) ;
#252 = DIRECTION ( 'NONE',  ( -7.521104055589268000E-015, -1.000000000000000000, 0.0000000000000000000 ) ) ;
#253 = VERTEX_POINT ( 'NONE', #15 ) ;
#254 = DIRECTION ( 'NONE',  ( -0.0000000000000000000, -0.0000000000000000000, -1.000000000000000000 ) ) ;
#255 = ORIENTED_EDGE ( 'NONE', *, *, #49, .F. ) ;
#256 = VERTEX_POINT ( 'NONE', #17 ) ;
#257 = EDGE_LOOP ( 'NONE', ( #146, #241, #258, #333 ) ) ;
#258 = ORIENTED_EDGE ( 'NONE', *, *, #109, .F. ) ;
#259 = DIRECTION ( 'NONE',  ( -0.0000000000000000000, -0.0000000000000000000, -1.000000000000000000 ) ) ;
#260 = VERTEX_POINT ( 'NONE', #18 ) ;
#261 = ORIENTED_EDGE ( 'NONE', *, *, #134, .T. ) ;
#262 = LINE ( 'NONE', #7, #205 ) ;
#263 = ORIENTED_EDGE ( 'NONE', *, *, #33, .T. ) ;
#264 = ORIENTED_EDGE ( 'NONE', *, *, #27, .F. ) ;
#265 = DIRECTION ( 'NONE',  ( 0.0000000000000000000, -1.000000000000000000, 0.0000000000000000000 ) ) ;
#266 = MANIFOLD_SOLID_BREP ( 'Âûòÿíóòü1', #217 ) ;
#267 = DIRECTION ( 'NONE',  ( 1.000000000000000000, 0.0000000000000000000, 0.0000000000000000000 ) ) ;
#268 = LINE ( 'NONE', #124, #275 ) ;
#269 = LINE ( 'NONE', #281, #270 ) ;
#270 = VECTOR ( 'NONE', #84, 1000.000000000000000 ) ;
#271 = LINE ( 'NONE', #125, #277 ) ;
#272 = VECTOR ( 'NONE', #239, 1000.000000000000000 ) ;
#273 = LINE ( 'NONE', #88, #285 ) ;
#274 = ADVANCED_FACE ( 'NONE', ( #332 ), #16, .F. ) ;
#275 = VECTOR ( 'NONE', #193, 1000.000000000000000 ) ;
#276 = CIRCLE ( 'NONE', #104, 1198.499999999999800 ) ;
#277 = VECTOR ( 'NONE', #127, 1000.000000000000000 ) ;
#278 = ADVANCED_FACE ( 'NONE', ( #208 ), #86, .F. ) ;
#279 = LINE ( 'NONE', #116, #282 ) ;
#280 = CIRCLE ( 'NONE', #70, 1200.000000000000000 ) ;
#281 = CARTESIAN_POINT ( 'NONE',  ( 28.00000000000001400, -0.3271201533561127800, 1000.000000000000000 ) ) ;
#282 = VECTOR ( 'NONE', #100, 1000.000000000000000 ) ;
#283 = LINE ( 'NONE', #209, #287 ) ;
#284 = CIRCLE ( 'NONE', #126, 1200.000000000000000 ) ;
#285 = VECTOR ( 'NONE', #136, 1000.000000000000000 ) ;
#286 = LINE ( 'NONE', #329, #295 ) ;
#287 = VECTOR ( 'NONE', #98, 1000.000000000000000 ) ;
#288 = LINE ( 'NONE', #102, #290 ) ;
#289 = LINE ( 'NONE', #194, #293 ) ;
#290 = VECTOR ( 'NONE', #131, 1000.000000000000000 ) ;
#291 = SURFACE_STYLE_USAGE ( .BOTH. , #338 ) ;
#292 = LINE ( 'NONE', #307, #298 ) ;
#293 = VECTOR ( 'NONE', #220, 1000.000000000000000 ) ;
#294 = LINE ( 'NONE', #218, #305 ) ;
#295 = VECTOR ( 'NONE', #140, 1000.000000000000000 ) ;
#296 =( NAMED_UNIT ( * ) SI_UNIT ( $, .STERADIAN. ) SOLID_ANGLE_UNIT ( ) );
#297 = LINE ( 'NONE', #143, #300 ) ;
#298 = VECTOR ( 'NONE', #95, 1000.000000000000000 ) ;
#299 = LINE ( 'NONE', #152, #302 ) ;
#300 = VECTOR ( 'NONE', #326, 1000.000000000000000 ) ;
#301 = SURFACE_STYLE_USAGE ( .BOTH. , #3 ) ;
#302 = VECTOR ( 'NONE', #259, 1000.000000000000000 ) ;
#303 = APPLICATION_PROTOCOL_DEFINITION ( 'draft international standard', 'automotive_design', 1998, #121 ) ;
#304 = CIRCLE ( 'NONE', #65, 1198.499999999999800 ) ;
#305 = VECTOR ( 'NONE', #252, 1000.000000000000000 ) ;
#306 = LINE ( 'NONE', #137, #311 ) ;
#307 = CARTESIAN_POINT ( 'NONE',  ( 29.50000000000000700, 1.137341032697584600, 1000.000000000000000 ) ) ;
#308 = LINE ( 'NONE', #214, #316 ) ;
#309 = CARTESIAN_POINT ( 'NONE',  ( 0.0000000000000000000, 0.0000000000000000000, 0.0000000000000000000 ) ) ;
#310 = VECTOR ( 'NONE', #179, 1000.000000000000000 ) ;
#311 = VECTOR ( 'NONE', #265, 1000.000000000000000 ) ;
#312 = LINE ( 'NONE', #142, #323 ) ;
#313 = FACE_OUTER_BOUND ( 'NONE', #234, .T. ) ;
#314 = LINE ( 'NONE', #183, #310 ) ;
#315 = VECTOR ( 'NONE', #11, 1000.000000000000000 ) ;
#316 = VECTOR ( 'NONE', #153, 1000.000000000000000 ) ;
#317 = FACE_OUTER_BOUND ( 'NONE', #257, .T. ) ;
#318 = DIRECTION ( 'NONE',  ( 1.000000000000000000, 0.0000000000000000000, 0.0000000000000000000 ) ) ;
#319 = FACE_OUTER_BOUND ( 'NONE', #178, .T. ) ;
#320 = FACE_OUTER_BOUND ( 'NONE', #228, .T. ) ;
#321 = LINE ( 'NONE', #5, #315 ) ;
#322 = ORIENTED_EDGE ( 'NONE', *, *, #33, .F. ) ;
#323 = VECTOR ( 'NONE', #4, 1000.000000000000000 ) ;
#324 = FACE_OUTER_BOUND ( 'NONE', #180, .T. ) ;
#325 = ADVANCED_FACE ( 'NONE', ( #324 ), #39, .F. ) ;
#326 = DIRECTION ( 'NONE',  ( -0.0000000000000000000, 1.000000000000000000, -0.0000000000000000000 ) ) ;
#327 = ADVANCED_FACE ( 'NONE', ( #207 ), #57, .F. ) ;
#328 = ADVANCED_FACE ( 'NONE', ( #331 ), #222, .T. ) ;
#329 = CARTESIAN_POINT ( 'NONE',  ( -27.99999999999996100, -5.862658967302424500, 1000.000000000000000 ) ) ;
#330 = ORIENTED_EDGE ( 'NONE', *, *, #1, .F. ) ;
#331 = FACE_OUTER_BOUND ( 'NONE', #114, .T. ) ;
#332 = FACE_OUTER_BOUND ( 'NONE', #244, .T. ) ;
#333 = ORIENTED_EDGE ( 'NONE', *, *, #20, .T. ) ;
#334 = PRODUCT_CONTEXT ( 'NONE', #121, 'mechanical' ) ;
#335 = ORIENTED_EDGE ( 'NONE', *, *, #68, .T. ) ;
#336 = ADVANCED_BREP_SHAPE_REPRESENTATION ( 'L+L+ 010.00.02.002_¦¨v°úð 60', ( #266, #97 ), #46 ) ;
#337 = COLOUR_RGB ( '',1.000000000000000000, 1.000000000000000000, 1.000000000000000000 ) ;
#338 = SURFACE_SIDE_STYLE ('',( #156 ) ) ;
ENDSEC;
END-ISO-10303-21;
