  0
SECTION
  2
HEADER
  9
$ACADVER
  1
AC1015
  9
$ACADMAINTVER
 70
     6
  9
$DWGCODEPAGE
  3
ANSI_1251
  9
$INSBASE
 10
0.0
 20
0.0
 30
0.0
  9
$EXTMIN
 10
0.0
 20
0.0
 30
0.0
  9
$EXTMAX
 10
841.0
 20
594.0
 30
0.0
  9
$LIMMIN
 10
0.0
 20
0.0
  9
$LIMMAX
 10
841.0
 20
594.0
  9
$ORTHOMODE
 70
     0
  9
$REGENMODE
 70
     1
  9
$FILLMODE
 70
     1
  9
$QTEXTMODE
 70
     0
  9
$MIRRTEXT
 70
     1
  9
$LTSCALE
 40
1.0
  9
$ATTMODE
 70
     1
  9
$TEXTSIZE
 40
3.5
  9
$TRACEWID
 40
1.0
  9
$TEXTSTYLE
  7
Standard
  9
$CLAYER
  8
0
  9
$CELTYPE
  6
ByLayer
  9
$CECOLOR
 62
   256
  9
$CELTSCALE
 40
1.0
  9
$DISPSILH
 70
     0
  9
$DIMSCALE
 40
1.0
  9
$DIMASZ
 40
3.5
  9
$DIMEXO
 40
0.01
  9
$DIMDLI
 40
3.75
  9
$DIMRND
 40
0.0
  9
$DIMDLE
 40
0.0
  9
$DIMEXE
 40
1.0
  9
$DIMTP
 40
0.0
  9
$DIMTM
 40
0.0
  9
$DIMTXT
 40
3.5
  9
$DIMCEN
 40
2.5
  9
$DIMTSZ
 40
0.0
  9
$DIMTOL
 70
     0
  9
$DIMLIM
 70
     0
  9
$DIMTIH
 70
     1
  9
$DIMTOH
 70
     1
  9
$DIMSE1
 70
     0
  9
$DIMSE2
 70
     0
  9
$DIMTAD
 70
     1
  9
$DIMZIN
 70
     0
  9
$DIMBLK
  1

  9
$DIMASO
 70
     1
  9
$DIMSHO
 70
     1
  9
$DIMPOST
  1

  9
$DIMAPOST
  1

  9
$DIMALT
 70
     0
  9
$DIMALTD
 70
     3
  9
$DIMALTF
 40
0.0393700787
  9
$DIMLFAC
 40
1.0
  9
$DIMTOFL
 70
     1
  9
$DIMTVP
 40
0.0
  9
$DIMTIX
 70
     0
  9
$DIMSOXD
 70
     0
  9
$DIMSAH
 70
     0
  9
$DIMBLK1
  1

  9
$DIMBLK2
  1

  9
$DIMSTYLE
  2
ISO-25
  9
$DIMCLRD
 70
     0
  9
$DIMCLRE
 70
     0
  9
$DIMCLRT
 70
     0
  9
$DIMTFAC
 40
1.0
  9
$DIMGAP
 40
3.0
  9
$DIMJUST
 70
     0
  9
$DIMSD1
 70
     0
  9
$DIMSD2
 70
     0
  9
$DIMTOLJ
 70
     0
  9
$DIMTZIN
 70
     0
  9
$DIMALTZ
 70
     0
  9
$DIMALTTZ
 70
     0
  9
$DIMUPT
 70
     0
  9
$DIMDEC
 70
     2
  9
$DIMTDEC
 70
     3
  9
$DIMALTU
 70
     2
  9
$DIMALTTD
 70
     3
  9
$DIMTXSTY
  7
Standard
  9
$DIMAUNIT
 70
     0
  9
$DIMADEC
 70
     2
  9
$DIMALTRND
 40
0.0
  9
$DIMAZIN
 70
     0
  9
$DIMDSEP
 70
    44
  9
$DIMATFIT
 70
     3
  9
$DIMFRAC
 70
     0
  9
$DIMLDRBLK
  1

  9
$DIMLUNIT
 70
     2
  9
$DIMLWD
 70
    -2
  9
$DIMLWE
 70
    -2
  9
$DIMTMOVE
 70
     0
  9
$LUNITS
 70
     2
  9
$LUPREC
 70
     2
  9
$SKETCHINC
 40
1.0
  9
$FILLETRAD
 40
10.0
  9
$AUNITS
 70
     0
  9
$AUPREC
 70
     2
  9
$MENU
  1
.
  9
$ELEVATION
 40
0.0
  9
$PELEVATION
 40
0.0
  9
$THICKNESS
 40
0.0
  9
$LIMCHECK
 70
     0
  9
$CHAMFERA
 40
0.0
  9
$CHAMFERB
 40
0.0
  9
$CHAMFERC
 40
0.0
  9
$CHAMFERD
 40
0.0
  9
$SKPOLY
 70
     0
  9
$TDCREATE
 40
2459732.495009792
  9
$TDUCREATE
 40
2459732.370009792
  9
$TDUPDATE
 40
2459732.495010822
  9
$TDUUPDATE
 40
2459732.370010822
  9
$TDINDWG
 40
0.0000000116
  9
$TDUSRTIMER
 40
0.0000000116
  9
$USRTIMER
 70
     1
  9
$ANGBASE
 50
0.0
  9
$ANGDIR
 70
     0
  9
$PDMODE
 70
     0
  9
$PDSIZE
 40
-1.0
  9
$PLINEWID
 40
0.0
  9
$SPLFRAME
 70
     0
  9
$SPLINETYPE
 70
     6
  9
$SPLINESEGS
 70
     8
  9
$HANDSEED
  5
2D4
  9
$SURFTAB1
 70
     6
  9
$SURFTAB2
 70
     6
  9
$SURFTYPE
 70
     6
  9
$SURFU
 70
     6
  9
$SURFV
 70
     6
  9
$UCSBASE
  2

  9
$UCSNAME
  2

  9
$UCSORG
 10
0.0
 20
0.0
 30
0.0
  9
$UCSXDIR
 10
1.0
 20
0.0
 30
0.0
  9
$UCSYDIR
 10
0.0
 20
1.0
 30
0.0
  9
$UCSORTHOREF
  2

  9
$UCSORTHOVIEW
 70
     0
  9
$UCSORGTOP
 10
0.0
 20
0.0
 30
0.0
  9
$UCSORGBOTTOM
 10
0.0
 20
0.0
 30
0.0
  9
$UCSORGLEFT
 10
0.0
 20
0.0
 30
0.0
  9
$UCSORGRIGHT
 10
0.0
 20
0.0
 30
0.0
  9
$UCSORGFRONT
 10
0.0
 20
0.0
 30
0.0
  9
$UCSORGBACK
 10
0.0
 20
0.0
 30
0.0
  9
$PUCSBASE
  2

  9
$PUCSNAME
  2

  9
$PUCSORG
 10
0.0
 20
0.0
 30
0.0
  9
$PUCSXDIR
 10
1.0
 20
0.0
 30
0.0
  9
$PUCSYDIR
 10
0.0
 20
1.0
 30
0.0
  9
$PUCSORTHOREF
  2

  9
$PUCSORTHOVIEW
 70
     0
  9
$PUCSORGTOP
 10
0.0
 20
0.0
 30
0.0
  9
$PUCSORGBOTTOM
 10
0.0
 20
0.0
 30
0.0
  9
$PUCSORGLEFT
 10
0.0
 20
0.0
 30
0.0
  9
$PUCSORGRIGHT
 10
0.0
 20
0.0
 30
0.0
  9
$PUCSORGFRONT
 10
0.0
 20
0.0
 30
0.0
  9
$PUCSORGBACK
 10
0.0
 20
0.0
 30
0.0
  9
$USERI1
 70
     0
  9
$USERI2
 70
     0
  9
$USERI3
 70
     0
  9
$USERI4
 70
     0
  9
$USERI5
 70
     0
  9
$USERR1
 40
0.0
  9
$USERR2
 40
0.0
  9
$USERR3
 40
0.0
  9
$USERR4
 40
0.0
  9
$USERR5
 40
0.0
  9
$WORLDVIEW
 70
     1
  9
$SHADEDGE
 70
     3
  9
$SHADEDIF
 70
    70
  9
$TILEMODE
 70
     1
  9
$MAXACTVP
 70
    64
  9
$PINSBASE
 10
0.0
 20
0.0
 30
0.0
  9
$PLIMCHECK
 70
     0
  9
$PEXTMIN
 10
1.0000000000E+20
 20
1.0000000000E+20
 30
1.0000000000E+20
  9
$PEXTMAX
 10
-1.0000000000E+20
 20
-1.0000000000E+20
 30
-1.0000000000E+20
  9
$PLIMMIN
 10
0.0
 20
0.0
  9
$PLIMMAX
 10
420.0
 20
297.0
  9
$UNITMODE
 70
     0
  9
$VISRETAIN
 70
     1
  9
$PLINEGEN
 70
     0
  9
$PSLTSCALE
 70
     1
  9
$TREEDEPTH
 70
  3020
  9
$CMLSTYLE
  2
Standard
  9
$CMLJUST
 70
     0
  9
$CMLSCALE
 40
20.0
  9
$PROXYGRAPHICS
 70
     1
  9
$MEASUREMENT
 70
     1
  9
$CELWEIGHT
370
    -1
  9
$ENDCAPS
280
     0
  9
$JOINSTYLE
280
     0
  9
$LWDISPLAY
290
     1
  9
$INSUNITS
 70
     4
  9
$HYPERLINKBASE
  1

  9
$STYLESHEET
  1

  9
$XEDIT
290
     1
  9
$CEPSNTYPE
380
     0
  9
$PSTYLEMODE
290
     1
  9
$FINGERPRINTGUID
  2
{D22F34F0-8EB3-404A-A85A-92449846C968}
  9
$VERSIONGUID
  2
{FAEB1C32-E019-11D5-929B-00C0DF256EC4}
  9
$EXTNAMES
290
     1
  9
$PSVPSCALE
 40
0.0
  9
$OLESTARTUP
290
     0
  0
ENDSEC
  0
SECTION
  2
CLASSES
  0
CLASS
  1
ACDBDICTIONARYWDFLT
  2
AcDbDictionaryWithDefault
  3
ObjectDBX Classes
 90
        0
280
     0
281
     0
  0
CLASS
  1
VISUALSTYLE
  2
AcDbVisualStyle
  3
ObjectDBX Classes
 90
     4095
280
     0
281
     0
  0
CLASS
  1
MATERIAL
  2
AcDbMaterial
  3
ObjectDBX Classes
 90
     1153
280
     0
281
     0
  0
CLASS
  1
SCALE
  2
AcDbScale
  3
ObjectDBX Classes
 90
     1153
280
     0
281
     0
  0
CLASS
  1
TABLESTYLE
  2
AcDbTableStyle
  3
ObjectDBX Classes
 90
     4095
280
     0
281
     0
  0
CLASS
  1
MLEADERSTYLE
  2
AcDbMLeaderStyle
  3
ACDB_MLEADERSTYLE_CLASS
 90
     4095
280
     0
281
     0
  0
CLASS
  1
SUN
  2
AcDbSun
  3
SCENEOE
 90
     1153
280
     0
281
     0
  0
CLASS
  1
ACDBPLACEHOLDER
  2
AcDbPlaceHolder
  3
ObjectDBX Classes
 90
        0
280
     0
281
     0
  0
CLASS
  1
LAYOUT
  2
AcDbLayout
  3
ObjectDBX Classes
 90
        0
280
     0
281
     0
  0
ENDSEC
  0
SECTION
  2
TABLES
  0
TABLE
  2
VPORT
  5
8
330
0
100
AcDbSymbolTable
 70
     1
  0
VPORT
  5
29
330
8
100
AcDbSymbolTableRecord
100
AcDbViewportTableRecord
  2
*Active
 70
     0
 10
0.0
 20
0.0
 11
1.0
 21
1.0
 12
420.5
 22
297.0
 13
0.0
 23
0.0
 14
10.0
 24
10.0
 15
10.0
 25
10.0
 16
0.0
 26
0.0
 36
1.0
 17
0.0
 27
0.0
 37
0.0
 40
594.0
 41
1.4158249158
 42
50.0
 43
0.0
 44
0.0
 50
0.0
 51
0.0
 71
     0
 72
  2000
 73
     1
 74
     3
 75
     0
 76
     0
 77
     0
 78
     0
281
     0
 65
     1
110
0.0
120
0.0
130
0.0
111
1.0
121
0.0
131
0.0
112
0.0
122
1.0
132
0.0
 79
     0
146
0.0
  0
ENDTAB
  0
TABLE
  2
LTYPE
  5
5
330
0
100
AcDbSymbolTable
 70
     6
  0
LTYPE
  5
14
330
5
100
AcDbSymbolTableRecord
100
AcDbLinetypeTableRecord
  2
ByBlock
 70
     0
  3

 72
    65
 73
     0
 40
0.0
  0
LTYPE
  5
15
330
5
100
AcDbSymbolTableRecord
100
AcDbLinetypeTableRecord
  2
ByLayer
 70
     0
  3

 72
    65
 73
     0
 40
0.0
  0
LTYPE
  5
16
330
5
100
AcDbSymbolTableRecord
100
AcDbLinetypeTableRecord
  2
Continuous
 70
     0
  3
Solid line
 72
    65
 73
     0
 40
0.0
  0
LTYPE
  5
6E
330
5
100
AcDbSymbolTableRecord
100
AcDbLinetypeTableRecord
  2
HIDDEN
 70
     0
  3
Hidden __ __ __ __ __ __ __ __ __ __ __ __ __ __
 72
    65
 73
     2
 40
1.905
 49
1.27
 74
     0
 49
-0.635
 74
     0
  0
LTYPE
  5
6F
330
5
100
AcDbSymbolTableRecord
100
AcDbLinetypeTableRecord
  2
PHANTOM
 70
     0
  3
Phantom ______  __  __  ______  __  __  ______
 72
    65
 73
     6
 40
12.7
 49
6.35
 74
     0
 49
-1.27
 74
     0
 49
1.27
 74
     0
 49
-1.27
 74
     0
 49
1.27
 74
     0
 49
-1.27
 74
     0
  0
LTYPE
  5
70
330
5
100
AcDbSymbolTableRecord
100
AcDbLinetypeTableRecord
  2
CENTER
 70
     0
  3
Center ____ _ ____ _ ____ _ ____ _ ____ _ ____
 72
    65
 73
     4
 40
10.16
 49
6.35
 74
     0
 49
-1.27
 74
     0
 49
1.27
 74
     0
 49
-1.27
 74
     0
  0
LTYPE
  5
71
330
5
100
AcDbSymbolTableRecord
100
AcDbLinetypeTableRecord
  2
CENTERX2
 70
     0
  3
Center (2x) ________  __  ________  __  _____
 72
    65
 73
     4
 40
20.32
 49
12.7
 74
     0
 49
-2.54
 74
     0
 49
2.54
 74
     0
 49
-2.54
 74
     0
  0
LTYPE
  5
72
330
5
100
AcDbSymbolTableRecord
100
AcDbLinetypeTableRecord
  2
DOT2
 70
     0
  3
Dot (.5x) ........................................
 72
    65
 73
     2
 40
0.635
 49
0.0
 74
     0
 49
-0.635
 74
     0
  0
ENDTAB
  0
TABLE
  2
LAYER
  5
2
330
0
100
AcDbSymbolTable
 70
     1
  0
LAYER
  5
10
330
2
100
AcDbSymbolTableRecord
100
AcDbLayerTableRecord
  2
0
 70
     0
 62
     7
  6
Continuous
370
    -3
390
F
  0
ENDTAB
  0
TABLE
  2
STYLE
  5
3
330
0
100
AcDbSymbolTable
 70
     1
  0
STYLE
  5
11
330
3
100
AcDbSymbolTableRecord
100
AcDbTextStyleTableRecord
  2
Standard
 70
     0
 40
0.0
 41
1.0
 50
0.0
 71
     0
 42
3.5
  3
txt
  4

  0
ENDTAB
  0
TABLE
  2
VIEW
  5
6
330
0
100
AcDbSymbolTable
 70
     0
  0
ENDTAB
  0
TABLE
  2
UCS
  5
7
330
0
100
AcDbSymbolTable
 70
     0
  0
ENDTAB
  0
TABLE
  2
APPID
  5
9
330
0
100
AcDbSymbolTable
 70
     1
  0
APPID
  5
12
330
9
100
AcDbSymbolTableRecord
100
AcDbRegAppTableRecord
  2
ACAD
 70
     0
  0
ENDTAB
  0
TABLE
  2
DIMSTYLE
  5
A
330
0
100
AcDbSymbolTable
 70
     1
100
AcDbDimStyleTable
  0
DIMSTYLE
105
27
330
A
100
AcDbSymbolTableRecord
100
AcDbDimStyleTableRecord
  2
ISO-25
 70
     0
 41
2.5
 42
0.625
 43
3.75
 44
1.25
 73
     0
 74
     0
 77
     1
 78
     8
140
2.5
141
2.5
143
0.0393700787
147
0.625
171
     3
172
     1
178
     0
271
     2
272
     2
274
     3
278
    44
283
     0
284
     8
340
11
  0
ENDTAB
  0
TABLE
  2
BLOCK_RECORD
  5
1
330
0
100
AcDbSymbolTable
 70
     1
  0
BLOCK_RECORD
  5
1F
330
1
100
AcDbSymbolTableRecord
100
AcDbBlockTableRecord
  2
*Model_Space
340
22
  0
BLOCK_RECORD
  5
1B
330
1
100
AcDbSymbolTableRecord
100
AcDbBlockTableRecord
  2
*Paper_Space
340
1E
  0
BLOCK_RECORD
  5
23
330
1
100
AcDbSymbolTableRecord
100
AcDbBlockTableRecord
  2
*Paper_Space0
340
26
  0
ENDTAB
  0
ENDSEC
  0
SECTION
  2
BLOCKS
  0
BLOCK
  5
20
330
1F
100
AcDbEntity
  8
0
100
AcDbBlockBegin
  2
*Model_Space
 70
     0
 10
0.0
 20
0.0
 30
0.0
  3
*Model_Space
  1

  0
ENDBLK
  5
21
330
1F
100
AcDbEntity
  8
0
100
AcDbBlockEnd
  0
BLOCK
  5
1C
330
1B
100
AcDbEntity
 67
     1
  8
0
100
AcDbBlockBegin
  2
*Paper_Space
 70
     0
 10
0.0
 20
0.0
 30
0.0
  3
*Paper_Space
  1

  0
ENDBLK
  5
1D
330
1B
100
AcDbEntity
 67
     1
  8
0
100
AcDbBlockEnd
  0
BLOCK
  5
24
330
23
100
AcDbEntity
  8
0
100
AcDbBlockBegin
  2
*Paper_Space0
 70
     0
 10
0.0
 20
0.0
 30
0.0
  3
*Paper_Space0
  1

  0
ENDBLK
  5
25
330
23
100
AcDbEntity
  8
0
100
AcDbBlockEnd
  0
ENDSEC
  0
SECTION
  2
ENTITIES
  0
LINE
  5
73
330
1F
100
AcDbEntity
  8
0
  6
Continuous
 62
     7
370
    25
100
AcDbLine
 10
402.2984085019
 20
1210.9608982551
 30
0.0
 11
402.2984085019
 21
-716.0391017449
 31
0.0
  0
LINE
  5
74
330
1F
100
AcDbEntity
  8
0
  6
Continuous
 62
     7
370
    25
100
AcDbLine
 10
405.1184085019
 20
1210.9608982551
 30
0.0
 11
405.1184085019
 21
-716.0391017449
 31
0.0
  0
LINE
  5
75
330
1F
100
AcDbEntity
  8
0
  6
Continuous
 62
     7
370
    25
100
AcDbLine
 10
405.1184085019
 20
1210.9608982551
 30
0.0
 11
402.2984085019
 21
1210.9608982551
 31
0.0
  0
LINE
  5
76
330
1F
100
AcDbEntity
  8
0
  6
Continuous
 62
     7
370
    25
100
AcDbLine
 10
405.1184085019
 20
-716.0391017449
 30
0.0
 11
402.2984085019
 21
-716.0391017449
 31
0.0
  0
LINE
  5
77
330
1F
100
AcDbEntity
  8
0
  6
Continuous
 62
     7
370
    25
100
AcDbLine
 10
405.1655165182
 20
-716.0391017449
 30
0.0
 11
405.1184085019
 21
-716.0391017449
 31
0.0
  0
LINE
  5
78
330
1F
100
AcDbEntity
  8
0
  6
Continuous
 62
     7
370
    25
100
AcDbLine
 10
405.1655165182
 20
1210.9608982551
 30
0.0
 11
405.1184085019
 21
1210.9608982551
 31
0.0
  0
LINE
  5
79
330
1F
100
AcDbEntity
  8
0
  6
Continuous
 62
     7
370
    25
100
AcDbLine
 10
407.3859871835
 20
-654.5391017449
 30
0.0
 11
407.3859871835
 21
-659.5391017449
 31
0.0
  0
SPLINE
  5
7A
330
1F
100
AcDbEntity
  8
0
  6
Continuous
 62
     7
370
    25
100
AcDbSpline
210
0.0
220
0.0
230
1.0
 70
     8
 71
     3
 72
    26
 73
    22
 74
     0
 42
0.000000001
 43
0.00000001
 40
0.0
 40
0.0
 40
0.0
 40
0.0
 40
0.0553144383367879
 40
0.1106288766735842
 40
0.1659433150103789
 40
0.22125775334717
 40
0.2765721916839686
 40
0.3318866300207622
 40
0.3872010683575536
 40
0.4425155066943462
 40
0.4978299450311406
 40
0.5531443833679329
 40
0.6084588217047261
 40
0.6637732600415197
 40
0.7190876983783107
 40
0.7744021367151086
 40
0.8297165750519007
 40
0.8850310133886907
 40
0.9403454517254882
 40
0.9956598900622726
 40
1.0
 40
1.0
 40
1.0
 40
1.0
 10
407.3859871835138
 20
-659.5391017449293
 30
0.0
 10
407.3883276315682
 20
-659.7155266747804
 30
0.0
 10
407.3930085276771
 20
-660.0683765344831
 30
0.0
 10
407.4305921797962
 20
-660.5855708970035
 30
0.0
 10
407.4896482252881
 20
-661.0788801350418
 30
0.0
 10
407.5710345210854
 20
-661.5370447169253
 30
0.0
 10
407.6723024292486
 20
-661.9496072698337
 30
0.0
 10
407.7912989294461
 20
-662.3071512639807
 30
0.0
 10
407.9252655525156
 20
-662.6015159401445
 30
0.0
 10
408.0711559496621
 20
-662.8259825746863
 30
0.0
 10
408.2256371976576
 20
-662.9754278315415
 30
0.0
 10
408.385184167195
 20
-663.0464406976791
 30
0.0
 10
408.5461550239978
 20
-663.0374003454776
 30
0.0
 10
408.7048758884189
 20
-662.9485130983918
 30
0.0
 10
408.8577235016804
 20
-662.7818078295484
 30
0.0
 10
409.0012111410722
 20
-662.5410892513806
 30
0.0
 10
409.132056526144
 20
-662.2318525766533
 30
0.0
 10
409.2473002248171
 20
-661.8611524888358
 30
0.0
 10
409.3442109184452
 20
-661.4374630376929
 30
0.0
 10
409.397379697
 20
-661.113876305062
 30
0.0
 10
409.4204460299935
 20
-660.9396701535863
 30
0.0
 10
409.4221241991181
 20
-660.926995950678
 30
0.0
  0
SPLINE
  5
7B
330
1F
100
AcDbEntity
  8
0
  6
Continuous
 62
     7
370
    25
100
AcDbSpline
210
0.0
220
0.0
230
1.0
 70
     8
 71
     3
 72
    25
 73
    21
 74
     0
 42
0.000000001
 43
0.00000001
 40
0.0
 40
0.0
 40
0.0
 40
0.0
 40
0.0045942376107406
 40
0.063147517751276
 40
0.1217007978918251
 40
0.1802540780323665
 40
0.2388073581729099
 40
0.2973606383134595
 40
0.3559139184540019
 40
0.4144671985945468
 40
0.4730204787350913
 40
0.5315737588756352
 40
0.590127039016181
 40
0.6486803191567251
 40
0.7072335992972679
 40
0.7657868794378129
 40
0.8243401595783633
 40
0.8828934397189059
 40
0.9414467198594519
 40
1.0
 40
1.0
 40
1.0
 40
1.0
 10
409.4221241991181
 20
1155.848792460819
 30
0.0
 10
409.4204460299935
 20
1155.861466663728
 30
0.0
 10
409.3973796969999
 20
1156.035672815204
 30
0.0
 10
409.3442109184491
 20
1156.359259547833
 30
0.0
 10
409.2473002248036
 20
1156.782948998983
 30
0.0
 10
409.1320565261941
 20
1157.153649086775
 30
0.0
 10
409.0012111408853
 20
1157.462885761596
 30
0.0
 10
408.8577235023781
 20
1157.703604339414
 30
0.0
 10
408.7048758858151
 20
1157.870309609562
 30
0.0
 10
408.5461550337154
 20
1157.959196851777
 30
0.0
 10
408.3851841309283
 20
1157.968237222156
 30
0.0
 10
408.2256373330064
 20
1157.897224288183
 30
0.0
 10
408.0711554445334
 20
1157.747779284491
 30
0.0
 10
407.9252674376817
 20
1157.523311705133
 30
0.0
 10
407.7912918939106
 20
1157.228950555072
 30
0.0
 10
407.6723286862246
 20
1156.871393401326
 30
0.0
 10
407.570936528717
 20
1156.458879960714
 30
0.0
 10
407.4900139377859
 20
1156.000532089243
 30
0.0
 10
407.4292273221736
 20
1155.507906897257
 30
0.0
 10
407.408477271171
 20
1155.161408725832
 30
0.0
 10
407.3981022456697
 20
1154.988159640119
 30
0.0
  0
LINE
  5
7C
330
1F
100
AcDbEntity
  8
0
  6
Continuous
 62
     7
370
    25
100
AcDbLine
 10
407.3981022457
 20
1154.9881596401
 30
0.0
 11
407.3859871835
 21
1154.4608982551
 31
0.0
  0
LINE
  5
7D
330
1F
100
AcDbEntity
  8
0
  6
Continuous
 62
     7
370
    25
100
AcDbLine
 10
407.3859871835
 20
1154.4608982551
 30
0.0
 11
407.3859871835
 21
1149.4608982551
 31
0.0
  0
SPLINE
  5
7E
330
1F
100
AcDbEntity
  8
0
  6
Continuous
 62
     7
370
    25
100
AcDbSpline
210
0.0
220
0.0
230
1.0
 70
     8
 71
     3
 72
    26
 73
    22
 74
     0
 42
0.000000001
 43
0.00000001
 40
0.0
 40
0.0
 40
0.0
 40
0.0
 40
0.0043401099377227
 40
0.059654548274514
 40
0.1149689866113057
 40
0.1702834249481042
 40
0.2255978632848963
 40
0.2809123016216927
 40
0.3362267399584806
 40
0.3915411782952772
 40
0.446855616632067
 40
0.5021700549688607
 40
0.5574844933056547
 40
0.612798931642448
 40
0.6681133699792421
 40
0.7234278083160353
 40
0.7787422466528285
 40
0.8340566849896193
 40
0.8893711233264161
 40
0.9446855616632049
 40
1.0
 40
1.0
 40
1.0
 40
1.0
 10
407.3859871835139
 20
1149.460898255071
 30
0.0
 10
407.3860033832715
 20
1149.447069117727
 30
0.0
 10
407.3862260479579
 20
1149.256988462379
 30
0.0
 10
407.3961165396015
 20
1148.890418573382
 30
0.0
 10
407.4341230097934
 20
1148.374765394609
 30
0.0
 10
407.4953327768409
 20
1147.883789146207
 30
0.0
 10
407.5782576590943
 20
1147.428840020349
 30
0.0
 10
407.6810293488394
 20
1147.020263437832
 30
0.0
 10
407.8012955929805
 20
1146.667395284422
 30
0.0
 10
407.9363131322876
 20
1146.378286821664
 30
0.0
 10
408.0829997762957
 20
1146.159537565072
 30
0.0
 10
408.2380076568305
 20
1146.016140079421
 30
0.0
 10
408.397798563581
 20
1145.951367678399
 30
0.0
 10
408.5587261090853
 20
1145.966697677458
 30
0.0
 10
408.7171144049124
 20
1146.061784164164
 30
0.0
 10
408.8693587578038
 20
1146.234441971635
 30
0.0
 10
409.0119453122577
 20
1146.480785751877
 30
0.0
 10
409.1417649874249
 20
1146.794985786644
 30
0.0
 10
409.2553121332451
 20
1147.170643330674
 30
0.0
 10
409.3520200383756
 20
1147.596300398426
 30
0.0
 10
409.3987561455372
 20
1147.914102832357
 30
0.0
 10
409.4221241991181
 20
1148.073004049322
 30
0.0
  0
SPLINE
  5
7F
330
1F
100
AcDbEntity
  8
0
  6
Continuous
 62
     7
370
    25
100
AcDbSpline
210
0.0
220
0.0
230
1.0
 70
     8
 71
     3
 72
    26
 73
    22
 74
     0
 42
0.000000001
 43
0.00000001
 40
0.0
 40
0.0
 40
0.0
 40
0.0
 40
0.055314438336795
 40
0.1106288766735839
 40
0.1659433150103809
 40
0.2212577533471716
 40
0.2765721916839647
 40
0.3318866300207579
 40
0.387201068357552
 40
0.4425155066943453
 40
0.4978299450311394
 40
0.553144383367933
 40
0.6084588217047229
 40
0.6637732600415196
 40
0.7190876983783073
 40
0.7744021367151038
 40
0.8297165750518958
 40
0.8850310133886943
 40
0.9403454517254861
 40
0.9956598900622773
 40
1.0
 40
1.0
 40
1.0
 40
1.0
 10
409.4221241991181
 20
-653.1512075391807
 30
0.0
 10
409.3987561455372
 20
-652.9923063222153
 30
0.0
 10
409.3520200383756
 20
-652.6745038882848
 30
0.0
 10
409.2553121332451
 20
-652.2488468205335
 30
0.0
 10
409.1417649874249
 20
-651.8731892765027
 30
0.0
 10
409.0119453122577
 20
-651.5589892417362
 30
0.0
 10
408.8693587578038
 20
-651.3126454614937
 30
0.0
 10
408.7171144049124
 20
-651.1399876540225
 30
0.0
 10
408.5587261090853
 20
-651.0449011673168
 30
0.0
 10
408.397798563581
 20
-651.0295711682576
 30
0.0
 10
408.2380076568305
 20
-651.09434356928
 30
0.0
 10
408.0829997762957
 20
-651.2377410549306
 30
0.0
 10
407.9363131322876
 20
-651.4564903115228
 30
0.0
 10
407.8012955929805
 20
-651.7455987742808
 30
0.0
 10
407.6810293488394
 20
-652.0984669276913
 30
0.0
 10
407.5782576590943
 20
-652.5070435102077
 30
0.0
 10
407.4953327768409
 20
-652.9619926360663
 30
0.0
 10
407.4341230097934
 20
-653.4529688844668
 30
0.0
 10
407.3961165396015
 20
-653.968622063241
 30
0.0
 10
407.3862260479579
 20
-654.3351919522364
 30
0.0
 10
407.3860033832715
 20
-654.5252726075861
 30
0.0
 10
407.3859871835139
 20
-654.5391017449294
 30
0.0
  0
LINE
  5
80
330
1F
100
AcDbEntity
  8
0
  6
Continuous
 62
     7
370
    25
100
AcDbLine
 10
409.4221241991
 20
-716.0391017449
 30
0.0
 11
405.1655165182
 21
-716.0391017449
 31
0.0
  0
LINE
  5
81
330
1F
100
AcDbEntity
  8
0
  6
Continuous
 62
     7
370
    25
100
AcDbLine
 10
409.4221241991
 20
1210.9608982551
 30
0.0
 11
405.1655165182
 21
1210.9608982551
 31
0.0
  0
LINE
  5
82
330
1F
100
AcDbEntity
  8
0
  6
Continuous
 62
     7
370
    25
100
AcDbLine
 10
409.4221241991
 20
-660.9269959507
 30
0.0
 11
408.0880754219
 21
-660.9269959507
 31
0.0
  0
SPLINE
  5
83
330
1F
100
AcDbEntity
  8
0
  6
Continuous
 62
     7
370
    25
100
AcDbSpline
210
0.0
220
0.0
230
1.0
 70
     8
 71
     3
 72
     9
 73
     5
 74
     0
 42
0.000000001
 43
0.00000001
 40
0.0
 40
0.0
 40
0.0
 40
0.0
 40
0.2763369937438773
 40
1.0
 40
1.0
 40
1.0
 40
1.0
 10
407.780957356613
 20
-662.198687288857
 30
0.0
 10
407.819105695267
 20
-662.1117979142638
 30
0.0
 10
407.9571557555835
 20
-661.7973652593517
 30
0.0
 10
408.0331100841493
 20
-661.2924119677195
 30
0.0
 10
408.0880754218974
 20
-660.926995950678
 30
0.0
  0
LINE
  5
84
330
1F
100
AcDbEntity
  8
0
  6
Continuous
 62
     7
370
    25
100
AcDbLine
 10
409.4221241991
 20
1148.0730040493
 30
0.0
 11
408.0880754219
 21
1148.0730040493
 31
0.0
  0
SPLINE
  5
85
330
1F
100
AcDbEntity
  8
0
  6
Continuous
 62
     7
370
    25
100
AcDbSpline
210
0.0
220
0.0
230
1.0
 70
     8
 71
     3
 72
     9
 73
     5
 74
     0
 42
0.000000001
 43
0.00000001
 40
0.0
 40
0.0
 40
0.0
 40
0.0
 40
0.2762618181247689
 40
1.0
 40
1.0
 40
1.0
 40
1.0
 10
407.7809212265262
 20
1146.801408597031
 30
0.0
 10
407.8190510348142
 20
1146.888298979148
 30
0.0
 10
407.9570715855616
 20
1147.20282084361
 30
0.0
 10
408.0330714315436
 20
1147.707644148484
 30
0.0
 10
408.0880754218974
 20
1148.073004049322
 30
0.0
  0
LINE
  5
86
330
1F
100
AcDbEntity
  8
0
  6
Continuous
 62
     7
370
    25
100
AcDbLine
 10
409.4221241991
 20
-653.1512075392
 30
0.0
 11
408.0880754219
 21
-653.1512075392
 31
0.0
  0
SPLINE
  5
87
330
1F
100
AcDbEntity
  8
0
  6
Continuous
 62
     7
370
    25
100
AcDbSpline
210
0.0
220
0.0
230
1.0
 70
     8
 71
     3
 72
     9
 73
     5
 74
     0
 42
0.000000001
 43
0.00000001
 40
0.0
 40
0.0
 40
0.0
 40
0.0
 40
0.7237381818752058
 40
1.0
 40
1.0
 40
1.0
 40
1.0
 10
408.0880754218974
 20
-653.1512075391807
 30
0.0
 10
408.0330714315436
 20
-652.7858476383428
 30
0.0
 10
407.9570715855616
 20
-652.2810243334684
 30
0.0
 10
407.8190510348142
 20
-651.9665024690063
 30
0.0
 10
407.7809212265262
 20
-651.8796120868901
 30
0.0
  0
LINE
  5
88
330
1F
100
AcDbEntity
  8
0
  6
Continuous
 62
     7
370
    25
100
AcDbLine
 10
409.4221241991
 20
1155.8487924608
 30
0.0
 11
408.0880754219
 21
1155.8487924608
 31
0.0
  0
SPLINE
  5
89
330
1F
100
AcDbEntity
  8
0
  6
Continuous
 62
     7
370
    25
100
AcDbSpline
210
0.0
220
0.0
230
1.0
 70
     8
 71
     3
 72
     9
 73
     5
 74
     0
 42
0.000000001
 43
0.00000001
 40
0.0
 40
0.0
 40
0.0
 40
0.0
 40
0.6779858513405113
 40
0.9999999999999999
 40
0.9999999999999999
 40
0.9999999999999999
 40
0.9999999999999999
 10
408.0880754218971
 20
1155.84879246082
 30
0.0
 10
408.0360105940098
 20
1156.191931243317
 30
0.0
 10
407.9592172099233
 20
1156.698046204004
 30
0.0
 10
407.8221821838781
 20
1157.02621480726
 30
0.0
 10
407.7780549666297
 20
1157.131889740653
 30
0.0
  0
SPLINE
  5
8A
330
1F
100
AcDbEntity
  8
0
  6
Continuous
 62
     7
370
    25
100
AcDbSpline
210
0.0
220
0.0
230
1.0
 70
     8
 71
     3
 72
     8
 73
     4
 74
     0
 42
0.000000001
 43
0.00000001
 40
0.0
 40
0.0
 40
0.0
 40
0.0
 40
1.0
 40
1.0
 40
1.0
 40
1.0
 10
409.4652224770575
 20
1149.460898255071
 30
0.0
 10
409.448641446532
 20
1148.998266853155
 30
0.0
 10
409.4342409558497
 20
1148.535635451238
 30
0.0
 10
409.4221241991181
 20
1148.073004049322
 30
0.0
  0
SPLINE
  5
8B
330
1F
100
AcDbEntity
  8
0
  6
Continuous
 62
     7
370
    25
100
AcDbSpline
210
0.0
220
0.0
230
1.0
 70
     8
 71
     3
 72
     8
 73
     4
 74
     0
 42
0.000000001
 43
0.00000001
 40
0.0
 40
0.0
 40
0.0
 40
0.0
 40
1.0
 40
1.0
 40
1.0
 40
1.0
 10
408.1915112889522
 20
1149.460898255071
 30
0.0
 10
408.1517168156911
 20
1148.998266853155
 30
0.0
 10
408.1171556380534
 20
1148.535635451238
 30
0.0
 10
408.0880754218974
 20
1148.073004049322
 30
0.0
  0
LINE
  5
8C
330
1F
100
AcDbEntity
  8
0
  6
Continuous
 62
     7
370
    25
100
AcDbLine
 10
408.191511289
 20
1149.4608982551
 30
0.0
 11
409.4652224771
 21
1149.4608982551
 31
0.0
  0
LINE
  5
8D
330
1F
100
AcDbEntity
  8
0
  6
Continuous
 62
     7
370
    25
100
AcDbLine
 10
409.4652224771
 20
1154.4608982551
 30
0.0
 11
409.4652224771
 21
1149.4608982551
 31
0.0
  0
SPLINE
  5
8E
330
1F
100
AcDbEntity
  8
0
  6
Continuous
 62
     7
370
    25
100
AcDbSpline
210
0.0
220
0.0
230
1.0
 70
     8
 71
     3
 72
     8
 73
     4
 74
     0
 42
0.000000001
 43
0.00000001
 40
0.0
 40
0.0
 40
0.0
 40
0.0
 40
1.0
 40
1.0
 40
1.0
 40
1.0
 10
409.4507323835501
 20
1155.16733440418
 30
0.0
 10
409.4553597068204
 20
1154.93185568781
 30
0.0
 10
409.4601908027515
 20
1154.696376971441
 30
0.0
 10
409.4652224770575
 20
1154.460898255071
 30
0.0
  0
SPLINE
  5
8F
330
1F
100
AcDbEntity
  8
0
  6
Continuous
 62
     7
370
    25
100
AcDbSpline
210
0.0
220
0.0
230
1.0
 70
     8
 71
     3
 72
     8
 73
     4
 74
     0
 42
0.000000001
 43
0.00000001
 40
0.0
 40
0.0
 40
0.0
 40
0.0
 40
1.0
 40
1.0
 40
1.0
 40
1.0
 10
409.4221241991181
 20
1155.84879246082
 30
0.0
 10
409.4305640064198
 20
1155.621639919021
 30
0.0
 10
409.4401111415747
 20
1155.394487377223
 30
0.0
 10
409.4507323750758
 20
1155.167334835424
 30
0.0
  0
LINE
  5
90
330
1F
100
AcDbEntity
  8
0
  6
Continuous
 62
     7
370
    25
100
AcDbLine
 10
410.3750161828
 20
1210.9608982551
 30
0.0
 11
409.4221241991
 21
1210.9608982551
 31
0.0
  0
LINE
  5
91
330
1F
100
AcDbEntity
  8
0
  6
Continuous
 62
     7
370
    25
100
AcDbLine
 10
410.3750161828
 20
-716.0391017449
 30
0.0
 11
409.4221241991
 21
-716.0391017449
 31
0.0
  0
SPLINE
  5
92
330
1F
100
AcDbEntity
  8
0
  6
Continuous
 62
     7
370
    25
100
AcDbSpline
210
0.0
220
0.0
230
1.0
 70
     8
 71
     3
 72
     8
 73
     4
 74
     0
 42
0.000000001
 43
0.00000001
 40
0.0
 40
0.0
 40
0.0
 40
0.0
 40
1.0
 40
1.0
 40
1.0
 40
1.0
 10
409.4652224770575
 20
-659.5391017449293
 30
0.0
 10
409.448641446532
 20
-660.0017331468456
 30
0.0
 10
409.4342409558497
 20
-660.4643645487619
 30
0.0
 10
409.4221241991181
 20
-660.9269959506781
 30
0.0
  0
LINE
  5
93
330
1F
100
AcDbEntity
  8
0
  6
Continuous
 62
     7
370
    25
100
AcDbLine
 10
409.4652224771
 20
-654.5391017449
 30
0.0
 11
409.4652224771
 21
-659.5391017449
 31
0.0
  0
SPLINE
  5
94
330
1F
100
AcDbEntity
  8
0
  6
Continuous
 62
     7
370
    25
100
AcDbSpline
210
0.0
220
0.0
230
1.0
 70
     8
 71
     3
 72
     8
 73
     4
 74
     0
 42
0.000000001
 43
0.00000001
 40
0.0
 40
0.0
 40
0.0
 40
0.0
 40
1.0
 40
1.0
 40
1.0
 40
1.0
 10
409.4221241991181
 20
-653.1512075391806
 30
0.0
 10
409.4342409558497
 20
-653.6138389410969
 30
0.0
 10
409.448641446532
 20
-654.0764703430132
 30
0.0
 10
409.4652224770575
 20
-654.5391017449294
 30
0.0
  0
LINE
  5
95
330
1F
100
AcDbEntity
  8
0
  6
Continuous
 62
     7
370
    25
100
AcDbLine
 10
408.1567350645
 20
1155.1673344042
 30
0.0
 11
409.4507323836
 21
1155.1673344042
 31
0.0
  0
SPLINE
  5
96
330
1F
100
AcDbEntity
  8
0
  6
Continuous
 62
     7
370
    25
100
AcDbSpline
210
0.0
220
0.0
230
1.0
 70
     8
 71
     3
 72
     8
 73
     4
 74
     0
 42
0.000000001
 43
0.00000001
 40
0.0
 40
0.0
 40
0.0
 40
0.0
 40
1.0
 40
1.0
 40
1.0
 40
1.0
 10
408.0880754218974
 20
1155.84879246082
 30
0.0
 10
408.1083309594218
 20
1155.621639919021
 30
0.0
 10
408.1312440837934
 20
1155.394487377223
 30
0.0
 10
408.1567350441961
 20
1155.167334835424
 30
0.0
  0
LINE
  5
97
330
1F
100
AcDbEntity
  8
0
  6
Continuous
 62
     7
370
    25
100
AcDbLine
 10
408.191511289
 20
-654.5391017449
 30
0.0
 11
409.4652224771
 21
-654.5391017449
 31
0.0
  0
SPLINE
  5
98
330
1F
100
AcDbEntity
  8
0
  6
Continuous
 62
     7
370
    25
100
AcDbSpline
210
0.0
220
0.0
230
1.0
 70
     8
 71
     3
 72
     8
 73
     4
 74
     0
 42
0.000000001
 43
0.00000001
 40
0.0
 40
0.0
 40
0.0
 40
0.0
 40
1.0
 40
1.0
 40
1.0
 40
1.0
 10
408.0880754218974
 20
-653.1512075391806
 30
0.0
 10
408.1171556380534
 20
-653.6138389410969
 30
0.0
 10
408.1517168156911
 20
-654.0764703430132
 30
0.0
 10
408.1915112889522
 20
-654.5391017449294
 30
0.0
  0
SPLINE
  5
99
330
1F
100
AcDbEntity
  8
0
  6
Continuous
 62
     7
370
    25
100
AcDbSpline
210
0.0
220
0.0
230
1.0
 70
     8
 71
     3
 72
     8
 73
     4
 74
     0
 42
0.000000001
 43
0.00000001
 40
0.0
 40
0.0
 40
0.0
 40
0.0
 40
1.0
 40
1.0
 40
1.0
 40
1.0
 10
408.1915112889522
 20
-659.5391017449293
 30
0.0
 10
408.1517168156911
 20
-660.0017331468456
 30
0.0
 10
408.1171556380534
 20
-660.4643645487619
 30
0.0
 10
408.0880754218974
 20
-660.9269959506781
 30
0.0
  0
LINE
  5
9A
330
1F
100
AcDbEntity
  8
0
  6
Continuous
 62
     7
370
    25
100
AcDbLine
 10
408.191511289
 20
-659.5391017449
 30
0.0
 11
409.4652224771
 21
-659.5391017449
 31
0.0
  0
LINE
  5
9B
330
1F
100
AcDbEntity
  8
0
  6
Continuous
 62
     7
370
    25
100
AcDbLine
 10
408.191511289
 20
1154.4608982551
 30
0.0
 11
409.4652224771
 21
1154.4608982551
 31
0.0
  0
SPLINE
  5
9C
330
1F
100
AcDbEntity
  8
0
  6
Continuous
 62
     7
370
    25
100
AcDbSpline
210
0.0
220
0.0
230
1.0
 70
     8
 71
     3
 72
     8
 73
     4
 74
     0
 42
0.000000001
 43
0.00000001
 40
0.0
 40
0.0
 40
0.0
 40
0.0
 40
1.0
 40
1.0
 40
1.0
 40
1.0
 10
408.1567350645342
 20
1155.16733440418
 30
0.0
 10
408.1678406403832
 20
1154.93185568781
 30
0.0
 10
408.1794352706178
 20
1154.696376971441
 30
0.0
 10
408.1915112889523
 20
1154.460898255071
 30
0.0
  0
LINE
  5
9D
330
1F
100
AcDbEntity
  8
0
  6
Continuous
 62
     7
370
    25
100
AcDbLine
 10
408.191511289
 20
1154.4608982551
 30
0.0
 11
408.191511289
 21
1149.4608982551
 31
0.0
  0
LINE
  5
9E
330
1F
100
AcDbEntity
  8
0
  6
Continuous
 62
     7
370
    25
100
AcDbLine
 10
408.191511289
 20
-654.5391017449
 30
0.0
 11
408.191511289
 21
-659.5391017449
 31
0.0
  0
CIRCLE
  5
9F
330
1F
100
AcDbEntity
  8
0
  6
Continuous
 62
     7
370
    25
100
AcDbCircle
 10
420.2202985656
 20
-702.5391017449
 30
0.0
 40
2.699999999999932
  0
CIRCLE
  5
A0
330
1F
100
AcDbEntity
  8
0
  6
Continuous
 62
     7
370
    25
100
AcDbCircle
 10
420.2202985656
 20
-677.5391017449
 30
0.0
 40
2.699999999999932
  0
CIRCLE
  5
A1
330
1F
100
AcDbEntity
  8
0
  6
Continuous
 62
     7
370
    25
100
AcDbCircle
 10
420.2202985656
 20
-652.5391017449
 30
0.0
 40
2.699999999999932
  0
CIRCLE
  5
A2
330
1F
100
AcDbEntity
  8
0
  6
Continuous
 62
     7
370
    25
100
AcDbCircle
 10
420.2202985656
 20
-627.5391017449
 30
0.0
 40
2.699999999999932
  0
CIRCLE
  5
A3
330
1F
100
AcDbEntity
  8
0
  6
Continuous
 62
     7
370
    25
100
AcDbCircle
 10
420.2202985656
 20
-602.5391017449
 30
0.0
 40
2.699999999999932
  0
CIRCLE
  5
A4
330
1F
100
AcDbEntity
  8
0
  6
Continuous
 62
     7
370
    25
100
AcDbCircle
 10
420.2202985656
 20
-577.5391017449
 30
0.0
 40
2.699999999999932
  0
CIRCLE
  5
A5
330
1F
100
AcDbEntity
  8
0
  6
Continuous
 62
     7
370
    25
100
AcDbCircle
 10
420.2202985656
 20
-552.5391017449
 30
0.0
 40
2.699999999999932
  0
CIRCLE
  5
A6
330
1F
100
AcDbEntity
  8
0
  6
Continuous
 62
     7
370
    25
100
AcDbCircle
 10
420.2202985656
 20
-527.5391017449
 30
0.0
 40
2.699999999999932
  0
CIRCLE
  5
A7
330
1F
100
AcDbEntity
  8
0
  6
Continuous
 62
     7
370
    25
100
AcDbCircle
 10
420.2202985656
 20
-502.5391017449
 30
0.0
 40
2.699999999999932
  0
CIRCLE
  5
A8
330
1F
100
AcDbEntity
  8
0
  6
Continuous
 62
     7
370
    25
100
AcDbCircle
 10
420.2202985656
 20
-477.5391017449
 30
0.0
 40
2.699999999999932
  0
CIRCLE
  5
A9
330
1F
100
AcDbEntity
  8
0
  6
Continuous
 62
     7
370
    25
100
AcDbCircle
 10
420.2202985656
 20
-452.5391017449
 30
0.0
 40
2.699999999999932
  0
CIRCLE
  5
AA
330
1F
100
AcDbEntity
  8
0
  6
Continuous
 62
     7
370
    25
100
AcDbCircle
 10
420.2202985656
 20
-427.5391017449
 30
0.0
 40
2.699999999999932
  0
CIRCLE
  5
AB
330
1F
100
AcDbEntity
  8
0
  6
Continuous
 62
     7
370
    25
100
AcDbCircle
 10
420.2202985656
 20
-402.5391017449
 30
0.0
 40
2.699999999999932
  0
CIRCLE
  5
AC
330
1F
100
AcDbEntity
  8
0
  6
Continuous
 62
     7
370
    25
100
AcDbCircle
 10
420.2202985656
 20
-377.5391017449
 30
0.0
 40
2.699999999999932
  0
CIRCLE
  5
AD
330
1F
100
AcDbEntity
  8
0
  6
Continuous
 62
     7
370
    25
100
AcDbCircle
 10
420.2202985656
 20
-352.5391017449
 30
0.0
 40
2.699999999999932
  0
CIRCLE
  5
AE
330
1F
100
AcDbEntity
  8
0
  6
Continuous
 62
     7
370
    25
100
AcDbCircle
 10
420.2202985656
 20
-327.5391017449
 30
0.0
 40
2.699999999999932
  0
CIRCLE
  5
AF
330
1F
100
AcDbEntity
  8
0
  6
Continuous
 62
     7
370
    25
100
AcDbCircle
 10
420.2202985656
 20
-302.5391017449
 30
0.0
 40
2.699999999999932
  0
CIRCLE
  5
B0
330
1F
100
AcDbEntity
  8
0
  6
Continuous
 62
     7
370
    25
100
AcDbCircle
 10
420.2202985656
 20
-277.5391017449
 30
0.0
 40
2.699999999999932
  0
CIRCLE
  5
B1
330
1F
100
AcDbEntity
  8
0
  6
Continuous
 62
     7
370
    25
100
AcDbCircle
 10
420.2202985656
 20
-252.5391017449
 30
0.0
 40
2.699999999999932
  0
CIRCLE
  5
B2
330
1F
100
AcDbEntity
  8
0
  6
Continuous
 62
     7
370
    25
100
AcDbCircle
 10
420.2202985656
 20
-227.5391017449
 30
0.0
 40
2.699999999999932
  0
CIRCLE
  5
B3
330
1F
100
AcDbEntity
  8
0
  6
Continuous
 62
     7
370
    25
100
AcDbCircle
 10
420.2202985656
 20
-202.5391017449
 30
0.0
 40
2.699999999999932
  0
CIRCLE
  5
B4
330
1F
100
AcDbEntity
  8
0
  6
Continuous
 62
     7
370
    25
100
AcDbCircle
 10
420.2202985656
 20
-177.5391017449
 30
0.0
 40
2.699999999999932
  0
CIRCLE
  5
B5
330
1F
100
AcDbEntity
  8
0
  6
Continuous
 62
     7
370
    25
100
AcDbCircle
 10
420.2202985656
 20
-152.5391017449
 30
0.0
 40
2.699999999999932
  0
CIRCLE
  5
B6
330
1F
100
AcDbEntity
  8
0
  6
Continuous
 62
     7
370
    25
100
AcDbCircle
 10
420.2202985656
 20
-127.5391017449
 30
0.0
 40
2.699999999999932
  0
CIRCLE
  5
B7
330
1F
100
AcDbEntity
  8
0
  6
Continuous
 62
     7
370
    25
100
AcDbCircle
 10
420.2202985656
 20
-102.5391017449
 30
0.0
 40
2.699999999999932
  0
CIRCLE
  5
B8
330
1F
100
AcDbEntity
  8
0
  6
Continuous
 62
     7
370
    25
100
AcDbCircle
 10
420.2202985656
 20
-77.5391017449
 30
0.0
 40
2.699999999999932
  0
CIRCLE
  5
B9
330
1F
100
AcDbEntity
  8
0
  6
Continuous
 62
     7
370
    25
100
AcDbCircle
 10
420.2202985656
 20
-52.5391017449
 30
0.0
 40
2.699999999999932
  0
CIRCLE
  5
BA
330
1F
100
AcDbEntity
  8
0
  6
Continuous
 62
     7
370
    25
100
AcDbCircle
 10
420.2202985656
 20
-27.5391017449
 30
0.0
 40
2.699999999999932
  0
CIRCLE
  5
BB
330
1F
100
AcDbEntity
  8
0
  6
Continuous
 62
     7
370
    25
100
AcDbCircle
 10
420.2202985656
 20
-2.5391017449
 30
0.0
 40
2.699999999999932
  0
CIRCLE
  5
BC
330
1F
100
AcDbEntity
  8
0
  6
Continuous
 62
     7
370
    25
100
AcDbCircle
 10
420.2202985656
 20
22.4608982551
 30
0.0
 40
2.699999999999932
  0
CIRCLE
  5
BD
330
1F
100
AcDbEntity
  8
0
  6
Continuous
 62
     7
370
    25
100
AcDbCircle
 10
420.2202985656
 20
47.4608982551
 30
0.0
 40
2.699999999999932
  0
CIRCLE
  5
BE
330
1F
100
AcDbEntity
  8
0
  6
Continuous
 62
     7
370
    25
100
AcDbCircle
 10
420.2202985656
 20
72.4608982551
 30
0.0
 40
2.699999999999932
  0
CIRCLE
  5
BF
330
1F
100
AcDbEntity
  8
0
  6
Continuous
 62
     7
370
    25
100
AcDbCircle
 10
420.2202985656
 20
97.4608982551
 30
0.0
 40
2.699999999999932
  0
CIRCLE
  5
C0
330
1F
100
AcDbEntity
  8
0
  6
Continuous
 62
     7
370
    25
100
AcDbCircle
 10
420.2202985656
 20
122.4608982551
 30
0.0
 40
2.699999999999932
  0
CIRCLE
  5
C1
330
1F
100
AcDbEntity
  8
0
  6
Continuous
 62
     7
370
    25
100
AcDbCircle
 10
420.2202985656
 20
147.4608982551
 30
0.0
 40
2.699999999999932
  0
CIRCLE
  5
C2
330
1F
100
AcDbEntity
  8
0
  6
Continuous
 62
     7
370
    25
100
AcDbCircle
 10
420.2202985656
 20
172.4608982551
 30
0.0
 40
2.699999999999932
  0
CIRCLE
  5
C3
330
1F
100
AcDbEntity
  8
0
  6
Continuous
 62
     7
370
    25
100
AcDbCircle
 10
420.2202985656
 20
197.4608982551
 30
0.0
 40
2.699999999999932
  0
CIRCLE
  5
C4
330
1F
100
AcDbEntity
  8
0
  6
Continuous
 62
     7
370
    25
100
AcDbCircle
 10
420.2202985656
 20
222.4608982551
 30
0.0
 40
2.699999999999932
  0
CIRCLE
  5
C5
330
1F
100
AcDbEntity
  8
0
  6
Continuous
 62
     7
370
    25
100
AcDbCircle
 10
420.2202985656
 20
247.4608982551
 30
0.0
 40
2.699999999999932
  0
CIRCLE
  5
C6
330
1F
100
AcDbEntity
  8
0
  6
Continuous
 62
     7
370
    25
100
AcDbCircle
 10
420.2202985656
 20
272.4608982551
 30
0.0
 40
2.699999999999932
  0
CIRCLE
  5
C7
330
1F
100
AcDbEntity
  8
0
  6
Continuous
 62
     7
370
    25
100
AcDbCircle
 10
420.2202985656
 20
297.4608982551
 30
0.0
 40
2.699999999999932
  0
CIRCLE
  5
C8
330
1F
100
AcDbEntity
  8
0
  6
Continuous
 62
     7
370
    25
100
AcDbCircle
 10
420.2202985656
 20
322.4608982551
 30
0.0
 40
2.699999999999932
  0
CIRCLE
  5
C9
330
1F
100
AcDbEntity
  8
0
  6
Continuous
 62
     7
370
    25
100
AcDbCircle
 10
420.2202985656
 20
347.4608982551
 30
0.0
 40
2.699999999999932
  0
CIRCLE
  5
CA
330
1F
100
AcDbEntity
  8
0
  6
Continuous
 62
     7
370
    25
100
AcDbCircle
 10
420.2202985656
 20
372.4608982551
 30
0.0
 40
2.699999999999932
  0
CIRCLE
  5
CB
330
1F
100
AcDbEntity
  8
0
  6
Continuous
 62
     7
370
    25
100
AcDbCircle
 10
420.2202985656
 20
397.4608982551
 30
0.0
 40
2.699999999999932
  0
CIRCLE
  5
CC
330
1F
100
AcDbEntity
  8
0
  6
Continuous
 62
     7
370
    25
100
AcDbCircle
 10
420.2202985656
 20
422.4608982551
 30
0.0
 40
2.699999999999932
  0
CIRCLE
  5
CD
330
1F
100
AcDbEntity
  8
0
  6
Continuous
 62
     7
370
    25
100
AcDbCircle
 10
420.2202985656
 20
447.4608982551
 30
0.0
 40
2.699999999999932
  0
CIRCLE
  5
CE
330
1F
100
AcDbEntity
  8
0
  6
Continuous
 62
     7
370
    25
100
AcDbCircle
 10
420.2202985656
 20
472.4608982551
 30
0.0
 40
2.699999999999932
  0
CIRCLE
  5
CF
330
1F
100
AcDbEntity
  8
0
  6
Continuous
 62
     7
370
    25
100
AcDbCircle
 10
420.2202985656
 20
497.4608982551
 30
0.0
 40
2.699999999999932
  0
CIRCLE
  5
D0
330
1F
100
AcDbEntity
  8
0
  6
Continuous
 62
     7
370
    25
100
AcDbCircle
 10
420.2202985656
 20
522.4608982551
 30
0.0
 40
2.699999999999932
  0
CIRCLE
  5
D1
330
1F
100
AcDbEntity
  8
0
  6
Continuous
 62
     7
370
    25
100
AcDbCircle
 10
420.2202985656
 20
547.4608982551
 30
0.0
 40
2.699999999999932
  0
CIRCLE
  5
D2
330
1F
100
AcDbEntity
  8
0
  6
Continuous
 62
     7
370
    25
100
AcDbCircle
 10
420.2202985656
 20
572.4608982551
 30
0.0
 40
2.699999999999932
  0
CIRCLE
  5
D3
330
1F
100
AcDbEntity
  8
0
  6
Continuous
 62
     7
370
    25
100
AcDbCircle
 10
420.2202985656
 20
597.4608982551
 30
0.0
 40
2.699999999999932
  0
CIRCLE
  5
D4
330
1F
100
AcDbEntity
  8
0
  6
Continuous
 62
     7
370
    25
100
AcDbCircle
 10
420.2202985656
 20
622.4608982551
 30
0.0
 40
2.699999999999932
  0
CIRCLE
  5
D5
330
1F
100
AcDbEntity
  8
0
  6
Continuous
 62
     7
370
    25
100
AcDbCircle
 10
420.2202985656
 20
647.4608982551
 30
0.0
 40
2.699999999999932
  0
CIRCLE
  5
D6
330
1F
100
AcDbEntity
  8
0
  6
Continuous
 62
     7
370
    25
100
AcDbCircle
 10
420.2202985656
 20
672.4608982551
 30
0.0
 40
2.699999999999932
  0
CIRCLE
  5
D7
330
1F
100
AcDbEntity
  8
0
  6
Continuous
 62
     7
370
    25
100
AcDbCircle
 10
420.2202985656
 20
697.4608982551
 30
0.0
 40
2.699999999999932
  0
CIRCLE
  5
D8
330
1F
100
AcDbEntity
  8
0
  6
Continuous
 62
     7
370
    25
100
AcDbCircle
 10
420.2202985656
 20
722.4608982551
 30
0.0
 40
2.699999999999932
  0
CIRCLE
  5
D9
330
1F
100
AcDbEntity
  8
0
  6
Continuous
 62
     7
370
    25
100
AcDbCircle
 10
420.2202985656
 20
747.4608982551
 30
0.0
 40
2.699999999999932
  0
CIRCLE
  5
DA
330
1F
100
AcDbEntity
  8
0
  6
Continuous
 62
     7
370
    25
100
AcDbCircle
 10
420.2202985656
 20
772.4608982551
 30
0.0
 40
2.699999999999932
  0
CIRCLE
  5
DB
330
1F
100
AcDbEntity
  8
0
  6
Continuous
 62
     7
370
    25
100
AcDbCircle
 10
420.2202985656
 20
797.4608982551
 30
0.0
 40
2.699999999999932
  0
CIRCLE
  5
DC
330
1F
100
AcDbEntity
  8
0
  6
Continuous
 62
     7
370
    25
100
AcDbCircle
 10
420.2202985656
 20
822.4608982551
 30
0.0
 40
2.699999999999932
  0
CIRCLE
  5
DD
330
1F
100
AcDbEntity
  8
0
  6
Continuous
 62
     7
370
    25
100
AcDbCircle
 10
420.2202985656
 20
847.4608982551
 30
0.0
 40
2.699999999999932
  0
CIRCLE
  5
DE
330
1F
100
AcDbEntity
  8
0
  6
Continuous
 62
     7
370
    25
100
AcDbCircle
 10
420.2202985656
 20
872.4608982551
 30
0.0
 40
2.699999999999932
  0
CIRCLE
  5
DF
330
1F
100
AcDbEntity
  8
0
  6
Continuous
 62
     7
370
    25
100
AcDbCircle
 10
420.2202985656
 20
897.4608982551
 30
0.0
 40
2.699999999999932
  0
CIRCLE
  5
E0
330
1F
100
AcDbEntity
  8
0
  6
Continuous
 62
     7
370
    25
100
AcDbCircle
 10
420.2202985656
 20
922.4608982551
 30
0.0
 40
2.699999999999932
  0
CIRCLE
  5
E1
330
1F
100
AcDbEntity
  8
0
  6
Continuous
 62
     7
370
    25
100
AcDbCircle
 10
420.2202985656
 20
947.4608982551
 30
0.0
 40
2.699999999999932
  0
CIRCLE
  5
E2
330
1F
100
AcDbEntity
  8
0
  6
Continuous
 62
     7
370
    25
100
AcDbCircle
 10
420.2202985656
 20
972.4608982551
 30
0.0
 40
2.699999999999932
  0
CIRCLE
  5
E3
330
1F
100
AcDbEntity
  8
0
  6
Continuous
 62
     7
370
    25
100
AcDbCircle
 10
420.2202985656
 20
997.4608982551
 30
0.0
 40
2.699999999999932
  0
CIRCLE
  5
E4
330
1F
100
AcDbEntity
  8
0
  6
Continuous
 62
     7
370
    25
100
AcDbCircle
 10
420.2202985656
 20
1022.4608982551
 30
0.0
 40
2.699999999999932
  0
CIRCLE
  5
E5
330
1F
100
AcDbEntity
  8
0
  6
Continuous
 62
     7
370
    25
100
AcDbCircle
 10
420.2202985656
 20
1047.4608982551
 30
0.0
 40
2.699999999999932
  0
CIRCLE
  5
E6
330
1F
100
AcDbEntity
  8
0
  6
Continuous
 62
     7
370
    25
100
AcDbCircle
 10
420.2202985656
 20
1072.4608982551
 30
0.0
 40
2.699999999999932
  0
CIRCLE
  5
E7
330
1F
100
AcDbEntity
  8
0
  6
Continuous
 62
     7
370
    25
100
AcDbCircle
 10
420.2202985656
 20
1097.4608982551
 30
0.0
 40
2.699999999999932
  0
CIRCLE
  5
E8
330
1F
100
AcDbEntity
  8
0
  6
Continuous
 62
     7
370
    25
100
AcDbCircle
 10
420.2202985656
 20
1122.4608982551
 30
0.0
 40
2.699999999999932
  0
CIRCLE
  5
E9
330
1F
100
AcDbEntity
  8
0
  6
Continuous
 62
     7
370
    25
100
AcDbCircle
 10
420.2202985656
 20
1147.4608982551
 30
0.0
 40
2.699999999999932
  0
LINE
  5
EA
330
1F
100
AcDbEntity
  8
0
  6
Continuous
 62
     7
370
    25
100
AcDbLine
 10
429.2202985656
 20
1210.9608982551
 30
0.0
 11
410.3750161828
 21
1210.9608982551
 31
0.0
  0
LINE
  5
EB
330
1F
100
AcDbEntity
  8
0
  6
Continuous
 62
     7
370
    25
100
AcDbLine
 10
429.2202985656
 20
1210.9608982551
 30
0.0
 11
429.2202985656
 21
-716.0391017449
 31
0.0
  0
LINE
  5
EC
330
1F
100
AcDbEntity
  8
0
  6
Continuous
 62
     7
370
    25
100
AcDbLine
 10
429.2202985656
 20
-716.0391017449
 30
0.0
 11
410.3750161828
 21
-716.0391017449
 31
0.0
  0
CIRCLE
  5
ED
330
1F
100
AcDbEntity
  8
0
  6
Continuous
 62
     7
370
    25
100
AcDbCircle
 10
420.2202985656
 20
1197.4608982551
 30
0.0
 40
2.699999999999932
  0
CIRCLE
  5
EE
330
1F
100
AcDbEntity
  8
0
  6
Continuous
 62
     7
370
    25
100
AcDbCircle
 10
420.2202985656
 20
1172.4608982551
 30
0.0
 40
2.699999999999932
  0
LINE
  5
EF
330
1F
100
AcDbEntity
  8
0
  6
Continuous
 62
     7
370
    25
100
AcDbLine
 10
424.7202985656
 20
1180.4608982551
 30
0.0
 11
424.7202985656
 21
1189.4608982551
 31
0.0
  0
LINE
  5
F0
330
1F
100
AcDbEntity
  8
0
  6
Continuous
 62
     7
370
    25
100
AcDbLine
 10
424.7202985656
 20
1189.4608982551
 30
0.0
 11
415.7202985656
 21
1189.4608982551
 31
0.0
  0
LINE
  5
F1
330
1F
100
AcDbEntity
  8
0
  6
Continuous
 62
     7
370
    25
100
AcDbLine
 10
415.7202985656
 20
-694.5391017449
 30
0.0
 11
424.7202985656
 21
-694.5391017449
 31
0.0
  0
LINE
  5
F2
330
1F
100
AcDbEntity
  8
0
  6
Continuous
 62
     7
370
    25
100
AcDbLine
 10
424.7202985656
 20
-694.5391017449
 30
0.0
 11
424.7202985656
 21
-685.5391017449
 31
0.0
  0
LINE
  5
F3
330
1F
100
AcDbEntity
  8
0
  6
Continuous
 62
     7
370
    25
100
AcDbLine
 10
424.7202985656
 20
-685.5391017449
 30
0.0
 11
415.7202985656
 21
-685.5391017449
 31
0.0
  0
LINE
  5
F4
330
1F
100
AcDbEntity
  8
0
  6
Continuous
 62
     7
370
    25
100
AcDbLine
 10
424.7202985656
 20
-669.5391017449
 30
0.0
 11
424.7202985656
 21
-660.5391017449
 31
0.0
  0
LINE
  5
F5
330
1F
100
AcDbEntity
  8
0
  6
Continuous
 62
     7
370
    25
100
AcDbLine
 10
424.7202985656
 20
-660.5391017449
 30
0.0
 11
415.7202985656
 21
-660.5391017449
 31
0.0
  0
LINE
  5
F6
330
1F
100
AcDbEntity
  8
0
  6
Continuous
 62
     7
370
    25
100
AcDbLine
 10
415.7202985656
 20
-660.5391017449
 30
0.0
 11
415.7202985656
 21
-669.5391017449
 31
0.0
  0
LINE
  5
F7
330
1F
100
AcDbEntity
  8
0
  6
Continuous
 62
     7
370
    25
100
AcDbLine
 10
424.7202985656
 20
-644.5391017449
 30
0.0
 11
424.7202985656
 21
-635.5391017449
 31
0.0
  0
LINE
  5
F8
330
1F
100
AcDbEntity
  8
0
  6
Continuous
 62
     7
370
    25
100
AcDbLine
 10
424.7202985656
 20
-635.5391017449
 30
0.0
 11
415.7202985656
 21
-635.5391017449
 31
0.0
  0
LINE
  5
F9
330
1F
100
AcDbEntity
  8
0
  6
Continuous
 62
     7
370
    25
100
AcDbLine
 10
424.7202985656
 20
-619.5391017449
 30
0.0
 11
424.7202985656
 21
-610.5391017449
 31
0.0
  0
LINE
  5
FA
330
1F
100
AcDbEntity
  8
0
  6
Continuous
 62
     7
370
    25
100
AcDbLine
 10
424.7202985656
 20
-610.5391017449
 30
0.0
 11
415.7202985656
 21
-610.5391017449
 31
0.0
  0
LINE
  5
FB
330
1F
100
AcDbEntity
  8
0
  6
Continuous
 62
     7
370
    25
100
AcDbLine
 10
424.7202985656
 20
-594.5391017449
 30
0.0
 11
424.7202985656
 21
-585.5391017449
 31
0.0
  0
LINE
  5
FC
330
1F
100
AcDbEntity
  8
0
  6
Continuous
 62
     7
370
    25
100
AcDbLine
 10
424.7202985656
 20
-585.5391017449
 30
0.0
 11
415.7202985656
 21
-585.5391017449
 31
0.0
  0
LINE
  5
FD
330
1F
100
AcDbEntity
  8
0
  6
Continuous
 62
     7
370
    25
100
AcDbLine
 10
415.7202985656
 20
-569.5391017449
 30
0.0
 11
424.7202985656
 21
-569.5391017449
 31
0.0
  0
LINE
  5
FE
330
1F
100
AcDbEntity
  8
0
  6
Continuous
 62
     7
370
    25
100
AcDbLine
 10
424.7202985656
 20
-569.5391017449
 30
0.0
 11
424.7202985656
 21
-560.5391017449
 31
0.0
  0
LINE
  5
FF
330
1F
100
AcDbEntity
  8
0
  6
Continuous
 62
     7
370
    25
100
AcDbLine
 10
424.7202985656
 20
-560.5391017449
 30
0.0
 11
415.7202985656
 21
-560.5391017449
 31
0.0
  0
LINE
  5
100
330
1F
100
AcDbEntity
  8
0
  6
Continuous
 62
     7
370
    25
100
AcDbLine
 10
415.7202985656
 20
-544.5391017449
 30
0.0
 11
424.7202985656
 21
-544.5391017449
 31
0.0
  0
LINE
  5
101
330
1F
100
AcDbEntity
  8
0
  6
Continuous
 62
     7
370
    25
100
AcDbLine
 10
424.7202985656
 20
-544.5391017449
 30
0.0
 11
424.7202985656
 21
-535.5391017449
 31
0.0
  0
LINE
  5
102
330
1F
100
AcDbEntity
  8
0
  6
Continuous
 62
     7
370
    25
100
AcDbLine
 10
424.7202985656
 20
-535.5391017449
 30
0.0
 11
415.7202985656
 21
-535.5391017449
 31
0.0
  0
LINE
  5
103
330
1F
100
AcDbEntity
  8
0
  6
Continuous
 62
     7
370
    25
100
AcDbLine
 10
415.7202985656
 20
-535.5391017449
 30
0.0
 11
415.7202985656
 21
-544.5391017449
 31
0.0
  0
LINE
  5
104
330
1F
100
AcDbEntity
  8
0
  6
Continuous
 62
     7
370
    25
100
AcDbLine
 10
415.7202985656
 20
-519.5391017449
 30
0.0
 11
424.7202985656
 21
-519.5391017449
 31
0.0
  0
LINE
  5
105
330
1F
100
AcDbEntity
  8
0
  6
Continuous
 62
     7
370
    25
100
AcDbLine
 10
424.7202985656
 20
-519.5391017449
 30
0.0
 11
424.7202985656
 21
-510.5391017449
 31
0.0
  0
LINE
  5
106
330
1F
100
AcDbEntity
  8
0
  6
Continuous
 62
     7
370
    25
100
AcDbLine
 10
424.7202985656
 20
-510.5391017449
 30
0.0
 11
415.7202985656
 21
-510.5391017449
 31
0.0
  0
LINE
  5
107
330
1F
100
AcDbEntity
  8
0
  6
Continuous
 62
     7
370
    25
100
AcDbLine
 10
415.7202985656
 20
-510.5391017449
 30
0.0
 11
415.7202985656
 21
-519.5391017449
 31
0.0
  0
LINE
  5
108
330
1F
100
AcDbEntity
  8
0
  6
Continuous
 62
     7
370
    25
100
AcDbLine
 10
415.7202985656
 20
-494.5391017449
 30
0.0
 11
424.7202985656
 21
-494.5391017449
 31
0.0
  0
LINE
  5
109
330
1F
100
AcDbEntity
  8
0
  6
Continuous
 62
     7
370
    25
100
AcDbLine
 10
424.7202985656
 20
-494.5391017449
 30
0.0
 11
424.7202985656
 21
-485.5391017449
 31
0.0
  0
LINE
  5
10A
330
1F
100
AcDbEntity
  8
0
  6
Continuous
 62
     7
370
    25
100
AcDbLine
 10
424.7202985656
 20
-485.5391017449
 30
0.0
 11
415.7202985656
 21
-485.5391017449
 31
0.0
  0
LINE
  5
10B
330
1F
100
AcDbEntity
  8
0
  6
Continuous
 62
     7
370
    25
100
AcDbLine
 10
415.7202985656
 20
-485.5391017449
 30
0.0
 11
415.7202985656
 21
-494.5391017449
 31
0.0
  0
LINE
  5
10C
330
1F
100
AcDbEntity
  8
0
  6
Continuous
 62
     7
370
    25
100
AcDbLine
 10
415.7202985656
 20
-469.5391017449
 30
0.0
 11
424.7202985656
 21
-469.5391017449
 31
0.0
  0
LINE
  5
10D
330
1F
100
AcDbEntity
  8
0
  6
Continuous
 62
     7
370
    25
100
AcDbLine
 10
424.7202985656
 20
-469.5391017449
 30
0.0
 11
424.7202985656
 21
-460.5391017449
 31
0.0
  0
LINE
  5
10E
330
1F
100
AcDbEntity
  8
0
  6
Continuous
 62
     7
370
    25
100
AcDbLine
 10
424.7202985656
 20
-460.5391017449
 30
0.0
 11
415.7202985656
 21
-460.5391017449
 31
0.0
  0
LINE
  5
10F
330
1F
100
AcDbEntity
  8
0
  6
Continuous
 62
     7
370
    25
100
AcDbLine
 10
415.7202985656
 20
-460.5391017449
 30
0.0
 11
415.7202985656
 21
-469.5391017449
 31
0.0
  0
LINE
  5
110
330
1F
100
AcDbEntity
  8
0
  6
Continuous
 62
     7
370
    25
100
AcDbLine
 10
415.7202985656
 20
-444.5391017449
 30
0.0
 11
424.7202985656
 21
-444.5391017449
 31
0.0
  0
LINE
  5
111
330
1F
100
AcDbEntity
  8
0
  6
Continuous
 62
     7
370
    25
100
AcDbLine
 10
424.7202985656
 20
-444.5391017449
 30
0.0
 11
424.7202985656
 21
-435.5391017449
 31
0.0
  0
LINE
  5
112
330
1F
100
AcDbEntity
  8
0
  6
Continuous
 62
     7
370
    25
100
AcDbLine
 10
424.7202985656
 20
-435.5391017449
 30
0.0
 11
415.7202985656
 21
-435.5391017449
 31
0.0
  0
LINE
  5
113
330
1F
100
AcDbEntity
  8
0
  6
Continuous
 62
     7
370
    25
100
AcDbLine
 10
415.7202985656
 20
-435.5391017449
 30
0.0
 11
415.7202985656
 21
-444.5391017449
 31
0.0
  0
LINE
  5
114
330
1F
100
AcDbEntity
  8
0
  6
Continuous
 62
     7
370
    25
100
AcDbLine
 10
415.7202985656
 20
-419.5391017449
 30
0.0
 11
424.7202985656
 21
-419.5391017449
 31
0.0
  0
LINE
  5
115
330
1F
100
AcDbEntity
  8
0
  6
Continuous
 62
     7
370
    25
100
AcDbLine
 10
424.7202985656
 20
-419.5391017449
 30
0.0
 11
424.7202985656
 21
-410.5391017449
 31
0.0
  0
LINE
  5
116
330
1F
100
AcDbEntity
  8
0
  6
Continuous
 62
     7
370
    25
100
AcDbLine
 10
424.7202985656
 20
-410.5391017449
 30
0.0
 11
415.7202985656
 21
-410.5391017449
 31
0.0
  0
LINE
  5
117
330
1F
100
AcDbEntity
  8
0
  6
Continuous
 62
     7
370
    25
100
AcDbLine
 10
415.7202985656
 20
-410.5391017449
 30
0.0
 11
415.7202985656
 21
-419.5391017449
 31
0.0
  0
LINE
  5
118
330
1F
100
AcDbEntity
  8
0
  6
Continuous
 62
     7
370
    25
100
AcDbLine
 10
415.7202985656
 20
-394.5391017449
 30
0.0
 11
424.7202985656
 21
-394.5391017449
 31
0.0
  0
LINE
  5
119
330
1F
100
AcDbEntity
  8
0
  6
Continuous
 62
     7
370
    25
100
AcDbLine
 10
424.7202985656
 20
-394.5391017449
 30
0.0
 11
424.7202985656
 21
-385.5391017449
 31
0.0
  0
LINE
  5
11A
330
1F
100
AcDbEntity
  8
0
  6
Continuous
 62
     7
370
    25
100
AcDbLine
 10
424.7202985656
 20
-385.5391017449
 30
0.0
 11
415.7202985656
 21
-385.5391017449
 31
0.0
  0
LINE
  5
11B
330
1F
100
AcDbEntity
  8
0
  6
Continuous
 62
     7
370
    25
100
AcDbLine
 10
415.7202985656
 20
-385.5391017449
 30
0.0
 11
415.7202985656
 21
-394.5391017449
 31
0.0
  0
LINE
  5
11C
330
1F
100
AcDbEntity
  8
0
  6
Continuous
 62
     7
370
    25
100
AcDbLine
 10
415.7202985656
 20
-369.5391017449
 30
0.0
 11
424.7202985656
 21
-369.5391017449
 31
0.0
  0
LINE
  5
11D
330
1F
100
AcDbEntity
  8
0
  6
Continuous
 62
     7
370
    25
100
AcDbLine
 10
424.7202985656
 20
-369.5391017449
 30
0.0
 11
424.7202985656
 21
-360.5391017449
 31
0.0
  0
LINE
  5
11E
330
1F
100
AcDbEntity
  8
0
  6
Continuous
 62
     7
370
    25
100
AcDbLine
 10
424.7202985656
 20
-360.5391017449
 30
0.0
 11
415.7202985656
 21
-360.5391017449
 31
0.0
  0
LINE
  5
11F
330
1F
100
AcDbEntity
  8
0
  6
Continuous
 62
     7
370
    25
100
AcDbLine
 10
415.7202985656
 20
-360.5391017449
 30
0.0
 11
415.7202985656
 21
-369.5391017449
 31
0.0
  0
LINE
  5
120
330
1F
100
AcDbEntity
  8
0
  6
Continuous
 62
     7
370
    25
100
AcDbLine
 10
415.7202985656
 20
-344.5391017449
 30
0.0
 11
424.7202985656
 21
-344.5391017449
 31
0.0
  0
LINE
  5
121
330
1F
100
AcDbEntity
  8
0
  6
Continuous
 62
     7
370
    25
100
AcDbLine
 10
424.7202985656
 20
-344.5391017449
 30
0.0
 11
424.7202985656
 21
-335.5391017449
 31
0.0
  0
LINE
  5
122
330
1F
100
AcDbEntity
  8
0
  6
Continuous
 62
     7
370
    25
100
AcDbLine
 10
424.7202985656
 20
-335.5391017449
 30
0.0
 11
415.7202985656
 21
-335.5391017449
 31
0.0
  0
LINE
  5
123
330
1F
100
AcDbEntity
  8
0
  6
Continuous
 62
     7
370
    25
100
AcDbLine
 10
415.7202985656
 20
-335.5391017449
 30
0.0
 11
415.7202985656
 21
-344.5391017449
 31
0.0
  0
LINE
  5
124
330
1F
100
AcDbEntity
  8
0
  6
Continuous
 62
     7
370
    25
100
AcDbLine
 10
415.7202985656
 20
-319.5391017449
 30
0.0
 11
424.7202985656
 21
-319.5391017449
 31
0.0
  0
LINE
  5
125
330
1F
100
AcDbEntity
  8
0
  6
Continuous
 62
     7
370
    25
100
AcDbLine
 10
424.7202985656
 20
-319.5391017449
 30
0.0
 11
424.7202985656
 21
-310.5391017449
 31
0.0
  0
LINE
  5
126
330
1F
100
AcDbEntity
  8
0
  6
Continuous
 62
     7
370
    25
100
AcDbLine
 10
424.7202985656
 20
-310.5391017449
 30
0.0
 11
415.7202985656
 21
-310.5391017449
 31
0.0
  0
LINE
  5
127
330
1F
100
AcDbEntity
  8
0
  6
Continuous
 62
     7
370
    25
100
AcDbLine
 10
415.7202985656
 20
-310.5391017449
 30
0.0
 11
415.7202985656
 21
-319.5391017449
 31
0.0
  0
LINE
  5
128
330
1F
100
AcDbEntity
  8
0
  6
Continuous
 62
     7
370
    25
100
AcDbLine
 10
415.7202985656
 20
-294.5391017449
 30
0.0
 11
424.7202985656
 21
-294.5391017449
 31
0.0
  0
LINE
  5
129
330
1F
100
AcDbEntity
  8
0
  6
Continuous
 62
     7
370
    25
100
AcDbLine
 10
424.7202985656
 20
-294.5391017449
 30
0.0
 11
424.7202985656
 21
-285.5391017449
 31
0.0
  0
LINE
  5
12A
330
1F
100
AcDbEntity
  8
0
  6
Continuous
 62
     7
370
    25
100
AcDbLine
 10
424.7202985656
 20
-285.5391017449
 30
0.0
 11
415.7202985656
 21
-285.5391017449
 31
0.0
  0
LINE
  5
12B
330
1F
100
AcDbEntity
  8
0
  6
Continuous
 62
     7
370
    25
100
AcDbLine
 10
415.7202985656
 20
-285.5391017449
 30
0.0
 11
415.7202985656
 21
-294.5391017449
 31
0.0
  0
LINE
  5
12C
330
1F
100
AcDbEntity
  8
0
  6
Continuous
 62
     7
370
    25
100
AcDbLine
 10
415.7202985656
 20
-269.5391017449
 30
0.0
 11
424.7202985656
 21
-269.5391017449
 31
0.0
  0
LINE
  5
12D
330
1F
100
AcDbEntity
  8
0
  6
Continuous
 62
     7
370
    25
100
AcDbLine
 10
424.7202985656
 20
-269.5391017449
 30
0.0
 11
424.7202985656
 21
-260.5391017449
 31
0.0
  0
LINE
  5
12E
330
1F
100
AcDbEntity
  8
0
  6
Continuous
 62
     7
370
    25
100
AcDbLine
 10
424.7202985656
 20
-260.5391017449
 30
0.0
 11
415.7202985656
 21
-260.5391017449
 31
0.0
  0
LINE
  5
12F
330
1F
100
AcDbEntity
  8
0
  6
Continuous
 62
     7
370
    25
100
AcDbLine
 10
415.7202985656
 20
-260.5391017449
 30
0.0
 11
415.7202985656
 21
-269.5391017449
 31
0.0
  0
LINE
  5
130
330
1F
100
AcDbEntity
  8
0
  6
Continuous
 62
     7
370
    25
100
AcDbLine
 10
415.7202985656
 20
-244.5391017449
 30
0.0
 11
424.7202985656
 21
-244.5391017449
 31
0.0
  0
LINE
  5
131
330
1F
100
AcDbEntity
  8
0
  6
Continuous
 62
     7
370
    25
100
AcDbLine
 10
424.7202985656
 20
-244.5391017449
 30
0.0
 11
424.7202985656
 21
-235.5391017449
 31
0.0
  0
LINE
  5
132
330
1F
100
AcDbEntity
  8
0
  6
Continuous
 62
     7
370
    25
100
AcDbLine
 10
424.7202985656
 20
-235.5391017449
 30
0.0
 11
415.7202985656
 21
-235.5391017449
 31
0.0
  0
LINE
  5
133
330
1F
100
AcDbEntity
  8
0
  6
Continuous
 62
     7
370
    25
100
AcDbLine
 10
415.7202985656
 20
-235.5391017449
 30
0.0
 11
415.7202985656
 21
-244.5391017449
 31
0.0
  0
LINE
  5
134
330
1F
100
AcDbEntity
  8
0
  6
Continuous
 62
     7
370
    25
100
AcDbLine
 10
415.7202985656
 20
-219.5391017449
 30
0.0
 11
424.7202985656
 21
-219.5391017449
 31
0.0
  0
LINE
  5
135
330
1F
100
AcDbEntity
  8
0
  6
Continuous
 62
     7
370
    25
100
AcDbLine
 10
424.7202985656
 20
-219.5391017449
 30
0.0
 11
424.7202985656
 21
-210.5391017449
 31
0.0
  0
LINE
  5
136
330
1F
100
AcDbEntity
  8
0
  6
Continuous
 62
     7
370
    25
100
AcDbLine
 10
424.7202985656
 20
-210.5391017449
 30
0.0
 11
415.7202985656
 21
-210.5391017449
 31
0.0
  0
LINE
  5
137
330
1F
100
AcDbEntity
  8
0
  6
Continuous
 62
     7
370
    25
100
AcDbLine
 10
415.7202985656
 20
-210.5391017449
 30
0.0
 11
415.7202985656
 21
-219.5391017449
 31
0.0
  0
LINE
  5
138
330
1F
100
AcDbEntity
  8
0
  6
Continuous
 62
     7
370
    25
100
AcDbLine
 10
415.7202985656
 20
-194.5391017449
 30
0.0
 11
424.7202985656
 21
-194.5391017449
 31
0.0
  0
LINE
  5
139
330
1F
100
AcDbEntity
  8
0
  6
Continuous
 62
     7
370
    25
100
AcDbLine
 10
424.7202985656
 20
-194.5391017449
 30
0.0
 11
424.7202985656
 21
-185.5391017449
 31
0.0
  0
LINE
  5
13A
330
1F
100
AcDbEntity
  8
0
  6
Continuous
 62
     7
370
    25
100
AcDbLine
 10
424.7202985656
 20
-185.5391017449
 30
0.0
 11
415.7202985656
 21
-185.5391017449
 31
0.0
  0
LINE
  5
13B
330
1F
100
AcDbEntity
  8
0
  6
Continuous
 62
     7
370
    25
100
AcDbLine
 10
415.7202985656
 20
-185.5391017449
 30
0.0
 11
415.7202985656
 21
-194.5391017449
 31
0.0
  0
LINE
  5
13C
330
1F
100
AcDbEntity
  8
0
  6
Continuous
 62
     7
370
    25
100
AcDbLine
 10
415.7202985656
 20
-169.5391017449
 30
0.0
 11
424.7202985656
 21
-169.5391017449
 31
0.0
  0
LINE
  5
13D
330
1F
100
AcDbEntity
  8
0
  6
Continuous
 62
     7
370
    25
100
AcDbLine
 10
424.7202985656
 20
-169.5391017449
 30
0.0
 11
424.7202985656
 21
-160.5391017449
 31
0.0
  0
LINE
  5
13E
330
1F
100
AcDbEntity
  8
0
  6
Continuous
 62
     7
370
    25
100
AcDbLine
 10
424.7202985656
 20
-160.5391017449
 30
0.0
 11
415.7202985656
 21
-160.5391017449
 31
0.0
  0
LINE
  5
13F
330
1F
100
AcDbEntity
  8
0
  6
Continuous
 62
     7
370
    25
100
AcDbLine
 10
415.7202985656
 20
-160.5391017449
 30
0.0
 11
415.7202985656
 21
-169.5391017449
 31
0.0
  0
LINE
  5
140
330
1F
100
AcDbEntity
  8
0
  6
Continuous
 62
     7
370
    25
100
AcDbLine
 10
415.7202985656
 20
-144.5391017449
 30
0.0
 11
424.7202985656
 21
-144.5391017449
 31
0.0
  0
LINE
  5
141
330
1F
100
AcDbEntity
  8
0
  6
Continuous
 62
     7
370
    25
100
AcDbLine
 10
424.7202985656
 20
-144.5391017449
 30
0.0
 11
424.7202985656
 21
-135.5391017449
 31
0.0
  0
LINE
  5
142
330
1F
100
AcDbEntity
  8
0
  6
Continuous
 62
     7
370
    25
100
AcDbLine
 10
424.7202985656
 20
-135.5391017449
 30
0.0
 11
415.7202985656
 21
-135.5391017449
 31
0.0
  0
LINE
  5
143
330
1F
100
AcDbEntity
  8
0
  6
Continuous
 62
     7
370
    25
100
AcDbLine
 10
415.7202985656
 20
-135.5391017449
 30
0.0
 11
415.7202985656
 21
-144.5391017449
 31
0.0
  0
LINE
  5
144
330
1F
100
AcDbEntity
  8
0
  6
Continuous
 62
     7
370
    25
100
AcDbLine
 10
415.7202985656
 20
-119.5391017449
 30
0.0
 11
424.7202985656
 21
-119.5391017449
 31
0.0
  0
LINE
  5
145
330
1F
100
AcDbEntity
  8
0
  6
Continuous
 62
     7
370
    25
100
AcDbLine
 10
424.7202985656
 20
-119.5391017449
 30
0.0
 11
424.7202985656
 21
-110.5391017449
 31
0.0
  0
LINE
  5
146
330
1F
100
AcDbEntity
  8
0
  6
Continuous
 62
     7
370
    25
100
AcDbLine
 10
424.7202985656
 20
-110.5391017449
 30
0.0
 11
415.7202985656
 21
-110.5391017449
 31
0.0
  0
LINE
  5
147
330
1F
100
AcDbEntity
  8
0
  6
Continuous
 62
     7
370
    25
100
AcDbLine
 10
415.7202985656
 20
-110.5391017449
 30
0.0
 11
415.7202985656
 21
-119.5391017449
 31
0.0
  0
LINE
  5
148
330
1F
100
AcDbEntity
  8
0
  6
Continuous
 62
     7
370
    25
100
AcDbLine
 10
415.7202985656
 20
-94.5391017449
 30
0.0
 11
424.7202985656
 21
-94.5391017449
 31
0.0
  0
LINE
  5
149
330
1F
100
AcDbEntity
  8
0
  6
Continuous
 62
     7
370
    25
100
AcDbLine
 10
424.7202985656
 20
-94.5391017449
 30
0.0
 11
424.7202985656
 21
-85.5391017449
 31
0.0
  0
LINE
  5
14A
330
1F
100
AcDbEntity
  8
0
  6
Continuous
 62
     7
370
    25
100
AcDbLine
 10
424.7202985656
 20
-85.5391017449
 30
0.0
 11
415.7202985656
 21
-85.5391017449
 31
0.0
  0
LINE
  5
14B
330
1F
100
AcDbEntity
  8
0
  6
Continuous
 62
     7
370
    25
100
AcDbLine
 10
415.7202985656
 20
-85.5391017449
 30
0.0
 11
415.7202985656
 21
-94.5391017449
 31
0.0
  0
LINE
  5
14C
330
1F
100
AcDbEntity
  8
0
  6
Continuous
 62
     7
370
    25
100
AcDbLine
 10
415.7202985656
 20
-69.5391017449
 30
0.0
 11
424.7202985656
 21
-69.5391017449
 31
0.0
  0
LINE
  5
14D
330
1F
100
AcDbEntity
  8
0
  6
Continuous
 62
     7
370
    25
100
AcDbLine
 10
424.7202985656
 20
-69.5391017449
 30
0.0
 11
424.7202985656
 21
-60.5391017449
 31
0.0
  0
LINE
  5
14E
330
1F
100
AcDbEntity
  8
0
  6
Continuous
 62
     7
370
    25
100
AcDbLine
 10
424.7202985656
 20
-60.5391017449
 30
0.0
 11
415.7202985656
 21
-60.5391017449
 31
0.0
  0
LINE
  5
14F
330
1F
100
AcDbEntity
  8
0
  6
Continuous
 62
     7
370
    25
100
AcDbLine
 10
415.7202985656
 20
-60.5391017449
 30
0.0
 11
415.7202985656
 21
-69.5391017449
 31
0.0
  0
LINE
  5
150
330
1F
100
AcDbEntity
  8
0
  6
Continuous
 62
     7
370
    25
100
AcDbLine
 10
415.7202985656
 20
-44.5391017449
 30
0.0
 11
424.7202985656
 21
-44.5391017449
 31
0.0
  0
LINE
  5
151
330
1F
100
AcDbEntity
  8
0
  6
Continuous
 62
     7
370
    25
100
AcDbLine
 10
424.7202985656
 20
-44.5391017449
 30
0.0
 11
424.7202985656
 21
-35.5391017449
 31
0.0
  0
LINE
  5
152
330
1F
100
AcDbEntity
  8
0
  6
Continuous
 62
     7
370
    25
100
AcDbLine
 10
424.7202985656
 20
-35.5391017449
 30
0.0
 11
415.7202985656
 21
-35.5391017449
 31
0.0
  0
LINE
  5
153
330
1F
100
AcDbEntity
  8
0
  6
Continuous
 62
     7
370
    25
100
AcDbLine
 10
415.7202985656
 20
-35.5391017449
 30
0.0
 11
415.7202985656
 21
-44.5391017449
 31
0.0
  0
LINE
  5
154
330
1F
100
AcDbEntity
  8
0
  6
Continuous
 62
     7
370
    25
100
AcDbLine
 10
415.7202985656
 20
-19.5391017449
 30
0.0
 11
424.7202985656
 21
-19.5391017449
 31
0.0
  0
LINE
  5
155
330
1F
100
AcDbEntity
  8
0
  6
Continuous
 62
     7
370
    25
100
AcDbLine
 10
424.7202985656
 20
-19.5391017449
 30
0.0
 11
424.7202985656
 21
-10.5391017449
 31
0.0
  0
LINE
  5
156
330
1F
100
AcDbEntity
  8
0
  6
Continuous
 62
     7
370
    25
100
AcDbLine
 10
424.7202985656
 20
-10.5391017449
 30
0.0
 11
415.7202985656
 21
-10.5391017449
 31
0.0
  0
LINE
  5
157
330
1F
100
AcDbEntity
  8
0
  6
Continuous
 62
     7
370
    25
100
AcDbLine
 10
415.7202985656
 20
-10.5391017449
 30
0.0
 11
415.7202985656
 21
-19.5391017449
 31
0.0
  0
LINE
  5
158
330
1F
100
AcDbEntity
  8
0
  6
Continuous
 62
     7
370
    25
100
AcDbLine
 10
424.7202985656
 20
5.4608982551
 30
0.0
 11
424.7202985656
 21
14.4608982551
 31
0.0
  0
LINE
  5
159
330
1F
100
AcDbEntity
  8
0
  6
Continuous
 62
     7
370
    25
100
AcDbLine
 10
424.7202985656
 20
14.4608982551
 30
0.0
 11
415.7202985656
 21
14.4608982551
 31
0.0
  0
LINE
  5
15A
330
1F
100
AcDbEntity
  8
0
  6
Continuous
 62
     7
370
    25
100
AcDbLine
 10
415.7202985656
 20
30.4608982551
 30
0.0
 11
424.7202985656
 21
30.4608982551
 31
0.0
  0
LINE
  5
15B
330
1F
100
AcDbEntity
  8
0
  6
Continuous
 62
     7
370
    25
100
AcDbLine
 10
424.7202985656
 20
30.4608982551
 30
0.0
 11
424.7202985656
 21
39.4608982551
 31
0.0
  0
LINE
  5
15C
330
1F
100
AcDbEntity
  8
0
  6
Continuous
 62
     7
370
    25
100
AcDbLine
 10
424.7202985656
 20
39.4608982551
 30
0.0
 11
415.7202985656
 21
39.4608982551
 31
0.0
  0
LINE
  5
15D
330
1F
100
AcDbEntity
  8
0
  6
Continuous
 62
     7
370
    25
100
AcDbLine
 10
424.7202985656
 20
55.4608982551
 30
0.0
 11
424.7202985656
 21
64.4608982551
 31
0.0
  0
LINE
  5
15E
330
1F
100
AcDbEntity
  8
0
  6
Continuous
 62
     7
370
    25
100
AcDbLine
 10
424.7202985656
 20
64.4608982551
 30
0.0
 11
415.7202985656
 21
64.4608982551
 31
0.0
  0
LINE
  5
15F
330
1F
100
AcDbEntity
  8
0
  6
Continuous
 62
     7
370
    25
100
AcDbLine
 10
415.7202985656
 20
64.4608982551
 30
0.0
 11
415.7202985656
 21
55.4608982551
 31
0.0
  0
LINE
  5
160
330
1F
100
AcDbEntity
  8
0
  6
Continuous
 62
     7
370
    25
100
AcDbLine
 10
424.7202985656
 20
80.4608982551
 30
0.0
 11
424.7202985656
 21
89.4608982551
 31
0.0
  0
LINE
  5
161
330
1F
100
AcDbEntity
  8
0
  6
Continuous
 62
     7
370
    25
100
AcDbLine
 10
424.7202985656
 20
89.4608982551
 30
0.0
 11
415.7202985656
 21
89.4608982551
 31
0.0
  0
LINE
  5
162
330
1F
100
AcDbEntity
  8
0
  6
Continuous
 62
     7
370
    25
100
AcDbLine
 10
424.7202985656
 20
105.4608982551
 30
0.0
 11
424.7202985656
 21
114.4608982551
 31
0.0
  0
LINE
  5
163
330
1F
100
AcDbEntity
  8
0
  6
Continuous
 62
     7
370
    25
100
AcDbLine
 10
424.7202985656
 20
114.4608982551
 30
0.0
 11
415.7202985656
 21
114.4608982551
 31
0.0
  0
LINE
  5
164
330
1F
100
AcDbEntity
  8
0
  6
Continuous
 62
     7
370
    25
100
AcDbLine
 10
424.7202985656
 20
130.4608982551
 30
0.0
 11
424.7202985656
 21
139.4608982551
 31
0.0
  0
LINE
  5
165
330
1F
100
AcDbEntity
  8
0
  6
Continuous
 62
     7
370
    25
100
AcDbLine
 10
424.7202985656
 20
139.4608982551
 30
0.0
 11
415.7202985656
 21
139.4608982551
 31
0.0
  0
LINE
  5
166
330
1F
100
AcDbEntity
  8
0
  6
Continuous
 62
     7
370
    25
100
AcDbLine
 10
415.7202985656
 20
155.4608982551
 30
0.0
 11
424.7202985656
 21
155.4608982551
 31
0.0
  0
LINE
  5
167
330
1F
100
AcDbEntity
  8
0
  6
Continuous
 62
     7
370
    25
100
AcDbLine
 10
424.7202985656
 20
155.4608982551
 30
0.0
 11
424.7202985656
 21
164.4608982551
 31
0.0
  0
LINE
  5
168
330
1F
100
AcDbEntity
  8
0
  6
Continuous
 62
     7
370
    25
100
AcDbLine
 10
424.7202985656
 20
164.4608982551
 30
0.0
 11
415.7202985656
 21
164.4608982551
 31
0.0
  0
LINE
  5
169
330
1F
100
AcDbEntity
  8
0
  6
Continuous
 62
     7
370
    25
100
AcDbLine
 10
415.7202985656
 20
180.4608982551
 30
0.0
 11
424.7202985656
 21
180.4608982551
 31
0.0
  0
LINE
  5
16A
330
1F
100
AcDbEntity
  8
0
  6
Continuous
 62
     7
370
    25
100
AcDbLine
 10
424.7202985656
 20
180.4608982551
 30
0.0
 11
424.7202985656
 21
189.4608982551
 31
0.0
  0
LINE
  5
16B
330
1F
100
AcDbEntity
  8
0
  6
Continuous
 62
     7
370
    25
100
AcDbLine
 10
424.7202985656
 20
189.4608982551
 30
0.0
 11
415.7202985656
 21
189.4608982551
 31
0.0
  0
LINE
  5
16C
330
1F
100
AcDbEntity
  8
0
  6
Continuous
 62
     7
370
    25
100
AcDbLine
 10
415.7202985656
 20
189.4608982551
 30
0.0
 11
415.7202985656
 21
180.4608982551
 31
0.0
  0
LINE
  5
16D
330
1F
100
AcDbEntity
  8
0
  6
Continuous
 62
     7
370
    25
100
AcDbLine
 10
415.7202985656
 20
205.4608982551
 30
0.0
 11
424.7202985656
 21
205.4608982551
 31
0.0
  0
LINE
  5
16E
330
1F
100
AcDbEntity
  8
0
  6
Continuous
 62
     7
370
    25
100
AcDbLine
 10
424.7202985656
 20
205.4608982551
 30
0.0
 11
424.7202985656
 21
214.4608982551
 31
0.0
  0
LINE
  5
16F
330
1F
100
AcDbEntity
  8
0
  6
Continuous
 62
     7
370
    25
100
AcDbLine
 10
424.7202985656
 20
214.4608982551
 30
0.0
 11
415.7202985656
 21
214.4608982551
 31
0.0
  0
LINE
  5
170
330
1F
100
AcDbEntity
  8
0
  6
Continuous
 62
     7
370
    25
100
AcDbLine
 10
415.7202985656
 20
214.4608982551
 30
0.0
 11
415.7202985656
 21
205.4608982551
 31
0.0
  0
LINE
  5
171
330
1F
100
AcDbEntity
  8
0
  6
Continuous
 62
     7
370
    25
100
AcDbLine
 10
415.7202985656
 20
230.4608982551
 30
0.0
 11
424.7202985656
 21
230.4608982551
 31
0.0
  0
LINE
  5
172
330
1F
100
AcDbEntity
  8
0
  6
Continuous
 62
     7
370
    25
100
AcDbLine
 10
424.7202985656
 20
230.4608982551
 30
0.0
 11
424.7202985656
 21
239.4608982551
 31
0.0
  0
LINE
  5
173
330
1F
100
AcDbEntity
  8
0
  6
Continuous
 62
     7
370
    25
100
AcDbLine
 10
424.7202985656
 20
239.4608982551
 30
0.0
 11
415.7202985656
 21
239.4608982551
 31
0.0
  0
LINE
  5
174
330
1F
100
AcDbEntity
  8
0
  6
Continuous
 62
     7
370
    25
100
AcDbLine
 10
415.7202985656
 20
239.4608982551
 30
0.0
 11
415.7202985656
 21
230.4608982551
 31
0.0
  0
LINE
  5
175
330
1F
100
AcDbEntity
  8
0
  6
Continuous
 62
     7
370
    25
100
AcDbLine
 10
415.7202985656
 20
255.4608982551
 30
0.0
 11
424.7202985656
 21
255.4608982551
 31
0.0
  0
LINE
  5
176
330
1F
100
AcDbEntity
  8
0
  6
Continuous
 62
     7
370
    25
100
AcDbLine
 10
424.7202985656
 20
255.4608982551
 30
0.0
 11
424.7202985656
 21
264.4608982551
 31
0.0
  0
LINE
  5
177
330
1F
100
AcDbEntity
  8
0
  6
Continuous
 62
     7
370
    25
100
AcDbLine
 10
424.7202985656
 20
264.4608982551
 30
0.0
 11
415.7202985656
 21
264.4608982551
 31
0.0
  0
LINE
  5
178
330
1F
100
AcDbEntity
  8
0
  6
Continuous
 62
     7
370
    25
100
AcDbLine
 10
415.7202985656
 20
264.4608982551
 30
0.0
 11
415.7202985656
 21
255.4608982551
 31
0.0
  0
LINE
  5
179
330
1F
100
AcDbEntity
  8
0
  6
Continuous
 62
     7
370
    25
100
AcDbLine
 10
415.7202985656
 20
280.4608982551
 30
0.0
 11
424.7202985656
 21
280.4608982551
 31
0.0
  0
LINE
  5
17A
330
1F
100
AcDbEntity
  8
0
  6
Continuous
 62
     7
370
    25
100
AcDbLine
 10
424.7202985656
 20
280.4608982551
 30
0.0
 11
424.7202985656
 21
289.4608982551
 31
0.0
  0
LINE
  5
17B
330
1F
100
AcDbEntity
  8
0
  6
Continuous
 62
     7
370
    25
100
AcDbLine
 10
424.7202985656
 20
289.4608982551
 30
0.0
 11
415.7202985656
 21
289.4608982551
 31
0.0
  0
LINE
  5
17C
330
1F
100
AcDbEntity
  8
0
  6
Continuous
 62
     7
370
    25
100
AcDbLine
 10
415.7202985656
 20
289.4608982551
 30
0.0
 11
415.7202985656
 21
280.4608982551
 31
0.0
  0
LINE
  5
17D
330
1F
100
AcDbEntity
  8
0
  6
Continuous
 62
     7
370
    25
100
AcDbLine
 10
415.7202985656
 20
305.4608982551
 30
0.0
 11
424.7202985656
 21
305.4608982551
 31
0.0
  0
LINE
  5
17E
330
1F
100
AcDbEntity
  8
0
  6
Continuous
 62
     7
370
    25
100
AcDbLine
 10
424.7202985656
 20
305.4608982551
 30
0.0
 11
424.7202985656
 21
314.4608982551
 31
0.0
  0
LINE
  5
17F
330
1F
100
AcDbEntity
  8
0
  6
Continuous
 62
     7
370
    25
100
AcDbLine
 10
424.7202985656
 20
314.4608982551
 30
0.0
 11
415.7202985656
 21
314.4608982551
 31
0.0
  0
LINE
  5
180
330
1F
100
AcDbEntity
  8
0
  6
Continuous
 62
     7
370
    25
100
AcDbLine
 10
415.7202985656
 20
330.4608982551
 30
0.0
 11
424.7202985656
 21
330.4608982551
 31
0.0
  0
LINE
  5
181
330
1F
100
AcDbEntity
  8
0
  6
Continuous
 62
     7
370
    25
100
AcDbLine
 10
424.7202985656
 20
330.4608982551
 30
0.0
 11
424.7202985656
 21
339.4608982551
 31
0.0
  0
LINE
  5
182
330
1F
100
AcDbEntity
  8
0
  6
Continuous
 62
     7
370
    25
100
AcDbLine
 10
424.7202985656
 20
339.4608982551
 30
0.0
 11
415.7202985656
 21
339.4608982551
 31
0.0
  0
LINE
  5
183
330
1F
100
AcDbEntity
  8
0
  6
Continuous
 62
     7
370
    25
100
AcDbLine
 10
415.7202985656
 20
339.4608982551
 30
0.0
 11
415.7202985656
 21
330.4608982551
 31
0.0
  0
LINE
  5
184
330
1F
100
AcDbEntity
  8
0
  6
Continuous
 62
     7
370
    25
100
AcDbLine
 10
415.7202985656
 20
355.4608982551
 30
0.0
 11
424.7202985656
 21
355.4608982551
 31
0.0
  0
LINE
  5
185
330
1F
100
AcDbEntity
  8
0
  6
Continuous
 62
     7
370
    25
100
AcDbLine
 10
424.7202985656
 20
355.4608982551
 30
0.0
 11
424.7202985656
 21
364.4608982551
 31
0.0
  0
LINE
  5
186
330
1F
100
AcDbEntity
  8
0
  6
Continuous
 62
     7
370
    25
100
AcDbLine
 10
424.7202985656
 20
364.4608982551
 30
0.0
 11
415.7202985656
 21
364.4608982551
 31
0.0
  0
LINE
  5
187
330
1F
100
AcDbEntity
  8
0
  6
Continuous
 62
     7
370
    25
100
AcDbLine
 10
415.7202985656
 20
364.4608982551
 30
0.0
 11
415.7202985656
 21
355.4608982551
 31
0.0
  0
LINE
  5
188
330
1F
100
AcDbEntity
  8
0
  6
Continuous
 62
     7
370
    25
100
AcDbLine
 10
415.7202985656
 20
380.4608982551
 30
0.0
 11
424.7202985656
 21
380.4608982551
 31
0.0
  0
LINE
  5
189
330
1F
100
AcDbEntity
  8
0
  6
Continuous
 62
     7
370
    25
100
AcDbLine
 10
424.7202985656
 20
380.4608982551
 30
0.0
 11
424.7202985656
 21
389.4608982551
 31
0.0
  0
LINE
  5
18A
330
1F
100
AcDbEntity
  8
0
  6
Continuous
 62
     7
370
    25
100
AcDbLine
 10
424.7202985656
 20
389.4608982551
 30
0.0
 11
415.7202985656
 21
389.4608982551
 31
0.0
  0
LINE
  5
18B
330
1F
100
AcDbEntity
  8
0
  6
Continuous
 62
     7
370
    25
100
AcDbLine
 10
415.7202985656
 20
389.4608982551
 30
0.0
 11
415.7202985656
 21
380.4608982551
 31
0.0
  0
LINE
  5
18C
330
1F
100
AcDbEntity
  8
0
  6
Continuous
 62
     7
370
    25
100
AcDbLine
 10
415.7202985656
 20
405.4608982551
 30
0.0
 11
424.7202985656
 21
405.4608982551
 31
0.0
  0
LINE
  5
18D
330
1F
100
AcDbEntity
  8
0
  6
Continuous
 62
     7
370
    25
100
AcDbLine
 10
424.7202985656
 20
405.4608982551
 30
0.0
 11
424.7202985656
 21
414.4608982551
 31
0.0
  0
LINE
  5
18E
330
1F
100
AcDbEntity
  8
0
  6
Continuous
 62
     7
370
    25
100
AcDbLine
 10
424.7202985656
 20
414.4608982551
 30
0.0
 11
415.7202985656
 21
414.4608982551
 31
0.0
  0
LINE
  5
18F
330
1F
100
AcDbEntity
  8
0
  6
Continuous
 62
     7
370
    25
100
AcDbLine
 10
415.7202985656
 20
414.4608982551
 30
0.0
 11
415.7202985656
 21
405.4608982551
 31
0.0
  0
LINE
  5
190
330
1F
100
AcDbEntity
  8
0
  6
Continuous
 62
     7
370
    25
100
AcDbLine
 10
415.7202985656
 20
430.4608982551
 30
0.0
 11
424.7202985656
 21
430.4608982551
 31
0.0
  0
LINE
  5
191
330
1F
100
AcDbEntity
  8
0
  6
Continuous
 62
     7
370
    25
100
AcDbLine
 10
424.7202985656
 20
430.4608982551
 30
0.0
 11
424.7202985656
 21
439.4608982551
 31
0.0
  0
LINE
  5
192
330
1F
100
AcDbEntity
  8
0
  6
Continuous
 62
     7
370
    25
100
AcDbLine
 10
424.7202985656
 20
439.4608982551
 30
0.0
 11
415.7202985656
 21
439.4608982551
 31
0.0
  0
LINE
  5
193
330
1F
100
AcDbEntity
  8
0
  6
Continuous
 62
     7
370
    25
100
AcDbLine
 10
415.7202985656
 20
439.4608982551
 30
0.0
 11
415.7202985656
 21
430.4608982551
 31
0.0
  0
LINE
  5
194
330
1F
100
AcDbEntity
  8
0
  6
Continuous
 62
     7
370
    25
100
AcDbLine
 10
415.7202985656
 20
455.4608982551
 30
0.0
 11
424.7202985656
 21
455.4608982551
 31
0.0
  0
LINE
  5
195
330
1F
100
AcDbEntity
  8
0
  6
Continuous
 62
     7
370
    25
100
AcDbLine
 10
424.7202985656
 20
455.4608982551
 30
0.0
 11
424.7202985656
 21
464.4608982551
 31
0.0
  0
LINE
  5
196
330
1F
100
AcDbEntity
  8
0
  6
Continuous
 62
     7
370
    25
100
AcDbLine
 10
424.7202985656
 20
464.4608982551
 30
0.0
 11
415.7202985656
 21
464.4608982551
 31
0.0
  0
LINE
  5
197
330
1F
100
AcDbEntity
  8
0
  6
Continuous
 62
     7
370
    25
100
AcDbLine
 10
415.7202985656
 20
464.4608982551
 30
0.0
 11
415.7202985656
 21
455.4608982551
 31
0.0
  0
LINE
  5
198
330
1F
100
AcDbEntity
  8
0
  6
Continuous
 62
     7
370
    25
100
AcDbLine
 10
415.7202985656
 20
480.4608982551
 30
0.0
 11
424.7202985656
 21
480.4608982551
 31
0.0
  0
LINE
  5
199
330
1F
100
AcDbEntity
  8
0
  6
Continuous
 62
     7
370
    25
100
AcDbLine
 10
424.7202985656
 20
480.4608982551
 30
0.0
 11
424.7202985656
 21
489.4608982551
 31
0.0
  0
LINE
  5
19A
330
1F
100
AcDbEntity
  8
0
  6
Continuous
 62
     7
370
    25
100
AcDbLine
 10
424.7202985656
 20
489.4608982551
 30
0.0
 11
415.7202985656
 21
489.4608982551
 31
0.0
  0
LINE
  5
19B
330
1F
100
AcDbEntity
  8
0
  6
Continuous
 62
     7
370
    25
100
AcDbLine
 10
415.7202985656
 20
489.4608982551
 30
0.0
 11
415.7202985656
 21
480.4608982551
 31
0.0
  0
LINE
  5
19C
330
1F
100
AcDbEntity
  8
0
  6
Continuous
 62
     7
370
    25
100
AcDbLine
 10
415.7202985656
 20
505.4608982551
 30
0.0
 11
424.7202985656
 21
505.4608982551
 31
0.0
  0
LINE
  5
19D
330
1F
100
AcDbEntity
  8
0
  6
Continuous
 62
     7
370
    25
100
AcDbLine
 10
424.7202985656
 20
505.4608982551
 30
0.0
 11
424.7202985656
 21
514.4608982551
 31
0.0
  0
LINE
  5
19E
330
1F
100
AcDbEntity
  8
0
  6
Continuous
 62
     7
370
    25
100
AcDbLine
 10
424.7202985656
 20
514.4608982551
 30
0.0
 11
415.7202985656
 21
514.4608982551
 31
0.0
  0
LINE
  5
19F
330
1F
100
AcDbEntity
  8
0
  6
Continuous
 62
     7
370
    25
100
AcDbLine
 10
415.7202985656
 20
514.4608982551
 30
0.0
 11
415.7202985656
 21
505.4608982551
 31
0.0
  0
LINE
  5
1A0
330
1F
100
AcDbEntity
  8
0
  6
Continuous
 62
     7
370
    25
100
AcDbLine
 10
415.7202985656
 20
530.4608982551
 30
0.0
 11
424.7202985656
 21
530.4608982551
 31
0.0
  0
LINE
  5
1A1
330
1F
100
AcDbEntity
  8
0
  6
Continuous
 62
     7
370
    25
100
AcDbLine
 10
424.7202985656
 20
530.4608982551
 30
0.0
 11
424.7202985656
 21
539.4608982551
 31
0.0
  0
LINE
  5
1A2
330
1F
100
AcDbEntity
  8
0
  6
Continuous
 62
     7
370
    25
100
AcDbLine
 10
424.7202985656
 20
539.4608982551
 30
0.0
 11
415.7202985656
 21
539.4608982551
 31
0.0
  0
LINE
  5
1A3
330
1F
100
AcDbEntity
  8
0
  6
Continuous
 62
     7
370
    25
100
AcDbLine
 10
415.7202985656
 20
539.4608982551
 30
0.0
 11
415.7202985656
 21
530.4608982551
 31
0.0
  0
LINE
  5
1A4
330
1F
100
AcDbEntity
  8
0
  6
Continuous
 62
     7
370
    25
100
AcDbLine
 10
415.7202985656
 20
555.4608982551
 30
0.0
 11
424.7202985656
 21
555.4608982551
 31
0.0
  0
LINE
  5
1A5
330
1F
100
AcDbEntity
  8
0
  6
Continuous
 62
     7
370
    25
100
AcDbLine
 10
424.7202985656
 20
555.4608982551
 30
0.0
 11
424.7202985656
 21
564.4608982551
 31
0.0
  0
LINE
  5
1A6
330
1F
100
AcDbEntity
  8
0
  6
Continuous
 62
     7
370
    25
100
AcDbLine
 10
424.7202985656
 20
564.4608982551
 30
0.0
 11
415.7202985656
 21
564.4608982551
 31
0.0
  0
LINE
  5
1A7
330
1F
100
AcDbEntity
  8
0
  6
Continuous
 62
     7
370
    25
100
AcDbLine
 10
415.7202985656
 20
564.4608982551
 30
0.0
 11
415.7202985656
 21
555.4608982551
 31
0.0
  0
LINE
  5
1A8
330
1F
100
AcDbEntity
  8
0
  6
Continuous
 62
     7
370
    25
100
AcDbLine
 10
415.7202985656
 20
580.4608982551
 30
0.0
 11
424.7202985656
 21
580.4608982551
 31
0.0
  0
LINE
  5
1A9
330
1F
100
AcDbEntity
  8
0
  6
Continuous
 62
     7
370
    25
100
AcDbLine
 10
424.7202985656
 20
580.4608982551
 30
0.0
 11
424.7202985656
 21
589.4608982551
 31
0.0
  0
LINE
  5
1AA
330
1F
100
AcDbEntity
  8
0
  6
Continuous
 62
     7
370
    25
100
AcDbLine
 10
424.7202985656
 20
589.4608982551
 30
0.0
 11
415.7202985656
 21
589.4608982551
 31
0.0
  0
LINE
  5
1AB
330
1F
100
AcDbEntity
  8
0
  6
Continuous
 62
     7
370
    25
100
AcDbLine
 10
415.7202985656
 20
589.4608982551
 30
0.0
 11
415.7202985656
 21
580.4608982551
 31
0.0
  0
LINE
  5
1AC
330
1F
100
AcDbEntity
  8
0
  6
Continuous
 62
     7
370
    25
100
AcDbLine
 10
415.7202985656
 20
605.4608982551
 30
0.0
 11
424.7202985656
 21
605.4608982551
 31
0.0
  0
LINE
  5
1AD
330
1F
100
AcDbEntity
  8
0
  6
Continuous
 62
     7
370
    25
100
AcDbLine
 10
424.7202985656
 20
605.4608982551
 30
0.0
 11
424.7202985656
 21
614.4608982551
 31
0.0
  0
LINE
  5
1AE
330
1F
100
AcDbEntity
  8
0
  6
Continuous
 62
     7
370
    25
100
AcDbLine
 10
424.7202985656
 20
614.4608982551
 30
0.0
 11
415.7202985656
 21
614.4608982551
 31
0.0
  0
LINE
  5
1AF
330
1F
100
AcDbEntity
  8
0
  6
Continuous
 62
     7
370
    25
100
AcDbLine
 10
415.7202985656
 20
614.4608982551
 30
0.0
 11
415.7202985656
 21
605.4608982551
 31
0.0
  0
LINE
  5
1B0
330
1F
100
AcDbEntity
  8
0
  6
Continuous
 62
     7
370
    25
100
AcDbLine
 10
415.7202985656
 20
630.4608982551
 30
0.0
 11
424.7202985656
 21
630.4608982551
 31
0.0
  0
LINE
  5
1B1
330
1F
100
AcDbEntity
  8
0
  6
Continuous
 62
     7
370
    25
100
AcDbLine
 10
424.7202985656
 20
630.4608982551
 30
0.0
 11
424.7202985656
 21
639.4608982551
 31
0.0
  0
LINE
  5
1B2
330
1F
100
AcDbEntity
  8
0
  6
Continuous
 62
     7
370
    25
100
AcDbLine
 10
424.7202985656
 20
639.4608982551
 30
0.0
 11
415.7202985656
 21
639.4608982551
 31
0.0
  0
LINE
  5
1B3
330
1F
100
AcDbEntity
  8
0
  6
Continuous
 62
     7
370
    25
100
AcDbLine
 10
415.7202985656
 20
639.4608982551
 30
0.0
 11
415.7202985656
 21
630.4608982551
 31
0.0
  0
LINE
  5
1B4
330
1F
100
AcDbEntity
  8
0
  6
Continuous
 62
     7
370
    25
100
AcDbLine
 10
415.7202985656
 20
655.4608982551
 30
0.0
 11
424.7202985656
 21
655.4608982551
 31
0.0
  0
LINE
  5
1B5
330
1F
100
AcDbEntity
  8
0
  6
Continuous
 62
     7
370
    25
100
AcDbLine
 10
424.7202985656
 20
655.4608982551
 30
0.0
 11
424.7202985656
 21
664.4608982551
 31
0.0
  0
LINE
  5
1B6
330
1F
100
AcDbEntity
  8
0
  6
Continuous
 62
     7
370
    25
100
AcDbLine
 10
424.7202985656
 20
664.4608982551
 30
0.0
 11
415.7202985656
 21
664.4608982551
 31
0.0
  0
LINE
  5
1B7
330
1F
100
AcDbEntity
  8
0
  6
Continuous
 62
     7
370
    25
100
AcDbLine
 10
415.7202985656
 20
664.4608982551
 30
0.0
 11
415.7202985656
 21
655.4608982551
 31
0.0
  0
LINE
  5
1B8
330
1F
100
AcDbEntity
  8
0
  6
Continuous
 62
     7
370
    25
100
AcDbLine
 10
415.7202985656
 20
680.4608982551
 30
0.0
 11
424.7202985656
 21
680.4608982551
 31
0.0
  0
LINE
  5
1B9
330
1F
100
AcDbEntity
  8
0
  6
Continuous
 62
     7
370
    25
100
AcDbLine
 10
424.7202985656
 20
680.4608982551
 30
0.0
 11
424.7202985656
 21
689.4608982551
 31
0.0
  0
LINE
  5
1BA
330
1F
100
AcDbEntity
  8
0
  6
Continuous
 62
     7
370
    25
100
AcDbLine
 10
424.7202985656
 20
689.4608982551
 30
0.0
 11
415.7202985656
 21
689.4608982551
 31
0.0
  0
LINE
  5
1BB
330
1F
100
AcDbEntity
  8
0
  6
Continuous
 62
     7
370
    25
100
AcDbLine
 10
415.7202985656
 20
689.4608982551
 30
0.0
 11
415.7202985656
 21
680.4608982551
 31
0.0
  0
LINE
  5
1BC
330
1F
100
AcDbEntity
  8
0
  6
Continuous
 62
     7
370
    25
100
AcDbLine
 10
415.7202985656
 20
705.4608982551
 30
0.0
 11
424.7202985656
 21
705.4608982551
 31
0.0
  0
LINE
  5
1BD
330
1F
100
AcDbEntity
  8
0
  6
Continuous
 62
     7
370
    25
100
AcDbLine
 10
424.7202985656
 20
705.4608982551
 30
0.0
 11
424.7202985656
 21
714.4608982551
 31
0.0
  0
LINE
  5
1BE
330
1F
100
AcDbEntity
  8
0
  6
Continuous
 62
     7
370
    25
100
AcDbLine
 10
424.7202985656
 20
714.4608982551
 30
0.0
 11
415.7202985656
 21
714.4608982551
 31
0.0
  0
LINE
  5
1BF
330
1F
100
AcDbEntity
  8
0
  6
Continuous
 62
     7
370
    25
100
AcDbLine
 10
415.7202985656
 20
714.4608982551
 30
0.0
 11
415.7202985656
 21
705.4608982551
 31
0.0
  0
LINE
  5
1C0
330
1F
100
AcDbEntity
  8
0
  6
Continuous
 62
     7
370
    25
100
AcDbLine
 10
415.7202985656
 20
730.4608982551
 30
0.0
 11
424.7202985656
 21
730.4608982551
 31
0.0
  0
LINE
  5
1C1
330
1F
100
AcDbEntity
  8
0
  6
Continuous
 62
     7
370
    25
100
AcDbLine
 10
424.7202985656
 20
730.4608982551
 30
0.0
 11
424.7202985656
 21
739.4608982551
 31
0.0
  0
LINE
  5
1C2
330
1F
100
AcDbEntity
  8
0
  6
Continuous
 62
     7
370
    25
100
AcDbLine
 10
424.7202985656
 20
739.4608982551
 30
0.0
 11
415.7202985656
 21
739.4608982551
 31
0.0
  0
LINE
  5
1C3
330
1F
100
AcDbEntity
  8
0
  6
Continuous
 62
     7
370
    25
100
AcDbLine
 10
415.7202985656
 20
755.4608982551
 30
0.0
 11
424.7202985656
 21
755.4608982551
 31
0.0
  0
LINE
  5
1C4
330
1F
100
AcDbEntity
  8
0
  6
Continuous
 62
     7
370
    25
100
AcDbLine
 10
424.7202985656
 20
755.4608982551
 30
0.0
 11
424.7202985656
 21
764.4608982551
 31
0.0
  0
LINE
  5
1C5
330
1F
100
AcDbEntity
  8
0
  6
Continuous
 62
     7
370
    25
100
AcDbLine
 10
424.7202985656
 20
764.4608982551
 30
0.0
 11
415.7202985656
 21
764.4608982551
 31
0.0
  0
LINE
  5
1C6
330
1F
100
AcDbEntity
  8
0
  6
Continuous
 62
     7
370
    25
100
AcDbLine
 10
415.7202985656
 20
764.4608982551
 30
0.0
 11
415.7202985656
 21
755.4608982551
 31
0.0
  0
LINE
  5
1C7
330
1F
100
AcDbEntity
  8
0
  6
Continuous
 62
     7
370
    25
100
AcDbLine
 10
415.7202985656
 20
780.4608982551
 30
0.0
 11
424.7202985656
 21
780.4608982551
 31
0.0
  0
LINE
  5
1C8
330
1F
100
AcDbEntity
  8
0
  6
Continuous
 62
     7
370
    25
100
AcDbLine
 10
424.7202985656
 20
780.4608982551
 30
0.0
 11
424.7202985656
 21
789.4608982551
 31
0.0
  0
LINE
  5
1C9
330
1F
100
AcDbEntity
  8
0
  6
Continuous
 62
     7
370
    25
100
AcDbLine
 10
424.7202985656
 20
789.4608982551
 30
0.0
 11
415.7202985656
 21
789.4608982551
 31
0.0
  0
LINE
  5
1CA
330
1F
100
AcDbEntity
  8
0
  6
Continuous
 62
     7
370
    25
100
AcDbLine
 10
415.7202985656
 20
789.4608982551
 30
0.0
 11
415.7202985656
 21
780.4608982551
 31
0.0
  0
LINE
  5
1CB
330
1F
100
AcDbEntity
  8
0
  6
Continuous
 62
     7
370
    25
100
AcDbLine
 10
415.7202985656
 20
805.4608982551
 30
0.0
 11
424.7202985656
 21
805.4608982551
 31
0.0
  0
LINE
  5
1CC
330
1F
100
AcDbEntity
  8
0
  6
Continuous
 62
     7
370
    25
100
AcDbLine
 10
424.7202985656
 20
805.4608982551
 30
0.0
 11
424.7202985656
 21
814.4608982551
 31
0.0
  0
LINE
  5
1CD
330
1F
100
AcDbEntity
  8
0
  6
Continuous
 62
     7
370
    25
100
AcDbLine
 10
424.7202985656
 20
814.4608982551
 30
0.0
 11
415.7202985656
 21
814.4608982551
 31
0.0
  0
LINE
  5
1CE
330
1F
100
AcDbEntity
  8
0
  6
Continuous
 62
     7
370
    25
100
AcDbLine
 10
415.7202985656
 20
814.4608982551
 30
0.0
 11
415.7202985656
 21
805.4608982551
 31
0.0
  0
LINE
  5
1CF
330
1F
100
AcDbEntity
  8
0
  6
Continuous
 62
     7
370
    25
100
AcDbLine
 10
415.7202985656
 20
830.4608982551
 30
0.0
 11
424.7202985656
 21
830.4608982551
 31
0.0
  0
LINE
  5
1D0
330
1F
100
AcDbEntity
  8
0
  6
Continuous
 62
     7
370
    25
100
AcDbLine
 10
424.7202985656
 20
830.4608982551
 30
0.0
 11
424.7202985656
 21
839.4608982551
 31
0.0
  0
LINE
  5
1D1
330
1F
100
AcDbEntity
  8
0
  6
Continuous
 62
     7
370
    25
100
AcDbLine
 10
424.7202985656
 20
839.4608982551
 30
0.0
 11
415.7202985656
 21
839.4608982551
 31
0.0
  0
LINE
  5
1D2
330
1F
100
AcDbEntity
  8
0
  6
Continuous
 62
     7
370
    25
100
AcDbLine
 10
415.7202985656
 20
839.4608982551
 30
0.0
 11
415.7202985656
 21
830.4608982551
 31
0.0
  0
LINE
  5
1D3
330
1F
100
AcDbEntity
  8
0
  6
Continuous
 62
     7
370
    25
100
AcDbLine
 10
415.7202985656
 20
855.4608982551
 30
0.0
 11
424.7202985656
 21
855.4608982551
 31
0.0
  0
LINE
  5
1D4
330
1F
100
AcDbEntity
  8
0
  6
Continuous
 62
     7
370
    25
100
AcDbLine
 10
424.7202985656
 20
855.4608982551
 30
0.0
 11
424.7202985656
 21
864.4608982551
 31
0.0
  0
LINE
  5
1D5
330
1F
100
AcDbEntity
  8
0
  6
Continuous
 62
     7
370
    25
100
AcDbLine
 10
424.7202985656
 20
864.4608982551
 30
0.0
 11
415.7202985656
 21
864.4608982551
 31
0.0
  0
LINE
  5
1D6
330
1F
100
AcDbEntity
  8
0
  6
Continuous
 62
     7
370
    25
100
AcDbLine
 10
415.7202985656
 20
864.4608982551
 30
0.0
 11
415.7202985656
 21
855.4608982551
 31
0.0
  0
LINE
  5
1D7
330
1F
100
AcDbEntity
  8
0
  6
Continuous
 62
     7
370
    25
100
AcDbLine
 10
415.7202985656
 20
880.4608982551
 30
0.0
 11
424.7202985656
 21
880.4608982551
 31
0.0
  0
LINE
  5
1D8
330
1F
100
AcDbEntity
  8
0
  6
Continuous
 62
     7
370
    25
100
AcDbLine
 10
424.7202985656
 20
880.4608982551
 30
0.0
 11
424.7202985656
 21
889.4608982551
 31
0.0
  0
LINE
  5
1D9
330
1F
100
AcDbEntity
  8
0
  6
Continuous
 62
     7
370
    25
100
AcDbLine
 10
424.7202985656
 20
889.4608982551
 30
0.0
 11
415.7202985656
 21
889.4608982551
 31
0.0
  0
LINE
  5
1DA
330
1F
100
AcDbEntity
  8
0
  6
Continuous
 62
     7
370
    25
100
AcDbLine
 10
415.7202985656
 20
889.4608982551
 30
0.0
 11
415.7202985656
 21
880.4608982551
 31
0.0
  0
LINE
  5
1DB
330
1F
100
AcDbEntity
  8
0
  6
Continuous
 62
     7
370
    25
100
AcDbLine
 10
415.7202985656
 20
905.4608982551
 30
0.0
 11
424.7202985656
 21
905.4608982551
 31
0.0
  0
LINE
  5
1DC
330
1F
100
AcDbEntity
  8
0
  6
Continuous
 62
     7
370
    25
100
AcDbLine
 10
424.7202985656
 20
905.4608982551
 30
0.0
 11
424.7202985656
 21
914.4608982551
 31
0.0
  0
LINE
  5
1DD
330
1F
100
AcDbEntity
  8
0
  6
Continuous
 62
     7
370
    25
100
AcDbLine
 10
424.7202985656
 20
914.4608982551
 30
0.0
 11
415.7202985656
 21
914.4608982551
 31
0.0
  0
LINE
  5
1DE
330
1F
100
AcDbEntity
  8
0
  6
Continuous
 62
     7
370
    25
100
AcDbLine
 10
415.7202985656
 20
914.4608982551
 30
0.0
 11
415.7202985656
 21
905.4608982551
 31
0.0
  0
LINE
  5
1DF
330
1F
100
AcDbEntity
  8
0
  6
Continuous
 62
     7
370
    25
100
AcDbLine
 10
415.7202985656
 20
930.4608982551
 30
0.0
 11
424.7202985656
 21
930.4608982551
 31
0.0
  0
LINE
  5
1E0
330
1F
100
AcDbEntity
  8
0
  6
Continuous
 62
     7
370
    25
100
AcDbLine
 10
424.7202985656
 20
930.4608982551
 30
0.0
 11
424.7202985656
 21
939.4608982551
 31
0.0
  0
LINE
  5
1E1
330
1F
100
AcDbEntity
  8
0
  6
Continuous
 62
     7
370
    25
100
AcDbLine
 10
424.7202985656
 20
939.4608982551
 30
0.0
 11
415.7202985656
 21
939.4608982551
 31
0.0
  0
LINE
  5
1E2
330
1F
100
AcDbEntity
  8
0
  6
Continuous
 62
     7
370
    25
100
AcDbLine
 10
415.7202985656
 20
939.4608982551
 30
0.0
 11
415.7202985656
 21
930.4608982551
 31
0.0
  0
LINE
  5
1E3
330
1F
100
AcDbEntity
  8
0
  6
Continuous
 62
     7
370
    25
100
AcDbLine
 10
415.7202985656
 20
955.4608982551
 30
0.0
 11
424.7202985656
 21
955.4608982551
 31
0.0
  0
LINE
  5
1E4
330
1F
100
AcDbEntity
  8
0
  6
Continuous
 62
     7
370
    25
100
AcDbLine
 10
424.7202985656
 20
955.4608982551
 30
0.0
 11
424.7202985656
 21
964.4608982551
 31
0.0
  0
LINE
  5
1E5
330
1F
100
AcDbEntity
  8
0
  6
Continuous
 62
     7
370
    25
100
AcDbLine
 10
424.7202985656
 20
964.4608982551
 30
0.0
 11
415.7202985656
 21
964.4608982551
 31
0.0
  0
LINE
  5
1E6
330
1F
100
AcDbEntity
  8
0
  6
Continuous
 62
     7
370
    25
100
AcDbLine
 10
415.7202985656
 20
964.4608982551
 30
0.0
 11
415.7202985656
 21
955.4608982551
 31
0.0
  0
LINE
  5
1E7
330
1F
100
AcDbEntity
  8
0
  6
Continuous
 62
     7
370
    25
100
AcDbLine
 10
415.7202985656
 20
980.4608982551
 30
0.0
 11
424.7202985656
 21
980.4608982551
 31
0.0
  0
LINE
  5
1E8
330
1F
100
AcDbEntity
  8
0
  6
Continuous
 62
     7
370
    25
100
AcDbLine
 10
424.7202985656
 20
980.4608982551
 30
0.0
 11
424.7202985656
 21
989.4608982551
 31
0.0
  0
LINE
  5
1E9
330
1F
100
AcDbEntity
  8
0
  6
Continuous
 62
     7
370
    25
100
AcDbLine
 10
424.7202985656
 20
989.4608982551
 30
0.0
 11
415.7202985656
 21
989.4608982551
 31
0.0
  0
LINE
  5
1EA
330
1F
100
AcDbEntity
  8
0
  6
Continuous
 62
     7
370
    25
100
AcDbLine
 10
415.7202985656
 20
989.4608982551
 30
0.0
 11
415.7202985656
 21
980.4608982551
 31
0.0
  0
LINE
  5
1EB
330
1F
100
AcDbEntity
  8
0
  6
Continuous
 62
     7
370
    25
100
AcDbLine
 10
415.7202985656
 20
1005.4608982551
 30
0.0
 11
424.7202985656
 21
1005.4608982551
 31
0.0
  0
LINE
  5
1EC
330
1F
100
AcDbEntity
  8
0
  6
Continuous
 62
     7
370
    25
100
AcDbLine
 10
424.7202985656
 20
1005.4608982551
 30
0.0
 11
424.7202985656
 21
1014.4608982551
 31
0.0
  0
LINE
  5
1ED
330
1F
100
AcDbEntity
  8
0
  6
Continuous
 62
     7
370
    25
100
AcDbLine
 10
424.7202985656
 20
1014.4608982551
 30
0.0
 11
415.7202985656
 21
1014.4608982551
 31
0.0
  0
LINE
  5
1EE
330
1F
100
AcDbEntity
  8
0
  6
Continuous
 62
     7
370
    25
100
AcDbLine
 10
415.7202985656
 20
1014.4608982551
 30
0.0
 11
415.7202985656
 21
1005.4608982551
 31
0.0
  0
LINE
  5
1EF
330
1F
100
AcDbEntity
  8
0
  6
Continuous
 62
     7
370
    25
100
AcDbLine
 10
415.7202985656
 20
1030.4608982551
 30
0.0
 11
424.7202985656
 21
1030.4608982551
 31
0.0
  0
LINE
  5
1F0
330
1F
100
AcDbEntity
  8
0
  6
Continuous
 62
     7
370
    25
100
AcDbLine
 10
424.7202985656
 20
1030.4608982551
 30
0.0
 11
424.7202985656
 21
1039.4608982551
 31
0.0
  0
LINE
  5
1F1
330
1F
100
AcDbEntity
  8
0
  6
Continuous
 62
     7
370
    25
100
AcDbLine
 10
424.7202985656
 20
1039.4608982551
 30
0.0
 11
415.7202985656
 21
1039.4608982551
 31
0.0
  0
LINE
  5
1F2
330
1F
100
AcDbEntity
  8
0
  6
Continuous
 62
     7
370
    25
100
AcDbLine
 10
415.7202985656
 20
1039.4608982551
 30
0.0
 11
415.7202985656
 21
1030.4608982551
 31
0.0
  0
LINE
  5
1F3
330
1F
100
AcDbEntity
  8
0
  6
Continuous
 62
     7
370
    25
100
AcDbLine
 10
415.7202985656
 20
1055.4608982551
 30
0.0
 11
424.7202985656
 21
1055.4608982551
 31
0.0
  0
LINE
  5
1F4
330
1F
100
AcDbEntity
  8
0
  6
Continuous
 62
     7
370
    25
100
AcDbLine
 10
424.7202985656
 20
1055.4608982551
 30
0.0
 11
424.7202985656
 21
1064.4608982551
 31
0.0
  0
LINE
  5
1F5
330
1F
100
AcDbEntity
  8
0
  6
Continuous
 62
     7
370
    25
100
AcDbLine
 10
424.7202985656
 20
1064.4608982551
 30
0.0
 11
415.7202985656
 21
1064.4608982551
 31
0.0
  0
LINE
  5
1F6
330
1F
100
AcDbEntity
  8
0
  6
Continuous
 62
     7
370
    25
100
AcDbLine
 10
415.7202985656
 20
1064.4608982551
 30
0.0
 11
415.7202985656
 21
1055.4608982551
 31
0.0
  0
LINE
  5
1F7
330
1F
100
AcDbEntity
  8
0
  6
Continuous
 62
     7
370
    25
100
AcDbLine
 10
415.7202985656
 20
1080.4608982551
 30
0.0
 11
424.7202985656
 21
1080.4608982551
 31
0.0
  0
LINE
  5
1F8
330
1F
100
AcDbEntity
  8
0
  6
Continuous
 62
     7
370
    25
100
AcDbLine
 10
424.7202985656
 20
1080.4608982551
 30
0.0
 11
424.7202985656
 21
1089.4608982551
 31
0.0
  0
LINE
  5
1F9
330
1F
100
AcDbEntity
  8
0
  6
Continuous
 62
     7
370
    25
100
AcDbLine
 10
424.7202985656
 20
1089.4608982551
 30
0.0
 11
415.7202985656
 21
1089.4608982551
 31
0.0
  0
LINE
  5
1FA
330
1F
100
AcDbEntity
  8
0
  6
Continuous
 62
     7
370
    25
100
AcDbLine
 10
415.7202985656
 20
1089.4608982551
 30
0.0
 11
415.7202985656
 21
1080.4608982551
 31
0.0
  0
LINE
  5
1FB
330
1F
100
AcDbEntity
  8
0
  6
Continuous
 62
     7
370
    25
100
AcDbLine
 10
415.7202985656
 20
1105.4608982551
 30
0.0
 11
424.7202985656
 21
1105.4608982551
 31
0.0
  0
LINE
  5
1FC
330
1F
100
AcDbEntity
  8
0
  6
Continuous
 62
     7
370
    25
100
AcDbLine
 10
424.7202985656
 20
1105.4608982551
 30
0.0
 11
424.7202985656
 21
1114.4608982551
 31
0.0
  0
LINE
  5
1FD
330
1F
100
AcDbEntity
  8
0
  6
Continuous
 62
     7
370
    25
100
AcDbLine
 10
424.7202985656
 20
1114.4608982551
 30
0.0
 11
415.7202985656
 21
1114.4608982551
 31
0.0
  0
LINE
  5
1FE
330
1F
100
AcDbEntity
  8
0
  6
Continuous
 62
     7
370
    25
100
AcDbLine
 10
415.7202985656
 20
1114.4608982551
 30
0.0
 11
415.7202985656
 21
1105.4608982551
 31
0.0
  0
LINE
  5
1FF
330
1F
100
AcDbEntity
  8
0
  6
Continuous
 62
     7
370
    25
100
AcDbLine
 10
415.7202985656
 20
1130.4608982551
 30
0.0
 11
424.7202985656
 21
1130.4608982551
 31
0.0
  0
LINE
  5
200
330
1F
100
AcDbEntity
  8
0
  6
Continuous
 62
     7
370
    25
100
AcDbLine
 10
424.7202985656
 20
1130.4608982551
 30
0.0
 11
424.7202985656
 21
1139.4608982551
 31
0.0
  0
LINE
  5
201
330
1F
100
AcDbEntity
  8
0
  6
Continuous
 62
     7
370
    25
100
AcDbLine
 10
424.7202985656
 20
1139.4608982551
 30
0.0
 11
415.7202985656
 21
1139.4608982551
 31
0.0
  0
LINE
  5
202
330
1F
100
AcDbEntity
  8
0
  6
Continuous
 62
     7
370
    25
100
AcDbLine
 10
415.7202985656
 20
1139.4608982551
 30
0.0
 11
415.7202985656
 21
1130.4608982551
 31
0.0
  0
LINE
  5
203
330
1F
100
AcDbEntity
  8
0
  6
Continuous
 62
     7
370
    25
100
AcDbLine
 10
424.7202985656
 20
1155.4608982551
 30
0.0
 11
424.7202985656
 21
1164.4608982551
 31
0.0
  0
LINE
  5
204
330
1F
100
AcDbEntity
  8
0
  6
Continuous
 62
     7
370
    25
100
AcDbLine
 10
424.7202985656
 20
1164.4608982551
 30
0.0
 11
415.7202985656
 21
1164.4608982551
 31
0.0
  0
LINE
  5
205
330
1F
100
AcDbEntity
  8
0
  6
Continuous
 62
     7
370
    25
100
AcDbLine
 10
415.7202985656
 20
1164.4608982551
 30
0.0
 11
415.7202985656
 21
1155.4608982551
 31
0.0
  0
LINE
  5
206
330
1F
100
AcDbEntity
  8
0
  6
Continuous
 62
     7
370
    25
100
AcDbLine
 10
415.7202985656
 20
5.4608982551
 30
0.0
 11
424.7202985656
 21
5.4608982551
 31
0.0
  0
LINE
  5
207
330
1F
100
AcDbEntity
  8
0
  6
Continuous
 62
     7
370
    25
100
AcDbLine
 10
415.7202985656
 20
1189.4608982551
 30
0.0
 11
415.7202985656
 21
1180.4608982551
 31
0.0
  0
LINE
  5
208
330
1F
100
AcDbEntity
  8
0
  6
Continuous
 62
     7
370
    25
100
AcDbLine
 10
415.7202985656
 20
739.4608982551
 30
0.0
 11
415.7202985656
 21
730.4608982551
 31
0.0
  0
LINE
  5
209
330
1F
100
AcDbEntity
  8
0
  6
Continuous
 62
     7
370
    25
100
AcDbLine
 10
415.7202985656
 20
14.4608982551
 30
0.0
 11
415.7202985656
 21
5.4608982551
 31
0.0
  0
LINE
  5
20A
330
1F
100
AcDbEntity
  8
0
  6
Continuous
 62
     7
370
    25
100
AcDbLine
 10
415.7202985656
 20
-635.5391017449
 30
0.0
 11
415.7202985656
 21
-644.5391017449
 31
0.0
  0
LINE
  5
20B
330
1F
100
AcDbEntity
  8
0
  6
Continuous
 62
     7
370
    25
100
AcDbLine
 10
415.7202985656
 20
-669.5391017449
 30
0.0
 11
424.7202985656
 21
-669.5391017449
 31
0.0
  0
LINE
  5
20C
330
1F
100
AcDbEntity
  8
0
  6
Continuous
 62
     7
370
    25
100
AcDbLine
 10
415.7202985656
 20
-560.5391017449
 30
0.0
 11
415.7202985656
 21
-569.5391017449
 31
0.0
  0
LINE
  5
20D
330
1F
100
AcDbEntity
  8
0
  6
Continuous
 62
     7
370
    25
100
AcDbLine
 10
415.7202985656
 20
-594.5391017449
 30
0.0
 11
424.7202985656
 21
-594.5391017449
 31
0.0
  0
LINE
  5
20E
330
1F
100
AcDbEntity
  8
0
  6
Continuous
 62
     7
370
    25
100
AcDbLine
 10
415.7202985656
 20
164.4608982551
 30
0.0
 11
415.7202985656
 21
155.4608982551
 31
0.0
  0
LINE
  5
20F
330
1F
100
AcDbEntity
  8
0
  6
Continuous
 62
     7
370
    25
100
AcDbLine
 10
415.7202985656
 20
130.4608982551
 30
0.0
 11
424.7202985656
 21
130.4608982551
 31
0.0
  0
LINE
  5
210
330
1F
100
AcDbEntity
  8
0
  6
Continuous
 62
     7
370
    25
100
AcDbLine
 10
415.7202985656
 20
-585.5391017449
 30
0.0
 11
415.7202985656
 21
-594.5391017449
 31
0.0
  0
LINE
  5
211
330
1F
100
AcDbEntity
  8
0
  6
Continuous
 62
     7
370
    25
100
AcDbLine
 10
415.7202985656
 20
-619.5391017449
 30
0.0
 11
424.7202985656
 21
-619.5391017449
 31
0.0
  0
LINE
  5
212
330
1F
100
AcDbEntity
  8
0
  6
Continuous
 62
     7
370
    25
100
AcDbLine
 10
415.7202985656
 20
139.4608982551
 30
0.0
 11
415.7202985656
 21
130.4608982551
 31
0.0
  0
LINE
  5
213
330
1F
100
AcDbEntity
  8
0
  6
Continuous
 62
     7
370
    25
100
AcDbLine
 10
415.7202985656
 20
314.4608982551
 30
0.0
 11
415.7202985656
 21
305.4608982551
 31
0.0
  0
LINE
  5
214
330
1F
100
AcDbEntity
  8
0
  6
Continuous
 62
     7
370
    25
100
AcDbLine
 10
415.7202985656
 20
-610.5391017449
 30
0.0
 11
415.7202985656
 21
-619.5391017449
 31
0.0
  0
LINE
  5
215
330
1F
100
AcDbEntity
  8
0
  6
Continuous
 62
     7
370
    25
100
AcDbLine
 10
415.7202985656
 20
-644.5391017449
 30
0.0
 11
424.7202985656
 21
-644.5391017449
 31
0.0
  0
LINE
  5
216
330
1F
100
AcDbEntity
  8
0
  6
Continuous
 62
     7
370
    25
100
AcDbLine
 10
415.7202985656
 20
114.4608982551
 30
0.0
 11
415.7202985656
 21
105.4608982551
 31
0.0
  0
LINE
  5
217
330
1F
100
AcDbEntity
  8
0
  6
Continuous
 62
     7
370
    25
100
AcDbLine
 10
415.7202985656
 20
80.4608982551
 30
0.0
 11
424.7202985656
 21
80.4608982551
 31
0.0
  0
LINE
  5
218
330
1F
100
AcDbEntity
  8
0
  6
Continuous
 62
     7
370
    25
100
AcDbLine
 10
415.7202985656
 20
55.4608982551
 30
0.0
 11
424.7202985656
 21
55.4608982551
 31
0.0
  0
LINE
  5
219
330
1F
100
AcDbEntity
  8
0
  6
Continuous
 62
     7
370
    25
100
AcDbLine
 10
415.7202985656
 20
-685.5391017449
 30
0.0
 11
415.7202985656
 21
-694.5391017449
 31
0.0
  0
LINE
  5
21A
330
1F
100
AcDbEntity
  8
0
  6
Continuous
 62
     7
370
    25
100
AcDbLine
 10
415.7202985656
 20
89.4608982551
 30
0.0
 11
415.7202985656
 21
80.4608982551
 31
0.0
  0
LINE
  5
21B
330
1F
100
AcDbEntity
  8
0
  6
Continuous
 62
     7
370
    25
100
AcDbLine
 10
415.7202985656
 20
1180.4608982551
 30
0.0
 11
424.7202985656
 21
1180.4608982551
 31
0.0
  0
LINE
  5
21C
330
1F
100
AcDbEntity
  8
0
  6
Continuous
 62
     7
370
    25
100
AcDbLine
 10
415.7202985656
 20
1155.4608982551
 30
0.0
 11
424.7202985656
 21
1155.4608982551
 31
0.0
  0
LINE
  5
21D
330
1F
100
AcDbEntity
  8
0
  6
Continuous
 62
     7
370
    25
100
AcDbLine
 10
415.7202985656
 20
105.4608982551
 30
0.0
 11
424.7202985656
 21
105.4608982551
 31
0.0
  0
LINE
  5
21E
330
1F
100
AcDbEntity
  8
0
  6
Continuous
 62
     7
370
    25
100
AcDbLine
 10
415.7202985656
 20
39.4608982551
 30
0.0
 11
415.7202985656
 21
30.4608982551
 31
0.0
  0
LINE
  5
21F
330
1F
100
AcDbEntity
  8
0
  6
Continuous
 62
     7
370
    25
100
AcDbLine
 10
652.7380439075
 20
-716.0391017449
 30
0.0
 11
652.7380439075
 21
1210.9608982551
 31
0.0
  0
CIRCLE
  5
220
330
1F
100
AcDbEntity
  8
0
  6
Continuous
 62
     7
370
    25
100
AcDbCircle
 10
637.7380439075
 20
-652.5391017449
 30
0.0
 40
3.249999999999886
  0
CIRCLE
  5
221
330
1F
100
AcDbEntity
  8
0
  6
Continuous
 62
     7
370
    25
100
AcDbCircle
 10
637.7380439075
 20
-352.5391017449
 30
0.0
 40
3.249999999999886
  0
CIRCLE
  5
222
330
1F
100
AcDbEntity
  8
0
  6
Continuous
 62
     7
370
    25
100
AcDbCircle
 10
637.7380439075
 20
-52.5391017449
 30
0.0
 40
3.249999999999886
  0
CIRCLE
  5
223
330
1F
100
AcDbEntity
  8
0
  6
Continuous
 62
     7
370
    25
100
AcDbCircle
 10
637.7380439075
 20
247.4608982551
 30
0.0
 40
3.249999999999886
  0
CIRCLE
  5
224
330
1F
100
AcDbEntity
  8
0
  6
Continuous
 62
     7
370
    25
100
AcDbCircle
 10
637.7380439075
 20
547.4608982551
 30
0.0
 40
3.249999999999886
  0
LINE
  5
225
330
1F
100
AcDbEntity
  8
0
  6
Continuous
 62
     7
370
    25
100
AcDbLine
 10
630.3380439075
 20
1210.9608982551
 30
0.0
 11
630.3380439075
 21
1204.9608982551
 31
0.0
  0
LINE
  5
226
330
1F
100
AcDbEntity
  8
0
  6
Continuous
 62
     7
370
    25
100
AcDbLine
 10
651.3280439075
 20
-716.0391017449
 30
0.0
 11
630.3380439075
 21
-716.0391017449
 31
0.0
  0
LINE
  5
227
330
1F
100
AcDbEntity
  8
0
  6
Continuous
 62
     7
370
    25
100
AcDbLine
 10
630.3380439075
 20
-710.0391017449
 30
0.0
 11
630.3380439075
 21
-716.0391017449
 31
0.0
  0
LINE
  5
228
330
1F
100
AcDbEntity
  8
0
  6
Continuous
 62
     7
370
    25
100
AcDbLine
 10
645.2380439075
 20
-710.0391017449
 30
0.0
 11
630.3380439075
 21
-710.0391017449
 31
0.0
  0
LINE
  5
229
330
1F
100
AcDbEntity
  8
0
  6
Continuous
 62
     7
370
    25
100
AcDbLine
 10
645.2380439075
 20
-695.0391017449
 30
0.0
 11
645.2380439075
 21
-710.0391017449
 31
0.0
  0
LINE
  5
22A
330
1F
100
AcDbEntity
  8
0
  6
Continuous
 62
     7
370
    25
100
AcDbLine
 10
630.3380439075
 20
-695.0391017449
 30
0.0
 11
645.2380439075
 21
-695.0391017449
 31
0.0
  0
LINE
  5
22B
330
1F
100
AcDbEntity
  8
0
  6
Continuous
 62
     7
370
    25
100
AcDbLine
 10
645.2380439075
 20
-685.0391017449
 30
0.0
 11
630.3380439075
 21
-685.0391017449
 31
0.0
  0
LINE
  5
22C
330
1F
100
AcDbEntity
  8
0
  6
Continuous
 62
     7
370
    25
100
AcDbLine
 10
645.2380439075
 20
-670.0391017449
 30
0.0
 11
645.2380439075
 21
-685.0391017449
 31
0.0
  0
LINE
  5
22D
330
1F
100
AcDbEntity
  8
0
  6
Continuous
 62
     7
370
    25
100
AcDbLine
 10
630.3380439075
 20
-670.0391017449
 30
0.0
 11
645.2380439075
 21
-670.0391017449
 31
0.0
  0
LINE
  5
22E
330
1F
100
AcDbEntity
  8
0
  6
Continuous
 62
     7
370
    25
100
AcDbLine
 10
645.2380439075
 20
1164.9608982551
 30
0.0
 11
630.3380439075
 21
1164.9608982551
 31
0.0
  0
LINE
  5
22F
330
1F
100
AcDbEntity
  8
0
  6
Continuous
 62
     7
370
    25
100
AcDbLine
 10
645.2380439075
 20
1179.9608982551
 30
0.0
 11
645.2380439075
 21
1164.9608982551
 31
0.0
  0
LINE
  5
230
330
1F
100
AcDbEntity
  8
0
  6
Continuous
 62
     7
370
    25
100
AcDbLine
 10
630.3380439075
 20
1179.9608982551
 30
0.0
 11
645.2380439075
 21
1179.9608982551
 31
0.0
  0
LINE
  5
231
330
1F
100
AcDbEntity
  8
0
  6
Continuous
 62
     7
370
    25
100
AcDbLine
 10
645.2380439075
 20
1189.9608982551
 30
0.0
 11
630.3380439075
 21
1189.9608982551
 31
0.0
  0
LINE
  5
232
330
1F
100
AcDbEntity
  8
0
  6
Continuous
 62
     7
370
    25
100
AcDbLine
 10
645.2380439075
 20
1204.9608982551
 30
0.0
 11
645.2380439075
 21
1189.9608982551
 31
0.0
  0
LINE
  5
233
330
1F
100
AcDbEntity
  8
0
  6
Continuous
 62
     7
370
    25
100
AcDbLine
 10
630.3380439075
 20
1204.9608982551
 30
0.0
 11
645.2380439075
 21
1204.9608982551
 31
0.0
  0
CIRCLE
  5
234
330
1F
100
AcDbEntity
  8
0
  6
Continuous
 62
     7
370
    25
100
AcDbCircle
 10
637.7380439075
 20
1147.4608982551
 30
0.0
 40
3.249999999999886
  0
CIRCLE
  5
235
330
1F
100
AcDbEntity
  8
0
  6
Continuous
 62
     7
370
    25
100
AcDbCircle
 10
637.7380439075
 20
847.4608982551
 30
0.0
 40
3.249999999999886
  0
LINE
  5
236
330
1F
100
AcDbEntity
  8
0
  6
Continuous
 62
     7
370
    25
100
AcDbLine
 10
630.3380439075
 20
1164.9608982551
 30
0.0
 11
630.3380439075
 21
-670.0391017449
 31
0.0
  0
LINE
  5
237
330
1F
100
AcDbEntity
  8
0
  6
Continuous
 62
     7
370
    25
100
AcDbLine
 10
630.3380439075
 20
1189.9608982551
 30
0.0
 11
630.3380439075
 21
1179.9608982551
 31
0.0
  0
LINE
  5
238
330
1F
100
AcDbEntity
  8
0
  6
Continuous
 62
     7
370
    25
100
AcDbLine
 10
630.3380439075
 20
-685.0391017449
 30
0.0
 11
630.3380439075
 21
-695.0391017449
 31
0.0
  0
LINE
  5
239
330
1F
100
AcDbEntity
  8
0
  6
Continuous
 62
     7
370
    25
100
AcDbLine
 10
651.3280439075
 20
1210.9608982551
 30
0.0
 11
630.3380439075
 21
1210.9608982551
 31
0.0
  0
LINE
  5
23A
330
1F
100
AcDbEntity
  8
0
  6
Continuous
 62
     7
370
    25
100
AcDbLine
 10
652.7380439075
 20
-716.0391017449
 30
0.0
 11
651.3280439075
 21
-716.0391017449
 31
0.0
  0
LINE
  5
23B
330
1F
100
AcDbEntity
  8
0
  6
Continuous
 62
     7
370
    25
100
AcDbLine
 10
652.7380439075
 20
1210.9608982551
 30
0.0
 11
651.3280439075
 21
1210.9608982551
 31
0.0
  0
LINE
  5
23C
330
1F
100
AcDbEntity
  8
0
  6
Continuous
 62
     7
370
    25
100
AcDbLine
 10
629.3828518777
 20
-716.0391017449
 30
0.0
 11
630.1107955266
 21
-716.0391017449
 31
0.0
  0
LINE
  5
23D
330
1F
100
AcDbEntity
  8
0
  6
Continuous
 62
     7
370
    25
100
AcDbLine
 10
629.3828518777
 20
1210.9608982551
 30
0.0
 11
630.1107955266
 21
1210.9608982551
 31
0.0
  0
LINE
  5
23E
330
1F
100
AcDbEntity
  8
0
  6
Continuous
 62
     7
370
    25
100
AcDbLine
 10
630.1107955266
 20
1210.9608982551
 30
0.0
 11
630.3380439075
 21
1210.9608982551
 31
0.0
  0
LINE
  5
23F
330
1F
100
AcDbEntity
  8
0
  6
Continuous
 62
     7
370
    25
100
AcDbLine
 10
630.2380439075
 20
-710.0391017449
 30
0.0
 11
630.2380439075
 21
-695.0391017449
 31
0.0
  0
LINE
  5
240
330
1F
100
AcDbEntity
  8
0
  6
Continuous
 62
     7
370
    25
100
AcDbLine
 10
630.3380439075
 20
-710.0391017449
 30
0.0
 11
630.2380439075
 21
-710.0391017449
 31
0.0
  0
LINE
  5
241
330
1F
100
AcDbEntity
  8
0
  6
Continuous
 62
     7
370
    25
100
AcDbLine
 10
630.2380439075
 20
-695.0391017449
 30
0.0
 11
630.3380439075
 21
-695.0391017449
 31
0.0
  0
LINE
  5
242
330
1F
100
AcDbEntity
  8
0
  6
Continuous
 62
     7
370
    25
100
AcDbLine
 10
630.2380439075
 20
1164.9608982551
 30
0.0
 11
630.2380439075
 21
1179.9608982551
 31
0.0
  0
LINE
  5
243
330
1F
100
AcDbEntity
  8
0
  6
Continuous
 62
     7
370
    25
100
AcDbLine
 10
630.3380439075
 20
1164.9608982551
 30
0.0
 11
630.2380439075
 21
1164.9608982551
 31
0.0
  0
LINE
  5
244
330
1F
100
AcDbEntity
  8
0
  6
Continuous
 62
     7
370
    25
100
AcDbLine
 10
630.2380439075
 20
-670.0391017449
 30
0.0
 11
630.3380439075
 21
-670.0391017449
 31
0.0
  0
LINE
  5
245
330
1F
100
AcDbEntity
  8
0
  6
Continuous
 62
     7
370
    25
100
AcDbLine
 10
630.2380439075
 20
-685.0391017449
 30
0.0
 11
630.2380439075
 21
-670.0391017449
 31
0.0
  0
LINE
  5
246
330
1F
100
AcDbEntity
  8
0
  6
Continuous
 62
     7
370
    25
100
AcDbLine
 10
630.3380439075
 20
-685.0391017449
 30
0.0
 11
630.2380439075
 21
-685.0391017449
 31
0.0
  0
LINE
  5
247
330
1F
100
AcDbEntity
  8
0
  6
Continuous
 62
     7
370
    25
100
AcDbLine
 10
630.2380439075
 20
1189.9608982551
 30
0.0
 11
630.2380439075
 21
1204.9608982551
 31
0.0
  0
LINE
  5
248
330
1F
100
AcDbEntity
  8
0
  6
Continuous
 62
     7
370
    25
100
AcDbLine
 10
630.3380439075
 20
1189.9608982551
 30
0.0
 11
630.2380439075
 21
1189.9608982551
 31
0.0
  0
LINE
  5
249
330
1F
100
AcDbEntity
  8
0
  6
Continuous
 62
     7
370
    25
100
AcDbLine
 10
630.2380439075
 20
1204.9608982551
 30
0.0
 11
630.3380439075
 21
1204.9608982551
 31
0.0
  0
LINE
  5
24A
330
1F
100
AcDbEntity
  8
0
  6
Continuous
 62
     7
370
    25
100
AcDbLine
 10
630.2380439075
 20
1179.9608982551
 30
0.0
 11
630.3380439075
 21
1179.9608982551
 31
0.0
  0
LINE
  5
24B
330
1F
100
AcDbEntity
  8
0
  6
Continuous
 62
     7
370
    25
100
AcDbLine
 10
630.1107955266
 20
-716.0391017449
 30
0.0
 11
630.3380439075
 21
-716.0391017449
 31
0.0
  0
SPLINE
  5
24C
330
1F
100
AcDbEntity
  8
0
  6
Continuous
 62
     7
370
    25
100
AcDbSpline
210
0.0
220
0.0
230
1.0
 70
     8
 71
     3
 72
    26
 73
    22
 74
     0
 42
0.000000001
 43
0.00000001
 40
0.0
 40
0.0
 40
0.0
 40
0.0
 40
0.0043401099377227
 40
0.059654548274514
 40
0.1149689866113057
 40
0.1702834249481042
 40
0.2255978632848963
 40
0.2809123016216927
 40
0.3362267399584806
 40
0.3915411782952772
 40
0.446855616632067
 40
0.5021700549688607
 40
0.5574844933056547
 40
0.612798931642448
 40
0.6681133699792421
 40
0.7234278083160353
 40
0.7787422466528285
 40
0.8340566849896193
 40
0.8893711233264161
 40
0.9446855616632049
 40
1.0
 40
1.0
 40
1.0
 40
1.0
 10
622.406920593836
 20
1149.460898255071
 30
0.0
 10
622.4068696999435
 20
1149.447069117727
 30
0.0
 10
622.4061701664726
 20
1149.256988462379
 30
0.0
 10
622.375097749643
 20
1148.890418573382
 30
0.0
 10
622.2556949002624
 20
1148.374765394609
 30
0.0
 10
622.0633955218018
 20
1147.883789146207
 30
0.0
 10
621.8028749531825
 20
1147.428840020349
 30
0.0
 10
621.4800027546004
 20
1147.020263437832
 30
0.0
 10
621.1021688709948
 20
1146.667395284422
 30
0.0
 10
620.6779916499003
 20
1146.378286821664
 30
0.0
 10
620.2171542405803
 20
1146.159537565072
 30
0.0
 10
619.7301744574318
 20
1146.016140079421
 30
0.0
 10
619.2281681023354
 20
1145.951367678399
 30
0.0
 10
618.722590831413
 20
1145.966697677458
 30
0.0
 10
618.2249909823665
 20
1146.061784164164
 30
0.0
 10
617.746693222918
 20
1146.234441971635
 30
0.0
 10
617.2987368407761
 20
1146.480785751877
 30
0.0
 10
616.8908894652542
 20
1146.794985786644
 30
0.0
 10
616.5341646054737
 20
1147.170643330674
 30
0.0
 10
616.2303426674748
 20
1147.596300398426
 30
0.0
 10
616.0835143949234
 20
1147.914102832357
 30
0.0
 10
616.0101002586478
 20
1148.073004049322
 30
0.0
  0
LINE
  5
24D
330
1F
100
AcDbEntity
  8
0
  6
Continuous
 62
     7
370
    25
100
AcDbLine
 10
622.4069205938
 20
1154.4608982551
 30
0.0
 11
622.4069205938
 21
1149.4608982551
 31
0.0
  0
LINE
  5
24E
330
1F
100
AcDbEntity
  8
0
  6
Continuous
 62
     7
370
    25
100
AcDbLine
 10
622.3688593655
 20
1154.9881596401
 30
0.0
 11
622.4069205938
 21
1154.4608982551
 31
0.0
  0
SPLINE
  5
24F
330
1F
100
AcDbEntity
  8
0
  6
Continuous
 62
     7
370
    25
100
AcDbSpline
210
0.0
220
0.0
230
1.0
 70
     8
 71
     3
 72
    25
 73
    21
 74
     0
 42
0.000000001
 43
0.00000001
 40
0.0
 40
0.0
 40
0.0
 40
0.0
 40
0.0045942376107406
 40
0.063147517751276
 40
0.1217007978918251
 40
0.1802540780323665
 40
0.2388073581729099
 40
0.2973606383134595
 40
0.3559139184540019
 40
0.4144671985945468
 40
0.4730204787350913
 40
0.5315737588756352
 40
0.590127039016181
 40
0.6486803191567251
 40
0.7072335992972679
 40
0.7657868794378129
 40
0.8243401595783633
 40
0.8828934397189059
 40
0.9414467198594519
 40
1.0
 40
1.0
 40
1.0
 40
1.0
 10
616.0101002586478
 20
1155.848792460819
 30
0.0
 10
616.0153724708316
 20
1155.861466663728
 30
0.0
 10
616.0878387080351
 20
1156.035672815204
 30
0.0
 10
616.2548761525807
 20
1156.359259547833
 30
0.0
 10
616.5593351801696
 20
1156.782948998983
 30
0.0
 10
616.9213900070883
 20
1157.153649086775
 30
0.0
 10
617.3324598000811
 20
1157.462885761596
 30
0.0
 10
617.7832470687259
 20
1157.703604339414
 30
0.0
 10
618.2634400686676
 20
1157.870309609562
 30
0.0
 10
618.7620846915732
 20
1157.959196851777
 30
0.0
 10
619.2677981757005
 20
1157.968237222156
 30
0.0
 10
619.7690376274365
 20
1157.897224288183
 30
0.0
 10
620.2543649300835
 20
1157.747779284491
 30
0.0
 10
620.712693304715
 20
1157.523311705133
 30
0.0
 10
621.1335969454058
 20
1157.228950555072
 30
0.0
 10
621.5073371506244
 20
1156.871393401326
 30
0.0
 10
621.825875348203
 20
1156.458879960714
 30
0.0
 10
622.0801054276507
 20
1156.000532089243
 30
0.0
 10
622.2710754143837
 20
1155.507906897257
 30
0.0
 10
622.3362647150997
 20
1155.161408725832
 30
0.0
 10
622.3688593654579
 20
1154.988159640119
 30
0.0
  0
SPLINE
  5
250
330
1F
100
AcDbEntity
  8
0
  6
Continuous
 62
     7
370
    25
100
AcDbSpline
210
0.0
220
0.0
230
1.0
 70
     8
 71
     3
 72
    26
 73
    22
 74
     0
 42
0.000000001
 43
0.00000001
 40
0.0
 40
0.0
 40
0.0
 40
0.0
 40
0.0553144383367879
 40
0.1106288766735842
 40
0.1659433150103789
 40
0.22125775334717
 40
0.2765721916839686
 40
0.3318866300207622
 40
0.3872010683575536
 40
0.4425155066943462
 40
0.4978299450311406
 40
0.5531443833679329
 40
0.6084588217047261
 40
0.6637732600415197
 40
0.7190876983783107
 40
0.7744021367151086
 40
0.8297165750519007
 40
0.8850310133886907
 40
0.9403454517254882
 40
0.9956598900622726
 40
1.0
 40
1.0
 40
1.0
 40
1.0
 10
622.4069205938365
 20
-659.5391017449293
 30
0.0
 10
622.3995677361489
 20
-659.7155266747804
 30
0.0
 10
622.3848620207738
 20
-660.0683765344831
 30
0.0
 10
622.2667875158149
 20
-660.5855708970035
 30
0.0
 10
622.0812543666094
 20
-661.0788801350418
 30
0.0
 10
621.8255674909368
 20
-661.5370447169253
 30
0.0
 10
621.5074196407302
 20
-661.9496072698337
 30
0.0
 10
621.1335748422485
 20
-662.3071512639807
 30
0.0
 10
620.7126992272382
 20
-662.6015159401445
 30
0.0
 10
620.2543633431483
 20
-662.8259825746863
 30
0.0
 10
619.7690380526547
 20
-662.9754278315415
 30
0.0
 10
619.2677980617635
 20
-663.0464406976791
 30
0.0
 10
618.7620847221025
 20
-663.0374003454776
 30
0.0
 10
618.2634400604874
 20
-662.9485130983918
 30
0.0
 10
617.7832470709178
 20
-662.7818078295484
 30
0.0
 10
617.3324597994937
 20
-662.5410892513806
 30
0.0
 10
616.9213900072458
 20
-662.2318525766533
 30
0.0
 10
616.5593351801272
 20
-661.8611524888358
 30
0.0
 10
616.2548761525928
 20
-661.4374630376929
 30
0.0
 10
616.0878387080347
 20
-661.113876305062
 30
0.0
 10
616.0153724708316
 20
-660.9396701535863
 30
0.0
 10
616.0101002586478
 20
-660.926995950678
 30
0.0
  0
LINE
  5
251
330
1F
100
AcDbEntity
  8
0
  6
Continuous
 62
     7
370
    25
100
AcDbLine
 10
622.4069205938
 20
-654.5391017449
 30
0.0
 11
622.4069205938
 21
-659.5391017449
 31
0.0
  0
SPLINE
  5
252
330
1F
100
AcDbEntity
  8
0
  6
Continuous
 62
     7
370
    25
100
AcDbSpline
210
0.0
220
0.0
230
1.0
 70
     8
 71
     3
 72
    26
 73
    22
 74
     0
 42
0.000000001
 43
0.00000001
 40
0.0
 40
0.0
 40
0.0
 40
0.0
 40
0.055314438336795
 40
0.1106288766735839
 40
0.1659433150103809
 40
0.2212577533471716
 40
0.2765721916839647
 40
0.3318866300207579
 40
0.387201068357552
 40
0.4425155066943453
 40
0.4978299450311394
 40
0.553144383367933
 40
0.6084588217047229
 40
0.6637732600415196
 40
0.7190876983783073
 40
0.7744021367151038
 40
0.8297165750518958
 40
0.8850310133886943
 40
0.9403454517254861
 40
0.9956598900622773
 40
1.0
 40
1.0
 40
1.0
 40
1.0
 10
616.0101002586478
 20
-653.1512075391807
 30
0.0
 10
616.0835143949234
 20
-652.9923063222153
 30
0.0
 10
616.2303426674748
 20
-652.6745038882848
 30
0.0
 10
616.5341646054737
 20
-652.2488468205335
 30
0.0
 10
616.8908894652542
 20
-651.8731892765027
 30
0.0
 10
617.2987368407761
 20
-651.5589892417362
 30
0.0
 10
617.746693222918
 20
-651.3126454614937
 30
0.0
 10
618.2249909823665
 20
-651.1399876540225
 30
0.0
 10
618.722590831413
 20
-651.0449011673168
 30
0.0
 10
619.2281681023354
 20
-651.0295711682576
 30
0.0
 10
619.7301744574318
 20
-651.09434356928
 30
0.0
 10
620.2171542405803
 20
-651.2377410549306
 30
0.0
 10
620.6779916499003
 20
-651.4564903115228
 30
0.0
 10
621.1021688709948
 20
-651.7455987742808
 30
0.0
 10
621.4800027546004
 20
-652.0984669276913
 30
0.0
 10
621.8028749531825
 20
-652.5070435102077
 30
0.0
 10
622.0633955218018
 20
-652.9619926360663
 30
0.0
 10
622.2556949002624
 20
-653.4529688844668
 30
0.0
 10
622.375097749643
 20
-653.968622063241
 30
0.0
 10
622.4061701664725
 20
-654.3351919522364
 30
0.0
 10
622.4068696999435
 20
-654.5252726075861
 30
0.0
 10
622.406920593836
 20
-654.5391017449294
 30
0.0
  0
LINE
  5
253
330
1F
100
AcDbEntity
  8
0
  6
Continuous
 62
     7
370
    25
100
AcDbLine
 10
616.0101002586
 20
-716.0391017449
 30
0.0
 11
629.3828518777
 21
-716.0391017449
 31
0.0
  0
LINE
  5
254
330
1F
100
AcDbEntity
  8
0
  6
Continuous
 62
     7
370
    25
100
AcDbLine
 10
616.0101002586
 20
1210.9608982551
 30
0.0
 11
629.3828518777
 21
1210.9608982551
 31
0.0
  0
LINE
  5
255
330
1F
100
AcDbEntity
  8
0
  6
Continuous
 62
     7
370
    25
100
AcDbLine
 10
616.4347340538
 20
-660.9269959507
 30
0.0
 11
616.0101002586
 21
-660.9269959507
 31
0.0
  0
SPLINE
  5
256
330
1F
100
AcDbEntity
  8
0
  6
Continuous
 62
     7
370
    25
100
AcDbSpline
210
0.0
220
0.0
230
1.0
 70
     8
 71
     3
 72
    11
 73
     7
 74
     0
 42
0.000000001
 43
0.00000001
 40
0.0
 40
0.0
 40
0.0
 40
0.0
 40
0.1184314029112994
 40
0.4122907381370791
 40
0.706151694659122
 40
1.0
 40
1.0
 40
1.0
 40
1.0
 10
619.4949417935594
 20
-662.9900629107053
 30
0.0
 10
619.3421389546152
 20
-663.0022368489656
 30
0.0
 10
618.8101922436155
 20
-663.0446175171666
 30
0.0
 10
617.9314599780286
 20
-662.6876280389789
 30
0.0
 10
616.9908819158948
 20
-661.9815716902743
 30
0.0
 10
616.6201140140917
 20
-661.278516152486
 30
0.0
 10
616.4347340538129
 20
-660.926995950669
 30
0.0
  0
LINE
  5
257
330
1F
100
AcDbEntity
  8
0
  6
Continuous
 62
     7
370
    25
100
AcDbLine
 10
616.4347340538
 20
1148.0730040493
 30
0.0
 11
616.0101002586
 21
1148.0730040493
 31
0.0
  0
SPLINE
  5
258
330
1F
100
AcDbEntity
  8
0
  6
Continuous
 62
     7
370
    25
100
AcDbSpline
210
0.0
220
0.0
230
1.0
 70
     8
 71
     3
 72
    11
 73
     7
 74
     0
 42
0.000000001
 43
0.00000001
 40
0.0
 40
0.0
 40
0.0
 40
0.0
 40
0.1184299388479099
 40
0.4122904689566472
 40
0.7061252047299196
 40
1.0
 40
1.0
 40
1.0
 40
1.0
 10
619.494966220937
 20
1146.009936115264
 30
0.0
 10
619.3421689866769
 20
1145.997761819739
 30
0.0
 10
618.8102355585149
 20
1145.95537941154
 30
0.0
 10
617.9314828823357
 20
1146.312275581392
 30
0.0
 10
616.9911982866893
 20
1147.018650425416
 30
0.0
 10
616.6202305600807
 20
1147.721536871295
 30
0.0
 10
616.4347340538129
 20
1148.073004049331
 30
0.0
  0
LINE
  5
259
330
1F
100
AcDbEntity
  8
0
  6
Continuous
 62
     7
370
    25
100
AcDbLine
 10
616.4347340538
 20
-653.1512075392
 30
0.0
 11
616.0101002586
 21
-653.1512075392
 31
0.0
  0
SPLINE
  5
25A
330
1F
100
AcDbEntity
  8
0
  6
Continuous
 62
     7
370
    25
100
AcDbSpline
210
0.0
220
0.0
230
1.0
 70
     8
 71
     3
 72
    11
 73
     7
 74
     0
 42
0.000000001
 43
0.00000001
 40
0.0
 40
0.0
 40
0.0
 40
0.0
 40
0.2938747952686669
 40
0.5877095310423686
 40
0.8815700611515587
 40
1.0
 40
1.0
 40
1.0
 40
1.0
 10
616.4347340538129
 20
-653.1512075391807
 30
0.0
 10
616.6202305600813
 20
-652.7997403611479
 30
0.0
 10
616.991198286692
 20
-652.0968539152734
 30
0.0
 10
617.9314828823354
 20
-651.3904790712506
 30
0.0
 10
618.8102355585154
 20
-651.0335829013987
 30
0.0
 10
619.3421689866778
 20
-651.0759653095977
 30
0.0
 10
619.4949662209384
 20
-651.0881396051226
 30
0.0
  0
LINE
  5
25B
330
1F
100
AcDbEntity
  8
0
  6
Continuous
 62
     7
370
    25
100
AcDbLine
 10
616.4347340538
 20
1155.8487924608
 30
0.0
 11
616.0101002586
 21
1155.8487924608
 31
0.0
  0
SPLINE
  5
25C
330
1F
100
AcDbEntity
  8
0
  6
Continuous
 62
     7
370
    25
100
AcDbSpline
210
0.0
220
0.0
230
1.0
 70
     8
 71
     3
 72
    11
 73
     7
 74
     0
 42
0.000000001
 43
0.00000001
 40
0.0
 40
0.0
 40
0.0
 40
0.0
 40
0.2775245826044553
 40
0.5550598251010843
 40
0.8325944959789486
 40
1.0
 40
1.0
 40
1.0
 40
1.0
 10
616.4347340538129
 20
1155.84879246082
 30
0.0
 10
616.6079885066163
 20
1156.181300012196
 30
0.0
 10
616.9545040670345
 20
1156.84632788677
 30
0.0
 10
617.8219326936795
 20
1157.544450271519
 30
0.0
 10
618.7041008838722
 20
1157.933237398513
 30
0.0
 10
619.2808594256078
 20
1157.921691009057
 30
0.0
 10
619.4978606312185
 20
1157.917346764021
 30
0.0
  0
LINE
  5
25D
330
1F
100
AcDbEntity
  8
0
  6
Continuous
 62
     7
370
    25
100
AcDbLine
 10
615.7418981459
 20
-654.5391017449
 30
0.0
 11
615.7418981459
 21
-659.5391017449
 31
0.0
  0
SPLINE
  5
25E
330
1F
100
AcDbEntity
  8
0
  6
Continuous
 62
     7
370
    25
100
AcDbSpline
210
0.0
220
0.0
230
1.0
 70
     8
 71
     3
 72
     8
 73
     4
 74
     0
 42
0.000000001
 43
0.00000001
 40
0.0
 40
0.0
 40
0.0
 40
0.0
 40
1.0
 40
1.0
 40
1.0
 40
1.0
 10
615.7418981459103
 20
-659.5391017449293
 30
0.0
 10
615.8291257690813
 20
-660.0017331468456
 30
0.0
 10
615.9187405335249
 20
-660.4643645487619
 30
0.0
 10
616.0101002586478
 20
-660.9269959506781
 30
0.0
  0
LINE
  5
25F
330
1F
100
AcDbEntity
  8
0
  6
Continuous
 62
     7
370
    25
100
AcDbLine
 10
614.3380439075
 20
-716.0391017449
 30
0.0
 11
616.0101002586
 21
-716.0391017449
 31
0.0
  0
LINE
  5
260
330
1F
100
AcDbEntity
  8
0
  6
Continuous
 62
     7
370
    25
100
AcDbLine
 10
614.3380439075
 20
1210.9608982551
 30
0.0
 11
614.3380439075
 21
-716.0391017449
 31
0.0
  0
LINE
  5
261
330
1F
100
AcDbEntity
  8
0
  6
Continuous
 62
     7
370
    25
100
AcDbLine
 10
614.3380439075
 20
1210.9608982551
 30
0.0
 11
616.0101002586
 21
1210.9608982551
 31
0.0
  0
SPLINE
  5
262
330
1F
100
AcDbEntity
  8
0
  6
Continuous
 62
     7
370
    25
100
AcDbSpline
210
0.0
220
0.0
230
1.0
 70
     8
 71
     3
 72
     8
 73
     4
 74
     0
 42
0.000000001
 43
0.00000001
 40
0.0
 40
0.0
 40
0.0
 40
0.0
 40
1.0
 40
1.0
 40
1.0
 40
1.0
 10
616.0101002586478
 20
1155.84879246082
 30
0.0
 10
615.9464645438885
 20
1155.621639919021
 30
0.0
 10
615.883674807814
 20
1155.394487377223
 30
0.0
 10
615.8219495947235
 20
1155.167334835424
 30
0.0
  0
SPLINE
  5
263
330
1F
100
AcDbEntity
  8
0
  6
Continuous
 62
     7
370
    25
100
AcDbSpline
210
0.0
220
0.0
230
1.0
 70
     8
 71
     3
 72
     8
 73
     4
 74
     0
 42
0.000000001
 43
0.00000001
 40
0.0
 40
0.0
 40
0.0
 40
0.0
 40
1.0
 40
1.0
 40
1.0
 40
1.0
 10
615.8219495454754
 20
1155.16733440418
 30
0.0
 10
615.7950578951883
 20
1154.93185568781
 30
0.0
 10
615.7683682129914
 20
1154.696376971441
 30
0.0
 10
615.7418981459101
 20
1154.460898255071
 30
0.0
  0
LINE
  5
264
330
1F
100
AcDbEntity
  8
0
  6
Continuous
 62
     7
370
    25
100
AcDbLine
 10
615.7418981459
 20
1154.4608982551
 30
0.0
 11
615.7418981459
 21
1149.4608982551
 31
0.0
  0
SPLINE
  5
265
330
1F
100
AcDbEntity
  8
0
  6
Continuous
 62
     7
370
    25
100
AcDbSpline
210
0.0
220
0.0
230
1.0
 70
     8
 71
     3
 72
     8
 73
     4
 74
     0
 42
0.000000001
 43
0.00000001
 40
0.0
 40
0.0
 40
0.0
 40
0.0
 40
1.0
 40
1.0
 40
1.0
 40
1.0
 10
615.7418981459103
 20
1149.460898255071
 30
0.0
 10
615.8291257690813
 20
1148.998266853155
 30
0.0
 10
615.9187405335249
 20
1148.535635451238
 30
0.0
 10
616.0101002586478
 20
1148.073004049322
 30
0.0
  0
SPLINE
  5
266
330
1F
100
AcDbEntity
  8
0
  6
Continuous
 62
     7
370
    25
100
AcDbSpline
210
0.0
220
0.0
230
1.0
 70
     8
 71
     3
 72
     8
 73
     4
 74
     0
 42
0.000000001
 43
0.00000001
 40
0.0
 40
0.0
 40
0.0
 40
0.0
 40
1.0
 40
1.0
 40
1.0
 40
1.0
 10
616.0101002586478
 20
-653.1512075391806
 30
0.0
 10
615.9187405335249
 20
-653.6138389410969
 30
0.0
 10
615.8291257690813
 20
-654.0764703430132
 30
0.0
 10
615.7418981459103
 20
-654.5391017449294
 30
0.0
  0
SPLINE
  5
267
330
1F
100
AcDbEntity
  8
0
  6
Continuous
 62
     7
370
    25
100
AcDbSpline
210
0.0
220
0.0
230
1.0
 70
     8
 71
     3
 72
     8
 73
     4
 74
     0
 42
0.000000001
 43
0.00000001
 40
0.0
 40
0.0
 40
0.0
 40
0.0
 40
1.0
 40
1.0
 40
1.0
 40
1.0
 10
616.4347340538129
 20
1155.84879246082
 30
0.0
 10
616.408219172663
 20
1155.621639919021
 30
0.0
 10
616.3820567826322
 20
1155.394487377223
 30
0.0
 10
616.3563379438443
 20
1155.167334835424
 30
0.0
  0
LINE
  5
268
330
1F
100
AcDbEntity
  8
0
  6
Continuous
 62
     7
370
    25
100
AcDbLine
 10
615.8219495455
 20
1155.1673344042
 30
0.0
 11
616.3563379233
 21
1155.1673344042
 31
0.0
  0
SPLINE
  5
269
330
1F
100
AcDbEntity
  8
0
  6
Continuous
 62
     7
370
    25
100
AcDbSpline
210
0.0
220
0.0
230
1.0
 70
     8
 71
     3
 72
     8
 73
     4
 74
     0
 42
0.000000001
 43
0.00000001
 40
0.0
 40
0.0
 40
0.0
 40
0.0
 40
1.0
 40
1.0
 40
1.0
 40
1.0
 10
616.3229831735056
 20
1149.460898255071
 30
0.0
 10
616.3593280164935
 20
1148.998266853155
 30
0.0
 10
616.3966675016783
 20
1148.535635451238
 30
0.0
 10
616.4347340538129
 20
1148.073004049322
 30
0.0
  0
LINE
  5
26A
330
1F
100
AcDbEntity
  8
0
  6
Continuous
 62
     7
370
    25
100
AcDbLine
 10
615.7418981459
 20
1149.4608982551
 30
0.0
 11
616.3229831735
 21
1149.4608982551
 31
0.0
  0
SPLINE
  5
26B
330
1F
100
AcDbEntity
  8
0
  6
Continuous
 62
     7
370
    25
100
AcDbSpline
210
0.0
220
0.0
230
1.0
 70
     8
 71
     3
 72
     8
 73
     4
 74
     0
 42
0.000000001
 43
0.00000001
 40
0.0
 40
0.0
 40
0.0
 40
0.0
 40
1.0
 40
1.0
 40
1.0
 40
1.0
 10
616.3229831735056
 20
-659.5391017449293
 30
0.0
 10
616.3593280164935
 20
-660.0017331468456
 30
0.0
 10
616.3966675016783
 20
-660.4643645487619
 30
0.0
 10
616.4347340538129
 20
-660.9269959506781
 30
0.0
  0
LINE
  5
26C
330
1F
100
AcDbEntity
  8
0
  6
Continuous
 62
     7
370
    25
100
AcDbLine
 10
615.7418981459
 20
-659.5391017449
 30
0.0
 11
616.3229831735
 21
-659.5391017449
 31
0.0
  0
SPLINE
  5
26D
330
1F
100
AcDbEntity
  8
0
  6
Continuous
 62
     7
370
    25
100
AcDbSpline
210
0.0
220
0.0
230
1.0
 70
     8
 71
     3
 72
     8
 73
     4
 74
     0
 42
0.000000001
 43
0.00000001
 40
0.0
 40
0.0
 40
0.0
 40
0.0
 40
1.0
 40
1.0
 40
1.0
 40
1.0
 10
616.4347340538129
 20
-653.1512075391806
 30
0.0
 10
616.3966675016783
 20
-653.6138389410969
 30
0.0
 10
616.3593280164935
 20
-654.0764703430132
 30
0.0
 10
616.3229831735056
 20
-654.5391017449294
 30
0.0
  0
LINE
  5
26E
330
1F
100
AcDbEntity
  8
0
  6
Continuous
 62
     7
370
    25
100
AcDbLine
 10
615.7418981459
 20
-654.5391017449
 30
0.0
 11
616.3229831735
 21
-654.5391017449
 31
0.0
  0
SPLINE
  5
26F
330
1F
100
AcDbEntity
  8
0
  6
Continuous
 62
     7
370
    25
100
AcDbSpline
210
0.0
220
0.0
230
1.0
 70
     8
 71
     3
 72
     8
 73
     4
 74
     0
 42
0.000000001
 43
0.00000001
 40
0.0
 40
0.0
 40
0.0
 40
0.0
 40
1.0
 40
1.0
 40
1.0
 40
1.0
 10
616.3563379233243
 20
1155.16733440418
 30
0.0
 10
616.3451330690381
 20
1154.93185568781
 30
0.0
 10
616.3340123681227
 20
1154.696376971441
 30
0.0
 10
616.3229831735056
 20
1154.460898255071
 30
0.0
  0
LINE
  5
270
330
1F
100
AcDbEntity
  8
0
  6
Continuous
 62
     7
370
    25
100
AcDbLine
 10
615.7418981459
 20
1154.4608982551
 30
0.0
 11
616.3229831735
 21
1154.4608982551
 31
0.0
  0
LINE
  5
271
330
1F
100
AcDbEntity
  8
0
  6
Continuous
 62
     7
370
    25
100
AcDbLine
 10
616.3229831735
 20
-654.5391017449
 30
0.0
 11
616.3229831735
 21
-659.5391017449
 31
0.0
  0
LINE
  5
272
330
1F
100
AcDbEntity
  8
0
  6
Continuous
 62
     7
370
    25
100
AcDbLine
 10
616.3229831735
 20
1154.4608982551
 30
0.0
 11
616.3229831735
 21
1149.4608982551
 31
0.0
  0
ARC
  5
273
330
1F
100
AcDbEntity
  8
0
  6
Continuous
 62
     7
370
    25
100
AcDbCircle
 10
406.1184085019
 20
1276.6634131161
 30
0.0
 40
1.000000000000018
100
AcDbArc
 50
180.0
 51
197.6565095169
  0
ARC
  5
274
330
1F
100
AcDbEntity
  8
0
  6
Continuous
 62
     7
370
    25
100
AcDbCircle
 10
406.1184085019
 20
1276.6634131161
 30
0.0
 40
2.400000000000034
100
AcDbArc
 50
180.0
 51
197.6565095169
  0
LINE
  5
275
330
1F
100
AcDbEntity
  8
0
  6
Continuous
 62
     7
370
    25
100
AcDbLine
 10
429.2202985656
 20
1260.890661497
 30
0.0
 11
429.2202985656
 21
1262.290661497
 31
0.0
  0
LINE
  5
276
330
1F
100
AcDbEntity
  8
0
  6
Continuous
 62
     7
370
    25
100
AcDbLine
 10
429.2202985656
 20
1260.890661497
 30
0.0
 11
410.3750161828
 21
1260.890661497
 31
0.0
  0
LINE
  5
277
330
1F
100
AcDbEntity
  8
0
  6
Continuous
 62
     7
370
    25
100
AcDbLine
 10
429.2202985656
 20
1262.290661497
 30
0.0
 11
410.3750161828
 21
1262.290661497
 31
0.0
  0
LINE
  5
278
330
1F
100
AcDbEntity
  8
0
  6
Continuous
 62
     7
370
    25
100
AcDbLine
 10
403.7184085019
 20
1276.6634131161
 30
0.0
 11
403.7184085019
 21
1297.880661497
 31
0.0
  0
LINE
  5
279
330
1F
100
AcDbEntity
  8
0
  6
Continuous
 62
     7
370
    25
100
AcDbLine
 10
405.1184085019
 20
1276.6634131161
 30
0.0
 11
405.1184085019
 21
1297.880661497
 31
0.0
  0
ARC
  5
27A
330
1F
100
AcDbEntity
  8
0
  6
Continuous
 62
     7
370
    25
100
AcDbCircle
 10
410.3750161828
 20
1263.290661497
 30
0.0
 40
2.400000000000091
100
AcDbArc
 50
197.6565095169
 51
270.0
  0
ARC
  5
27B
330
1F
100
AcDbEntity
  8
0
  6
Continuous
 62
     7
370
    25
100
AcDbCircle
 10
410.3750161828
 20
1263.290661497
 30
0.0
 40
1.000000000000227
100
AcDbArc
 50
197.6565095169
 51
270.0
  0
LINE
  5
27C
330
1F
100
AcDbEntity
  8
0
  6
Continuous
 62
     7
370
    25
100
AcDbLine
 10
409.4221241991
 20
1262.9873516433
 30
0.0
 11
405.1655165182
 21
1276.3601032624
 31
0.0
  0
LINE
  5
27D
330
1F
100
AcDbEntity
  8
0
  6
Continuous
 62
     7
370
    25
100
AcDbLine
 10
408.0880754219
 20
1262.5627178482
 30
0.0
 11
403.831467741
 21
1275.9354694673
 31
0.0
  0
ARC
  5
27E
330
1F
100
AcDbEntity
  8
0
  6
Continuous
 62
     7
370
    25
100
AcDbCircle
 10
403.7084085019
 20
1297.880661497
 30
0.0
 40
0.0099999999999909
100
AcDbArc
 50
0.0
 51
180.0
  0
ARC
  5
27F
330
1F
100
AcDbEntity
  8
0
  6
Continuous
 62
     7
370
    25
100
AcDbCircle
 10
403.7084085019
 20
1297.880661497
 30
0.0
 40
1.410000000000025
100
AcDbArc
 50
0.0
 51
180.0
  0
LINE
  5
280
330
1F
100
AcDbEntity
  8
0
  6
Continuous
 62
     7
370
    25
100
AcDbLine
 10
402.2984085019
 20
1276.890661497
 30
0.0
 11
403.6984085019
 21
1276.890661497
 31
0.0
  0
LINE
  5
281
330
1F
100
AcDbEntity
  8
0
  6
Continuous
 62
     7
370
    25
100
AcDbLine
 10
402.2984085019
 20
1297.880661497
 30
0.0
 11
402.2984085019
 21
1276.890661497
 31
0.0
  0
LINE
  5
282
330
1F
100
AcDbEntity
  8
0
  6
Continuous
 62
     7
370
    25
100
AcDbLine
 10
403.6984085019
 20
1297.880661497
 30
0.0
 11
403.6984085019
 21
1276.890661497
 31
0.0
  0
ARC
  5
283
330
1F
100
AcDbEntity
  8
0
  6
Continuous
 62
     7
370
    25
100
AcDbCircle
 10
410.3750161828
 20
-767.9402651067
 30
0.0
 40
1.0
100
AcDbArc
 50
90.0
 51
162.3434904831
  0
ARC
  5
284
330
1F
100
AcDbEntity
  8
0
  6
Continuous
 62
     7
370
    25
100
AcDbCircle
 10
410.3750161828
 20
-767.9402651067
 30
0.0
 40
2.400000000000011
100
AcDbArc
 50
90.0
 51
162.3434904831
  0
LINE
  5
285
330
1F
100
AcDbEntity
  8
0
  6
Continuous
 62
     7
370
    25
100
AcDbLine
 10
429.2202985656
 20
-765.5402651067
 30
0.0
 11
429.2202985656
 21
-766.9402651067
 31
0.0
  0
LINE
  5
286
330
1F
100
AcDbEntity
  8
0
  6
Continuous
 62
     7
370
    25
100
AcDbLine
 10
429.2202985656
 20
-766.9402651067
 30
0.0
 11
410.3750161828
 21
-766.9402651067
 31
0.0
  0
LINE
  5
287
330
1F
100
AcDbEntity
  8
0
  6
Continuous
 62
     7
370
    25
100
AcDbLine
 10
429.2202985656
 20
-765.5402651067
 30
0.0
 11
410.3750161828
 21
-765.5402651067
 31
0.0
  0
LINE
  5
288
330
1F
100
AcDbEntity
  8
0
  6
Continuous
 62
     7
370
    25
100
AcDbLine
 10
405.1184085019
 20
-781.3130167258
 30
0.0
 11
405.1184085019
 21
-802.5302651067
 31
0.0
  0
LINE
  5
289
330
1F
100
AcDbEntity
  8
0
  6
Continuous
 62
     7
370
    25
100
AcDbLine
 10
403.7184085019
 20
-781.3130167258
 30
0.0
 11
403.7184085019
 21
-802.5302651067
 31
0.0
  0
ARC
  5
28A
330
1F
100
AcDbEntity
  8
0
  6
Continuous
 62
     7
370
    25
100
AcDbCircle
 10
406.1184085019
 20
-781.3130167258
 30
0.0
 40
2.400000000000034
100
AcDbArc
 50
162.3434904831
 51
180.0
  0
ARC
  5
28B
330
1F
100
AcDbEntity
  8
0
  6
Continuous
 62
     7
370
    25
100
AcDbCircle
 10
406.1184085019
 20
-781.3130167258
 30
0.0
 40
1.000000000000018
100
AcDbArc
 50
162.3434904831
 51
180.0
  0
LINE
  5
28C
330
1F
100
AcDbEntity
  8
0
  6
Continuous
 62
     7
370
    25
100
AcDbLine
 10
408.0880754219
 20
-767.2123214578
 30
0.0
 11
403.831467741
 21
-780.5850730769
 31
0.0
  0
LINE
  5
28D
330
1F
100
AcDbEntity
  8
0
  6
Continuous
 62
     7
370
    25
100
AcDbLine
 10
409.4221241991
 20
-767.636955253
 30
0.0
 11
405.1655165182
 21
-781.0097068721
 31
0.0
  0
LINE
  5
28E
330
1F
100
AcDbEntity
  8
0
  6
Continuous
 62
     7
370
    25
100
AcDbLine
 10
402.2984085019
 20
-802.5302651067
 30
0.0
 11
402.2984085019
 21
-781.5402651067
 31
0.0
  0
LINE
  5
28F
330
1F
100
AcDbEntity
  8
0
  6
Continuous
 62
     7
370
    25
100
AcDbLine
 10
403.6984085019
 20
-802.5302651067
 30
0.0
 11
403.6984085019
 21
-781.5402651067
 31
0.0
  0
LINE
  5
290
330
1F
100
AcDbEntity
  8
0
  6
Continuous
 62
     7
370
    25
100
AcDbLine
 10
402.2984085019
 20
-781.5402651067
 30
0.0
 11
403.6984085019
 21
-781.5402651067
 31
0.0
  0
ARC
  5
291
330
1F
100
AcDbEntity
  8
0
  6
Continuous
 62
     7
370
    25
100
AcDbCircle
 10
403.7084085019
 20
-802.5302651067
 30
0.0
 40
1.410000000000025
100
AcDbArc
 50
180.0
 51
0.0
  0
ARC
  5
292
330
1F
100
AcDbEntity
  8
0
  6
Continuous
 62
     7
370
    25
100
AcDbCircle
 10
403.7084085019
 20
-802.5302651067
 30
0.0
 40
0.0099999999999909
100
AcDbArc
 50
180.0
 51
0.0
  0
LINE
  5
293
330
1F
100
AcDbEntity
  8
0
  6
Continuous
 62
     7
370
    25
100
AcDbLine
 10
224.8573753594
 20
1210.9608982551
 30
0.0
 11
224.8573753594
 21
-716.0391017449
 31
0.0
  0
LINE
  5
294
330
1F
100
AcDbEntity
  8
0
  6
Continuous
 62
     7
370
    25
100
AcDbLine
 10
261.8573753594
 20
1210.9608982551
 30
0.0
 11
261.8573753594
 21
-716.0391017449
 31
0.0
  0
LINE
  5
295
330
1F
100
AcDbEntity
  8
0
  6
Continuous
 62
     7
370
    25
100
AcDbLine
 10
263.2573753594
 20
1210.9608982551
 30
0.0
 11
261.8573753594
 21
1210.9608982551
 31
0.0
  0
LINE
  5
296
330
1F
100
AcDbEntity
  8
0
  6
Continuous
 62
     7
370
    25
100
AcDbLine
 10
263.2573753594
 20
1210.9608982551
 30
0.0
 11
263.2573753594
 21
-716.0391017449
 31
0.0
  0
LINE
  5
297
330
1F
100
AcDbEntity
  8
0
  6
Continuous
 62
     7
370
    25
100
AcDbLine
 10
263.2573753594
 20
-716.0391017449
 30
0.0
 11
261.8573753594
 21
-716.0391017449
 31
0.0
  0
SPLINE
  5
298
330
1F
100
AcDbEntity
  8
0
  6
Continuous
 62
     7
370
    25
100
AcDbSpline
210
0.0
220
0.0
230
1.0
 70
     8
 71
     3
 72
     8
 73
     4
 74
     0
 42
0.000000001
 43
0.00000001
 40
0.0
 40
0.0
 40
0.0
 40
0.0
 40
1.0
 40
1.0
 40
1.0
 40
1.0
 10
261.2724360934463
 20
1149.460898255071
 30
0.0
 10
261.2360912504584
 20
1148.998266853155
 30
0.0
 10
261.1987517652735
 20
1148.535635451238
 30
0.0
 10
261.160685213139
 20
1148.073004049322
 30
0.0
  0
LINE
  5
299
330
1F
100
AcDbEntity
  8
0
  6
Continuous
 62
     7
370
    25
100
AcDbLine
 10
261.2724360934
 20
1154.4608982551
 30
0.0
 11
261.2724360934
 21
1149.4608982551
 31
0.0
  0
SPLINE
  5
29A
330
1F
100
AcDbEntity
  8
0
  6
Continuous
 62
     7
370
    25
100
AcDbSpline
210
0.0
220
0.0
230
1.0
 70
     8
 71
     3
 72
     8
 73
     4
 74
     0
 42
0.000000001
 43
0.00000001
 40
0.0
 40
0.0
 40
0.0
 40
0.0
 40
1.0
 40
1.0
 40
1.0
 40
1.0
 10
261.2390813436275
 20
1155.16733440418
 30
0.0
 10
261.2502861979138
 20
1154.93185568781
 30
0.0
 10
261.2614068988291
 20
1154.696376971441
 30
0.0
 10
261.2724360934463
 20
1154.460898255071
 30
0.0
  0
SPLINE
  5
29B
330
1F
100
AcDbEntity
  8
0
  6
Continuous
 62
     7
370
    25
100
AcDbSpline
210
0.0
220
0.0
230
1.0
 70
     8
 71
     3
 72
     8
 73
     4
 74
     0
 42
0.000000001
 43
0.00000001
 40
0.0
 40
0.0
 40
0.0
 40
0.0
 40
1.0
 40
1.0
 40
1.0
 40
1.0
 10
261.160685213139
 20
1155.84879246082
 30
0.0
 10
261.1872000942888
 20
1155.621639919021
 30
0.0
 10
261.2133624843198
 20
1155.394487377223
 30
0.0
 10
261.2390813231075
 20
1155.167334835424
 30
0.0
  0
SPLINE
  5
29C
330
1F
100
AcDbEntity
  8
0
  6
Continuous
 62
     7
370
    25
100
AcDbSpline
210
0.0
220
0.0
230
1.0
 70
     8
 71
     3
 72
     8
 73
     4
 74
     0
 42
0.000000001
 43
0.00000001
 40
0.0
 40
0.0
 40
0.0
 40
0.0
 40
1.0
 40
1.0
 40
1.0
 40
1.0
 10
261.2724360934463
 20
-659.5391017449293
 30
0.0
 10
261.2360912504584
 20
-660.0017331468456
 30
0.0
 10
261.1987517652735
 20
-660.4643645487619
 30
0.0
 10
261.160685213139
 20
-660.9269959506781
 30
0.0
  0
LINE
  5
29D
330
1F
100
AcDbEntity
  8
0
  6
Continuous
 62
     7
370
    25
100
AcDbLine
 10
261.2724360934
 20
-654.5391017449
 30
0.0
 11
261.2724360934
 21
-659.5391017449
 31
0.0
  0
SPLINE
  5
29E
330
1F
100
AcDbEntity
  8
0
  6
Continuous
 62
     7
370
    25
100
AcDbSpline
210
0.0
220
0.0
230
1.0
 70
     8
 71
     3
 72
     8
 73
     4
 74
     0
 42
0.000000001
 43
0.00000001
 40
0.0
 40
0.0
 40
0.0
 40
0.0
 40
1.0
 40
1.0
 40
1.0
 40
1.0
 10
261.160685213139
 20
-653.1512075391806
 30
0.0
 10
261.1987517652735
 20
-653.6138389410969
 30
0.0
 10
261.2360912504584
 20
-654.0764703430132
 30
0.0
 10
261.2724360934463
 20
-654.5391017449294
 30
0.0
  0
LINE
  5
29F
330
1F
100
AcDbEntity
  8
0
  6
Continuous
 62
     7
370
    25
100
AcDbLine
 10
261.8573753594
 20
-716.0391017449
 30
0.0
 11
261.1606852131
 21
-716.0391017449
 31
0.0
  0
LINE
  5
2A0
330
1F
100
AcDbEntity
  8
0
  6
Continuous
 62
     7
370
    25
100
AcDbLine
 10
261.8573753594
 20
1210.9608982551
 30
0.0
 11
261.1606852131
 21
1210.9608982551
 31
0.0
  0
SPLINE
  5
2A1
330
1F
100
AcDbEntity
  8
0
  6
Continuous
 62
     7
370
    25
100
AcDbSpline
210
0.0
220
0.0
230
1.0
 70
     8
 71
     3
 72
    12
 73
     8
 74
     0
 42
0.000000001
 43
0.00000001
 40
0.0
 40
0.0
 40
0.0
 40
0.0
 40
0.0553144383367879
 40
0.1106288766735842
 40
0.1659433150103789
 40
0.22125775334717
 40
0.2499999999999974
 40
0.2499999999999974
 40
0.2499999999999974
 40
0.2499999999999974
 10
255.1884986731154
 20
-659.5391017449293
 30
0.0
 10
255.195851530803
 20
-659.7155266747804
 30
0.0
 10
255.2105572461781
 20
-660.0683765344831
 30
0.0
 10
255.3286317511368
 20
-660.5855708970035
 30
0.0
 10
255.5141649003425
 20
-661.0788801350418
 30
0.0
 10
255.7289091163423
 20
-661.4636796820527
 30
0.0
 10
255.8824638504256
 20
-661.678206760265
 30
0.0
 10
255.9376227670173
 20
-661.7492896252323
 30
0.0
  0
SPLINE
  5
2A2
330
1F
100
AcDbEntity
  8
0
  6
Continuous
 62
     7
370
    25
100
AcDbSpline
210
0.0
220
0.0
230
1.0
 70
     8
 71
     3
 72
    26
 73
    22
 74
     0
 42
0.000000001
 43
0.00000001
 40
0.0
 40
0.0
 40
0.0
 40
0.0
 40
0.0553144383367879
 40
0.1106288766735842
 40
0.1659433150103789
 40
0.22125775334717
 40
0.2765721916839686
 40
0.3318866300207622
 40
0.3872010683575536
 40
0.4425155066943462
 40
0.4978299450311406
 40
0.5531443833679329
 40
0.6084588217047261
 40
0.6637732600415197
 40
0.7190876983783107
 40
0.7744021367151086
 40
0.8297165750519007
 40
0.8850310133886907
 40
0.9403454517254882
 40
0.9956598900622726
 40
1.0
 40
1.0
 40
1.0
 40
1.0
 10
254.7638648779503
 20
-659.5391017449293
 30
0.0
 10
254.7712177356379
 20
-659.7155266747804
 30
0.0
 10
254.785923451013
 20
-660.0683765344831
 30
0.0
 10
254.9039979559717
 20
-660.5855708970035
 30
0.0
 10
255.0895311051773
 20
-661.0788801350418
 30
0.0
 10
255.34521798085
 20
-661.5370447169253
 30
0.0
 10
255.6633658310566
 20
-661.9496072698337
 30
0.0
 10
256.0372106295383
 20
-662.3071512639807
 30
0.0
 10
256.4580862445486
 20
-662.6015159401445
 30
0.0
 10
256.9164221286385
 20
-662.8259825746863
 30
0.0
 10
257.4017474191322
 20
-662.9754278315415
 30
0.0
 10
257.9029874100232
 20
-663.0464406976791
 30
0.0
 10
258.4087007496843
 20
-663.0374003454776
 30
0.0
 10
258.9073454112994
 20
-662.9485130983918
 30
0.0
 10
259.3875384008691
 20
-662.7818078295484
 30
0.0
 10
259.8383256722931
 20
-662.5410892513806
 30
0.0
 10
260.249395464541
 20
-662.2318525766533
 30
0.0
 10
260.6114502916596
 20
-661.8611524888358
 30
0.0
 10
260.915909319194
 20
-661.4374630376929
 30
0.0
 10
261.082946763752
 20
-661.113876305062
 30
0.0
 10
261.1554130009552
 20
-660.9396701535863
 30
0.0
 10
261.160685213139
 20
-660.926995950678
 30
0.0
  0
LINE
  5
2A3
330
1F
100
AcDbEntity
  8
0
  6
Continuous
 62
     7
370
    25
100
AcDbLine
 10
254.763864878
 20
-659.5391017449
 30
0.0
 11
255.1884986731
 21
-659.5391017449
 31
0.0
  0
SPLINE
  5
2A4
330
1F
100
AcDbEntity
  8
0
  6
Continuous
 62
     7
370
    25
100
AcDbSpline
210
0.0
220
0.0
230
1.0
 70
     8
 71
     3
 72
    13
 73
     9
 74
     0
 42
0.000000001
 43
0.00000001
 40
0.0
 40
0.0
 40
0.0
 40
0.0
 40
0.0043401099377227
 40
0.059654548274514
 40
0.1149689866113057
 40
0.1702834249481042
 40
0.2255978632848963
 40
0.2499999999999861
 40
0.2499999999999861
 40
0.2499999999999861
 40
0.2499999999999861
 10
255.1884986731158
 20
1149.460898255071
 30
0.0
 10
255.1885495670084
 20
1149.447069117727
 30
0.0
 10
255.1892491004793
 20
1149.256988462379
 30
0.0
 10
255.2203215173088
 20
1148.890418573382
 30
0.0
 10
255.3397243666896
 20
1148.374765394609
 30
0.0
 10
255.5320237451501
 20
1147.883789146207
 30
0.0
 10
255.7440139442555
 20
1147.513588987792
 30
0.0
 10
255.8907472022486
 20
1147.311090566205
 30
0.0
 10
255.9375805900669
 20
1147.250741260556
 30
0.0
  0
SPLINE
  5
2A5
330
1F
100
AcDbEntity
  8
0
  6
Continuous
 62
     7
370
    25
100
AcDbSpline
210
0.0
220
0.0
230
1.0
 70
     8
 71
     3
 72
    26
 73
    22
 74
     0
 42
0.000000001
 43
0.00000001
 40
0.0
 40
0.0
 40
0.0
 40
0.0
 40
0.0043401099377227
 40
0.059654548274514
 40
0.1149689866113057
 40
0.1702834249481042
 40
0.2255978632848963
 40
0.2809123016216927
 40
0.3362267399584806
 40
0.3915411782952772
 40
0.446855616632067
 40
0.5021700549688607
 40
0.5574844933056547
 40
0.612798931642448
 40
0.6681133699792421
 40
0.7234278083160353
 40
0.7787422466528285
 40
0.8340566849896193
 40
0.8893711233264161
 40
0.9446855616632049
 40
1.0
 40
1.0
 40
1.0
 40
1.0
 10
254.7638648779508
 20
1149.460898255071
 30
0.0
 10
254.7639157718433
 20
1149.447069117727
 30
0.0
 10
254.7646153053142
 20
1149.256988462379
 30
0.0
 10
254.7956877221437
 20
1148.890418573382
 30
0.0
 10
254.9150905715244
 20
1148.374765394609
 30
0.0
 10
255.107389949985
 20
1147.883789146207
 30
0.0
 10
255.3679105186043
 20
1147.428840020349
 30
0.0
 10
255.6907827171865
 20
1147.020263437832
 30
0.0
 10
256.068616600792
 20
1146.667395284422
 30
0.0
 10
256.4927938218865
 20
1146.378286821664
 30
0.0
 10
256.9536312312066
 20
1146.159537565072
 30
0.0
 10
257.4406110143551
 20
1146.016140079421
 30
0.0
 10
257.9426173694515
 20
1145.951367678399
 30
0.0
 10
258.4481946403739
 20
1145.966697677458
 30
0.0
 10
258.9457944894203
 20
1146.061784164164
 30
0.0
 10
259.4240922488689
 20
1146.234441971635
 30
0.0
 10
259.8720486310108
 20
1146.480785751877
 30
0.0
 10
260.2798960065326
 20
1146.794985786644
 30
0.0
 10
260.6366208663131
 20
1147.170643330674
 30
0.0
 10
260.940442804312
 20
1147.596300398426
 30
0.0
 10
261.0872710768634
 20
1147.914102832357
 30
0.0
 10
261.160685213139
 20
1148.073004049322
 30
0.0
  0
LINE
  5
2A6
330
1F
100
AcDbEntity
  8
0
  6
Continuous
 62
     7
370
    25
100
AcDbLine
 10
254.763864878
 20
1149.4608982551
 30
0.0
 11
255.1884986731
 21
1149.4608982551
 31
0.0
  0
LINE
  5
2A7
330
1F
100
AcDbEntity
  8
0
  6
Continuous
 62
     7
370
    25
100
AcDbLine
 10
254.763864878
 20
-654.5391017449
 30
0.0
 11
254.763864878
 21
-659.5391017449
 31
0.0
  0
LINE
  5
2A8
330
1F
100
AcDbEntity
  8
0
  6
Continuous
 62
     7
370
    25
100
AcDbLine
 10
261.1606852131
 20
1210.9608982551
 30
0.0
 11
247.787933594
 21
1210.9608982551
 31
0.0
  0
SPLINE
  5
2A9
330
1F
100
AcDbEntity
  8
0
  6
Continuous
 62
     7
370
    25
100
AcDbSpline
210
0.0
220
0.0
230
1.0
 70
     8
 71
     3
 72
    25
 73
    21
 74
     0
 42
0.000000001
 43
0.00000001
 40
0.0
 40
0.0
 40
0.0
 40
0.0
 40
0.0045942376107406
 40
0.063147517751276
 40
0.1217007978918251
 40
0.1802540780323665
 40
0.2388073581729099
 40
0.2973606383134595
 40
0.3559139184540019
 40
0.4144671985945468
 40
0.4730204787350913
 40
0.5315737588756352
 40
0.590127039016181
 40
0.6486803191567251
 40
0.7072335992972679
 40
0.7657868794378129
 40
0.8243401595783633
 40
0.8828934397189059
 40
0.9414467198594519
 40
1.0
 40
1.0
 40
1.0
 40
1.0
 10
261.160685213139
 20
1155.848792460819
 30
0.0
 10
261.1554130009552
 20
1155.861466663728
 30
0.0
 10
261.0829467637516
 20
1156.035672815204
 30
0.0
 10
260.915909319206
 20
1156.359259547833
 30
0.0
 10
260.6114502916172
 20
1156.782948998983
 30
0.0
 10
260.2493954646985
 20
1157.153649086775
 30
0.0
 10
259.8383256717057
 20
1157.462885761596
 30
0.0
 10
259.3875384030609
 20
1157.703604339414
 30
0.0
 10
258.9073454031192
 20
1157.870309609562
 30
0.0
 10
258.4087007802136
 20
1157.959196851777
 30
0.0
 10
257.9029872960863
 20
1157.968237222156
 30
0.0
 10
257.4017478443503
 20
1157.897224288183
 30
0.0
 10
256.9164205417032
 20
1157.747779284491
 30
0.0
 10
256.4580921670717
 20
1157.523311705133
 30
0.0
 10
256.037188526381
 20
1157.228950555072
 30
0.0
 10
255.6634483211624
 20
1156.871393401326
 30
0.0
 10
255.3449101235838
 20
1156.458879960714
 30
0.0
 10
255.090680044136
 20
1156.000532089243
 30
0.0
 10
254.8997100574031
 20
1155.507906897257
 30
0.0
 10
254.834520756687
 20
1155.161408725832
 30
0.0
 10
254.801926106329
 20
1154.988159640119
 30
0.0
  0
LINE
  5
2AA
330
1F
100
AcDbEntity
  8
0
  6
Continuous
 62
     7
370
    25
100
AcDbLine
 10
254.8019261063
 20
1154.9881596401
 30
0.0
 11
254.763864878
 21
1154.4608982551
 31
0.0
  0
LINE
  5
2AB
330
1F
100
AcDbEntity
  8
0
  6
Continuous
 62
     7
370
    25
100
AcDbLine
 10
254.763864878
 20
1154.4608982551
 30
0.0
 11
254.763864878
 21
1149.4608982551
 31
0.0
  0
SPLINE
  5
2AC
330
1F
100
AcDbEntity
  8
0
  6
Continuous
 62
     7
370
    25
100
AcDbSpline
210
0.0
220
0.0
230
1.0
 70
     8
 71
     3
 72
    26
 73
    22
 74
     0
 42
0.000000001
 43
0.00000001
 40
0.0
 40
0.0
 40
0.0
 40
0.0
 40
0.055314438336795
 40
0.1106288766735839
 40
0.1659433150103809
 40
0.2212577533471716
 40
0.2765721916839647
 40
0.3318866300207579
 40
0.387201068357552
 40
0.4425155066943453
 40
0.4978299450311394
 40
0.553144383367933
 40
0.6084588217047229
 40
0.6637732600415196
 40
0.7190876983783073
 40
0.7744021367151038
 40
0.8297165750518958
 40
0.8850310133886943
 40
0.9403454517254861
 40
0.9956598900622773
 40
1.0
 40
1.0
 40
1.0
 40
1.0
 10
261.160685213139
 20
-653.1512075391807
 30
0.0
 10
261.0872710768634
 20
-652.9923063222153
 30
0.0
 10
260.940442804312
 20
-652.6745038882848
 30
0.0
 10
260.6366208663131
 20
-652.2488468205335
 30
0.0
 10
260.2798960065326
 20
-651.8731892765027
 30
0.0
 10
259.8720486310108
 20
-651.5589892417362
 30
0.0
 10
259.4240922488689
 20
-651.3126454614937
 30
0.0
 10
258.9457944894203
 20
-651.1399876540225
 30
0.0
 10
258.4481946403739
 20
-651.0449011673168
 30
0.0
 10
257.9426173694515
 20
-651.0295711682576
 30
0.0
 10
257.4406110143551
 20
-651.09434356928
 30
0.0
 10
256.9536312312066
 20
-651.2377410549306
 30
0.0
 10
256.4927938218865
 20
-651.4564903115228
 30
0.0
 10
256.068616600792
 20
-651.7455987742808
 30
0.0
 10
255.6907827171865
 20
-652.0984669276913
 30
0.0
 10
255.3679105186043
 20
-652.5070435102077
 30
0.0
 10
255.107389949985
 20
-652.9619926360663
 30
0.0
 10
254.9150905715244
 20
-653.4529688844668
 30
0.0
 10
254.7956877221437
 20
-653.968622063241
 30
0.0
 10
254.7646153053142
 20
-654.3351919522364
 30
0.0
 10
254.7639157718433
 20
-654.5252726075861
 30
0.0
 10
254.7638648779508
 20
-654.5391017449294
 30
0.0
  0
LINE
  5
2AD
330
1F
100
AcDbEntity
  8
0
  6
Continuous
 62
     7
370
    25
100
AcDbLine
 10
261.1606852131
 20
-716.0391017449
 30
0.0
 11
247.787933594
 21
-716.0391017449
 31
0.0
  0
SPLINE
  5
2AE
330
1F
100
AcDbEntity
  8
0
  6
Continuous
 62
     7
370
    25
100
AcDbSpline
210
0.0
220
0.0
230
1.0
 70
     8
 71
     3
 72
    10
 73
     6
 74
     0
 42
0.000000001
 43
0.00000001
 40
0.0
 40
0.0
 40
0.0
 40
0.0
 40
0.3524256822485716
 40
0.9427632863932728
 40
1.0
 40
1.0
 40
1.0
 40
1.0
 10
258.5250868411786
 20
-651.0881396051226
 30
0.0
 10
258.3000817004889
 20
-651.085601360768
 30
0.0
 10
257.6981772520429
 20
-651.078811380043
 30
0.0
 10
257.0467498358569
 20
-651.3074196798703
 30
0.0
 10
256.737315222627
 20
-651.5974237469912
 30
0.0
 10
256.7099654345765
 20
-651.6230561404934
 30
0.0
  0
SPLINE
  5
2AF
330
1F
100
AcDbEntity
  8
0
  6
Continuous
 62
     7
370
    25
100
AcDbSpline
210
0.0
220
0.0
230
1.0
 70
     8
 71
     3
 72
    13
 73
     9
 74
     0
 42
0.000000001
 43
0.00000001
 40
0.7499999999999937
 40
0.7499999999999937
 40
0.7499999999999937
 40
0.7499999999999937
 40
0.7744021367151038
 40
0.8297165750518958
 40
0.8850310133886943
 40
0.9403454517254861
 40
0.9956598900622773
 40
1.0
 40
1.0
 40
1.0
 40
1.0
 10
255.9375805900671
 20
-652.328944750415
 30
0.0
 10
255.8907472022487
 20
-652.3892940560642
 30
0.0
 10
255.7440139442555
 20
-652.5917924776498
 30
0.0
 10
255.5320237451501
 20
-652.9619926360663
 30
0.0
 10
255.3397243666896
 20
-653.4529688844668
 30
0.0
 10
255.2203215173088
 20
-653.968622063241
 30
0.0
 10
255.1892491004793
 20
-654.3351919522364
 30
0.0
 10
255.1885495670084
 20
-654.5252726075861
 30
0.0
 10
255.1884986731158
 20
-654.5391017449294
 30
0.0
  0
LINE
  5
2B0
330
1F
100
AcDbEntity
  8
0
  6
Continuous
 62
     7
370
    25
100
AcDbLine
 10
254.763864878
 20
-654.5391017449
 30
0.0
 11
255.1884986731
 21
-654.5391017449
 31
0.0
  0
SPLINE
  5
2B1
330
1F
100
AcDbEntity
  8
0
  6
Continuous
 62
     7
370
    25
100
AcDbSpline
210
0.0
220
0.0
230
1.0
 70
     8
 71
     3
 72
    10
 73
     6
 74
     0
 42
0.000000001
 43
0.00000001
 40
0.875
 40
0.875
 40
0.875
 40
0.875
 40
0.8828934397189059
 40
0.9414467198594519
 40
1.0
 40
1.0
 40
1.0
 40
1.0
 10
255.5564406574218
 20
1156.058602320272
 30
0.0
 10
255.5460542765361
 20
1156.037448248092
 30
0.0
 10
255.4602385925629
 20
1155.858460267057
 30
0.0
 10
255.3243438525681
 20
1155.507906897257
 30
0.0
 10
255.2591545518521
 20
1155.161408725832
 30
0.0
 10
255.2265599014941
 20
1154.988159640119
 30
0.0
  0
LINE
  5
2B2
330
1F
100
AcDbEntity
  8
0
  6
Continuous
 62
     7
370
    25
100
AcDbLine
 10
254.8019261063
 20
1154.9881596401
 30
0.0
 11
255.2265599015
 21
1154.9881596401
 31
0.0
  0
LINE
  5
2B3
330
1F
100
AcDbEntity
  8
0
  6
Continuous
 62
     7
370
    25
100
AcDbLine
 10
254.763864878
 20
1154.4608982551
 30
0.0
 11
255.1884986731
 21
1154.4608982551
 31
0.0
  0
LINE
  5
2B4
330
1F
100
AcDbEntity
  8
0
  6
Continuous
 62
     7
370
    25
100
AcDbLine
 10
255.2265599015
 20
1154.9881596401
 30
0.0
 11
255.1884986731
 21
1154.4608982551
 31
0.0
  0
LINE
  5
2B5
330
1F
100
AcDbEntity
  8
0
  6
Continuous
 62
     7
370
    25
100
AcDbLine
 10
255.1884986731
 20
-654.5391017449
 30
0.0
 11
255.1884986731
 21
-659.5391017449
 31
0.0
  0
LINE
  5
2B6
330
1F
100
AcDbEntity
  8
0
  6
Continuous
 62
     7
370
    25
100
AcDbLine
 10
255.1884986731
 20
1154.4608982551
 30
0.0
 11
255.1884986731
 21
1149.4608982551
 31
0.0
  0
LINE
  5
2B7
330
1F
100
AcDbEntity
  8
0
  6
Continuous
 62
     7
370
    25
100
AcDbLine
 10
247.787933594
 20
-716.0391017449
 30
0.0
 11
247.4846237404
 21
-716.0391017449
 31
0.0
  0
LINE
  5
2B8
330
1F
100
AcDbEntity
  8
0
  6
Continuous
 62
     7
370
    25
100
AcDbLine
 10
247.787933594
 20
1210.9608982551
 30
0.0
 11
247.4846237404
 21
1210.9608982551
 31
0.0
  0
CIRCLE
  5
2B9
330
1F
100
AcDbEntity
  8
0
  6
Continuous
 62
     7
370
    25
100
AcDbCircle
 10
239.8573753594
 20
-652.5391017449
 30
0.0
 40
3.249999999999943
  0
CIRCLE
  5
2BA
330
1F
100
AcDbEntity
  8
0
  6
Continuous
 62
     7
370
    25
100
AcDbCircle
 10
239.8573753594
 20
-352.5391017449
 30
0.0
 40
3.249999999999943
  0
CIRCLE
  5
2BB
330
1F
100
AcDbEntity
  8
0
  6
Continuous
 62
     7
370
    25
100
AcDbCircle
 10
239.8573753594
 20
-52.5391017449
 30
0.0
 40
3.249999999999943
  0
CIRCLE
  5
2BC
330
1F
100
AcDbEntity
  8
0
  6
Continuous
 62
     7
370
    25
100
AcDbCircle
 10
239.8573753594
 20
247.4608982551
 30
0.0
 40
3.249999999999943
  0
CIRCLE
  5
2BD
330
1F
100
AcDbEntity
  8
0
  6
Continuous
 62
     7
370
    25
100
AcDbCircle
 10
239.8573753594
 20
547.4608982551
 30
0.0
 40
3.249999999999943
  0
LINE
  5
2BE
330
1F
100
AcDbEntity
  8
0
  6
Continuous
 62
     7
370
    25
100
AcDbLine
 10
247.4846237404
 20
1210.9608982551
 30
0.0
 11
226.2673753594
 21
1210.9608982551
 31
0.0
  0
LINE
  5
2BF
330
1F
100
AcDbEntity
  8
0
  6
Continuous
 62
     7
370
    25
100
AcDbLine
 10
247.4846237404
 20
-716.0391017449
 30
0.0
 11
226.2673753594
 21
-716.0391017449
 31
0.0
  0
LINE
  5
2C0
330
1F
100
AcDbEntity
  8
0
  6
Continuous
 62
     7
370
    25
100
AcDbLine
 10
232.3573753594
 20
-710.0391017449
 30
0.0
 11
247.3573753594
 21
-710.0391017449
 31
0.0
  0
LINE
  5
2C1
330
1F
100
AcDbEntity
  8
0
  6
Continuous
 62
     7
370
    25
100
AcDbLine
 10
247.3573753594
 20
-710.0391017449
 30
0.0
 11
247.3573753594
 21
-695.0391017449
 31
0.0
  0
LINE
  5
2C2
330
1F
100
AcDbEntity
  8
0
  6
Continuous
 62
     7
370
    25
100
AcDbLine
 10
247.3573753594
 20
-695.0391017449
 30
0.0
 11
232.3573753594
 21
-695.0391017449
 31
0.0
  0
LINE
  5
2C3
330
1F
100
AcDbEntity
  8
0
  6
Continuous
 62
     7
370
    25
100
AcDbLine
 10
232.3573753594
 20
-695.0391017449
 30
0.0
 11
232.3573753594
 21
-710.0391017449
 31
0.0
  0
LINE
  5
2C4
330
1F
100
AcDbEntity
  8
0
  6
Continuous
 62
     7
370
    25
100
AcDbLine
 10
232.3573753594
 20
1164.9608982551
 30
0.0
 11
247.3573753594
 21
1164.9608982551
 31
0.0
  0
LINE
  5
2C5
330
1F
100
AcDbEntity
  8
0
  6
Continuous
 62
     7
370
    25
100
AcDbLine
 10
247.3573753594
 20
1164.9608982551
 30
0.0
 11
247.3573753594
 21
1179.9608982551
 31
0.0
  0
LINE
  5
2C6
330
1F
100
AcDbEntity
  8
0
  6
Continuous
 62
     7
370
    25
100
AcDbLine
 10
247.3573753594
 20
1179.9608982551
 30
0.0
 11
232.3573753594
 21
1179.9608982551
 31
0.0
  0
LINE
  5
2C7
330
1F
100
AcDbEntity
  8
0
  6
Continuous
 62
     7
370
    25
100
AcDbLine
 10
232.3573753594
 20
1179.9608982551
 30
0.0
 11
232.3573753594
 21
1164.9608982551
 31
0.0
  0
LINE
  5
2C8
330
1F
100
AcDbEntity
  8
0
  6
Continuous
 62
     7
370
    25
100
AcDbLine
 10
247.3573753594
 20
-685.0391017449
 30
0.0
 11
247.3573753594
 21
-670.0391017449
 31
0.0
  0
LINE
  5
2C9
330
1F
100
AcDbEntity
  8
0
  6
Continuous
 62
     7
370
    25
100
AcDbLine
 10
247.3573753594
 20
-670.0391017449
 30
0.0
 11
232.3573753594
 21
-670.0391017449
 31
0.0
  0
LINE
  5
2CA
330
1F
100
AcDbEntity
  8
0
  6
Continuous
 62
     7
370
    25
100
AcDbLine
 10
232.3573753594
 20
-670.0391017449
 30
0.0
 11
232.3573753594
 21
-685.0391017449
 31
0.0
  0
LINE
  5
2CB
330
1F
100
AcDbEntity
  8
0
  6
Continuous
 62
     7
370
    25
100
AcDbLine
 10
232.3573753594
 20
-685.0391017449
 30
0.0
 11
247.3573753594
 21
-685.0391017449
 31
0.0
  0
LINE
  5
2CC
330
1F
100
AcDbEntity
  8
0
  6
Continuous
 62
     7
370
    25
100
AcDbLine
 10
232.3573753594
 20
1189.9608982551
 30
0.0
 11
247.3573753594
 21
1189.9608982551
 31
0.0
  0
LINE
  5
2CD
330
1F
100
AcDbEntity
  8
0
  6
Continuous
 62
     7
370
    25
100
AcDbLine
 10
247.3573753594
 20
1189.9608982551
 30
0.0
 11
247.3573753594
 21
1204.9608982551
 31
0.0
  0
LINE
  5
2CE
330
1F
100
AcDbEntity
  8
0
  6
Continuous
 62
     7
370
    25
100
AcDbLine
 10
247.3573753594
 20
1204.9608982551
 30
0.0
 11
232.3573753594
 21
1204.9608982551
 31
0.0
  0
LINE
  5
2CF
330
1F
100
AcDbEntity
  8
0
  6
Continuous
 62
     7
370
    25
100
AcDbLine
 10
232.3573753594
 20
1204.9608982551
 30
0.0
 11
232.3573753594
 21
1189.9608982551
 31
0.0
  0
CIRCLE
  5
2D0
330
1F
100
AcDbEntity
  8
0
  6
Continuous
 62
     7
370
    25
100
AcDbCircle
 10
239.8573753594
 20
1147.4608982551
 30
0.0
 40
3.249999999999943
  0
CIRCLE
  5
2D1
330
1F
100
AcDbEntity
  8
0
  6
Continuous
 62
     7
370
    25
100
AcDbCircle
 10
239.8573753594
 20
847.4608982551
 30
0.0
 40
3.249999999999943
  0
LINE
  5
2D2
330
1F
100
AcDbEntity
  8
0
  6
Continuous
 62
     7
370
    25
100
AcDbLine
 10
226.2673753594
 20
1210.9608982551
 30
0.0
 11
224.8573753594
 21
1210.9608982551
 31
0.0
  0
LINE
  5
2D3
330
1F
100
AcDbEntity
  8
0
  6
Continuous
 62
     7
370
    25
100
AcDbLine
 10
226.2673753594
 20
-716.0391017449
 30
0.0
 11
224.8573753594
 21
-716.0391017449
 31
0.0
  0
ENDSEC
  0
SECTION
  2
OBJECTS
  0
DICTIONARY
  5
C
330
0
100
AcDbDictionary
281
     1
  3
ACAD_GROUP
350
D
  3
ACAD_LAYOUT
350
1A
  3
ACAD_MLINESTYLE
350
17
  3
ACAD_PLOTSETTINGS
350
19
  3
ACAD_PLOTSTYLENAME
350
E
  3
ACAD_SCALELIST
350
47
  0
DICTIONARY
  5
D
102
{ACAD_REACTORS
330
C
102
}
330
C
100
AcDbDictionary
281
     1
  0
DICTIONARY
  5
1A
102
{ACAD_REACTORS
330
C
102
}
330
C
100
AcDbDictionary
281
     1
  3
Layout1
350
1E
  3
Layout2
350
26
  3
Model
350
22
  0
DICTIONARY
  5
17
102
{ACAD_REACTORS
330
C
102
}
330
C
100
AcDbDictionary
281
     1
  3
Standard
350
18
  0
DICTIONARY
  5
19
102
{ACAD_REACTORS
330
C
102
}
330
C
100
AcDbDictionary
281
     1
  0
ACDBDICTIONARYWDFLT
  5
E
102
{ACAD_REACTORS
330
C
102
}
330
C
100
AcDbDictionary
281
     1
  3
Normal
350
F
100
AcDbDictionaryWithDefault
340
F
  0
DICTIONARY
  5
47
102
{ACAD_REACTORS
330
C
102
}
330
C
100
AcDbDictionary
281
     1
  3
A0
350
48
  3
A1
350
49
  3
A2
350
4A
  3
A3
350
4B
  3
A4
350
4C
  3
A5
350
4D
  3
A6
350
4E
  3
A7
350
4F
  3
A8
350
50
  3
A9
350
51
  3
B0
350
52
  3
B1
350
53
  3
B2
350
54
  3
B3
350
55
  3
B4
350
56
  3
B5
350
57
  3
B6
350
58
  3
B7
350
59
  3
B8
350
5A
  3
B9
350
5B
  3
C0
350
5C
  3
C1
350
5D
  3
C2
350
5E
  3
C3
350
5F
  3
C4
350
60
  3
C5
350
61
  3
C6
350
62
  3
C7
350
63
  3
C8
350
64
  3
C9
350
65
  3
D0
350
66
  3
D1
350
67
  3
D2
350
68
  0
LAYOUT
  5
1E
102
{ACAD_REACTORS
330
1A
102
}
330
1A
100
AcDbPlotSettings
  1

  2
none_device
  4

  6

 40
0.0
 41
0.0
 42
0.0
 43
0.0
 44
0.0
 45
0.0
 46
0.0
 47
0.0
 48
0.0
 49
0.0
140
0.0
141
0.0
142
1.0
143
1.0
 70
   688
 72
     1
 73
     0
 74
     5
  7

 75
    16
147
1.0
148
0.0
149
0.0
100
AcDbLayout
  1
Layout1
 70
     1
 71
     1
 10
0.0
 20
0.0
 11
420.0
 21
297.0
 12
0.0
 22
0.0
 32
0.0
 14
1.0000000000E+20
 24
1.0000000000E+20
 34
1.0000000000E+20
 15
-1.0000000000E+20
 25
-1.0000000000E+20
 35
-1.0000000000E+20
146
0.0
 13
0.0
 23
0.0
 33
0.0
 16
1.0
 26
0.0
 36
0.0
 17
0.0
 27
1.0
 37
0.0
 76
     0
330
1B
  0
LAYOUT
  5
26
102
{ACAD_REACTORS
330
1A
102
}
330
1A
100
AcDbPlotSettings
  1

  2
none_device
  4

  6

 40
0.0
 41
0.0
 42
0.0
 43
0.0
 44
0.0
 45
0.0
 46
0.0
 47
0.0
 48
0.0
 49
0.0
140
0.0
141
0.0
142
1.0
143
1.0
 70
   688
 72
     1
 73
     0
 74
     5
  7

 75
    16
147
1.0
148
0.0
149
0.0
100
AcDbLayout
  1
Layout2
 70
     1
 71
     2
 10
0.0
 20
0.0
 11
0.0
 21
0.0
 12
0.0
 22
0.0
 32
0.0
 14
0.0
 24
0.0
 34
0.0
 15
0.0
 25
0.0
 35
0.0
146
0.0
 13
0.0
 23
0.0
 33
0.0
 16
1.0
 26
0.0
 36
0.0
 17
0.0
 27
1.0
 37
0.0
 76
     0
330
23
  0
LAYOUT
  5
22
102
{ACAD_REACTORS
330
1A
102
}
330
1A
100
AcDbPlotSettings
  1

  2
none_device
  4
Letter_(8.50_x_11.00_Inches)
  6

 40
6.35
 41
6.35
 42
6.35000508
 43
6.35000508
 44
215.9
 45
279.4
 46
0.0
 47
0.0
 48
0.0
 49
0.0
140
0.0
141
0.0
142
1.0
143
1.0
 70
  1712
 72
     1
 73
     0
 74
     0
  7

 75
     0
147
1.0
148
0.0
149
0.0
100
AcDbLayout
  1
Model
 70
     1
 71
     0
 10
0.0
 20
0.0
 11
841.0
 21
594.0
 12
0.0
 22
0.0
 32
0.0
 14
0.0
 24
0.0
 34
0.0
 15
841.0
 25
594.0
 35
0.0
146
0.0
 13
0.0
 23
0.0
 33
0.0
 16
1.0
 26
0.0
 36
0.0
 17
0.0
 27
1.0
 37
0.0
 76
     0
330
1F
331
29
  0
MLINESTYLE
  5
18
102
{ACAD_REACTORS
330
17
102
}
330
17
100
AcDbMlineStyle
  2
Standard
 70
     0
  3

 62
   256
 51
90.0
 52
90.0
 71
     2
 49
0.5
 62
   256
  6
BYLAYER
 49
-0.5
 62
   256
  6
BYLAYER
  0
ACDBPLACEHOLDER
  5
F
102
{ACAD_REACTORS
330
E
102
}
330
E
  0
SCALE
  5
48
102
{ACAD_REACTORS
330
47
102
}
330
47
100
AcDbScale
 70
     0
300
1:1
140
1.0
141
1.0
290
     1
  0
SCALE
  5
49
102
{ACAD_REACTORS
330
47
102
}
330
47
100
AcDbScale
 70
     0
300
1:2
140
1.0
141
2.0
290
     0
  0
SCALE
  5
4A
102
{ACAD_REACTORS
330
47
102
}
330
47
100
AcDbScale
 70
     0
300
1:4
140
1.0
141
4.0
290
     0
  0
SCALE
  5
4B
102
{ACAD_REACTORS
330
47
102
}
330
47
100
AcDbScale
 70
     0
300
1:5
140
1.0
141
5.0
290
     0
  0
SCALE
  5
4C
102
{ACAD_REACTORS
330
47
102
}
330
47
100
AcDbScale
 70
     0
300
1:8
140
1.0
141
8.0
290
     0
  0
SCALE
  5
4D
102
{ACAD_REACTORS
330
47
102
}
330
47
100
AcDbScale
 70
     0
300
1:10
140
1.0
141
10.0
290
     0
  0
SCALE
  5
4E
102
{ACAD_REACTORS
330
47
102
}
330
47
100
AcDbScale
 70
     0
300
1:16
140
1.0
141
16.0
290
     0
  0
SCALE
  5
4F
102
{ACAD_REACTORS
330
47
102
}
330
47
100
AcDbScale
 70
     0
300
1:20
140
1.0
141
20.0
290
     0
  0
SCALE
  5
50
102
{ACAD_REACTORS
330
47
102
}
330
47
100
AcDbScale
 70
     0
300
1:30
140
1.0
141
30.0
290
     0
  0
SCALE
  5
51
102
{ACAD_REACTORS
330
47
102
}
330
47
100
AcDbScale
 70
     0
300
1:40
140
1.0
141
40.0
290
     0
  0
SCALE
  5
52
102
{ACAD_REACTORS
330
47
102
}
330
47
100
AcDbScale
 70
     0
300
1:50
140
1.0
141
50.0
290
     0
  0
SCALE
  5
53
102
{ACAD_REACTORS
330
47
102
}
330
47
100
AcDbScale
 70
     0
300
1:100
140
1.0
141
100.0
290
     0
  0
SCALE
  5
54
102
{ACAD_REACTORS
330
47
102
}
330
47
100
AcDbScale
 70
     0
300
2:1
140
2.0
141
1.0
290
     0
  0
SCALE
  5
55
102
{ACAD_REACTORS
330
47
102
}
330
47
100
AcDbScale
 70
     0
300
4:1
140
4.0
141
1.0
290
     0
  0
SCALE
  5
56
102
{ACAD_REACTORS
330
47
102
}
330
47
100
AcDbScale
 70
     0
300
8:1
140
8.0
141
1.0
290
     0
  0
SCALE
  5
57
102
{ACAD_REACTORS
330
47
102
}
330
47
100
AcDbScale
 70
     0
300
10:1
140
10.0
141
1.0
290
     0
  0
SCALE
  5
58
102
{ACAD_REACTORS
330
47
102
}
330
47
100
AcDbScale
 70
     0
300
100:1
140
100.0
141
1.0
290
     0
  0
SCALE
  5
59
102
{ACAD_REACTORS
330
47
102
}
330
47
100
AcDbScale
 70
     0
300
1/128" = 1'-0"
140
0.0078125
141
12.0
290
     0
  0
SCALE
  5
5A
102
{ACAD_REACTORS
330
47
102
}
330
47
100
AcDbScale
 70
     0
300
1/64" = 1'-0"
140
0.015625
141
12.0
290
     0
  0
SCALE
  5
5B
102
{ACAD_REACTORS
330
47
102
}
330
47
100
AcDbScale
 70
     0
300
1/32" = 1'-0"
140
0.03125
141
12.0
290
     0
  0
SCALE
  5
5C
102
{ACAD_REACTORS
330
47
102
}
330
47
100
AcDbScale
 70
     0
300
1/16" = 1'-0"
140
0.0625
141
12.0
290
     0
  0
SCALE
  5
5D
102
{ACAD_REACTORS
330
47
102
}
330
47
100
AcDbScale
 70
     0
300
3/32" = 1'-0"
140
0.09375
141
12.0
290
     0
  0
SCALE
  5
5E
102
{ACAD_REACTORS
330
47
102
}
330
47
100
AcDbScale
 70
     0
300
1/8" = 1'-0"
140
0.125
141
12.0
290
     0
  0
SCALE
  5
5F
102
{ACAD_REACTORS
330
47
102
}
330
47
100
AcDbScale
 70
     0
300
3/16" = 1'-0"
140
0.1875
141
12.0
290
     0
  0
SCALE
  5
60
102
{ACAD_REACTORS
330
47
102
}
330
47
100
AcDbScale
 70
     0
300
1/4" = 1'-0"
140
0.25
141
12.0
290
     0
  0
SCALE
  5
61
102
{ACAD_REACTORS
330
47
102
}
330
47
100
AcDbScale
 70
     0
300
3/8" = 1'-0"
140
0.375
141
12.0
290
     0
  0
SCALE
  5
62
102
{ACAD_REACTORS
330
47
102
}
330
47
100
AcDbScale
 70
     0
300
1/2" = 1'-0"
140
0.5
141
12.0
290
     0
  0
SCALE
  5
63
102
{ACAD_REACTORS
330
47
102
}
330
47
100
AcDbScale
 70
     0
300
3/4" = 1'-0"
140
0.75
141
12.0
290
     0
  0
SCALE
  5
64
102
{ACAD_REACTORS
330
47
102
}
330
47
100
AcDbScale
 70
     0
300
1" = 1'-0"
140
1.0
141
12.0
290
     0
  0
SCALE
  5
65
102
{ACAD_REACTORS
330
47
102
}
330
47
100
AcDbScale
 70
     0
300
1-1/2" = 1'-0"
140
1.5
141
12.0
290
     0
  0
SCALE
  5
66
102
{ACAD_REACTORS
330
47
102
}
330
47
100
AcDbScale
 70
     0
300
3" = 1'-0"
140
3.0
141
12.0
290
     0
  0
SCALE
  5
67
102
{ACAD_REACTORS
330
47
102
}
330
47
100
AcDbScale
 70
     0
300
6" = 1'-0"
140
6.0
141
12.0
290
     0
  0
SCALE
  5
68
102
{ACAD_REACTORS
330
47
102
}
330
47
100
AcDbScale
 70
     0
300
1'-0" = 1'-0"
140
12.0
141
12.0
290
     0
  0
ENDSEC
  0
EOF
