  0
SECTION
  2
HEADER
  9
$ACADVER
  1
AC1015
  9
$ACADMAINTVER
 70
     6
  9
$DWGCODEPAGE
  3
ANSI_1251
  9
$INSBASE
 10
0.0
 20
0.0
 30
0.0
  9
$EXTMIN
 10
0.0
 20
0.0
 30
0.0
  9
$EXTMAX
 10
431.8
 20
279.4
 30
0.0
  9
$LIMMIN
 10
0.0
 20
0.0
  9
$LIMMAX
 10
431.8
 20
279.4
  9
$ORTHOMODE
 70
     0
  9
$REGENMODE
 70
     1
  9
$FILLMODE
 70
     1
  9
$QTEXTMODE
 70
     0
  9
$MIRRTEXT
 70
     1
  9
$LTSCALE
 40
1.0
  9
$ATTMODE
 70
     1
  9
$TEXTSIZE
 40
3.5
  9
$TRACEWID
 40
1.0
  9
$TEXTSTYLE
  7
STANDARD
  9
$CLAYER
  8
0
  9
$CELTYPE
  6
ByLayer
  9
$CECOLOR
 62
   256
  9
$CELTSCALE
 40
1.0
  9
$DISPSILH
 70
     0
  9
$DIMSCALE
 40
1.0
  9
$DIMASZ
 40
5.0
  9
$DIMEXO
 40
0.0
  9
$DIMDLI
 40
3.75
  9
$DIMRND
 40
0.0
  9
$DIMDLE
 40
0.0
  9
$DIMEXE
 40
1.0
  9
$DIMTP
 40
0.0
  9
$DIMTM
 40
0.0
  9
$DIMTXT
 40
3.5
  9
$DIMCEN
 40
2.5
  9
$DIMTSZ
 40
0.0
  9
$DIMTOL
 70
     0
  9
$DIMLIM
 70
     0
  9
$DIMTIH
 70
     1
  9
$DIMTOH
 70
     1
  9
$DIMSE1
 70
     0
  9
$DIMSE2
 70
     0
  9
$DIMTAD
 70
     1
  9
$DIMZIN
 70
     0
  9
$DIMBLK
  1

  9
$DIMASO
 70
     1
  9
$DIMSHO
 70
     1
  9
$DIMPOST
  1

  9
$DIMAPOST
  1

  9
$DIMALT
 70
     0
  9
$DIMALTD
 70
     3
  9
$DIMALTF
 40
0.0393700787
  9
$DIMLFAC
 40
1.0
  9
$DIMTOFL
 70
     1
  9
$DIMTVP
 40
0.0
  9
$DIMTIX
 70
     0
  9
$DIMSOXD
 70
     0
  9
$DIMSAH
 70
     0
  9
$DIMBLK1
  1

  9
$DIMBLK2
  1

  9
$DIMSTYLE
  2
ISO-25
  9
$DIMCLRD
 70
     0
  9
$DIMCLRE
 70
     0
  9
$DIMCLRT
 70
     0
  9
$DIMTFAC
 40
1.0
  9
$DIMGAP
 40
1.5
  9
$DIMJUST
 70
     0
  9
$DIMSD1
 70
     0
  9
$DIMSD2
 70
     0
  9
$DIMTOLJ
 70
     0
  9
$DIMTZIN
 70
     0
  9
$DIMALTZ
 70
     0
  9
$DIMALTTZ
 70
     0
  9
$DIMUPT
 70
     0
  9
$DIMDEC
 70
     1
  9
$DIMTDEC
 70
     3
  9
$DIMALTU
 70
     2
  9
$DIMALTTD
 70
     3
  9
$DIMTXSTY
  7
STANDARD
  9
$DIMAUNIT
 70
     0
  9
$DIMADEC
 70
     2
  9
$DIMALTRND
 40
0.0
  9
$DIMAZIN
 70
     0
  9
$DIMDSEP
 70
    44
  9
$DIMATFIT
 70
     3
  9
$DIMFRAC
 70
     0
  9
$DIMLDRBLK
  1

  9
$DIMLUNIT
 70
     2
  9
$DIMLWD
 70
    -2
  9
$DIMLWE
 70
    -2
  9
$DIMTMOVE
 70
     0
  9
$LUNITS
 70
     2
  9
$LUPREC
 70
     1
  9
$SKETCHINC
 40
1.0
  9
$FILLETRAD
 40
0.0
  9
$AUNITS
 70
     0
  9
$AUPREC
 70
     2
  9
$MENU
  1
.
  9
$ELEVATION
 40
0.0
  9
$PELEVATION
 40
0.0
  9
$THICKNESS
 40
0.0
  9
$LIMCHECK
 70
     0
  9
$CHAMFERA
 40
0.0
  9
$CHAMFERB
 40
0.0
  9
$CHAMFERC
 40
0.0
  9
$CHAMFERD
 40
0.0
  9
$SKPOLY
 70
     0
  9
$TDCREATE
 40
2460936.436186366
  9
$TDUCREATE
 40
2460936.311186366
  9
$TDUPDATE
 40
2460936.436186898
  9
$TDUUPDATE
 40
2460936.311186898
  9
$TDINDWG
 40
0.0000000116
  9
$TDUSRTIMER
 40
0.0000000116
  9
$USRTIMER
 70
     1
  9
$ANGBASE
 50
0.0
  9
$ANGDIR
 70
     0
  9
$PDMODE
 70
     0
  9
$PDSIZE
 40
-1.0
  9
$PLINEWID
 40
0.0
  9
$SPLFRAME
 70
     0
  9
$SPLINETYPE
 70
     6
  9
$SPLINESEGS
 70
     8
  9
$HANDSEED
  5
3B9
  9
$SURFTAB1
 70
     6
  9
$SURFTAB2
 70
     6
  9
$SURFTYPE
 70
     6
  9
$SURFU
 70
     6
  9
$SURFV
 70
     6
  9
$UCSBASE
  2

  9
$UCSNAME
  2

  9
$UCSORG
 10
0.0
 20
0.0
 30
0.0
  9
$UCSXDIR
 10
1.0
 20
0.0
 30
0.0
  9
$UCSYDIR
 10
0.0
 20
1.0
 30
0.0
  9
$UCSORTHOREF
  2

  9
$UCSORTHOVIEW
 70
     0
  9
$UCSORGTOP
 10
0.0
 20
0.0
 30
0.0
  9
$UCSORGBOTTOM
 10
0.0
 20
0.0
 30
0.0
  9
$UCSORGLEFT
 10
0.0
 20
0.0
 30
0.0
  9
$UCSORGRIGHT
 10
0.0
 20
0.0
 30
0.0
  9
$UCSORGFRONT
 10
0.0
 20
0.0
 30
0.0
  9
$UCSORGBACK
 10
0.0
 20
0.0
 30
0.0
  9
$PUCSBASE
  2

  9
$PUCSNAME
  2

  9
$PUCSORG
 10
0.0
 20
0.0
 30
0.0
  9
$PUCSXDIR
 10
1.0
 20
0.0
 30
0.0
  9
$PUCSYDIR
 10
0.0
 20
1.0
 30
0.0
  9
$PUCSORTHOREF
  2

  9
$PUCSORTHOVIEW
 70
     0
  9
$PUCSORGTOP
 10
0.0
 20
0.0
 30
0.0
  9
$PUCSORGBOTTOM
 10
0.0
 20
0.0
 30
0.0
  9
$PUCSORGLEFT
 10
0.0
 20
0.0
 30
0.0
  9
$PUCSORGRIGHT
 10
0.0
 20
0.0
 30
0.0
  9
$PUCSORGFRONT
 10
0.0
 20
0.0
 30
0.0
  9
$PUCSORGBACK
 10
0.0
 20
0.0
 30
0.0
  9
$USERI1
 70
     0
  9
$USERI2
 70
     0
  9
$USERI3
 70
     0
  9
$USERI4
 70
     0
  9
$USERI5
 70
     0
  9
$USERR1
 40
0.0
  9
$USERR2
 40
0.0
  9
$USERR3
 40
0.0
  9
$USERR4
 40
0.0
  9
$USERR5
 40
0.0
  9
$WORLDVIEW
 70
     1
  9
$SHADEDGE
 70
     3
  9
$SHADEDIF
 70
    70
  9
$TILEMODE
 70
     1
  9
$MAXACTVP
 70
    64
  9
$PINSBASE
 10
0.0
 20
0.0
 30
0.0
  9
$PLIMCHECK
 70
     0
  9
$PEXTMIN
 10
1.0000000000E+20
 20
1.0000000000E+20
 30
1.0000000000E+20
  9
$PEXTMAX
 10
-1.0000000000E+20
 20
-1.0000000000E+20
 30
-1.0000000000E+20
  9
$PLIMMIN
 10
0.0
 20
0.0
  9
$PLIMMAX
 10
420.0
 20
297.0
  9
$UNITMODE
 70
     0
  9
$VISRETAIN
 70
     1
  9
$PLINEGEN
 70
     0
  9
$PSLTSCALE
 70
     1
  9
$TREEDEPTH
 70
  3020
  9
$CMLSTYLE
  2
Standard
  9
$CMLJUST
 70
     0
  9
$CMLSCALE
 40
20.0
  9
$PROXYGRAPHICS
 70
     1
  9
$MEASUREMENT
 70
     1
  9
$CELWEIGHT
370
    -1
  9
$ENDCAPS
280
     0
  9
$JOINSTYLE
280
     0
  9
$LWDISPLAY
290
     1
  9
$INSUNITS
 70
     4
  9
$HYPERLINKBASE
  1

  9
$STYLESHEET
  1

  9
$XEDIT
290
     1
  9
$CEPSNTYPE
380
     0
  9
$PSTYLEMODE
290
     1
  9
$FINGERPRINTGUID
  2
{2f01bb26-116d-402c-8049-999799349d76}
  9
$VERSIONGUID
  2
{FAEB1C32-E019-11D5-929B-00C0DF256EC4}
  9
$EXTNAMES
290
     1
  9
$PSVPSCALE
 40
0.0
  9
$OLESTARTUP
290
     0
  0
ENDSEC
  0
SECTION
  2
CLASSES
  0
CLASS
  1
ACDBDICTIONARYWDFLT
  2
AcDbDictionaryWithDefault
  3
ObjectDBX Classes
 90
        0
280
     0
281
     0
  0
CLASS
  1
VISUALSTYLE
  2
AcDbVisualStyle
  3
ObjectDBX Classes
 90
     4095
280
     0
281
     0
  0
CLASS
  1
MATERIAL
  2
AcDbMaterial
  3
ObjectDBX Classes
 90
     1153
280
     0
281
     0
  0
CLASS
  1
SCALE
  2
AcDbScale
  3
ObjectDBX Classes
 90
     1153
280
     0
281
     0
  0
CLASS
  1
TABLESTYLE
  2
AcDbTableStyle
  3
ObjectDBX Classes
 90
     4095
280
     0
281
     0
  0
CLASS
  1
MLEADERSTYLE
  2
AcDbMLeaderStyle
  3
ACDB_MLEADERSTYLE_CLASS
 90
     4095
280
     0
281
     0
  0
CLASS
  1
SUN
  2
AcDbSun
  3
SCENEOE
 90
     1153
280
     0
281
     0
  0
CLASS
  1
ACDBPLACEHOLDER
  2
AcDbPlaceHolder
  3
ObjectDBX Classes
 90
        0
280
     0
281
     0
  0
CLASS
  1
LAYOUT
  2
AcDbLayout
  3
ObjectDBX Classes
 90
        0
280
     0
281
     0
  0
ENDSEC
  0
SECTION
  2
TABLES
  0
TABLE
  2
VPORT
  5
8
330
0
100
AcDbSymbolTable
 70
     1
  0
VPORT
  5
29
330
8
100
AcDbSymbolTableRecord
100
AcDbViewportTableRecord
  2
*Active
 70
     0
 10
0.0
 20
0.0
 11
1.0
 21
1.0
 12
215.9
 22
139.7
 13
0.0
 23
0.0
 14
10.0
 24
10.0
 15
10.0
 25
10.0
 16
0.0
 26
0.0
 36
1.0
 17
0.0
 27
0.0
 37
0.0
 40
279.4
 41
1.5454545455
 42
50.0
 43
0.0
 44
0.0
 50
0.0
 51
0.0
 71
     0
 72
  2000
 73
     1
 74
     3
 75
     0
 76
     0
 77
     0
 78
     0
281
     0
 65
     1
110
0.0
120
0.0
130
0.0
111
1.0
121
0.0
131
0.0
112
0.0
122
1.0
132
0.0
 79
     0
146
0.0
  0
ENDTAB
  0
TABLE
  2
LTYPE
  5
5
330
0
100
AcDbSymbolTable
 70
     8
  0
LTYPE
  5
14
330
5
100
AcDbSymbolTableRecord
100
AcDbLinetypeTableRecord
  2
ByBlock
 70
     0
  3

 72
    65
 73
     0
 40
0.0
  0
LTYPE
  5
15
330
5
100
AcDbSymbolTableRecord
100
AcDbLinetypeTableRecord
  2
ByLayer
 70
     0
  3

 72
    65
 73
     0
 40
0.0
  0
LTYPE
  5
16
330
5
100
AcDbSymbolTableRecord
100
AcDbLinetypeTableRecord
  2
Continuous
 70
     0
  3
Solid line
 72
    65
 73
     0
 40
0.0
  0
LTYPE
  5
5E
330
5
100
AcDbSymbolTableRecord
100
AcDbLinetypeTableRecord
  2
SLD-Сплошная
 70
     0
  3
SolidWorks Line Style
 72
    65
 73
     0
 40
0.0
  0
LTYPE
  5
5F
330
5
100
AcDbSymbolTableRecord
100
AcDbLinetypeTableRecord
  2
SLD-Штриховая
 70
     0
  3
SolidWorks Line Style
 72
    65
 73
     2
 40
1.905
 49
1.27
 74
     0
 49
-0.635
 74
     0
  0
LTYPE
  5
60
330
5
100
AcDbSymbolTableRecord
100
AcDbLinetypeTableRecord
  2
SLD-Штрихпункт.-с-двумя-точками
 70
     0
  3
SolidWorks Line Style
 72
    65
 73
     6
 40
12.7
 49
6.35
 74
     0
 49
-1.27
 74
     0
 49
1.27
 74
     0
 49
-1.27
 74
     0
 49
1.27
 74
     0
 49
-1.27
 74
     0
  0
LTYPE
  5
61
330
5
100
AcDbSymbolTableRecord
100
AcDbLinetypeTableRecord
  2
SLD-Штрихпункт.-утолщ.
 70
     0
  3
SolidWorks Line Style
 72
    65
 73
     4
 40
10.16
 49
6.35
 74
     0
 49
-1.27
 74
     0
 49
1.27
 74
     0
 49
-1.27
 74
     0
  0
LTYPE
  5
62
330
5
100
AcDbSymbolTableRecord
100
AcDbLinetypeTableRecord
  2
SLD-Осевая
 70
     0
  3
SolidWorks Line Style
 72
    65
 73
     4
 40
19.05
 49
15.24
 74
     0
 49
-1.27
 74
     0
 49
1.27
 74
     0
 49
-1.27
 74
     0
  0
LTYPE
  5
63
330
5
100
AcDbSymbolTableRecord
100
AcDbLinetypeTableRecord
  2
SLD-Сшитая
 70
     0
  3
SolidWorks Line Style
 72
    65
 73
     2
 40
0.635
 49
0.0
 74
     0
 49
-0.635
 74
     0
  0
LTYPE
  5
64
330
5
100
AcDbSymbolTableRecord
100
AcDbLinetypeTableRecord
  2
SLD-Тонкая-Толстая
 70
     0
  3
SolidWorks Line Style
 72
    65
 73
     2
 40
5.080508
 49
0.000508
 74
     0
 49
-5.08
 74
     0
  0
ENDTAB
  0
TABLE
  2
LAYER
  5
2
330
0
100
AcDbSymbolTable
 70
     3
  0
LAYER
  5
10
330
2
100
AcDbSymbolTableRecord
100
AcDbLayerTableRecord
  2
0
 70
     0
 62
     7
  6
Continuous
370
    -3
390
F
  0
LAYER
  5
65
330
2
100
AcDbSymbolTableRecord
100
AcDbLayerTableRecord
  2
ВОДЯНОЙ_ЗНАК
 70
     0
 62
    11
  6
SLD-Сплошная
370
    -3
390
F
  0
LAYER
  5
66
330
2
100
AcDbSymbolTableRecord
100
AcDbLayerTableRecord
  2
ОСНОВНОЙ
 70
     0
 62
     7
  6
SLD-Сплошная
370
    -3
390
F
  0
ENDTAB
  0
TABLE
  2
STYLE
  5
3
330
0
100
AcDbSymbolTable
 70
     1
  0
STYLE
  5
11
330
3
100
AcDbSymbolTableRecord
100
AcDbTextStyleTableRecord
  2
STANDARD
 70
     0
 40
0.0
 41
1.0
 50
0.0
 71
     0
 42
3.5
  3
GOST-TYPE-A.TTF
  4

1001
ACAD
1000
GOST TYPE A
1071
 16777250
  0
ENDTAB
  0
TABLE
  2
VIEW
  5
6
330
0
100
AcDbSymbolTable
 70
     0
  0
ENDTAB
  0
TABLE
  2
UCS
  5
7
330
0
100
AcDbSymbolTable
 70
     0
  0
ENDTAB
  0
TABLE
  2
APPID
  5
9
330
0
100
AcDbSymbolTable
 70
     1
  0
APPID
  5
12
330
9
100
AcDbSymbolTableRecord
100
AcDbRegAppTableRecord
  2
ACAD
 70
     0
  0
ENDTAB
  0
TABLE
  2
DIMSTYLE
  5
A
330
0
100
AcDbSymbolTable
 70
     1
100
AcDbDimStyleTable
  0
DIMSTYLE
105
27
330
A
100
AcDbSymbolTableRecord
100
AcDbDimStyleTableRecord
  2
ISO-25
 70
     0
 41
2.5
 42
0.625
 43
3.75
 44
1.25
 73
     0
 74
     0
 77
     1
 78
     8
140
2.5
141
2.5
143
0.0393700787
147
0.625
171
     3
172
     1
178
     0
271
     2
272
     2
274
     3
278
    44
283
     0
284
     8
340
11
  0
ENDTAB
  0
TABLE
  2
BLOCK_RECORD
  5
1
330
0
100
AcDbSymbolTable
 70
     1
  0
BLOCK_RECORD
  5
1F
330
1
100
AcDbSymbolTableRecord
100
AcDbBlockTableRecord
  2
*Model_Space
340
22
  0
BLOCK_RECORD
  5
1B
330
1
100
AcDbSymbolTableRecord
100
AcDbBlockTableRecord
  2
*Paper_Space
340
1E
  0
BLOCK_RECORD
  5
23
330
1
100
AcDbSymbolTableRecord
100
AcDbBlockTableRecord
  2
*Paper_Space0
340
26
  0
ENDTAB
  0
ENDSEC
  0
SECTION
  2
BLOCKS
  0
BLOCK
  5
20
330
1F
100
AcDbEntity
  8
0
100
AcDbBlockBegin
  2
*Model_Space
 70
     0
 10
0.0
 20
0.0
 30
0.0
  3
*Model_Space
  1

  0
ENDBLK
  5
21
330
1F
100
AcDbEntity
  8
0
100
AcDbBlockEnd
  0
BLOCK
  5
1C
330
1B
100
AcDbEntity
 67
     1
  8
0
100
AcDbBlockBegin
  2
*Paper_Space
 70
     0
 10
0.0
 20
0.0
 30
0.0
  3
*Paper_Space
  1

  0
ENDBLK
  5
1D
330
1B
100
AcDbEntity
 67
     1
  8
0
100
AcDbBlockEnd
  0
BLOCK
  5
24
330
23
100
AcDbEntity
  8
0
100
AcDbBlockBegin
  2
*Paper_Space0
 70
     0
 10
0.0
 20
0.0
 30
0.0
  3
*Paper_Space0
  1

  0
ENDBLK
  5
25
330
23
100
AcDbEntity
  8
0
100
AcDbBlockEnd
  0
ENDSEC
  0
SECTION
  2
ENTITIES
  0
LINE
  5
67
330
1F
100
AcDbEntity
  8
0
  6
SLD-Сплошная
 62
     7
370
    25
100
AcDbLine
 10
172.5323056405
 20
159.9916219994
 30
0.0
 11
165.0323056405
 21
159.9916219994
 31
0.0
  0
LINE
  5
68
330
1F
100
AcDbEntity
  8
0
  6
SLD-Сплошная
 62
     7
370
    25
100
AcDbLine
 10
229.5323056405
 20
153.7916219994
 30
0.0
 11
207.6478345243
 21
153.7916219994
 31
0.0
  0
LINE
  5
69
330
1F
100
AcDbEntity
  8
0
  6
SLD-Сплошная
 62
     7
370
    25
100
AcDbLine
 10
207.0323056405
 20
113.8916219994
 30
0.0
 11
229.5323056405
 21
113.8916219994
 31
0.0
  0
LINE
  5
6A
330
1F
100
AcDbEntity
  8
0
  6
SLD-Сплошная
 62
     7
370
    25
100
AcDbLine
 10
229.5323056405
 20
116.5916219994
 30
0.0
 11
246.0323056405
 21
116.5916219994
 31
0.0
  0
LINE
  5
6B
330
1F
100
AcDbEntity
  8
0
  6
SLD-Сплошная
 62
     7
370
    25
100
AcDbLine
 10
165.0323056405
 20
104.3416219994
 30
0.0
 11
186.1155375153
 21
104.3416219994
 31
0.0
  0
LINE
  5
6C
330
1F
100
AcDbEntity
  8
0
  6
SLD-Сплошная
 62
     7
370
    25
100
AcDbLine
 10
194.3977469585
 20
104.3416219994
 30
0.0
 11
207.0323056405
 21
104.3416219994
 31
0.0
  0
LINE
  5
6D
330
1F
100
AcDbEntity
  8
0
  6
SLD-Сплошная
 62
     7
370
    25
100
AcDbLine
 10
246.0323056405
 20
129.4416219994
 30
0.0
 11
246.4323056405
 21
129.4416219994
 31
0.0
  0
LINE
  5
6E
330
1F
100
AcDbEntity
  8
0
  6
SLD-Сплошная
 62
     7
370
    25
100
AcDbLine
 10
246.4323056405
 20
135.1416219994
 30
0.0
 11
246.0323056405
 21
135.1416219994
 31
0.0
  0
ARC
  5
6F
330
1F
100
AcDbEntity
  8
0
  6
SLD-Сплошная
 62
     7
370
    25
100
AcDbCircle
 10
305.0323056405
 20
133.8416219994
 30
0.0
 40
149.9999999999995
100
AcDbArc
 50
169.9603517715
 51
191.790475807
  0
LINE
  5
70
330
1F
100
AcDbEntity
  8
0
  6
SLD-Сплошная
 62
     7
370
    25
100
AcDbLine
 10
162.0323056405
 20
104.3223780892
 30
0.0
 11
165.0323056405
 21
104.3223780892
 31
0.0
  0
LINE
  5
71
330
1F
100
AcDbEntity
  8
0
  6
SLD-Сплошная
 62
     7
370
    25
100
AcDbLine
 10
212.7472547192
 20
172.8229172559
 30
0.0
 11
205.0198481088
 21
174.8934696167
 31
0.0
  0
LINE
  5
72
330
1F
100
AcDbEntity
  8
0
  6
SLD-Сплошная
 62
     7
370
    25
100
AcDbLine
 10
211.4531594936
 20
167.9932881244
 30
0.0
 11
212.7472547192
 21
172.8229172559
 31
0.0
  0
LINE
  5
73
330
1F
100
AcDbEntity
  8
0
  6
SLD-Сплошная
 62
     7
370
    25
100
AcDbLine
 10
203.7257528833
 20
170.0638404852
 30
0.0
 11
205.0198481088
 21
174.8934696167
 31
0.0
  0
LINE
  5
74
330
1F
100
AcDbEntity
  8
0
  6
SLD-Сплошная
 62
     7
370
    25
100
AcDbLine
 10
190.7476358854
 20
90.7192220213
 30
0.0
 11
192.041731111
 21
95.5488511527
 31
0.0
  0
LINE
  5
75
330
1F
100
AcDbEntity
  8
0
  6
SLD-Сплошная
 62
     7
370
    25
100
AcDbLine
 10
190.7476358854
 20
90.7192220213
 30
0.0
 11
183.0202292751
 21
92.7897743821
 31
0.0
  0
LINE
  5
76
330
1F
100
AcDbEntity
  8
0
  6
SLD-Сплошная
 62
     7
370
    25
100
AcDbLine
 10
183.0202292751
 20
92.7897743821
 30
0.0
 11
184.3143245006
 21
97.6194035136
 31
0.0
  0
LINE
  5
77
330
1F
100
AcDbEntity
  8
0
  6
SLD-Сплошная
 62
     7
370
    25
100
AcDbLine
 10
192.041731111
 20
95.5488511527
 30
0.0
 11
211.4531594936
 21
167.9932881244
 31
0.0
  0
LINE
  5
78
330
1F
100
AcDbEntity
  8
0
  6
SLD-Сплошная
 62
     7
370
    25
100
AcDbLine
 10
184.3143245006
 20
97.6194035136
 30
0.0
 11
203.7257528833
 21
170.0638404852
 31
0.0
  0
LINE
  5
79
330
1F
100
AcDbEntity
  8
0
  6
SLD-Сплошная
 62
     7
370
    25
100
AcDbLine
 10
207.0323056405
 20
108.4844553327
 30
0.0
 11
195.5078158046
 21
108.4844553327
 31
0.0
  0
LINE
  5
7A
330
1F
100
AcDbEntity
  8
0
  6
SLD-Сплошная
 62
     7
370
    25
100
AcDbLine
 10
207.0323056405
 20
108.4844553327
 30
0.0
 11
207.0323056405
 21
133.8416219994
 31
0.0
  0
LINE
  5
7B
330
1F
100
AcDbEntity
  8
0
  6
SLD-Сплошная
 62
     7
370
    25
100
AcDbLine
 10
207.0323056405
 20
133.8416219994
 30
0.0
 11
207.0323056405
 21
151.4944369317
 31
0.0
  0
LINE
  5
7C
330
1F
100
AcDbEntity
  8
0
  6
SLD-Сплошная
 62
     7
370
    25
100
AcDbLine
 10
170.0323056405
 20
120.2864854358
 30
0.0
 11
187.0323056405
 21
120.2864854358
 31
0.0
  0
LINE
  5
7D
330
1F
100
AcDbEntity
  8
0
  6
SLD-Сплошная
 62
     7
370
    25
100
AcDbLine
 10
187.0323056405
 20
120.2864854358
 30
0.0
 11
187.0323056405
 21
147.396758563
 31
0.0
  0
LINE
  5
7E
330
1F
100
AcDbEntity
  8
0
  6
SLD-Сплошная
 62
     7
370
    25
100
AcDbLine
 10
187.0323056405
 20
147.396758563
 30
0.0
 11
170.0323056405
 21
147.396758563
 31
0.0
  0
LINE
  5
7F
330
1F
100
AcDbEntity
  8
0
  6
SLD-Сплошная
 62
     7
370
    25
100
AcDbLine
 10
170.0323056405
 20
120.2864854358
 30
0.0
 11
170.0323056405
 21
147.396758563
 31
0.0
  0
LINE
  5
80
330
1F
100
AcDbEntity
  8
0
  6
SLD-Сплошная
 62
     7
370
    25
100
AcDbLine
 10
172.5323056405
 20
155.9283261447
 30
0.0
 11
199.9381532312
 21
155.9283261447
 31
0.0
  0
LINE
  5
81
330
1F
100
AcDbEntity
  8
0
  6
SLD-Сплошная
 62
     7
370
    25
100
AcDbLine
 10
187.2256063613
 20
108.4844553327
 30
0.0
 11
165.0323056405
 21
108.4844553327
 31
0.0
  0
LINE
  5
82
330
1F
100
AcDbEntity
  8
0
  6
SLD-Сплошная
 62
     7
370
    25
100
AcDbLine
 10
165.0323056405
 20
108.4844553327
 30
0.0
 11
165.0323056405
 21
158.0040411664
 31
0.0
  0
LINE
  5
83
330
1F
100
AcDbEntity
  8
0
  6
SLD-Сплошная
 62
     7
370
    25
100
AcDbLine
 10
179.7344153905
 20
134.670922882
 30
0.0
 11
177.3301958905
 21
134.670922882
 31
0.0
  0
LINE
  5
84
330
1F
100
AcDbEntity
  8
0
  6
SLD-Сплошная
 62
     7
370
    25
100
AcDbLine
 10
179.7344153905
 20
129.0211910498
 30
0.0
 11
179.7344153905
 21
134.670922882
 31
0.0
  0
LINE
  5
85
330
1F
100
AcDbEntity
  8
0
  6
SLD-Сплошная
 62
     7
370
    25
100
AcDbLine
 10
180.5358315931
 20
129.0211910498
 30
0.0
 11
179.7344153905
 21
129.0211910498
 31
0.0
  0
LINE
  5
86
330
1F
100
AcDbEntity
  8
0
  6
SLD-Сплошная
 62
     7
370
    25
100
AcDbLine
 10
182.9400510931
 20
134.670922882
 30
0.0
 11
180.5358315931
 21
134.670922882
 31
0.0
  0
LINE
  5
87
330
1F
100
AcDbEntity
  8
0
  6
SLD-Сплошная
 62
     7
370
    25
100
AcDbLine
 10
182.9400510931
 20
126.2999833771
 30
0.0
 11
182.9400510931
 21
134.670922882
 31
0.0
  0
LINE
  5
88
330
1F
100
AcDbEntity
  8
0
  6
SLD-Сплошная
 62
     7
370
    25
100
AcDbLine
 10
177.3301958905
 20
126.2999833771
 30
0.0
 11
182.9400510931
 21
126.2999833771
 31
0.0
  0
LINE
  5
89
330
1F
100
AcDbEntity
  8
0
  6
SLD-Сплошная
 62
     7
370
    25
100
AcDbLine
 10
177.3301958905
 20
126.2999833771
 30
0.0
 11
177.3301958905
 21
134.670922882
 31
0.0
  0
LINE
  5
8A
330
1F
100
AcDbEntity
  8
0
  6
SLD-Сплошная
 62
     7
370
    25
100
AcDbLine
 10
180.5358315931
 20
129.0211910498
 30
0.0
 11
180.5358315931
 21
134.670922882
 31
0.0
  0
LINE
  5
8B
330
1F
100
AcDbEntity
  8
0
  6
SLD-Сплошная
 62
     7
370
    25
100
AcDbLine
 10
174.1245601879
 20
126.2999833771
 30
0.0
 11
174.1245601879
 21
134.670922882
 31
0.0
  0
LINE
  5
8C
330
1F
100
AcDbEntity
  8
0
  6
SLD-Сплошная
 62
     7
370
    25
100
AcDbLine
 10
176.5287796879
 20
134.670922882
 30
0.0
 11
174.1245601879
 21
134.670922882
 31
0.0
  0
LINE
  5
8D
330
1F
100
AcDbEntity
  8
0
  6
SLD-Сплошная
 62
     7
370
    25
100
AcDbLine
 10
174.1245601879
 20
126.2999833771
 30
0.0
 11
176.5287796879
 21
126.2999833771
 31
0.0
  0
LINE
  5
8E
330
1F
100
AcDbEntity
  8
0
  6
SLD-Сплошная
 62
     7
370
    25
100
AcDbLine
 10
176.5287796879
 20
126.2999833771
 30
0.0
 11
176.5287796879
 21
134.670922882
 31
0.0
  0
LINE
  5
8F
330
1F
100
AcDbEntity
  8
0
  6
SLD-Сплошная
 62
     7
370
    25
100
AcDbLine
 10
178.419757764
 20
138.2553833685
 30
0.0
 11
174.1245601879
 21
138.2553833685
 31
0.0
  0
LINE
  5
90
330
1F
100
AcDbEntity
  8
0
  6
SLD-Сплошная
 62
     7
370
    25
100
AcDbLine
 10
178.419757764
 20
138.2553833685
 30
0.0
 11
178.419757764
 21
138.3481594762
 31
0.0
  0
SPLINE
  5
91
330
1F
100
AcDbEntity
  8
0
  6
SLD-Сплошная
 62
     7
370
    25
100
AcDbSpline
210
0.0
220
0.0
230
1.0
 70
     8
 71
     3
 72
     8
 73
     4
 74
     0
 42
0.00000001
 43
0.00000001
 40
0.0
 40
0.0
 40
0.0
 40
0.0
 40
1.0
 40
1.0
 40
1.0
 40
1.0
 10
174.1245601879022
 20
141.8323236675374
 30
0.0
 10
175.5568081625082
 20
140.6927444062962
 30
0.0
 10
176.9881785958506
 20
139.5278660503692
 30
0.0
 10
178.4197577639723
 20
138.348159476203
 30
0.0
  0
LINE
  5
92
330
1F
100
AcDbEntity
  8
0
  6
SLD-Сплошная
 62
     7
370
    25
100
AcDbLine
 10
174.1245601879
 20
141.8323236675
 30
0.0
 11
174.1245601879
 21
144.7462406191
 31
0.0
  0
SPLINE
  5
93
330
1F
100
AcDbEntity
  8
0
  6
SLD-Сплошная
 62
     7
370
    25
100
AcDbSpline
210
0.0
220
0.0
230
1.0
 70
     8
 71
     3
 72
     8
 73
     4
 74
     0
 42
0.00000001
 43
0.00000001
 40
0.0
 40
0.0
 40
0.0
 40
0.0
 40
1.0
 40
1.0
 40
1.0
 40
1.0
 10
178.5323056405037
 20
141.3038892284409
 30
0.0
 10
177.0634289901406
 20
142.4805489477874
 30
0.0
 10
175.5945933292633
 20
143.6316291129573
 30
0.0
 10
174.1245601879013
 20
144.7462406191288
 30
0.0
  0
SPLINE
  5
94
330
1F
100
AcDbEntity
  8
0
  6
SLD-Сплошная
 62
     7
370
    25
100
AcDbSpline
210
0.0
220
0.0
230
1.0
 70
     8
 71
     3
 72
     8
 73
     4
 74
     0
 42
0.00000001
 43
0.00000001
 40
0.0
 40
0.0
 40
0.0
 40
0.0
 40
1.0
 40
1.0
 40
1.0
 40
1.0
 10
182.9400510931016
 20
144.7462406191288
 30
0.0
 10
181.4700176221066
 20
143.6316288630212
 30
0.0
 10
180.0011825701499
 20
142.4805491715114
 30
0.0
 10
178.5323056405037
 20
141.3038892284409
 30
0.0
  0
LINE
  5
95
330
1F
100
AcDbEntity
  8
0
  6
SLD-Сплошная
 62
     7
370
    25
100
AcDbLine
 10
182.9400510931
 20
141.8323236675
 30
0.0
 11
182.9400510931
 21
144.7462406191
 31
0.0
  0
SPLINE
  5
96
330
1F
100
AcDbEntity
  8
0
  6
SLD-Сплошная
 62
     7
370
    25
100
AcDbSpline
210
0.0
220
0.0
230
1.0
 70
     8
 71
     3
 72
     8
 73
     4
 74
     0
 42
0.00000001
 43
0.00000001
 40
0.0
 40
0.0
 40
0.0
 40
0.0
 40
1.0
 40
1.0
 40
1.0
 40
1.0
 10
178.6448535170315
 20
138.3481594762047
 30
0.0
 10
180.0764325342079
 20
139.5278659259821
 30
0.0
 10
181.507803305226
 20
140.6927445548698
 30
0.0
 10
182.9400510931025
 20
141.8323236675374
 30
0.0
  0
LINE
  5
97
330
1F
100
AcDbEntity
  8
0
  6
SLD-Сплошная
 62
     7
370
    25
100
AcDbLine
 10
178.644853517
 20
138.2553833685
 30
0.0
 11
178.644853517
 21
138.3481594762
 31
0.0
  0
LINE
  5
98
330
1F
100
AcDbEntity
  8
0
  6
SLD-Сплошная
 62
     7
370
    25
100
AcDbLine
 10
182.9400510931
 20
138.2553833685
 30
0.0
 11
178.644853517
 21
138.2553833685
 31
0.0
  0
LINE
  5
99
330
1F
100
AcDbEntity
  8
0
  6
SLD-Сплошная
 62
     7
370
    25
100
AcDbLine
 10
182.9400510931
 20
135.4713924343
 30
0.0
 11
182.9400510931
 21
138.2553833685
 31
0.0
  0
LINE
  5
9A
330
1F
100
AcDbEntity
  8
0
  6
SLD-Сплошная
 62
     7
370
    25
100
AcDbLine
 10
174.1245601879
 20
135.4713924343
 30
0.0
 11
174.1245601879
 21
138.2553833685
 31
0.0
  0
LINE
  5
9B
330
1F
100
AcDbEntity
  8
0
  6
SLD-Сплошная
 62
     7
370
    25
100
AcDbLine
 10
174.1245601879
 20
135.4713924343
 30
0.0
 11
182.9400510931
 21
135.4713924343
 31
0.0
  0
LINE
  5
9C
330
1F
100
AcDbEntity
  8
0
  6
SLD-Сплошная
 62
     7
370
    25
100
AcDbLine
 10
177.3301958905
 20
122.9370033797
 30
0.0
 11
177.3301958905
 21
125.5374948585
 31
0.0
  0
LINE
  5
9D
330
1F
100
AcDbEntity
  8
0
  6
SLD-Сплошная
 62
     7
370
    25
100
AcDbLine
 10
182.9400510931
 20
125.5374948585
 30
0.0
 11
177.3301958905
 21
125.5374948585
 31
0.0
  0
LINE
  5
9E
330
1F
100
AcDbEntity
  8
0
  6
SLD-Сплошная
 62
     7
370
    25
100
AcDbLine
 10
177.3301958905
 20
122.9370033797
 30
0.0
 11
182.9400510931
 21
122.9370033797
 31
0.0
  0
LINE
  5
9F
330
1F
100
AcDbEntity
  8
0
  6
SLD-Сплошная
 62
     7
370
    25
100
AcDbLine
 10
182.9400510931
 20
122.9370033797
 30
0.0
 11
182.9400510931
 21
125.5374948585
 31
0.0
  0
LINE
  5
A0
330
1F
100
AcDbEntity
  8
0
  6
SLD-Сплошная
 62
     7
370
    25
100
AcDbLine
 10
176.5287796879
 20
125.5374948585
 30
0.0
 11
174.1245601879
 21
125.5374948585
 31
0.0
  0
LINE
  5
A1
330
1F
100
AcDbEntity
  8
0
  6
SLD-Сплошная
 62
     7
370
    25
100
AcDbLine
 10
176.5287796879
 20
122.9370033797
 30
0.0
 11
176.5287796879
 21
125.5374948585
 31
0.0
  0
LINE
  5
A2
330
1F
100
AcDbEntity
  8
0
  6
SLD-Сплошная
 62
     7
370
    25
100
AcDbLine
 10
174.1245601879
 20
122.9370033797
 30
0.0
 11
176.5287796879
 21
122.9370033797
 31
0.0
  0
LINE
  5
A3
330
1F
100
AcDbEntity
  8
0
  6
SLD-Сплошная
 62
     7
370
    25
100
AcDbLine
 10
174.1245601879
 20
122.9370033797
 30
0.0
 11
174.1245601879
 21
125.5374948585
 31
0.0
  0
LINE
  5
A4
330
1F
100
AcDbEntity
  8
0
  6
SLD-Сплошная
 62
     7
370
    25
100
AcDbLine
 10
207.0323056405
 20
149.3243824917
 30
0.0
 11
227.0323056405
 21
149.3243824917
 31
0.0
  0
LINE
  5
A5
330
1F
100
AcDbEntity
  8
0
  6
SLD-Сплошная
 62
     7
370
    25
100
AcDbLine
 10
227.0323056405
 20
149.3243824917
 30
0.0
 11
227.0323056405
 21
152.6945563888
 31
0.0
  0
LINE
  5
A6
330
1F
100
AcDbEntity
  8
0
  6
SLD-Сплошная
 62
     7
370
    25
100
AcDbLine
 10
207.3538766799
 20
152.6945563888
 30
0.0
 11
227.0323056405
 21
152.6945563888
 31
0.0
  0
LINE
  5
A7
330
1F
100
AcDbEntity
  8
0
  6
SLD-Сплошная
 62
     7
370
    25
100
AcDbLine
 10
229.5323056405
 20
133.8416219994
 30
0.0
 11
229.5323056405
 21
153.7916219994
 31
0.0
  0
LINE
  5
A8
330
1F
100
AcDbEntity
  8
0
  6
SLD-Сплошная
 62
     7
370
    25
100
AcDbLine
 10
229.5323056405
 20
113.8916219994
 30
0.0
 11
229.5323056405
 21
133.8416219994
 31
0.0
  0
LINE
  5
A9
330
1F
100
AcDbEntity
  8
0
  6
SLD-Сплошная
 62
     7
370
    25
100
AcDbLine
 10
229.9323056405
 20
137.7991540507
 30
0.0
 11
229.5323056405
 21
137.7991540507
 31
0.0
  0
LINE
  5
AA
330
1F
100
AcDbEntity
  8
0
  6
SLD-Сплошная
 62
     7
370
    25
100
AcDbLine
 10
229.9323056405
 20
137.0980322558
 30
0.0
 11
229.5323056405
 21
137.0980322558
 31
0.0
  0
SPLINE
  5
AB
330
1F
100
AcDbEntity
  8
0
  6
SLD-Сплошная
 62
     7
370
    25
100
AcDbSpline
210
0.0
220
0.0
230
1.0
 70
    24
 71
     3
 72
    16
 73
    12
 74
     0
 42
0.00000001
 43
0.00000001
 40
0.0
 40
0.0
 40
0.0
 40
0.0
 40
0.125
 40
0.125
 40
0.25
 40
0.25
 40
0.5
 40
0.5
 40
0.75
 40
0.75
 40
1.0
 40
1.0
 40
1.0
 40
1.0
 10
229.9323056405032
 20
137.0980322558199
 30
0.0
 10
229.9323056405032
 20
137.0991344891351
 30
0.0
 10
229.9323056405032
 20
137.1019577832645
 30
0.0
 10
229.9323056405032
 20
137.1193991961246
 30
0.0
 10
229.9323056405032
 20
137.1332231688706
 30
0.0
 10
229.9323056405032
 20
137.186833987623
 30
0.0
 10
229.9323056405032
 20
137.2423288708849
 30
0.0
 10
229.9323056405032
 20
137.3755115613165
 30
0.0
 10
229.9323056405032
 20
137.4544101661192
 30
0.0
 10
229.9323056405032
 20
137.6224277889116
 30
0.0
 10
229.9323056405032
 20
137.7110506916765
 30
0.0
 10
229.9323056405032
 20
137.7991540506917
 30
0.0
  0
LINE
  5
AC
330
1F
100
AcDbEntity
  8
0
  6
SLD-Сплошная
 62
     7
370
    25
100
AcDbLine
 10
229.9323056405
 20
135.9942662302
 30
0.0
 11
229.5323056405
 21
135.9942662302
 31
0.0
  0
LINE
  5
AD
330
1F
100
AcDbEntity
  8
0
  6
SLD-Сплошная
 62
     7
370
    25
100
AcDbLine
 10
229.9323056405
 20
135.9942662302
 30
0.0
 11
229.9323056405
 21
136.2005963584
 31
0.0
  0
LINE
  5
AE
330
1F
100
AcDbEntity
  8
0
  6
SLD-Сплошная
 62
     7
370
    25
100
AcDbLine
 10
229.9323056405
 20
136.2005963584
 30
0.0
 11
229.5323056405
 21
136.2005963584
 31
0.0
  0
LINE
  5
AF
330
1F
100
AcDbEntity
  8
0
  6
SLD-Сплошная
 62
     7
370
    25
100
AcDbLine
 10
229.9323056405
 20
138.5082886661
 30
0.0
 11
229.5323056405
 21
138.5082886661
 31
0.0
  0
SPLINE
  5
B0
330
1F
100
AcDbEntity
  8
0
  6
SLD-Сплошная
 62
     7
370
    25
100
AcDbSpline
210
0.0
220
0.0
230
1.0
 70
    24
 71
     3
 72
    16
 73
    12
 74
     0
 42
0.00000001
 43
0.00000001
 40
0.0
 40
0.0
 40
0.0
 40
0.0
 40
0.2499999999999998
 40
0.2499999999999998
 40
0.4999999999999996
 40
0.4999999999999996
 40
0.7499999999999993
 40
0.7499999999999993
 40
0.8749999999999997
 40
0.8749999999999997
 40
1.0
 40
1.0
 40
1.0
 40
1.0
 10
229.9323056405032
 20
137.7991540506917
 30
0.0
 10
229.9323056405032
 20
137.8881716506361
 30
0.0
 10
229.9323056405032
 20
137.977663312292
 30
0.0
 10
229.9323056405032
 20
138.1472342506886
 30
0.0
 10
229.9323056405032
 20
138.2269506954305
 30
0.0
 10
229.9323056405032
 20
138.3605739672247
 30
0.0
 10
229.9323056405032
 20
138.4168669206955
 30
0.0
 10
229.9323056405032
 20
138.4724981624552
 30
0.0
 10
229.9323056405032
 20
138.4862033382663
 30
0.0
 10
229.9323056405032
 20
138.5044871719073
 30
0.0
 10
229.9323056405032
 20
138.5071465759471
 30
0.0
 10
229.9323056405032
 20
138.5082886660763
 30
0.0
  0
LINE
  5
B1
330
1F
100
AcDbEntity
  8
0
  6
SLD-Сплошная
 62
     7
370
    25
100
AcDbLine
 10
229.9323056405
 20
135.3031604609
 30
0.0
 11
229.5323056405
 21
135.3031604609
 31
0.0
  0
SPLINE
  5
B2
330
1F
100
AcDbEntity
  8
0
  6
SLD-Сплошная
 62
     7
370
    25
100
AcDbSpline
210
0.0
220
0.0
230
1.0
 70
    24
 71
     3
 72
    16
 73
    12
 74
     0
 42
0.00000001
 43
0.00000001
 40
0.0
 40
0.0
 40
0.0
 40
0.0
 40
0.2500000000000004
 40
0.2500000000000004
 40
0.5000000000000009
 40
0.5000000000000009
 40
0.7500000000000013
 40
0.7500000000000013
 40
0.8750000000000007
 40
0.8750000000000007
 40
1.0
 40
1.0
 40
1.0
 40
1.0
 10
229.9323056405032
 20
135.3031604609481
 30
0.0
 10
229.9323056405032
 20
135.373327896972
 30
0.0
 10
229.9323056405032
 20
135.4430085012708
 30
0.0
 10
229.9323056405032
 20
135.5749486783889
 30
0.0
 10
229.9323056405032
 20
135.6378459748996
 30
0.0
 10
229.9323056405032
 20
135.7566880797368
 30
0.0
 10
229.9323056405032
 20
135.8128743990528
 30
0.0
 10
229.9323056405032
 20
135.8890720845983
 30
0.0
 10
229.9323056405032
 20
135.9134353899323
 30
0.0
 10
229.9323056405032
 20
135.9573002141923
 30
0.0
 10
229.9323056405032
 20
135.9758883450569
 30
0.0
 10
229.9323056405032
 20
135.9942662301789
 30
0.0
  0
LINE
  5
B3
330
1F
100
AcDbEntity
  8
0
  6
SLD-Сплошная
 62
     7
370
    25
100
AcDbLine
 10
229.9323056405
 20
137.0018784097
 30
0.0
 11
229.5323056405
 21
137.0018784097
 31
0.0
  0
LINE
  5
B4
330
1F
100
AcDbEntity
  8
0
  6
SLD-Сплошная
 62
     7
370
    25
100
AcDbLine
 10
229.9323056405
 20
138.6044425122
 30
0.0
 11
229.5323056405
 21
138.6044425122
 31
0.0
  0
LINE
  5
B5
330
1F
100
AcDbEntity
  8
0
  6
SLD-Сплошная
 62
     7
370
    25
100
AcDbLine
 10
229.9323056405
 20
141.3416219994
 30
0.0
 11
229.5323056405
 21
141.3416219994
 31
0.0
  0
LINE
  5
B6
330
1F
100
AcDbEntity
  8
0
  6
SLD-Сплошная
 62
     7
370
    25
100
AcDbLine
 10
229.9323056405
 20
139.8416219994
 30
0.0
 11
229.5323056405
 21
139.8416219994
 31
0.0
  0
LINE
  5
B7
330
1F
100
AcDbEntity
  8
0
  6
SLD-Сплошная
 62
     7
370
    25
100
AcDbLine
 10
229.9323056405
 20
141.3416219994
 30
0.0
 11
229.9323056405
 21
139.8416219994
 31
0.0
  0
LINE
  5
B8
330
1F
100
AcDbEntity
  8
0
  6
SLD-Сплошная
 62
     7
370
    25
100
AcDbLine
 10
229.9323056405
 20
133.8416219994
 30
0.0
 11
229.5323056405
 21
133.8416219994
 31
0.0
  0
LINE
  5
B9
330
1F
100
AcDbEntity
  8
0
  6
SLD-Сплошная
 62
     7
370
    25
100
AcDbLine
 10
229.5323056405
 20
134.6345152182
 30
0.0
 11
229.9323056405
 21
134.6345152182
 31
0.0
  0
LINE
  5
BA
330
1F
100
AcDbEntity
  8
0
  6
SLD-Сплошная
 62
     7
370
    25
100
AcDbLine
 10
229.9323056405
 20
134.6345152182
 30
0.0
 11
229.9323056405
 21
133.8416219994
 31
0.0
  0
LINE
  5
BB
330
1F
100
AcDbEntity
  8
0
  6
SLD-Сплошная
 62
     7
370
    25
100
AcDbLine
 10
229.9323056405
 20
136.6345152182
 30
0.0
 11
229.9323056405
 21
136.9190336614
 31
0.0
  0
LINE
  5
BC
330
1F
100
AcDbEntity
  8
0
  6
SLD-Сплошная
 62
     7
370
    25
100
AcDbLine
 10
229.5323056405
 20
136.6345152182
 30
0.0
 11
229.9323056405
 21
136.6345152182
 31
0.0
  0
LINE
  5
BD
330
1F
100
AcDbEntity
  8
0
  6
SLD-Сплошная
 62
     7
370
    25
100
AcDbLine
 10
229.9323056405
 20
136.6345152182
 30
0.0
 11
229.9323056405
 21
136.2005963584
 31
0.0
  0
LINE
  5
BE
330
1F
100
AcDbEntity
  8
0
  6
SLD-Сплошная
 62
     7
370
    25
100
AcDbLine
 10
229.5323056405
 20
139.3416219994
 30
0.0
 11
229.9323056405
 21
139.3416219994
 31
0.0
  0
LINE
  5
BF
330
1F
100
AcDbEntity
  8
0
  6
SLD-Сплошная
 62
     7
370
    25
100
AcDbLine
 10
229.9323056405
 20
139.8416219994
 30
0.0
 11
229.9323056405
 21
139.3416219994
 31
0.0
  0
LINE
  5
C0
330
1F
100
AcDbEntity
  8
0
  6
SLD-Сплошная
 62
     7
370
    25
100
AcDbLine
 10
229.9323056405
 20
138.6872872605
 30
0.0
 11
229.9323056405
 21
139.3416219994
 31
0.0
  0
LINE
  5
C1
330
1F
100
AcDbEntity
  8
0
  6
SLD-Сплошная
 62
     7
370
    25
100
AcDbLine
 10
229.5323056405
 20
138.6345152182
 30
0.0
 11
229.9323056405
 21
138.6345152182
 31
0.0
  0
LINE
  5
C2
330
1F
100
AcDbEntity
  8
0
  6
SLD-Сплошная
 62
     7
370
    25
100
AcDbLine
 10
229.9323056405
 20
134.6345152182
 30
0.0
 11
229.9323056405
 21
135.3416219994
 31
0.0
  0
LINE
  5
C3
330
1F
100
AcDbEntity
  8
0
  6
SLD-Сплошная
 62
     7
370
    25
100
AcDbLine
 10
172.5323056405
 20
167.6916219994
 30
0.0
 11
172.5323056405
 21
155.9283261447
 31
0.0
  0
ARC
  5
C4
330
1F
100
AcDbEntity
  8
0
  6
SLD-Сплошная
 62
     7
370
    25
100
AcDbCircle
 10
177.5323056405
 20
167.6916219994
 30
0.0
 40
1.5
100
AcDbArc
 50
180.0
 51
0.0
  0
ARC
  5
C5
330
1F
100
AcDbEntity
  8
0
  6
SLD-Сплошная
 62
     7
370
    25
100
AcDbCircle
 10
177.5323056405
 20
167.6916219994
 30
0.0
 40
5.000000000000014
100
AcDbArc
 50
65.0
 51
180.0
  0
LINE
  5
C6
330
1F
100
AcDbEntity
  8
0
  6
SLD-Сплошная
 62
     7
370
    25
100
AcDbLine
 10
201.5654957238
 20
162.0016510085
 30
0.0
 11
179.6453969492
 21
172.2231609346
 31
0.0
  0
ARC
  5
C7
330
1F
100
AcDbEntity
  8
0
  6
SLD-Сплошная
 62
     7
370
    25
100
AcDbCircle
 10
177.5323056405
 20
167.6916219994
 30
0.0
 40
1.5
100
AcDbArc
 50
0.0
 51
180.0
  0
LINE
  5
C8
330
1F
100
AcDbEntity
  8
0
  6
SLD-Сплошная
 62
     7
370
    25
100
AcDbLine
 10
246.0323056405
 20
131.5723626978
 30
0.0
 11
229.5323056405
 21
131.5723626978
 31
0.0
  0
LINE
  5
C9
330
1F
100
AcDbEntity
  8
0
  6
SLD-Сплошная
 62
     7
370
    25
100
AcDbLine
 10
246.0323056405
 20
131.5723626978
 30
0.0
 11
246.0323056405
 21
125.0916219994
 31
0.0
  0
LINE
  5
CA
330
1F
100
AcDbEntity
  8
0
  6
SLD-Сплошная
 62
     7
370
    25
100
AcDbLine
 10
246.0323056405
 20
125.0916219994
 30
0.0
 11
246.0323056405
 21
116.5916219994
 31
0.0
  0
LINE
  5
CB
330
1F
100
AcDbEntity
  8
0
  6
SLD-Сплошная
 62
     7
370
    25
100
AcDbLine
 10
207.0323056405
 20
108.4844553327
 30
0.0
 11
207.0323056405
 21
104.3416219994
 31
0.0
  0
LINE
  5
CC
330
1F
100
AcDbEntity
  8
0
  6
SLD-Сплошная
 62
     7
370
    25
100
AcDbLine
 10
229.9323056405
 20
136.5916219994
 30
0.0
 11
246.0323056405
 21
136.5916219994
 31
0.0
  0
LINE
  5
CD
330
1F
100
AcDbEntity
  8
0
  6
SLD-Сплошная
 62
     7
370
    25
100
AcDbLine
 10
246.0323056405
 20
131.5723626978
 30
0.0
 11
246.0323056405
 21
136.5916219994
 31
0.0
  0
LINE
  5
CE
330
1F
100
AcDbEntity
  8
0
  6
SLD-Сплошная
 62
     7
370
    25
100
AcDbLine
 10
246.4323056405
 20
132.2916219994
 30
0.0
 11
246.4323056405
 21
129.4416219994
 31
0.0
  0
LINE
  5
CF
330
1F
100
AcDbEntity
  8
0
  6
SLD-Сплошная
 62
     7
370
    25
100
AcDbLine
 10
246.4323056405
 20
135.1416219994
 30
0.0
 11
246.4323056405
 21
132.2916219994
 31
0.0
  0
LINE
  5
D0
330
1F
100
AcDbEntity
  8
0
  6
SLD-Сплошная
 62
     7
370
    25
100
AcDbLine
 10
229.9323056405
 20
144.9269866434
 30
0.0
 11
229.5323056405
 21
144.9269866434
 31
0.0
  0
LINE
  5
D1
330
1F
100
AcDbEntity
  8
0
  6
SLD-Сплошная
 62
     7
370
    25
100
AcDbLine
 10
229.9323056405
 20
141.4269866434
 30
0.0
 11
229.5323056405
 21
141.4269866434
 31
0.0
  0
LINE
  5
D2
330
1F
100
AcDbEntity
  8
0
  6
SLD-Сплошная
 62
     7
370
    25
100
AcDbLine
 10
229.9323056405
 20
141.4269866434
 30
0.0
 11
229.9323056405
 21
144.9269866434
 31
0.0
  0
LINE
  5
D3
330
1F
100
AcDbEntity
  8
0
  6
SLD-Сплошная
 62
     7
370
    25
100
AcDbLine
 10
157.3293012702
 20
109.6792028324
 30
0.0
 11
157.3293012702
 21
158.0040411664
 31
0.0
  0
SPLINE
  5
D4
330
1F
100
AcDbEntity
  8
0
  6
SLD-Сплошная
 62
     7
370
    25
100
AcDbSpline
210
0.0
220
0.0
230
1.0
 70
     8
 71
     3
 72
     8
 73
     4
 74
     0
 42
0.00000001
 43
0.00000001
 40
0.0
 40
0.0
 40
0.0
 40
0.0
 40
1.0
 40
1.0
 40
1.0
 40
1.0
 10
158.5380139428401
 20
103.1916219994096
 30
0.0
 10
158.0874221003583
 20
105.3452641791523
 30
0.0
 10
157.6845178761605
 20
107.5077911234982
 30
0.0
 10
157.3293012702467
 20
109.6792028324472
 30
0.0
  0
LINE
  5
D5
330
1F
100
AcDbEntity
  8
0
  6
SLD-Сплошная
 62
     7
370
    25
100
AcDbLine
 10
158.1971003933
 20
103.1916219994
 30
0.0
 11
158.5380139428
 21
103.1916219994
 31
0.0
  0
LINE
  5
D6
330
1F
100
AcDbEntity
  8
0
  6
SLD-Сплошная
 62
     7
370
    25
100
AcDbLine
 10
162.0323056405
 20
109.6792028324
 30
0.0
 11
157.3293012702
 21
109.6792028324
 31
0.0
  0
LINE
  5
D7
330
1F
100
AcDbEntity
  8
0
  6
SLD-Сплошная
 62
     7
370
    25
100
AcDbLine
 10
165.0323056405
 20
158.0040411664
 30
0.0
 11
157.3293012702
 21
158.0040411664
 31
0.0
  0
LINE
  5
D8
330
1F
100
AcDbEntity
  8
0
  6
SLD-Сплошная
 62
     7
370
    25
100
AcDbLine
 10
165.0323056405
 20
108.4868887135
 30
0.0
 11
165.0323056405
 21
158.0040411664
 31
0.0
  0
LINE
  5
D9
330
1F
100
AcDbEntity
  8
0
  6
SLD-Сплошная
 62
     7
370
    25
100
AcDbLine
 10
162.0323056405
 20
108.4868887135
 30
0.0
 11
165.0323056405
 21
108.4868887135
 31
0.0
  0
LINE
  5
DA
330
1F
100
AcDbEntity
  8
0
  6
SLD-Сплошная
 62
     7
370
    25
100
AcDbLine
 10
173.8365836
 20
172.8085651129
 30
0.0
 11
157.3293012702
 21
166.8416219994
 31
0.0
  0
ARC
  5
DB
330
1F
100
AcDbEntity
  8
0
  6
SLD-Сплошная
 62
     7
370
    25
100
AcDbCircle
 10
160.5323056405
 20
187.7416219994
 30
0.0
 40
20.0
100
AcDbArc
 50
311.6987371542
 51
314.5384249976
  0
LINE
  5
DC
330
1F
100
AcDbEntity
  8
0
  6
SLD-Сплошная
 62
     7
370
    25
100
AcDbLine
 10
179.7379760009
 20
173.4860174175
 30
0.0
 11
174.5600544978
 21
173.4860174175
 31
0.0
  0
ARC
  5
DD
330
1F
100
AcDbEntity
  8
0
  6
SLD-Сплошная
 62
     7
370
    25
100
AcDbCircle
 10
177.5323056405
 20
167.6916219994
 30
0.0
 40
6.200000000000011
100
AcDbArc
 50
28.7506791171
 51
69.1603815302
  0
LINE
  5
DE
330
1F
100
AcDbEntity
  8
0
  6
SLD-Сплошная
 62
     7
370
    25
100
AcDbLine
 10
167.1101955991
 20
161.4916219994
 30
0.0
 11
172.5323056405
 21
161.4916219994
 31
0.0
  0
LINE
  5
DF
330
1F
100
AcDbEntity
  8
0
  6
SLD-Сплошная
 62
     7
370
    25
100
AcDbLine
 10
165.0323056405
 20
160.208644781
 30
0.0
 11
167.1101955991
 21
161.4916219994
 31
0.0
  0
LINE
  5
E0
330
1F
100
AcDbEntity
  8
0
  6
SLD-Сплошная
 62
     7
370
    25
100
AcDbLine
 10
157.3293012702
 20
158.0040411664
 30
0.0
 11
157.3293012702
 21
166.8416219994
 31
0.0
  0
LINE
  5
E1
330
1F
100
AcDbEntity
  8
0
  6
SLD-Сплошная
 62
     7
370
    25
100
AcDbLine
 10
165.0323056405
 20
158.0040411664
 30
0.0
 11
165.0323056405
 21
160.208644781
 31
0.0
  0
LINE
  5
E2
330
1F
100
AcDbEntity
  8
0
  6
SLD-Сплошная
 62
     7
370
    25
100
AcDbLine
 10
158.5380139428
 20
103.1916219994
 30
0.0
 11
162.0323056405
 21
103.1916219994
 31
0.0
  0
LINE
  5
E3
330
1F
100
AcDbEntity
  8
0
  6
SLD-Сплошная
 62
     7
370
    25
100
AcDbLine
 10
162.0323056405
 20
103.1916219994
 30
0.0
 11
162.0323056405
 21
109.6792028324
 31
0.0
  0
LINE
  5
E4
330
1F
100
AcDbEntity
  8
0
  6
SLD-Сплошная
 62
     7
370
    25
100
AcDbLine
 10
165.0323056405
 20
104.3223780892
 30
0.0
 11
165.0323056405
 21
108.4868887135
 31
0.0
  0
ARC
  5
E5
330
1F
100
AcDbEntity
  8
0
  6
SLD-Сплошная
 62
     7
370
    25
100
AcDbCircle
 10
179.8040234118
 20
180.7522805323
 30
0.0
 40
0.5000000000000238
100
AcDbArc
 50
49.8735742126
 51
160.0656332339
  0
LINE
  5
E6
330
1F
100
AcDbEntity
  8
0
  6
SLD-Сплошная
 62
     7
370
    25
100
AcDbLine
 10
180.4675771778
 20
176.2941127602
 30
0.0
 11
181.2985980799
 21
179.4925532218
 31
0.0
  0
ARC
  5
E7
330
1F
100
AcDbEntity
  8
0
  6
SLD-Сплошная
 62
     7
370
    25
100
AcDbCircle
 10
184.3390362426
 20
175.2882277224
 30
0.0
 40
4.00000000000001
100
AcDbArc
 50
165.4354091721
 51
195.0
  0
ARC
  5
E8
330
1F
100
AcDbEntity
  8
0
  6
SLD-Сплошная
 62
     7
370
    25
100
AcDbCircle
 10
184.3390362426
 20
175.2882277224
 30
0.0
 40
4.000000000000012
100
AcDbArc
 50
195.0
 51
228.1389410999
  0
ARC
  5
E9
330
1F
100
AcDbEntity
  8
0
  6
SLD-Сплошная
 62
     7
370
    25
100
AcDbCircle
 10
160.5323056405
 20
187.7416219994
 30
0.0
 40
19.99999999999999
100
AcDbArc
 50
314.5384249976
 51
340.0656332339
  0
SPLINE
  5
EA
330
1F
100
AcDbEntity
  8
0
  6
SLD-Сплошная
 62
     7
370
    25
100
AcDbSpline
210
0.0
220
0.0
230
1.0
 70
     8
 71
     3
 72
    10
 73
     6
 74
     0
 42
0.00000001
 43
0.00000001
 40
0.0
 40
0.0
 40
0.0
 40
0.0
 40
0.5
 40
0.5
 40
1.0
 40
1.0
 40
1.0
 40
1.0
 10
181.1970433483143
 20
180.2320662985346
 30
0.0
 10
181.2649876126692
 20
180.1747983364696
 30
0.0
 10
181.3220595301068
 20
180.0931300376278
 30
0.0
 10
181.380453475539
 20
179.9096546154902
 30
0.0
 10
181.3810832087962
 20
179.810022701769
 30
0.0
 10
181.3587375534235
 20
179.7240185494055
 30
0.0
  0
SPLINE
  5
EB
330
1F
100
AcDbEntity
  8
0
  6
SLD-Сплошная
 62
     7
370
    25
100
AcDbSpline
210
0.0
220
0.0
230
1.0
 70
    24
 71
     3
 72
     8
 73
     4
 74
     0
 42
0.00000001
 43
0.00000001
 40
0.0
 40
0.0
 40
0.0
 40
0.0
 40
1.0
 40
1.0
 40
1.0
 40
1.0
 10
181.2985980799355
 20
179.4925532218209
 30
0.0
 10
181.3191538803653
 20
179.5716685649442
 30
0.0
 10
181.3401937518401
 20
179.6526470049072
 30
0.0
 10
181.3587375534235
 20
179.7240185494055
 30
0.0
  0
LINE
  5
EC
330
1F
100
AcDbEntity
  8
0
  6
SLD-Сплошная
 62
     7
370
    25
100
AcDbLine
 10
181.1970433483
 20
180.2320662985
 30
0.0
 11
180.1262615898
 21
181.1345926517
 31
0.0
  0
ARC
  5
ED
330
1F
100
AcDbEntity
  8
0
  6
SLD-Сплошная
 62
     7
370
    25
100
AcDbCircle
 10
175.5323056405
 20
174.5128654441
 30
0.0
 40
0.3500000000000165
100
AcDbArc
 50
195.0
 51
228.0890334225
  0
ARC
  5
EE
330
1F
100
AcDbEntity
  8
0
  6
SLD-Сплошная
 62
     7
370
    25
100
AcDbCircle
 10
175.5323056405
 20
174.5128654441
 30
0.0
 40
0.3500000000000137
100
AcDbArc
 50
49.0917223589
 51
195.0
  0
SPLINE
  5
EF
330
1F
100
AcDbEntity
  8
0
  6
SLD-Сплошная
 62
     7
370
    25
100
AcDbSpline
210
0.0
220
0.0
230
1.0
 70
    24
 71
     3
 72
    12
 73
     8
 74
     0
 42
0.00000001
 43
0.00000001
 40
0.0
 40
0.0
 40
0.0
 40
0.0
 40
0.2500000000000042
 40
0.2500000000000042
 40
0.5000000000000084
 40
0.5000000000000084
 40
1.0
 40
1.0
 40
1.0
 40
1.0
 10
175.5323056404902
 20
174.512865444073
 30
0.0
 10
175.5705052242105
 20
174.5569513781287
 30
0.0
 10
175.6084404509508
 20
174.6007322192161
 30
0.0
 10
175.6718861263359
 20
174.6739545318367
 30
0.0
 10
175.6973278421656
 20
174.7033166791978
 30
0.0
 10
175.7523352427251
 20
174.7668004242404
 30
0.0
 10
175.7615031428183
 20
174.7773810484141
 30
0.0
 10
175.7615031428184
 20
174.777381048414
 30
0.0
  0
ARC
  5
F0
330
1F
100
AcDbEntity
  8
0
  6
SLD-Сплошная
 62
     7
370
    25
100
AcDbCircle
 10
178.7727445001
 20
179.5387938158
 30
0.0
 40
0.3500000000000206
100
AcDbArc
 50
195.0
 51
245.2849373181
  0
ARC
  5
F1
330
1F
100
AcDbEntity
  8
0
  6
SLD-Сплошная
 62
     7
370
    25
100
AcDbCircle
 10
178.7727445001
 20
179.5387938158
 30
0.0
 40
0.3500000000000302
100
AcDbArc
 50
66.2876262545
 51
195.0
  0
SPLINE
  5
F2
330
1F
100
AcDbEntity
  8
0
  6
SLD-Сплошная
 62
     7
370
    25
100
AcDbSpline
210
0.0
220
0.0
230
1.0
 70
    24
 71
     3
 72
    12
 73
     8
 74
     0
 42
0.00000001
 43
0.00000001
 40
0.0
 40
0.0
 40
0.0
 40
0.0
 40
0.2499999999999989
 40
0.2499999999999989
 40
0.4999999999999978
 40
0.4999999999999978
 40
1.0
 40
1.0
 40
1.0
 40
1.0
 10
178.7727445000683
 20
179.5387938157606
 30
0.0
 10
178.7962029885112
 20
179.5922024021296
 30
0.0
 10
178.8194991344742
 20
179.6452413789055
 30
0.0
 10
178.8584613298132
 20
179.733947681528
 30
0.0
 10
178.8740851701443
 20
179.76951890888
 30
0.0
 10
178.9078653935036
 20
179.8464272732544
 30
0.0
 10
178.9134954307301
 20
179.8592453339834
 30
0.0
 10
178.9134954307301
 20
179.8592453339834
 30
0.0
  0
ARC
  5
F3
330
1F
100
AcDbEntity
  8
0
  6
SLD-Сплошная
 62
     7
370
    25
100
AcDbCircle
 10
177.8622854826
 20
177.7580455524
 30
0.0
 40
0.3500000000000187
100
AcDbArc
 50
195.0
 51
239.5529693529
  0
ARC
  5
F4
330
1F
100
AcDbEntity
  8
0
  6
SLD-Сплошная
 62
     7
370
    25
100
AcDbCircle
 10
177.8622854826
 20
177.7580455524
 30
0.0
 40
0.3500000000000182
100
AcDbArc
 50
60.5556582893
 51
195.0
  0
SPLINE
  5
F5
330
1F
100
AcDbEntity
  8
0
  6
SLD-Сплошная
 62
     7
370
    25
100
AcDbSpline
210
0.0
220
0.0
230
1.0
 70
    24
 71
     3
 72
    12
 73
     8
 74
     0
 42
0.00000001
 43
0.00000001
 40
0.0
 40
0.0
 40
0.0
 40
0.0
 40
0.2500000000000049
 40
0.2500000000000049
 40
0.5000000000000098
 40
0.5000000000000098
 40
1.0
 40
1.0
 40
1.0
 40
1.0
 10
177.8622854825728
 20
177.7580455523914
 30
0.0
 10
177.8909608569597
 20
177.8088441811309
 30
0.0
 10
177.9194377858501
 20
177.8592912622681
 30
0.0
 10
177.9670647052491
 20
177.9436626871677
 30
0.0
 10
177.9861630999284
 20
177.977495628553
 30
0.0
 10
178.027455639048
 20
178.0506456539419
 30
0.0
 10
178.0343377289011
 20
178.0628373248399
 30
0.0
 10
178.0343377289012
 20
178.0628373248399
 30
0.0
  0
ARC
  5
F6
330
1F
100
AcDbEntity
  8
0
  6
SLD-Сплошная
 62
     7
370
    25
100
AcDbCircle
 10
176.7785266667
 20
176.0771330535
 30
0.0
 40
0.3499999999999768
100
AcDbArc
 50
195.0
 51
233.8210013877
  0
ARC
  5
F7
330
1F
100
AcDbEntity
  8
0
  6
SLD-Сплошная
 62
     7
370
    25
100
AcDbCircle
 10
176.7785266667
 20
176.0771330535
 30
0.0
 40
0.3500000000000426
100
AcDbArc
 50
54.8236903241
 51
195.0
  0
SPLINE
  5
F8
330
1F
100
AcDbEntity
  8
0
  6
SLD-Сплошная
 62
     7
370
    25
100
AcDbSpline
210
0.0
220
0.0
230
1.0
 70
    24
 71
     3
 72
    12
 73
     8
 74
     0
 42
0.00000001
 43
0.00000001
 40
0.0
 40
0.0
 40
0.0
 40
0.0
 40
0.25
 40
0.25
 40
0.5
 40
0.5
 40
1.0
 40
1.0
 40
1.0
 40
1.0
 10
176.7785266666598
 20
176.0771330534994
 30
0.0
 10
176.8121321732465
 20
176.1248137383213
 30
0.0
 10
176.8455051157749
 20
176.1721644530075
 30
0.0
 10
176.901320490039
 20
176.2513572859332
 30
0.0
 10
176.9237024551193
 20
176.2831136119368
 30
0.0
 10
176.972094384607
 20
176.3517737980844
 30
0.0
 10
176.9801597061882
 20
176.3632171624421
 30
0.0
 10
176.9801597061882
 20
176.3632171624421
 30
0.0
  0
ARC
  5
F9
330
1F
100
AcDbEntity
  8
0
  6
SLD-Сплошная
 62
     7
370
    25
100
AcDbCircle
 10
88.4097923133
 20
180.7522805323
 30
0.0
 40
0.5
100
AcDbArc
 50
0.0
 51
90.0
  0
ARC
  5
FA
330
1F
100
AcDbEntity
  8
0
  6
SLD-Сплошная
 62
     7
370
    25
100
AcDbCircle
 10
79.4186808637
 20
180.7522805323
 30
0.0
 40
0.5000000000000284
100
AcDbArc
 50
90.0
 51
180.0
  0
LINE
  5
FB
330
1F
100
AcDbEntity
  8
0
  6
SLD-Сплошная
 62
     7
370
    25
100
AcDbLine
 10
88.4097923133
 20
181.2522805323
 30
0.0
 11
79.4186808637
 21
181.2522805323
 31
0.0
  0
ARC
  5
FC
330
1F
100
AcDbEntity
  8
0
  6
SLD-Сплошная
 62
     7
370
    25
100
AcDbCircle
 10
83.9097923133
 20
132.2916219994
 30
0.0
 40
2.850000000000009
100
AcDbArc
 50
0.0
 51
180.0
  0
ARC
  5
FD
330
1F
100
AcDbEntity
  8
0
  6
SLD-Сплошная
 62
     7
370
    25
100
AcDbCircle
 10
83.9097923133
 20
132.2916219994
 30
0.0
 40
2.850000000000009
100
AcDbArc
 50
180.0
 51
0.0
  0
ARC
  5
FE
330
1F
100
AcDbEntity
  8
0
  6
SLD-Сплошная
 62
     7
370
    25
100
AcDbCircle
 10
83.9097923133
 20
132.2916219994
 30
0.0
 40
2.5
100
AcDbArc
 50
180.0
 51
0.0
  0
ARC
  5
FF
330
1F
100
AcDbEntity
  8
0
  6
SLD-Сплошная
 62
     7
370
    25
100
AcDbCircle
 10
83.9097923133
 20
132.2916219994
 30
0.0
 40
2.5
100
AcDbArc
 50
0.0
 51
180.0
  0
LINE
  5
100
330
1F
100
AcDbEntity
  8
0
  6
SLD-Сплошная
 62
     7
370
    25
100
AcDbLine
 10
84.0847923133
 20
133.0166219994
 30
0.0
 11
84.0847923133
 21
132.4666219994
 31
0.0
  0
LINE
  5
101
330
1F
100
AcDbEntity
  8
0
  6
SLD-Сплошная
 62
     7
370
    25
100
AcDbLine
 10
84.0847923133
 20
132.4666219994
 30
0.0
 11
85.6123049399
 21
132.4666219994
 31
0.0
  0
ARC
  5
102
330
1F
100
AcDbEntity
  8
0
  6
SLD-Сплошная
 62
     7
370
    25
100
AcDbCircle
 10
85.6123049399
 20
132.2916219994
 30
0.0
 40
0.1750000000000114
100
AcDbArc
 50
270.0
 51
90.0
  0
LINE
  5
103
330
1F
100
AcDbEntity
  8
0
  6
SLD-Сплошная
 62
     7
370
    25
100
AcDbLine
 10
82.2072796867
 20
132.1166219994
 30
0.0
 11
85.6123049399
 21
132.1166219994
 31
0.0
  0
ARC
  5
104
330
1F
100
AcDbEntity
  8
0
  6
SLD-Сплошная
 62
     7
370
    25
100
AcDbCircle
 10
82.2072796867
 20
132.2916219994
 30
0.0
 40
0.1750000000000114
100
AcDbArc
 50
180.0
 51
270.0
  0
ARC
  5
105
330
1F
100
AcDbEntity
  8
0
  6
SLD-Сплошная
 62
     7
370
    25
100
AcDbCircle
 10
82.2072796867
 20
132.2916219994
 30
0.0
 40
0.1750000000000114
100
AcDbArc
 50
90.0
 51
180.0
  0
LINE
  5
106
330
1F
100
AcDbEntity
  8
0
  6
SLD-Сплошная
 62
     7
370
    25
100
AcDbLine
 10
82.2072796867
 20
132.4666219994
 30
0.0
 11
83.7347923133
 21
132.4666219994
 31
0.0
  0
LINE
  5
107
330
1F
100
AcDbEntity
  8
0
  6
SLD-Сплошная
 62
     7
370
    25
100
AcDbLine
 10
83.7347923133
 20
133.0166219994
 30
0.0
 11
83.7347923133
 21
132.4666219994
 31
0.0
  0
ARC
  5
108
330
1F
100
AcDbEntity
  8
0
  6
SLD-Сплошная
 62
     7
370
    25
100
AcDbCircle
 10
83.9097923133
 20
133.0166219994
 30
0.0
 40
0.1749999999999972
100
AcDbArc
 50
0.0
 51
180.0
  0
LINE
  5
109
330
1F
100
AcDbEntity
  8
0
  6
SLD-Сплошная
 62
     7
370
    25
100
AcDbLine
 10
82.9072796867
 20
131.4166219994
 30
0.0
 11
84.9123049399
 21
131.4166219994
 31
0.0
  0
ARC
  5
10A
330
1F
100
AcDbEntity
  8
0
  6
SLD-Сплошная
 62
     7
370
    25
100
AcDbCircle
 10
82.9072796867
 20
131.5916219994
 30
0.0
 40
0.1749999999999829
100
AcDbArc
 50
180.0
 51
270.0
  0
ARC
  5
10B
330
1F
100
AcDbEntity
  8
0
  6
SLD-Сплошная
 62
     7
370
    25
100
AcDbCircle
 10
82.9072796867
 20
131.5916219994
 30
0.0
 40
0.1750000000000114
100
AcDbArc
 50
90.0
 51
180.0
  0
LINE
  5
10C
330
1F
100
AcDbEntity
  8
0
  6
SLD-Сплошная
 62
     7
370
    25
100
AcDbLine
 10
82.9072796867
 20
131.7666219994
 30
0.0
 11
84.9123049399
 21
131.7666219994
 31
0.0
  0
ARC
  5
10D
330
1F
100
AcDbEntity
  8
0
  6
SLD-Сплошная
 62
     7
370
    25
100
AcDbCircle
 10
84.9123049399
 20
131.5916219994
 30
0.0
 40
0.1750000000000114
100
AcDbArc
 50
270.0
 51
90.0
  0
LINE
  5
10E
330
1F
100
AcDbEntity
  8
0
  6
SLD-Сплошная
 62
     7
370
    25
100
AcDbLine
 10
83.6322796867
 20
131.0416219994
 30
0.0
 11
84.1873049399
 21
131.0416219994
 31
0.0
  0
ARC
  5
10F
330
1F
100
AcDbEntity
  8
0
  6
SLD-Сплошная
 62
     7
370
    25
100
AcDbCircle
 10
83.6322796867
 20
130.8666219994
 30
0.0
 40
0.1749999999999972
100
AcDbArc
 50
90.0
 51
180.0
  0
ARC
  5
110
330
1F
100
AcDbEntity
  8
0
  6
SLD-Сплошная
 62
     7
370
    25
100
AcDbCircle
 10
84.1873049399
 20
130.8666219994
 30
0.0
 40
0.1750000000000114
100
AcDbArc
 50
270.0
 51
90.0
  0
ARC
  5
111
330
1F
100
AcDbEntity
  8
0
  6
SLD-Сплошная
 62
     7
370
    25
100
AcDbCircle
 10
83.6322796867
 20
130.8666219994
 30
0.0
 40
0.1750000000000114
100
AcDbArc
 50
180.0
 51
270.0
  0
LINE
  5
112
330
1F
100
AcDbEntity
  8
0
  6
SLD-Сплошная
 62
     7
370
    25
100
AcDbLine
 10
83.6322796867
 20
130.6916219994
 30
0.0
 11
84.1873049399
 21
130.6916219994
 31
0.0
  0
ARC
  5
113
330
1F
100
AcDbEntity
  8
0
  6
SLD-Сплошная
 62
     7
370
    25
100
AcDbCircle
 10
83.9097923133
 20
124.2916219994
 30
0.0
 40
3.0
100
AcDbArc
 50
180.0
 51
0.0
  0
ARC
  5
114
330
1F
100
AcDbEntity
  8
0
  6
SLD-Сплошная
 62
     7
370
    25
100
AcDbCircle
 10
83.9097923133
 20
124.2916219994
 30
0.0
 40
3.0
100
AcDbArc
 50
0.0
 51
180.0
  0
ARC
  5
115
330
1F
100
AcDbEntity
  8
0
  6
SLD-Сплошная
 62
     7
370
    25
100
AcDbCircle
 10
83.9097923133
 20
125.0916219994
 30
0.0
 40
8.500000000000014
100
AcDbArc
 50
130.32021507
 51
180.0
  0
LINE
  5
116
330
1F
100
AcDbEntity
  8
0
  6
SLD-Сплошная
 62
     7
370
    25
100
AcDbLine
 10
78.4097923133
 20
131.5723626978
 30
0.0
 11
79.9597923133
 21
136.5916219994
 31
0.0
  0
LINE
  5
117
330
1F
100
AcDbEntity
  8
0
  6
SLD-Сплошная
 62
     7
370
    25
100
AcDbLine
 10
87.8597923133
 20
136.5916219994
 30
0.0
 11
79.9597923133
 21
136.5916219994
 31
0.0
  0
LINE
  5
118
330
1F
100
AcDbEntity
  8
0
  6
SLD-Сплошная
 62
     7
370
    25
100
AcDbLine
 10
87.8597923133
 20
136.5916219994
 30
0.0
 11
89.4097923133
 21
131.5723626978
 31
0.0
  0
ARC
  5
119
330
1F
100
AcDbEntity
  8
0
  6
SLD-Сплошная
 62
     7
370
    25
100
AcDbCircle
 10
83.9097923133
 20
125.0916219994
 30
0.0
 40
8.500000000000014
100
AcDbArc
 50
180.0
 51
0.0
  0
ARC
  5
11A
330
1F
100
AcDbEntity
  8
0
  6
SLD-Сплошная
 62
     7
370
    25
100
AcDbCircle
 10
83.9097923133
 20
125.0916219994
 30
0.0
 40
8.5
100
AcDbArc
 50
0.0
 51
49.67978493
  0
ARC
  5
11B
330
1F
100
AcDbEntity
  8
0
  6
SLD-Сплошная
 62
     7
370
    25
100
AcDbCircle
 10
83.9097923133
 20
124.2916219994
 30
0.0
 40
1.75
100
AcDbArc
 50
180.0
 51
0.0
  0
ARC
  5
11C
330
1F
100
AcDbEntity
  8
0
  6
SLD-Сплошная
 62
     7
370
    25
100
AcDbCircle
 10
83.9097923133
 20
124.2916219994
 30
0.0
 40
1.75
100
AcDbArc
 50
0.0
 51
180.0
  0
LINE
  5
11D
330
1F
100
AcDbEntity
  8
0
  6
SLD-Сплошная
 62
     7
370
    25
100
AcDbLine
 10
92.8399249377
 20
142.0103199767
 30
0.0
 11
92.8399249377
 21
142.952627669
 31
0.0
  0
LINE
  5
11E
330
1F
100
AcDbEntity
  8
0
  6
SLD-Сплошная
 62
     7
370
    25
100
AcDbLine
 10
92.8399249377
 20
142.952627669
 30
0.0
 11
92.0771044249
 21
142.952627669
 31
0.0
  0
LINE
  5
11F
330
1F
100
AcDbEntity
  8
0
  6
SLD-Сплошная
 62
     7
370
    25
100
AcDbLine
 10
92.0771044249
 20
142.952627669
 30
0.0
 11
92.0771044249
 21
143.3564738229
 31
0.0
  0
LINE
  5
120
330
1F
100
AcDbEntity
  8
0
  6
SLD-Сплошная
 62
     7
370
    25
100
AcDbLine
 10
92.0771044249
 20
143.3564738229
 30
0.0
 11
92.8399249377
 21
143.3564738229
 31
0.0
  0
LINE
  5
121
330
1F
100
AcDbEntity
  8
0
  6
SLD-Сплошная
 62
     7
370
    25
100
AcDbLine
 10
92.8399249377
 20
143.3564738229
 30
0.0
 11
92.8399249377
 21
144.2987815152
 31
0.0
  0
LINE
  5
122
330
1F
100
AcDbEntity
  8
0
  6
SLD-Сплошная
 62
     7
370
    25
100
AcDbLine
 10
92.8399249377
 20
144.2987815152
 30
0.0
 11
93.1540275018
 21
144.2987815152
 31
0.0
  0
LINE
  5
123
330
1F
100
AcDbEntity
  8
0
  6
SLD-Сплошная
 62
     7
370
    25
100
AcDbLine
 10
93.1540275018
 20
144.2987815152
 30
0.0
 11
93.1540275018
 21
143.3564738229
 31
0.0
  0
LINE
  5
124
330
1F
100
AcDbEntity
  8
0
  6
SLD-Сплошная
 62
     7
370
    25
100
AcDbLine
 10
93.9168480146
 20
143.3564738229
 30
0.0
 11
93.9168480146
 21
142.952627669
 31
0.0
  0
LINE
  5
125
330
1F
100
AcDbEntity
  8
0
  6
SLD-Сплошная
 62
     7
370
    25
100
AcDbLine
 10
93.9168480146
 20
142.952627669
 30
0.0
 11
93.1540275018
 21
142.952627669
 31
0.0
  0
LINE
  5
126
330
1F
100
AcDbEntity
  8
0
  6
SLD-Сплошная
 62
     7
370
    25
100
AcDbLine
 10
93.1540275018
 20
142.0103199767
 30
0.0
 11
92.8399249377
 21
142.0103199767
 31
0.0
  0
LINE
  5
127
330
1F
100
AcDbEntity
  8
0
  6
SLD-Сплошная
 62
     7
370
    25
100
AcDbLine
 10
93.1540275018
 20
142.952627669
 30
0.0
 11
93.1540275018
 21
142.0103199767
 31
0.0
  0
LINE
  5
128
330
1F
100
AcDbEntity
  8
0
  6
SLD-Сплошная
 62
     7
370
    25
100
AcDbLine
 10
93.1540275018
 20
143.3564738229
 30
0.0
 11
93.9168480146
 21
143.3564738229
 31
0.0
  0
LINE
  5
129
330
1F
100
AcDbEntity
  8
0
  6
SLD-Сплошная
 62
     7
370
    25
100
AcDbLine
 10
90.7758223736
 20
141.4269866434
 30
0.0
 11
91.5835146813
 21
144.9269866434
 31
0.0
  0
LINE
  5
12A
330
1F
100
AcDbEntity
  8
0
  6
SLD-Сплошная
 62
     7
370
    25
100
AcDbLine
 10
91.5835146813
 20
144.9269866434
 30
0.0
 11
91.8632622774
 21
144.9269866434
 31
0.0
  0
LINE
  5
12B
330
1F
100
AcDbEntity
  8
0
  6
SLD-Сплошная
 62
     7
370
    25
100
AcDbLine
 10
91.8632622774
 20
144.9269866434
 30
0.0
 11
91.0555699697
 21
141.4269866434
 31
0.0
  0
LINE
  5
12C
330
1F
100
AcDbEntity
  8
0
  6
SLD-Сплошная
 62
     7
370
    25
100
AcDbLine
 10
91.0555699697
 20
141.4269866434
 30
0.0
 11
90.7758223736
 21
141.4269866434
 31
0.0
  0
LINE
  5
12D
330
1F
100
AcDbEntity
  8
0
  6
SLD-Сплошная
 62
     7
370
    25
100
AcDbLine
 10
88.9360787838
 20
141.4269866434
 30
0.0
 11
88.9360787838
 21
144.9269866434
 31
0.0
  0
LINE
  5
12E
330
1F
100
AcDbEntity
  8
0
  6
SLD-Сплошная
 62
     7
370
    25
100
AcDbLine
 10
89.2950531428
 20
141.8308327972
 30
0.0
 11
90.641206989
 21
141.8308327972
 31
0.0
  0
LINE
  5
12F
330
1F
100
AcDbEntity
  8
0
  6
SLD-Сплошная
 62
     7
370
    25
100
AcDbLine
 10
90.641206989
 20
141.4269866434
 30
0.0
 11
88.9360787838
 21
141.4269866434
 31
0.0
  0
LINE
  5
130
330
1F
100
AcDbEntity
  8
0
  6
SLD-Сплошная
 62
     7
370
    25
100
AcDbLine
 10
88.9360787838
 20
144.9269866434
 30
0.0
 11
89.2950531428
 21
144.9269866434
 31
0.0
  0
LINE
  5
131
330
1F
100
AcDbEntity
  8
0
  6
SLD-Сплошная
 62
     7
370
    25
100
AcDbLine
 10
90.641206989
 20
141.8308327972
 30
0.0
 11
90.641206989
 21
141.4269866434
 31
0.0
  0
LINE
  5
132
330
1F
100
AcDbEntity
  8
0
  6
SLD-Сплошная
 62
     7
370
    25
100
AcDbLine
 10
89.2950531428
 20
144.9269866434
 30
0.0
 11
89.2950531428
 21
141.8308327972
 31
0.0
  0
LINE
  5
133
330
1F
100
AcDbEntity
  8
0
  6
SLD-Сплошная
 62
     7
370
    25
100
AcDbLine
 10
69.4097923133
 20
138.6345152182
 30
0.0
 11
71.4097923133
 21
136.6345152182
 31
0.0
  0
LINE
  5
134
330
1F
100
AcDbEntity
  8
0
  6
SLD-Сплошная
 62
     7
370
    25
100
AcDbLine
 10
71.4097923133
 20
135.3416219994
 30
0.0
 11
71.4097923133
 21
136.6345152182
 31
0.0
  0
LINE
  5
135
330
1F
100
AcDbEntity
  8
0
  6
SLD-Сплошная
 62
     7
370
    25
100
AcDbLine
 10
71.4097923133
 20
135.3416219994
 30
0.0
 11
69.4097923133
 21
137.3416219994
 31
0.0
  0
LINE
  5
136
330
1F
100
AcDbEntity
  8
0
  6
SLD-Сплошная
 62
     7
370
    25
100
AcDbLine
 10
69.4097923133
 20
138.6345152182
 30
0.0
 11
69.4097923133
 21
137.3416219994
 31
0.0
  0
LINE
  5
137
330
1F
100
AcDbEntity
  8
0
  6
SLD-Сплошная
 62
     7
370
    25
100
AcDbLine
 10
68.9097923133
 20
139.8416219994
 30
0.0
 11
69.4097923133
 21
139.8416219994
 31
0.0
  0
LINE
  5
138
330
1F
100
AcDbEntity
  8
0
  6
SLD-Сплошная
 62
     7
370
    25
100
AcDbLine
 10
68.9097923133
 20
141.3416219994
 30
0.0
 11
68.9097923133
 21
139.8416219994
 31
0.0
  0
LINE
  5
139
330
1F
100
AcDbEntity
  8
0
  6
SLD-Сплошная
 62
     7
370
    25
100
AcDbLine
 10
71.9097923133
 20
141.3416219994
 30
0.0
 11
68.9097923133
 21
141.3416219994
 31
0.0
  0
LINE
  5
13A
330
1F
100
AcDbEntity
  8
0
  6
SLD-Сплошная
 62
     7
370
    25
100
AcDbLine
 10
71.9097923133
 20
139.8416219994
 30
0.0
 11
71.9097923133
 21
141.3416219994
 31
0.0
  0
LINE
  5
13B
330
1F
100
AcDbEntity
  8
0
  6
SLD-Сплошная
 62
     7
370
    25
100
AcDbLine
 10
71.4097923133
 20
137.3416219994
 30
0.0
 11
71.4097923133
 21
139.8416219994
 31
0.0
  0
LINE
  5
13C
330
1F
100
AcDbEntity
  8
0
  6
SLD-Сплошная
 62
     7
370
    25
100
AcDbLine
 10
69.4097923133
 20
139.8416219994
 30
0.0
 11
69.4097923133
 21
139.3416219994
 31
0.0
  0
LINE
  5
13D
330
1F
100
AcDbEntity
  8
0
  6
SLD-Сплошная
 62
     7
370
    25
100
AcDbLine
 10
71.4097923133
 20
139.8416219994
 30
0.0
 11
71.9097923133
 21
139.8416219994
 31
0.0
  0
LINE
  5
13E
330
1F
100
AcDbEntity
  8
0
  6
SLD-Сплошная
 62
     7
370
    25
100
AcDbLine
 10
71.4097923133
 20
137.3416219994
 30
0.0
 11
69.4097923133
 21
139.3416219994
 31
0.0
  0
LINE
  5
13F
330
1F
100
AcDbEntity
  8
0
  6
SLD-Сплошная
 62
     7
370
    25
100
AcDbLine
 10
69.4097923133
 20
136.6345152182
 30
0.0
 11
71.4097923133
 21
134.6345152182
 31
0.0
  0
LINE
  5
140
330
1F
100
AcDbEntity
  8
0
  6
SLD-Сплошная
 62
     7
370
    25
100
AcDbLine
 10
70.9097923133
 20
133.8416219994
 30
0.0
 11
71.4097923133
 21
133.8416219994
 31
0.0
  0
LINE
  5
141
330
1F
100
AcDbEntity
  8
0
  6
SLD-Сплошная
 62
     7
370
    25
100
AcDbLine
 10
70.9097923133
 20
133.8416219994
 30
0.0
 11
69.4097923133
 21
135.3416219994
 31
0.0
  0
LINE
  5
142
330
1F
100
AcDbEntity
  8
0
  6
SLD-Сплошная
 62
     7
370
    25
100
AcDbLine
 10
69.4097923133
 20
136.6345152182
 30
0.0
 11
69.4097923133
 21
135.3416219994
 31
0.0
  0
LINE
  5
143
330
1F
100
AcDbEntity
  8
0
  6
SLD-Сплошная
 62
     7
370
    25
100
AcDbLine
 10
71.4097923133
 20
133.8416219994
 30
0.0
 11
71.4097923133
 21
134.6345152182
 31
0.0
  0
LINE
  5
144
330
1F
100
AcDbEntity
  8
0
  6
SLD-Сплошная
 62
     7
370
    25
100
AcDbLine
 10
69.4097923133
 20
134.6345152182
 30
0.0
 11
69.4097923133
 21
133.8416219994
 31
0.0
  0
LINE
  5
145
330
1F
100
AcDbEntity
  8
0
  6
SLD-Сплошная
 62
     7
370
    25
100
AcDbLine
 10
69.4097923133
 20
134.6345152182
 30
0.0
 11
70.2026855321
 21
133.8416219994
 31
0.0
  0
LINE
  5
146
330
1F
100
AcDbEntity
  8
0
  6
SLD-Сплошная
 62
     7
370
    25
100
AcDbLine
 10
69.4097923133
 20
133.8416219994
 30
0.0
 11
70.2026855321
 21
133.8416219994
 31
0.0
  0
SPLINE
  5
147
330
1F
100
AcDbEntity
  8
0
  6
SLD-Сплошная
 62
     7
370
    25
100
AcDbSpline
210
0.0
220
0.0
230
1.0
 70
     8
 71
     3
 72
    14
 73
    10
 74
     0
 42
0.00000001
 43
0.00000001
 40
0.0
 40
0.0
 40
0.0
 40
0.0
 40
0.25
 40
0.25
 40
0.5
 40
0.5
 40
0.75
 40
0.75
 40
1.0
 40
1.0
 40
1.0
 40
1.0
 10
66.90338205685626
 20
137.8061652686405
 30
0.0
 10
66.90268661586535
 20
137.8545442306678
 30
0.0
 10
66.89825010039685
 20
137.9031279780216
 30
0.0
 10
66.87114810565276
 20
137.9960318082945
 30
0.0
 10
66.84750974129867
 20
138.0396538475123
 30
0.0
 10
66.78273231412903
 20
138.1114734050795
 30
0.0
 10
66.74279412964115
 20
138.140757018019
 30
0.0
 10
66.65396628299861
 20
138.179520409551
 30
0.0
 10
66.60527435779372
 20
138.1856486348664
 30
0.0
 10
66.55682756967677
 20
138.1877758455635
 30
0.0
  0
SPLINE
  5
148
330
1F
100
AcDbEntity
  8
0
  6
SLD-Сплошная
 62
     7
370
    25
100
AcDbSpline
210
0.0
220
0.0
230
1.0
 70
     8
 71
     3
 72
    14
 73
    10
 74
     0
 42
0.00000001
 43
0.00000001
 40
0.0
 40
0.0
 40
0.0
 40
0.0
 40
0.25
 40
0.25
 40
0.5
 40
0.5
 40
0.75
 40
0.75
 40
1.0
 40
1.0
 40
1.0
 40
1.0
 10
66.55682756967677
 20
138.1877758455635
 30
0.0
 10
66.50752675296148
 20
138.1852678701917
 30
0.0
 10
66.45783007835195
 20
138.1795271400624
 30
0.0
 10
66.36696023906572
 20
138.1410411404206
 30
0.0
 10
66.3256962802411
 20
138.1120012259501
 30
0.0
 10
66.25840013064146
 20
138.0399674153181
 30
0.0
 10
66.23439202237674
 20
137.9956900362062
 30
0.0
 10
66.20383589740901
 20
137.9019976447134
 30
0.0
 10
66.19895902355188
 20
137.8524464570918
 30
0.0
 10
66.19825385172805
 20
137.8031604609481
 30
0.0
  0
SPLINE
  5
149
330
1F
100
AcDbEntity
  8
0
  6
SLD-Сплошная
 62
     7
370
    25
100
AcDbSpline
210
0.0
220
0.0
230
1.0
 70
     8
 71
     3
 72
    16
 73
    12
 74
     0
 42
0.00000001
 43
0.00000001
 40
0.0
 40
0.0
 40
0.0
 40
0.0
 40
0.2499999999999996
 40
0.2499999999999996
 40
0.4999999999999991
 40
0.4999999999999991
 40
0.7499999999999987
 40
0.7499999999999987
 40
0.8749999999999993
 40
0.8749999999999993
 40
1.0
 40
1.0
 40
1.0
 40
1.0
 10
66.19825385172805
 20
137.8031604609481
 30
0.0
 10
66.19890743887117
 20
137.7549174679031
 30
0.0
 10
66.20274567684473
 20
137.7062805333059
 30
0.0
 10
66.23188402986109
 20
137.6143491465203
 30
0.0
 10
66.25412298745333
 20
137.570404172014
 30
0.0
 10
66.31772294846799
 20
137.4979129268187
 30
0.0
 10
66.35727272829497
 20
137.4683689281246
 30
0.0
 10
66.42312681874732
 20
137.4381618624687
 30
0.0
 10
66.44624946071853
 20
137.4304074011749
 30
0.0
 10
66.49352546943517
 20
137.4211402086889
 30
0.0
 10
66.51766473686207
 20
137.4198369455846
 30
0.0
 10
66.54180353121527
 20
137.4185450763327
 30
0.0
  0
SPLINE
  5
14A
330
1F
100
AcDbEntity
  8
0
  6
SLD-Сплошная
 62
     7
370
    25
100
AcDbSpline
210
0.0
220
0.0
230
1.0
 70
     8
 71
     3
 72
    14
 73
    10
 74
     0
 42
0.00000001
 43
0.00000001
 40
0.0
 40
0.0
 40
0.0
 40
0.0
 40
0.25
 40
0.25
 40
0.5
 40
0.5
 40
0.75
 40
0.75
 40
1.0
 40
1.0
 40
1.0
 40
1.0
 10
66.54180353121527
 20
137.4185450763327
 30
0.0
 10
66.59187840320766
 20
137.4204120710519
 30
0.0
 10
66.64210571837845
 20
137.4259888933455
 30
0.0
 10
66.73525908374894
 20
137.4628665233357
 30
0.0
 10
66.77806518532341
 20
137.4911790958348
 30
0.0
 10
66.84528798331068
 20
137.5651461091412
 30
0.0
 10
66.86978459418611
 20
137.61012177455
 30
0.0
 10
66.89849834857468
 20
137.7058806297945
 30
0.0
 10
66.90268984433783
 20
137.7561771667052
 30
0.0
 10
66.90338205685626
 20
137.8061652686405
 30
0.0
  0
SPLINE
  5
14B
330
1F
100
AcDbEntity
  8
0
  6
SLD-Сплошная
 62
     7
370
    25
100
AcDbSpline
210
0.0
220
0.0
230
1.0
 70
     8
 71
     3
 72
    14
 73
    10
 74
     0
 42
0.00000001
 43
0.00000001
 40
0.0
 40
0.0
 40
0.0
 40
0.0
 40
0.25
 40
0.25
 40
0.5
 40
0.5
 40
0.75
 40
0.75
 40
1.0
 40
1.0
 40
1.0
 40
1.0
 10
67.03859840301011
 20
137.4766380250507
 30
0.0
 10
67.0181370930658
 20
137.4243348202127
 30
0.0
 10
66.99633100709282
 20
137.3723798522683
 30
0.0
 10
66.935919766038
 20
137.2776537299624
 30
0.0
 10
66.89904905615897
 20
137.2342658082413
 30
0.0
 10
66.810771156751
 20
137.1647788717156
 30
0.0
 10
66.76006133285253
 20
137.1385742068759
 30
0.0
 10
66.65283516884426
 20
137.1050419083459
 30
0.0
 10
66.5964256471814
 20
137.1003363757102
 30
0.0
 10
66.54030112736909
 20
137.0980322558199
 30
0.0
  0
SPLINE
  5
14C
330
1F
100
AcDbEntity
  8
0
  6
SLD-Сплошная
 62
     7
370
    25
100
AcDbSpline
210
0.0
220
0.0
230
1.0
 70
     8
 71
     3
 72
    16
 73
    12
 74
     0
 42
0.00000001
 43
0.00000001
 40
0.0
 40
0.0
 40
0.0
 40
0.0
 40
0.125
 40
0.125
 40
0.25
 40
0.25
 40
0.5
 40
0.5
 40
0.75
 40
0.75
 40
1.0
 40
1.0
 40
1.0
 40
1.0
 10
66.54030112736909
 20
137.0980322558199
 30
0.0
 10
66.49623759635135
 20
137.0991344891351
 30
0.0
 10
66.4521623468722
 20
137.1019577832645
 30
0.0
 10
66.36573773086313
 20
137.1193991961246
 30
0.0
 10
66.32368635191732
 20
137.1332231688706
 30
0.0
 10
66.20278940229664
 20
137.186833987623
 30
0.0
 10
66.13166033935995
 20
137.2423288708849
 30
0.0
 10
66.01627049180529
 20
137.3755115613165
 30
0.0
 10
65.97327689580457
 20
137.4544101661192
 30
0.0
 10
65.92003663006216
 20
137.6224277889116
 30
0.0
 10
65.91177018202647
 20
137.7110506916765
 30
0.0
 10
65.90979231326655
 20
137.7991540506917
 30
0.0
  0
SPLINE
  5
14D
330
1F
100
AcDbEntity
  8
0
  6
SLD-Сплошная
 62
     7
370
    25
100
AcDbSpline
210
0.0
220
0.0
230
1.0
 70
     8
 71
     3
 72
    16
 73
    12
 74
     0
 42
0.00000001
 43
0.00000001
 40
0.0
 40
0.0
 40
0.0
 40
0.0
 40
0.2499999999999998
 40
0.2499999999999998
 40
0.4999999999999996
 40
0.4999999999999996
 40
0.7499999999999993
 40
0.7499999999999993
 40
0.8749999999999997
 40
0.8749999999999997
 40
1.0
 40
1.0
 40
1.0
 40
1.0
 10
65.90979231326655
 20
137.7991540506917
 30
0.0
 10
65.911798214259
 20
137.8881716506361
 30
0.0
 10
65.92058298568418
 20
137.977663312292
 30
0.0
 10
65.97497015399988
 20
138.1472342506886
 30
0.0
 10
66.01866021602098
 20
138.2269506954305
 30
0.0
 10
66.13640641844952
 20
138.3605739672247
 30
0.0
 10
66.20794735882285
 20
138.4168669206955
 30
0.0
 10
66.32938681064324
 20
138.4724981624552
 30
0.0
 10
66.37203965115971
 20
138.4862033382663
 30
0.0
 10
66.4591909902472
 20
138.5044871719073
 30
0.0
 10
66.50379828832837
 20
138.5071465759471
 30
0.0
 10
66.54831394788191
 20
138.5082886660763
 30
0.0
  0
SPLINE
  5
14E
330
1F
100
AcDbEntity
  8
0
  6
SLD-Сплошная
 62
     7
370
    25
100
AcDbSpline
210
0.0
220
0.0
230
1.0
 70
     8
 71
     3
 72
    14
 73
    10
 74
     0
 42
0.00000001
 43
0.00000001
 40
0.0
 40
0.0
 40
0.0
 40
0.0
 40
0.25
 40
0.25
 40
0.5
 40
0.5
 40
0.75
 40
0.75
 40
1.0
 40
1.0
 40
1.0
 40
1.0
 10
66.54831394788191
 20
138.5082886660763
 30
0.0
 10
66.60335629270297
 20
138.5064537192405
 30
0.0
 10
66.65843405293566
 20
138.5010380320917
 30
0.0
 10
66.76331178382003
 20
138.4673674681256
 30
0.0
 10
66.81264919837082
 20
138.4413380082224
 30
0.0
 10
66.89910361366114
 20
138.3732453077559
 30
0.0
 10
66.93631706419642
 20
138.3317635386569
 30
0.0
 10
66.99628700284057
 20
138.2395059792967
 30
0.0
 10
67.0179476000919
 20
138.1886734059479
 30
0.0
 10
67.03859840301011
 20
138.1376957173584
 30
0.0
  0
SPLINE
  5
14F
330
1F
100
AcDbEntity
  8
0
  6
SLD-Сплошная
 62
     7
370
    25
100
AcDbSpline
210
0.0
220
0.0
230
1.0
 70
     8
 71
     3
 72
    18
 73
    14
 74
     0
 42
0.00000001
 43
0.00000001
 40
0.0
 40
0.0
 40
0.0
 40
0.0
 40
0.1250000000000004
 40
0.1250000000000004
 40
0.2500000000000008
 40
0.2500000000000008
 40
0.5000000000000017
 40
0.5000000000000017
 40
0.7500000000000024
 40
0.7500000000000024
 40
0.8750000000000012
 40
0.8750000000000012
 40
1.0
 40
1.0
 40
1.0
 40
1.0
 10
67.68212805044601
 20
138.6044425122302
 30
0.0
 10
67.73371129179593
 20
138.6031894921695
 30
0.0
 10
67.78528000218128
 20
138.5999716625097
 30
0.0
 10
67.88672175200935
 20
138.5810084657852
 30
0.0
 10
67.9366173151574
 20
138.5668965334349
 30
0.0
 10
68.07917665467433
 20
138.5067330183054
 30
0.0
 10
68.16440336037346
 20
138.4449200572177
 30
0.0
 10
68.30665583072708
 20
138.2954636693512
 30
0.0
 10
68.36154736372903
 20
138.2052544704158
 30
0.0
 10
68.41111876012523
 20
138.0587153071583
 30
0.0
 10
68.42343313611046
 20
138.0083886877198
 30
0.0
 10
68.43869321223289
 20
137.9063705400994
 30
0.0
 10
68.44058613554998
 20
137.854717252115
 30
0.0
 10
68.44184359531782
 20
137.8031604609481
 30
0.0
  0
SPLINE
  5
150
330
1F
100
AcDbEntity
  8
0
  6
SLD-Сплошная
 62
     7
370
    25
100
AcDbSpline
210
0.0
220
0.0
230
1.0
 70
     8
 71
     3
 72
    14
 73
    10
 74
     0
 42
0.00000001
 43
0.00000001
 40
0.0
 40
0.0
 40
0.0
 40
0.0
 40
0.25
 40
0.25
 40
0.5
 40
0.5
 40
0.75
 40
0.75
 40
1.0
 40
1.0
 40
1.0
 40
1.0
 10
68.15338205685626
 20
137.8056644673584
 30
0.0
 10
68.15230796069713
 20
137.8690604596532
 30
0.0
 10
68.14511068233828
 20
137.9328015376854
 30
0.0
 10
68.10383890656001
 20
138.0526552920342
 30
0.0
 10
68.06851865478004
 20
138.1072075566326
 30
0.0
 10
67.97864397941332
 20
138.196605903834
 30
0.0
 10
67.9239569858581
 20
138.2317177051272
 30
0.0
 10
67.80467462463355
 20
138.2745687807906
 30
0.0
 10
67.74099721195962
 20
138.282544986623
 30
0.0
 10
67.67762083890756
 20
138.2839296917174
 30
0.0
  0
SPLINE
  5
151
330
1F
100
AcDbEntity
  8
0
  6
SLD-Сплошная
 62
     7
370
    25
100
AcDbSpline
210
0.0
220
0.0
230
1.0
 70
     8
 71
     3
 72
    16
 73
    12
 74
     0
 42
0.00000001
 43
0.00000001
 40
0.0
 40
0.0
 40
0.0
 40
0.0
 40
0.1250000000000003
 40
0.1250000000000003
 40
0.2500000000000006
 40
0.2500000000000006
 40
0.5000000000000004
 40
0.5000000000000004
 40
0.7500000000000002
 40
0.7500000000000002
 40
1.0
 40
1.0
 40
1.0
 40
1.0
 10
67.67361442865113
 20
137.0018784096661
 30
0.0
 10
67.63773780050428
 20
137.0026566331601
 30
0.0
 10
67.60179941368831
 20
137.003664854061
 30
0.0
 10
67.53055996541666
 20
137.0124192941666
 30
0.0
 10
67.4953471293088
 20
137.0199074701268
 30
0.0
 10
67.39159804845247
 20
137.0486542793611
 30
0.0
 10
67.32548179729774
 20
137.0794300016009
 30
0.0
 10
67.20980672806057
 20
137.1645073085365
 30
0.0
 10
67.16054286473707
 20
137.2184167558435
 30
0.0
 10
67.08354381625209
 20
137.339604925875
 30
0.0
 10
67.05808291132062
 20
137.4075294589966
 30
0.0
 10
67.03859840301011
 20
137.4766380250507
 30
0.0
  0
SPLINE
  5
152
330
1F
100
AcDbEntity
  8
0
  6
SLD-Сплошная
 62
     7
370
    25
100
AcDbSpline
210
0.0
220
0.0
230
1.0
 70
     8
 71
     3
 72
    18
 73
    14
 74
     0
 42
0.00000001
 43
0.00000001
 40
0.0
 40
0.0
 40
0.0
 40
0.0
 40
0.1249999999999989
 40
0.1249999999999989
 40
0.2499999999999978
 40
0.2499999999999978
 40
0.499999999999997
 40
0.499999999999997
 40
0.7499999999999961
 40
0.7499999999999961
 40
0.8749999999999981
 40
0.8749999999999981
 40
1.0
 40
1.0
 40
1.0
 40
1.0
 10
68.44184359531782
 20
137.8031604609481
 30
0.0
 10
68.44058834882655
 20
137.75127643606
 30
0.0
 10
68.43861457219627
 20
137.6993158061352
 30
0.0
 10
68.42319280047371
 20
137.596656280038
 30
0.0
 10
68.41057928629179
 20
137.5460904047241
 30
0.0
 10
68.35954569861721
 20
137.3989855776245
 30
0.0
 10
68.30435359914523
 20
137.3083975779586
 30
0.0
 10
68.16107898717752
 20
137.1581160338065
 30
0.0
 10
68.07409068556399
 20
137.0973116993245
 30
0.0
 10
67.92989420484149
 20
137.0385329209823
 30
0.0
 10
67.87957835482348
 20
137.0247918241249
 30
0.0
 10
67.77742424727117
 20
137.0061400337118
 30
0.0
 10
67.72552202188278
 20
137.0030846825706
 30
0.0
 10
67.67361442865113
 20
137.0018784096661
 30
0.0
  0
SPLINE
  5
153
330
1F
100
AcDbEntity
  8
0
  6
SLD-Сплошная
 62
     7
370
    25
100
AcDbSpline
210
0.0
220
0.0
230
1.0
 70
     8
 71
     3
 72
    14
 73
    10
 74
     0
 42
0.00000001
 43
0.00000001
 40
0.0
 40
0.0
 40
0.0
 40
0.0
 40
0.25
 40
0.25
 40
0.5
 40
0.5
 40
0.75
 40
0.75
 40
1.0
 40
1.0
 40
1.0
 40
1.0
 10
67.67762083890756
 20
138.2839296917174
 30
0.0
 10
67.6130243921627
 20
138.2825015419179
 30
0.0
 10
67.54810879454006
 20
138.2743158943599
 30
0.0
 10
67.42676363752159
 20
138.2300034208052
 30
0.0
 10
67.3713286634105
 20
138.1939929690295
 30
0.0
 10
67.27881101782283
 20
138.1037575197943
 30
0.0
 10
67.24372011024491
 20
138.0475318670444
 30
0.0
 10
67.20073776565191
 20
137.925655052854
 30
0.0
 10
67.19296926677062
 20
137.8607676404759
 30
0.0
 10
67.19184359531782
 20
137.7961492429994
 30
0.0
  0
SPLINE
  5
154
330
1F
100
AcDbEntity
  8
0
  6
SLD-Сплошная
 62
     7
370
    25
100
AcDbSpline
210
0.0
220
0.0
230
1.0
 70
     8
 71
     3
 72
    14
 73
    10
 74
     0
 42
0.00000001
 43
0.00000001
 40
0.0
 40
0.0
 40
0.0
 40
0.0
 40
0.2500000000000009
 40
0.2500000000000009
 40
0.5000000000000018
 40
0.5000000000000018
 40
0.7500000000000009
 40
0.7500000000000009
 40
1.0
 40
1.0
 40
1.0
 40
1.0
 10
67.03859840301011
 20
138.1376957173584
 30
0.0
 10
67.06154824287479
 20
138.2053040930136
 30
0.0
 10
67.09132285016273
 20
138.2707677712983
 30
0.0
 10
67.17023801900007
 20
138.3896702519252
 30
0.0
 10
67.22091116444874
 20
138.4416505337088
 30
0.0
 10
67.33676699438665
 20
138.5250606010787
 30
0.0
 10
67.40207819337388
 20
138.5562941870926
 30
0.0
 10
67.53908513545618
 20
138.5963456218421
 30
0.0
 10
67.61077075667195
 20
138.6029219788135
 30
0.0
 10
67.68212805044601
 20
138.6044425122302
 30
0.0
  0
SPLINE
  5
155
330
1F
100
AcDbEntity
  8
0
  6
SLD-Сплошная
 62
     7
370
    25
100
AcDbSpline
210
0.0
220
0.0
230
1.0
 70
     8
 71
     3
 72
    14
 73
    10
 74
     0
 42
0.00000001
 43
0.00000001
 40
0.0
 40
0.0
 40
0.0
 40
0.0
 40
0.25
 40
0.25
 40
0.5
 40
0.5
 40
0.75
 40
0.75
 40
1.0
 40
1.0
 40
1.0
 40
1.0
 10
67.19184359531782
 20
137.7961492429994
 30
0.0
 10
67.19298346231159
 20
137.7331195083839
 30
0.0
 10
67.20008417171107
 20
137.6696840071615
 30
0.0
 10
67.24297945757915
 20
137.5511400872742
 30
0.0
 10
67.27735125888711
 20
137.4964419404392
 30
0.0
 10
67.36856368888682
 20
137.4094118488764
 30
0.0
 10
67.42296821121217
 20
137.3752632886755
 30
0.0
 10
67.54130067284454
 20
137.3316372483287
 30
0.0
 10
67.60457260956068
 20
137.3236994432928
 30
0.0
 10
67.66760481326654
 20
137.3223912301789
 30
0.0
  0
SPLINE
  5
156
330
1F
100
AcDbEntity
  8
0
  6
SLD-Сплошная
 62
     7
370
    25
100
AcDbSpline
210
0.0
220
0.0
230
1.0
 70
     8
 71
     3
 72
    18
 73
    14
 74
     0
 42
0.00000001
 43
0.00000001
 40
0.0
 40
0.0
 40
0.0
 40
0.0
 40
0.1250000000000003
 40
0.1250000000000003
 40
0.2500000000000006
 40
0.2500000000000006
 40
0.5000000000000022
 40
0.5000000000000022
 40
0.7500000000000039
 40
0.7500000000000039
 40
0.875000000000002
 40
0.875000000000002
 40
1.0
 40
1.0
 40
1.0
 40
1.0
 10
67.66760481326654
 20
137.3223912301789
 30
0.0
 10
67.69981214836152
 20
137.3232147774199
 30
0.0
 10
67.73202756967025
 20
137.3245886358424
 30
0.0
 10
67.7955908649977
 20
137.3351228302336
 30
0.0
 10
67.82686578228237
 20
137.3431577384921
 30
0.0
 10
67.91865519247817
 20
137.3733354744453
 30
0.0
 10
67.97730549485753
 20
137.4045328197363
 30
0.0
 10
68.06610408071639
 20
137.4979489584271
 30
0.0
 10
68.09752513454043
 20
137.5559084718577
 30
0.0
 10
68.13059547370311
 20
137.646668274666
 30
0.0
 10
68.13922613631475
 20
137.6778447286241
 30
0.0
 10
68.15068081622607
 20
137.7412481340922
 30
0.0
 10
68.1522636921621
 20
137.7734558995433
 30
0.0
 10
68.15338205685626
 20
137.8056644673584
 30
0.0
  0
SPLINE
  5
157
330
1F
100
AcDbEntity
  8
0
  6
SLD-Сплошная
 62
     7
370
    25
100
AcDbSpline
210
0.0
220
0.0
230
1.0
 70
     8
 71
     3
 72
    12
 73
     8
 74
     0
 42
0.00000001
 43
0.00000001
 40
0.0
 40
0.0
 40
0.0
 40
0.0
 40
0.25
 40
0.25
 40
0.5
 40
0.5
 40
1.0
 40
1.0
 40
1.0
 40
1.0
 10
66.46167532608705
 20
135.8800835378712
 30
0.0
 10
66.50150119323884
 20
135.8387574994352
 30
0.0
 10
66.53973708447958
 20
135.7958912229581
 30
0.0
 10
66.60887250711401
 20
135.704277737172
 30
0.0
 10
66.6407472639266
 20
135.6565207391219
 30
0.0
 10
66.73217602898428
 20
135.5106712588787
 30
0.0
 10
66.78661340001136
 20
135.4093068146009
 30
0.0
 10
66.8302650696768
 20
135.3031604609481
 30
0.0
  0
LINE
  5
158
330
1F
100
AcDbEntity
  8
0
  6
SLD-Сплошная
 62
     7
370
    25
100
AcDbLine
 10
66.8302650697
 20
135.3031604609
 30
0.0
 11
66.5347923133
 21
135.3031604609
 31
0.0
  0
SPLINE
  5
159
330
1F
100
AcDbEntity
  8
0
  6
SLD-Сплошная
 62
     7
370
    25
100
AcDbSpline
210
0.0
220
0.0
230
1.0
 70
     8
 71
     3
 72
    16
 73
    12
 74
     0
 42
0.00000001
 43
0.00000001
 40
0.0
 40
0.0
 40
0.0
 40
0.0
 40
0.2500000000000004
 40
0.2500000000000004
 40
0.5000000000000009
 40
0.5000000000000009
 40
0.7500000000000013
 40
0.7500000000000013
 40
0.8750000000000007
 40
0.8750000000000007
 40
1.0
 40
1.0
 40
1.0
 40
1.0
 10
66.53479231326654
 20
135.3031604609481
 30
0.0
 10
66.49863025851077
 20
135.373327896972
 30
0.0
 10
66.461382610193
 20
135.4430085012708
 30
0.0
 10
66.37466694350321
 20
135.5749486783889
 30
0.0
 10
66.32669831476753
 20
135.6378459748996
 30
0.0
 10
66.22279726667995
 20
135.7566880797368
 30
0.0
 10
66.16704397590887
 20
135.8128743990528
 30
0.0
 10
66.0764216170701
 20
135.8890720845983
 30
0.0
 10
66.04519999823947
 20
135.9134353899323
 30
0.0
 10
65.97960707075757
 20
135.9573002141923
 30
0.0
 10
65.94475653301832
 20
135.9758883450569
 30
0.0
 10
65.90979231326655
 20
135.9942662301789
 30
0.0
  0
LINE
  5
15A
330
1F
100
AcDbEntity
  8
0
  6
SLD-Сплошная
 62
     7
370
    25
100
AcDbLine
 10
65.9097923133
 20
135.9942662302
 30
0.0
 11
65.9097923133
 21
136.2005963584
 31
0.0
  0
LINE
  5
15B
330
1F
100
AcDbEntity
  8
0
  6
SLD-Сплошная
 62
     7
370
    25
100
AcDbLine
 10
68.4097923133
 20
135.8800835379
 30
0.0
 11
66.4616753261
 21
135.8800835379
 31
0.0
  0
LINE
  5
15C
330
1F
100
AcDbEntity
  8
0
  6
SLD-Сплошная
 62
     7
370
    25
100
AcDbLine
 10
68.4097923133
 20
136.2005963584
 30
0.0
 11
68.4097923133
 21
135.8800835379
 31
0.0
  0
LINE
  5
15D
330
1F
100
AcDbEntity
  8
0
  6
SLD-Сплошная
 62
     7
370
    25
100
AcDbLine
 10
65.9097923133
 20
136.2005963584
 30
0.0
 11
68.4097923133
 21
136.2005963584
 31
0.0
  0
ARC
  5
15E
330
1F
100
AcDbEntity
  8
0
  6
SLD-Сплошная
 62
     7
370
    25
100
AcDbCircle
 10
76.4604289196
 20
137.4269866434
 30
0.0
 40
2.450000000000003
100
AcDbArc
 50
180.0
 51
0.0
  0
ARC
  5
15F
330
1F
100
AcDbEntity
  8
0
  6
SLD-Сплошная
 62
     7
370
    25
100
AcDbCircle
 10
76.4604289196
 20
137.4269866434
 30
0.0
 40
2.450000000000003
100
AcDbArc
 50
0.0
 51
180.0
  0
ARC
  5
160
330
1F
100
AcDbEntity
  8
0
  6
SLD-Сплошная
 62
     7
370
    25
100
AcDbCircle
 10
91.3591557069
 20
137.4269866434
 30
0.0
 40
2.450000000000003
100
AcDbArc
 50
180.0
 51
0.0
  0
ARC
  5
161
330
1F
100
AcDbEntity
  8
0
  6
SLD-Сплошная
 62
     7
370
    25
100
AcDbCircle
 10
91.3591557069
 20
137.4269866434
 30
0.0
 40
2.450000000000003
100
AcDbArc
 50
0.0
 51
180.0
  0
LINE
  5
162
330
1F
100
AcDbEntity
  8
0
  6
SLD-Сплошная
 62
     7
370
    25
100
AcDbLine
 10
82.5889491667
 20
142.4913545607
 30
0.0
 11
79.7940804081
 21
144.9572717562
 31
0.0
  0
LINE
  5
163
330
1F
100
AcDbEntity
  8
0
  6
SLD-Сплошная
 62
     7
370
    25
100
AcDbLine
 10
82.5889491667
 20
142.4913545607
 30
0.0
 11
85.2306354598
 21
142.4913545607
 31
0.0
  0
LINE
  5
164
330
1F
100
AcDbEntity
  8
0
  6
SLD-Сплошная
 62
     7
370
    25
100
AcDbLine
 10
88.0255042184
 20
144.9572717562
 30
0.0
 11
85.2306354598
 21
142.4913545607
 31
0.0
  0
LINE
  5
165
330
1F
100
AcDbEntity
  8
0
  6
SLD-Сплошная
 62
     7
370
    25
100
AcDbLine
 10
88.0255042184
 20
144.9572717562
 30
0.0
 11
88.0255042184
 21
150.7993168756
 31
0.0
  0
ARC
  5
166
330
1F
100
AcDbEntity
  8
0
  6
SLD-Сплошная
 62
     7
370
    25
100
AcDbCircle
 10
83.9097923133
 20
133.8416219994
 30
0.0
 40
17.45
100
AcDbArc
 50
76.3578301222
 51
103.6421698778
  0
LINE
  5
167
330
1F
100
AcDbEntity
  8
0
  6
SLD-Сплошная
 62
     7
370
    25
100
AcDbLine
 10
79.7940804081
 20
150.7993168756
 30
0.0
 11
79.7940804081
 21
144.9572717562
 31
0.0
  0
ARC
  5
168
330
1F
100
AcDbEntity
  8
0
  6
SLD-Сплошная
 62
     7
370
    25
100
AcDbCircle
 10
83.9097923133
 20
133.8416219994
 30
0.0
 40
19.94999999999998
100
AcDbArc
 50
0.0
 51
180.0
  0
ARC
  5
169
330
1F
100
AcDbEntity
  8
0
  6
SLD-Сплошная
 62
     7
370
    25
100
AcDbCircle
 10
83.9097923133
 20
133.8416219994
 30
0.0
 40
19.94999999999998
100
AcDbArc
 50
180.0
 51
0.0
  0
ARC
  5
16A
330
1F
100
AcDbEntity
  8
0
  6
SLD-Сплошная
 62
     7
370
    25
100
AcDbCircle
 10
91.3654457578
 20
137.4259898481
 30
0.0
 40
1.750000000000012
100
AcDbArc
 50
171.2231782975
 51
351.2231782975
  0
ARC
  5
16B
330
1F
100
AcDbEntity
  8
0
  6
SLD-Сплошная
 62
     7
370
    25
100
AcDbCircle
 10
91.3654457578
 20
137.4259898481
 30
0.0
 40
1.750000000000012
100
AcDbArc
 50
351.2231782975
 51
171.2231782975
  0
ARC
  5
16C
330
1F
100
AcDbEntity
  8
0
  6
SLD-Сплошная
 62
     7
370
    25
100
AcDbCircle
 10
76.4541388687
 20
137.4259898481
 30
0.0
 40
1.750000000000006
100
AcDbArc
 50
188.7768217025
 51
8.7768217025
  0
ARC
  5
16D
330
1F
100
AcDbEntity
  8
0
  6
SLD-Сплошная
 62
     7
370
    25
100
AcDbCircle
 10
76.4541388687
 20
137.4259898481
 30
0.0
 40
1.750000000000006
100
AcDbArc
 50
8.7768217025
 51
188.7768217025
  0
LINE
  5
16E
330
1F
100
AcDbEntity
  8
0
  6
SLD-Сплошная
 62
     7
370
    25
100
AcDbLine
 10
84.8833821518
 20
146.7916219994
 30
0.0
 11
86.6647877761
 21
146.7916219994
 31
0.0
  0
LINE
  5
16F
330
1F
100
AcDbEntity
  8
0
  6
SLD-Сплошная
 62
     7
370
    25
100
AcDbLine
 10
84.8833821518
 20
146.7916219994
 30
0.0
 11
84.5831382251
 21
146.9649679113
 31
0.0
  0
LINE
  5
170
330
1F
100
AcDbEntity
  8
0
  6
SLD-Сплошная
 62
     7
370
    25
100
AcDbLine
 10
84.5831382251
 20
146.9649679113
 30
0.0
 11
84.2097923133
 21
147.6116219994
 31
0.0
  0
LINE
  5
171
330
1F
100
AcDbEntity
  8
0
  6
SLD-Сплошная
 62
     7
370
    25
100
AcDbLine
 10
84.2097923133
 20
147.6116219994
 30
0.0
 11
84.4097923133
 21
148.4916219994
 31
0.0
  0
LINE
  5
172
330
1F
100
AcDbEntity
  8
0
  6
SLD-Сплошная
 62
     7
370
    25
100
AcDbLine
 10
84.4097923133
 20
148.4916219994
 30
0.0
 11
83.9097923133
 21
148.4916219994
 31
0.0
  0
ARC
  5
173
330
1F
100
AcDbEntity
  8
0
  6
SLD-Сплошная
 62
     7
370
    25
100
AcDbCircle
 10
83.9097923133
 20
146.2916219994
 30
0.0
 40
2.80000000000004
100
AcDbArc
 50
10.2865606115
 51
90.0
  0
LINE
  5
174
330
1F
100
AcDbEntity
  8
0
  6
SLD-Сплошная
 62
     7
370
    25
100
AcDbLine
 10
83.9097923133
 20
144.0916219994
 30
0.0
 11
84.4097923133
 21
144.0916219994
 31
0.0
  0
LINE
  5
175
330
1F
100
AcDbEntity
  8
0
  6
SLD-Сплошная
 62
     7
370
    25
100
AcDbLine
 10
84.4097923133
 20
144.0916219994
 30
0.0
 11
84.2097923133
 21
144.9716219994
 31
0.0
  0
LINE
  5
176
330
1F
100
AcDbEntity
  8
0
  6
SLD-Сплошная
 62
     7
370
    25
100
AcDbLine
 10
84.2097923133
 20
144.9716219994
 30
0.0
 11
84.5831382251
 21
145.6182760875
 31
0.0
  0
LINE
  5
177
330
1F
100
AcDbEntity
  8
0
  6
SLD-Сплошная
 62
     7
370
    25
100
AcDbLine
 10
84.5831382251
 20
145.6182760875
 30
0.0
 11
84.8833821518
 21
145.7916219994
 31
0.0
  0
LINE
  5
178
330
1F
100
AcDbEntity
  8
0
  6
SLD-Сплошная
 62
     7
370
    25
100
AcDbLine
 10
86.6647877761
 20
145.7916219994
 30
0.0
 11
84.8833821518
 21
145.7916219994
 31
0.0
  0
ARC
  5
179
330
1F
100
AcDbEntity
  8
0
  6
SLD-Сплошная
 62
     7
370
    25
100
AcDbCircle
 10
83.9097923133
 20
146.2916219994
 30
0.0
 40
2.800000000000018
100
AcDbArc
 50
270.0
 51
349.7134393885
  0
LINE
  5
17A
330
1F
100
AcDbEntity
  8
0
  6
SLD-Сплошная
 62
     7
370
    25
100
AcDbLine
 10
82.9362024748
 20
145.7916219994
 30
0.0
 11
81.1547968505
 21
145.7916219994
 31
0.0
  0
LINE
  5
17B
330
1F
100
AcDbEntity
  8
0
  6
SLD-Сплошная
 62
     7
370
    25
100
AcDbLine
 10
82.9362024748
 20
145.7916219994
 30
0.0
 11
83.2364464014
 21
145.6182760875
 31
0.0
  0
LINE
  5
17C
330
1F
100
AcDbEntity
  8
0
  6
SLD-Сплошная
 62
     7
370
    25
100
AcDbLine
 10
83.6097923133
 20
144.9716219994
 30
0.0
 11
83.4097923133
 21
144.0916219994
 31
0.0
  0
LINE
  5
17D
330
1F
100
AcDbEntity
  8
0
  6
SLD-Сплошная
 62
     7
370
    25
100
AcDbLine
 10
83.4097923133
 20
144.0916219994
 30
0.0
 11
83.9097923133
 21
144.0916219994
 31
0.0
  0
ARC
  5
17E
330
1F
100
AcDbEntity
  8
0
  6
SLD-Сплошная
 62
     7
370
    25
100
AcDbCircle
 10
83.9097923133
 20
146.2916219994
 30
0.0
 40
2.800000000000004
100
AcDbArc
 50
190.2865606115
 51
270.0
  0
LINE
  5
17F
330
1F
100
AcDbEntity
  8
0
  6
SLD-Сплошная
 62
     7
370
    25
100
AcDbLine
 10
83.2364464014
 20
145.6182760875
 30
0.0
 11
83.6097923133
 21
144.9716219994
 31
0.0
  0
LINE
  5
180
330
1F
100
AcDbEntity
  8
0
  6
SLD-Сплошная
 62
     7
370
    25
100
AcDbLine
 10
83.9097923133
 20
148.4916219994
 30
0.0
 11
83.4097923133
 21
148.4916219994
 31
0.0
  0
LINE
  5
181
330
1F
100
AcDbEntity
  8
0
  6
SLD-Сплошная
 62
     7
370
    25
100
AcDbLine
 10
83.4097923133
 20
148.4916219994
 30
0.0
 11
83.6097923133
 21
147.6116219994
 31
0.0
  0
LINE
  5
182
330
1F
100
AcDbEntity
  8
0
  6
SLD-Сплошная
 62
     7
370
    25
100
AcDbLine
 10
83.2364464014
 20
146.9649679113
 30
0.0
 11
82.9362024748
 21
146.7916219994
 31
0.0
  0
LINE
  5
183
330
1F
100
AcDbEntity
  8
0
  6
SLD-Сплошная
 62
     7
370
    25
100
AcDbLine
 10
81.1547968505
 20
146.7916219994
 30
0.0
 11
82.9362024748
 21
146.7916219994
 31
0.0
  0
ARC
  5
184
330
1F
100
AcDbEntity
  8
0
  6
SLD-Сплошная
 62
     7
370
    25
100
AcDbCircle
 10
83.9097923133
 20
146.2916219994
 30
0.0
 40
2.80000000000004
100
AcDbArc
 50
90.0
 51
169.7134393885
  0
LINE
  5
185
330
1F
100
AcDbEntity
  8
0
  6
SLD-Сплошная
 62
     7
370
    25
100
AcDbLine
 10
83.6097923133
 20
147.6116219994
 30
0.0
 11
83.2364464014
 21
146.9649679113
 31
0.0
  0
ARC
  5
186
330
1F
100
AcDbEntity
  8
0
  6
SLD-Сплошная
 62
     7
370
    25
100
AcDbCircle
 10
83.9097923133
 20
146.2916219994
 30
0.0
 40
2.800000000000018
100
AcDbArc
 50
0.0
 51
10.2865606115
  0
ARC
  5
187
330
1F
100
AcDbEntity
  8
0
  6
SLD-Сплошная
 62
     7
370
    25
100
AcDbCircle
 10
83.9097923133
 20
146.2916219994
 30
0.0
 40
2.800000000000004
100
AcDbArc
 50
169.7134393885
 51
180.0
  0
ARC
  5
188
330
1F
100
AcDbEntity
  8
0
  6
SLD-Сплошная
 62
     7
370
    25
100
AcDbCircle
 10
83.9097923133
 20
146.2916219994
 30
0.0
 40
2.800000000000004
100
AcDbArc
 50
180.0
 51
190.2865606115
  0
ARC
  5
189
330
1F
100
AcDbEntity
  8
0
  6
SLD-Сплошная
 62
     7
370
    25
100
AcDbCircle
 10
83.9097923133
 20
146.2916219994
 30
0.0
 40
2.800000000000018
100
AcDbArc
 50
349.7134393885
 51
0.0
  0
LWPOLYLINE
  5
18A
330
1F
100
AcDbEntity
  8
0
  6
SLD-Сплошная
 62
     7
370
    25
100
AcDbPolyline
 90
       45
 70
   128
 43
0.0
 10
49.9097923133
 20
132.7369954649
 10
49.9964204165
 20
135.0798796871
 10
50.2558632893
 20
137.4108251085
 10
50.6867988702
 20
139.7179537652
 10
51.2870312104
 20
141.9895090587
 10
52.0535016633
 20
144.2139156638
 10
52.9823044712
 20
146.3798385142
 10
54.068706668
 20
148.4762405637
 10
55.307172197
 20
150.492439028
 10
56.6913901218
 20
152.4181598217
 10
58.2143067852
 20
154.2435899133
 10
59.8681617529
 20
155.9594273292
 10
61.6445273591
 20
157.5569285555
 10
63.5343516519
 20
159.0279530919
 10
65.5280045198
 20
160.3650049347
 10
67.6153267648
 20
161.5612707742
 10
69.7856818712
 20
162.6106547138
 10
72.0280102069
 20
163.5078093335
 10
74.3308853807
 20
164.248162939
 10
76.6825724685
 20
164.8279428581
 10
79.071087812
 20
165.2441946652
 10
81.4842600845
 20
165.4947972365
 10
83.9097923133
 20
165.5784735587
 10
86.335324542
 20
165.4947972365
 10
88.7484968146
 20
165.2441946652
 10
91.1370121581
 20
164.8279428581
 10
93.4886992459
 20
164.248162939
 10
95.7915744196
 20
163.5078093335
 10
98.0339027553
 20
162.6106547138
 10
100.2042578617
 20
161.5612707742
 10
102.2915801068
 20
160.3650049347
 10
104.2852329747
 20
159.0279530919
 10
106.1750572674
 20
157.5569285555
 10
107.9514228736
 20
155.9594273292
 10
109.6052778413
 20
154.2435899133
 10
111.1281945047
 20
152.4181598217
 10
112.5124124295
 20
150.492439028
 10
113.7508779586
 20
148.4762405637
 10
114.8372801553
 20
146.3798385142
 10
115.7660829633
 20
144.2139156638
 10
116.5325534162
 20
141.9895090587
 10
117.1327857563
 20
139.7179537652
 10
117.5637213372
 20
137.4108251085
 10
117.82316421
 20
135.0798796871
 10
117.9097923133
 20
132.7369954649
  0
LWPOLYLINE
  5
18B
330
1F
100
AcDbEntity
  8
0
  6
SLD-Сплошная
 62
     7
370
    25
100
AcDbPolyline
 90
       45
 70
   128
 43
0.0
 10
117.9097923133
 20
132.7369954649
 10
117.82316421
 20
130.3941112426
 10
117.5637213372
 20
128.0631658213
 10
117.1327857563
 20
125.7560371645
 10
116.5325534162
 20
123.4844818711
 10
115.7660829633
 20
121.260075266
 10
114.8372801553
 20
119.0941524155
 10
113.7508779586
 20
116.997750366
 10
112.5124124295
 20
114.9815519018
 10
111.1281945047
 20
113.055831108
 10
109.6052778413
 20
111.2304010165
 10
107.9514228736
 20
109.5145636005
 10
106.1750572674
 20
107.9170623743
 10
104.2852329747
 20
106.4460378379
 10
102.2915801068
 20
105.108985995
 10
100.2042578617
 20
103.9127201556
 10
98.0339027553
 20
102.863336216
 10
95.7915744196
 20
101.9661815963
 10
93.4886992459
 20
101.2258279907
 10
91.1370121581
 20
100.6460480716
 10
88.7484968146
 20
100.2297962645
 10
86.335324542
 20
99.9791936933
 10
83.9097923133
 20
99.8955173711
 10
81.4842600845
 20
99.9791936933
 10
79.071087812
 20
100.2297962645
 10
76.6825724685
 20
100.6460480716
 10
74.3308853807
 20
101.2258279907
 10
72.0280102069
 20
101.9661815963
 10
69.7856818712
 20
102.863336216
 10
67.6153267648
 20
103.9127201556
 10
65.5280045198
 20
105.108985995
 10
63.5343516519
 20
106.4460378379
 10
61.6445273591
 20
107.9170623743
 10
59.8681617529
 20
109.5145636005
 10
58.2143067852
 20
111.2304010165
 10
56.6913901218
 20
113.055831108
 10
55.307172197
 20
114.9815519018
 10
54.068706668
 20
116.997750366
 10
52.9823044712
 20
119.0941524155
 10
52.0535016633
 20
121.260075266
 10
51.2870312104
 20
123.4844818711
 10
50.6867988702
 20
125.7560371645
 10
50.2558632893
 20
128.0631658213
 10
49.9964204165
 20
130.3941112426
 10
49.9097923133
 20
132.7369954649
  0
ARC
  5
18C
330
1F
100
AcDbEntity
  8
0
  6
SLD-Сплошная
 62
     7
370
    25
100
AcDbCircle
 10
54.9097923133
 20
100.3190241841
 30
0.0
 40
2.250785424654893
100
AcDbArc
 50
1.5136848982
 51
178.4863151018
  0
ARC
  5
18D
330
1F
100
AcDbEntity
  8
0
  6
SLD-Сплошная
 62
     7
370
    25
100
AcDbCircle
 10
54.9097923133
 20
100.4379363843
 30
0.0
 40
2.250785424654896
100
AcDbArc
 50
181.5136848982
 51
358.4863151018
  0
ARC
  5
18E
330
1F
100
AcDbEntity
  8
0
  6
SLD-Сплошная
 62
     7
370
    25
100
AcDbCircle
 10
112.9097923133
 20
163.1042028929
 30
0.0
 40
2.250785424654891
100
AcDbArc
 50
1.5136848982
 51
178.4863151018
  0
ARC
  5
18F
330
1F
100
AcDbEntity
  8
0
  6
SLD-Сплошная
 62
     7
370
    25
100
AcDbCircle
 10
112.9097923133
 20
163.2231150931
 30
0.0
 40
2.250785424654892
100
AcDbArc
 50
181.5136848982
 51
358.4863151018
  0
ARC
  5
190
330
1F
100
AcDbEntity
  8
0
  6
SLD-Сплошная
 62
     7
370
    25
100
AcDbCircle
 10
54.9097923133
 20
163.1042028929
 30
0.0
 40
2.250785424654891
100
AcDbArc
 50
1.5136848982
 51
178.4863151018
  0
ARC
  5
191
330
1F
100
AcDbEntity
  8
0
  6
SLD-Сплошная
 62
     7
370
    25
100
AcDbCircle
 10
54.9097923133
 20
163.2231150931
 30
0.0
 40
2.250785424654892
100
AcDbArc
 50
181.5136848982
 51
358.4863151018
  0
ARC
  5
192
330
1F
100
AcDbEntity
  8
0
  6
SLD-Сплошная
 62
     7
370
    25
100
AcDbCircle
 10
112.9097923133
 20
100.3190241841
 30
0.0
 40
2.25078542465489
100
AcDbArc
 50
1.5136848982
 51
178.4863151018
  0
ARC
  5
193
330
1F
100
AcDbEntity
  8
0
  6
SLD-Сплошная
 62
     7
370
    25
100
AcDbCircle
 10
112.9097923133
 20
100.4379363843
 30
0.0
 40
2.25078542465489
100
AcDbArc
 50
181.5136848982
 51
358.4863151018
  0
LINE
  5
194
330
1F
100
AcDbEntity
  8
0
  6
SLD-Сплошная
 62
     7
370
    25
100
AcDbLine
 10
121.4097923133
 20
167.9932881244
 30
0.0
 11
121.4097923133
 21
95.5488511527
 31
0.0
  0
ARC
  5
195
330
1F
100
AcDbEntity
  8
0
  6
SLD-Сплошная
 62
     7
370
    25
100
AcDbCircle
 10
116.4935264359
 20
95.6355390954
 30
0.0
 40
4.917030097156993
100
AcDbArc
 50
269.0242395005
 51
358.9898148908
  0
LINE
  5
196
330
1F
100
AcDbEntity
  8
0
  6
SLD-Сплошная
 62
     7
370
    25
100
AcDbLine
 10
116.4097923133
 20
90.7192220213
 30
0.0
 11
51.4097923133
 21
90.7192220213
 31
0.0
  0
ARC
  5
197
330
1F
100
AcDbEntity
  8
0
  6
SLD-Сплошная
 62
     7
370
    25
100
AcDbCircle
 10
51.3260581906
 20
95.6355390954
 30
0.0
 40
4.917030097156964
100
AcDbArc
 50
181.0101851092
 51
270.9757604995
  0
LINE
  5
198
330
1F
100
AcDbEntity
  8
0
  6
SLD-Сплошная
 62
     7
370
    25
100
AcDbLine
 10
46.4097923133
 20
95.5488511527
 30
0.0
 11
46.4097923133
 21
167.9932881244
 31
0.0
  0
ARC
  5
199
330
1F
100
AcDbEntity
  8
0
  6
SLD-Сплошная
 62
     7
370
    25
100
AcDbCircle
 10
51.3260581906
 20
167.9066001818
 30
0.0
 40
4.917030097157036
100
AcDbArc
 50
89.0242395005
 51
178.9898148908
  0
LINE
  5
19A
330
1F
100
AcDbEntity
  8
0
  6
SLD-Сплошная
 62
     7
370
    25
100
AcDbLine
 10
51.4097923133
 20
172.8229172559
 30
0.0
 11
116.4097923133
 21
172.8229172559
 31
0.0
  0
ARC
  5
19B
330
1F
100
AcDbEntity
  8
0
  6
SLD-Сплошная
 62
     7
370
    25
100
AcDbCircle
 10
116.4935264359
 20
167.9066001818
 30
0.0
 40
4.917030097156892
100
AcDbArc
 50
1.0101851092
 51
90.9757604995
  0
LINE
  5
19C
330
1F
100
AcDbEntity
  8
0
  6
SLD-Сплошная
 62
     7
370
    25
100
AcDbLine
 10
121.4097923133
 20
167.9932881244
 30
0.0
 11
121.4097923133
 21
170.0638404852
 31
0.0
  0
ARC
  5
19D
330
1F
100
AcDbEntity
  8
0
  6
SLD-Сплошная
 62
     7
370
    25
100
AcDbCircle
 10
116.4935264359
 20
169.9771525426
 30
0.0
 40
4.917030097156949
100
AcDbArc
 50
1.0101851092
 51
90.9757604995
  0
LINE
  5
19E
330
1F
100
AcDbEntity
  8
0
  6
SLD-Сплошная
 62
     7
370
    25
100
AcDbLine
 10
51.4097923133
 20
174.8934696167
 30
0.0
 11
116.4097923133
 21
174.8934696167
 31
0.0
  0
LINE
  5
19F
330
1F
100
AcDbEntity
  8
0
  6
SLD-Сплошная
 62
     7
370
    25
100
AcDbLine
 10
46.4097923133
 20
167.9932881244
 30
0.0
 11
46.4097923133
 21
170.0638404852
 31
0.0
  0
ARC
  5
1A0
330
1F
100
AcDbEntity
  8
0
  6
SLD-Сплошная
 62
     7
370
    25
100
AcDbCircle
 10
51.3260581906
 20
169.9771525426
 30
0.0
 40
4.917030097157032
100
AcDbArc
 50
89.0242395005
 51
178.9898148908
  0
ARC
  5
1A1
330
1F
100
AcDbEntity
  8
0
  6
SLD-Сплошная
 62
     7
370
    25
100
AcDbCircle
 10
112.9097923133
 20
165.3364263973
 30
0.0
 40
2.282024971152195
100
AcDbArc
 50
209.8979655269
 51
330.1020344731
  0
ARC
  5
1A2
330
1F
100
AcDbEntity
  8
0
  6
SLD-Сплошная
 62
     7
370
    25
100
AcDbCircle
 10
54.9097923133
 20
165.3364263973
 30
0.0
 40
2.28202497115223
100
AcDbArc
 50
209.8979655269
 51
330.1020344731
  0
LINE
  5
1A3
330
1F
100
AcDbEntity
  8
0
  6
SLD-Сплошная
 62
     7
370
    25
100
AcDbLine
 10
79.4482630636
 20
159.6082138725
 30
0.0
 11
88.3713215629
 21
159.6082138725
 31
0.0
  0
LWPOLYLINE
  5
1A4
330
1F
100
AcDbEntity
  8
0
  6
SLD-Сплошная
 62
     7
370
    25
100
AcDbPolyline
 90
       45
 70
   128
 43
0.0
 10
117.9086282354
 20
133.0087554619
 10
117.82316421
 20
130.9376312373
 10
117.5637213372
 20
128.606685816
 10
117.1327857563
 20
126.2995571592
 10
116.5325534162
 20
124.0280018658
 10
115.7660829633
 20
121.8035952607
 10
114.8372801553
 20
119.6376724102
 10
113.7508779586
 20
117.5412703607
 10
112.5124124295
 20
115.5250718965
 10
111.1281945047
 20
113.5993511027
 10
109.6052778413
 20
111.7739210112
 10
107.9514228736
 20
110.0580835953
 10
106.1750572674
 20
108.460582369
 10
104.2852329747
 20
106.9895578326
 10
102.2915801068
 20
105.6525059898
 10
100.2042578617
 20
104.4562401503
 10
98.0339027553
 20
103.4068562107
 10
95.7915744196
 20
102.509701591
 10
93.4886992459
 20
101.7693479855
 10
91.1370121581
 20
101.1895680663
 10
88.7484968146
 20
100.7733162593
 10
86.335324542
 20
100.522713688
 10
83.9097923133
 20
100.4390373658
 10
81.4842600845
 20
100.522713688
 10
79.071087812
 20
100.7733162593
 10
76.6825724685
 20
101.1895680663
 10
74.3308853807
 20
101.7693479855
 10
72.0280102069
 20
102.509701591
 10
69.7856818712
 20
103.4068562107
 10
67.6153267648
 20
104.4562401503
 10
65.5280045198
 20
105.6525059898
 10
63.5343516519
 20
106.9895578326
 10
61.6445273591
 20
108.460582369
 10
59.8681617529
 20
110.0580835953
 10
58.2143067852
 20
111.7739210112
 10
56.6913901218
 20
113.5993511027
 10
55.307172197
 20
115.5250718965
 10
54.068706668
 20
117.5412703607
 10
52.9823044712
 20
119.6376724102
 10
52.0535016633
 20
121.8035952607
 10
51.2870312104
 20
124.0280018658
 10
50.6867988702
 20
126.2995571592
 10
50.2558632893
 20
128.606685816
 10
49.9964204165
 20
130.9376312373
 10
49.9109563911
 20
133.008755462
  0
ARC
  5
1A5
330
1F
100
AcDbEntity
  8
0
  6
SLD-Сплошная
 62
     7
370
    25
100
AcDbCircle
 10
83.9097923133
 20
133.8416219994
 30
0.0
 40
26.15000000000002
100
AcDbArc
 50
99.8234605167
 51
180.0
  0
ARC
  5
1A6
330
1F
100
AcDbEntity
  8
0
  6
SLD-Сплошная
 62
     7
370
    25
100
AcDbCircle
 10
83.9097923133
 20
111.3416219994
 30
0.0
 40
6.999999999999981
100
AcDbArc
 50
204.0897195874
 51
335.9102804126
  0
ARC
  5
1A7
330
1F
100
AcDbEntity
  8
0
  6
SLD-Сплошная
 62
     7
370
    25
100
AcDbCircle
 10
83.9097923133
 20
133.8416219994
 30
0.0
 40
26.15000000000002
100
AcDbArc
 50
180.0
 51
255.8552213985
  0
ARC
  5
1A8
330
1F
100
AcDbEntity
  8
0
  6
SLD-Сплошная
 62
     7
370
    25
100
AcDbCircle
 10
83.9097923133
 20
133.8416219994
 30
0.0
 40
26.15000000000002
100
AcDbArc
 50
284.1447786016
 51
80.1765394833
  0
ARC
  5
1A9
330
1F
100
AcDbEntity
  8
0
  6
SLD-Сплошная
 62
     7
370
    25
100
AcDbCircle
 10
112.9097923133
 20
102.5512476886
 30
0.0
 40
2.282024971152227
100
AcDbArc
 50
209.8979655269
 51
330.1020344731
  0
ARC
  5
1AA
330
1F
100
AcDbEntity
  8
0
  6
SLD-Сплошная
 62
     7
370
    25
100
AcDbCircle
 10
54.9097923133
 20
102.5512476886
 30
0.0
 40
2.282024971152154
100
AcDbArc
 50
209.8979655269
 51
330.1020344731
  0
LINE
  5
1AB
330
1F
100
AcDbEntity
  8
0
  6
SLD-Сплошная
 62
     7
370
    25
100
AcDbLine
 10
74.7143886922
 20
137.2253032889
 30
0.0
 11
77.8415499121
 21
137.7081181322
 31
0.0
  0
LINE
  5
1AC
330
1F
100
AcDbEntity
  8
0
  6
SLD-Сплошная
 62
     7
370
    25
100
AcDbLine
 10
77.8415499121
 20
137.7081181322
 30
0.0
 11
78.173404354
 21
137.7593544577
 31
0.0
  0
SPLINE
  5
1AD
330
1F
100
AcDbEntity
  8
0
  6
SLD-Сплошная
 62
     7
370
    25
100
AcDbSpline
210
0.0
220
0.0
230
1.0
 70
     8
 71
     3
 72
    10
 73
     6
 74
     0
 42
0.00000001
 43
0.00000001
 40
0.0
 40
0.0
 40
0.0
 40
0.0
 40
0.5
 40
0.5
 40
1.0
 40
1.0
 40
1.0
 40
1.0
 10
79.41868086371701
 20
180.2320662985346
 30
0.0
 10
79.32982118479677
 20
180.1747983364696
 30
0.0
 10
79.2335493257313
 20
180.0931300376278
 30
0.0
 10
79.07065432818128
 20
179.9096546154902
 30
0.0
 10
79.00596240617348
 20
179.810022701769
 30
0.0
 10
78.96762079318806
 20
179.7240185494055
 30
0.0
  0
SPLINE
  5
1AE
330
1F
100
AcDbEntity
  8
0
  6
SLD-Сплошная
 62
     7
370
    25
100
AcDbSpline
210
0.0
220
0.0
230
1.0
 70
     8
 71
     3
 72
    10
 73
     6
 74
     0
 42
0.00000001
 43
0.00000001
 40
0.0
 40
0.0
 40
0.0
 40
0.0
 40
0.5
 40
0.5
 40
1.0
 40
1.0
 40
1.0
 40
1.0
 10
88.40979231326641
 20
180.2320662985346
 30
0.0
 10
88.49865199218665
 20
180.1747983364696
 30
0.0
 10
88.59492385125213
 20
180.0931300376278
 30
0.0
 10
88.75781884880216
 20
179.9096546154902
 30
0.0
 10
88.82251077080996
 20
179.810022701769
 30
0.0
 10
88.86085238379539
 20
179.7240185494055
 30
0.0
  0
SPLINE
  5
1AF
330
1F
100
AcDbEntity
  8
0
  6
SLD-Сплошная
 62
     7
370
    25
100
AcDbSpline
210
0.0
220
0.0
230
1.0
 70
     8
 71
     3
 72
     8
 73
     4
 74
     0
 42
0.00000001
 43
0.00000001
 40
0.0
 40
0.0
 40
0.0
 40
0.0
 40
1.0
 40
1.0
 40
1.0
 40
1.0
 10
88.90979231326642
 20
179.4925532218209
 30
0.0
 10
88.90979231326642
 20
179.5716685649442
 30
0.0
 10
88.89267061654485
 20
179.6526470049072
 30
0.0
 10
88.86085238379539
 20
179.7240185494055
 30
0.0
  0
LINE
  5
1B0
330
1F
100
AcDbEntity
  8
0
  6
SLD-Сплошная
 62
     7
370
    25
100
AcDbLine
 10
88.9097923133
 20
180.7522805323
 30
0.0
 11
88.9097923133
 21
179.4925532218
 31
0.0
  0
SPLINE
  5
1B1
330
1F
100
AcDbEntity
  8
0
  6
SLD-Сплошная
 62
     7
370
    25
100
AcDbSpline
210
0.0
220
0.0
230
1.0
 70
     8
 71
     3
 72
     8
 73
     4
 74
     0
 42
0.00000001
 43
0.00000001
 40
0.0
 40
0.0
 40
0.0
 40
0.0
 40
1.0
 40
1.0
 40
1.0
 40
1.0
 10
78.918680863717
 20
179.4925532218209
 30
0.0
 10
78.918680863717
 20
179.5716685649442
 30
0.0
 10
78.9358025604386
 20
179.6526470049072
 30
0.0
 10
78.96762079318806
 20
179.7240185494055
 30
0.0
  0
LINE
  5
1B2
330
1F
100
AcDbEntity
  8
0
  6
SLD-Сплошная
 62
     7
370
    25
100
AcDbLine
 10
78.9186808637
 20
179.4925532218
 30
0.0
 11
78.9186808637
 21
180.7522805323
 31
0.0
  0
LINE
  5
1B3
330
1F
100
AcDbEntity
  8
0
  6
SLD-Сплошная
 62
     7
370
    25
100
AcDbLine
 10
78.9186808637
 20
176.2941127602
 30
0.0
 11
78.9186808637
 21
179.4925532218
 31
0.0
  0
LINE
  5
1B4
330
1F
100
AcDbEntity
  8
0
  6
SLD-Сплошная
 62
     7
370
    25
100
AcDbLine
 10
88.9097923133
 20
179.4925532218
 30
0.0
 11
88.9097923133
 21
176.2941127602
 31
0.0
  0
LINE
  5
1B5
330
1F
100
AcDbEntity
  8
0
  6
SLD-Сплошная
 62
     7
370
    25
100
AcDbLine
 10
78.9186808637
 20
174.8934696167
 30
0.0
 11
78.9186808637
 21
176.2941127602
 31
0.0
  0
LINE
  5
1B6
330
1F
100
AcDbEntity
  8
0
  6
SLD-Сплошная
 62
     7
370
    25
100
AcDbLine
 10
88.9097923133
 20
176.2941127602
 30
0.0
 11
88.9097923133
 21
174.8934696167
 31
0.0
  0
LINE
  5
1B7
330
1F
100
AcDbEntity
  8
0
  6
SLD-Сплошная
 62
     7
370
    25
100
AcDbLine
 10
82.1485526434
 20
124.3587470462
 30
0.0
 11
85.3240058756
 21
124.3587470462
 31
0.0
  0
LINE
  5
1B8
330
1F
100
AcDbEntity
  8
0
  6
SLD-Сплошная
 62
     7
370
    25
100
AcDbLine
 10
85.3240058756
 20
124.3587470462
 30
0.0
 11
85.6762620965
 21
124.3587470462
 31
0.0
  0
LINE
  5
1B9
330
1F
100
AcDbEntity
  8
0
  6
SLD-Сплошная
 62
     7
370
    25
100
AcDbLine
 10
89.6474530294
 20
137.7591579517
 30
0.0
 11
92.7733414924
 21
137.2765396145
 31
0.0
  0
LINE
  5
1BA
330
1F
100
AcDbEntity
  8
0
  6
SLD-Сплошная
 62
     7
370
    25
100
AcDbLine
 10
92.7733414924
 20
137.2765396145
 30
0.0
 11
93.1051959344
 21
137.2253032889
 31
0.0
  0
LINE
  5
1BB
330
1F
100
AcDbEntity
  8
0
  6
SLD-Сплошная
 62
     7
370
    25
100
AcDbLine
 10
331.2412032498
 20
172.6916219994
 30
0.0
 11
327.2412032498
 21
172.6916219994
 31
0.0
  0
LINE
  5
1BC
330
1F
100
AcDbEntity
  8
0
  6
SLD-Сплошная
 62
     7
370
    25
100
AcDbLine
 10
307.2412032498
 20
172.6916219994
 30
0.0
 11
303.2412032498
 21
172.6916219994
 31
0.0
  0
ARC
  5
1BD
330
1F
100
AcDbEntity
  8
0
  6
SLD-Сплошная
 62
     7
370
    25
100
AcDbCircle
 10
313.2412032498
 20
174.5128654441
 30
0.0
 40
0.3500000000000227
100
AcDbArc
 50
90.0
 51
180.2774182375
  0
ARC
  5
1BE
330
1F
100
AcDbEntity
  8
0
  6
SLD-Сплошная
 62
     7
370
    25
100
AcDbCircle
 10
321.2412032498
 20
174.5128654441
 30
0.0
 40
0.3500000000000227
100
AcDbArc
 50
0.0
 51
90.0
  0
LINE
  5
1BF
330
1F
100
AcDbEntity
  8
0
  6
SLD-Сплошная
 62
     7
370
    25
100
AcDbLine
 10
321.2412032498
 20
174.8628654441
 30
0.0
 11
313.2412032498
 21
174.8628654441
 31
0.0
  0
ARC
  5
1C0
330
1F
100
AcDbEntity
  8
0
  6
SLD-Сплошная
 62
     7
370
    25
100
AcDbCircle
 10
321.2412032498
 20
176.0771330535
 30
0.0
 40
0.3499999999999943
100
AcDbArc
 50
0.0
 51
90.0
  0
ARC
  5
1C1
330
1F
100
AcDbEntity
  8
0
  6
SLD-Сплошная
 62
     7
370
    25
100
AcDbCircle
 10
313.2412032498
 20
176.0771330535
 30
0.0
 40
0.350000000000031
100
AcDbArc
 50
90.0
 51
180.3652708713
  0
LINE
  5
1C2
330
1F
100
AcDbEntity
  8
0
  6
SLD-Сплошная
 62
     7
370
    25
100
AcDbLine
 10
321.2412032498
 20
176.4271330535
 30
0.0
 11
313.2412032498
 21
176.4271330535
 31
0.0
  0
ARC
  5
1C3
330
1F
100
AcDbEntity
  8
0
  6
SLD-Сплошная
 62
     7
370
    25
100
AcDbCircle
 10
313.2412032498
 20
177.7580455524
 30
0.0
 40
0.3500000000000227
100
AcDbArc
 50
90.0
 51
180.4880130981
  0
ARC
  5
1C4
330
1F
100
AcDbEntity
  8
0
  6
SLD-Сплошная
 62
     7
370
    25
100
AcDbCircle
 10
321.2412032498
 20
177.7580455524
 30
0.0
 40
0.3500000000000227
100
AcDbArc
 50
0.0
 51
90.0
  0
LINE
  5
1C5
330
1F
100
AcDbEntity
  8
0
  6
SLD-Сплошная
 62
     7
370
    25
100
AcDbLine
 10
321.2412032498
 20
178.1080455524
 30
0.0
 11
313.2412032498
 21
178.1080455524
 31
0.0
  0
ARC
  5
1C6
330
1F
100
AcDbEntity
  8
0
  6
SLD-Сплошная
 62
     7
370
    25
100
AcDbCircle
 10
313.2412032498
 20
179.5387938158
 30
0.0
 40
0.3500000000000162
100
AcDbArc
 50
90.0
 51
180.6616614888
  0
ARC
  5
1C7
330
1F
100
AcDbEntity
  8
0
  6
SLD-Сплошная
 62
     7
370
    25
100
AcDbCircle
 10
321.2412032498
 20
179.5387938158
 30
0.0
 40
0.3500000000000227
100
AcDbArc
 50
0.0
 51
90.0
  0
LINE
  5
1C8
330
1F
100
AcDbEntity
  8
0
  6
SLD-Сплошная
 62
     7
370
    25
100
AcDbLine
 10
321.2412032498
 20
179.8887938158
 30
0.0
 11
313.2412032498
 21
179.8887938158
 31
0.0
  0
ARC
  5
1C9
330
1F
100
AcDbEntity
  8
0
  6
SLD-Сплошная
 62
     7
370
    25
100
AcDbCircle
 10
312.7412032498
 20
180.7522805323
 30
0.0
 40
0.5
100
AcDbArc
 50
90.0
 51
180.0
  0
ARC
  5
1CA
330
1F
100
AcDbEntity
  8
0
  6
SLD-Сплошная
 62
     7
370
    25
100
AcDbCircle
 10
321.7323146993
 20
180.7522805323
 30
0.0
 40
0.5000000000000284
100
AcDbArc
 50
0.0
 51
90.0
  0
LINE
  5
1CB
330
1F
100
AcDbEntity
  8
0
  6
SLD-Сплошная
 62
     7
370
    25
100
AcDbLine
 10
321.7323146993
 20
181.2522805323
 30
0.0
 11
312.7412032498
 21
181.2522805323
 31
0.0
  0
LINE
  5
1CC
330
1F
100
AcDbEntity
  8
0
  6
SLD-Сплошная
 62
     7
370
    25
100
AcDbLine
 10
327.1562175793
 20
109.644204971
 30
0.0
 11
327.2412032498
 21
109.6792028324
 31
0.0
  0
LINE
  5
1CD
330
1F
100
AcDbEntity
  8
0
  6
SLD-Сплошная
 62
     7
370
    25
100
AcDbLine
 10
331.2412032498
 20
172.6916219994
 30
0.0
 11
331.2412032498
 21
167.6916219994
 31
0.0
  0
LINE
  5
1CE
330
1F
100
AcDbEntity
  8
0
  6
SLD-Сплошная
 62
     7
370
    25
100
AcDbLine
 10
303.2412032498
 20
167.6916219994
 30
0.0
 11
303.2412032498
 21
155.9283261447
 31
0.0
  0
LINE
  5
1CF
330
1F
100
AcDbEntity
  8
0
  6
SLD-Сплошная
 62
     7
370
    25
100
AcDbLine
 10
331.2412032498
 20
167.6916219994
 30
0.0
 11
331.2412032498
 21
155.9283261447
 31
0.0
  0
LINE
  5
1D0
330
1F
100
AcDbEntity
  8
0
  6
SLD-Сплошная
 62
     7
370
    25
100
AcDbLine
 10
303.2412032498
 20
172.6916219994
 30
0.0
 11
303.2412032498
 21
167.6916219994
 31
0.0
  0
ARC
  5
1D1
330
1F
100
AcDbEntity
  8
0
  6
SLD-Сплошная
 62
     7
370
    25
100
AcDbCircle
 10
284.6574691271
 20
95.6355390954
 30
0.0
 40
4.917030097157006
100
AcDbArc
 50
181.0101851092
 51
270.9757604995
  0
LINE
  5
1D2
330
1F
100
AcDbEntity
  8
0
  6
SLD-Сплошная
 62
     7
370
    25
100
AcDbLine
 10
279.7412032498
 20
95.5488511527
 30
0.0
 11
279.7412032498
 21
97.6194035136
 31
0.0
  0
ARC
  5
1D3
330
1F
100
AcDbEntity
  8
0
  6
SLD-Сплошная
 62
     7
370
    25
100
AcDbCircle
 10
284.6574691271
 20
97.7060914562
 30
0.0
 40
4.917030097157064
100
AcDbArc
 50
181.0101851092
 51
270.9757604995
  0
ARC
  5
1D4
330
1F
100
AcDbEntity
  8
0
  6
SLD-Сплошная
 62
     7
370
    25
100
AcDbCircle
 10
346.2412032498
 20
102.3895765449
 30
0.0
 40
2.250785424654895
100
AcDbArc
 50
1.5136848982
 51
178.4863151018
  0
ARC
  5
1D5
330
1F
100
AcDbEntity
  8
0
  6
SLD-Сплошная
 62
     7
370
    25
100
AcDbCircle
 10
346.2412032498
 20
102.5084887451
 30
0.0
 40
2.250785424654945
100
AcDbArc
 50
181.5136848982
 51
358.4863151018
  0
ARC
  5
1D6
330
1F
100
AcDbEntity
  8
0
  6
SLD-Сплошная
 62
     7
370
    25
100
AcDbCircle
 10
346.2412032498
 20
165.1747552537
 30
0.0
 40
2.250785424654949
100
AcDbArc
 50
1.5136848982
 51
178.4863151018
  0
ARC
  5
1D7
330
1F
100
AcDbEntity
  8
0
  6
SLD-Сплошная
 62
     7
370
    25
100
AcDbCircle
 10
346.2412032498
 20
165.2936674539
 30
0.0
 40
2.250785424654948
100
AcDbArc
 50
181.5136848982
 51
358.4863151018
  0
ARC
  5
1D8
330
1F
100
AcDbEntity
  8
0
  6
SLD-Сплошная
 62
     7
370
    25
100
AcDbCircle
 10
288.2412032498
 20
165.1747552537
 30
0.0
 40
2.250785424654892
100
AcDbArc
 50
1.5136848982
 51
178.4863151018
  0
ARC
  5
1D9
330
1F
100
AcDbEntity
  8
0
  6
SLD-Сплошная
 62
     7
370
    25
100
AcDbCircle
 10
288.2412032498
 20
165.2936674539
 30
0.0
 40
2.25078542465489
100
AcDbArc
 50
181.5136848982
 51
358.4863151018
  0
ARC
  5
1DA
330
1F
100
AcDbEntity
  8
0
  6
SLD-Сплошная
 62
     7
370
    25
100
AcDbCircle
 10
288.2412032498
 20
102.3895765449
 30
0.0
 40
2.250785424654892
100
AcDbArc
 50
1.5136848982
 51
178.4863151018
  0
ARC
  5
1DB
330
1F
100
AcDbEntity
  8
0
  6
SLD-Сплошная
 62
     7
370
    25
100
AcDbCircle
 10
288.2412032498
 20
102.5084887451
 30
0.0
 40
2.250785424654891
100
AcDbArc
 50
181.5136848982
 51
358.4863151018
  0
LINE
  5
1DC
330
1F
100
AcDbEntity
  8
0
  6
SLD-Сплошная
 62
     7
370
    25
100
AcDbLine
 10
354.7412032498
 20
97.6194035136
 30
0.0
 11
354.7412032498
 21
170.0638404852
 31
0.0
  0
ARC
  5
1DD
330
1F
100
AcDbEntity
  8
0
  6
SLD-Сплошная
 62
     7
370
    25
100
AcDbCircle
 10
349.8249373724
 20
97.7060914562
 30
0.0
 40
4.917030097156891
100
AcDbArc
 50
269.0242395005
 51
358.9898148908
  0
LINE
  5
1DE
330
1F
100
AcDbEntity
  8
0
  6
SLD-Сплошная
 62
     7
370
    25
100
AcDbLine
 10
284.7412032498
 20
92.7897743821
 30
0.0
 11
349.7412032498
 21
92.7897743821
 31
0.0
  0
LINE
  5
1DF
330
1F
100
AcDbEntity
  8
0
  6
SLD-Сплошная
 62
     7
370
    25
100
AcDbLine
 10
279.7412032498
 20
170.0638404852
 30
0.0
 11
279.7412032498
 21
97.6194035136
 31
0.0
  0
ARC
  5
1E0
330
1F
100
AcDbEntity
  8
0
  6
SLD-Сплошная
 62
     7
370
    25
100
AcDbCircle
 10
284.6574691271
 20
169.9771525426
 30
0.0
 40
4.917030097157006
100
AcDbArc
 50
89.0242395005
 51
178.9898148908
  0
LINE
  5
1E1
330
1F
100
AcDbEntity
  8
0
  6
SLD-Сплошная
 62
     7
370
    25
100
AcDbLine
 10
349.7412032498
 20
174.8934696167
 30
0.0
 11
322.2323146993
 21
174.8934696167
 31
0.0
  0
LINE
  5
1E2
330
1F
100
AcDbEntity
  8
0
  6
SLD-Сплошная
 62
     7
370
    25
100
AcDbLine
 10
312.2412032498
 20
174.8934696167
 30
0.0
 11
284.7412032498
 21
174.8934696167
 31
0.0
  0
ARC
  5
1E3
330
1F
100
AcDbEntity
  8
0
  6
SLD-Сплошная
 62
     7
370
    25
100
AcDbCircle
 10
349.8249373724
 20
169.9771525426
 30
0.0
 40
4.917030097157031
100
AcDbArc
 50
1.0101851092
 51
90.9757604995
  0
LINE
  5
1E4
330
1F
100
AcDbEntity
  8
0
  6
SLD-Сплошная
 62
     7
370
    25
100
AcDbLine
 10
284.7412032498
 20
90.7192220213
 30
0.0
 11
349.7412032498
 21
90.7192220213
 31
0.0
  0
LINE
  5
1E5
330
1F
100
AcDbEntity
  8
0
  6
SLD-Сплошная
 62
     7
370
    25
100
AcDbLine
 10
354.7412032498
 20
95.5488511527
 30
0.0
 11
354.7412032498
 21
97.6194035136
 31
0.0
  0
ARC
  5
1E6
330
1F
100
AcDbEntity
  8
0
  6
SLD-Сплошная
 62
     7
370
    25
100
AcDbCircle
 10
349.8249373724
 20
95.6355390954
 30
0.0
 40
4.917030097156907
100
AcDbArc
 50
269.0242395005
 51
358.9898148908
  0
ARC
  5
1E7
330
1F
100
AcDbEntity
  8
0
  6
SLD-Сплошная
 62
     7
370
    25
100
AcDbCircle
 10
288.2412032498
 20
100.2762652407
 30
0.0
 40
2.282024971152298
100
AcDbArc
 50
29.897965527
 51
150.102034473
  0
ARC
  5
1E8
330
1F
100
AcDbEntity
  8
0
  6
SLD-Сплошная
 62
     7
370
    25
100
AcDbCircle
 10
346.2412032498
 20
100.2762652407
 30
0.0
 40
2.282024971152298
100
AcDbArc
 50
29.897965527
 51
150.102034473
  0
ARC
  5
1E9
330
1F
100
AcDbEntity
  8
0
  6
SLD-Сплошная
 62
     7
370
    25
100
AcDbCircle
 10
288.2412032498
 20
163.0614439494
 30
0.0
 40
2.28202497115222
100
AcDbArc
 50
29.8979655269
 51
150.1020344731
  0
ARC
  5
1EA
330
1F
100
AcDbEntity
  8
0
  6
SLD-Сплошная
 62
     7
370
    25
100
AcDbCircle
 10
346.2412032498
 20
163.0614439494
 30
0.0
 40
2.28202497115227
100
AcDbArc
 50
29.8979655269
 51
150.1020344731
  0
SPLINE
  5
1EB
330
1F
100
AcDbEntity
  8
0
  6
SLD-Сплошная
 62
     7
370
    25
100
AcDbSpline
210
0.0
220
0.0
230
1.0
 70
    24
 71
     3
 72
     8
 73
     4
 74
     0
 42
0.00000001
 43
0.00000001
 40
0.0
 40
0.0
 40
0.0
 40
0.0
 40
1.0
 40
1.0
 40
1.0
 40
1.0
 10
307.2412032497805
 20
109.6792028324472
 30
0.0
 10
307.2412032497805
 20
107.5077911234982
 30
0.0
 10
307.2412032497805
 20
105.3452641791524
 30
0.0
 10
307.2412032497805
 20
103.1916219994097
 30
0.0
  0
ARC
  5
1EC
330
1F
100
AcDbEntity
  8
0
  6
SLD-Сплошная
 62
     7
370
    25
100
AcDbCircle
 10
317.2412032498
 20
133.8416219994
 30
0.0
 40
26.15000000000002
100
AcDbArc
 50
112.482992737
 51
247.517007263
  0
SPLINE
  5
1ED
330
1F
100
AcDbEntity
  8
0
  6
SLD-Сплошная
 62
     7
370
    25
100
AcDbSpline
210
0.0
220
0.0
230
1.0
 70
     8
 71
     3
 72
    26
 73
    22
 74
     0
 42
0.00000001
 43
0.00000001
 40
0.0
 40
0.0
 40
0.0
 40
0.0
 40
0.0250385587559158
 40
0.0500329400083072
 40
0.0749930609181407
 40
0.0999288752301057
 40
0.1248503618082847
 40
0.1497675130292782
 40
0.1746903230995704
 40
0.1996287763650649
 40
0.2245928356808928
 40
0.2495924309088434
 40
0.3747068114265675
 40
0.4997847879862754
 40
0.6242161250092084
 40
0.7486879726124994
 40
0.7989960680470642
 40
0.8491998175526477
 40
0.8993806800059762
 40
0.9496202757032036
 40
1.0
 40
1.0
 40
1.0
 40
1.0
 10
327.2412032497805
 20
158.0040411663722
 30
0.0
 10
327.0825998472293
 20
158.0686406720581
 30
0.0
 10
326.7656728786163
 20
158.1977257054282
 30
0.0
 10
326.2859642224254
 20
158.3794011454035
 30
0.0
 10
325.8037134308435
 20
158.5520724834985
 30
0.0
 10
325.3185689377709
 20
158.7149096563935
 30
0.0
 10
324.830618406726
 20
158.8681446327186
 30
0.0
 10
324.3398317507868
 20
159.0117248554744
 30
0.0
 10
323.8462089766109
 20
159.1456733690558
 30
0.0
 10
323.3497451013486
 20
159.2699927187803
 30
0.0
 10
322.8504229384217
 20
159.3846895017973
 30
0.0
 10
321.6783628284257
 20
159.6299633440749
 30
0.0
 10
319.8132985626575
 20
159.9077225445433
 30
0.0
 10
317.2501656002478
 20
160.0331297103849
 30
0.0
 10
314.6913552343207
 20
159.909455166493
 30
0.0
 10
312.6633224194704
 20
159.6097481879785
 30
0.0
 10
311.1596645889846
 20
159.2816833958649
 30
0.0
 10
310.1617884708356
 20
159.0226002929818
 30
0.0
 10
309.1757193850848
 20
158.7236649181025
 30
0.0
 10
308.1999796310976
 20
158.3882111559058
 30
0.0
 10
307.5610919615263
 20
158.1322166673942
 30
0.0
 10
307.2412032497805
 20
158.0040411663723
 30
0.0
  0
ARC
  5
1EE
330
1F
100
AcDbEntity
  8
0
  6
SLD-Сплошная
 62
     7
370
    25
100
AcDbCircle
 10
317.2412032498
 20
133.8416219994
 30
0.0
 40
26.15000000000002
100
AcDbArc
 50
292.482992737
 51
67.517007263
  0
SPLINE
  5
1EF
330
1F
100
AcDbEntity
  8
0
  6
SLD-Сплошная
 62
     7
370
    25
100
AcDbSpline
210
0.0
220
0.0
230
1.0
 70
    24
 71
     3
 72
     8
 73
     4
 74
     0
 42
0.00000001
 43
0.00000001
 40
0.0
 40
0.0
 40
0.0
 40
0.0
 40
1.0
 40
1.0
 40
1.0
 40
1.0
 10
327.2412032497805
 20
103.1916219994096
 30
0.0
 10
327.2412032497805
 20
105.3452641791523
 30
0.0
 10
327.2412032497805
 20
107.5077911234982
 30
0.0
 10
327.2412032497805
 20
109.6792028324472
 30
0.0
  0
LINE
  5
1F0
330
1F
100
AcDbEntity
  8
0
  6
SLD-Сплошная
 62
     7
370
    25
100
AcDbLine
 10
307.2412032498
 20
103.1916219994
 30
0.0
 11
327.2412032498
 21
103.1916219994
 31
0.0
  0
LINE
  5
1F1
330
1F
100
AcDbEntity
  8
0
  6
SLD-Сплошная
 62
     7
370
    25
100
AcDbLine
 10
307.2412032498
 20
166.8416219994
 30
0.0
 11
307.2412032498
 21
158.0040411664
 31
0.0
  0
LINE
  5
1F2
330
1F
100
AcDbEntity
  8
0
  6
SLD-Сплошная
 62
     7
370
    25
100
AcDbLine
 10
327.2412032498
 20
166.8416219994
 30
0.0
 11
307.2412032498
 21
166.8416219994
 31
0.0
  0
LINE
  5
1F3
330
1F
100
AcDbEntity
  8
0
  6
SLD-Сплошная
 62
     7
370
    25
100
AcDbLine
 10
327.2412032498
 20
158.0040411664
 30
0.0
 11
327.2412032498
 21
166.8416219994
 31
0.0
  0
LINE
  5
1F4
330
1F
100
AcDbEntity
  8
0
  6
SLD-Сплошная
 62
     7
370
    25
100
AcDbLine
 10
307.2412032498
 20
172.8085651129
 30
0.0
 11
327.2412032498
 21
172.8085651129
 31
0.0
  0
LINE
  5
1F5
330
1F
100
AcDbEntity
  8
0
  6
SLD-Сплошная
 62
     7
370
    25
100
AcDbLine
 10
327.2412032498
 20
172.8085651129
 30
0.0
 11
327.2412032498
 21
166.8416219994
 31
0.0
  0
LINE
  5
1F6
330
1F
100
AcDbEntity
  8
0
  6
SLD-Сплошная
 62
     7
370
    25
100
AcDbLine
 10
307.2412032498
 20
166.8416219994
 30
0.0
 11
307.2412032498
 21
172.8085651129
 31
0.0
  0
LINE
  5
1F7
330
1F
100
AcDbEntity
  8
0
  6
SLD-Сплошная
 62
     7
370
    25
100
AcDbLine
 10
321.7323146993
 20
173.4860174175
 30
0.0
 11
327.2412032498
 21
173.4860174175
 31
0.0
  0
LINE
  5
1F8
330
1F
100
AcDbEntity
  8
0
  6
SLD-Сплошная
 62
     7
370
    25
100
AcDbLine
 10
307.2412032498
 20
173.4860174175
 30
0.0
 11
312.7412032498
 21
173.4860174175
 31
0.0
  0
SPLINE
  5
1F9
330
1F
100
AcDbEntity
  8
0
  6
SLD-Сплошная
 62
     7
370
    25
100
AcDbSpline
210
0.0
220
0.0
230
1.0
 70
     8
 71
     3
 72
    19
 73
    15
 74
     0
 42
0.00000001
 43
0.00000001
 40
0.0
 40
0.0
 40
0.0
 40
0.0
 40
0.098995253306953
 40
0.1923878594570164
 40
0.2794369439226734
 40
0.3597446980317163
 40
0.4332022987925427
 40
0.4999214626417642
 40
0.6477103469182457
 40
0.7491270815294391
 40
0.8742379744242418
 40
0.9370189412725398
 40
0.9684799916417751
 40
0.9999999999999999
 40
0.9999999999999999
 40
0.9999999999999999
 40
0.9999999999999999
 10
312.8912032497805
 20
174.5128654440724
 30
0.0
 10
312.8920156176988
 20
174.4992683252654
 30
0.0
 10
312.8935943774845
 20
174.4728436180733
 30
0.0
 10
312.9056832107495
 20
174.4354762722759
 30
0.0
 10
312.9229163967294
 20
174.4021860578382
 30
0.0
 10
312.9442067721752
 20
174.3733437098025
 30
0.0
 10
312.9677979103903
 20
174.3489239430752
 30
0.0
 10
313.0030992582284
 20
174.3197978028746
 30
0.0
 10
313.0489291384493
 20
174.2929337117092
 30
0.0
 10
313.1101215323807
 20
174.269726639833
 30
0.0
 10
313.1611602851417
 20
174.2582320801261
 30
0.0
 10
313.2009324807156
 20
174.2538851173761
 30
0.0
 10
313.2239013019177
 20
174.2525838446944
 30
0.0
 10
313.2354323356727
 20
174.2524620838624
 30
0.0
 10
313.2412032497805
 20
174.2524011464549
 30
0.0
  0
LINE
  5
1FA
330
1F
100
AcDbEntity
  8
0
  6
SLD-Сплошная
 62
     7
370
    25
100
AcDbLine
 10
313.2412032498
 20
174.2524011465
 30
0.0
 11
321.2412032498
 21
174.2524011465
 31
0.0
  0
SPLINE
  5
1FB
330
1F
100
AcDbEntity
  8
0
  6
SLD-Сплошная
 62
     7
370
    25
100
AcDbSpline
210
0.0
220
0.0
230
1.0
 70
     8
 71
     3
 72
    15
 73
    11
 74
     0
 42
0.00000001
 43
0.00000001
 40
0.0
 40
0.0
 40
0.0
 40
0.0
 40
0.0315686755084306
 40
0.063065058086757
 40
0.1258856466854395
 40
0.2510649714195962
 40
0.3529253482453912
 40
0.5017119771327533
 40
0.7217867801164124
 40
1.0
 40
1.0
 40
1.0
 40
1.0
 10
321.2412032497805
 20
174.2524011464549
 30
0.0
 10
321.2469659569606
 20
174.2524619119961
 30
0.0
 10
321.2584781746004
 20
174.2525833039242
 30
0.0
 10
321.281401330865
 20
174.2538799362591
 30
0.0
 10
321.3210858601805
 20
174.2582092628979
 30
0.0
 10
321.3720566135011
 20
174.2696638624417
 30
0.0
 10
321.4334229117158
 20
174.2928743809935
 30
0.0
 10
321.5010019021732
 20
174.3326937559688
 30
0.0
 10
321.5730844978266
 20
174.4058846595822
 30
0.0
 10
321.5847114683849
 20
174.4745352175641
 30
0.0
 10
321.5912032497805
 20
174.5128654440726
 30
0.0
  0
SPLINE
  5
1FC
330
1F
100
AcDbEntity
  8
0
  6
SLD-Сплошная
 62
     7
370
    25
100
AcDbSpline
210
0.0
220
0.0
230
1.0
 70
     8
 71
     3
 72
    19
 73
    15
 74
     0
 42
0.00000001
 43
0.00000001
 40
0.0
 40
0.0
 40
0.0
 40
0.0
 40
0.0989952535567129
 40
0.1923878598500921
 40
0.2794369443540901
 40
0.359744698403556
 40
0.43320229901747
 40
0.499921462644031
 40
0.647710348339811
 40
0.749127081528033
 40
0.8742379744235365
 40
0.9370189412721822
 40
0.9684799916416093
 40
1.0
 40
1.0
 40
1.0
 40
1.0
 10
312.8912032497805
 20
177.7580455523914
 30
0.0
 10
312.8920156177032
 20
177.7423327510965
 30
0.0
 10
312.8935943774969
 20
177.7117964162244
 30
0.0
 10
312.9056832108075
 20
177.6685713666336
 30
0.0
 10
312.9229163968247
 20
177.6300359854117
 30
0.0
 10
312.9442067722801
 20
177.5966258950319
 30
0.0
 10
312.9677979104645
 20
177.5683217885529
 30
0.0
 10
313.0030992584368
 20
177.5345482946702
 30
0.0
 10
313.0489291386765
 20
177.5033743928564
 30
0.0
 10
313.1101215326328
 20
177.4764398484659
 30
0.0
 10
313.161160285143
 20
177.4630868487872
 30
0.0
 10
313.2009324807161
 20
177.4580359837257
 30
0.0
 10
313.223901301918
 20
177.4565236186666
 30
0.0
 10
313.2354323356727
 20
177.4563820839045
 30
0.0
 10
313.2412032497805
 20
177.4563112502765
 30
0.0
  0
LINE
  5
1FD
330
1F
100
AcDbEntity
  8
0
  6
SLD-Сплошная
 62
     7
370
    25
100
AcDbLine
 10
313.2412032498
 20
177.4563112503
 30
0.0
 11
321.2412032498
 21
177.4563112503
 31
0.0
  0
SPLINE
  5
1FE
330
1F
100
AcDbEntity
  8
0
  6
SLD-Сплошная
 62
     7
370
    25
100
AcDbSpline
210
0.0
220
0.0
230
1.0
 70
     8
 71
     3
 72
    15
 73
    11
 74
     0
 42
0.00000001
 43
0.00000001
 40
0.0
 40
0.0
 40
0.0
 40
0.0
 40
0.03156867614198
 40
0.0630650593524134
 40
0.1258856492118048
 40
0.2510649764582226
 40
0.3529244668781955
 40
0.5017119839796624
 40
0.7217849568222415
 40
1.0
 40
1.0
 40
1.0
 40
1.0
 10
321.2412032497804
 20
177.4563112502765
 30
0.0
 10
321.2469659569602
 20
177.456381883614
 30
0.0
 10
321.2584781745991
 20
177.456522988537
 30
0.0
 10
321.2814013308705
 20
177.4580299532495
 30
0.0
 10
321.3210858601083
 20
177.4630603378814
 30
0.0
 10
321.3720564577745
 20
177.4763668371976
 30
0.0
 10
321.4334227716796
 20
177.5033058328949
 30
0.0
 10
321.5010015420986
 20
177.5495105611743
 30
0.0
 10
321.5730843397736
 20
177.6343632158145
 30
0.0
 10
321.5847113843973
 20
177.7137311273502
 30
0.0
 10
321.5912032497804
 20
177.7580455523914
 30
0.0
  0
SPLINE
  5
1FF
330
1F
100
AcDbEntity
  8
0
  6
SLD-Сплошная
 62
     7
370
    25
100
AcDbSpline
210
0.0
220
0.0
230
1.0
 70
     8
 71
     3
 72
    19
 73
    15
 74
     0
 42
0.00000001
 43
0.00000001
 40
0.0
 40
0.0
 40
0.0
 40
0.0
 40
0.0989952543970889
 40
0.1923878611725029
 40
0.2794369458043365
 40
0.3597446996516753
 40
0.4332022997687912
 40
0.4999214626428912
 40
0.6477103481906504
 40
0.7491270815277032
 40
0.8742379744233625
 40
0.9370189412720915
 40
0.9684799916415544
 40
1.0
 40
1.0
 40
1.0
 40
1.0
 10
312.8912032497805
 20
179.5387938157606
 30
0.0
 10
312.8920156177165
 20
179.5222539441263
 30
0.0
 10
312.8935943775334
 20
179.4901102767639
 30
0.0
 10
312.9056832109947
 20
179.4445911190332
 30
0.0
 10
312.9229163971352
 20
179.4039989745247
 30
0.0
 10
312.9442067726219
 20
179.3687955271471
 30
0.0
 10
312.9677979107018
 20
179.3389647641029
 30
0.0
 10
313.0030992585247
 20
179.3033633678445
 30
0.0
 10
313.0489291386505
 20
179.2704921238864
 30
0.0
 10
313.1101215326049
 20
179.2420891725921
 30
0.0
 10
313.1611602851419
 20
179.2280029139462
 30
0.0
 10
313.2009324807156
 20
179.2226742190113
 30
0.0
 10
313.2239013019177
 20
179.2210785008556
 30
0.0
 10
313.2354323356727
 20
179.2209291560229
 30
0.0
 10
313.2412032497805
 20
179.2208544137041
 30
0.0
  0
LINE
  5
200
330
1F
100
AcDbEntity
  8
0
  6
SLD-Сплошная
 62
     7
370
    25
100
AcDbLine
 10
313.2412032498
 20
179.2208544137
 30
0.0
 11
321.2412032498
 21
179.2208544137
 31
0.0
  0
SPLINE
  5
201
330
1F
100
AcDbEntity
  8
0
  6
SLD-Сплошная
 62
     7
370
    25
100
AcDbSpline
210
0.0
220
0.0
230
1.0
 70
     8
 71
     3
 72
    15
 73
    11
 74
     0
 42
0.00000001
 43
0.00000001
 40
0.0
 40
0.0
 40
0.0
 40
0.0
 40
0.0315686761420603
 40
0.0630650593525757
 40
0.1258856492121357
 40
0.2510649764588785
 40
0.3529244668518267
 40
0.5017119839808618
 40
0.7217849565486409
 40
1.0
 40
1.0
 40
1.0
 40
1.0
 10
321.2412032497804
 20
179.2208544137041
 30
0.0
 10
321.2469659569603
 20
179.2209289444582
 30
0.0
 10
321.2584781745993
 20
179.2210778352894
 30
0.0
 10
321.2814013308711
 20
179.2226678523321
 30
0.0
 10
321.3210858601094
 20
179.2279749452289
 30
0.0
 10
321.3720564577715
 20
179.2420121334371
 30
0.0
 10
321.4334227716777
 20
179.2704199898047
 30
0.0
 10
321.501001542059
 20
179.3191393003042
 30
0.0
 10
321.5730843397525
 20
179.4085772135597
 30
0.0
 10
321.5847113843857
 20
179.4921382138315
 30
0.0
 10
321.5912032497804
 20
179.5387938157606
 30
0.0
  0
SPLINE
  5
202
330
1F
100
AcDbEntity
  8
0
  6
SLD-Сплошная
 62
     7
370
    25
100
AcDbSpline
210
0.0
220
0.0
230
1.0
 70
     8
 71
     3
 72
    19
 73
    15
 74
     0
 42
0.00000001
 43
0.00000001
 40
0.0
 40
0.0
 40
0.0
 40
0.0
 40
0.0989952539814309
 40
0.1923878605182915
 40
0.2794369450866049
 40
0.3597446990335621
 40
0.4332022993959566
 40
0.4999214626417412
 40
0.6477103473186828
 40
0.7491270815287441
 40
0.8742379744238885
 40
0.937018941272367
 40
0.9684799916416992
 40
1.0
 40
1.0
 40
1.0
 40
1.0
 10
312.8912032497805
 20
176.0771330534993
 30
0.0
 10
312.8920156177101
 20
176.0624044503525
 30
0.0
 10
312.8935943775159
 20
176.0337808109974
 30
0.0
 10
312.9056832109031
 20
175.9932821197216
 30
0.0
 10
312.922916396983
 20
175.9571888555539
 30
0.0
 10
312.9442067724544
 20
175.9259062232561
 30
0.0
 10
312.9677979105859
 20
175.8994118147427
 30
0.0
 10
313.0030992583674
 20
175.8678039585632
 30
0.0
 10
313.0489291385152
 20
175.8386391380133
 30
0.0
 10
313.1101215324531
 20
175.8134423458948
 30
0.0
 10
313.1611602851429
 20
175.8009561351356
 30
0.0
 10
313.2009324807161
 20
175.7962336085967
 30
0.0
 10
313.223901301918
 20
175.7948197202849
 30
0.0
 10
313.2354323356727
 20
175.7946874109412
 30
0.0
 10
313.2412032497805
 20
175.7946211943404
 30
0.0
  0
LINE
  5
203
330
1F
100
AcDbEntity
  8
0
  6
SLD-Сплошная
 62
     7
370
    25
100
AcDbLine
 10
313.2412032498
 20
175.7946211943
 30
0.0
 11
321.2412032498
 21
175.7946211943
 31
0.0
  0
SPLINE
  5
204
330
1F
100
AcDbEntity
  8
0
  6
SLD-Сплошная
 62
     7
370
    25
100
AcDbSpline
210
0.0
220
0.0
230
1.0
 70
     8
 71
     3
 72
    15
 73
    11
 74
     0
 42
0.00000001
 43
0.00000001
 40
0.0
 40
0.0
 40
0.0
 40
0.0
 40
0.0315686761422387
 40
0.0630650593529218
 40
0.1258856492128233
 40
0.251064976460232
 40
0.3529244668108924
 40
0.5017119839834044
 40
0.7217849559852164
 40
1.0
 40
1.0
 40
1.0
 40
1.0
 10
321.2412032497804
 20
175.7946211943404
 30
0.0
 10
321.2469659569602
 20
175.7946872239278
 30
0.0
 10
321.2584781745991
 20
175.7948191318933
 30
0.0
 10
321.2814013308705
 20
175.7962279746286
 30
0.0
 10
321.3210858601082
 20
175.8009313471497
 30
0.0
 10
321.3720564577621
 20
175.8133740925749
 30
0.0
 10
321.4334227716685
 20
175.8385748376488
 30
0.0
 10
321.5010015419697
 20
175.8818029363105
 30
0.0
 10
321.5730843397013
 20
175.9612218057273
 30
0.0
 10
321.5847113843589
 20
176.0356029494204
 30
0.0
 10
321.5912032497805
 20
176.0771330534993
 30
0.0
  0
LINE
  5
205
330
1F
100
AcDbEntity
  8
0
  6
SLD-Сплошная
 62
     7
370
    25
100
AcDbLine
 10
327.2412032498
 20
173.4860174175
 30
0.0
 11
327.2412032498
 21
172.8085651129
 31
0.0
  0
LINE
  5
206
330
1F
100
AcDbEntity
  8
0
  6
SLD-Сплошная
 62
     7
370
    25
100
AcDbLine
 10
307.2412032498
 20
172.8085651129
 30
0.0
 11
307.2412032498
 21
173.4860174175
 31
0.0
  0
SPLINE
  5
207
330
1F
100
AcDbEntity
  8
0
  6
SLD-Сплошная
 62
     7
370
    25
100
AcDbSpline
210
0.0
220
0.0
230
1.0
 70
    24
 71
     3
 72
    10
 73
     6
 74
     0
 42
0.00000001
 43
0.00000001
 40
0.0
 40
0.0
 40
0.0
 40
0.0
 40
0.5
 40
0.5
 40
1.0
 40
1.0
 40
1.0
 40
1.0
 10
322.2323146993299
 20
180.7522805323051
 30
0.0
 10
322.2323146993299
 20
179.3947367813681
 30
0.0
 10
322.2323146993299
 20
178.1034473662216
 30
0.0
 10
322.2323146993299
 20
175.6552016028299
 30
0.0
 10
322.2323146993299
 20
174.5240992471562
 30
0.0
 10
322.2323146993299
 20
173.4860174175047
 30
0.0
  0
SPLINE
  5
208
330
1F
100
AcDbEntity
  8
0
  6
SLD-Сплошная
 62
     7
370
    25
100
AcDbSpline
210
0.0
220
0.0
230
1.0
 70
    24
 71
     3
 72
    10
 73
     6
 74
     0
 42
0.00000001
 43
0.00000001
 40
0.0
 40
0.0
 40
0.0
 40
0.0
 40
0.5
 40
0.5
 40
1.0
 40
1.0
 40
1.0
 40
1.0
 10
312.2412032497805
 20
173.4860174175047
 30
0.0
 10
312.2412032497805
 20
174.5238357713721
 30
0.0
 10
312.2412032497805
 20
175.6552421829047
 30
0.0
 10
312.2412032497805
 20
178.1034067861469
 30
0.0
 10
312.2412032497805
 20
179.3943921354067
 30
0.0
 10
312.2412032497805
 20
180.7522805323051
 30
0.0
  0
LINE
  5
209
330
1F
100
AcDbEntity
  8
0
  6
SLD-Сплошная
 62
     7
370
    25
100
AcDbLine
 10
200.128548735
 20
208.9050695707
 30
0.0
 11
207.0323056405
 21
208.9050695707
 31
0.0
  0
LINE
  5
20A
330
1F
100
AcDbEntity
  8
0
  6
SLD-Сплошная
 62
     7
370
    25
100
AcDbLine
 10
170.0323056405
 20
261.2050695707
 30
0.0
 11
165.0323056405
 21
261.2050695707
 31
0.0
  0
LINE
  5
20B
330
1F
100
AcDbEntity
  8
0
  6
SLD-Сплошная
 62
     7
370
    25
100
AcDbLine
 10
174.1245601879
 20
260.8050695707
 30
0.0
 11
170.0323056405
 21
260.8050695707
 31
0.0
  0
LINE
  5
20C
330
1F
100
AcDbEntity
  8
0
  6
SLD-Сплошная
 62
     7
370
    25
100
AcDbLine
 10
177.3301958905
 20
260.8050695707
 30
0.0
 11
176.5287796879
 21
260.8050695707
 31
0.0
  0
LINE
  5
20D
330
1F
100
AcDbEntity
  8
0
  6
SLD-Сплошная
 62
     7
370
    25
100
AcDbLine
 10
180.5358315931
 20
260.8050695707
 30
0.0
 11
179.7344153905
 21
260.8050695707
 31
0.0
  0
LINE
  5
20E
330
1F
100
AcDbEntity
  8
0
  6
SLD-Сплошная
 62
     7
370
    25
100
AcDbLine
 10
183.0202292751
 20
260.8050695707
 30
0.0
 11
182.9400510931
 21
260.8050695707
 31
0.0
  0
LINE
  5
20F
330
1F
100
AcDbEntity
  8
0
  6
SLD-Сплошная
 62
     7
370
    25
100
AcDbLine
 10
176.5287796879
 20
261.2050695707
 30
0.0
 11
174.1245601879
 21
261.2050695707
 31
0.0
  0
LINE
  5
210
330
1F
100
AcDbEntity
  8
0
  6
SLD-Сплошная
 62
     7
370
    25
100
AcDbLine
 10
179.7344153905
 20
261.2050695707
 30
0.0
 11
177.3301958905
 21
261.2050695707
 31
0.0
  0
LINE
  5
211
330
1F
100
AcDbEntity
  8
0
  6
SLD-Сплошная
 62
     7
370
    25
100
AcDbLine
 10
182.9400510931
 20
261.2050695707
 30
0.0
 11
180.5358315931
 21
261.2050695707
 31
0.0
  0
ARC
  5
212
330
1F
100
AcDbEntity
  8
0
  6
SLD-Сплошная
 62
     7
370
    25
100
AcDbCircle
 10
305.0323056405
 20
235.0550695707
 30
0.0
 40
149.9999999999995
100
AcDbArc
 50
169.9601354282
 51
190.0398645718
  0
LINE
  5
213
330
1F
100
AcDbEntity
  8
0
  6
SLD-Сплошная
 62
     7
370
    25
100
AcDbLine
 10
157.3293012702
 20
208.9050695707
 30
0.0
 11
165.0323056405
 21
208.9050695707
 31
0.0
  0
LINE
  5
214
330
1F
100
AcDbEntity
  8
0
  6
SLD-Сплошная
 62
     7
370
    25
100
AcDbLine
 10
165.0323056405
 20
261.2050695707
 30
0.0
 11
157.3293012702
 21
261.2050695707
 31
0.0
  0
LWPOLYLINE
  5
215
330
1F
100
AcDbEntity
  8
0
  6
SLD-Сплошная
 62
     7
370
    25
100
AcDbPolyline
 90
       15
 70
   128
 43
0.0
 10
202.0062643474
 20
269.0550695707
 10
202.6340382827
 20
268.9684414674
 10
203.258613226
 20
268.7089985946
 10
203.8768064864
 20
268.2780630137
 10
204.4854678928
 20
267.6778306736
 10
205.0814958463
 20
266.9113602207
 10
205.6618531249
 20
265.9825574127
 10
206.2235823611
 20
264.896155216
 10
206.7638211114
 20
263.6576896869
 10
207.2798164429
 20
262.2734717621
 10
207.7689389618
 20
260.7505550987
 10
208.2286962117
 20
259.096700131
 10
208.6567453752
 20
257.3203345248
 10
209.0509052118
 20
255.4305102321
 10
209.1320067296
 20
255.0050695707
  0
LWPOLYLINE
  5
216
330
1F
100
AcDbEntity
  8
0
  6
SLD-Сплошная
 62
     7
370
    25
100
AcDbPolyline
 90
       15
 70
   128
 43
0.0
 10
209.1320067296
 20
215.1050695707
 10
209.0509052118
 20
214.6796289093
 10
208.6567453752
 20
212.7898046165
 10
208.2286962117
 20
211.0134390103
 10
207.7689389618
 20
209.3595840426
 10
207.2798164429
 20
207.8366673793
 10
206.7638211114
 20
206.4524494544
 10
206.2235823611
 20
205.2139839254
 10
205.6618531249
 20
204.1275817286
 10
205.0814958463
 20
203.1987789207
 10
204.4854678928
 20
202.4323084678
 10
203.8768064864
 20
201.8320761277
 10
203.258613226
 20
201.4011405467
 10
202.6340382827
 20
201.1416976739
 10
202.0062643474
 20
201.0550695707
  0
LWPOLYLINE
  5
217
330
1F
100
AcDbEntity
  8
0
  6
SLD-Сплошная
 62
     7
370
    25
100
AcDbPolyline
 90
       45
 70
   128
 43
0.0
 10
202.0062643474
 20
201.0550695707
 10
201.3784904121
 20
201.1416976739
 10
200.7539154688
 20
201.4011405467
 10
200.1357222084
 20
201.8320761277
 10
199.527060802
 20
202.4323084678
 10
198.9310328485
 20
203.1987789207
 10
198.3506755699
 20
204.1275817286
 10
197.7889463337
 20
205.2139839254
 10
197.2487075834
 20
206.4524494544
 10
196.7327122519
 20
207.8366673793
 10
196.243589733
 20
209.3595840426
 10
195.7838324831
 20
211.0134390103
 10
195.3557833196
 20
212.7898046165
 10
194.961623483
 20
214.6796289093
 10
194.6033615215
 20
216.6732817772
 10
194.2828230559
 20
218.7606040222
 10
194.0016414767
 20
220.9309591286
 10
193.7612496209
 20
223.1732874643
 10
193.5628724701
 20
225.4761626381
 10
193.407520909
 20
227.8278497259
 10
193.2959865735
 20
230.2163650694
 10
193.2288378169
 20
232.6295373419
 10
193.2064168139
 20
235.0550695707
 10
193.2288378169
 20
237.4806017995
 10
193.2959865735
 20
239.893774072
 10
193.407520909
 20
242.2822894155
 10
193.5628724701
 20
244.6339765033
 10
193.7612496209
 20
246.9368516771
 10
194.0016414767
 20
249.1791800128
 10
194.2828230559
 20
251.3495351192
 10
194.6033615215
 20
253.4368573642
 10
194.961623483
 20
255.4305102321
 10
195.3557833196
 20
257.3203345248
 10
195.7838324831
 20
259.096700131
 10
196.243589733
 20
260.7505550987
 10
196.7327122519
 20
262.2734717621
 10
197.2487075834
 20
263.6576896869
 10
197.7889463337
 20
264.896155216
 10
198.3506755699
 20
265.9825574127
 10
198.9310328485
 20
266.9113602207
 10
199.527060802
 20
267.6778306736
 10
200.1357222084
 20
268.2780630137
 10
200.7539154688
 20
268.7089985946
 10
201.3784904121
 20
268.9684414674
 10
202.0062643474
 20
269.0550695707
  0
LWPOLYLINE
  5
218
330
1F
100
AcDbEntity
  8
0
  6
SLD-Сплошная
 62
     7
370
    25
100
AcDbPolyline
 90
       12
 70
   128
 43
0.0
 10
193.3358263365
 20
266.3050695707
 10
193.499891277
 20
266.2139287613
 10
193.6506646517
 20
265.9478900196
 10
193.7759316986
 20
265.5285062221
 10
193.8655440264
 20
264.9897533499
 10
193.9122417774
 20
264.3752779568
 10
193.9122417774
 20
263.7348611846
 10
193.8655440264
 20
263.1203857914
 10
193.7759316986
 20
262.5816329193
 10
193.6506646517
 20
262.1622491218
 10
193.499891277
 20
261.8962103801
 10
193.3358263365
 20
261.8050695707
  0
LWPOLYLINE
  5
219
330
1F
100
AcDbEntity
  8
0
  6
SLD-Сплошная
 62
     7
370
    25
100
AcDbPolyline
 90
       12
 70
   128
 43
0.0
 10
193.3358263365
 20
261.8050695707
 10
193.171761396
 20
261.8962103801
 10
193.0209880212
 20
262.1622491218
 10
192.8957209743
 20
262.5816329193
 10
192.8061086465
 20
263.1203857914
 10
192.7594108955
 20
263.7348611846
 10
192.7594108955
 20
264.3752779568
 10
192.8061086465
 20
264.9897533499
 10
192.8957209743
 20
265.5285062221
 10
193.0209880212
 20
265.9478900196
 10
193.171761396
 20
266.2139287613
 10
193.3358263365
 20
266.3050695707
  0
LWPOLYLINE
  5
21A
330
1F
100
AcDbEntity
  8
0
  6
SLD-Сплошная
 62
     7
370
    25
100
AcDbPolyline
 90
       12
 70
   128
 43
0.0
 10
210.1590642681
 20
208.3050695707
 10
210.3231292086
 20
208.2139287613
 10
210.4739025834
 20
207.9478900196
 10
210.5991696303
 20
207.5285062221
 10
210.6887819581
 20
206.9897533499
 10
210.7354797091
 20
206.3752779568
 10
210.7354797091
 20
205.7348611846
 10
210.6887819581
 20
205.1203857914
 10
210.5991696303
 20
204.5816329193
 10
210.4739025834
 20
204.1622491218
 10
210.3231292086
 20
203.8962103801
 10
210.1590642681
 20
203.8050695707
  0
LWPOLYLINE
  5
21B
330
1F
100
AcDbEntity
  8
0
  6
SLD-Сплошная
 62
     7
370
    25
100
AcDbPolyline
 90
       12
 70
   128
 43
0.0
 10
210.1590642681
 20
203.8050695707
 10
209.9949993276
 20
203.8962103801
 10
209.8442259529
 20
204.1622491218
 10
209.718958906
 20
204.5816329193
 10
209.6293465782
 20
205.1203857914
 10
209.5826488272
 20
205.7348611846
 10
209.5826488272
 20
206.3752779568
 10
209.6293465782
 20
206.9897533499
 10
209.718958906
 20
207.5285062221
 10
209.8442259529
 20
207.9478900196
 10
209.9949993276
 20
208.2139287613
 10
210.1590642681
 20
208.3050695707
  0
LWPOLYLINE
  5
21C
330
1F
100
AcDbEntity
  8
0
  6
SLD-Сплошная
 62
     7
370
    25
100
AcDbPolyline
 90
       12
 70
   128
 43
0.0
 10
210.1590642681
 20
266.3050695707
 10
210.3231292086
 20
266.2139287613
 10
210.4739025834
 20
265.9478900196
 10
210.5991696303
 20
265.5285062221
 10
210.6887819581
 20
264.9897533499
 10
210.7354797091
 20
264.3752779568
 10
210.7354797091
 20
263.7348611846
 10
210.6887819581
 20
263.1203857914
 10
210.5991696303
 20
262.5816329193
 10
210.4739025834
 20
262.1622491218
 10
210.3231292086
 20
261.8962103801
 10
210.1590642681
 20
261.8050695707
  0
LWPOLYLINE
  5
21D
330
1F
100
AcDbEntity
  8
0
  6
SLD-Сплошная
 62
     7
370
    25
100
AcDbPolyline
 90
       12
 70
   128
 43
0.0
 10
210.1590642681
 20
261.8050695707
 10
209.9949993276
 20
261.8962103801
 10
209.8442259529
 20
262.1622491218
 10
209.718958906
 20
262.5816329193
 10
209.6293465782
 20
263.1203857914
 10
209.5826488272
 20
263.7348611846
 10
209.5826488272
 20
264.3752779568
 10
209.6293465782
 20
264.9897533499
 10
209.718958906
 20
265.5285062221
 10
209.8442259529
 20
265.9478900196
 10
209.9949993276
 20
266.2139287613
 10
210.1590642681
 20
266.3050695707
  0
LWPOLYLINE
  5
21E
330
1F
100
AcDbEntity
  8
0
  6
SLD-Сплошная
 62
     7
370
    25
100
AcDbPolyline
 90
       12
 70
   128
 43
0.0
 10
193.3358263365
 20
208.3050695707
 10
193.499891277
 20
208.2139287613
 10
193.6506646517
 20
207.9478900196
 10
193.7759316986
 20
207.5285062221
 10
193.8655440264
 20
206.9897533499
 10
193.9122417774
 20
206.3752779568
 10
193.9122417774
 20
205.7348611846
 10
193.8655440264
 20
205.1203857914
 10
193.7759316986
 20
204.5816329193
 10
193.6506646517
 20
204.1622491218
 10
193.499891277
 20
203.8962103801
 10
193.3358263365
 20
203.8050695707
  0
LWPOLYLINE
  5
21F
330
1F
100
AcDbEntity
  8
0
  6
SLD-Сплошная
 62
     7
370
    25
100
AcDbPolyline
 90
       12
 70
   128
 43
0.0
 10
193.3358263365
 20
203.8050695707
 10
193.171761396
 20
203.8962103801
 10
193.0209880212
 20
204.1622491218
 10
192.8957209743
 20
204.5816329193
 10
192.8061086465
 20
205.1203857914
 10
192.7594108955
 20
205.7348611846
 10
192.7594108955
 20
206.3752779568
 10
192.8061086465
 20
206.9897533499
 10
192.8957209743
 20
207.5285062221
 10
193.0209880212
 20
207.9478900196
 10
193.171761396
 20
208.2139287613
 10
193.3358263365
 20
208.3050695707
  0
LINE
  5
220
330
1F
100
AcDbEntity
  8
0
  6
SLD-Сплошная
 62
     7
370
    25
100
AcDbLine
 10
211.4531594936
 20
197.5550695707
 30
0.0
 11
192.041731111
 21
197.5550695707
 31
0.0
  0
LWPOLYLINE
  5
221
330
1F
100
AcDbEntity
  8
0
  6
SLD-Сплошная
 62
     7
370
    25
100
AcDbPolyline
 90
        9
 70
   128
 43
0.0
 10
192.041731111
 20
197.5550695707
 10
191.7892656567
 20
197.6511431687
 10
191.5465023082
 20
197.9356719081
 10
191.322770325
 20
198.3977215092
 10
191.1266676015
 20
199.0195356648
 10
190.9657302555
 20
199.7772184056
 10
190.846143019
 20
200.6416524089
 10
190.7725015623
 20
201.5796179606
 10
190.7476358854
 20
202.5550695707
  0
LINE
  5
222
330
1F
100
AcDbEntity
  8
0
  6
SLD-Сплошная
 62
     7
370
    25
100
AcDbLine
 10
190.7476358854
 20
202.5550695707
 30
0.0
 11
190.7476358854
 21
267.5550695707
 31
0.0
  0
LWPOLYLINE
  5
223
330
1F
100
AcDbEntity
  8
0
  6
SLD-Сплошная
 62
     7
370
    25
100
AcDbPolyline
 90
        9
 70
   128
 43
0.0
 10
190.7476358854
 20
267.5550695707
 10
190.7725015623
 20
268.5305211808
 10
190.846143019
 20
269.4684867325
 10
190.9657302555
 20
270.3329207358
 10
191.1266676015
 20
271.0906034766
 10
191.322770325
 20
271.7124176322
 10
191.5465023082
 20
272.1744672332
 10
191.7892656567
 20
272.4589959727
 10
192.041731111
 20
272.5550695707
  0
LINE
  5
224
330
1F
100
AcDbEntity
  8
0
  6
SLD-Сплошная
 62
     7
370
    25
100
AcDbLine
 10
192.041731111
 20
272.5550695707
 30
0.0
 11
211.4531594936
 21
272.5550695707
 31
0.0
  0
LWPOLYLINE
  5
225
330
1F
100
AcDbEntity
  8
0
  6
SLD-Сплошная
 62
     7
370
    25
100
AcDbPolyline
 90
        9
 70
   128
 43
0.0
 10
211.4531594936
 20
272.5550695707
 10
211.7056249479
 20
272.4589959727
 10
211.9483882963
 20
272.1744672332
 10
212.1721202796
 20
271.7124176322
 10
212.3682230031
 20
271.0906034766
 10
212.5291603491
 20
270.3329207358
 10
212.6487475856
 20
269.4684867325
 10
212.7223890423
 20
268.5305211808
 10
212.7472547192
 20
267.5550695707
  0
LINE
  5
226
330
1F
100
AcDbEntity
  8
0
  6
SLD-Сплошная
 62
     7
370
    25
100
AcDbLine
 10
212.7472547192
 20
267.5550695707
 30
0.0
 11
212.7472547192
 21
255.0050695707
 31
0.0
  0
LINE
  5
227
330
1F
100
AcDbEntity
  8
0
  6
SLD-Сплошная
 62
     7
370
    25
100
AcDbLine
 10
212.7472547192
 20
215.1050695707
 30
0.0
 11
212.7472547192
 21
202.5550695707
 31
0.0
  0
LWPOLYLINE
  5
228
330
1F
100
AcDbEntity
  8
0
  6
SLD-Сплошная
 62
     7
370
    25
100
AcDbPolyline
 90
        9
 70
   128
 43
0.0
 10
212.7472547192
 20
202.5550695707
 10
212.7223890423
 20
201.5796179606
 10
212.6487475856
 20
200.6416524089
 10
212.5291603491
 20
199.7772184056
 10
212.3682230031
 20
199.0195356648
 10
212.1721202796
 20
198.3977215092
 10
211.9483882963
 20
197.9356719081
 10
211.7056249479
 20
197.6511431687
 10
211.4531594936
 20
197.5550695707
  0
LINE
  5
229
330
1F
100
AcDbEntity
  8
0
  6
SLD-Сплошная
 62
     7
370
    25
100
AcDbLine
 10
192.041731111
 20
197.5550695707
 30
0.0
 11
184.3143245006
 21
197.5550695707
 31
0.0
  0
LWPOLYLINE
  5
22A
330
1F
100
AcDbEntity
  8
0
  6
SLD-Сплошная
 62
     7
370
    25
100
AcDbPolyline
 90
        9
 70
   128
 43
0.0
 10
184.3143245006
 20
197.5550695707
 10
184.0618590464
 20
197.6511431687
 10
183.8190956979
 20
197.9356719081
 10
183.5953637147
 20
198.3977215092
 10
183.3992609912
 20
199.0195356648
 10
183.2383236452
 20
199.7772184056
 10
183.1187364087
 20
200.6416524089
 10
183.045094952
 20
201.5796179606
 10
183.0202292751
 20
202.5550695707
  0
LINE
  5
22B
330
1F
100
AcDbEntity
  8
0
  6
SLD-Сплошная
 62
     7
370
    25
100
AcDbLine
 10
183.0202292751
 20
202.5550695707
 30
0.0
 11
183.0202292751
 21
267.5550695707
 31
0.0
  0
LINE
  5
22C
330
1F
100
AcDbEntity
  8
0
  6
SLD-Сплошная
 62
     7
370
    25
100
AcDbLine
 10
192.041731111
 20
272.5550695707
 30
0.0
 11
184.3143245006
 21
272.5550695707
 31
0.0
  0
LWPOLYLINE
  5
22D
330
1F
100
AcDbEntity
  8
0
  6
SLD-Сплошная
 62
     7
370
    25
100
AcDbPolyline
 90
        9
 70
   128
 43
0.0
 10
183.0202292751
 20
267.5550695707
 10
183.045094952
 20
268.5305211808
 10
183.1187364087
 20
269.4684867325
 10
183.2383236452
 20
270.3329207358
 10
183.3992609912
 20
271.0906034766
 10
183.5953637147
 20
271.7124176322
 10
183.8190956979
 20
272.1744672332
 10
184.0618590464
 20
272.4589959727
 10
184.3143245006
 20
272.5550695707
  0
SPLINE
  5
22E
330
1F
100
AcDbEntity
  8
0
  6
SLD-Сплошная
 62
     7
370
    25
100
AcDbSpline
210
0.0
220
0.0
230
1.0
 70
     8
 71
     3
 72
    18
 73
    14
 74
     0
 42
0.00000001
 43
0.00000001
 40
0.0
 40
0.0
 40
0.0
 40
0.0
 40
0.0130068580129677
 40
0.1003216420880865
 40
0.1946192884973456
 40
0.2960797343462875
 40
0.4046722162106913
 40
0.5004197191519475
 40
0.6005394589127588
 40
0.704472225963503
 40
0.811467143627676
 40
0.9206008608034707
 40
1.0
 40
1.0
 40
1.0
 40
1.0
 10
193.5091220011777
 20
226.5318003778638
 30
0.0
 10
193.5201452101496
 20
226.3948000450743
 30
0.0
 10
193.6051670058856
 20
225.3381191511675
 30
0.0
 10
193.8455064129352
 20
223.3905882419444
 30
0.0
 10
194.2508757766387
 20
220.6874793543247
 30
0.0
 10
194.784873738586
 20
218.0254791871172
 30
0.0
 10
195.4056735374309
 20
215.6413016725947
 30
0.0
 10
196.0962112117143
 20
213.5899966565026
 30
0.0
 10
196.8337298969462
 20
211.8982876466994
 30
0.0
 10
197.6491010495651
 20
210.5156412600108
 30
0.0
 10
198.5277789830702
 20
209.5278521106033
 30
0.0
 10
199.3629413274515
 20
208.968662768577
 30
0.0
 10
199.9016681453996
 20
208.9575692169456
 30
0.0
 10
200.1285487349701
 20
208.9528972543651
 30
0.0
  0
SPLINE
  5
22F
330
1F
100
AcDbEntity
  8
0
  6
SLD-Сплошная
 62
     7
370
    25
100
AcDbSpline
210
0.0
220
0.0
230
1.0
 70
     8
 71
     3
 72
    16
 73
    12
 74
     0
 42
0.00000001
 43
0.00000001
 40
0.0
 40
0.0
 40
0.0
 40
0.0
 40
0.1118454467640663
 40
0.2278817789024243
 40
0.3468936350308041
 40
0.4674743808546917
 40
0.5881304695041606
 40
0.7052939914896329
 40
0.8198636276478061
 40
0.9307844015723044
 40
1.0
 40
1.0
 40
1.0
 40
1.0
 10
200.128168156405
 20
261.2050695706882
 30
0.0
 10
199.7994178502343
 20
261.1550205957465
 30
0.0
 10
199.1295988566822
 20
261.0530472944459
 30
0.0
 10
198.1290698268869
 20
260.2116159739243
 30
0.0
 10
197.1446294943636
 20
258.828788845748
 30
0.0
 10
196.2119476493324
 20
256.8629734156999
 30
0.0
 10
195.3711944014943
 20
254.3912823350412
 30
0.0
 10
194.6474652013543
 20
251.5082171258475
 30
0.0
 10
194.0657384921238
 20
248.3240235963663
 30
0.0
 10
193.6574832796018
 20
245.3507189682836
 30
0.0
 10
193.4995972484105
 20
243.3969555246894
 30
0.0
 10
193.4389311209117
 20
242.646241473059
 30
0.0
  0
LWPOLYLINE
  5
230
330
1F
100
AcDbEntity
  8
0
  6
SLD-Сплошная
 62
     7
370
    25
100
AcDbPolyline
 90
       10
 70
   128
 43
0.0
 10
200.9920422298
 20
268.828493382
 10
201.2301689908
 20
268.7089985946
 10
201.8483622512
 20
268.2780630137
 10
202.4570236576
 20
267.6778306736
 10
203.0530516111
 20
266.9113602207
 10
203.6334088897
 20
265.9825574127
 10
204.1951381259
 20
264.896155216
 10
204.7353768762
 20
263.6576896869
 10
205.2513722077
 20
262.2734717621
 10
205.6018662493
 20
261.2050695707
  0
LINE
  5
231
330
1F
100
AcDbEntity
  8
0
  6
SLD-Сплошная
 62
     7
370
    25
100
AcDbLine
 10
207.0323056405
 20
255.3795998287
 30
0.0
 11
207.1035624944
 21
255.0050695707
 31
0.0
  0
LINE
  5
232
330
1F
100
AcDbEntity
  8
0
  6
SLD-Сплошная
 62
     7
370
    25
100
AcDbLine
 10
207.1035624944
 20
215.1050695707
 30
0.0
 11
207.0323056405
 21
214.7305393127
 31
0.0
  0
LWPOLYLINE
  5
233
330
1F
100
AcDbEntity
  8
0
  6
SLD-Сплошная
 62
     7
370
    25
100
AcDbPolyline
 90
       10
 70
   128
 43
0.0
 10
205.6018662493
 20
208.9050695707
 10
205.2513722077
 20
207.8366673793
 10
204.7353768762
 20
206.4524494544
 10
204.1951381259
 20
205.2139839254
 10
203.6334088897
 20
204.1275817286
 10
203.0530516111
 20
203.1987789207
 10
202.4570236576
 20
202.4323084678
 10
201.8483622512
 20
201.8320761277
 10
201.2301689908
 20
201.4011405467
 10
200.9920422298
 20
201.2816457594
  0
LINE
  5
234
330
1F
100
AcDbEntity
  8
0
  6
SLD-Сплошная
 62
     7
370
    25
100
AcDbLine
 10
183.0202292751
 20
228.6647175742
 30
0.0
 11
165.0323056405
 21
228.6647175742
 31
0.0
  0
LINE
  5
235
330
1F
100
AcDbEntity
  8
0
  6
SLD-Сплошная
 62
     7
370
    25
100
AcDbLine
 10
183.0202292751
 20
241.4454215672
 30
0.0
 11
165.0323056405
 21
241.4454215672
 31
0.0
  0
LINE
  5
236
330
1F
100
AcDbEntity
  8
0
  6
SLD-Сплошная
 62
     7
370
    25
100
AcDbLine
 10
207.0323056405
 20
241.4454215672
 30
0.0
 11
193.3632450135
 21
241.4454215672
 31
0.0
  0
LINE
  5
237
330
1F
100
AcDbEntity
  8
0
  6
SLD-Сплошная
 62
     7
370
    25
100
AcDbLine
 10
207.0323056405
 20
241.4454215672
 30
0.0
 11
207.0323056405
 21
228.6647175742
 31
0.0
  0
LINE
  5
238
330
1F
100
AcDbEntity
  8
0
  6
SLD-Сплошная
 62
     7
370
    25
100
AcDbLine
 10
207.0323056405
 20
228.6647175742
 30
0.0
 11
193.3632450135
 21
228.6647175742
 31
0.0
  0
LINE
  5
239
330
1F
100
AcDbEntity
  8
0
  6
SLD-Сплошная
 62
     7
370
    25
100
AcDbLine
 10
207.0323056405
 20
208.9050695707
 30
0.0
 11
207.0323056405
 21
228.6647175742
 31
0.0
  0
LINE
  5
23A
330
1F
100
AcDbEntity
  8
0
  6
SLD-Сплошная
 62
     7
370
    25
100
AcDbLine
 10
170.0323056405
 20
257.4175554062
 30
0.0
 11
183.0202292751
 21
257.4175554062
 31
0.0
  0
LINE
  5
23B
330
1F
100
AcDbEntity
  8
0
  6
SLD-Сплошная
 62
     7
370
    25
100
AcDbLine
 10
170.0323056405
 20
257.4175554062
 30
0.0
 11
170.0323056405
 21
261.2050695707
 31
0.0
  0
LINE
  5
23C
330
1F
100
AcDbEntity
  8
0
  6
SLD-Сплошная
 62
     7
370
    25
100
AcDbLine
 10
183.0202292751
 20
208.9050695707
 30
0.0
 11
165.0323056405
 21
208.9050695707
 31
0.0
  0
LINE
  5
23D
330
1F
100
AcDbEntity
  8
0
  6
SLD-Сплошная
 62
     7
370
    25
100
AcDbLine
 10
165.0323056405
 20
241.4454215672
 30
0.0
 11
165.0323056405
 21
261.2050695707
 31
0.0
  0
LINE
  5
23E
330
1F
100
AcDbEntity
  8
0
  6
SLD-Сплошная
 62
     7
370
    25
100
AcDbLine
 10
165.0323056405
 20
208.9050695707
 30
0.0
 11
165.0323056405
 21
228.6647175742
 31
0.0
  0
LINE
  5
23F
330
1F
100
AcDbEntity
  8
0
  6
SLD-Сплошная
 62
     7
370
    25
100
AcDbLine
 10
207.0323056405
 20
261.2050695707
 30
0.0
 11
200.1281681564
 21
261.2050695707
 31
0.0
  0
LINE
  5
240
330
1F
100
AcDbEntity
  8
0
  6
SLD-Сплошная
 62
     7
370
    25
100
AcDbLine
 10
207.0323056405
 20
241.4454215672
 30
0.0
 11
207.0323056405
 21
261.2050695707
 31
0.0
  0
LINE
  5
241
330
1F
100
AcDbEntity
  8
0
  6
SLD-Сплошная
 62
     7
370
    25
100
AcDbLine
 10
207.0323056405
 20
215.1050695707
 30
0.0
 11
229.5323056405
 21
215.1050695707
 31
0.0
  0
LINE
  5
242
330
1F
100
AcDbEntity
  8
0
  6
SLD-Сплошная
 62
     7
370
    25
100
AcDbLine
 10
207.0323056405
 20
255.0050695707
 30
0.0
 11
229.5323056405
 21
255.0050695707
 31
0.0
  0
LINE
  5
243
330
1F
100
AcDbEntity
  8
0
  6
SLD-Сплошная
 62
     7
370
    25
100
AcDbLine
 10
229.5323056405
 20
215.1050695707
 30
0.0
 11
229.5323056405
 21
255.0050695707
 31
0.0
  0
LINE
  5
244
330
1F
100
AcDbEntity
  8
0
  6
SLD-Сплошная
 62
     7
370
    25
100
AcDbLine
 10
246.0323056405
 20
243.5550695707
 30
0.0
 11
229.5323056405
 21
243.5550695707
 31
0.0
  0
LINE
  5
245
330
1F
100
AcDbEntity
  8
0
  6
SLD-Сплошная
 62
     7
370
    25
100
AcDbLine
 10
246.0323056405
 20
243.5550695707
 30
0.0
 11
246.0323056405
 21
226.5550695707
 31
0.0
  0
LINE
  5
246
330
1F
100
AcDbEntity
  8
0
  6
SLD-Сплошная
 62
     7
370
    25
100
AcDbLine
 10
246.0323056405
 20
226.5550695707
 30
0.0
 11
229.5323056405
 21
226.5550695707
 31
0.0
  0
LINE
  5
247
330
1F
100
AcDbEntity
  8
0
  6
SLD-Сплошная
 62
     7
370
    25
100
AcDbLine
 10
174.1245601879
 20
258.3821309535
 30
0.0
 11
176.5287796879
 21
258.3821309535
 31
0.0
  0
LINE
  5
248
330
1F
100
AcDbEntity
  8
0
  6
SLD-Сплошная
 62
     7
370
    25
100
AcDbLine
 10
177.3301958905
 20
258.3821309535
 30
0.0
 11
182.9400510931
 21
258.3821309535
 31
0.0
  0
LINE
  5
249
330
1F
100
AcDbEntity
  8
0
  6
SLD-Сплошная
 62
     7
370
    25
100
AcDbLine
 10
174.1245601879
 20
258.822942693
 30
0.0
 11
176.5287796879
 21
258.822942693
 31
0.0
  0
LINE
  5
24A
330
1F
100
AcDbEntity
  8
0
  6
SLD-Сплошная
 62
     7
370
    25
100
AcDbLine
 10
176.5287796879
 20
258.3821309535
 30
0.0
 11
176.5287796879
 21
258.822942693
 31
0.0
  0
LINE
  5
24B
330
1F
100
AcDbEntity
  8
0
  6
SLD-Сплошная
 62
     7
370
    25
100
AcDbLine
 10
174.1245601879
 20
258.3821309535
 30
0.0
 11
174.1245601879
 21
258.822942693
 31
0.0
  0
LINE
  5
24C
330
1F
100
AcDbEntity
  8
0
  6
SLD-Сплошная
 62
     7
370
    25
100
AcDbLine
 10
177.3301958905
 20
258.822942693
 30
0.0
 11
182.9400510931
 21
258.822942693
 31
0.0
  0
LINE
  5
24D
330
1F
100
AcDbEntity
  8
0
  6
SLD-Сплошная
 62
     7
370
    25
100
AcDbLine
 10
177.3301958905
 20
258.3821309535
 30
0.0
 11
177.3301958905
 21
258.822942693
 31
0.0
  0
LINE
  5
24E
330
1F
100
AcDbEntity
  8
0
  6
SLD-Сплошная
 62
     7
370
    25
100
AcDbLine
 10
182.9400510931
 20
258.3821309535
 30
0.0
 11
182.9400510931
 21
258.822942693
 31
0.0
  0
LINE
  5
24F
330
1F
100
AcDbEntity
  8
0
  6
SLD-Сплошная
 62
     7
370
    25
100
AcDbLine
 10
176.5287796879
 20
259.8515203737
 30
0.0
 11
174.1245601879
 21
259.8515203737
 31
0.0
  0
LINE
  5
250
330
1F
100
AcDbEntity
  8
0
  6
SLD-Сплошная
 62
     7
370
    25
100
AcDbLine
 10
174.1245601879
 20
258.822942693
 30
0.0
 11
174.1245601879
 21
259.8515203737
 31
0.0
  0
LINE
  5
251
330
1F
100
AcDbEntity
  8
0
  6
SLD-Сплошная
 62
     7
370
    25
100
AcDbLine
 10
176.5287796879
 20
258.822942693
 30
0.0
 11
176.5287796879
 21
259.8515203737
 31
0.0
  0
LINE
  5
252
330
1F
100
AcDbEntity
  8
0
  6
SLD-Сплошная
 62
     7
370
    25
100
AcDbLine
 10
182.9400510931
 20
259.8515203737
 30
0.0
 11
177.3301958905
 21
259.8515203737
 31
0.0
  0
LINE
  5
253
330
1F
100
AcDbEntity
  8
0
  6
SLD-Сплошная
 62
     7
370
    25
100
AcDbLine
 10
177.3301958905
 20
258.822942693
 30
0.0
 11
177.3301958905
 21
259.8515203737
 31
0.0
  0
LINE
  5
254
330
1F
100
AcDbEntity
  8
0
  6
SLD-Сплошная
 62
     7
370
    25
100
AcDbLine
 10
182.9400510931
 20
258.822942693
 30
0.0
 11
182.9400510931
 21
259.8515203737
 31
0.0
  0
LINE
  5
255
330
1F
100
AcDbEntity
  8
0
  6
SLD-Сплошная
 62
     7
370
    25
100
AcDbLine
 10
174.1245601879
 20
260.0939630544
 30
0.0
 11
176.5287796879
 21
260.0939630544
 31
0.0
  0
LINE
  5
256
330
1F
100
AcDbEntity
  8
0
  6
SLD-Сплошная
 62
     7
370
    25
100
AcDbLine
 10
176.5287796879
 20
259.8515203737
 30
0.0
 11
176.5287796879
 21
260.0939630544
 31
0.0
  0
LINE
  5
257
330
1F
100
AcDbEntity
  8
0
  6
SLD-Сплошная
 62
     7
370
    25
100
AcDbLine
 10
174.1245601879
 20
259.8515203737
 30
0.0
 11
174.1245601879
 21
260.0939630544
 31
0.0
  0
LINE
  5
258
330
1F
100
AcDbEntity
  8
0
  6
SLD-Сплошная
 62
     7
370
    25
100
AcDbLine
 10
174.1245601879
 20
260.0939630544
 30
0.0
 11
174.1245601879
 21
261.2050695707
 31
0.0
  0
LINE
  5
259
330
1F
100
AcDbEntity
  8
0
  6
SLD-Сплошная
 62
     7
370
    25
100
AcDbLine
 10
176.5287796879
 20
260.0939630544
 30
0.0
 11
176.5287796879
 21
261.2050695707
 31
0.0
  0
LINE
  5
25A
330
1F
100
AcDbEntity
  8
0
  6
SLD-Сплошная
 62
     7
370
    25
100
AcDbLine
 10
177.3301958905
 20
260.0939630544
 30
0.0
 11
177.3301958905
 21
259.8515203737
 31
0.0
  0
LINE
  5
25B
330
1F
100
AcDbEntity
  8
0
  6
SLD-Сплошная
 62
     7
370
    25
100
AcDbLine
 10
177.3301958905
 20
260.0939630544
 30
0.0
 11
182.9400510931
 21
260.0939630544
 31
0.0
  0
LINE
  5
25C
330
1F
100
AcDbEntity
  8
0
  6
SLD-Сплошная
 62
     7
370
    25
100
AcDbLine
 10
182.9400510931
 20
260.0939630544
 30
0.0
 11
182.9400510931
 21
259.8515203737
 31
0.0
  0
LINE
  5
25D
330
1F
100
AcDbEntity
  8
0
  6
SLD-Сплошная
 62
     7
370
    25
100
AcDbLine
 10
179.7344153905
 20
260.7569361461
 30
0.0
 11
179.7344153905
 21
261.2050695707
 31
0.0
  0
LINE
  5
25E
330
1F
100
AcDbEntity
  8
0
  6
SLD-Сплошная
 62
     7
370
    25
100
AcDbLine
 10
180.5358315931
 20
260.7569361461
 30
0.0
 11
179.7344153905
 21
260.7569361461
 31
0.0
  0
LINE
  5
25F
330
1F
100
AcDbEntity
  8
0
  6
SLD-Сплошная
 62
     7
370
    25
100
AcDbLine
 10
180.5358315931
 20
260.7569361461
 30
0.0
 11
180.5358315931
 21
261.2050695707
 31
0.0
  0
LINE
  5
260
330
1F
100
AcDbEntity
  8
0
  6
SLD-Сплошная
 62
     7
370
    25
100
AcDbLine
 10
177.3301958905
 20
260.0939630544
 30
0.0
 11
177.3301958905
 21
261.2050695707
 31
0.0
  0
LINE
  5
261
330
1F
100
AcDbEntity
  8
0
  6
SLD-Сплошная
 62
     7
370
    25
100
AcDbLine
 10
182.9400510931
 20
260.0939630544
 30
0.0
 11
182.9400510931
 21
261.2050695707
 31
0.0
  0
LINE
  5
262
330
1F
100
AcDbEntity
  8
0
  6
SLD-Сплошная
 62
     7
370
    25
100
AcDbLine
 10
246.4323056405
 20
237.9050695707
 30
0.0
 11
246.0323056405
 21
237.9050695707
 31
0.0
  0
LINE
  5
263
330
1F
100
AcDbEntity
  8
0
  6
SLD-Сплошная
 62
     7
370
    25
100
AcDbLine
 10
246.4323056405
 20
232.2050695707
 30
0.0
 11
246.0323056405
 21
232.2050695707
 31
0.0
  0
LINE
  5
264
330
1F
100
AcDbEntity
  8
0
  6
SLD-Сплошная
 62
     7
370
    25
100
AcDbLine
 10
246.4323056405
 20
237.9050695707
 30
0.0
 11
246.4323056405
 21
232.2050695707
 31
0.0
  0
LINE
  5
265
330
1F
100
AcDbEntity
  8
0
  6
SLD-Сплошная
 62
     7
370
    25
100
AcDbLine
 10
229.9323056405
 20
247.5550695707
 30
0.0
 11
229.5323056405
 21
247.5550695707
 31
0.0
  0
LINE
  5
266
330
1F
100
AcDbEntity
  8
0
  6
SLD-Сплошная
 62
     7
370
    25
100
AcDbLine
 10
229.9323056405
 20
248.0550695707
 30
0.0
 11
229.5323056405
 21
248.0550695707
 31
0.0
  0
LINE
  5
267
330
1F
100
AcDbEntity
  8
0
  6
SLD-Сплошная
 62
     7
370
    25
100
AcDbLine
 10
229.9323056405
 20
248.0550695707
 30
0.0
 11
229.9323056405
 21
247.5550695707
 31
0.0
  0
LINE
  5
268
330
1F
100
AcDbEntity
  8
0
  6
SLD-Сплошная
 62
     7
370
    25
100
AcDbLine
 10
229.9323056405
 20
248.0550695707
 30
0.0
 11
229.9323056405
 21
248.7621763519
 31
0.0
  0
LINE
  5
269
330
1F
100
AcDbEntity
  8
0
  6
SLD-Сплошная
 62
     7
370
    25
100
AcDbLine
 10
229.9323056405
 20
249.5550695707
 30
0.0
 11
229.5323056405
 21
249.5550695707
 31
0.0
  0
LINE
  5
26A
330
1F
100
AcDbEntity
  8
0
  6
SLD-Сплошная
 62
     7
370
    25
100
AcDbLine
 10
229.5323056405
 20
248.7621763519
 30
0.0
 11
229.9323056405
 21
248.7621763519
 31
0.0
  0
LINE
  5
26B
330
1F
100
AcDbEntity
  8
0
  6
SLD-Сплошная
 62
     7
370
    25
100
AcDbLine
 10
229.9323056405
 20
249.5550695707
 30
0.0
 11
229.9323056405
 21
248.7621763519
 31
0.0
  0
LINE
  5
26C
330
1F
100
AcDbEntity
  8
0
  6
SLD-Сплошная
 62
     7
370
    25
100
AcDbLine
 10
229.9323056405
 20
252.4300695707
 30
0.0
 11
229.5323056405
 21
252.4300695707
 31
0.0
  0
LINE
  5
26D
330
1F
100
AcDbEntity
  8
0
  6
SLD-Сплошная
 62
     7
370
    25
100
AcDbLine
 10
229.9323056405
 20
252.1345968143
 30
0.0
 11
229.5323056405
 21
252.1345968143
 31
0.0
  0
LINE
  5
26E
330
1F
100
AcDbEntity
  8
0
  6
SLD-Сплошная
 62
     7
370
    25
100
AcDbLine
 10
229.9323056405
 20
252.1345968143
 30
0.0
 11
229.9323056405
 21
252.4300695707
 31
0.0
  0
LINE
  5
26F
330
1F
100
AcDbEntity
  8
0
  6
SLD-Сплошная
 62
     7
370
    25
100
AcDbLine
 10
229.9323056405
 20
253.0550695707
 30
0.0
 11
229.5323056405
 21
253.0550695707
 31
0.0
  0
SPLINE
  5
270
330
1F
100
AcDbEntity
  8
0
  6
SLD-Сплошная
 62
     7
370
    25
100
AcDbSpline
210
0.0
220
0.0
230
1.0
 70
    24
 71
     3
 72
    16
 73
    12
 74
     0
 42
0.00000001
 43
0.00000001
 40
0.0
 40
0.0
 40
0.0
 40
0.0
 40
0.2500000000000004
 40
0.2500000000000004
 40
0.5000000000000009
 40
0.5000000000000009
 40
0.7500000000000013
 40
0.7500000000000013
 40
0.8750000000000007
 40
0.8750000000000007
 40
1.0
 40
1.0
 40
1.0
 40
1.0
 10
229.9323056405032
 20
252.430069570688
 30
0.0
 10
229.9323056405032
 20
252.4662316254438
 30
0.0
 10
229.9323056405032
 20
252.5034792737616
 30
0.0
 10
229.9323056405032
 20
252.5901949404514
 30
0.0
 10
229.9323056405032
 20
252.6381635691871
 30
0.0
 10
229.9323056405032
 20
252.7420646172747
 30
0.0
 10
229.9323056405032
 20
252.7978179080457
 30
0.0
 10
229.9323056405032
 20
252.8884402668845
 30
0.0
 10
229.9323056405032
 20
252.9196618857151
 30
0.0
 10
229.9323056405032
 20
252.9852548131971
 30
0.0
 10
229.9323056405032
 20
253.0201053509363
 30
0.0
 10
229.9323056405032
 20
253.0550695706881
 30
0.0
  0
LINE
  5
271
330
1F
100
AcDbEntity
  8
0
  6
SLD-Сплошная
 62
     7
370
    25
100
AcDbLine
 10
176.5287796879
 20
261.1542333184
 30
0.0
 11
177.3301958905
 21
261.1542333184
 31
0.0
  0
LINE
  5
272
330
1F
100
AcDbEntity
  8
0
  6
SLD-Сплошная
 62
     7
370
    25
100
AcDbLine
 10
179.7344153905
 20
261.1542333184
 30
0.0
 11
180.5358315931
 21
261.1542333184
 31
0.0
  0
LINE
  5
273
330
1F
100
AcDbEntity
  8
0
  6
SLD-Сплошная
 62
     7
370
    25
100
AcDbLine
 10
229.9323056405
 20
250.5550695707
 30
0.0
 11
229.5323056405
 21
250.5550695707
 31
0.0
  0
LINE
  5
274
330
1F
100
AcDbEntity
  8
0
  6
SLD-Сплошная
 62
     7
370
    25
100
AcDbLine
 10
229.9323056405
 20
250.5550695707
 30
0.0
 11
229.9323056405
 21
252.1345968143
 31
0.0
  0
LINE
  5
275
330
1F
100
AcDbEntity
  8
0
  6
SLD-Сплошная
 62
     7
370
    25
100
AcDbLine
 10
229.9323056405
 20
250.5230182886
 30
0.0
 11
229.5323056405
 21
250.5230182886
 31
0.0
  0
LINE
  5
276
330
1F
100
AcDbEntity
  8
0
  6
SLD-Сплошная
 62
     7
370
    25
100
AcDbLine
 10
229.9323056405
 20
247.0550695707
 30
0.0
 11
229.5323056405
 21
247.0550695707
 31
0.0
  0
LINE
  5
277
330
1F
100
AcDbEntity
  8
0
  6
SLD-Сплошная
 62
     7
370
    25
100
AcDbLine
 10
229.9323056405
 20
247.5550695707
 30
0.0
 11
229.9323056405
 21
247.0550695707
 31
0.0
  0
LINE
  5
278
330
1F
100
AcDbEntity
  8
0
  6
SLD-Сплошная
 62
     7
370
    25
100
AcDbLine
 10
229.9323056405
 20
250.0550695707
 30
0.0
 11
229.5323056405
 21
250.0550695707
 31
0.0
  0
LINE
  5
279
330
1F
100
AcDbEntity
  8
0
  6
SLD-Сплошная
 62
     7
370
    25
100
AcDbLine
 10
229.9323056405
 20
250.0550695707
 30
0.0
 11
229.9323056405
 21
249.5550695707
 31
0.0
  0
LINE
  5
27A
330
1F
100
AcDbEntity
  8
0
  6
SLD-Сплошная
 62
     7
370
    25
100
AcDbLine
 10
229.9323056405
 20
226.1249369463
 30
0.0
 11
229.5323056405
 21
226.1249369463
 31
0.0
  0
LINE
  5
27B
330
1F
100
AcDbEntity
  8
0
  6
SLD-Сплошная
 62
     7
370
    25
100
AcDbLine
 10
229.9323056405
 20
225.8108343822
 30
0.0
 11
229.5323056405
 21
225.8108343822
 31
0.0
  0
LINE
  5
27C
330
1F
100
AcDbEntity
  8
0
  6
SLD-Сплошная
 62
     7
370
    25
100
AcDbLine
 10
229.9323056405
 20
225.8108343822
 30
0.0
 11
229.9323056405
 21
226.1249369463
 31
0.0
  0
LINE
  5
27D
330
1F
100
AcDbEntity
  8
0
  6
SLD-Сплошная
 62
     7
370
    25
100
AcDbLine
 10
229.9323056405
 20
225.0480138693
 30
0.0
 11
229.5323056405
 21
225.0480138693
 31
0.0
  0
LINE
  5
27E
330
1F
100
AcDbEntity
  8
0
  6
SLD-Сплошная
 62
     7
370
    25
100
AcDbLine
 10
229.9323056405
 20
225.0480138693
 30
0.0
 11
229.9323056405
 21
225.8108343822
 31
0.0
  0
LINE
  5
27F
330
1F
100
AcDbEntity
  8
0
  6
SLD-Сплошная
 62
     7
370
    25
100
AcDbLine
 10
229.9323056405
 20
226.1249369463
 30
0.0
 11
229.9323056405
 21
226.5550695707
 31
0.0
  0
SPLINE
  5
280
330
1F
100
AcDbEntity
  8
0
  6
SLD-Сплошная
 62
     7
370
    25
100
AcDbSpline
210
0.0
220
0.0
230
1.0
 70
    24
 71
     3
 72
     8
 73
     4
 74
     0
 42
0.00000001
 43
0.00000001
 40
0.0
 40
0.0
 40
0.0
 40
0.0
 40
1.0
 40
1.0
 40
1.0
 40
1.0
 10
157.3293012702467
 20
225.0550695706882
 30
0.0
 10
157.6845178761605
 20
225.0550695706882
 30
0.0
 10
158.0874221003583
 20
225.0550695706882
 30
0.0
 10
158.5380139428401
 20
225.0550695706882
 30
0.0
  0
LINE
  5
281
330
1F
100
AcDbEntity
  8
0
  6
SLD-Сплошная
 62
     7
370
    25
100
AcDbLine
 10
157.3293012702
 20
208.9050695707
 30
0.0
 11
157.3293012702
 21
225.0550695707
 31
0.0
  0
LINE
  5
282
330
1F
100
AcDbEntity
  8
0
  6
SLD-Сплошная
 62
     7
370
    25
100
AcDbLine
 10
157.3293012702
 20
245.0550695707
 30
0.0
 11
157.3293012702
 21
261.2050695707
 31
0.0
  0
SPLINE
  5
283
330
1F
100
AcDbEntity
  8
0
  6
SLD-Сплошная
 62
     7
370
    25
100
AcDbSpline
210
0.0
220
0.0
230
1.0
 70
    24
 71
     3
 72
     8
 73
     4
 74
     0
 42
0.00000001
 43
0.00000001
 40
0.0
 40
0.0
 40
0.0
 40
0.0
 40
1.0
 40
1.0
 40
1.0
 40
1.0
 10
158.5380139428401
 20
245.0550695706882
 30
0.0
 10
158.0874221003583
 20
245.0550695706882
 30
0.0
 10
157.6845178761605
 20
245.0550695706882
 30
0.0
 10
157.3293012702467
 20
245.0550695706882
 30
0.0
  0
ARC
  5
284
330
1F
100
AcDbEntity
  8
0
  6
SLD-Сплошная
 62
     7
370
    25
100
AcDbCircle
 10
305.0323056405
 20
235.0550695707
 30
0.0
 40
146.8352052472431
100
AcDbArc
 50
176.0949308679
 51
183.9050691321
  0
LINE
  5
285
330
1F
100
AcDbEntity
  8
0
  6
SLD-Сплошная
 62
     7
370
    25
100
AcDbLine
 10
158.5380139428
 20
245.0550695707
 30
0.0
 11
162.0323056405
 21
245.0550695707
 31
0.0
  0
LINE
  5
286
330
1F
100
AcDbEntity
  8
0
  6
SLD-Сплошная
 62
     7
370
    25
100
AcDbLine
 10
162.0323056405
 20
225.0550695707
 30
0.0
 11
162.0323056405
 21
245.0550695707
 31
0.0
  0
LINE
  5
287
330
1F
100
AcDbEntity
  8
0
  6
SLD-Сплошная
 62
     7
370
    25
100
AcDbLine
 10
158.5380139428
 20
225.0550695707
 30
0.0
 11
162.0323056405
 21
225.0550695707
 31
0.0
  0
LINE
  5
288
330
1F
100
AcDbEntity
  8
0
  6
SLD-Сплошная
 62
     7
370
    25
100
AcDbLine
 10
162.0323056405
 20
241.4550695707
 30
0.0
 11
165.0323056405
 21
241.4550695707
 31
0.0
  0
LINE
  5
289
330
1F
100
AcDbEntity
  8
0
  6
SLD-Сплошная
 62
     7
370
    25
100
AcDbLine
 10
165.0323056405
 20
228.6550695707
 30
0.0
 11
162.0323056405
 21
228.6550695707
 31
0.0
  0
LINE
  5
28A
330
1F
100
AcDbEntity
  8
0
  6
SLD-Сплошная
 62
     7
370
    25
100
AcDbLine
 10
165.0323056405
 20
228.6550695707
 30
0.0
 11
165.0323056405
 21
241.4550695707
 31
0.0
  0
LINE
  5
28B
330
1F
100
AcDbEntity
  8
0
  6
SLD-Сплошная
 62
     7
370
    25
100
AcDbLine
 10
165.0323056405
 20
208.9050695707
 30
0.0
 11
165.0323056405
 21
228.6550695707
 31
0.0
  0
LINE
  5
28C
330
1F
100
AcDbEntity
  8
0
  6
SLD-Сплошная
 62
     7
370
    25
100
AcDbLine
 10
165.0323056405
 20
241.4550695707
 30
0.0
 11
165.0323056405
 21
261.2050695707
 31
0.0
  0
LINE
  5
28D
330
1F
100
AcDbEntity
  8
0
  6
SLD-Сплошная
 62
     7
370
    25
100
AcDbLine
 10
187.0323056405
 20
4.7859909881
 30
0.0
 11
188.0323056405
 21
4.7859909881
 31
0.0
  0
LINE
  5
28E
330
1F
100
AcDbEntity
  8
0
  6
SLD-Сплошная
 62
     7
370
    25
100
AcDbLine
 10
165.0323056405
 20
4.7859909881
 30
0.0
 11
170.0323056405
 21
4.7859909881
 31
0.0
  0
LINE
  5
28F
330
1F
100
AcDbEntity
  8
0
  6
SLD-Сплошная
 62
     7
370
    25
100
AcDbLine
 10
182.9400510931
 20
5.1859909881
 30
0.0
 11
187.0323056405
 21
5.1859909881
 31
0.0
  0
LINE
  5
290
330
1F
100
AcDbEntity
  8
0
  6
SLD-Сплошная
 62
     7
370
    25
100
AcDbLine
 10
170.0323056405
 20
5.1859909881
 30
0.0
 11
174.1245601879
 21
5.1859909881
 31
0.0
  0
LINE
  5
291
330
1F
100
AcDbEntity
  8
0
  6
SLD-Сплошная
 62
     7
370
    25
100
AcDbLine
 10
227.0323056405
 20
42.0137132713
 30
0.0
 11
225.4178796775
 21
42.0137132713
 31
0.0
  0
LINE
  5
292
330
1F
100
AcDbEntity
  8
0
  6
SLD-Сплошная
 62
     7
370
    25
100
AcDbLine
 10
221.4800117991
 20
42.0137132713
 30
0.0
 11
218.7178796775
 21
42.0137132713
 31
0.0
  0
LINE
  5
293
330
1F
100
AcDbEntity
  8
0
  6
SLD-Сплошная
 62
     7
370
    25
100
AcDbLine
 10
218.8845994819
 20
19.858268705
 30
0.0
 11
221.6467316035
 21
19.858268705
 31
0.0
  0
LINE
  5
294
330
1F
100
AcDbEntity
  8
0
  6
SLD-Сплошная
 62
     7
370
    25
100
AcDbLine
 10
225.5845994819
 20
19.858268705
 30
0.0
 11
227.0323056405
 21
19.858268705
 31
0.0
  0
LINE
  5
295
330
1F
100
AcDbEntity
  8
0
  6
SLD-Сплошная
 62
     7
370
    25
100
AcDbLine
 10
180.5358315931
 20
4.7859909881
 30
0.0
 11
182.9400510931
 21
4.7859909881
 31
0.0
  0
LINE
  5
296
330
1F
100
AcDbEntity
  8
0
  6
SLD-Сплошная
 62
     7
370
    25
100
AcDbLine
 10
177.3301958905
 20
4.7859909881
 30
0.0
 11
179.7344153905
 21
4.7859909881
 31
0.0
  0
LINE
  5
297
330
1F
100
AcDbEntity
  8
0
  6
SLD-Сплошная
 62
     7
370
    25
100
AcDbLine
 10
174.1245601879
 20
4.7859909881
 30
0.0
 11
176.5287796879
 21
4.7859909881
 31
0.0
  0
LINE
  5
298
330
1F
100
AcDbEntity
  8
0
  6
SLD-Сплошная
 62
     7
370
    25
100
AcDbLine
 10
219.7323056405
 20
39.6225751642
 30
0.0
 11
219.7323056405
 21
39.9887816799
 31
0.0
  0
LINE
  5
299
330
1F
100
AcDbEntity
  8
0
  6
SLD-Сплошная
 62
     7
370
    25
100
AcDbLine
 10
213.9323056405
 20
39.9887816799
 30
0.0
 11
213.9323056405
 21
39.6225751642
 31
0.0
  0
LINE
  5
29A
330
1F
100
AcDbEntity
  8
0
  6
SLD-Сплошная
 62
     7
370
    25
100
AcDbLine
 10
220.6323056405
 20
22.2494068121
 30
0.0
 11
220.6323056405
 21
21.8832002964
 31
0.0
  0
LINE
  5
29B
330
1F
100
AcDbEntity
  8
0
  6
SLD-Сплошная
 62
     7
370
    25
100
AcDbLine
 10
226.4323056405
 20
21.8832002964
 30
0.0
 11
226.4323056405
 21
22.2494068121
 31
0.0
  0
LINE
  5
29C
330
1F
100
AcDbEntity
  8
0
  6
SLD-Сплошная
 62
     7
370
    25
100
AcDbLine
 10
181.3748051703
 20
25.9938194681
 30
0.0
 11
181.3748051703
 21
35.8870510587
 31
0.0
  0
ARC
  5
29D
330
1F
100
AcDbEntity
  8
0
  6
SLD-Сплошная
 62
     7
370
    25
100
AcDbCircle
 10
178.7727445001
 20
34.9359909881
 30
0.0
 40
0.3500000000000298
100
AcDbArc
 50
90.0
 51
180.0
  0
ARC
  5
29E
330
1F
100
AcDbEntity
  8
0
  6
SLD-Сплошная
 62
     7
370
    25
100
AcDbCircle
 10
178.7727445001
 20
26.9359909881
 30
0.0
 40
0.3500000000000227
100
AcDbArc
 50
180.0
 51
270.0925305
  0
LINE
  5
29F
330
1F
100
AcDbEntity
  8
0
  6
SLD-Сплошная
 62
     7
370
    25
100
AcDbLine
 10
178.4227445001
 20
34.9359909881
 30
0.0
 11
178.4227445001
 21
26.9359909881
 31
0.0
  0
ARC
  5
2A0
330
1F
100
AcDbEntity
  8
0
  6
SLD-Сплошная
 62
     7
370
    25
100
AcDbCircle
 10
177.8622854826
 20
34.9359909881
 30
0.0
 40
0.3500000000000085
100
AcDbArc
 50
90.0
 51
180.0
  0
ARC
  5
2A1
330
1F
100
AcDbEntity
  8
0
  6
SLD-Сплошная
 62
     7
370
    25
100
AcDbCircle
 10
177.8622854826
 20
26.9359909881
 30
0.0
 40
0.3500000000000272
100
AcDbArc
 50
180.0
 51
270.1191526161
  0
LINE
  5
2A2
330
1F
100
AcDbEntity
  8
0
  6
SLD-Сплошная
 62
     7
370
    25
100
AcDbLine
 10
177.5122854826
 20
34.9359909881
 30
0.0
 11
177.5122854826
 21
26.9359909881
 31
0.0
  0
ARC
  5
2A3
330
1F
100
AcDbEntity
  8
0
  6
SLD-Сплошная
 62
     7
370
    25
100
AcDbCircle
 10
176.7785266667
 20
34.9359909881
 30
0.0
 40
0.3500000000000014
100
AcDbArc
 50
90.0
 51
180.0
  0
ARC
  5
2A4
330
1F
100
AcDbEntity
  8
0
  6
SLD-Сплошная
 62
     7
370
    25
100
AcDbCircle
 10
176.7785266667
 20
26.9359909881
 30
0.0
 40
0.3500000000000071
100
AcDbArc
 50
180.0
 51
270.1530319927
  0
LINE
  5
2A5
330
1F
100
AcDbEntity
  8
0
  6
SLD-Сплошная
 62
     7
370
    25
100
AcDbLine
 10
176.4285266667
 20
34.9359909881
 30
0.0
 11
176.4285266667
 21
26.9359909881
 31
0.0
  0
ARC
  5
2A6
330
1F
100
AcDbEntity
  8
0
  6
SLD-Сплошная
 62
     7
370
    25
100
AcDbCircle
 10
175.5323056405
 20
34.9359909881
 30
0.0
 40
0.3499999999999943
100
AcDbArc
 50
90.0
 51
180.0
  0
ARC
  5
2A7
330
1F
100
AcDbEntity
  8
0
  6
SLD-Сплошная
 62
     7
370
    25
100
AcDbCircle
 10
175.5323056405
 20
26.9359909881
 30
0.0
 40
0.3499999999999978
100
AcDbArc
 50
180.0
 51
270.1970778264
  0
LINE
  5
2A8
330
1F
100
AcDbEntity
  8
0
  6
SLD-Сплошная
 62
     7
370
    25
100
AcDbLine
 10
175.1823056405
 20
34.9359909881
 30
0.0
 11
175.1823056405
 21
26.9359909881
 31
0.0
  0
LINE
  5
2A9
330
1F
100
AcDbEntity
  8
0
  6
SLD-Сплошная
 62
     7
370
    25
100
AcDbLine
 10
183.7323056405
 20
20.9359909881
 30
0.0
 11
183.7323056405
 21
40.9359909881
 31
0.0
  0
ARC
  5
2AA
330
1F
100
AcDbEntity
  8
0
  6
SLD-Сплошная
 62
     7
370
    25
100
AcDbCircle
 10
305.0323056405
 20
30.9359909881
 30
0.0
 40
149.9999999999995
100
AcDbArc
 50
169.9601354282
 51
190.0398645718
  0
LINE
  5
2AB
330
1F
100
AcDbEntity
  8
0
  6
SLD-Сплошная
 62
     7
370
    25
100
AcDbLine
 10
165.0323056405
 20
57.0859909881
 30
0.0
 11
157.3293012702
 21
57.0859909881
 31
0.0
  0
LINE
  5
2AC
330
1F
100
AcDbEntity
  8
0
  6
SLD-Сплошная
 62
     7
370
    25
100
AcDbLine
 10
157.3293012702
 20
4.7859909881
 30
0.0
 11
165.0323056405
 21
4.7859909881
 31
0.0
  0
LINE
  5
2AD
330
1F
100
AcDbEntity
  8
0
  6
SLD-Сплошная
 62
     7
370
    25
100
AcDbLine
 10
213.9323056405
 20
22.2494068121
 30
0.0
 11
213.9323056405
 21
21.8832002964
 31
0.0
  0
LINE
  5
2AE
330
1F
100
AcDbEntity
  8
0
  6
SLD-Сплошная
 62
     7
370
    25
100
AcDbLine
 10
219.7323056405
 20
21.8832002964
 30
0.0
 11
219.7323056405
 21
22.2494068121
 31
0.0
  0
LINE
  5
2AF
330
1F
100
AcDbEntity
  8
0
  6
SLD-Сплошная
 62
     7
370
    25
100
AcDbLine
 10
226.4323056405
 20
39.6225751642
 30
0.0
 11
226.4323056405
 21
39.9887816799
 31
0.0
  0
LINE
  5
2B0
330
1F
100
AcDbEntity
  8
0
  6
SLD-Сплошная
 62
     7
370
    25
100
AcDbLine
 10
220.6323056405
 20
39.9887816799
 30
0.0
 11
220.6323056405
 21
39.6225751642
 31
0.0
  0
LINE
  5
2B1
330
1F
100
AcDbEntity
  8
0
  6
SLD-Сплошная
 62
     7
370
    25
100
AcDbLine
 10
211.4531594936
 20
68.4359909881
 30
0.0
 11
203.7257528833
 21
68.4359909881
 31
0.0
  0
LWPOLYLINE
  5
2B2
330
1F
100
AcDbEntity
  8
0
  6
SLD-Сплошная
 62
     7
370
    25
100
AcDbPolyline
 90
        9
 70
   128
 43
0.0
 10
212.7472547192
 20
63.4359909881
 10
212.7223890423
 20
64.4114425982
 10
212.6487475856
 20
65.34940815
 10
212.5291603491
 20
66.2138421532
 10
212.3682230031
 20
66.9715248941
 10
212.1721202796
 20
67.5933390497
 10
211.9483882963
 20
68.0553886507
 10
211.7056249479
 20
68.3399173902
 10
211.4531594936
 20
68.4359909881
  0
LWPOLYLINE
  5
2B3
330
1F
100
AcDbEntity
  8
0
  6
SLD-Сплошная
 62
     7
370
    25
100
AcDbPolyline
 90
        9
 70
   128
 43
0.0
 10
205.0198481088
 20
63.4359909881
 10
204.994982432
 20
64.4114425982
 10
204.9213409753
 20
65.34940815
 10
204.8017537388
 20
66.2138421532
 10
204.6408163928
 20
66.9715248941
 10
204.4447136693
 20
67.5933390497
 10
204.220981686
 20
68.0553886507
 10
203.9782183376
 20
68.3399173902
 10
203.7257528833
 20
68.4359909881
  0
LWPOLYLINE
  5
2B4
330
1F
100
AcDbEntity
  8
0
  6
SLD-Сплошная
 62
     7
370
    25
100
AcDbPolyline
 90
       12
 70
   128
 43
0.0
 10
185.6084197262
 20
-0.3140090119
 10
185.7724846667
 20
-0.2228682025
 10
185.9232580414
 20
0.0431705393
 10
186.0485250883
 20
0.4625543368
 10
186.1381374161
 20
1.0013072089
 10
186.1848351671
 20
1.615782602
 10
186.1848351671
 20
2.2561993743
 10
186.1381374161
 20
2.8706747674
 10
186.0485250883
 20
3.4094276395
 10
185.9232580414
 20
3.828811437
 10
185.7724846667
 20
4.0948501788
 10
185.6084197262
 20
4.1859909881
  0
LWPOLYLINE
  5
2B5
330
1F
100
AcDbEntity
  8
0
  6
SLD-Сплошная
 62
     7
370
    25
100
AcDbPolyline
 90
       12
 70
   128
 43
0.0
 10
185.6084197262
 20
4.1859909881
 10
185.4443547856
 20
4.0948501788
 10
185.2935814109
 20
3.828811437
 10
185.168314364
 20
3.4094276395
 10
185.0787020362
 20
2.8706747674
 10
185.0320042852
 20
2.2561993743
 10
185.0320042852
 20
1.615782602
 10
185.0787020362
 20
1.0013072089
 10
185.168314364
 20
0.4625543368
 10
185.2935814109
 20
0.0431705393
 10
185.4443547856
 20
-0.2228682025
 10
185.6084197262
 20
-0.3140090119
  0
LINE
  5
2B6
330
1F
100
AcDbEntity
  8
0
  6
SLD-Сплошная
 62
     7
370
    25
100
AcDbLine
 10
201.5654957238
 20
44.9359909881
 30
0.0
 11
201.5654957238
 21
16.9359909881
 31
0.0
  0
SPLINE
  5
2B7
330
1F
100
AcDbEntity
  8
0
  6
SLD-Сплошная
 62
     7
370
    25
100
AcDbSpline
210
0.0
220
0.0
230
1.0
 70
     8
 71
     3
 72
    14
 73
    10
 74
     0
 42
0.00000001
 43
0.00000001
 40
0.0
 40
0.0
 40
0.0
 40
0.0
 40
0.25
 40
0.25
 40
0.5
 40
0.5
 40
0.75
 40
0.75
 40
1.0
 40
1.0
 40
1.0
 40
1.0
 10
194.0200386919855
 20
57.08599098814489
 30
0.0
 10
194.5829113977546
 20
57.0859909881449
 30
0.0
 10
195.1637600960437
 20
56.82915751328952
 30
0.0
 10
196.3083712768234
 20
55.75011949639628
 30
0.0
 10
196.871550361993
 20
54.92734623137873
 30
0.0
 10
197.9229994912075
 20
52.76870147461254
 30
0.0
 10
198.4107154994112
 20
51.43396742882332
 30
0.0
 10
199.2677107998711
 20
48.40366984803042
 30
0.0
 10
199.6368064670887
 20
46.71024974727769
 30
0.0
 10
199.9381532311716
 20
44.93599098814489
 30
0.0
  0
SPLINE
  5
2B8
330
1F
100
AcDbEntity
  8
0
  6
SLD-Сплошная
 62
     7
370
    25
100
AcDbSpline
210
0.0
220
0.0
230
1.0
 70
     8
 71
     3
 72
    14
 73
    10
 74
     0
 42
0.00000001
 43
0.00000001
 40
0.0
 40
0.0
 40
0.0
 40
0.0
 40
0.2499999999999998
 40
0.2499999999999998
 40
0.4999999999999996
 40
0.4999999999999996
 40
0.7499999999999997
 40
0.7499999999999997
 40
1.0
 40
1.0
 40
1.0
 40
1.0
 10
199.9381532311716
 20
16.93599098814492
 30
0.0
 10
199.6368064670887
 20
15.16173222901211
 30
0.0
 10
199.2677107998711
 20
13.46831212825938
 30
0.0
 10
198.4107154994112
 20
10.43801454746649
 30
0.0
 10
197.9229994912075
 20
9.103280501677265
 30
0.0
 10
196.871550361993
 20
6.944635744911075
 30
0.0
 10
196.3083712768235
 20
6.121862479893516
 30
0.0
 10
195.1637600960437
 20
5.042824463000268
 30
0.0
 10
194.5829113977546
 20
4.785990988144886
 30
0.0
 10
194.0200386919855
 20
4.785990988144886
 30
0.0
  0
LWPOLYLINE
  5
2B9
330
1F
100
AcDbEntity
  8
0
  6
SLD-Сплошная
 62
     7
370
    25
100
AcDbPolyline
 90
       12
 70
   128
 43
0.0
 10
202.4316576578
 20
-0.3140090119
 10
202.5957225983
 20
-0.2228682025
 10
202.7464959731
 20
0.0431705393
 10
202.87176302
 20
0.4625543368
 10
202.9613753478
 20
1.0013072089
 10
203.0080730987
 20
1.615782602
 10
203.0080730987
 20
2.2561993743
 10
202.9613753478
 20
2.8706747674
 10
202.87176302
 20
3.4094276395
 10
202.7464959731
 20
3.828811437
 10
202.5957225983
 20
4.0948501788
 10
202.4316576578
 20
4.1859909881
  0
LWPOLYLINE
  5
2BA
330
1F
100
AcDbEntity
  8
0
  6
SLD-Сплошная
 62
     7
370
    25
100
AcDbPolyline
 90
       12
 70
   128
 43
0.0
 10
202.4316576578
 20
4.1859909881
 10
202.2675927173
 20
4.0948501788
 10
202.1168193426
 20
3.828811437
 10
201.9915522957
 20
3.4094276395
 10
201.9019399678
 20
2.8706747674
 10
201.8552422169
 20
2.2561993743
 10
201.8552422169
 20
1.615782602
 10
201.9019399678
 20
1.0013072089
 10
201.9915522957
 20
0.4625543368
 10
202.1168193426
 20
0.0431705393
 10
202.2675927173
 20
-0.2228682025
 10
202.4316576578
 20
-0.3140090119
  0
LWPOLYLINE
  5
2BB
330
1F
100
AcDbEntity
  8
0
  6
SLD-Сплошная
 62
     7
370
    25
100
AcDbPolyline
 90
       12
 70
   128
 43
0.0
 10
202.4316576578
 20
57.6859909881
 10
202.5957225983
 20
57.7771317975
 10
202.7464959731
 20
58.0431705393
 10
202.87176302
 20
58.4625543368
 10
202.9613753478
 20
59.0013072089
 10
203.0080730987
 20
59.615782602
 10
203.0080730987
 20
60.2561993743
 10
202.9613753478
 20
60.8706747674
 10
202.87176302
 20
61.4094276395
 10
202.7464959731
 20
61.828811437
 10
202.5957225983
 20
62.0948501788
 10
202.4316576578
 20
62.1859909881
  0
LWPOLYLINE
  5
2BC
330
1F
100
AcDbEntity
  8
0
  6
SLD-Сплошная
 62
     7
370
    25
100
AcDbPolyline
 90
       12
 70
   128
 43
0.0
 10
202.4316576578
 20
62.1859909881
 10
202.2675927173
 20
62.0948501788
 10
202.1168193426
 20
61.828811437
 10
201.9915522957
 20
61.4094276395
 10
201.9019399678
 20
60.8706747674
 10
201.8552422169
 20
60.2561993743
 10
201.8552422169
 20
59.615782602
 10
201.9019399678
 20
59.0013072089
 10
201.9915522957
 20
58.4625543368
 10
202.1168193426
 20
58.0431705393
 10
202.2675927173
 20
57.7771317975
 10
202.4316576578
 20
57.6859909881
  0
LWPOLYLINE
  5
2BD
330
1F
100
AcDbEntity
  8
0
  6
SLD-Сплошная
 62
     7
370
    25
100
AcDbPolyline
 90
       12
 70
   128
 43
0.0
 10
185.6084197262
 20
57.6859909881
 10
185.7724846667
 20
57.7771317975
 10
185.9232580414
 20
58.0431705393
 10
186.0485250883
 20
58.4625543368
 10
186.1381374161
 20
59.0013072089
 10
186.1848351671
 20
59.615782602
 10
186.1848351671
 20
60.2561993743
 10
186.1381374161
 20
60.8706747674
 10
186.0485250883
 20
61.4094276395
 10
185.9232580414
 20
61.828811437
 10
185.7724846667
 20
62.0948501788
 10
185.6084197262
 20
62.1859909881
  0
LWPOLYLINE
  5
2BE
330
1F
100
AcDbEntity
  8
0
  6
SLD-Сплошная
 62
     7
370
    25
100
AcDbPolyline
 90
       12
 70
   128
 43
0.0
 10
185.6084197262
 20
62.1859909881
 10
185.4443547856
 20
62.0948501788
 10
185.2935814109
 20
61.828811437
 10
185.168314364
 20
61.4094276395
 10
185.0787020362
 20
60.8706747674
 10
185.0320042852
 20
60.2561993743
 10
185.0320042852
 20
59.615782602
 10
185.0787020362
 20
59.0013072089
 10
185.168314364
 20
58.4625543368
 10
185.2935814109
 20
58.0431705393
 10
185.4443547856
 20
57.7771317975
 10
185.6084197262
 20
57.6859909881
  0
LINE
  5
2BF
330
1F
100
AcDbEntity
  8
0
  6
SLD-Сплошная
 62
     7
370
    25
100
AcDbLine
 10
184.3143245006
 20
-6.5640090119
 30
0.0
 11
203.7257528833
 21
-6.5640090119
 31
0.0
  0
LWPOLYLINE
  5
2C0
330
1F
100
AcDbEntity
  8
0
  6
SLD-Сплошная
 62
     7
370
    25
100
AcDbPolyline
 90
        9
 70
   128
 43
0.0
 10
183.0202292751
 20
-1.5640090119
 10
183.045094952
 20
-2.5394606219
 10
183.1187364087
 20
-3.4774261737
 10
183.2383236452
 20
-4.341860177
 10
183.3992609912
 20
-5.0995429178
 10
183.5953637147
 20
-5.7213570734
 10
183.8190956979
 20
-6.1834066744
 10
184.0618590464
 20
-6.4679354139
 10
184.3143245006
 20
-6.5640090119
  0
LINE
  5
2C1
330
1F
100
AcDbEntity
  8
0
  6
SLD-Сплошная
 62
     7
370
    25
100
AcDbLine
 10
183.0202292751
 20
63.4359909881
 30
0.0
 11
183.0202292751
 21
57.0859909881
 31
0.0
  0
LINE
  5
2C2
330
1F
100
AcDbEntity
  8
0
  6
SLD-Сплошная
 62
     7
370
    25
100
AcDbLine
 10
183.0202292751
 20
5.1859909881
 30
0.0
 11
183.0202292751
 21
-1.5640090119
 31
0.0
  0
LWPOLYLINE
  5
2C3
330
1F
100
AcDbEntity
  8
0
  6
SLD-Сплошная
 62
     7
370
    25
100
AcDbPolyline
 90
        9
 70
   128
 43
0.0
 10
184.3143245006
 20
68.4359909881
 10
184.0618590464
 20
68.3399173902
 10
183.8190956979
 20
68.0553886507
 10
183.5953637147
 20
67.5933390497
 10
183.3992609912
 20
66.9715248941
 10
183.2383236452
 20
66.2138421532
 10
183.1187364087
 20
65.34940815
 10
183.045094952
 20
64.4114425982
 10
183.0202292751
 20
63.4359909881
  0
LINE
  5
2C4
330
1F
100
AcDbEntity
  8
0
  6
SLD-Сплошная
 62
     7
370
    25
100
AcDbLine
 10
203.7257528833
 20
68.4359909881
 30
0.0
 11
184.3143245006
 21
68.4359909881
 31
0.0
  0
LINE
  5
2C5
330
1F
100
AcDbEntity
  8
0
  6
SLD-Сплошная
 62
     7
370
    25
100
AcDbLine
 10
205.0198481088
 20
-1.5640090119
 30
0.0
 11
205.0198481088
 21
63.4359909881
 31
0.0
  0
LWPOLYLINE
  5
2C6
330
1F
100
AcDbEntity
  8
0
  6
SLD-Сплошная
 62
     7
370
    25
100
AcDbPolyline
 90
        9
 70
   128
 43
0.0
 10
203.7257528833
 20
-6.5640090119
 10
203.9782183376
 20
-6.4679354139
 10
204.220981686
 20
-6.1834066744
 10
204.4447136693
 20
-5.7213570734
 10
204.6408163928
 20
-5.0995429178
 10
204.8017537388
 20
-4.341860177
 10
204.9213409753
 20
-3.4774261737
 10
204.994982432
 20
-2.5394606219
 10
205.0198481088
 20
-1.5640090119
  0
LINE
  5
2C7
330
1F
100
AcDbEntity
  8
0
  6
SLD-Сплошная
 62
     7
370
    25
100
AcDbLine
 10
212.7472547192
 20
-1.5640090119
 30
0.0
 11
212.7472547192
 21
63.4359909881
 31
0.0
  0
LWPOLYLINE
  5
2C8
330
1F
100
AcDbEntity
  8
0
  6
SLD-Сплошная
 62
     7
370
    25
100
AcDbPolyline
 90
        9
 70
   128
 43
0.0
 10
211.4531594936
 20
-6.5640090119
 10
211.7056249479
 20
-6.4679354139
 10
211.9483882963
 20
-6.1834066744
 10
212.1721202796
 20
-5.7213570734
 10
212.3682230031
 20
-5.0995429178
 10
212.5291603491
 20
-4.341860177
 10
212.6487475856
 20
-3.4774261737
 10
212.7223890423
 20
-2.5394606219
 10
212.7472547192
 20
-1.5640090119
  0
LINE
  5
2C9
330
1F
100
AcDbEntity
  8
0
  6
SLD-Сплошная
 62
     7
370
    25
100
AcDbLine
 10
211.4531594936
 20
-6.5640090119
 30
0.0
 11
203.7257528833
 21
-6.5640090119
 31
0.0
  0
LINE
  5
2CA
330
1F
100
AcDbEntity
  8
0
  6
SLD-Сплошная
 62
     7
370
    25
100
AcDbLine
 10
172.5323056405
 20
40.9359909881
 30
0.0
 11
172.5323056405
 21
44.9359909881
 31
0.0
  0
LINE
  5
2CB
330
1F
100
AcDbEntity
  8
0
  6
SLD-Сплошная
 62
     7
370
    25
100
AcDbLine
 10
179.6453969492
 20
44.9359909881
 30
0.0
 11
172.5323056405
 21
44.9359909881
 31
0.0
  0
LINE
  5
2CC
330
1F
100
AcDbEntity
  8
0
  6
SLD-Сплошная
 62
     7
370
    25
100
AcDbLine
 10
179.6453969492
 20
16.9359909881
 30
0.0
 11
172.5323056405
 21
16.9359909881
 31
0.0
  0
LINE
  5
2CD
330
1F
100
AcDbEntity
  8
0
  6
SLD-Сплошная
 62
     7
370
    25
100
AcDbLine
 10
172.5323056405
 20
20.9359909881
 30
0.0
 11
172.5323056405
 21
16.9359909881
 31
0.0
  0
LINE
  5
2CE
330
1F
100
AcDbEntity
  8
0
  6
SLD-Сплошная
 62
     7
370
    25
100
AcDbLine
 10
193.0323056405
 20
40.9359909881
 30
0.0
 11
193.0323056405
 21
20.9359909881
 31
0.0
  0
LINE
  5
2CF
330
1F
100
AcDbEntity
  8
0
  6
SLD-Сплошная
 62
     7
370
    25
100
AcDbLine
 10
201.5654957238
 20
16.9359909881
 30
0.0
 11
179.6453969492
 21
16.9359909881
 31
0.0
  0
LINE
  5
2D0
330
1F
100
AcDbEntity
  8
0
  6
SLD-Сплошная
 62
     7
370
    25
100
AcDbLine
 10
193.0323056405
 20
20.9359909881
 30
0.0
 11
182.9679761788
 21
20.9359909881
 31
0.0
  0
LINE
  5
2D1
330
1F
100
AcDbEntity
  8
0
  6
SLD-Сплошная
 62
     7
370
    25
100
AcDbLine
 10
182.9679761788
 20
40.9359909881
 30
0.0
 11
193.0323056405
 21
40.9359909881
 31
0.0
  0
LINE
  5
2D2
330
1F
100
AcDbEntity
  8
0
  6
SLD-Сплошная
 62
     7
370
    25
100
AcDbLine
 10
201.5654957238
 20
44.9359909881
 30
0.0
 11
179.6453969492
 21
44.9359909881
 31
0.0
  0
LINE
  5
2D3
330
1F
100
AcDbEntity
  8
0
  6
SLD-Сплошная
 62
     7
370
    25
100
AcDbLine
 10
187.0323056405
 20
4.7859909881
 30
0.0
 11
187.0323056405
 21
8.5735051526
 31
0.0
  0
LINE
  5
2D4
330
1F
100
AcDbEntity
  8
0
  6
SLD-Сплошная
 62
     7
370
    25
100
AcDbLine
 10
187.0323056405
 20
8.5735051526
 30
0.0
 11
170.0323056405
 21
8.5735051526
 31
0.0
  0
LINE
  5
2D5
330
1F
100
AcDbEntity
  8
0
  6
SLD-Сплошная
 62
     7
370
    25
100
AcDbLine
 10
170.0323056405
 20
4.7859909881
 30
0.0
 11
170.0323056405
 21
8.5735051526
 31
0.0
  0
LINE
  5
2D6
330
1F
100
AcDbEntity
  8
0
  6
SLD-Сплошная
 62
     7
370
    25
100
AcDbLine
 10
194.020038692
 20
4.7859909881
 30
0.0
 11
188.0323056405
 21
4.7859909881
 31
0.0
  0
LINE
  5
2D7
330
1F
100
AcDbEntity
  8
0
  6
SLD-Сплошная
 62
     7
370
    25
100
AcDbLine
 10
165.0323056405
 20
4.7859909881
 30
0.0
 11
165.0323056405
 21
20.9359909881
 31
0.0
  0
LINE
  5
2D8
330
1F
100
AcDbEntity
  8
0
  6
SLD-Сплошная
 62
     7
370
    25
100
AcDbLine
 10
165.0323056405
 20
40.9359909881
 30
0.0
 11
165.0323056405
 21
57.0859909881
 31
0.0
  0
LINE
  5
2D9
330
1F
100
AcDbEntity
  8
0
  6
SLD-Сплошная
 62
     7
370
    25
100
AcDbLine
 10
194.020038692
 20
57.0859909881
 30
0.0
 11
165.0323056405
 21
57.0859909881
 31
0.0
  0
LINE
  5
2DA
330
1F
100
AcDbEntity
  8
0
  6
SLD-Сплошная
 62
     7
370
    25
100
AcDbLine
 10
212.7472547192
 20
18.3547896331
 30
0.0
 11
227.0323056405
 21
18.3547896331
 31
0.0
  0
LINE
  5
2DB
330
1F
100
AcDbEntity
  8
0
  6
SLD-Сплошная
 62
     7
370
    25
100
AcDbLine
 10
227.0323056405
 20
18.3547896331
 30
0.0
 11
227.0323056405
 21
24.4114707063
 31
0.0
  0
LINE
  5
2DC
330
1F
100
AcDbEntity
  8
0
  6
SLD-Сплошная
 62
     7
370
    25
100
AcDbLine
 10
212.7472547192
 20
24.4114707063
 30
0.0
 11
227.0323056405
 21
24.4114707063
 31
0.0
  0
LINE
  5
2DD
330
1F
100
AcDbEntity
  8
0
  6
SLD-Сплошная
 62
     7
370
    25
100
AcDbLine
 10
212.7472547192
 20
37.46051127
 30
0.0
 11
227.0323056405
 21
37.46051127
 31
0.0
  0
LINE
  5
2DE
330
1F
100
AcDbEntity
  8
0
  6
SLD-Сплошная
 62
     7
370
    25
100
AcDbLine
 10
227.0323056405
 20
37.46051127
 30
0.0
 11
227.0323056405
 21
43.5171923432
 31
0.0
  0
LINE
  5
2DF
330
1F
100
AcDbEntity
  8
0
  6
SLD-Сплошная
 62
     7
370
    25
100
AcDbLine
 10
212.7472547192
 20
43.5171923432
 30
0.0
 11
227.0323056405
 21
43.5171923432
 31
0.0
  0
LINE
  5
2E0
330
1F
100
AcDbEntity
  8
0
  6
SLD-Сплошная
 62
     7
370
    25
100
AcDbLine
 10
212.7472547192
 20
50.8859909881
 30
0.0
 11
229.5323056405
 21
50.8859909881
 31
0.0
  0
LINE
  5
2E1
330
1F
100
AcDbEntity
  8
0
  6
SLD-Сплошная
 62
     7
370
    25
100
AcDbLine
 10
212.7472547192
 20
10.9859909881
 30
0.0
 11
229.5323056405
 21
10.9859909881
 31
0.0
  0
LINE
  5
2E2
330
1F
100
AcDbEntity
  8
0
  6
SLD-Сплошная
 62
     7
370
    25
100
AcDbLine
 10
229.5323056405
 20
10.9859909881
 30
0.0
 11
229.5323056405
 21
50.8859909881
 31
0.0
  0
LINE
  5
2E3
330
1F
100
AcDbEntity
  8
0
  6
SLD-Сплошная
 62
     7
370
    25
100
AcDbLine
 10
215.0323056405
 20
42.4494355632
 30
0.0
 11
215.3454126513
 21
42.4494355632
 31
0.0
  0
LINE
  5
2E4
330
1F
100
AcDbEntity
  8
0
  6
SLD-Сплошная
 62
     7
370
    25
100
AcDbLine
 10
218.3191986297
 20
42.4494355632
 30
0.0
 11
222.0454126513
 21
42.4494355632
 31
0.0
  0
LINE
  5
2E5
330
1F
100
AcDbEntity
  8
0
  6
SLD-Сплошная
 62
     7
370
    25
100
AcDbLine
 10
225.0191986297
 20
42.4494355632
 30
0.0
 11
227.0323056405
 21
42.4494355632
 31
0.0
  0
LINE
  5
2E6
330
1F
100
AcDbEntity
  8
0
  6
SLD-Сплошная
 62
     7
370
    25
100
AcDbLine
 10
212.7472547192
 20
42.4678585147
 30
0.0
 11
215.0323056405
 21
42.4678585147
 31
0.0
  0
LINE
  5
2E7
330
1F
100
AcDbEntity
  8
0
  6
SLD-Сплошная
 62
     7
370
    25
100
AcDbLine
 10
215.0323056405
 20
19.4225464131
 30
0.0
 11
215.3454126513
 21
19.4225464131
 31
0.0
  0
LINE
  5
2E8
330
1F
100
AcDbEntity
  8
0
  6
SLD-Сплошная
 62
     7
370
    25
100
AcDbLine
 10
218.3191986297
 20
19.4225464131
 30
0.0
 11
222.0454126513
 21
19.4225464131
 31
0.0
  0
LINE
  5
2E9
330
1F
100
AcDbEntity
  8
0
  6
SLD-Сплошная
 62
     7
370
    25
100
AcDbLine
 10
225.0191986297
 20
19.4225464131
 30
0.0
 11
227.0323056405
 21
19.4225464131
 31
0.0
  0
LINE
  5
2EA
330
1F
100
AcDbEntity
  8
0
  6
SLD-Сплошная
 62
     7
370
    25
100
AcDbLine
 10
215.0323056405
 20
19.4041234616
 30
0.0
 11
212.7472547192
 21
19.4041234616
 31
0.0
  0
SPLINE
  5
2EB
330
1F
100
AcDbEntity
  8
0
  6
SLD-Сплошная
 62
     7
370
    25
100
AcDbSpline
210
0.0
220
0.0
230
1.0
 70
     8
 71
     3
 72
     8
 73
     4
 74
     0
 42
0.00000001
 43
0.00000001
 40
0.0
 40
0.0
 40
0.0
 40
0.0
 40
1.0
 40
1.0
 40
1.0
 40
1.0
 10
182.9400510931016
 20
7.608929605311534
 30
0.0
 10
181.4706411768871
 20
7.088107017201941
 30
0.0
 10
180.0017155568063
 20
6.64738003429003
 30
0.0
 10
178.5323056405037
 20
6.290969831681547
 30
0.0
  0
SPLINE
  5
2EC
330
1F
100
AcDbEntity
  8
0
  6
SLD-Сплошная
 62
     7
370
    25
100
AcDbSpline
210
0.0
220
0.0
230
1.0
 70
     8
 71
     3
 72
     8
 73
     4
 74
     0
 42
0.00000001
 43
0.00000001
 40
0.0
 40
0.0
 40
0.0
 40
0.0
 40
1.0
 40
1.0
 40
1.0
 40
1.0
 10
178.5323056405037
 20
6.290969831681547
 30
0.0
 10
177.0628957229482
 20
6.647380034593565
 30
0.0
 10
175.5939701055325
 20
7.088107016700366
 30
0.0
 10
174.1245601879013
 20
7.608929605311534
 30
0.0
  0
LINE
  5
2ED
330
1F
100
AcDbEntity
  8
0
  6
SLD-Сплошная
 62
     7
370
    25
100
AcDbLine
 10
176.1798758289
 20
5.5670885567
 30
0.0
 11
174.1245601879
 21
5.5670885567
 31
0.0
  0
LINE
  5
2EE
330
1F
100
AcDbEntity
  8
0
  6
SLD-Сплошная
 62
     7
370
    25
100
AcDbLine
 10
182.9400510931
 20
5.5670885567
 30
0.0
 11
180.8796882792
 21
5.5670885567
 31
0.0
  0
LINE
  5
2EF
330
1F
100
AcDbEntity
  8
0
  6
SLD-Сплошная
 62
     7
370
    25
100
AcDbLine
 10
229.9323056405
 20
38.6097133562
 30
0.0
 11
229.9323056405
 21
38.8894609523
 31
0.0
  0
LINE
  5
2F0
330
1F
100
AcDbEntity
  8
0
  6
SLD-Сплошная
 62
     7
370
    25
100
AcDbLine
 10
229.9323056405
 20
38.6097133562
 30
0.0
 11
229.5323056405
 21
38.6097133562
 31
0.0
  0
LINE
  5
2F1
330
1F
100
AcDbEntity
  8
0
  6
SLD-Сплошная
 62
     7
370
    25
100
AcDbLine
 10
229.9323056405
 20
38.8894609523
 30
0.0
 11
229.5323056405
 21
38.8894609523
 31
0.0
  0
LINE
  5
2F2
330
1F
100
AcDbEntity
  8
0
  6
SLD-Сплошная
 62
     7
370
    25
100
AcDbLine
 10
229.9323056405
 20
37.8020210485
 30
0.0
 11
229.5323056405
 21
37.8020210485
 31
0.0
  0
LINE
  5
2F3
330
1F
100
AcDbEntity
  8
0
  6
SLD-Сплошная
 62
     7
370
    25
100
AcDbLine
 10
229.9323056405
 20
37.8020210485
 30
0.0
 11
229.9323056405
 21
38.6097133562
 31
0.0
  0
LINE
  5
2F4
330
1F
100
AcDbEntity
  8
0
  6
SLD-Сплошная
 62
     7
370
    25
100
AcDbLine
 10
229.9323056405
 20
36.3212518177
 30
0.0
 11
229.5323056405
 21
36.3212518177
 31
0.0
  0
LINE
  5
2F5
330
1F
100
AcDbEntity
  8
0
  6
SLD-Сплошная
 62
     7
370
    25
100
AcDbLine
 10
229.9323056405
 20
35.9622774587
 30
0.0
 11
229.5323056405
 21
35.9622774587
 31
0.0
  0
LINE
  5
2F6
330
1F
100
AcDbEntity
  8
0
  6
SLD-Сплошная
 62
     7
370
    25
100
AcDbLine
 10
229.9323056405
 20
35.9622774587
 30
0.0
 11
229.9323056405
 21
36.3212518177
 31
0.0
  0
SPLINE
  5
2F7
330
1F
100
AcDbEntity
  8
0
  6
SLD-Сплошная
 62
     7
370
    25
100
AcDbSpline
210
0.0
220
0.0
230
1.0
 70
     8
 71
     3
 72
     8
 73
     4
 74
     0
 42
0.00000001
 43
0.00000001
 40
0.0
 40
0.0
 40
0.0
 40
0.0
 40
1.0
 40
1.0
 40
1.0
 40
1.0
 10
182.9400510931016
 20
7.168117865829649
 30
0.0
 10
181.4700176221066
 20
6.656737817355856
 30
0.0
 10
180.0011825701499
 20
6.223672060491042
 30
0.0
 10
178.5323056405037
 20
5.873328164683261
 30
0.0
  0
LINE
  5
2F8
330
1F
100
AcDbEntity
  8
0
  6
SLD-Сплошная
 62
     7
370
    25
100
AcDbLine
 10
178.5323056405
 20
6.2909698317
 30
0.0
 11
178.5323056405
 21
5.8733281647
 31
0.0
  0
LINE
  5
2F9
330
1F
100
AcDbEntity
  8
0
  6
SLD-Сплошная
 62
     7
370
    25
100
AcDbLine
 10
182.9400510931
 20
7.6089296053
 30
0.0
 11
182.9400510931
 21
7.1681178658
 31
0.0
  0
SPLINE
  5
2FA
330
1F
100
AcDbEntity
  8
0
  6
SLD-Сплошная
 62
     7
370
    25
100
AcDbSpline
210
0.0
220
0.0
230
1.0
 70
     8
 71
     3
 72
     8
 73
     4
 74
     0
 42
0.00000001
 43
0.00000001
 40
0.0
 40
0.0
 40
0.0
 40
0.0
 40
1.0
 40
1.0
 40
1.0
 40
1.0
 10
178.5323056405037
 20
5.873328164683254
 30
0.0
 10
177.0634289901406
 20
6.223671993878483
 30
0.0
 10
175.5945933292633
 20
6.656737932025685
 30
0.0
 10
174.1245601879013
 20
7.168117865829649
 30
0.0
  0
LINE
  5
2FB
330
1F
100
AcDbEntity
  8
0
  6
SLD-Сплошная
 62
     7
370
    25
100
AcDbLine
 10
174.1245601879
 20
7.6089296053
 30
0.0
 11
174.1245601879
 21
7.1681178658
 31
0.0
  0
LINE
  5
2FC
330
1F
100
AcDbEntity
  8
0
  6
SLD-Сплошная
 62
     7
370
    25
100
AcDbLine
 10
174.1245601879
 20
4.8368272404
 30
0.0
 11
174.1245601879
 21
5.1611736158
 31
0.0
  0
LINE
  5
2FD
330
1F
100
AcDbEntity
  8
0
  6
SLD-Сплошная
 62
     7
370
    25
100
AcDbLine
 10
178.419757764
 20
5.1611736158
 30
0.0
 11
174.1245601879
 21
5.1611736158
 31
0.0
  0
LINE
  5
2FE
330
1F
100
AcDbEntity
  8
0
  6
SLD-Сплошная
 62
     7
370
    25
100
AcDbLine
 10
178.419757764
 20
5.1611736158
 30
0.0
 11
178.419757764
 21
5.1772328665
 31
0.0
  0
SPLINE
  5
2FF
330
1F
100
AcDbEntity
  8
0
  6
SLD-Сплошная
 62
     7
370
    25
100
AcDbSpline
210
0.0
220
0.0
230
1.0
 70
     8
 71
     3
 72
     8
 73
     4
 74
     0
 42
0.00000001
 43
0.00000001
 40
0.0
 40
0.0
 40
0.0
 40
0.0
 40
1.0
 40
1.0
 40
1.0
 40
1.0
 10
174.1245601879022
 20
6.036770380845127
 30
0.0
 10
175.5568081625082
 20
5.6710546001233
 30
0.0
 10
176.9881785958506
 20
5.383624489208066
 30
0.0
 10
178.4197577639723
 20
5.177232866483497
 30
0.0
  0
SPLINE
  5
300
330
1F
100
AcDbEntity
  8
0
  6
SLD-Сплошная
 62
     7
370
    25
100
AcDbSpline
210
0.0
220
0.0
230
1.0
 70
     8
 71
     3
 72
     8
 73
     4
 74
     0
 42
0.00000001
 43
0.00000001
 40
0.0
 40
0.0
 40
0.0
 40
0.0
 40
1.0
 40
1.0
 40
1.0
 40
1.0
 10
178.6448535170315
 20
5.177232866483802
 30
0.0
 10
180.0764325342079
 20
5.383624467446428
 30
0.0
 10
181.507803305226
 20
5.671054647803795
 30
0.0
 10
182.9400510931025
 20
6.03677038084512
 30
0.0
  0
LINE
  5
301
330
1F
100
AcDbEntity
  8
0
  6
SLD-Сплошная
 62
     7
370
    25
100
AcDbLine
 10
178.644853517
 20
5.1611736158
 30
0.0
 11
178.644853517
 21
5.1772328665
 31
0.0
  0
LINE
  5
302
330
1F
100
AcDbEntity
  8
0
  6
SLD-Сплошная
 62
     7
370
    25
100
AcDbLine
 10
182.9400510931
 20
5.1611736158
 30
0.0
 11
178.644853517
 21
5.1611736158
 31
0.0
  0
LINE
  5
303
330
1F
100
AcDbEntity
  8
0
  6
SLD-Сплошная
 62
     7
370
    25
100
AcDbLine
 10
182.9400510931
 20
4.8368272404
 30
0.0
 11
182.9400510931
 21
5.1611736158
 31
0.0
  0
LINE
  5
304
330
1F
100
AcDbEntity
  8
0
  6
SLD-Сплошная
 62
     7
370
    25
100
AcDbLine
 10
174.1245601879
 20
4.8368272404
 30
0.0
 11
182.9400510931
 21
4.8368272404
 31
0.0
  0
LINE
  5
305
330
1F
100
AcDbEntity
  8
0
  6
SLD-Сплошная
 62
     7
370
    25
100
AcDbLine
 10
182.9400510931
 20
6.0367703808
 30
0.0
 11
182.9400510931
 21
7.1681178658
 31
0.0
  0
LINE
  5
306
330
1F
100
AcDbEntity
  8
0
  6
SLD-Сплошная
 62
     7
370
    25
100
AcDbLine
 10
174.1245601879
 20
6.0367703808
 30
0.0
 11
174.1245601879
 21
7.1681178658
 31
0.0
  0
LINE
  5
307
330
1F
100
AcDbEntity
  8
0
  6
SLD-Сплошная
 62
     7
370
    25
100
AcDbLine
 10
229.9323056405
 20
39.8661236126
 30
0.0
 11
229.5323056405
 21
39.8661236126
 31
0.0
  0
LINE
  5
308
330
1F
100
AcDbEntity
  8
0
  6
SLD-Сплошная
 62
     7
370
    25
100
AcDbLine
 10
229.9323056405
 20
40.1802261767
 30
0.0
 11
229.5323056405
 21
40.1802261767
 31
0.0
  0
LINE
  5
309
330
1F
100
AcDbEntity
  8
0
  6
SLD-Сплошная
 62
     7
370
    25
100
AcDbLine
 10
229.9323056405
 20
39.8661236126
 30
0.0
 11
229.9323056405
 21
40.1802261767
 31
0.0
  0
LINE
  5
30A
330
1F
100
AcDbEntity
  8
0
  6
SLD-Сплошная
 62
     7
370
    25
100
AcDbLine
 10
215.0323056405
 20
42.4678585147
 30
0.0
 11
215.0323056405
 21
42.2359197407
 31
0.0
  0
LINE
  5
30B
330
1F
100
AcDbEntity
  8
0
  6
SLD-Сплошная
 62
     7
370
    25
100
AcDbLine
 10
215.0323056405
 20
19.7886482839
 30
0.0
 11
215.0323056405
 21
19.4041234616
 31
0.0
  0
LINE
  5
30C
330
1F
100
AcDbEntity
  8
0
  6
SLD-Сплошная
 62
     7
370
    25
100
AcDbLine
 10
229.9323056405
 20
40.9430466895
 30
0.0
 11
229.5323056405
 21
40.9430466895
 31
0.0
  0
LINE
  5
30D
330
1F
100
AcDbEntity
  8
0
  6
SLD-Сплошная
 62
     7
370
    25
100
AcDbLine
 10
229.9323056405
 20
40.1802261767
 30
0.0
 11
229.9323056405
 21
40.9430466895
 31
0.0
  0
LINE
  5
30E
330
1F
100
AcDbEntity
  8
0
  6
SLD-Сплошная
 62
     7
370
    25
100
AcDbLine
 10
229.9323056405
 20
39.1033030997
 30
0.0
 11
229.5323056405
 21
39.1033030997
 31
0.0
  0
LINE
  5
30F
330
1F
100
AcDbEntity
  8
0
  6
SLD-Сплошная
 62
     7
370
    25
100
AcDbLine
 10
229.9323056405
 20
39.1033030997
 30
0.0
 11
229.9323056405
 21
39.8661236126
 31
0.0
  0
LINE
  5
310
330
1F
100
AcDbEntity
  8
0
  6
SLD-Сплошная
 62
     7
370
    25
100
AcDbLine
 10
229.9323056405
 20
37.6674056638
 30
0.0
 11
229.5323056405
 21
37.6674056638
 31
0.0
  0
LINE
  5
311
330
1F
100
AcDbEntity
  8
0
  6
SLD-Сплошная
 62
     7
370
    25
100
AcDbLine
 10
229.9323056405
 20
36.3212518177
 30
0.0
 11
229.9323056405
 21
37.6674056638
 31
0.0
  0
LINE
  5
312
330
1F
100
AcDbEntity
  8
0
  6
SLD-Сплошная
 62
     7
370
    25
100
AcDbLine
 10
229.9323056405
 20
18.9359909881
 30
0.0
 11
229.5323056405
 21
18.9359909881
 31
0.0
  0
LINE
  5
313
330
1F
100
AcDbEntity
  8
0
  6
SLD-Сплошная
 62
     7
370
    25
100
AcDbLine
 10
229.9323056405
 20
18.9359909881
 30
0.0
 11
229.9323056405
 21
15.9359909881
 31
0.0
  0
LINE
  5
314
330
1F
100
AcDbEntity
  8
0
  6
SLD-Сплошная
 62
     7
370
    25
100
AcDbLine
 10
229.9323056405
 20
15.9359909881
 30
0.0
 11
229.5323056405
 21
15.9359909881
 31
0.0
  0
LINE
  5
315
330
1F
100
AcDbEntity
  8
0
  6
SLD-Сплошная
 62
     7
370
    25
100
AcDbLine
 10
229.9323056405
 20
15.4680422702
 30
0.0
 11
229.5323056405
 21
15.4680422702
 31
0.0
  0
LINE
  5
316
330
1F
100
AcDbEntity
  8
0
  6
SLD-Сплошная
 62
     7
370
    25
100
AcDbLine
 10
229.9323056405
 20
14.7083267253
 30
0.0
 11
229.5323056405
 21
14.7083267253
 31
0.0
  0
SPLINE
  5
317
330
1F
100
AcDbEntity
  8
0
  6
SLD-Сплошная
 62
     7
370
    25
100
AcDbSpline
210
0.0
220
0.0
230
1.0
 70
    24
 71
     3
 72
    18
 73
    14
 74
     0
 42
0.00000001
 43
0.00000001
 40
0.0
 40
0.0
 40
0.0
 40
0.0
 40
0.1250000000000004
 40
0.1250000000000004
 40
0.2500000000000008
 40
0.2500000000000008
 40
0.5000000000000017
 40
0.5000000000000017
 40
0.7500000000000024
 40
0.7500000000000024
 40
0.8750000000000012
 40
0.8750000000000012
 40
1.0
 40
1.0
 40
1.0
 40
1.0
 10
229.9323056405032
 20
14.7083267253245
 30
0.0
 10
229.9323056405032
 20
14.75990996667441
 30
0.0
 10
229.9323056405032
 20
14.81147867705977
 30
0.0
 10
229.9323056405032
 20
14.91292042688784
 30
0.0
 10
229.9323056405032
 20
14.96281599003588
 30
0.0
 10
229.9323056405032
 20
15.10537532955282
 30
0.0
 10
229.9323056405032
 20
15.19060203525193
 30
0.0
 10
229.9323056405032
 20
15.33285450560556
 30
0.0
 10
229.9323056405032
 20
15.38774603860751
 30
0.0
 10
229.9323056405032
 20
15.43731743500371
 30
0.0
 10
229.9323056405032
 20
15.44963181098894
 30
0.0
 10
229.9323056405032
 20
15.46489188711138
 30
0.0
 10
229.9323056405032
 20
15.46678481042845
 30
0.0
 10
229.9323056405032
 20
15.4680422701963
 30
0.0
  0
LINE
  5
318
330
1F
100
AcDbEntity
  8
0
  6
SLD-Сплошная
 62
     7
370
    25
100
AcDbLine
 10
229.9323056405
 20
14.0647970779
 30
0.0
 11
229.5323056405
 21
14.0647970779
 31
0.0
  0
SPLINE
  5
319
330
1F
100
AcDbEntity
  8
0
  6
SLD-Сплошная
 62
     7
370
    25
100
AcDbSpline
210
0.0
220
0.0
230
1.0
 70
    24
 71
     3
 72
    14
 73
    10
 74
     0
 42
0.00000001
 43
0.00000001
 40
0.0
 40
0.0
 40
0.0
 40
0.0
 40
0.2500000000000009
 40
0.2500000000000009
 40
0.5000000000000018
 40
0.5000000000000018
 40
0.7500000000000009
 40
0.7500000000000009
 40
1.0
 40
1.0
 40
1.0
 40
1.0
 10
229.9323056405032
 20
14.0647970778886
 30
0.0
 10
229.9323056405032
 20
14.08774691775327
 30
0.0
 10
229.9323056405032
 20
14.1175215250412
 30
0.0
 10
229.9323056405032
 20
14.19643669387855
 30
0.0
 10
229.9323056405032
 20
14.24710983932722
 30
0.0
 10
229.9323056405032
 20
14.36296566926513
 30
0.0
 10
229.9323056405032
 20
14.42827686825236
 30
0.0
 10
229.9323056405032
 20
14.56528381033465
 30
0.0
 10
229.9323056405032
 20
14.63696943155043
 30
0.0
 10
229.9323056405032
 20
14.7083267253245
 30
0.0
  0
LINE
  5
31A
330
1F
100
AcDbEntity
  8
0
  6
SLD-Сплошная
 62
     7
370
    25
100
AcDbLine
 10
229.9323056405
 20
13.5745126228
 30
0.0
 11
229.5323056405
 21
13.5745126228
 31
0.0
  0
SPLINE
  5
31B
330
1F
100
AcDbEntity
  8
0
  6
SLD-Сплошная
 62
     7
370
    25
100
AcDbSpline
210
0.0
220
0.0
230
1.0
 70
    24
 71
     3
 72
    14
 73
    10
 74
     0
 42
0.00000001
 43
0.00000001
 40
0.0
 40
0.0
 40
0.0
 40
0.0
 40
0.25
 40
0.25
 40
0.5
 40
0.5
 40
0.75
 40
0.75
 40
1.0
 40
1.0
 40
1.0
 40
1.0
 10
229.9323056405032
 20
13.5745126227604
 30
0.0
 10
229.9323056405032
 20
13.62955496758145
 30
0.0
 10
229.9323056405032
 20
13.68463272781414
 30
0.0
 10
229.9323056405032
 20
13.7895104586985
 30
0.0
 10
229.9323056405032
 20
13.8388478732493
 30
0.0
 10
229.9323056405032
 20
13.92530228853961
 30
0.0
 10
229.9323056405032
 20
13.9625157390749
 30
0.0
 10
229.9323056405032
 20
14.02248567771905
 30
0.0
 10
229.9323056405032
 20
14.04414627497038
 30
0.0
 10
229.9323056405032
 20
14.0647970778886
 30
0.0
  0
LINE
  5
31C
330
1F
100
AcDbEntity
  8
0
  6
SLD-Сплошная
 62
     7
370
    25
100
AcDbLine
 10
229.9323056405
 20
12.9359909881
 30
0.0
 11
229.5323056405
 21
12.9359909881
 31
0.0
  0
SPLINE
  5
31D
330
1F
100
AcDbEntity
  8
0
  6
SLD-Сплошная
 62
     7
370
    25
100
AcDbSpline
210
0.0
220
0.0
230
1.0
 70
    24
 71
     3
 72
    16
 73
    12
 74
     0
 42
0.00000001
 43
0.00000001
 40
0.0
 40
0.0
 40
0.0
 40
0.0
 40
0.2499999999999998
 40
0.2499999999999998
 40
0.4999999999999996
 40
0.4999999999999996
 40
0.7499999999999993
 40
0.7499999999999993
 40
0.8749999999999997
 40
0.8749999999999997
 40
1.0
 40
1.0
 40
1.0
 40
1.0
 10
229.9323056405032
 20
12.93599098814502
 30
0.0
 10
229.9323056405032
 20
12.93799688913747
 30
0.0
 10
229.9323056405032
 20
12.94678166056266
 30
0.0
 10
229.9323056405032
 20
13.00116882887836
 30
0.0
 10
229.9323056405032
 20
13.04485889089945
 30
0.0
 10
229.9323056405032
 20
13.162605093328
 30
0.0
 10
229.9323056405032
 20
13.23414603370134
 30
0.0
 10
229.9323056405032
 20
13.35558548552171
 30
0.0
 10
229.9323056405032
 20
13.39823832603818
 30
0.0
 10
229.9323056405032
 20
13.48538966512567
 30
0.0
 10
229.9323056405032
 20
13.52999696320685
 30
0.0
 10
229.9323056405032
 20
13.5745126227604
 30
0.0
  0
LINE
  5
31E
330
1F
100
AcDbEntity
  8
0
  6
SLD-Сплошная
 62
     7
370
    25
100
AcDbLine
 10
182.9400510931
 20
5.5670885567
 30
0.0
 11
182.9400510931
 21
5.1611736158
 31
0.0
  0
LINE
  5
31F
330
1F
100
AcDbEntity
  8
0
  6
SLD-Сплошная
 62
     7
370
    25
100
AcDbLine
 10
174.1245601879
 20
5.5670885567
 30
0.0
 11
174.1245601879
 21
5.1611736158
 31
0.0
  0
LINE
  5
320
330
1F
100
AcDbEntity
  8
0
  6
SLD-Сплошная
 62
     7
370
    25
100
AcDbLine
 10
246.0323056405
 20
36.4359909881
 30
0.0
 11
229.9323056405
 21
36.4359909881
 31
0.0
  0
LINE
  5
321
330
1F
100
AcDbEntity
  8
0
  6
SLD-Сплошная
 62
     7
370
    25
100
AcDbLine
 10
229.5323056405
 20
34.8859909881
 30
0.0
 11
246.0323056405
 21
34.8859909881
 31
0.0
  0
LINE
  5
322
330
1F
100
AcDbEntity
  8
0
  6
SLD-Сплошная
 62
     7
370
    25
100
AcDbLine
 10
246.0323056405
 20
34.8859909881
 30
0.0
 11
246.0323056405
 21
36.4359909881
 31
0.0
  0
LINE
  5
323
330
1F
100
AcDbEntity
  8
0
  6
SLD-Сплошная
 62
     7
370
    25
100
AcDbLine
 10
229.5323056405
 20
26.9859909881
 30
0.0
 11
246.0323056405
 21
26.9859909881
 31
0.0
  0
LINE
  5
324
330
1F
100
AcDbEntity
  8
0
  6
SLD-Сплошная
 62
     7
370
    25
100
AcDbLine
 10
229.5323056405
 20
27.6859909881
 30
0.0
 11
243.5323056405
 21
27.6859909881
 31
0.0
  0
LINE
  5
325
330
1F
100
AcDbEntity
  8
0
  6
SLD-Сплошная
 62
     7
370
    25
100
AcDbLine
 10
243.5323056405
 20
34.1859909881
 30
0.0
 11
229.5323056405
 21
34.1859909881
 31
0.0
  0
LINE
  5
326
330
1F
100
AcDbEntity
  8
0
  6
SLD-Сплошная
 62
     7
370
    25
100
AcDbLine
 10
243.5323056405
 20
27.6859909881
 30
0.0
 11
243.5323056405
 21
34.1859909881
 31
0.0
  0
LINE
  5
327
330
1F
100
AcDbEntity
  8
0
  6
SLD-Сплошная
 62
     7
370
    25
100
AcDbLine
 10
246.0323056405
 20
34.8859909881
 30
0.0
 11
246.0323056405
 21
26.9859909881
 31
0.0
  0
LINE
  5
328
330
1F
100
AcDbEntity
  8
0
  6
SLD-Сплошная
 62
     7
370
    25
100
AcDbLine
 10
246.0323056405
 20
25.4359909881
 30
0.0
 11
229.5323056405
 21
25.4359909881
 31
0.0
  0
LINE
  5
329
330
1F
100
AcDbEntity
  8
0
  6
SLD-Сплошная
 62
     7
370
    25
100
AcDbLine
 10
246.0323056405
 20
25.4359909881
 30
0.0
 11
246.0323056405
 21
26.9859909881
 31
0.0
  0
LINE
  5
32A
330
1F
100
AcDbEntity
  8
0
  6
SLD-Сплошная
 62
     7
370
    25
100
AcDbLine
 10
246.4323056405
 20
28.0859909881
 30
0.0
 11
246.0323056405
 21
28.0859909881
 31
0.0
  0
LINE
  5
32B
330
1F
100
AcDbEntity
  8
0
  6
SLD-Сплошная
 62
     7
370
    25
100
AcDbLine
 10
246.4323056405
 20
33.7859909881
 30
0.0
 11
246.0323056405
 21
33.7859909881
 31
0.0
  0
LINE
  5
32C
330
1F
100
AcDbEntity
  8
0
  6
SLD-Сплошная
 62
     7
370
    25
100
AcDbLine
 10
246.4323056405
 20
33.7859909881
 30
0.0
 11
246.4323056405
 21
28.0859909881
 31
0.0
  0
LINE
  5
32D
330
1F
100
AcDbEntity
  8
0
  6
SLD-Сплошная
 62
     7
370
    25
100
AcDbLine
 10
179.7344153905
 20
4.7991441996
 30
0.0
 11
177.3301958905
 21
4.7991441996
 31
0.0
  0
LINE
  5
32E
330
1F
100
AcDbEntity
  8
0
  6
SLD-Сплошная
 62
     7
370
    25
100
AcDbLine
 10
179.7344153905
 20
4.7859909881
 30
0.0
 11
179.7344153905
 21
4.7991441996
 31
0.0
  0
LINE
  5
32F
330
1F
100
AcDbEntity
  8
0
  6
SLD-Сплошная
 62
     7
370
    25
100
AcDbLine
 10
180.5358315931
 20
4.7859909881
 30
0.0
 11
180.5358315931
 21
4.7991441996
 31
0.0
  0
LINE
  5
330
330
1F
100
AcDbEntity
  8
0
  6
SLD-Сплошная
 62
     7
370
    25
100
AcDbLine
 10
182.9400510931
 20
4.7991441996
 30
0.0
 11
180.5358315931
 21
4.7991441996
 31
0.0
  0
LINE
  5
331
330
1F
100
AcDbEntity
  8
0
  6
SLD-Сплошная
 62
     7
370
    25
100
AcDbLine
 10
177.3301958905
 20
4.7859909881
 30
0.0
 11
177.3301958905
 21
4.7991441996
 31
0.0
  0
LINE
  5
332
330
1F
100
AcDbEntity
  8
0
  6
SLD-Сплошная
 62
     7
370
    25
100
AcDbLine
 10
182.9400510931
 20
4.7859909881
 30
0.0
 11
182.9400510931
 21
4.7991441996
 31
0.0
  0
LINE
  5
333
330
1F
100
AcDbEntity
  8
0
  6
SLD-Сплошная
 62
     7
370
    25
100
AcDbLine
 10
176.5287796879
 20
4.7991441996
 30
0.0
 11
174.1245601879
 21
4.7991441996
 31
0.0
  0
LINE
  5
334
330
1F
100
AcDbEntity
  8
0
  6
SLD-Сплошная
 62
     7
370
    25
100
AcDbLine
 10
174.1245601879
 20
4.7859909881
 30
0.0
 11
174.1245601879
 21
4.7991441996
 31
0.0
  0
LINE
  5
335
330
1F
100
AcDbEntity
  8
0
  6
SLD-Сплошная
 62
     7
370
    25
100
AcDbLine
 10
176.5287796879
 20
4.7859909881
 30
0.0
 11
176.5287796879
 21
4.7991441996
 31
0.0
  0
LINE
  5
336
330
1F
100
AcDbEntity
  8
0
  6
SLD-Сплошная
 62
     7
370
    25
100
AcDbLine
 10
179.7344153905
 20
4.7991441996
 30
0.0
 11
179.7344153905
 21
4.8368272404
 31
0.0
  0
LINE
  5
337
330
1F
100
AcDbEntity
  8
0
  6
SLD-Сплошная
 62
     7
370
    25
100
AcDbLine
 10
177.3301958905
 20
4.7991441996
 30
0.0
 11
177.3301958905
 21
4.8368272404
 31
0.0
  0
LINE
  5
338
330
1F
100
AcDbEntity
  8
0
  6
SLD-Сплошная
 62
     7
370
    25
100
AcDbLine
 10
180.5358315931
 20
4.7991441996
 30
0.0
 11
180.5358315931
 21
4.8368272404
 31
0.0
  0
LINE
  5
339
330
1F
100
AcDbEntity
  8
0
  6
SLD-Сплошная
 62
     7
370
    25
100
AcDbLine
 10
182.9400510931
 20
4.7991441996
 30
0.0
 11
182.9400510931
 21
4.8368272404
 31
0.0
  0
LINE
  5
33A
330
1F
100
AcDbEntity
  8
0
  6
SLD-Сплошная
 62
     7
370
    25
100
AcDbLine
 10
174.1245601879
 20
4.8368272404
 30
0.0
 11
174.1245601879
 21
4.7991441996
 31
0.0
  0
LINE
  5
33B
330
1F
100
AcDbEntity
  8
0
  6
SLD-Сплошная
 62
     7
370
    25
100
AcDbLine
 10
176.5287796879
 20
4.8368272404
 30
0.0
 11
176.5287796879
 21
4.7991441996
 31
0.0
  0
LINE
  5
33C
330
1F
100
AcDbEntity
  8
0
  6
SLD-Сплошная
 62
     7
370
    25
100
AcDbLine
 10
246.0323056405
 20
39.4359909881
 30
0.0
 11
229.9323056405
 21
39.4359909881
 31
0.0
  0
LINE
  5
33D
330
1F
100
AcDbEntity
  8
0
  6
SLD-Сплошная
 62
     7
370
    25
100
AcDbLine
 10
246.0323056405
 20
39.4359909881
 30
0.0
 11
246.0323056405
 21
36.4359909881
 31
0.0
  0
LINE
  5
33E
330
1F
100
AcDbEntity
  8
0
  6
SLD-Сплошная
 62
     7
370
    25
100
AcDbLine
 10
246.0323056405
 20
22.4359909881
 30
0.0
 11
229.5323056405
 21
22.4359909881
 31
0.0
  0
LINE
  5
33F
330
1F
100
AcDbEntity
  8
0
  6
SLD-Сплошная
 62
     7
370
    25
100
AcDbLine
 10
246.0323056405
 20
25.4359909881
 30
0.0
 11
246.0323056405
 21
22.4359909881
 31
0.0
  0
ARC
  5
340
330
1F
100
AcDbEntity
  8
0
  6
SLD-Сплошная
 62
     7
370
    25
100
AcDbCircle
 10
216.8144125017
 20
39.8667580572
 30
0.0
 40
2.892030961649197
100
AcDbArc
 50
225.3424264851
 51
235.2498511598
  0
LINE
  5
341
330
1F
100
AcDbEntity
  8
0
  6
SLD-Сплошная
 62
     7
370
    25
100
AcDbLine
 10
215.1659580434
 20
37.4905339554
 30
0.0
 11
215.1659580434
 21
37.6431200036
 31
0.0
  0
LINE
  5
342
330
1F
100
AcDbEntity
  8
0
  6
SLD-Сплошная
 62
     7
370
    25
100
AcDbLine
 10
215.1659580434
 20
37.6431200036
 30
0.0
 11
215.466481407
 21
37.46051127
 31
0.0
  0
ARC
  5
343
330
1F
100
AcDbEntity
  8
0
  6
SLD-Сплошная
 62
     7
370
    25
100
AcDbCircle
 10
216.8819489917
 20
39.9873062401
 30
0.0
 40
2.849039300491912
100
AcDbArc
 50
297.5145324487
 51
35.3485906534
  0
ARC
  5
344
330
1F
100
AcDbEntity
  8
0
  6
SLD-Сплошная
 62
     7
370
    25
100
AcDbCircle
 10
216.8615809708
 20
39.8172282773
 30
0.0
 40
2.875782974426627
100
AcDbArc
 50
37.5826786263
 51
45.3413620799
  0
LINE
  5
345
330
1F
100
AcDbEntity
  8
0
  6
SLD-Сплошная
 62
     7
370
    25
100
AcDbLine
 10
214.7816959751
 20
37.5959777501
 30
0.0
 11
214.9286116403
 21
37.46051127
 31
0.0
  0
ARC
  5
346
330
1F
100
AcDbEntity
  8
0
  6
SLD-Сплошная
 62
     7
370
    25
100
AcDbCircle
 10
216.8801445666
 20
39.6262994882
 30
0.0
 40
2.852163505516518
100
AcDbArc
 50
310.5931372733
 51
359.9251837736
  0
LINE
  5
347
330
1F
100
AcDbEntity
  8
0
  6
SLD-Сплошная
 62
     7
370
    25
100
AcDbLine
 10
215.1659580434
 20
37.6431200036
 30
0.0
 11
219.2057600188
 21
41.6356166618
 31
0.0
  0
ARC
  5
348
330
1F
100
AcDbEntity
  8
0
  6
SLD-Сплошная
 62
     7
370
    25
100
AcDbCircle
 10
216.8501987793
 20
39.8056332062
 30
0.0
 40
2.892030961655239
100
AcDbArc
 50
45.3424264851
 51
55.2498511598
  0
LINE
  5
349
330
1F
100
AcDbEntity
  8
0
  6
SLD-Сплошная
 62
     7
370
    25
100
AcDbLine
 10
218.4986532376
 20
42.181857308
 30
0.0
 11
218.4986532376
 21
42.3344433562
 31
0.0
  0
ARC
  5
34A
330
1F
100
AcDbEntity
  8
0
  6
SLD-Сплошная
 62
     7
370
    25
100
AcDbCircle
 10
216.8257231937
 20
39.9871129789
 30
0.0
 40
2.882473734801949
100
AcDbArc
 50
54.5227272683
 51
214.8024064673
  0
LINE
  5
34B
330
1F
100
AcDbEntity
  8
0
  6
SLD-Сплошная
 62
     7
370
    25
100
AcDbLine
 10
214.4588512622
 20
38.3419466981
 30
0.0
 11
214.4588512622
 21
38.1893606498
 31
0.0
  0
ARC
  5
34C
330
1F
100
AcDbEntity
  8
0
  6
SLD-Сплошная
 62
     7
370
    25
100
AcDbCircle
 10
216.8021010952
 20
39.8543007783
 30
0.0
 40
2.874516552606485
100
AcDbArc
 50
215.3947870321
 51
225.3424569096
  0
ARC
  5
34D
330
1F
100
AcDbEntity
  8
0
  6
SLD-Сплошная
 62
     7
370
    25
100
AcDbCircle
 10
216.7799941992
 20
39.6248048266
 30
0.0
 40
2.84768943157398
100
AcDbArc
 50
180.0448610221
 51
225.4343398216
  0
LINE
  5
34E
330
1F
100
AcDbEntity
  8
0
  6
SLD-Сплошная
 62
     7
370
    25
100
AcDbLine
 10
218.4986532376
 20
42.3344433562
 30
0.0
 11
214.4588512622
 21
38.3419466981
 31
0.0
  0
LINE
  5
34F
330
1F
100
AcDbEntity
  8
0
  6
SLD-Сплошная
 62
     7
370
    25
100
AcDbLine
 10
218.4986532376
 20
42.181857308
 30
0.0
 11
214.4588512622
 21
38.1893606498
 31
0.0
  0
LINE
  5
350
330
1F
100
AcDbEntity
  8
0
  6
SLD-Сплошная
 62
     7
370
    25
100
AcDbLine
 10
225.1986532376
 20
24.2288619727
 30
0.0
 11
224.898129874
 21
24.4114707063
 31
0.0
  0
ARC
  5
351
330
1F
100
AcDbEntity
  8
0
  6
SLD-Сплошная
 62
     7
370
    25
100
AcDbCircle
 10
223.4826622893
 20
21.8846757362
 30
0.0
 40
2.849039300491955
100
AcDbArc
 50
117.5145324487
 51
215.3485906534
  0
LINE
  5
352
330
1F
100
AcDbEntity
  8
0
  6
SLD-Сплошная
 62
     7
370
    25
100
AcDbLine
 10
225.1986532376
 20
24.2288619727
 30
0.0
 11
221.1588512622
 21
20.2363653145
 31
0.0
  0
ARC
  5
353
330
1F
100
AcDbEntity
  8
0
  6
SLD-Сплошная
 62
     7
370
    25
100
AcDbCircle
 10
223.5501987793
 20
22.0052239191
 30
0.0
 40
2.892030961653651
100
AcDbArc
 50
45.3424264851
 51
55.2498511598
  0
LINE
  5
354
330
1F
100
AcDbEntity
  8
0
  6
SLD-Сплошная
 62
     7
370
    25
100
AcDbLine
 10
225.1986532376
 20
24.3814480209
 30
0.0
 11
225.1986532376
 21
24.2288619727
 31
0.0
  0
ARC
  5
355
330
1F
100
AcDbEntity
  8
0
  6
SLD-Сплошная
 62
     7
370
    25
100
AcDbCircle
 10
223.5030303102
 20
22.054753699
 30
0.0
 40
2.875782974462182
100
AcDbArc
 50
217.5826786264
 51
225.3413620799
  0
LINE
  5
356
330
1F
100
AcDbEntity
  8
0
  6
SLD-Сплошная
 62
     7
370
    25
100
AcDbLine
 10
225.5829153059
 20
24.2760042262
 30
0.0
 11
225.4359996407
 21
24.4114707063
 31
0.0
  0
ARC
  5
357
330
1F
100
AcDbEntity
  8
0
  6
SLD-Сплошная
 62
     7
370
    25
100
AcDbCircle
 10
223.4844667144
 20
22.2456824881
 30
0.0
 40
2.852163505516434
100
AcDbArc
 50
130.5931372733
 51
179.9251837736
  0
LINE
  5
358
330
1F
100
AcDbEntity
  8
0
  6
SLD-Сплошная
 62
     7
370
    25
100
AcDbLine
 10
221.8659580434
 20
19.53753862
 30
0.0
 11
225.9057600188
 21
23.5300352782
 31
0.0
  0
LINE
  5
359
330
1F
100
AcDbEntity
  8
0
  6
SLD-Сплошная
 62
     7
370
    25
100
AcDbLine
 10
221.8659580434
 20
19.6901246683
 30
0.0
 11
221.8659580434
 21
19.53753862
 31
0.0
  0
LINE
  5
35A
330
1F
100
AcDbEntity
  8
0
  6
SLD-Сплошная
 62
     7
370
    25
100
AcDbLine
 10
221.8659580434
 20
19.6901246683
 30
0.0
 11
225.9057600188
 21
23.6826213264
 31
0.0
  0
LINE
  5
35B
330
1F
100
AcDbEntity
  8
0
  6
SLD-Сплошная
 62
     7
370
    25
100
AcDbLine
 10
225.9057600188
 20
23.5300352782
 30
0.0
 11
225.9057600188
 21
23.6826213264
 31
0.0
  0
ARC
  5
35C
330
1F
100
AcDbEntity
  8
0
  6
SLD-Сплошная
 62
     7
370
    25
100
AcDbCircle
 10
223.5144125017
 20
22.0663487701
 30
0.0
 40
2.892030961652805
100
AcDbArc
 50
225.3424264851
 51
235.2498511598
  0
ARC
  5
35D
330
1F
100
AcDbEntity
  8
0
  6
SLD-Сплошная
 62
     7
370
    25
100
AcDbCircle
 10
223.5388880873
 20
21.8848689974
 30
0.0
 40
2.882473734801968
100
AcDbArc
 50
234.5227272683
 51
34.8024064673
  0
ARC
  5
35E
330
1F
100
AcDbEntity
  8
0
  6
SLD-Сплошная
 62
     7
370
    25
100
AcDbCircle
 10
223.5625101858
 20
22.017681198
 30
0.0
 40
2.87451655260742
100
AcDbArc
 50
35.3947870321
 51
45.3424569096
  0
ARC
  5
35F
330
1F
100
AcDbEntity
  8
0
  6
SLD-Сплошная
 62
     7
370
    25
100
AcDbCircle
 10
223.5846170818
 20
22.2471771497
 30
0.0
 40
2.847689431574523
100
AcDbArc
 50
0.0448610221
 51
45.4343398216
  0
LINE
  5
360
330
1F
100
AcDbEntity
  8
0
  6
SLD-Сплошная
 62
     7
370
    25
100
AcDbLine
 10
179.8040234118
 20
35.9359909881
 30
0.0
 11
181.2985980799
 21
35.9359909881
 31
0.0
  0
SPLINE
  5
361
330
1F
100
AcDbEntity
  8
0
  6
SLD-Сплошная
 62
     7
370
    25
100
AcDbSpline
210
0.0
220
0.0
230
1.0
 70
     8
 71
     3
 72
     8
 73
     4
 74
     0
 42
0.00000001
 43
0.00000001
 40
0.0
 40
0.0
 40
0.0
 40
0.0
 40
1.0
 40
1.0
 40
1.0
 40
1.0
 10
181.2985980799355
 20
35.93599098814491
 30
0.0
 10
181.3191538803653
 20
35.9359909881449
 30
0.0
 10
181.3401937518401
 20
35.91886929142332
 30
0.0
 10
181.3587375534235
 20
35.88705105867387
 30
0.0
  0
SPLINE
  5
362
330
1F
100
AcDbEntity
  8
0
  6
SLD-Сплошная
 62
     7
370
    25
100
AcDbSpline
210
0.0
220
0.0
230
1.0
 70
     8
 71
     3
 72
    10
 73
     6
 74
     0
 42
0.00000001
 43
0.00000001
 40
0.0
 40
0.0
 40
0.0
 40
0.0
 40
0.5
 40
0.5
 40
1.0
 40
1.0
 40
1.0
 40
1.0
 10
181.1970433483143
 20
35.4359909881449
 30
0.0
 10
181.2649876126692
 20
35.52485066706514
 30
0.0
 10
181.3220595301068
 20
35.62112252613061
 30
0.0
 10
181.380453475539
 20
35.78401752368062
 30
0.0
 10
181.3810832087962
 20
35.84870944568843
 30
0.0
 10
181.3587375534235
 20
35.88705105867387
 30
0.0
  0
SPLINE
  5
363
330
1F
100
AcDbEntity
  8
0
  6
SLD-Сплошная
 62
     7
370
    25
100
AcDbSpline
210
0.0
220
0.0
230
1.0
 70
     8
 71
     3
 72
    10
 73
     6
 74
     0
 42
0.00000001
 43
0.00000001
 40
0.0
 40
0.0
 40
0.0
 40
0.0
 40
0.5
 40
0.5
 40
1.0
 40
1.0
 40
1.0
 40
1.0
 10
181.1970433483143
 20
26.4448795385955
 30
0.0
 10
181.2649876126692
 20
26.35601985967526
 30
0.0
 10
181.3220595301068
 20
26.25974800060978
 30
0.0
 10
181.380453475539
 20
26.09685300305976
 30
0.0
 10
181.3810832087962
 20
26.03216108105196
 30
0.0
 10
181.3587375534235
 20
25.99381946806653
 30
0.0
  0
SPLINE
  5
364
330
1F
100
AcDbEntity
  8
0
  6
SLD-Сплошная
 62
     7
370
    25
100
AcDbSpline
210
0.0
220
0.0
230
1.0
 70
     8
 71
     3
 72
     8
 73
     4
 74
     0
 42
0.00000001
 43
0.00000001
 40
0.0
 40
0.0
 40
0.0
 40
0.0
 40
1.0
 40
1.0
 40
1.0
 40
1.0
 10
181.2985980799355
 20
25.94487953859549
 30
0.0
 10
181.3191538803653
 20
25.94487953859549
 30
0.0
 10
181.3401937518401
 20
25.96200123531708
 30
0.0
 10
181.3587375534235
 20
25.99381946806653
 30
0.0
  0
LINE
  5
365
330
1F
100
AcDbEntity
  8
0
  6
SLD-Сплошная
 62
     7
370
    25
100
AcDbLine
 10
181.2985980799
 20
25.9448795386
 30
0.0
 11
179.8040234118
 21
25.9448795386
 31
0.0
  0
SPLINE
  5
366
330
1F
100
AcDbEntity
  8
0
  6
SLD-Сплошная
 62
     7
370
    25
100
AcDbSpline
210
0.0
220
0.0
230
1.0
 70
    24
 71
     3
 72
    10
 73
     6
 74
     0
 42
0.00000001
 43
0.00000001
 40
0.0
 40
0.0
 40
0.0
 40
0.0
 40
0.5
 40
0.5
 40
1.0
 40
1.0
 40
1.0
 40
1.0
 10
179.8040234117921
 20
25.94487953859549
 30
0.0
 10
179.311597651906
 20
25.94487953859549
 30
0.0
 10
178.6827152356029
 20
25.94487953859549
 30
0.0
 10
177.1531768787663
 20
25.94487953859549
 30
0.0
 10
176.2685838471348
 20
25.94487953859549
 30
0.0
 10
175.2641669622903
 20
25.94487953859548
 30
0.0
  0
SPLINE
  5
367
330
1F
100
AcDbEntity
  8
0
  6
SLD-Сплошная
 62
     7
370
    25
100
AcDbSpline
210
0.0
220
0.0
230
1.0
 70
     8
 71
     3
 72
    17
 73
    13
 74
     0
 42
0.00000001
 43
0.00000001
 40
0.0
 40
0.0
 40
0.0
 40
0.0
 40
0.0590792039969131
 40
0.1203140852507601
 40
0.1840508902724905
 40
0.2505485160438917
 40
0.3658387436151377
 40
0.5007290913565557
 40
0.6085994676902823
 40
0.7498543637495321
 40
0.9025415351552019
 40
1.0
 40
1.0
 40
1.0
 40
1.0
 10
174.5600544978348
 20
26.44487953859549
 30
0.0
 10
174.5609548207212
 20
26.42614083038032
 30
0.0
 10
174.5627883174034
 20
26.38797967746758
 30
0.0
 10
174.5773929026339
 20
26.33113220130484
 30
0.0
 10
174.6007666486668
 20
26.27495569829835
 30
0.0
 10
174.6413348227931
 20
26.20822868075794
 30
0.0
 10
174.7091216042066
 20
26.13315732908794
 30
0.0
 10
174.8012196146177
 20
26.06561091034125
 30
0.0
 10
174.9100903197185
 20
26.01048700507638
 30
0.0
 10
175.0312581895058
 20
25.96993719093084
 30
0.0
 10
175.1539965348129
 20
25.94798503645481
 30
0.0
 10
175.2332782567215
 20
25.9457502333111
 30
0.0
 10
175.2641669622903
 20
25.94487953859549
 30
0.0
  0
SPLINE
  5
368
330
1F
100
AcDbEntity
  8
0
  6
SLD-Сплошная
 62
     7
370
    25
100
AcDbSpline
210
0.0
220
0.0
230
1.0
 70
    24
 71
     3
 72
    10
 73
     6
 74
     0
 42
0.00000001
 43
0.00000001
 40
0.0
 40
0.0
 40
0.0
 40
0.0
 40
0.5
 40
0.5
 40
1.0
 40
1.0
 40
1.0
 40
1.0
 10
175.2641669622903
 20
35.9359909881449
 30
0.0
 10
176.2683289158579
 20
35.9359909881449
 30
0.0
 10
177.1531119284225
 20
35.9359909881449
 30
0.0
 10
178.6827801859466
 20
35.9359909881449
 30
0.0
 10
179.3114726374825
 20
35.93599098814491
 30
0.0
 10
179.8040234117921
 20
35.93599098814491
 30
0.0
  0
SPLINE
  5
369
330
1F
100
AcDbEntity
  8
0
  6
SLD-Сплошная
 62
     7
370
    25
100
AcDbSpline
210
0.0
220
0.0
230
1.0
 70
     8
 71
     3
 72
    15
 73
    11
 74
     0
 42
0.00000001
 43
0.00000001
 40
0.0
 40
0.0
 40
0.0
 40
0.0
 40
0.0975872542965872
 40
0.2489251165504671
 40
0.3924467789167881
 40
0.4988377330152458
 40
0.6337915679170574
 40
0.7492072060702861
 40
0.8795996939590904
 40
1.0
 40
1.0
 40
1.0
 40
1.0
 10
175.2641669622903
 20
35.9359909881449
 30
0.0
 10
175.2332603567622
 20
35.93511920573624
 30
0.0
 10
175.1544239304409
 20
35.93289546720351
 30
0.0
 10
175.0314578404649
 20
35.91096405015958
 30
0.0
 10
174.9105139559926
 20
35.87051746993709
 30
0.0
 10
174.8015053330213
 20
35.81539443801375
 30
0.0
 10
174.7095620715421
 20
35.74819195075162
 30
0.0
 10
174.6286100072281
 20
35.65826662179446
 30
0.0
 10
174.5717486754827
 20
35.55390978170026
 30
0.0
 10
174.5638476248294
 20
35.47423916364483
 30
0.0
 10
174.5600544978348
 20
35.4359909881449
 30
0.0
  0
LINE
  5
36A
330
1F
100
AcDbEntity
  8
0
  6
SLD-Сплошная
 62
     7
370
    25
100
AcDbLine
 10
174.5600544978
 20
26.4448795386
 30
0.0
 11
174.5600544978
 21
20.9359909881
 31
0.0
  0
LINE
  5
36B
330
1F
100
AcDbEntity
  8
0
  6
SLD-Сплошная
 62
     7
370
    25
100
AcDbLine
 10
174.5600544978
 20
20.9359909881
 30
0.0
 11
173.8365836
 21
20.9359909881
 31
0.0
  0
LINE
  5
36C
330
1F
100
AcDbEntity
  8
0
  6
SLD-Сплошная
 62
     7
370
    25
100
AcDbLine
 10
173.8365836
 20
40.9359909881
 30
0.0
 11
173.8365836
 21
20.9359909881
 31
0.0
  0
LINE
  5
36D
330
1F
100
AcDbEntity
  8
0
  6
SLD-Сплошная
 62
     7
370
    25
100
AcDbLine
 10
173.8365836
 20
40.9359909881
 30
0.0
 11
174.5600544978
 21
40.9359909881
 31
0.0
  0
LINE
  5
36E
330
1F
100
AcDbEntity
  8
0
  6
SLD-Сплошная
 62
     7
370
    25
100
AcDbLine
 10
174.5600544978
 20
40.9359909881
 30
0.0
 11
174.5600544978
 21
35.4359909881
 31
0.0
  0
LINE
  5
36F
330
1F
100
AcDbEntity
  8
0
  6
SLD-Сплошная
 62
     7
370
    25
100
AcDbLine
 10
175.7615031428
 20
26.9359909881
 30
0.0
 11
175.7615031428
 21
34.9359909881
 31
0.0
  0
LINE
  5
370
330
1F
100
AcDbEntity
  8
0
  6
SLD-Сплошная
 62
     7
370
    25
100
AcDbLine
 10
178.0343377289
 20
26.9359909881
 30
0.0
 11
178.0343377289
 21
34.9359909881
 31
0.0
  0
LINE
  5
371
330
1F
100
AcDbEntity
  8
0
  6
SLD-Сплошная
 62
     7
370
    25
100
AcDbLine
 10
178.9134954307
 20
26.9359909881
 30
0.0
 11
178.9134954307
 21
34.9359909881
 31
0.0
  0
LINE
  5
372
330
1F
100
AcDbEntity
  8
0
  6
SLD-Сплошная
 62
     7
370
    25
100
AcDbLine
 10
176.9801597062
 20
26.9359909881
 30
0.0
 11
176.9801597062
 21
34.9359909881
 31
0.0
  0
SPLINE
  5
373
330
1F
100
AcDbEntity
  8
0
  6
SLD-Сплошная
 62
     7
370
    25
100
AcDbSpline
210
0.0
220
0.0
230
1.0
 70
     8
 71
     3
 72
    12
 73
     8
 74
     0
 42
0.00000001
 43
0.00000001
 40
0.0
 40
0.0
 40
0.0
 40
0.0
 40
0.499999999999994
 40
0.499999999999994
 40
0.749999999999997
 40
0.749999999999997
 40
1.0
 40
1.0
 40
1.0
 40
1.0
 10
178.9134954307301
 20
34.93599098814492
 30
0.0
 10
178.9134954307301
 20
34.99432432147985
 30
0.0
 10
178.9078653935036
 20
35.07132432148276
 30
0.0
 10
178.8740851701444
 20
35.18332432148521
 30
0.0
 10
178.8584613298133
 20
35.21897830072429
 30
0.0
 10
178.8194991344742
 20
35.27065073440181
 30
0.0
 10
178.7962029885113
 20
35.28599098814811
 30
0.0
 10
178.7727445000683
 20
35.28599098814491
 30
0.0
  0
SPLINE
  5
374
330
1F
100
AcDbEntity
  8
0
  6
SLD-Сплошная
 62
     7
370
    25
100
AcDbSpline
210
0.0
220
0.0
230
1.0
 70
     8
 71
     3
 72
    12
 73
     8
 74
     0
 42
0.00000001
 43
0.00000001
 40
0.0
 40
0.0
 40
0.0
 40
0.0
 40
0.2499999999999989
 40
0.2499999999999989
 40
0.4999999999999978
 40
0.4999999999999978
 40
1.0
 40
1.0
 40
1.0
 40
1.0
 10
178.7727445000683
 20
26.58599098814492
 30
0.0
 10
178.7962029885112
 20
26.58599098814171
 30
0.0
 10
178.8194991344742
 20
26.60133124188801
 30
0.0
 10
178.8584613298132
 20
26.65300367556553
 30
0.0
 10
178.8740851701443
 20
26.68865765480462
 30
0.0
 10
178.9078653935036
 20
26.80065765480707
 30
0.0
 10
178.9134954307301
 20
26.87765765480998
 30
0.0
 10
178.9134954307301
 20
26.93599098814491
 30
0.0
  0
SPLINE
  5
375
330
1F
100
AcDbEntity
  8
0
  6
SLD-Сплошная
 62
     7
370
    25
100
AcDbSpline
210
0.0
220
0.0
230
1.0
 70
     8
 71
     3
 72
    12
 73
     8
 74
     0
 42
0.00000001
 43
0.00000001
 40
0.0
 40
0.0
 40
0.0
 40
0.0
 40
0.5
 40
0.5
 40
0.75
 40
0.75
 40
1.0
 40
1.0
 40
1.0
 40
1.0
 10
178.0343377289011
 20
34.9359909881449
 30
0.0
 10
178.0343377289011
 20
34.9943243214805
 30
0.0
 10
178.027455639048
 20
35.07132432148459
 30
0.0
 10
177.9861630999284
 20
35.18332432148806
 30
0.0
 10
177.9670647052491
 20
35.21897830072728
 30
0.0
 10
177.9194377858501
 20
35.27065073440405
 30
0.0
 10
177.8909608569598
 20
35.28599098814941
 30
0.0
 10
177.8622854825728
 20
35.2859909881449
 30
0.0
  0
SPLINE
  5
376
330
1F
100
AcDbEntity
  8
0
  6
SLD-Сплошная
 62
     7
370
    25
100
AcDbSpline
210
0.0
220
0.0
230
1.0
 70
     8
 71
     3
 72
    12
 73
     8
 74
     0
 42
0.00000001
 43
0.00000001
 40
0.0
 40
0.0
 40
0.0
 40
0.0
 40
0.2500000000000049
 40
0.2500000000000049
 40
0.5000000000000098
 40
0.5000000000000098
 40
1.0
 40
1.0
 40
1.0
 40
1.0
 10
177.8622854825728
 20
26.58599098814491
 30
0.0
 10
177.8909608569597
 20
26.5859909881404
 30
0.0
 10
177.9194377858501
 20
26.60133124188577
 30
0.0
 10
177.9670647052491
 20
26.65300367556254
 30
0.0
 10
177.9861630999284
 20
26.68865765480176
 30
0.0
 10
178.027455639048
 20
26.80065765480522
 30
0.0
 10
178.0343377289011
 20
26.87765765480932
 30
0.0
 10
178.0343377289012
 20
26.93599098814491
 30
0.0
  0
SPLINE
  5
377
330
1F
100
AcDbEntity
  8
0
  6
SLD-Сплошная
 62
     7
370
    25
100
AcDbSpline
210
0.0
220
0.0
230
1.0
 70
     8
 71
     3
 72
    12
 73
     8
 74
     0
 42
0.00000001
 43
0.00000001
 40
0.0
 40
0.0
 40
0.0
 40
0.0
 40
0.499999999999984
 40
0.499999999999984
 40
0.749999999999992
 40
0.749999999999992
 40
1.0
 40
1.0
 40
1.0
 40
1.0
 10
176.9801597061882
 20
34.93599098814491
 30
0.0
 10
176.9801597061882
 20
34.99432432148052
 30
0.0
 10
176.9720943846071
 20
35.07132432148464
 30
0.0
 10
176.9237024551194
 20
35.18332432148814
 30
0.0
 10
176.9013204900391
 20
35.21897830072736
 30
0.0
 10
176.8455051157749
 20
35.27065073440412
 30
0.0
 10
176.8121321732466
 20
35.28599098814947
 30
0.0
 10
176.7785266666598
 20
35.28599098814493
 30
0.0
  0
SPLINE
  5
378
330
1F
100
AcDbEntity
  8
0
  6
SLD-Сплошная
 62
     7
370
    25
100
AcDbSpline
210
0.0
220
0.0
230
1.0
 70
     8
 71
     3
 72
    12
 73
     8
 74
     0
 42
0.00000001
 43
0.00000001
 40
0.0
 40
0.0
 40
0.0
 40
0.0
 40
0.25
 40
0.25
 40
0.5
 40
0.5
 40
1.0
 40
1.0
 40
1.0
 40
1.0
 10
176.7785266666598
 20
26.58599098814488
 30
0.0
 10
176.8121321732465
 20
26.58599098814035
 30
0.0
 10
176.8455051157749
 20
26.6013312418857
 30
0.0
 10
176.901320490039
 20
26.65300367556245
 30
0.0
 10
176.9237024551193
 20
26.68865765480168
 30
0.0
 10
176.972094384607
 20
26.80065765480517
 30
0.0
 10
176.9801597061882
 20
26.8776576548093
 30
0.0
 10
176.9801597061882
 20
26.93599098814491
 30
0.0
  0
SPLINE
  5
379
330
1F
100
AcDbEntity
  8
0
  6
SLD-Сплошная
 62
     7
370
    25
100
AcDbSpline
210
0.0
220
0.0
230
1.0
 70
     8
 71
     3
 72
    12
 73
     8
 74
     0
 42
0.00000001
 43
0.00000001
 40
0.0
 40
0.0
 40
0.0
 40
0.0
 40
0.5000000000000073
 40
0.5000000000000073
 40
0.7500000000000037
 40
0.7500000000000037
 40
1.0
 40
1.0
 40
1.0
 40
1.0
 10
175.7615031428184
 20
34.9359909881449
 30
0.0
 10
175.7615031428184
 20
34.99432432147982
 30
0.0
 10
175.7523352427253
 20
35.07132432148271
 30
0.0
 10
175.6973278421659
 20
35.18332432148515
 30
0.0
 10
175.6718861263363
 20
35.21897830072424
 30
0.0
 10
175.6084404509513
 20
35.27065073440178
 30
0.0
 10
175.5705052242109
 20
35.28599098814809
 30
0.0
 10
175.5323056404907
 20
35.28599098814491
 30
0.0
  0
SPLINE
  5
37A
330
1F
100
AcDbEntity
  8
0
  6
SLD-Сплошная
 62
     7
370
    25
100
AcDbSpline
210
0.0
220
0.0
230
1.0
 70
     8
 71
     3
 72
    12
 73
     8
 74
     0
 42
0.00000001
 43
0.00000001
 40
0.0
 40
0.0
 40
0.0
 40
0.0
 40
0.2500000000000042
 40
0.2500000000000042
 40
0.5000000000000084
 40
0.5000000000000084
 40
1.0
 40
1.0
 40
1.0
 40
1.0
 10
175.5323056404902
 20
26.58599098814489
 30
0.0
 10
175.5705052242105
 20
26.58599098814171
 30
0.0
 10
175.6084404509508
 20
26.60133124188803
 30
0.0
 10
175.6718861263359
 20
26.65300367556556
 30
0.0
 10
175.6973278421656
 20
26.68865765480465
 30
0.0
 10
175.7523352427251
 20
26.80065765480709
 30
0.0
 10
175.7615031428183
 20
26.87765765480998
 30
0.0
 10
175.7615031428184
 20
26.9359909881449
 30
0.0
  0
LINE
  5
37B
330
1F
100
AcDbEntity
  8
0
  6
SLD-Сплошная
 62
     7
370
    25
100
AcDbLine
 10
181.6697301241
 20
25.9448795386
 30
0.0
 11
181.2985980799
 21
25.9448795386
 31
0.0
  0
LINE
  5
37C
330
1F
100
AcDbEntity
  8
0
  6
SLD-Сплошная
 62
     7
370
    25
100
AcDbLine
 10
181.2985980799
 20
35.9359909881
 30
0.0
 11
181.6697301241
 21
35.9359909881
 31
0.0
  0
LINE
  5
37D
330
1F
100
AcDbEntity
  8
0
  6
SLD-Сплошная
 62
     7
370
    25
100
AcDbLine
 10
179.7379760009
 20
25.9448795386
 30
0.0
 11
179.7379760009
 21
20.9359909881
 31
0.0
  0
LINE
  5
37E
330
1F
100
AcDbEntity
  8
0
  6
SLD-Сплошная
 62
     7
370
    25
100
AcDbLine
 10
179.7379760009
 20
20.9359909881
 30
0.0
 11
174.5600544978
 21
20.9359909881
 31
0.0
  0
LINE
  5
37F
330
1F
100
AcDbEntity
  8
0
  6
SLD-Сплошная
 62
     7
370
    25
100
AcDbLine
 10
174.5600544978
 20
40.9359909881
 30
0.0
 11
179.7379760009
 21
40.9359909881
 31
0.0
  0
LINE
  5
380
330
1F
100
AcDbEntity
  8
0
  6
SLD-Сплошная
 62
     7
370
    25
100
AcDbLine
 10
179.7379760009
 20
40.9359909881
 30
0.0
 11
179.7379760009
 21
35.9359909881
 31
0.0
  0
LINE
  5
381
330
1F
100
AcDbEntity
  8
0
  6
SLD-Сплошная
 62
     7
370
    25
100
AcDbLine
 10
182.9679761788
 20
20.9359909881
 30
0.0
 11
179.7379760009
 21
20.9359909881
 31
0.0
  0
LINE
  5
382
330
1F
100
AcDbEntity
  8
0
  6
SLD-Сплошная
 62
     7
370
    25
100
AcDbLine
 10
179.7379760009
 20
40.9359909881
 30
0.0
 11
182.9679761788
 21
40.9359909881
 31
0.0
  0
LINE
  5
383
330
1F
100
AcDbEntity
  8
0
  6
SLD-Сплошная
 62
     7
370
    25
100
AcDbLine
 10
157.3293012702
 20
20.9359909881
 30
0.0
 11
157.3293012702
 21
40.9359909881
 31
0.0
  0
LINE
  5
384
330
1F
100
AcDbEntity
  8
0
  6
SLD-Сплошная
 62
     7
370
    25
100
AcDbLine
 10
173.8365836
 20
20.9359909881
 30
0.0
 11
157.3293012702
 21
20.9359909881
 31
0.0
  0
LINE
  5
385
330
1F
100
AcDbEntity
  8
0
  6
SLD-Сплошная
 62
     7
370
    25
100
AcDbLine
 10
157.3293012702
 20
40.9359909881
 30
0.0
 11
173.8365836
 21
40.9359909881
 31
0.0
  0
LINE
  5
386
330
1F
100
AcDbEntity
  8
0
  6
SLD-Сплошная
 62
     7
370
    25
100
AcDbLine
 10
157.3293012702
 20
40.9359909881
 30
0.0
 11
157.3293012702
 21
57.0859909881
 31
0.0
  0
LINE
  5
387
330
1F
100
AcDbEntity
  8
0
  6
SLD-Сплошная
 62
     7
370
    25
100
AcDbLine
 10
157.3293012702
 20
4.7859909881
 30
0.0
 11
157.3293012702
 21
20.9359909881
 31
0.0
  0
LINE
  5
388
330
1F
100
AcDbEntity
  8
0
  6
SLD-Сплошная
 62
     7
370
    25
100
AcDbLine
 10
241.6986532376
 20
33.3094453664
 30
0.0
 11
237.6588512622
 21
29.2696433911
 31
0.0
  0
ARC
  5
389
330
1F
100
AcDbEntity
  8
0
  6
SLD-Сплошная
 62
     7
370
    25
100
AcDbCircle
 10
240.0323056405
 20
30.9359909881
 30
0.0
 40
2.900000000000015
100
AcDbArc
 50
54.9281918423
 51
215.0718081577
  0
LINE
  5
38A
330
1F
100
AcDbEntity
  8
0
  6
SLD-Сплошная
 62
     7
370
    25
100
AcDbLine
 10
238.3659580434
 20
28.5625366099
 30
0.0
 11
242.4057600188
 21
32.6023385852
 31
0.0
  0
ARC
  5
38B
330
1F
100
AcDbEntity
  8
0
  6
SLD-Сплошная
 62
     7
370
    25
100
AcDbCircle
 10
240.0323056405
 20
30.9359909881
 30
0.0
 40
2.900000000000016
100
AcDbArc
 50
234.9281918423
 51
35.0718081577
  0
ARC
  5
38C
330
1F
100
AcDbEntity
  8
0
  6
SLD-Сплошная
 62
     7
370
    25
100
AcDbCircle
 10
240.0323056405
 20
30.9359909881
 30
0.0
 40
2.900000000000019
100
AcDbArc
 50
225.0
 51
234.9281918423
  0
ARC
  5
38D
330
1F
100
AcDbEntity
  8
0
  6
SLD-Сплошная
 62
     7
370
    25
100
AcDbCircle
 10
240.0323056405
 20
30.9359909881
 30
0.0
 40
2.900000000000004
100
AcDbArc
 50
35.0718081577
 51
45.0
  0
ARC
  5
38E
330
1F
100
AcDbEntity
  8
0
  6
SLD-Сплошная
 62
     7
370
    25
100
AcDbCircle
 10
240.0323056405
 20
30.9359909881
 30
0.0
 40
2.900000000000004
100
AcDbArc
 50
45.0
 51
54.9281918423
  0
ARC
  5
38F
330
1F
100
AcDbEntity
  8
0
  6
SLD-Сплошная
 62
     7
370
    25
100
AcDbCircle
 10
240.0323056405
 20
30.9359909881
 30
0.0
 40
2.900000000000019
100
AcDbArc
 50
215.0718081577
 51
225.0
  0
ARC
  5
390
330
1F
100
AcDbEntity
  8
0
  6
SLD-Сплошная
 62
     7
370
    25
100
AcDbCircle
 10
216.8501987793
 20
22.0052239191
 30
0.0
 40
2.892030961660352
100
AcDbArc
 50
45.3424264852
 51
55.2498511598
  0
LINE
  5
391
330
1F
100
AcDbEntity
  8
0
  6
SLD-Сплошная
 62
     7
370
    25
100
AcDbLine
 10
218.4986532376
 20
24.3814480209
 30
0.0
 11
218.4986532376
 21
24.2288619727
 31
0.0
  0
LINE
  5
392
330
1F
100
AcDbEntity
  8
0
  6
SLD-Сплошная
 62
     7
370
    25
100
AcDbLine
 10
218.4986532376
 20
24.2288619727
 30
0.0
 11
218.198129874
 21
24.4114707063
 31
0.0
  0
ARC
  5
393
330
1F
100
AcDbEntity
  8
0
  6
SLD-Сплошная
 62
     7
370
    25
100
AcDbCircle
 10
216.7826622893
 20
21.8846757362
 30
0.0
 40
2.849039300492013
100
AcDbArc
 50
117.5145324487
 51
215.3485906534
  0
ARC
  5
394
330
1F
100
AcDbEntity
  8
0
  6
SLD-Сплошная
 62
     7
370
    25
100
AcDbCircle
 10
216.8030303102
 20
22.054753699
 30
0.0
 40
2.875782974434064
100
AcDbArc
 50
217.5826786263
 51
225.3413620799
  0
LINE
  5
395
330
1F
100
AcDbEntity
  8
0
  6
SLD-Сплошная
 62
     7
370
    25
100
AcDbLine
 10
218.8829153059
 20
24.2760042262
 30
0.0
 11
218.7359996407
 21
24.4114707063
 31
0.0
  0
ARC
  5
396
330
1F
100
AcDbEntity
  8
0
  6
SLD-Сплошная
 62
     7
370
    25
100
AcDbCircle
 10
216.7844667144
 20
22.2456824881
 30
0.0
 40
2.852163505516527
100
AcDbArc
 50
130.5931372733
 51
179.9251837736
  0
LINE
  5
397
330
1F
100
AcDbEntity
  8
0
  6
SLD-Сплошная
 62
     7
370
    25
100
AcDbLine
 10
218.4986532376
 20
24.2288619727
 30
0.0
 11
214.4588512622
 21
20.2363653145
 31
0.0
  0
ARC
  5
398
330
1F
100
AcDbEntity
  8
0
  6
SLD-Сплошная
 62
     7
370
    25
100
AcDbCircle
 10
216.8144125017
 20
22.0663487701
 30
0.0
 40
2.892030961650839
100
AcDbArc
 50
225.3424264851
 51
235.2498511598
  0
LINE
  5
399
330
1F
100
AcDbEntity
  8
0
  6
SLD-Сплошная
 62
     7
370
    25
100
AcDbLine
 10
215.1659580434
 20
19.6901246683
 30
0.0
 11
215.1659580434
 21
19.53753862
 31
0.0
  0
ARC
  5
39A
330
1F
100
AcDbEntity
  8
0
  6
SLD-Сплошная
 62
     7
370
    25
100
AcDbCircle
 10
216.8388880873
 20
21.8848689974
 30
0.0
 40
2.882473734801956
100
AcDbArc
 50
234.5227272683
 51
34.8024064673
  0
LINE
  5
39B
330
1F
100
AcDbEntity
  8
0
  6
SLD-Сплошная
 62
     7
370
    25
100
AcDbLine
 10
219.2057600188
 20
23.5300352782
 30
0.0
 11
219.2057600188
 21
23.6826213264
 31
0.0
  0
ARC
  5
39C
330
1F
100
AcDbEntity
  8
0
  6
SLD-Сплошная
 62
     7
370
    25
100
AcDbCircle
 10
216.8625101858
 20
22.017681198
 30
0.0
 40
2.874516552605756
100
AcDbArc
 50
35.3947870321
 51
45.3424569096
  0
ARC
  5
39D
330
1F
100
AcDbEntity
  8
0
  6
SLD-Сплошная
 62
     7
370
    25
100
AcDbCircle
 10
216.8846170818
 20
22.2471771497
 30
0.0
 40
2.84768943157352
100
AcDbArc
 50
0.0448610221
 51
45.4343398216
  0
LINE
  5
39E
330
1F
100
AcDbEntity
  8
0
  6
SLD-Сплошная
 62
     7
370
    25
100
AcDbLine
 10
215.1659580434
 20
19.53753862
 30
0.0
 11
219.2057600188
 21
23.5300352782
 31
0.0
  0
LINE
  5
39F
330
1F
100
AcDbEntity
  8
0
  6
SLD-Сплошная
 62
     7
370
    25
100
AcDbLine
 10
215.1659580434
 20
19.6901246683
 30
0.0
 11
219.2057600188
 21
23.6826213264
 31
0.0
  0
ARC
  5
3A0
330
1F
100
AcDbEntity
  8
0
  6
SLD-Сплошная
 62
     7
370
    25
100
AcDbCircle
 10
223.5144125017
 20
39.8667580572
 30
0.0
 40
2.892030961651477
100
AcDbArc
 50
225.3424264851
 51
235.2498511598
  0
LINE
  5
3A1
330
1F
100
AcDbEntity
  8
0
  6
SLD-Сплошная
 62
     7
370
    25
100
AcDbLine
 10
221.8659580434
 20
37.4905339554
 30
0.0
 11
221.8659580434
 21
37.6431200036
 31
0.0
  0
LINE
  5
3A2
330
1F
100
AcDbEntity
  8
0
  6
SLD-Сплошная
 62
     7
370
    25
100
AcDbLine
 10
221.8659580434
 20
37.6431200036
 30
0.0
 11
222.166481407
 21
37.46051127
 31
0.0
  0
ARC
  5
3A3
330
1F
100
AcDbEntity
  8
0
  6
SLD-Сплошная
 62
     7
370
    25
100
AcDbCircle
 10
223.5819489917
 20
39.9873062401
 30
0.0
 40
2.849039300491977
100
AcDbArc
 50
297.5145324487
 51
35.3485906534
  0
ARC
  5
3A4
330
1F
100
AcDbEntity
  8
0
  6
SLD-Сплошная
 62
     7
370
    25
100
AcDbCircle
 10
223.5615809708
 20
39.8172282773
 30
0.0
 40
2.8757829744293
100
AcDbArc
 50
37.5826786263
 51
45.3413620799
  0
LINE
  5
3A5
330
1F
100
AcDbEntity
  8
0
  6
SLD-Сплошная
 62
     7
370
    25
100
AcDbLine
 10
221.4816959751
 20
37.5959777501
 30
0.0
 11
221.6286116403
 21
37.46051127
 31
0.0
  0
ARC
  5
3A6
330
1F
100
AcDbEntity
  8
0
  6
SLD-Сплошная
 62
     7
370
    25
100
AcDbCircle
 10
223.5801445666
 20
39.6262994882
 30
0.0
 40
2.852163505516613
100
AcDbArc
 50
310.5931372733
 51
359.9251837736
  0
LINE
  5
3A7
330
1F
100
AcDbEntity
  8
0
  6
SLD-Сплошная
 62
     7
370
    25
100
AcDbLine
 10
221.8659580434
 20
37.6431200036
 30
0.0
 11
225.9057600188
 21
41.6356166618
 31
0.0
  0
ARC
  5
3A8
330
1F
100
AcDbEntity
  8
0
  6
SLD-Сплошная
 62
     7
370
    25
100
AcDbCircle
 10
223.5257231937
 20
39.9871129789
 30
0.0
 40
2.882473734801958
100
AcDbArc
 50
54.5227272683
 51
214.8024064673
  0
LINE
  5
3A9
330
1F
100
AcDbEntity
  8
0
  6
SLD-Сплошная
 62
     7
370
    25
100
AcDbLine
 10
225.1986532376
 20
42.3344433562
 30
0.0
 11
221.1588512622
 21
38.3419466981
 31
0.0
  0
ARC
  5
3AA
330
1F
100
AcDbEntity
  8
0
  6
SLD-Сплошная
 62
     7
370
    25
100
AcDbCircle
 10
223.5501987793
 20
39.8056332062
 30
0.0
 40
2.892030961654616
100
AcDbArc
 50
45.3424264851
 51
55.2498511598
  0
LINE
  5
3AB
330
1F
100
AcDbEntity
  8
0
  6
SLD-Сплошная
 62
     7
370
    25
100
AcDbLine
 10
225.1986532376
 20
42.181857308
 30
0.0
 11
225.1986532376
 21
42.3344433562
 31
0.0
  0
LINE
  5
3AC
330
1F
100
AcDbEntity
  8
0
  6
SLD-Сплошная
 62
     7
370
    25
100
AcDbLine
 10
221.1588512622
 20
38.3419466981
 30
0.0
 11
221.1588512622
 21
38.1893606498
 31
0.0
  0
ARC
  5
3AD
330
1F
100
AcDbEntity
  8
0
  6
SLD-Сплошная
 62
     7
370
    25
100
AcDbCircle
 10
223.5021010953
 20
39.8543007783
 30
0.0
 40
2.874516552608398
100
AcDbArc
 50
215.3947870321
 51
225.3424569096
  0
ARC
  5
3AE
330
1F
100
AcDbEntity
  8
0
  6
SLD-Сплошная
 62
     7
370
    25
100
AcDbCircle
 10
223.4799941992
 20
39.6248048266
 30
0.0
 40
2.847689431573344
100
AcDbArc
 50
180.0448610221
 51
225.4343398216
  0
LINE
  5
3AF
330
1F
100
AcDbEntity
  8
0
  6
SLD-Сплошная
 62
     7
370
    25
100
AcDbLine
 10
225.1986532376
 20
42.181857308
 30
0.0
 11
221.1588512622
 21
38.1893606498
 31
0.0
  0
LINE
  5
3B0
330
1F
100
AcDbEntity
  8
0
  6
SLD-Сплошная
 62
     7
370
    25
100
AcDbLine
 10
234.9986532376
 20
33.3094453664
 30
0.0
 11
230.9588512622
 21
29.2696433911
 31
0.0
  0
ARC
  5
3B1
330
1F
100
AcDbEntity
  8
0
  6
SLD-Сплошная
 62
     7
370
    25
100
AcDbCircle
 10
233.3323056405
 20
30.9359909881
 30
0.0
 40
2.899999999999992
100
AcDbArc
 50
54.9281918423
 51
215.0718081577
  0
LINE
  5
3B2
330
1F
100
AcDbEntity
  8
0
  6
SLD-Сплошная
 62
     7
370
    25
100
AcDbLine
 10
231.6659580434
 20
28.5625366099
 30
0.0
 11
235.7057600188
 21
32.6023385852
 31
0.0
  0
ARC
  5
3B3
330
1F
100
AcDbEntity
  8
0
  6
SLD-Сплошная
 62
     7
370
    25
100
AcDbCircle
 10
233.3323056405
 20
30.9359909881
 30
0.0
 40
2.900000000000016
100
AcDbArc
 50
234.9281918423
 51
35.0718081577
  0
ARC
  5
3B4
330
1F
100
AcDbEntity
  8
0
  6
SLD-Сплошная
 62
     7
370
    25
100
AcDbCircle
 10
233.3323056405
 20
30.9359909881
 30
0.0
 40
2.900000000000019
100
AcDbArc
 50
225.0
 51
234.9281918423
  0
ARC
  5
3B5
330
1F
100
AcDbEntity
  8
0
  6
SLD-Сплошная
 62
     7
370
    25
100
AcDbCircle
 10
233.3323056405
 20
30.9359909881
 30
0.0
 40
2.900000000000024
100
AcDbArc
 50
35.0718081577
 51
45.0
  0
ARC
  5
3B6
330
1F
100
AcDbEntity
  8
0
  6
SLD-Сплошная
 62
     7
370
    25
100
AcDbCircle
 10
233.3323056405
 20
30.9359909881
 30
0.0
 40
2.900000000000024
100
AcDbArc
 50
45.0
 51
54.9281918423
  0
ARC
  5
3B7
330
1F
100
AcDbEntity
  8
0
  6
SLD-Сплошная
 62
     7
370
    25
100
AcDbCircle
 10
233.3323056405
 20
30.9359909881
 30
0.0
 40
2.900000000000007
100
AcDbArc
 50
215.0718081577
 51
225.0
  0
ENDSEC
  0
SECTION
  2
OBJECTS
  0
DICTIONARY
  5
C
330
0
100
AcDbDictionary
281
     1
  3
ACAD_GROUP
350
D
  3
ACAD_LAYOUT
350
1A
  3
ACAD_MLINESTYLE
350
17
  3
ACAD_PLOTSETTINGS
350
19
  3
ACAD_PLOTSTYLENAME
350
E
  3
ACAD_SCALELIST
350
47
  3
DWGPROPS
350
3B8
  0
DICTIONARY
  5
D
102
{ACAD_REACTORS
330
C
102
}
330
C
100
AcDbDictionary
281
     1
  0
DICTIONARY
  5
1A
102
{ACAD_REACTORS
330
C
102
}
330
C
100
AcDbDictionary
281
     1
  3
Layout1
350
1E
  3
Layout2
350
26
  3
Model
350
22
  0
DICTIONARY
  5
17
102
{ACAD_REACTORS
330
C
102
}
330
C
100
AcDbDictionary
281
     1
  3
Standard
350
18
  0
DICTIONARY
  5
19
102
{ACAD_REACTORS
330
C
102
}
330
C
100
AcDbDictionary
281
     1
  0
ACDBDICTIONARYWDFLT
  5
E
102
{ACAD_REACTORS
330
C
102
}
330
C
100
AcDbDictionary
281
     1
  3
Normal
350
F
100
AcDbDictionaryWithDefault
340
F
  0
DICTIONARY
  5
47
102
{ACAD_REACTORS
330
C
102
}
330
C
100
AcDbDictionary
281
     1
  3
A0
350
48
  3
A1
350
49
  3
A2
350
4A
  3
A3
350
4B
  3
A4
350
4C
  3
A5
350
4D
  3
A6
350
4E
  3
A7
350
4F
  3
A8
350
50
  3
A9
350
51
  3
B0
350
52
  3
B1
350
53
  3
B2
350
54
  3
B3
350
55
  3
B4
350
56
  3
B5
350
57
  3
B6
350
58
  0
XRECORD
  5
3B8
102
{ACAD_REACTORS
330
C
102
}
330
C
100
AcDbXrecord
280
     1
  1
DWGPROPS COOKIE
  2

  3

  4

  6

  7

  8
inyankin
  9

300
=
301
=
302
=
303
=
304
=
305
=
306
=
307
=
308
=
309
=
 40
0.0
 41
2460936.311186366
 42
2460936.311186898
  1

 90
        0
  0
LAYOUT
  5
1E
102
{ACAD_REACTORS
330
1A
102
}
330
1A
100
AcDbPlotSettings
  1

  2
none_device
  4

  6

 40
0.0
 41
0.0
 42
0.0
 43
0.0
 44
0.0
 45
0.0
 46
0.0
 47
0.0
 48
0.0
 49
0.0
140
0.0
141
0.0
142
1.0
143
1.0
 70
   688
 72
     1
 73
     0
 74
     5
  7

 75
    16
147
1.0
148
0.0
149
0.0
100
AcDbLayout
  1
Layout1
 70
     1
 71
     1
 10
0.0
 20
0.0
 11
420.0
 21
297.0
 12
0.0
 22
0.0
 32
0.0
 14
1.0000000000E+20
 24
1.0000000000E+20
 34
1.0000000000E+20
 15
-1.0000000000E+20
 25
-1.0000000000E+20
 35
-1.0000000000E+20
146
0.0
 13
0.0
 23
0.0
 33
0.0
 16
1.0
 26
0.0
 36
0.0
 17
0.0
 27
1.0
 37
0.0
 76
     0
330
1B
  0
LAYOUT
  5
26
102
{ACAD_REACTORS
330
1A
102
}
330
1A
100
AcDbPlotSettings
  1

  2
none_device
  4

  6

 40
0.0
 41
0.0
 42
0.0
 43
0.0
 44
0.0
 45
0.0
 46
0.0
 47
0.0
 48
0.0
 49
0.0
140
0.0
141
0.0
142
1.0
143
1.0
 70
   688
 72
     1
 73
     0
 74
     5
  7

 75
    16
147
1.0
148
0.0
149
0.0
100
AcDbLayout
  1
Layout2
 70
     1
 71
     2
 10
0.0
 20
0.0
 11
0.0
 21
0.0
 12
0.0
 22
0.0
 32
0.0
 14
0.0
 24
0.0
 34
0.0
 15
0.0
 25
0.0
 35
0.0
146
0.0
 13
0.0
 23
0.0
 33
0.0
 16
1.0
 26
0.0
 36
0.0
 17
0.0
 27
1.0
 37
0.0
 76
     0
330
23
  0
LAYOUT
  5
22
102
{ACAD_REACTORS
330
1A
102
}
330
1A
100
AcDbPlotSettings
  1

  2
none_device
  4
Letter_(8.50_x_11.00_Inches)
  6

 40
6.35
 41
6.35
 42
6.35000508
 43
6.35000508
 44
215.9
 45
279.4
 46
0.0
 47
0.0
 48
0.0
 49
0.0
140
0.0
141
0.0
142
1.0
143
1.0
 70
  1712
 72
     1
 73
     0
 74
     0
  7

 75
     0
147
1.0
148
0.0
149
0.0
100
AcDbLayout
  1
Model
 70
     1
 71
     0
 10
0.0
 20
0.0
 11
431.8
 21
279.4
 12
0.0
 22
0.0
 32
0.0
 14
0.0
 24
0.0
 34
0.0
 15
431.8
 25
279.4
 35
0.0
146
0.0
 13
0.0
 23
0.0
 33
0.0
 16
1.0
 26
0.0
 36
0.0
 17
0.0
 27
1.0
 37
0.0
 76
     0
330
1F
331
29
  0
MLINESTYLE
  5
18
102
{ACAD_REACTORS
330
17
102
}
330
17
100
AcDbMlineStyle
  2
Standard
 70
     0
  3

 62
   256
 51
90.0
 52
90.0
 71
     2
 49
0.5
 62
   256
  6
BYLAYER
 49
-0.5
 62
   256
  6
BYLAYER
  0
ACDBPLACEHOLDER
  5
F
102
{ACAD_REACTORS
330
E
102
}
330
E
  0
SCALE
  5
48
102
{ACAD_REACTORS
330
47
102
}
330
47
100
AcDbScale
 70
     0
300
1:1
140
1.0
141
1.0
290
     1
  0
SCALE
  5
49
102
{ACAD_REACTORS
330
47
102
}
330
47
100
AcDbScale
 70
     0
300
1:2
140
1.0
141
2.0
290
     0
  0
SCALE
  5
4A
102
{ACAD_REACTORS
330
47
102
}
330
47
100
AcDbScale
 70
     0
300
1:4
140
1.0
141
4.0
290
     0
  0
SCALE
  5
4B
102
{ACAD_REACTORS
330
47
102
}
330
47
100
AcDbScale
 70
     0
300
1:5
140
1.0
141
5.0
290
     0
  0
SCALE
  5
4C
102
{ACAD_REACTORS
330
47
102
}
330
47
100
AcDbScale
 70
     0
300
1:8
140
1.0
141
8.0
290
     0
  0
SCALE
  5
4D
102
{ACAD_REACTORS
330
47
102
}
330
47
100
AcDbScale
 70
     0
300
1:10
140
1.0
141
10.0
290
     0
  0
SCALE
  5
4E
102
{ACAD_REACTORS
330
47
102
}
330
47
100
AcDbScale
 70
     0
300
1:16
140
1.0
141
16.0
290
     0
  0
SCALE
  5
4F
102
{ACAD_REACTORS
330
47
102
}
330
47
100
AcDbScale
 70
     0
300
1:20
140
1.0
141
20.0
290
     0
  0
SCALE
  5
50
102
{ACAD_REACTORS
330
47
102
}
330
47
100
AcDbScale
 70
     0
300
1:30
140
1.0
141
30.0
290
     0
  0
SCALE
  5
51
102
{ACAD_REACTORS
330
47
102
}
330
47
100
AcDbScale
 70
     0
300
1:40
140
1.0
141
40.0
290
     0
  0
SCALE
  5
52
102
{ACAD_REACTORS
330
47
102
}
330
47
100
AcDbScale
 70
     0
300
1:50
140
1.0
141
50.0
290
     0
  0
SCALE
  5
53
102
{ACAD_REACTORS
330
47
102
}
330
47
100
AcDbScale
 70
     0
300
1:100
140
1.0
141
100.0
290
     0
  0
SCALE
  5
54
102
{ACAD_REACTORS
330
47
102
}
330
47
100
AcDbScale
 70
     0
300
2:1
140
2.0
141
1.0
290
     0
  0
SCALE
  5
55
102
{ACAD_REACTORS
330
47
102
}
330
47
100
AcDbScale
 70
     0
300
4:1
140
4.0
141
1.0
290
     0
  0
SCALE
  5
56
102
{ACAD_REACTORS
330
47
102
}
330
47
100
AcDbScale
 70
     0
300
8:1
140
8.0
141
1.0
290
     0
  0
SCALE
  5
57
102
{ACAD_REACTORS
330
47
102
}
330
47
100
AcDbScale
 70
     0
300
10:1
140
10.0
141
1.0
290
     0
  0
SCALE
  5
58
102
{ACAD_REACTORS
330
47
102
}
330
47
100
AcDbScale
 70
     0
300
100:1
140
100.0
141
1.0
290
     0
  0
ENDSEC
  0
EOF
