  0
SECTION
  2
HEADER
  9
$ACADVER
  1
AC1015
  9
$ACADMAINTVER
 70
     6
  9
$DWGCODEPAGE
  3
ANSI_1251
  9
$INSBASE
 10
0.0
 20
0.0
 30
0.0
  9
$EXTMIN
 10
0.0
 20
0.0
 30
0.0
  9
$EXTMAX
 10
431.8
 20
279.4
 30
0.0
  9
$LIMMIN
 10
0.0
 20
0.0
  9
$LIMMAX
 10
431.8
 20
279.4
  9
$ORTHOMODE
 70
     0
  9
$REGENMODE
 70
     1
  9
$FILLMODE
 70
     1
  9
$QTEXTMODE
 70
     0
  9
$MIRRTEXT
 70
     1
  9
$LTSCALE
 40
1.0
  9
$ATTMODE
 70
     1
  9
$TEXTSIZE
 40
3.5
  9
$TRACEWID
 40
1.0
  9
$TEXTSTYLE
  7
STANDARD
  9
$CLAYER
  8
0
  9
$CELTYPE
  6
ByLayer
  9
$CECOLOR
 62
   256
  9
$CELTSCALE
 40
1.0
  9
$DISPSILH
 70
     0
  9
$DIMSCALE
 40
1.0
  9
$DIMASZ
 40
5.0
  9
$DIMEXO
 40
0.0
  9
$DIMDLI
 40
3.75
  9
$DIMRND
 40
0.0
  9
$DIMDLE
 40
0.0
  9
$DIMEXE
 40
1.0
  9
$DIMTP
 40
0.0
  9
$DIMTM
 40
0.0
  9
$DIMTXT
 40
3.5
  9
$DIMCEN
 40
2.5
  9
$DIMTSZ
 40
0.0
  9
$DIMTOL
 70
     0
  9
$DIMLIM
 70
     0
  9
$DIMTIH
 70
     1
  9
$DIMTOH
 70
     1
  9
$DIMSE1
 70
     0
  9
$DIMSE2
 70
     0
  9
$DIMTAD
 70
     1
  9
$DIMZIN
 70
     0
  9
$DIMBLK
  1

  9
$DIMASO
 70
     1
  9
$DIMSHO
 70
     1
  9
$DIMPOST
  1

  9
$DIMAPOST
  1

  9
$DIMALT
 70
     0
  9
$DIMALTD
 70
     3
  9
$DIMALTF
 40
0.0393700787
  9
$DIMLFAC
 40
1.0
  9
$DIMTOFL
 70
     1
  9
$DIMTVP
 40
0.0
  9
$DIMTIX
 70
     0
  9
$DIMSOXD
 70
     0
  9
$DIMSAH
 70
     0
  9
$DIMBLK1
  1

  9
$DIMBLK2
  1

  9
$DIMSTYLE
  2
ISO-25
  9
$DIMCLRD
 70
     0
  9
$DIMCLRE
 70
     0
  9
$DIMCLRT
 70
     0
  9
$DIMTFAC
 40
1.0
  9
$DIMGAP
 40
1.5
  9
$DIMJUST
 70
     0
  9
$DIMSD1
 70
     0
  9
$DIMSD2
 70
     0
  9
$DIMTOLJ
 70
     0
  9
$DIMTZIN
 70
     0
  9
$DIMALTZ
 70
     0
  9
$DIMALTTZ
 70
     0
  9
$DIMUPT
 70
     0
  9
$DIMDEC
 70
     1
  9
$DIMTDEC
 70
     3
  9
$DIMALTU
 70
     2
  9
$DIMALTTD
 70
     3
  9
$DIMTXSTY
  7
STANDARD
  9
$DIMAUNIT
 70
     0
  9
$DIMADEC
 70
     2
  9
$DIMALTRND
 40
0.0
  9
$DIMAZIN
 70
     0
  9
$DIMDSEP
 70
    44
  9
$DIMATFIT
 70
     3
  9
$DIMFRAC
 70
     0
  9
$DIMLDRBLK
  1

  9
$DIMLUNIT
 70
     2
  9
$DIMLWD
 70
    -2
  9
$DIMLWE
 70
    -2
  9
$DIMTMOVE
 70
     0
  9
$LUNITS
 70
     2
  9
$LUPREC
 70
     1
  9
$SKETCHINC
 40
1.0
  9
$FILLETRAD
 40
0.0
  9
$AUNITS
 70
     0
  9
$AUPREC
 70
     2
  9
$MENU
  1
.
  9
$ELEVATION
 40
0.0
  9
$PELEVATION
 40
0.0
  9
$THICKNESS
 40
0.0
  9
$LIMCHECK
 70
     0
  9
$CHAMFERA
 40
0.0
  9
$CHAMFERB
 40
0.0
  9
$CHAMFERC
 40
0.0
  9
$CHAMFERD
 40
0.0
  9
$SKPOLY
 70
     0
  9
$TDCREATE
 40
2460927.767593484
  9
$TDUCREATE
 40
2460927.642593484
  9
$TDUPDATE
 40
2460927.767594294
  9
$TDUUPDATE
 40
2460927.642594294
  9
$TDINDWG
 40
0.0000000116
  9
$TDUSRTIMER
 40
0.0000000116
  9
$USRTIMER
 70
     1
  9
$ANGBASE
 50
0.0
  9
$ANGDIR
 70
     0
  9
$PDMODE
 70
     0
  9
$PDSIZE
 40
-1.0
  9
$PLINEWID
 40
0.0
  9
$SPLFRAME
 70
     0
  9
$SPLINETYPE
 70
     6
  9
$SPLINESEGS
 70
     8
  9
$HANDSEED
  5
45D
  9
$SURFTAB1
 70
     6
  9
$SURFTAB2
 70
     6
  9
$SURFTYPE
 70
     6
  9
$SURFU
 70
     6
  9
$SURFV
 70
     6
  9
$UCSBASE
  2

  9
$UCSNAME
  2

  9
$UCSORG
 10
0.0
 20
0.0
 30
0.0
  9
$UCSXDIR
 10
1.0
 20
0.0
 30
0.0
  9
$UCSYDIR
 10
0.0
 20
1.0
 30
0.0
  9
$UCSORTHOREF
  2

  9
$UCSORTHOVIEW
 70
     0
  9
$UCSORGTOP
 10
0.0
 20
0.0
 30
0.0
  9
$UCSORGBOTTOM
 10
0.0
 20
0.0
 30
0.0
  9
$UCSORGLEFT
 10
0.0
 20
0.0
 30
0.0
  9
$UCSORGRIGHT
 10
0.0
 20
0.0
 30
0.0
  9
$UCSORGFRONT
 10
0.0
 20
0.0
 30
0.0
  9
$UCSORGBACK
 10
0.0
 20
0.0
 30
0.0
  9
$PUCSBASE
  2

  9
$PUCSNAME
  2

  9
$PUCSORG
 10
0.0
 20
0.0
 30
0.0
  9
$PUCSXDIR
 10
1.0
 20
0.0
 30
0.0
  9
$PUCSYDIR
 10
0.0
 20
1.0
 30
0.0
  9
$PUCSORTHOREF
  2

  9
$PUCSORTHOVIEW
 70
     0
  9
$PUCSORGTOP
 10
0.0
 20
0.0
 30
0.0
  9
$PUCSORGBOTTOM
 10
0.0
 20
0.0
 30
0.0
  9
$PUCSORGLEFT
 10
0.0
 20
0.0
 30
0.0
  9
$PUCSORGRIGHT
 10
0.0
 20
0.0
 30
0.0
  9
$PUCSORGFRONT
 10
0.0
 20
0.0
 30
0.0
  9
$PUCSORGBACK
 10
0.0
 20
0.0
 30
0.0
  9
$USERI1
 70
     0
  9
$USERI2
 70
     0
  9
$USERI3
 70
     0
  9
$USERI4
 70
     0
  9
$USERI5
 70
     0
  9
$USERR1
 40
0.0
  9
$USERR2
 40
0.0
  9
$USERR3
 40
0.0
  9
$USERR4
 40
0.0
  9
$USERR5
 40
0.0
  9
$WORLDVIEW
 70
     1
  9
$SHADEDGE
 70
     3
  9
$SHADEDIF
 70
    70
  9
$TILEMODE
 70
     1
  9
$MAXACTVP
 70
    64
  9
$PINSBASE
 10
0.0
 20
0.0
 30
0.0
  9
$PLIMCHECK
 70
     0
  9
$PEXTMIN
 10
1.0000000000E+20
 20
1.0000000000E+20
 30
1.0000000000E+20
  9
$PEXTMAX
 10
-1.0000000000E+20
 20
-1.0000000000E+20
 30
-1.0000000000E+20
  9
$PLIMMIN
 10
0.0
 20
0.0
  9
$PLIMMAX
 10
420.0
 20
297.0
  9
$UNITMODE
 70
     0
  9
$VISRETAIN
 70
     1
  9
$PLINEGEN
 70
     0
  9
$PSLTSCALE
 70
     1
  9
$TREEDEPTH
 70
  3020
  9
$CMLSTYLE
  2
Standard
  9
$CMLJUST
 70
     0
  9
$CMLSCALE
 40
20.0
  9
$PROXYGRAPHICS
 70
     1
  9
$MEASUREMENT
 70
     1
  9
$CELWEIGHT
370
    -1
  9
$ENDCAPS
280
     0
  9
$JOINSTYLE
280
     0
  9
$LWDISPLAY
290
     1
  9
$INSUNITS
 70
     4
  9
$HYPERLINKBASE
  1

  9
$STYLESHEET
  1

  9
$XEDIT
290
     1
  9
$CEPSNTYPE
380
     0
  9
$PSTYLEMODE
290
     1
  9
$FINGERPRINTGUID
  2
{65a62559-0132-4a46-885f-5fc5c82394e1}
  9
$VERSIONGUID
  2
{FAEB1C32-E019-11D5-929B-00C0DF256EC4}
  9
$EXTNAMES
290
     1
  9
$PSVPSCALE
 40
0.0
  9
$OLESTARTUP
290
     0
  0
ENDSEC
  0
SECTION
  2
CLASSES
  0
CLASS
  1
ACDBDICTIONARYWDFLT
  2
AcDbDictionaryWithDefault
  3
ObjectDBX Classes
 90
        0
280
     0
281
     0
  0
CLASS
  1
VISUALSTYLE
  2
AcDbVisualStyle
  3
ObjectDBX Classes
 90
     4095
280
     0
281
     0
  0
CLASS
  1
MATERIAL
  2
AcDbMaterial
  3
ObjectDBX Classes
 90
     1153
280
     0
281
     0
  0
CLASS
  1
SCALE
  2
AcDbScale
  3
ObjectDBX Classes
 90
     1153
280
     0
281
     0
  0
CLASS
  1
TABLESTYLE
  2
AcDbTableStyle
  3
ObjectDBX Classes
 90
     4095
280
     0
281
     0
  0
CLASS
  1
MLEADERSTYLE
  2
AcDbMLeaderStyle
  3
ACDB_MLEADERSTYLE_CLASS
 90
     4095
280
     0
281
     0
  0
CLASS
  1
SUN
  2
AcDbSun
  3
SCENEOE
 90
     1153
280
     0
281
     0
  0
CLASS
  1
ACDBPLACEHOLDER
  2
AcDbPlaceHolder
  3
ObjectDBX Classes
 90
        0
280
     0
281
     0
  0
CLASS
  1
LAYOUT
  2
AcDbLayout
  3
ObjectDBX Classes
 90
        0
280
     0
281
     0
  0
ENDSEC
  0
SECTION
  2
TABLES
  0
TABLE
  2
VPORT
  5
8
330
0
100
AcDbSymbolTable
 70
     1
  0
VPORT
  5
29
330
8
100
AcDbSymbolTableRecord
100
AcDbViewportTableRecord
  2
*Active
 70
     0
 10
0.0
 20
0.0
 11
1.0
 21
1.0
 12
215.9
 22
139.7
 13
0.0
 23
0.0
 14
10.0
 24
10.0
 15
10.0
 25
10.0
 16
0.0
 26
0.0
 36
1.0
 17
0.0
 27
0.0
 37
0.0
 40
279.4
 41
1.5454545455
 42
50.0
 43
0.0
 44
0.0
 50
0.0
 51
0.0
 71
     0
 72
  2000
 73
     1
 74
     3
 75
     0
 76
     0
 77
     0
 78
     0
281
     0
 65
     1
110
0.0
120
0.0
130
0.0
111
1.0
121
0.0
131
0.0
112
0.0
122
1.0
132
0.0
 79
     0
146
0.0
  0
ENDTAB
  0
TABLE
  2
LTYPE
  5
5
330
0
100
AcDbSymbolTable
 70
     8
  0
LTYPE
  5
14
330
5
100
AcDbSymbolTableRecord
100
AcDbLinetypeTableRecord
  2
ByBlock
 70
     0
  3

 72
    65
 73
     0
 40
0.0
  0
LTYPE
  5
15
330
5
100
AcDbSymbolTableRecord
100
AcDbLinetypeTableRecord
  2
ByLayer
 70
     0
  3

 72
    65
 73
     0
 40
0.0
  0
LTYPE
  5
16
330
5
100
AcDbSymbolTableRecord
100
AcDbLinetypeTableRecord
  2
Continuous
 70
     0
  3
Solid line
 72
    65
 73
     0
 40
0.0
  0
LTYPE
  5
5E
330
5
100
AcDbSymbolTableRecord
100
AcDbLinetypeTableRecord
  2
SLD-Сплошная
 70
     0
  3
SolidWorks Line Style
 72
    65
 73
     0
 40
0.0
  0
LTYPE
  5
5F
330
5
100
AcDbSymbolTableRecord
100
AcDbLinetypeTableRecord
  2
SLD-Штриховая
 70
     0
  3
SolidWorks Line Style
 72
    65
 73
     2
 40
1.905
 49
1.27
 74
     0
 49
-0.635
 74
     0
  0
LTYPE
  5
60
330
5
100
AcDbSymbolTableRecord
100
AcDbLinetypeTableRecord
  2
SLD-Штрихпункт.-с-двумя-точками
 70
     0
  3
SolidWorks Line Style
 72
    65
 73
     6
 40
12.7
 49
6.35
 74
     0
 49
-1.27
 74
     0
 49
1.27
 74
     0
 49
-1.27
 74
     0
 49
1.27
 74
     0
 49
-1.27
 74
     0
  0
LTYPE
  5
61
330
5
100
AcDbSymbolTableRecord
100
AcDbLinetypeTableRecord
  2
SLD-Штрихпункт.-утолщ.
 70
     0
  3
SolidWorks Line Style
 72
    65
 73
     4
 40
10.16
 49
6.35
 74
     0
 49
-1.27
 74
     0
 49
1.27
 74
     0
 49
-1.27
 74
     0
  0
LTYPE
  5
62
330
5
100
AcDbSymbolTableRecord
100
AcDbLinetypeTableRecord
  2
SLD-Осевая
 70
     0
  3
SolidWorks Line Style
 72
    65
 73
     4
 40
19.05
 49
15.24
 74
     0
 49
-1.27
 74
     0
 49
1.27
 74
     0
 49
-1.27
 74
     0
  0
LTYPE
  5
63
330
5
100
AcDbSymbolTableRecord
100
AcDbLinetypeTableRecord
  2
SLD-Сшитая
 70
     0
  3
SolidWorks Line Style
 72
    65
 73
     2
 40
0.635
 49
0.0
 74
     0
 49
-0.635
 74
     0
  0
LTYPE
  5
64
330
5
100
AcDbSymbolTableRecord
100
AcDbLinetypeTableRecord
  2
SLD-Тонкая-Толстая
 70
     0
  3
SolidWorks Line Style
 72
    65
 73
     2
 40
5.080508
 49
0.000508
 74
     0
 49
-5.08
 74
     0
  0
ENDTAB
  0
TABLE
  2
LAYER
  5
2
330
0
100
AcDbSymbolTable
 70
     3
  0
LAYER
  5
10
330
2
100
AcDbSymbolTableRecord
100
AcDbLayerTableRecord
  2
0
 70
     0
 62
     7
  6
Continuous
370
    -3
390
F
  0
LAYER
  5
65
330
2
100
AcDbSymbolTableRecord
100
AcDbLayerTableRecord
  2
ВОДЯНОЙ_ЗНАК
 70
     0
 62
    11
  6
SLD-Сплошная
370
    -3
390
F
  0
LAYER
  5
66
330
2
100
AcDbSymbolTableRecord
100
AcDbLayerTableRecord
  2
ОСНОВНОЙ
 70
     0
 62
     7
  6
SLD-Сплошная
370
    -3
390
F
  0
ENDTAB
  0
TABLE
  2
STYLE
  5
3
330
0
100
AcDbSymbolTable
 70
     1
  0
STYLE
  5
11
330
3
100
AcDbSymbolTableRecord
100
AcDbTextStyleTableRecord
  2
STANDARD
 70
     0
 40
0.0
 41
1.0
 50
0.0
 71
     0
 42
3.5
  3
GOST-TYPE-A.TTF
  4

1001
ACAD
1000
GOST TYPE A
1071
 16777250
  0
ENDTAB
  0
TABLE
  2
VIEW
  5
6
330
0
100
AcDbSymbolTable
 70
     0
  0
ENDTAB
  0
TABLE
  2
UCS
  5
7
330
0
100
AcDbSymbolTable
 70
     0
  0
ENDTAB
  0
TABLE
  2
APPID
  5
9
330
0
100
AcDbSymbolTable
 70
     1
  0
APPID
  5
12
330
9
100
AcDbSymbolTableRecord
100
AcDbRegAppTableRecord
  2
ACAD
 70
     0
  0
ENDTAB
  0
TABLE
  2
DIMSTYLE
  5
A
330
0
100
AcDbSymbolTable
 70
     1
100
AcDbDimStyleTable
  0
DIMSTYLE
105
27
330
A
100
AcDbSymbolTableRecord
100
AcDbDimStyleTableRecord
  2
ISO-25
 70
     0
 41
2.5
 42
0.625
 43
3.75
 44
1.25
 73
     0
 74
     0
 77
     1
 78
     8
140
2.5
141
2.5
143
0.0393700787
147
0.625
171
     3
172
     1
178
     0
271
     2
272
     2
274
     3
278
    44
283
     0
284
     8
340
11
  0
ENDTAB
  0
TABLE
  2
BLOCK_RECORD
  5
1
330
0
100
AcDbSymbolTable
 70
     1
  0
BLOCK_RECORD
  5
1F
330
1
100
AcDbSymbolTableRecord
100
AcDbBlockTableRecord
  2
*Model_Space
340
22
  0
BLOCK_RECORD
  5
1B
330
1
100
AcDbSymbolTableRecord
100
AcDbBlockTableRecord
  2
*Paper_Space
340
1E
  0
BLOCK_RECORD
  5
23
330
1
100
AcDbSymbolTableRecord
100
AcDbBlockTableRecord
  2
*Paper_Space0
340
26
  0
ENDTAB
  0
ENDSEC
  0
SECTION
  2
BLOCKS
  0
BLOCK
  5
20
330
1F
100
AcDbEntity
  8
0
100
AcDbBlockBegin
  2
*Model_Space
 70
     0
 10
0.0
 20
0.0
 30
0.0
  3
*Model_Space
  1

  0
ENDBLK
  5
21
330
1F
100
AcDbEntity
  8
0
100
AcDbBlockEnd
  0
BLOCK
  5
1C
330
1B
100
AcDbEntity
 67
     1
  8
0
100
AcDbBlockBegin
  2
*Paper_Space
 70
     0
 10
0.0
 20
0.0
 30
0.0
  3
*Paper_Space
  1

  0
ENDBLK
  5
1D
330
1B
100
AcDbEntity
 67
     1
  8
0
100
AcDbBlockEnd
  0
BLOCK
  5
24
330
23
100
AcDbEntity
  8
0
100
AcDbBlockBegin
  2
*Paper_Space0
 70
     0
 10
0.0
 20
0.0
 30
0.0
  3
*Paper_Space0
  1

  0
ENDBLK
  5
25
330
23
100
AcDbEntity
  8
0
100
AcDbBlockEnd
  0
ENDSEC
  0
SECTION
  2
ENTITIES
  0
LINE
  5
67
330
1F
100
AcDbEntity
  8
0
  6
SLD-Сплошная
 62
     7
370
    25
100
AcDbLine
 10
241.67749964
 20
96.3444955916
 30
0.0
 11
251.17749964
 21
96.3444955916
 31
0.0
  0
LINE
  5
68
330
1F
100
AcDbEntity
  8
0
  6
SLD-Сплошная
 62
     7
370
    25
100
AcDbLine
 10
251.17749964
 20
196.5444955916
 30
0.0
 11
241.67749964
 21
196.5444955916
 31
0.0
  0
LINE
  5
69
330
1F
100
AcDbEntity
  8
0
  6
SLD-Сплошная
 62
     7
370
    25
100
AcDbLine
 10
182.67749964
 20
185.4444955916
 30
0.0
 11
175.1774996396
 21
185.4444955916
 31
0.0
  0
LINE
  5
6A
330
1F
100
AcDbEntity
  8
0
  6
SLD-Сплошная
 62
     7
370
    25
100
AcDbLine
 10
229.17749964
 20
185.4444955916
 30
0.0
 11
222.6034118429
 21
185.4444955916
 31
0.0
  0
LINE
  5
6B
330
1F
100
AcDbEntity
  8
0
  6
SLD-Сплошная
 62
     7
370
    25
100
AcDbLine
 10
251.17749964
 20
108.9444955916
 30
0.0
 11
251.67749964
 21
108.9444955916
 31
0.0
  0
LINE
  5
6C
330
1F
100
AcDbEntity
  8
0
  6
SLD-Сплошная
 62
     7
370
    25
100
AcDbLine
 10
251.67749964
 20
183.9444955916
 30
0.0
 11
251.17749964
 21
183.9444955916
 31
0.0
  0
LINE
  5
6D
330
1F
100
AcDbEntity
  8
0
  6
SLD-Сплошная
 62
     7
370
    25
100
AcDbLine
 10
275.62749964
 20
183.9444955916
 30
0.0
 11
269.67749964
 21
183.9444955916
 31
0.0
  0
LINE
  5
6E
330
1F
100
AcDbEntity
  8
0
  6
SLD-Сплошная
 62
     7
370
    25
100
AcDbLine
 10
269.67749964
 20
128.5004137647
 30
0.0
 11
251.67749964
 21
128.5004137647
 31
0.0
  0
LINE
  5
6F
330
1F
100
AcDbEntity
  8
0
  6
SLD-Сплошная
 62
     7
370
    25
100
AcDbLine
 10
251.67749964
 20
121.0004137647
 30
0.0
 11
269.67749964
 21
121.0004137647
 31
0.0
  0
LINE
  5
70
330
1F
100
AcDbEntity
  8
0
  6
SLD-Сплошная
 62
     7
370
    25
100
AcDbLine
 10
251.67749964
 20
143.0679431648
 30
0.0
 11
269.67749964
 21
143.0679431648
 31
0.0
  0
LINE
  5
71
330
1F
100
AcDbEntity
  8
0
  6
SLD-Сплошная
 62
     7
370
    25
100
AcDbLine
 10
251.67749964
 20
174.4091215432
 30
0.0
 11
269.67749964
 21
174.4091215432
 31
0.0
  0
LINE
  5
72
330
1F
100
AcDbEntity
  8
0
  6
SLD-Сплошная
 62
     7
370
    25
100
AcDbLine
 10
269.67749964
 20
181.9091215432
 30
0.0
 11
251.67749964
 21
181.9091215432
 31
0.0
  0
LINE
  5
73
330
1F
100
AcDbEntity
  8
0
  6
SLD-Сплошная
 62
     7
370
    25
100
AcDbLine
 10
275.62749964
 20
119.5944955916
 30
0.0
 11
294.17749964
 21
119.5944955916
 31
0.0
  0
LINE
  5
74
330
1F
100
AcDbEntity
  8
0
  6
SLD-Сплошная
 62
     7
370
    25
100
AcDbLine
 10
251.67749964
 20
119.5944955916
 30
0.0
 11
269.67749964
 21
119.5944955916
 31
0.0
  0
LINE
  5
75
330
1F
100
AcDbEntity
  8
0
  6
SLD-Сплошная
 62
     7
370
    25
100
AcDbLine
 10
269.67749964
 20
136.7944955916
 30
0.0
 11
251.67749964
 21
136.7944955916
 31
0.0
  0
LINE
  5
76
330
1F
100
AcDbEntity
  8
0
  6
SLD-Сплошная
 62
     7
370
    25
100
AcDbLine
 10
178.4115837299
 20
100.9444955916
 30
0.0
 11
229.17749964
 21
100.9444955916
 31
0.0
  0
LINE
  5
77
330
1F
100
AcDbEntity
  8
0
  6
SLD-Сплошная
 62
     7
370
    25
100
AcDbLine
 10
294.17749964
 20
121.6944955916
 30
0.0
 11
295.67749964
 21
121.6944955916
 31
0.0
  0
LINE
  5
78
330
1F
100
AcDbEntity
  8
0
  6
SLD-Сплошная
 62
     7
370
    25
100
AcDbLine
 10
295.67749964
 20
133.0944955916
 30
0.0
 11
294.17749964
 21
133.0944955916
 31
0.0
  0
LINE
  5
79
330
1F
100
AcDbEntity
  8
0
  6
SLD-Сплошная
 62
     7
370
    25
100
AcDbLine
 10
294.37749964
 20
143.5820351681
 30
0.0
 11
294.17749964
 21
143.5820351681
 31
0.0
  0
LINE
  5
7A
330
1F
100
AcDbEntity
  8
0
  6
SLD-Сплошная
 62
     7
370
    25
100
AcDbLine
 10
294.17749964
 20
136.5620351688
 30
0.0
 11
294.37749964
 21
136.5620351688
 31
0.0
  0
LINE
  5
7B
330
1F
100
AcDbEntity
  8
0
  6
SLD-Сплошная
 62
     7
370
    25
100
AcDbLine
 10
156.0774996396
 20
142.8908021835
 30
0.0
 11
170.2774996396
 21
142.8908021835
 31
0.0
  0
LINE
  5
7C
330
1F
100
AcDbEntity
  8
0
  6
SLD-Сплошная
 62
     7
370
    25
100
AcDbLine
 10
170.2774996396
 20
150.8908021835
 30
0.0
 11
156.0774996396
 21
150.8908021835
 31
0.0
  0
LINE
  5
7D
330
1F
100
AcDbEntity
  8
0
  6
SLD-Сплошная
 62
     7
370
    25
100
AcDbLine
 10
175.1774996396
 20
202.4444955918
 30
0.0
 11
173.8461178838
 21
202.4444955918
 31
0.0
  0
ARC
  5
7E
330
1F
100
AcDbEntity
  8
0
  6
SLD-Сплошная
 62
     7
370
    25
100
AcDbCircle
 10
170.2774996396
 20
119.481922167
 30
0.0
 40
3.899999999999991
100
AcDbArc
 50
270.0
 51
313.0038408682
  0
ARC
  5
7F
330
1F
100
AcDbEntity
  8
0
  6
SLD-Сплошная
 62
     7
370
    25
100
AcDbCircle
 10
156.0774996396
 20
119.481922167
 30
0.0
 40
3.90000000000002
100
AcDbArc
 50
180.0
 51
270.0
  0
ARC
  5
80
330
1F
100
AcDbEntity
  8
0
  6
SLD-Сплошная
 62
     7
370
    25
100
AcDbCircle
 10
170.2774996396
 20
174.1800947091
 30
0.0
 40
3.90000000000002
100
AcDbArc
 50
44.8632832807
 51
90.0
  0
ARC
  5
81
330
1F
100
AcDbEntity
  8
0
  6
SLD-Сплошная
 62
     7
370
    25
100
AcDbCircle
 10
156.0774996396
 20
174.1800947091
 30
0.0
 40
3.900000000000034
100
AcDbArc
 50
90.0
 51
180.0
  0
LINE
  5
82
330
1F
100
AcDbEntity
  8
0
  6
SLD-Сплошная
 62
     7
370
    25
100
AcDbLine
 10
156.0774996396
 20
115.581922167
 30
0.0
 11
170.2774996396
 21
115.581922167
 31
0.0
  0
LINE
  5
83
330
1F
100
AcDbEntity
  8
0
  6
SLD-Сплошная
 62
     7
370
    25
100
AcDbLine
 10
170.2774996396
 20
178.0800947091
 30
0.0
 11
156.0774996396
 21
178.0800947091
 31
0.0
  0
ARC
  5
84
330
1F
100
AcDbEntity
  8
0
  6
SLD-Сплошная
 62
     7
370
    25
100
AcDbCircle
 10
152.1774996396
 20
197.9444955918
 30
0.0
 40
3.000000000000028
100
AcDbArc
 50
90.0
 51
180.0
  0
LINE
  5
85
330
1F
100
AcDbEntity
  8
0
  6
SLD-Сплошная
 62
     7
370
    25
100
AcDbLine
 10
150.9881583751
 20
93.0232397707
 30
0.0
 11
173.7798633739
 21
93.0232397707
 31
0.0
  0
SPLINE
  5
86
330
1F
100
AcDbEntity
  8
0
  6
SLD-Сплошная
 62
     7
370
    25
100
AcDbSpline
210
0.0
220
0.0
230
1.0
 70
     8
 71
     3
 72
    11
 73
     7
 74
     0
 42
0.00000001
 43
0.00000001
 40
0.0
 40
0.0
 40
0.0
 40
0.0
 40
0.2598950487983484
 40
0.5182284927862878
 40
0.7670909063351314
 40
0.9999999999999999
 40
0.9999999999999999
 40
0.9999999999999999
 40
0.9999999999999999
 10
149.4837465484322
 20
93.76297500105521
 30
0.0
 10
149.5911281244169
 20
93.64965776423352
 30
0.0
 10
149.8052460636884
 20
93.42370416828649
 30
0.0
 10
150.207286321749
 20
93.19303040905037
 30
0.0
 10
150.629881743359
 20
93.04953959707453
 30
0.0
 10
150.9181060164027
 20
93.0323377224997
 30
0.0
 10
151.0574460421238
 20
93.02402159554622
 30
0.0
  0
SPLINE
  5
87
330
1F
100
AcDbEntity
  8
0
  6
SLD-Сплошная
 62
     7
370
    25
100
AcDbSpline
210
0.0
220
0.0
230
1.0
 70
     8
 71
     3
 72
    11
 73
     7
 74
     0
 42
0.00000001
 43
0.00000001
 40
0.0
 40
0.0
 40
0.0
 40
0.0
 40
0.2259457062378666
 40
0.4757119400338001
 40
0.7384456951350936
 40
1.0
 40
1.0
 40
1.0
 40
1.0
 10
173.6876482871647
 20
93.02390102954453
 30
0.0
 10
173.8631648783245
 20
93.03684863410108
 30
0.0
 10
174.232702053777
 20
93.06410885597006
 30
0.0
 10
174.7653213080437
 20
93.29622000463138
 30
0.0
 10
175.2461679703059
 20
93.6738260398523
 30
0.0
 10
175.4514157698135
 20
94.02798291054467
 30
0.0
 10
175.5538088045294
 20
94.20466298625158
 30
0.0
  0
ARC
  5
88
330
1F
100
AcDbEntity
  8
0
  6
SLD-Сплошная
 62
     7
370
    25
100
AcDbCircle
 10
156.0774996396
 20
193.9644507689
 30
0.0
 40
3.900000000000006
100
AcDbArc
 50
90.0
 51
180.0
  0
ARC
  5
89
330
1F
100
AcDbEntity
  8
0
  6
SLD-Сплошная
 62
     7
370
    25
100
AcDbCircle
 10
170.2774996396
 20
193.9644507689
 30
0.0
 40
3.900000000000023
100
AcDbArc
 50
24.7970403845
 51
90.0
  0
LINE
  5
8A
330
1F
100
AcDbEntity
  8
0
  6
SLD-Сплошная
 62
     7
370
    25
100
AcDbLine
 10
144.5345320637
 20
99.8535695948
 30
0.0
 11
149.4635107237
 21
93.7863746687
 31
0.0
  0
LINE
  5
8B
330
1F
100
AcDbEntity
  8
0
  6
SLD-Сплошная
 62
     7
370
    25
100
AcDbLine
 10
175.6099360415
 20
94.310037652
 30
0.0
 11
178.5695933224
 21
101.3186711169
 31
0.0
  0
SPLINE
  5
8C
330
1F
100
AcDbEntity
  8
0
  6
SLD-Сплошная
 62
     7
370
    25
100
AcDbSpline
210
0.0
220
0.0
230
1.0
 70
     8
 71
     3
 72
    13
 73
     9
 74
     0
 42
0.00000001
 43
0.00000001
 40
0.0
 40
0.0
 40
0.0
 40
0.0
 40
0.1350359896746994
 40
0.2545344552830685
 40
0.447686610649111
 40
0.6759983578400225
 40
0.8280652491885834
 40
1.0
 40
1.0
 40
1.0
 40
1.0
 10
147.2402384823117
 20
103.7875692167148
 30
0.0
 10
147.0312081106595
 20
103.7801947654608
 30
0.0
 10
146.6371988401365
 20
103.7662943827741
 30
0.0
 10
145.9546636491655
 20
103.6276377739354
 30
0.0
 10
145.1859656265854
 20
103.3330386603128
 30
0.0
 10
144.5052377853149
 20
102.7432395181596
 30
0.0
 10
144.0913809523207
 20
102.0047730817474
 30
0.0
 10
144.0444407266753
 20
101.5225644581308
 30
0.0
 10
144.0195314208287
 20
101.2666755713094
 30
0.0
  0
LINE
  5
8D
330
1F
100
AcDbEntity
  8
0
  6
SLD-Сплошная
 62
     7
370
    25
100
AcDbLine
 10
149.1774996396
 20
103.7879160182
 30
0.0
 11
147.2402384823
 21
103.7879160182
 31
0.0
  0
LINE
  5
8E
330
1F
100
AcDbEntity
  8
0
  6
SLD-Сплошная
 62
     7
370
    25
100
AcDbLine
 10
170.2774996396
 20
197.8644507689
 30
0.0
 11
156.0774996396
 21
197.8644507689
 31
0.0
  0
SPLINE
  5
8F
330
1F
100
AcDbEntity
  8
0
  6
SLD-Сплошная
 62
     7
370
    25
100
AcDbSpline
210
0.0
220
0.0
230
1.0
 70
     8
 71
     3
 72
    10
 73
     6
 74
     0
 42
0.00000001
 43
0.00000001
 40
0.0
 40
0.0
 40
0.0
 40
0.0
 40
0.2761377169588484
 40
0.5369249132815452
 40
1.0
 40
1.0
 40
1.0
 40
1.0
 10
144.0195332600506
 20
101.2664839632715
 30
0.0
 10
144.0289616191779
 20
101.1225455073866
 30
0.0
 10
144.0472942140968
 20
100.842670147385
 30
0.0
 10
144.198532784209
 20
100.3397016334593
 30
0.0
 10
144.4157912035653
 20
100.0289321690843
 30
0.0
 10
144.5547775325132
 20
99.8301241913288
 30
0.0
  0
LINE
  5
90
330
1F
100
AcDbEntity
  8
0
  6
SLD-Сплошная
 62
     7
370
    25
100
AcDbLine
 10
173.8461178838
 20
90.4444955918
 30
0.0
 11
175.1774996396
 21
90.4444955918
 31
0.0
  0
ARC
  5
91
330
1F
100
AcDbEntity
  8
0
  6
SLD-Сплошная
 62
     7
370
    25
100
AcDbCircle
 10
152.1774996396
 20
94.9444955918
 30
0.0
 40
3.0
100
AcDbArc
 50
200.099816416
 51
270.0
  0
ARC
  5
92
330
1F
100
AcDbEntity
  8
0
  6
SLD-Сплошная
 62
     7
370
    25
100
AcDbCircle
 10
170.2774996396
 20
91.8463230497
 30
0.0
 40
3.899999999999995
100
AcDbArc
 50
270.0
 51
338.9646103287
  0
ARC
  5
93
330
1F
100
AcDbEntity
  8
0
  6
SLD-Сплошная
 62
     7
370
    25
100
AcDbCircle
 10
156.0774996396
 20
91.8463230497
 30
0.0
 40
3.900000000000006
100
AcDbArc
 50
180.0
 51
270.0
  0
ARC
  5
94
330
1F
100
AcDbEntity
  8
0
  6
SLD-Сплошная
 62
     7
370
    25
100
AcDbCircle
 10
156.0774996396
 20
201.0426681338
 30
0.0
 40
3.900000000000006
100
AcDbArc
 50
90.0
 51
180.0
  0
ARC
  5
95
330
1F
100
AcDbEntity
  8
0
  6
SLD-Сплошная
 62
     7
370
    25
100
AcDbCircle
 10
170.2774996396
 20
201.0426681338
 30
0.0
 40
3.899999999999981
100
AcDbArc
 50
21.0626934662
 51
90.0
  0
SPLINE
  5
96
330
1F
100
AcDbEntity
  8
0
  6
SLD-Сплошная
 62
     7
370
    25
100
AcDbSpline
210
0.0
220
0.0
230
1.0
 70
     8
 71
     3
 72
    10
 73
     6
 74
     0
 42
0.00000001
 43
0.00000001
 40
0.0
 40
0.0
 40
0.0
 40
0.0
 40
0.463075086718464
 40
0.7238622830412199
 40
1.0
 40
1.0
 40
1.0
 40
1.0
 10
144.554777532513
 20
193.0588669921748
 30
0.0
 10
144.4157912035653
 20
192.8600590144196
 30
0.0
 10
144.1985327842093
 20
192.5492895500449
 30
0.0
 10
144.0472942140971
 20
192.04632103612
 30
0.0
 10
144.028961619178
 20
191.7664456761187
 30
0.0
 10
144.0195332600506
 20
191.6225072202341
 30
0.0
  0
LINE
  5
97
330
1F
100
AcDbEntity
  8
0
  6
SLD-Сплошная
 62
     7
370
    25
100
AcDbLine
 10
149.3602135799
 20
198.9754656485
 30
0.0
 11
144.5345320637
 21
193.0354215887
 31
0.0
  0
LINE
  5
98
330
1F
100
AcDbEntity
  8
0
  6
SLD-Сплошная
 62
     7
370
    25
100
AcDbLine
 10
177.8935051862
 20
193.1713344703
 30
0.0
 11
175.6099360415
 21
198.5789535315
 31
0.0
  0
SPLINE
  5
99
330
1F
100
AcDbEntity
  8
0
  6
SLD-Сплошная
 62
     7
370
    25
100
AcDbSpline
210
0.0
220
0.0
230
1.0
 70
     8
 71
     3
 72
    13
 73
     9
 74
     0
 42
0.00000001
 43
0.00000001
 40
0.0
 40
0.0
 40
0.0
 40
0.0
 40
0.0465232929774925
 40
0.1669059824433979
 40
0.34943432606017
 40
0.6111406615081836
 40
0.7928665970595772
 40
1.0
 40
1.0
 40
1.0
 40
1.0
 10
144.0650650472151
 20
191.2620640409173
 30
0.0
 10
144.0709474463468
 20
191.20108215402
 30
0.0
 10
144.0920510171256
 20
190.9823048256659
 30
0.0
 10
144.2822620753905
 20
190.536371932233
 30
0.0
 10
144.7539976514184
 20
189.8644558754461
 30
0.0
 10
145.4958009079798
 20
189.4245274421147
 30
0.0
 10
146.394085602798
 20
189.1458774503783
 30
0.0
 10
146.9461635495862
 20
189.1168721811205
 30
0.0
 10
147.2402384823116
 20
189.1014219667888
 30
0.0
  0
LINE
  5
9A
330
1F
100
AcDbEntity
  8
0
  6
SLD-Сплошная
 62
     7
370
    25
100
AcDbLine
 10
147.2402384823
 20
189.1010751653
 30
0.0
 11
149.1774996396
 21
189.1010751653
 31
0.0
  0
SPLINE
  5
9B
330
1F
100
AcDbEntity
  8
0
  6
SLD-Сплошная
 62
     7
370
    25
100
AcDbSpline
210
0.0
220
0.0
230
1.0
 70
     8
 71
     3
 72
     9
 73
     5
 74
     0
 42
0.00000001
 43
0.00000001
 40
0.0
 40
0.0
 40
0.0
 40
0.0
 40
0.9232107758976952
 40
1.0
 40
1.0
 40
1.0
 40
1.0
 10
175.5538088045293
 20
198.6843281972523
 30
0.0
 10
175.4619791427797
 20
198.8715309886089
 30
0.0
 10
175.3625114327539
 20
199.0743046089391
 30
0.0
 10
175.1906934121006
 20
199.2113092418515
 30
0.0
 10
175.1774996396078
 20
199.2218297213113
 30
0.0
  0
LINE
  5
9C
330
1F
100
AcDbEntity
  8
0
  6
SLD-Сплошная
 62
     7
370
    25
100
AcDbLine
 10
229.17749964
 20
92.9444955916
 30
0.0
 11
229.17749964
 21
199.9444955916
 31
0.0
  0
LINE
  5
9D
330
1F
100
AcDbEntity
  8
0
  6
SLD-Сплошная
 62
     7
370
    25
100
AcDbLine
 10
238.67749964
 20
199.9444955916
 30
0.0
 11
238.67749964
 21
92.9444955916
 31
0.0
  0
LINE
  5
9E
330
1F
100
AcDbEntity
  8
0
  6
SLD-Сплошная
 62
     7
370
    25
100
AcDbLine
 10
238.67749964
 20
87.9444955916
 30
0.0
 11
229.17749964
 21
87.9444955916
 31
0.0
  0
LINE
  5
9F
330
1F
100
AcDbEntity
  8
0
  6
SLD-Сплошная
 62
     7
370
    25
100
AcDbLine
 10
229.17749964
 20
87.9444955916
 30
0.0
 11
229.17749964
 21
92.9444955916
 31
0.0
  0
LINE
  5
A0
330
1F
100
AcDbEntity
  8
0
  6
SLD-Сплошная
 62
     7
370
    25
100
AcDbLine
 10
238.67749964
 20
92.9444955916
 30
0.0
 11
238.67749964
 21
87.9444955916
 31
0.0
  0
LINE
  5
A1
330
1F
100
AcDbEntity
  8
0
  6
SLD-Сплошная
 62
     7
370
    25
100
AcDbLine
 10
229.17749964
 20
204.9444955916
 30
0.0
 11
238.67749964
 21
204.9444955916
 31
0.0
  0
LINE
  5
A2
330
1F
100
AcDbEntity
  8
0
  6
SLD-Сплошная
 62
     7
370
    25
100
AcDbLine
 10
229.17749964
 20
199.9444955916
 30
0.0
 11
229.17749964
 21
204.9444955916
 31
0.0
  0
LINE
  5
A3
330
1F
100
AcDbEntity
  8
0
  6
SLD-Сплошная
 62
     7
370
    25
100
AcDbLine
 10
238.67749964
 20
204.9444955916
 30
0.0
 11
238.67749964
 21
199.9444955916
 31
0.0
  0
LINE
  5
A4
330
1F
100
AcDbEntity
  8
0
  6
SLD-Сплошная
 62
     7
370
    25
100
AcDbLine
 10
251.17749964
 20
146.4444955916
 30
0.0
 11
251.17749964
 21
96.3444955916
 31
0.0
  0
LINE
  5
A5
330
1F
100
AcDbEntity
  8
0
  6
SLD-Сплошная
 62
     7
370
    25
100
AcDbLine
 10
251.17749964
 20
196.5444955916
 30
0.0
 11
251.17749964
 21
146.4444955916
 31
0.0
  0
LINE
  5
A6
330
1F
100
AcDbEntity
  8
0
  6
SLD-Сплошная
 62
     7
370
    25
100
AcDbLine
 10
192.8441663066
 20
128.187215446
 30
0.0
 11
192.8441663066
 21
164.7017757373
 31
0.0
  0
LINE
  5
A7
330
1F
100
AcDbEntity
  8
0
  6
SLD-Сплошная
 62
     7
370
    25
100
AcDbLine
 10
192.8441663066
 20
128.187215446
 30
0.0
 11
215.5108329733
 21
128.187215446
 31
0.0
  0
LINE
  5
A8
330
1F
100
AcDbEntity
  8
0
  6
SLD-Сплошная
 62
     7
370
    25
100
AcDbLine
 10
215.5108329733
 20
128.187215446
 30
0.0
 11
215.5108329733
 21
164.7017757373
 31
0.0
  0
LINE
  5
A9
330
1F
100
AcDbEntity
  8
0
  6
SLD-Сплошная
 62
     7
370
    25
100
AcDbLine
 10
215.5108329733
 20
164.7017757373
 30
0.0
 11
192.8441663066
 21
164.7017757373
 31
0.0
  0
LINE
  5
AA
330
1F
100
AcDbEntity
  8
0
  6
SLD-Сплошная
 62
     7
370
    25
100
AcDbLine
 10
227.67749964
 20
182.2320632654
 30
0.0
 11
182.67749964
 21
182.2320632654
 31
0.0
  0
LINE
  5
AB
330
1F
100
AcDbEntity
  8
0
  6
SLD-Сплошная
 62
     7
370
    25
100
AcDbLine
 10
229.17749964
 20
108.3667928889
 30
0.0
 11
175.1774996396
 21
108.3667928889
 31
0.0
  0
LINE
  5
AC
330
1F
100
AcDbEntity
  8
0
  6
SLD-Сплошная
 62
     7
370
    25
100
AcDbLine
 10
205.779036515
 20
147.5493914395
 30
0.0
 11
202.575962765
 21
147.5493914395
 31
0.0
  0
LINE
  5
AD
330
1F
100
AcDbEntity
  8
0
  6
SLD-Сплошная
 62
     7
370
    25
100
AcDbLine
 10
205.779036515
 20
140.0140653176
 30
0.0
 11
205.779036515
 21
147.5493914395
 31
0.0
  0
LINE
  5
AE
330
1F
100
AcDbEntity
  8
0
  6
SLD-Сплошная
 62
     7
370
    25
100
AcDbLine
 10
206.8467406915
 20
140.0140653176
 30
0.0
 11
205.779036515
 21
140.0140653176
 31
0.0
  0
LINE
  5
AF
330
1F
100
AcDbEntity
  8
0
  6
SLD-Сплошная
 62
     7
370
    25
100
AcDbLine
 10
206.8467406915
 20
140.0140653176
 30
0.0
 11
206.8467406915
 21
147.5493914395
 31
0.0
  0
LINE
  5
B0
330
1F
100
AcDbEntity
  8
0
  6
SLD-Сплошная
 62
     7
370
    25
100
AcDbLine
 10
210.0498144415
 20
147.5493914395
 30
0.0
 11
206.8467406915
 21
147.5493914395
 31
0.0
  0
LINE
  5
B1
330
1F
100
AcDbEntity
  8
0
  6
SLD-Сплошная
 62
     7
370
    25
100
AcDbLine
 10
210.0498144415
 20
136.3644726868
 30
0.0
 11
210.0498144415
 21
147.5493914395
 31
0.0
  0
LINE
  5
B2
330
1F
100
AcDbEntity
  8
0
  6
SLD-Сплошная
 62
     7
370
    25
100
AcDbLine
 10
202.575962765
 20
136.3644726868
 30
0.0
 11
210.0498144415
 21
136.3644726868
 31
0.0
  0
LINE
  5
B3
330
1F
100
AcDbEntity
  8
0
  6
SLD-Сплошная
 62
     7
370
    25
100
AcDbLine
 10
202.575962765
 20
136.3644726868
 30
0.0
 11
202.575962765
 21
147.5493914395
 31
0.0
  0
LINE
  5
B4
330
1F
100
AcDbEntity
  8
0
  6
SLD-Сплошная
 62
     7
370
    25
100
AcDbLine
 10
201.5082585885
 20
147.5493914395
 30
0.0
 11
198.3051848385
 21
147.5493914395
 31
0.0
  0
LINE
  5
B5
330
1F
100
AcDbEntity
  8
0
  6
SLD-Сплошная
 62
     7
370
    25
100
AcDbLine
 10
198.3051848385
 20
136.3644726868
 30
0.0
 11
201.5082585885
 21
136.3644726868
 31
0.0
  0
LINE
  5
B6
330
1F
100
AcDbEntity
  8
0
  6
SLD-Сплошная
 62
     7
370
    25
100
AcDbLine
 10
198.3051848385
 20
136.3644726868
 30
0.0
 11
198.3051848385
 21
147.5493914395
 31
0.0
  0
LINE
  5
B7
330
1F
100
AcDbEntity
  8
0
  6
SLD-Сплошная
 62
     7
370
    25
100
AcDbLine
 10
201.5082585885
 20
136.3644726868
 30
0.0
 11
201.5082585885
 21
147.5493914395
 31
0.0
  0
LINE
  5
B8
330
1F
100
AcDbEntity
  8
0
  6
SLD-Сплошная
 62
     7
370
    25
100
AcDbLine
 10
204.0275552822
 20
152.3311864107
 30
0.0
 11
198.3051848385
 21
152.3311864107
 31
0.0
  0
LINE
  5
B9
330
1F
100
AcDbEntity
  8
0
  6
SLD-Сплошная
 62
     7
370
    25
100
AcDbLine
 10
204.0275552822
 20
152.3311864107
 30
0.0
 11
204.0275552822
 21
152.4552025738
 31
0.0
  0
SPLINE
  5
BA
330
1F
100
AcDbEntity
  8
0
  6
SLD-Сплошная
 62
     7
370
    25
100
AcDbSpline
210
0.0
220
0.0
230
1.0
 70
     8
 71
     3
 72
     8
 73
     4
 74
     0
 42
0.00000001
 43
0.00000001
 40
0.0
 40
0.0
 40
0.0
 40
0.0
 40
1.0
 40
1.0
 40
1.0
 40
1.0
 10
198.3051848384569
 20
157.1291324835856
 30
0.0
 10
200.2129232565067
 20
155.5941347462179
 30
0.0
 10
202.1200476091849
 20
154.0324691112976
 30
0.0
 10
204.0275552821597
 20
152.45520257381
 30
0.0
  0
LINE
  5
BB
330
1F
100
AcDbEntity
  8
0
  6
SLD-Сплошная
 62
     7
370
    25
100
AcDbLine
 10
198.3051848385
 20
157.1291324836
 30
0.0
 11
198.3051848385
 21
161.074979884
 31
0.0
  0
SPLINE
  5
BC
330
1F
100
AcDbEntity
  8
0
  6
SLD-Сплошная
 62
     7
370
    25
100
AcDbSpline
210
0.0
220
0.0
230
1.0
 70
     8
 71
     3
 72
     8
 73
     4
 74
     0
 42
0.00000001
 43
0.00000001
 40
0.0
 40
0.0
 40
0.0
 40
0.0
 40
1.0
 40
1.0
 40
1.0
 40
1.0
 10
204.1774996399592
 20
156.4177337157636
 30
0.0
 10
202.22007442201
 20
158.0010066081061
 30
0.0
 10
200.2630011087494
 20
159.5572924629751
 30
0.0
 10
198.3051848384569
 20
161.0749798839985
 30
0.0
  0
SPLINE
  5
BD
330
1F
100
AcDbEntity
  8
0
  6
SLD-Сплошная
 62
     7
370
    25
100
AcDbSpline
210
0.0
220
0.0
230
1.0
 70
     8
 71
     3
 72
     8
 73
     4
 74
     0
 42
0.00000001
 43
0.00000001
 40
0.0
 40
0.0
 40
0.0
 40
0.0
 40
1.0
 40
1.0
 40
1.0
 40
1.0
 10
210.049814441457
 20
161.0749798839985
 30
0.0
 10
208.0919980807883
 20
159.5572923929149
 30
0.0
 10
206.1349249348594
 20
158.0010066703495
 30
0.0
 10
204.1774996399592
 20
156.4177337157636
 30
0.0
  0
LINE
  5
BE
330
1F
100
AcDbEntity
  8
0
  6
SLD-Сплошная
 62
     7
370
    25
100
AcDbLine
 10
210.0498144415
 20
157.1291324836
 30
0.0
 11
210.0498144415
 21
161.074979884
 31
0.0
  0
SPLINE
  5
BF
330
1F
100
AcDbEntity
  8
0
  6
SLD-Сплошная
 62
     7
370
    25
100
AcDbSpline
210
0.0
220
0.0
230
1.0
 70
     8
 71
     3
 72
     8
 73
     4
 74
     0
 42
0.00000001
 43
0.00000001
 40
0.0
 40
0.0
 40
0.0
 40
0.0
 40
1.0
 40
1.0
 40
1.0
 40
1.0
 10
204.3274439977524
 20
152.4552025738117
 30
0.0
 10
206.234951628638
 20
154.0324690764958
 30
0.0
 10
208.1420760753119
 20
155.5941347879824
 30
0.0
 10
210.049814441457
 20
157.1291324835856
 30
0.0
  0
LINE
  5
C0
330
1F
100
AcDbEntity
  8
0
  6
SLD-Сплошная
 62
     7
370
    25
100
AcDbLine
 10
204.3274439978
 20
152.3311864107
 30
0.0
 11
204.3274439978
 21
152.4552025738
 31
0.0
  0
LINE
  5
C1
330
1F
100
AcDbEntity
  8
0
  6
SLD-Сплошная
 62
     7
370
    25
100
AcDbLine
 10
210.0498144415
 20
152.3311864107
 30
0.0
 11
204.3274439978
 21
152.3311864107
 31
0.0
  0
LINE
  5
C2
330
1F
100
AcDbEntity
  8
0
  6
SLD-Сплошная
 62
     7
370
    25
100
AcDbLine
 10
210.0498144415
 20
148.6161096085
 30
0.0
 11
210.0498144415
 21
152.3311864107
 31
0.0
  0
LINE
  5
C3
330
1F
100
AcDbEntity
  8
0
  6
SLD-Сплошная
 62
     7
370
    25
100
AcDbLine
 10
198.3051848385
 20
148.6161096085
 30
0.0
 11
198.3051848385
 21
152.3311864107
 31
0.0
  0
LINE
  5
C4
330
1F
100
AcDbEntity
  8
0
  6
SLD-Сплошная
 62
     7
370
    25
100
AcDbLine
 10
198.3051848385
 20
148.6161096085
 30
0.0
 11
210.0498144415
 21
148.6161096085
 31
0.0
  0
LINE
  5
C5
330
1F
100
AcDbEntity
  8
0
  6
SLD-Сплошная
 62
     7
370
    25
100
AcDbLine
 10
251.67749964
 20
108.9444955916
 30
0.0
 11
251.67749964
 21
122.3399602284
 31
0.0
  0
LINE
  5
C6
330
1F
100
AcDbEntity
  8
0
  6
SLD-Сплошная
 62
     7
370
    25
100
AcDbLine
 10
251.67749964
 20
122.3399602284
 30
0.0
 11
251.67749964
 21
146.4444955916
 31
0.0
  0
LINE
  5
C7
330
1F
100
AcDbEntity
  8
0
  6
SLD-Сплошная
 62
     7
370
    25
100
AcDbLine
 10
251.67749964
 20
181.6829688711
 30
0.0
 11
251.67749964
 21
183.9444955916
 31
0.0
  0
LINE
  5
C8
330
1F
100
AcDbEntity
  8
0
  6
SLD-Сплошная
 62
     7
370
    25
100
AcDbLine
 10
251.67749964
 20
146.4444955916
 30
0.0
 11
251.67749964
 21
181.6829688711
 31
0.0
  0
LINE
  5
C9
330
1F
100
AcDbEntity
  8
0
  6
SLD-Сплошная
 62
     7
370
    25
100
AcDbLine
 10
275.62749964
 20
109.3879509605
 30
0.0
 11
275.62749964
 21
146.4444955916
 31
0.0
  0
LINE
  5
CA
330
1F
100
AcDbEntity
  8
0
  6
SLD-Сплошная
 62
     7
370
    25
100
AcDbLine
 10
275.62749964
 20
109.3879509605
 30
0.0
 11
269.67749964
 21
109.3879509605
 31
0.0
  0
LINE
  5
CB
330
1F
100
AcDbEntity
  8
0
  6
SLD-Сплошная
 62
     7
370
    25
100
AcDbLine
 10
269.67749964
 20
122.3399602284
 30
0.0
 11
269.67749964
 21
146.4444955916
 31
0.0
  0
LINE
  5
CC
330
1F
100
AcDbEntity
  8
0
  6
SLD-Сплошная
 62
     7
370
    25
100
AcDbLine
 10
269.67749964
 20
109.3879509605
 30
0.0
 11
269.67749964
 21
122.3399602284
 31
0.0
  0
LINE
  5
CD
330
1F
100
AcDbEntity
  8
0
  6
SLD-Сплошная
 62
     7
370
    25
100
AcDbLine
 10
275.62749964
 20
146.4444955916
 30
0.0
 11
275.62749964
 21
183.9444955916
 31
0.0
  0
LINE
  5
CE
330
1F
100
AcDbEntity
  8
0
  6
SLD-Сплошная
 62
     7
370
    25
100
AcDbLine
 10
269.67749964
 20
181.6829688711
 30
0.0
 11
269.67749964
 21
183.9444955916
 31
0.0
  0
LINE
  5
CF
330
1F
100
AcDbEntity
  8
0
  6
SLD-Сплошная
 62
     7
370
    25
100
AcDbLine
 10
269.67749964
 20
146.4444955916
 30
0.0
 11
269.67749964
 21
181.6829688711
 31
0.0
  0
LINE
  5
D0
330
1F
100
AcDbEntity
  8
0
  6
SLD-Сплошная
 62
     7
370
    25
100
AcDbLine
 10
202.575962765
 20
131.8140112993
 30
0.0
 11
202.575962765
 21
135.3373880597
 31
0.0
  0
LINE
  5
D1
330
1F
100
AcDbEntity
  8
0
  6
SLD-Сплошная
 62
     7
370
    25
100
AcDbLine
 10
210.0498144415
 20
135.3373880597
 30
0.0
 11
202.575962765
 21
135.3373880597
 31
0.0
  0
LINE
  5
D2
330
1F
100
AcDbEntity
  8
0
  6
SLD-Сплошная
 62
     7
370
    25
100
AcDbLine
 10
210.0498144415
 20
131.8140112993
 30
0.0
 11
210.0498144415
 21
135.3373880597
 31
0.0
  0
LINE
  5
D3
330
1F
100
AcDbEntity
  8
0
  6
SLD-Сплошная
 62
     7
370
    25
100
AcDbLine
 10
202.575962765
 20
131.8140112993
 30
0.0
 11
210.0498144415
 21
131.8140112993
 31
0.0
  0
LINE
  5
D4
330
1F
100
AcDbEntity
  8
0
  6
SLD-Сплошная
 62
     7
370
    25
100
AcDbLine
 10
198.3051848385
 20
131.8140112993
 30
0.0
 11
201.5082585885
 21
131.8140112993
 31
0.0
  0
LINE
  5
D5
330
1F
100
AcDbEntity
  8
0
  6
SLD-Сплошная
 62
     7
370
    25
100
AcDbLine
 10
198.3051848385
 20
131.8140112993
 30
0.0
 11
198.3051848385
 21
135.3373880597
 31
0.0
  0
LINE
  5
D6
330
1F
100
AcDbEntity
  8
0
  6
SLD-Сплошная
 62
     7
370
    25
100
AcDbLine
 10
201.5082585885
 20
131.8140112993
 30
0.0
 11
201.5082585885
 21
135.3373880597
 31
0.0
  0
LINE
  5
D7
330
1F
100
AcDbEntity
  8
0
  6
SLD-Сплошная
 62
     7
370
    25
100
AcDbLine
 10
201.5082585885
 20
135.3373880597
 30
0.0
 11
198.3051848385
 21
135.3373880597
 31
0.0
  0
LINE
  5
D8
330
1F
100
AcDbEntity
  8
0
  6
SLD-Сплошная
 62
     7
370
    25
100
AcDbLine
 10
269.67749964
 20
157.4607962538
 30
0.0
 11
251.67749964
 21
157.4607962538
 31
0.0
  0
LINE
  5
D9
330
1F
100
AcDbEntity
  8
0
  6
SLD-Сплошная
 62
     7
370
    25
100
AcDbLine
 10
269.67749964
 20
168.0679431648
 30
0.0
 11
251.67749964
 21
168.0679431648
 31
0.0
  0
LINE
  5
DA
330
1F
100
AcDbEntity
  8
0
  6
SLD-Сплошная
 62
     7
370
    25
100
AcDbLine
 10
182.67749964
 20
196.7320632654
 30
0.0
 11
182.67749964
 21
182.2320632654
 31
0.0
  0
ARC
  5
DB
330
1F
100
AcDbEntity
  8
0
  6
SLD-Сплошная
 62
     7
370
    25
100
AcDbCircle
 10
189.17749964
 20
196.7320632654
 30
0.0
 40
6.500000000000114
100
AcDbArc
 50
90.0
 51
180.0
  0
LINE
  5
DC
330
1F
100
AcDbEntity
  8
0
  6
SLD-Сплошная
 62
     7
370
    25
100
AcDbLine
 10
190.629529901
 20
203.2320632654
 30
0.0
 11
189.17749964
 21
203.2320632654
 31
0.0
  0
ARC
  5
DD
330
1F
100
AcDbEntity
  8
0
  6
SLD-Сплошная
 62
     7
370
    25
100
AcDbCircle
 10
190.629529901
 20
191.2320632654
 30
0.0
 40
12.00000000000006
100
AcDbArc
 50
58.0
 51
90.0
  0
LINE
  5
DE
330
1F
100
AcDbEntity
  8
0
  6
SLD-Сплошная
 62
     7
370
    25
100
AcDbLine
 10
189.67749964
 20
192.8444955916
 30
0.0
 11
193.47749964
 21
192.8444955916
 31
0.0
  0
ARC
  5
DF
330
1F
100
AcDbEntity
  8
0
  6
SLD-Сплошная
 62
     7
370
    25
100
AcDbCircle
 10
193.47749964
 20
194.9444955916
 30
0.0
 40
2.099999999999994
100
AcDbArc
 50
270.0
 51
90.0
  0
LINE
  5
E0
330
1F
100
AcDbEntity
  8
0
  6
SLD-Сплошная
 62
     7
370
    25
100
AcDbLine
 10
193.47749964
 20
197.0444955916
 30
0.0
 11
189.67749964
 21
197.0444955916
 31
0.0
  0
ARC
  5
E1
330
1F
100
AcDbEntity
  8
0
  6
SLD-Сплошная
 62
     7
370
    25
100
AcDbCircle
 10
189.67749964
 20
194.9444955916
 30
0.0
 40
2.099999999999994
100
AcDbArc
 50
90.0
 51
270.0
  0
LINE
  5
E2
330
1F
100
AcDbEntity
  8
0
  6
SLD-Сплошная
 62
     7
370
    25
100
AcDbLine
 10
227.67749964
 20
182.2320632654
 30
0.0
 11
196.9885610718
 21
201.4086404192
 31
0.0
  0
LINE
  5
E3
330
1F
100
AcDbEntity
  8
0
  6
SLD-Сплошная
 62
     7
370
    25
100
AcDbLine
 10
294.17749964
 20
128.1944955916
 30
0.0
 11
294.17749964
 21
119.5944955916
 31
0.0
  0
LINE
  5
E4
330
1F
100
AcDbEntity
  8
0
  6
SLD-Сплошная
 62
     7
370
    25
100
AcDbLine
 10
275.62749964
 20
135.0443131075
 30
0.0
 11
294.17749964
 21
135.0443131075
 31
0.0
  0
LINE
  5
E5
330
1F
100
AcDbEntity
  8
0
  6
SLD-Сплошная
 62
     7
370
    25
100
AcDbLine
 10
294.17749964
 20
135.0443131075
 30
0.0
 11
294.17749964
 21
128.1944955916
 31
0.0
  0
LINE
  5
E6
330
1F
100
AcDbEntity
  8
0
  6
SLD-Сплошная
 62
     7
370
    25
100
AcDbLine
 10
269.67749964
 20
169.3299567338
 30
0.0
 11
251.67749964
 21
169.3299567338
 31
0.0
  0
LINE
  5
E7
330
1F
100
AcDbEntity
  8
0
  6
SLD-Сплошная
 62
     7
370
    25
100
AcDbLine
 10
295.67749964
 20
127.3944955916
 30
0.0
 11
295.67749964
 21
121.6944955916
 31
0.0
  0
LINE
  5
E8
330
1F
100
AcDbEntity
  8
0
  6
SLD-Сплошная
 62
     7
370
    25
100
AcDbLine
 10
295.67749964
 20
133.0944955916
 30
0.0
 11
295.67749964
 21
127.3944955916
 31
0.0
  0
LINE
  5
E9
330
1F
100
AcDbEntity
  8
0
  6
SLD-Сплошная
 62
     7
370
    25
100
AcDbLine
 10
275.62749964
 20
146.5944955916
 30
0.0
 11
294.17749964
 21
146.5944955916
 31
0.0
  0
LINE
  5
EA
330
1F
100
AcDbEntity
  8
0
  6
SLD-Сплошная
 62
     7
370
    25
100
AcDbLine
 10
294.17749964
 20
146.5944955916
 30
0.0
 11
294.17749964
 21
135.0443131075
 31
0.0
  0
LINE
  5
EB
330
1F
100
AcDbEntity
  8
0
  6
SLD-Сплошная
 62
     7
370
    25
100
AcDbLine
 10
294.37749964
 20
143.5820351681
 30
0.0
 11
294.37749964
 21
140.0720351685
 31
0.0
  0
LINE
  5
EC
330
1F
100
AcDbEntity
  8
0
  6
SLD-Сплошная
 62
     7
370
    25
100
AcDbLine
 10
294.37749964
 20
140.0720351685
 30
0.0
 11
294.37749964
 21
136.5620351688
 31
0.0
  0
LINE
  5
ED
330
1F
100
AcDbEntity
  8
0
  6
SLD-Сплошная
 62
     7
370
    25
100
AcDbLine
 10
241.67749964
 20
92.9444955916
 30
0.0
 11
241.67749964
 21
199.9444955916
 31
0.0
  0
LINE
  5
EE
330
1F
100
AcDbEntity
  8
0
  6
SLD-Сплошная
 62
     7
370
    25
100
AcDbLine
 10
238.67749964
 20
202.9444955916
 30
0.0
 11
241.67749964
 21
202.9444955916
 31
0.0
  0
LINE
  5
EF
330
1F
100
AcDbEntity
  8
0
  6
SLD-Сплошная
 62
     7
370
    25
100
AcDbLine
 10
241.67749964
 20
199.9444955916
 30
0.0
 11
241.67749964
 21
202.9444955916
 31
0.0
  0
LINE
  5
F0
330
1F
100
AcDbEntity
  8
0
  6
SLD-Сплошная
 62
     7
370
    25
100
AcDbLine
 10
238.67749964
 20
89.9444955916
 30
0.0
 11
241.67749964
 21
89.9444955916
 31
0.0
  0
LINE
  5
F1
330
1F
100
AcDbEntity
  8
0
  6
SLD-Сплошная
 62
     7
370
    25
100
AcDbLine
 10
241.67749964
 20
89.9444955916
 30
0.0
 11
241.67749964
 21
92.9444955916
 31
0.0
  0
LINE
  5
F2
330
1F
100
AcDbEntity
  8
0
  6
SLD-Сплошная
 62
     7
370
    25
100
AcDbLine
 10
170.2774996396
 20
142.8924284304
 30
0.0
 11
170.2774996396
 21
142.8908041325
 31
0.0
  0
LINE
  5
F3
330
1F
100
AcDbEntity
  8
0
  6
SLD-Сплошная
 62
     7
370
    25
100
AcDbLine
 10
156.0774996396
 20
142.8924284304
 30
0.0
 11
156.0774996396
 21
142.8908041325
 31
0.0
  0
ARC
  5
F4
330
1F
100
AcDbEntity
  8
0
  6
SLD-Сплошная
 62
     7
370
    25
100
AcDbCircle
 10
156.0774342546
 20
146.7908709238
 30
0.0
 40
3.8999346155353
100
AcDbArc
 50
180.0009606343
 51
270.0009606021
  0
LINE
  5
F5
330
1F
100
AcDbEntity
  8
0
  6
SLD-Сплошная
 62
     7
370
    25
100
AcDbLine
 10
152.1774996396
 20
146.7908055366
 30
0.0
 11
152.1774996396
 21
146.9907988304
 31
0.0
  0
ARC
  5
F6
330
1F
100
AcDbEntity
  8
0
  6
SLD-Сплошная
 62
     7
370
    25
100
AcDbCircle
 10
156.0774342546
 20
146.9907334432
 30
0.0
 40
3.899934615533652
100
AcDbArc
 50
89.9990393979
 51
179.999039984
  0
SPLINE
  5
F7
330
1F
100
AcDbEntity
  8
0
  6
SLD-Сплошная
 62
     7
370
    25
100
AcDbSpline
210
0.0
220
0.0
230
1.0
 70
     8
 71
     3
 72
    28
 73
    24
 74
     0
 42
0.00000001
 43
0.00000001
 40
0.0
 40
0.0
 40
0.0
 40
0.0
 40
0.0179580482560222
 40
0.0358203863792286
 40
0.0536296572867306
 40
0.0714288853053262
 40
0.0892611674478524
 40
0.1071693620824259
 40
0.1251957861250339
 40
0.1876249835960296
 40
0.2502765176822163
 40
0.31262660409113
 40
0.3753469326266146
 40
0.5000176023205585
 40
0.624540258743781
 40
0.687152501544167
 40
0.749405219276096
 40
0.8119995898561507
 40
0.8743867880691896
 40
0.9059555558268498
 40
0.937259081692313
 40
0.9685295809053082
 40
1.0
 40
1.0
 40
1.0
 40
1.0
 10
171.1774996396078
 20
150.5434854858808
 30
0.0
 10
171.2340722200128
 20
150.5279438359354
 30
0.0
 10
171.3469158687038
 20
150.4969433676174
 30
0.0
 10
171.5127504412679
 20
150.4402334074084
 30
0.0
 10
171.6752862901169
 20
150.3762325477241
 30
0.0
 10
171.8343294863878
 20
150.304204490017
 30
0.0
 10
171.9899262716529
 20
150.2243486585276
 30
0.0
 10
172.1420686963756
 20
150.1365973425253
 30
0.0
 10
172.4122546790355
 20
149.9628879571048
 30
0.0
 10
172.7780715707424
 20
149.6682557656868
 30
0.0
 10
173.1838427806718
 20
149.2066691185931
 30
0.0
 10
173.5098466283413
 20
148.6843711405298
 30
0.0
 10
173.8224207826099
 20
147.9277326722614
 30
0.0
 10
173.9807799520924
 20
146.9035439981282
 30
0.0
 10
173.822638740198
 20
145.8795481617936
 30
0.0
 10
173.5108809061395
 20
145.1234992118469
 30
0.0
 10
173.1857535410524
 20
144.601380681395
 30
0.0
 10
172.7808429035421
 20
144.1394965608996
 30
0.0
 10
172.3810957134565
 20
143.8165860284765
 30
0.0
 10
172.0331579207648
 20
143.600642743284
 30
0.0
 10
171.758487837105
 20
143.4617394280191
 30
0.0
 10
171.4735460477972
 20
143.3454867856756
 30
0.0
 10
171.2763911827414
 20
143.289052223133
 30
0.0
 10
171.1774996395951
 20
143.2607450293183
 30
0.0
  0
ARC
  5
F8
330
1F
100
AcDbEntity
  8
0
  6
SLD-Сплошная
 62
     7
370
    25
100
AcDbCircle
 10
170.2774999635
 20
146.7910607865
 30
0.0
 40
3.900124477621475
100
AcDbArc
 50
269.9999952419
 51
283.3419252002
  0
ARC
  5
F9
330
1F
100
AcDbEntity
  8
0
  6
SLD-Сплошная
 62
     7
370
    25
100
AcDbCircle
 10
170.2774999635
 20
146.9905435805
 30
0.0
 40
3.900124477621475
100
AcDbArc
 50
76.6580747998
 51
90.0000047581
  0
SPLINE
  5
FA
330
1F
100
AcDbEntity
  8
0
  6
SLD-Сплошная
 62
     7
370
    25
100
AcDbSpline
210
0.0
220
0.0
230
1.0
 70
     8
 71
     3
 72
    12
 73
     8
 74
     0
 42
0.00000001
 43
0.00000001
 40
0.0
 40
0.0
 40
0.0
 40
0.0
 40
0.1493537344742784
 40
0.3618267070327008
 40
0.5741636231548765
 40
0.786659291581373
 40
1.0
 40
1.0
 40
1.0
 40
1.0
 10
173.7853592727402
 20
195.5793734954714
 30
0.0
 10
173.8449596563805
 20
195.4442783379673
 30
0.0
 10
173.9893484835253
 20
195.1169946838433
 30
0.0
 10
173.7844167637537
 20
194.5554508293422
 30
0.0
 10
173.2289920836699
 20
193.9837735033437
 30
0.0
 10
172.3356142138917
 20
193.5068991405028
 30
0.0
 10
171.5640482024373
 20
193.3501381522339
 30
0.0
 10
171.1774996395951
 20
193.2716021179535
 30
0.0
  0
LINE
  5
FB
330
1F
100
AcDbEntity
  8
0
  6
SLD-Сплошная
 62
     7
370
    25
100
AcDbLine
 10
171.1774996396
 20
202.3539199526
 30
0.0
 11
171.1774996396
 21
197.7591839611
 31
0.0
  0
SPLINE
  5
FC
330
1F
100
AcDbEntity
  8
0
  6
SLD-Сплошная
 62
     7
370
    25
100
AcDbSpline
210
0.0
220
0.0
230
1.0
 70
     8
 71
     3
 72
    11
 73
     7
 74
     0
 42
0.00000001
 43
0.00000001
 40
0.0
 40
0.0
 40
0.0
 40
0.0
 40
0.17104814709074
 40
0.4468620709891964
 40
0.7228822053610559
 40
1.0
 40
1.0
 40
1.0
 40
1.0
 10
173.8461178838001
 20
202.4414358541191
 30
0.0
 10
173.8201628643472
 20
202.4416113055231
 30
0.0
 10
173.7523555601316
 20
202.4420696710714
 30
0.0
 10
173.216803862947
 20
202.4157201295459
 30
0.0
 10
172.3386763628074
 20
202.3781948535699
 30
0.0
 10
171.5650702682059
 20
202.3620222839716
 30
0.0
 10
171.1774996395951
 20
202.3539199525535
 30
0.0
  0
LINE
  5
FD
330
1F
100
AcDbEntity
  8
0
  6
SLD-Сплошная
 62
     7
370
    25
100
AcDbLine
 10
175.1774996396
 20
202.4444955918
 30
0.0
 11
175.1774996396
 21
99.6543256676
 31
0.0
  0
SPLINE
  5
FE
330
1F
100
AcDbEntity
  8
0
  6
SLD-Сплошная
 62
     7
370
    25
100
AcDbSpline
210
0.0
220
0.0
230
1.0
 70
     8
 71
     3
 72
    14
 73
    10
 74
     0
 42
0.00000001
 43
0.00000001
 40
0.0
 40
0.0
 40
0.0
 40
0.0
 40
0.1449416422339626
 40
0.2885783617618111
 40
0.4312706787406668
 40
0.5733863007993316
 40
0.7152974184569345
 40
0.8573778293544683
 40
1.0
 40
1.0
 40
1.0
 40
1.0
 10
174.0160712333333
 20
99.76852966296646
 30
0.0
 10
174.0733735436968
 20
99.7680561399496
 30
0.0
 10
174.1874622665441
 20
99.76711335708644
 30
0.0
 10
174.3575420877272
 20
99.7598032452733
 30
0.0
 10
174.5256491659785
 20
99.7481590831481
 30
0.0
 10
174.6917991412213
 20
99.73180451238154
 30
0.0
 10
174.8559165549381
 20
99.7107549649412
 30
0.0
 10
175.0182670872237
 20
99.68538918770558
 30
0.0
 10
175.1243548307894
 20
99.66469330165398
 30
0.0
 10
175.1774996396079
 20
99.65432566755628
 30
0.0
  0
LINE
  5
FF
330
1F
100
AcDbEntity
  8
0
  6
SLD-Сплошная
 62
     7
370
    25
100
AcDbLine
 10
174.0160712333
 20
99.768529663
 30
0.0
 11
171.1774996396
 21
99.768529663
 31
0.0
  0
LINE
  5
100
330
1F
100
AcDbEntity
  8
0
  6
SLD-Сплошная
 62
     7
370
    25
100
AcDbLine
 10
171.1774996396
 20
115.732574545
 30
0.0
 11
171.1774996396
 21
99.768529663
 31
0.0
  0
SPLINE
  5
101
330
1F
100
AcDbEntity
  8
0
  6
SLD-Сплошная
 62
     7
370
    25
100
AcDbSpline
210
0.0
220
0.0
230
1.0
 70
     8
 71
     3
 72
    14
 73
    10
 74
     0
 42
0.00000001
 43
0.00000001
 40
0.0
 40
0.0
 40
0.0
 40
0.0
 40
0.158836591237618
 40
0.3177234034736366
 40
0.4766258843044548
 40
0.6355595461045083
 40
0.7943045164411353
 40
0.9529478349079816
 40
1.0
 40
1.0
 40
1.0
 40
1.0
 10
171.1774996396078
 20
122.0694333772606
 30
0.0
 10
171.5628864504389
 20
121.9409521779061
 30
0.0
 10
172.3337819238121
 20
121.683949155975
 30
0.0
 10
173.2252735280981
 20
120.8913528103909
 30
0.0
 10
173.7917036118002
 20
119.9168284067088
 30
0.0
 10
173.9836357586815
 20
118.8372592773208
 30
0.0
 10
173.7791547355565
 20
117.7924284605198
 30
0.0
 10
173.3958195928599
 20
117.0277226151184
 30
0.0
 10
173.0022858026
 20
116.7291148799246
 30
0.0
 10
172.9122662428692
 20
116.6608093429677
 30
0.0
  0
LINE
  5
102
330
1F
100
AcDbEntity
  8
0
  6
SLD-Сплошная
 62
     7
370
    25
100
AcDbLine
 10
171.1774996396
 20
143.2607450293
 30
0.0
 11
171.1774996396
 21
122.0694333773
 31
0.0
  0
LINE
  5
103
330
1F
100
AcDbEntity
  8
0
  6
SLD-Сплошная
 62
     7
370
    25
100
AcDbLine
 10
171.1774996396
 20
171.6419989058
 30
0.0
 11
171.1774996396
 21
150.5434854859
 31
0.0
  0
SPLINE
  5
104
330
1F
100
AcDbEntity
  8
0
  6
SLD-Сплошная
 62
     7
370
    25
100
AcDbSpline
210
0.0
220
0.0
230
1.0
 70
     8
 71
     3
 72
    14
 73
    10
 74
     0
 42
0.00000001
 43
0.00000001
 40
0.0
 40
0.0
 40
0.0
 40
0.0
 40
0.0278418475214029
 40
0.1898741960448218
 40
0.3519383397022618
 40
0.5138100752814565
 40
0.6755781567760506
 40
0.8374671831170614
 40
0.9999999999999999
 40
0.9999999999999999
 40
0.9999999999999999
 40
0.9999999999999999
 10
173.019559954493
 20
176.9149812927984
 30
0.0
 10
173.0712198001052
 20
176.875341204568
 30
0.0
 10
173.4235265802446
 20
176.6050060596706
 30
0.0
 10
173.7754509573695
 20
175.8795502656683
 30
0.0
 10
173.9845386286844
 20
174.8474758572251
 30
0.0
 10
173.7917545470843
 20
173.7775541748315
 30
0.0
 10
173.227034496224
 20
172.8126915724258
 30
0.0
 10
172.3361060350042
 20
172.0255277158972
 30
0.0
 10
171.5642123595495
 20
171.7700108604201
 30
0.0
 10
171.1774996395951
 20
171.6419989057716
 30
0.0
  0
LINE
  5
105
330
1F
100
AcDbEntity
  8
0
  6
SLD-Сплошная
 62
     7
370
    25
100
AcDbLine
 10
171.1774996396
 20
193.271602118
 30
0.0
 11
171.1774996396
 21
177.9192165626
 31
0.0
  0
SPLINE
  5
106
330
1F
100
AcDbEntity
  8
0
  6
SLD-Сплошная
 62
     7
370
    25
100
AcDbSpline
210
0.0
220
0.0
230
1.0
 70
     8
 71
     3
 72
    23
 73
    19
 74
     0
 42
0.00000001
 43
0.00000001
 40
0.0
 40
0.0
 40
0.0
 40
0.0
 40
0.0312562128309749
 40
0.0624404245036691
 40
0.0936280050332192
 40
0.1248943000676564
 40
0.1874857987095559
 40
0.2501013057507021
 40
0.312373421860533
 40
0.3746619795365129
 40
0.4997922163512943
 40
0.6242857511609594
 40
0.6868250879433598
 40
0.7493705402813349
 40
0.8118957391418551
 40
0.8744266369437808
 40
0.9372118833939511
 40
1.0
 40
1.0
 40
1.0
 40
1.0
 10
156.0774996396078
 20
142.892428430428
 30
0.0
 10
156.0137034337965
 20
142.8933231899829
 30
0.0
 10
155.8862579817796
 20
142.8951106479433
 30
0.0
 10
155.6956155900779
 20
142.9096396449664
 30
0.0
 10
155.5058704097982
 20
142.9328589808398
 30
0.0
 10
155.2543471318176
 20
142.9764619089678
 30
0.0
 10
154.943994980796
 20
143.0538840946448
 30
0.0
 10
154.5832437556613
 20
143.1829264471229
 30
0.0
 10
154.23729809492
 20
143.346150040607
 30
0.0
 10
153.7995964966242
 20
143.6080222322034
 30
0.0
 10
153.3038601821754
 20
144.0138201251496
 30
0.0
 10
152.8968510687133
 20
144.5091727523891
 30
0.0
 10
152.6341512546119
 20
144.9461664086525
 30
0.0
 10
152.4700138849113
 20
145.2926751279575
 30
0.0
 10
152.3402336750106
 20
145.6535250897919
 30
0.0
 10
152.2473111956163
 20
146.0259248444762
 30
0.0
 10
152.1883745407959
 20
146.4062243073002
 30
0.0
 10
152.1811246619059
 20
146.662609367367
 30
0.0
 10
152.1774996396078
 20
146.7908048274209
 30
0.0
  0
SPLINE
  5
107
330
1F
100
AcDbEntity
  8
0
  6
SLD-Сплошная
 62
     7
370
    25
100
AcDbSpline
210
0.0
220
0.0
230
1.0
 70
     8
 71
     3
 72
    12
 73
     8
 74
     0
 42
0.00000001
 43
0.00000001
 40
0.0
 40
0.0
 40
0.0
 40
0.0
 40
0.1999735861201587
 40
0.399526046391204
 40
0.5990920396762937
 40
0.7991061366414624
 40
1.0
 40
1.0
 40
1.0
 40
1.0
 10
171.1774996396078
 20
142.9975469433635
 30
0.0
 10
171.1184105286792
 20
142.9843834331189
 30
0.0
 10
171.0003567430163
 20
142.9580841337629
 30
0.0
 10
170.8212446417699
 20
142.9290920676663
 30
0.0
 10
170.6410771746511
 20
142.9080525910549
 30
0.0
 10
170.4596811470676
 20
142.8949544353189
 30
0.0
 10
170.3383155850334
 20
142.8932716629697
 30
0.0
 10
170.2774996396078
 20
142.892428430428
 30
0.0
  0
LINE
  5
108
330
1F
100
AcDbEntity
  8
0
  6
SLD-Сплошная
 62
     7
370
    25
100
AcDbLine
 10
156.0774996396
 20
123.1322925882
 30
0.0
 11
170.2774996396
 21
123.1322925882
 31
0.0
  0
SPLINE
  5
109
330
1F
100
AcDbEntity
  8
0
  6
SLD-Сплошная
 62
     7
370
    25
100
AcDbSpline
210
0.0
220
0.0
230
1.0
 70
     8
 71
     3
 72
    23
 73
    19
 74
     0
 42
0.00000001
 43
0.00000001
 40
0.0
 40
0.0
 40
0.0
 40
0.0
 40
0.0314940789378113
 40
0.0629124883448969
 40
0.0943322187687619
 40
0.1258302510700916
 40
0.1880679950217833
 40
0.2503161959787693
 40
0.3129100356443877
 40
0.3755139048867151
 40
0.5000365867416716
 40
0.62481187655615
 40
0.6873437621880456
 40
0.7498835559996615
 40
0.8121472634458157
 40
0.8744272386430855
 40
0.9372084380872638
 40
0.9999999999999999
 40
0.9999999999999999
 40
0.9999999999999999
 40
0.9999999999999999
 10
152.1774996396079
 20
119.6689764418739
 30
0.0
 10
152.1784090382621
 20
119.7249979270512
 30
0.0
 10
152.1802256505958
 20
119.8369062968831
 30
0.0
 10
152.1949938635046
 20
120.0047160993225
 30
0.0
 10
152.2185951109716
 20
120.1720161300979
 30
0.0
 10
152.2626287163305
 20
120.392748762571
 30
0.0
 10
152.3402820336645
 20
120.6647644576336
 30
0.0
 10
152.4694316077309
 20
120.9824516402169
 30
0.0
 10
152.6332875417998
 20
121.289251139224
 30
0.0
 10
152.8959392845819
 20
121.6780443905146
 30
0.0
 10
153.302446073238
 20
122.1203532987502
 30
0.0
 10
153.7977781466536
 20
122.4850339650299
 30
0.0
 10
154.2355817394607
 20
122.7214047058332
 30
0.0
 10
154.5817733948551
 20
122.8689165823971
 30
0.0
 10
154.9417288028689
 20
122.9855525054115
 30
0.0
 10
155.313124060668
 20
123.0692280468871
 30
0.0
 10
155.6929101025305
 20
123.1224581967814
 30
0.0
 10
155.9492960747862
 20
123.1290142774194
 30
0.0
 10
156.0774996396079
 20
123.1322925882476
 30
0.0
  0
SPLINE
  5
10A
330
1F
100
AcDbEntity
  8
0
  6
SLD-Сплошная
 62
     7
370
    25
100
AcDbSpline
210
0.0
220
0.0
230
1.0
 70
     8
 71
     3
 72
    12
 73
     8
 74
     0
 42
0.00000001
 43
0.00000001
 40
0.0
 40
0.0
 40
0.0
 40
0.0
 40
0.2008853285325543
 40
0.4008950975893236
 40
0.6004610441399659
 40
0.8000177857576837
 40
1.0
 40
1.0
 40
1.0
 40
1.0
 10
170.2774996396078
 20
123.1322925882476
 30
0.0
 10
170.338313027022
 20
123.1315293483332
 30
0.0
 10
170.4596747464676
 20
123.1300061950884
 30
0.0
 10
170.6410669726924
 20
123.1181428638272
 30
0.0
 10
170.8212344513774
 20
123.0990894837431
 30
0.0
 10
171.0003503745627
 20
123.0728383102366
 30
0.0
 10
171.1184079777253
 20
123.049036694288
 30
0.0
 10
171.1774996396078
 20
123.0371232130364
 30
0.0
  0
SPLINE
  5
10B
330
1F
100
AcDbEntity
  8
0
  6
SLD-Сплошная
 62
     7
370
    25
100
AcDbSpline
210
0.0
220
0.0
230
1.0
 70
     8
 71
     3
 72
    25
 73
    21
 74
     0
 42
0.00000001
 43
0.00000001
 40
0.0
 40
0.0
 40
0.0
 40
0.0
 40
0.0454671691199738
 40
0.0902509165581172
 40
0.1343512864942517
 40
0.1777683332288916
 40
0.220502121813471
 40
0.2625527286493996
 40
0.303920242061612
 40
0.3446047628531511
 40
0.3846064048479104
 40
0.4239252954295004
 40
0.4625615760847321
 40
0.5005154029610867
 40
0.5853452360466141
 40
0.6695390758316573
 40
0.7530991120098799
 40
0.8360276530864983
 40
0.9183271136365005
 40
0.9999999999999999
 40
0.9999999999999999
 40
0.9999999999999999
 40
0.9999999999999999
 10
149.3440947329686
 20
102.8020664445486
 30
0.0
 10
149.3634011662005
 20
102.7565503914669
 30
0.0
 10
149.4017238356866
 20
102.6662024417654
 30
0.0
 10
149.4696843847854
 20
102.5354577891435
 30
0.0
 10
149.5440859025759
 20
102.4098579318719
 30
0.0
 10
149.6251297952363
 20
102.2898462685975
 30
0.0
 10
149.7120264225463
 20
102.1755266684667
 30
0.0
 10
149.8042541651016
 20
102.0670433035373
 30
0.0
 10
149.9012335731994
 20
101.9644836625471
 30
0.0
 10
150.002415774621
 20
101.8679065996303
 30
0.0
 10
150.1072627883582
 20
101.7773373249574
 30
0.0
 10
150.2152532731236
 20
101.6927726508474
 30
0.0
 10
150.3258902370804
 20
101.6141779332399
 30
0.0
 10
150.485783904533
 20
101.5111530787567
 30
0.0
 10
150.702215746833
 20
101.3926414202251
 30
0.0
 10
150.9823421960229
 20
101.2726498507679
 30
0.0
 10
151.2731974875586
 20
101.1788836572126
 30
0.0
 10
151.571407458814
 20
101.1124332743131
 30
0.0
 10
151.8736637417681
 20
101.0709587090453
 30
0.0
 10
152.0764793412436
 20
101.0658416127223
 30
0.0
 10
152.1774996396079
 20
101.0632928413327
 30
0.0
  0
SPLINE
  5
10C
330
1F
100
AcDbEntity
  8
0
  6
SLD-Сплошная
 62
     7
370
    25
100
AcDbSpline
210
0.0
220
0.0
230
1.0
 70
     8
 71
     3
 72
    15
 73
    11
 74
     0
 42
0.00000001
 43
0.00000001
 40
0.0
 40
0.0
 40
0.0
 40
0.0
 40
0.1235370837934613
 40
0.2464712567808945
 40
0.3693100682012952
 40
0.4925682186272739
 40
0.6167614511375838
 40
0.7424004699065025
 40
0.8699852444480036
 40
1.0
 40
1.0
 40
1.0
 40
1.0
 10
149.1774996396079
 20
103.512777793178
 30
0.0
 10
149.177923162059
 20
103.4905403284387
 30
0.0
 10
149.1787681400008
 20
103.446173926759
 30
0.0
 10
149.185967054456
 20
103.3712668422431
 30
0.0
 10
149.1978924916374
 20
103.290717291662
 30
0.0
 10
149.2152436121323
 20
103.2040536917612
 30
0.0
 10
149.2381657629085
 20
103.1116349414072
 30
0.0
 10
149.2670935945289
 20
103.0135639947653
 30
0.0
 10
149.3017992435718
 20
102.9102869232677
 30
0.0
 10
149.3299078520446
 20
102.8383660846998
 30
0.0
 10
149.3440947329686
 20
102.8020664445486
 30
0.0
  0
LINE
  5
10D
330
1F
100
AcDbEntity
  8
0
  6
SLD-Сплошная
 62
     7
370
    25
100
AcDbLine
 10
149.1774996396
 20
103.5127777932
 30
0.0
 11
149.1774996396
 21
172.5588690696
 31
0.0
  0
SPLINE
  5
10E
330
1F
100
AcDbEntity
  8
0
  6
SLD-Сплошная
 62
     7
370
    25
100
AcDbSpline
210
0.0
220
0.0
230
1.0
 70
     8
 71
     3
 72
    23
 73
    19
 74
     0
 42
0.00000001
 43
0.00000001
 40
0.0
 40
0.0
 40
0.0
 40
0.0
 40
0.0314940789820349
 40
0.0629124884037967
 40
0.094332218812989
 40
0.1258302510706908
 40
0.1880679950597233
 40
0.2503161959784925
 40
0.3129100356800675
 40
0.375513904887072
 40
0.5000365867419033
 40
0.6248118765562615
 40
0.6873437621448193
 40
0.7498835559997246
 40
0.8121472634407572
 40
0.8744272386433314
 40
0.9372084381002801
 40
1.0
 40
1.0
 40
1.0
 40
1.0
 10
152.1774996396078
 20
146.9907980369873
 30
0.0
 10
152.178409038261
 20
147.0550761231081
 30
0.0
 10
152.1802256505918
 20
147.1834778569708
 30
0.0
 10
152.1949938634963
 20
147.375526056326
 30
0.0
 10
152.2185951109548
 20
147.5666340260015
 30
0.0
 10
152.2626287163856
 20
147.8182660804307
 30
0.0
 10
152.3402820337529
 20
148.1274460603372
 30
0.0
 10
152.469431607789
 20
148.4871619008966
 30
0.0
 10
152.6332875417696
 20
148.8332738445938
 30
0.0
 10
152.8959392846644
 20
149.2703505641058
 30
0.0
 10
153.3024460732244
 20
149.7650494491944
 30
0.0
 10
153.7977781465891
 20
150.1706334544406
 30
0.0
 10
154.2355817393776
 20
150.4327138213528
 30
0.0
 10
154.581773394766
 20
150.5959677503849
 30
0.0
 10
154.9417288028491
 20
150.7248570918058
 30
0.0
 10
155.3131240606845
 20
150.8172192926959
 30
0.0
 10
155.6929101025576
 20
150.875929104674
 30
0.0
 10
155.9492960748128
 20
150.8831573651707
 30
0.0
 10
156.0774996396078
 20
150.8867717936622
 30
0.0
  0
SPLINE
  5
10F
330
1F
100
AcDbEntity
  8
0
  6
SLD-Сплошная
 62
     7
370
    25
100
AcDbSpline
210
0.0
220
0.0
230
1.0
 70
     8
 71
     3
 72
    23
 73
    19
 74
     0
 42
0.00000001
 43
0.00000001
 40
0.0
 40
0.0
 40
0.0
 40
0.0
 40
0.0312562128298753
 40
0.0624404245022074
 40
0.0936280050321272
 40
0.124894300067659
 40
0.1874857986994274
 40
0.2501013057506352
 40
0.312373421897436
 40
0.3746619795369822
 40
0.4997922163517818
 40
0.6242857511614538
 40
0.6868250880417361
 40
0.7493705402817104
 40
0.8118957391839233
 40
0.8744266369437672
 40
0.9372118833939198
 40
0.9999999999999999
 40
0.9999999999999999
 40
0.9999999999999999
 40
0.9999999999999999
 10
156.0774996396078
 20
170.5603766223948
 30
0.0
 10
156.0137034337987
 20
170.5611807470629
 30
0.0
 10
155.8862579817848
 20
170.5627871440344
 30
0.0
 10
155.6956155900854
 20
170.5758432036299
 30
0.0
 10
155.5058704098036
 20
170.5967045009399
 30
0.0
 10
155.25434713184
 20
170.6358679889803
 30
0.0
 10
154.9439949808164
 20
170.7053723834512
 30
0.0
 10
154.5832437556147
 20
170.8210853596342
 30
0.0
 10
154.2372980948278
 20
170.9672278526917
 30
0.0
 10
153.7995964965817
 20
171.2012606931629
 30
0.0
 10
153.3038601821729
 20
171.5628059452517
 30
0.0
 10
152.8968510685777
 20
172.0016379880846
 30
0.0
 10
152.6341512545322
 20
172.3867793546117
 30
0.0
 10
152.4700138847928
 20
172.6910942711248
 30
0.0
 10
152.3402336750281
 20
173.0068352294678
 30
0.0
 10
152.2473111955917
 20
173.3314000706513
 30
0.0
 10
152.1883745407987
 20
173.6616304231687
 30
0.0
 10
152.1811246619068
 20
173.8831138161781
 30
0.0
 10
152.1774996396078
 20
173.99385804384
 30
0.0
  0
LINE
  5
110
330
1F
100
AcDbEntity
  8
0
  6
SLD-Сплошная
 62
     7
370
    25
100
AcDbLine
 10
170.2774996396
 20
170.5603766224
 30
0.0
 11
156.0774996396
 21
170.5603766224
 31
0.0
  0
SPLINE
  5
111
330
1F
100
AcDbEntity
  8
0
  6
SLD-Сплошная
 62
     7
370
    25
100
AcDbSpline
210
0.0
220
0.0
230
1.0
 70
     8
 71
     3
 72
    12
 73
     8
 74
     0
 42
0.00000001
 43
0.00000001
 40
0.0
 40
0.0
 40
0.0
 40
0.0
 40
0.1999735861233876
 40
0.3995260463960496
 40
0.5990920396811122
 40
0.7991061366446698
 40
0.9999999999999999
 40
0.9999999999999999
 40
0.9999999999999999
 40
0.9999999999999999
 10
171.1774996396078
 20
170.6547937961609
 30
0.0
 10
171.1184105286783
 20
170.6429752117108
 30
0.0
 10
171.0003567430139
 20
170.6193629316547
 30
0.0
 10
170.821244641766
 20
170.5933200889489
 30
0.0
 10
170.6410771746473
 20
170.5744171643262
 30
0.0
 10
170.4596811470651
 20
170.5626467266471
 30
0.0
 10
170.3383155850324
 20
170.5611344300243
 30
0.0
 10
170.2774996396078
 20
170.5603766223948
 30
0.0
  0
LINE
  5
112
330
1F
100
AcDbEntity
  8
0
  6
SLD-Сплошная
 62
     7
370
    25
100
AcDbLine
 10
152.1774996396
 20
119.481922167
 30
0.0
 11
152.1774996396
 21
119.6689312591
 31
0.0
  0
LINE
  5
113
330
1F
100
AcDbEntity
  8
0
  6
SLD-Сплошная
 62
     7
370
    25
100
AcDbLine
 10
152.1774996396
 20
173.9939045282
 30
0.0
 11
152.1774996396
 21
174.1800947091
 31
0.0
  0
ARC
  5
114
330
1F
100
AcDbEntity
  8
0
  6
SLD-Сплошная
 62
     7
370
    25
100
AcDbCircle
 10
481.6480865704
 20
146.4444955916
 30
0.0
 40
335.0
100
AcDbArc
 50
180.0
 51
187.0452879194
  0
ARC
  5
115
330
1F
100
AcDbEntity
  8
0
  6
SLD-Сплошная
 62
     7
370
    25
100
AcDbCircle
 10
481.6480865704
 20
146.4444955916
 30
0.0
 40
334.9999999999999
100
AcDbArc
 50
172.9547120806
 51
180.0
  0
LINE
  5
116
330
1F
100
AcDbEntity
  8
0
  6
SLD-Сплошная
 62
     7
370
    25
100
AcDbLine
 10
152.1774996396
 20
101.0632928413
 30
0.0
 11
171.1774996396
 21
101.0632928413
 31
0.0
  0
LINE
  5
117
330
1F
100
AcDbEntity
  8
0
  6
SLD-Сплошная
 62
     7
370
    25
100
AcDbLine
 10
149.1774996396
 20
172.5588690696
 30
0.0
 11
149.1774996396
 21
197.9444955918
 31
0.0
  0
SPLINE
  5
118
330
1F
100
AcDbEntity
  8
0
  6
SLD-Сплошная
 62
     7
370
    25
100
AcDbSpline
210
0.0
220
0.0
230
1.0
 70
     8
 71
     3
 72
    23
 73
    19
 74
     0
 42
0.00000001
 43
0.00000001
 40
0.0
 40
0.0
 40
0.0
 40
0.0
 40
0.0312562128320953
 40
0.0624404245051611
 40
0.0936280050343419
 40
0.1248943000676777
 40
0.1874857987110341
 40
0.2501013057507092
 40
0.3123734218353345
 40
0.3746619795362884
 40
0.4997922163510755
 40
0.6242857511607395
 40
0.6868250879214727
 40
0.7493705402813275
 40
0.8118957391418494
 40
0.8744266369437812
 40
0.9372118833939486
 40
1.0
 40
1.0
 40
1.0
 40
1.0
 10
156.0774996396078
 20
191.7664939674366
 30
0.0
 10
156.0137034337942
 20
191.7669919926624
 30
0.0
 10
155.8862579817742
 20
191.7679868958735
 30
0.0
 10
155.6956155900702
 20
191.7760716574163
 30
0.0
 10
155.5058704097929
 20
191.7889851483949
 30
0.0
 10
155.2543471318125
 20
191.813215371364
 30
0.0
 10
154.9439949807945
 20
191.8561783282568
 30
0.0
 10
154.5832437557039
 20
191.9275567295618
 30
0.0
 10
154.2372980949776
 20
192.0174593592714
 30
0.0
 10
153.7995964966568
 20
192.1609439378535
 30
0.0
 10
153.3038601821741
 20
192.3813607909131
 30
0.0
 10
152.8968510687522
 20
192.6460875575888
 30
0.0
 10
152.6341512546136
 20
192.8761783161856
 30
0.0
 10
152.4700138849317
 20
193.0567584936766
 30
0.0
 10
152.3402336750092
 20
193.242787913992
 30
0.0
 10
152.2473111956167
 20
193.4325509546104
 30
0.0
 10
152.1883745407958
 20
193.6242272406697
 30
0.0
 10
152.1811246619059
 20
193.7514626703287
 30
0.0
 10
152.1774996396078
 20
193.8150818392306
 30
0.0
  0
LINE
  5
119
330
1F
100
AcDbEntity
  8
0
  6
SLD-Сплошная
 62
     7
370
    25
100
AcDbLine
 10
170.2774996396
 20
191.7664939674
 30
0.0
 11
156.0774996396
 21
191.7664939674
 31
0.0
  0
SPLINE
  5
11A
330
1F
100
AcDbEntity
  8
0
  6
SLD-Сплошная
 62
     7
370
    25
100
AcDbSpline
210
0.0
220
0.0
230
1.0
 70
     8
 71
     3
 72
    12
 73
     8
 74
     0
 42
0.00000001
 43
0.00000001
 40
0.0
 40
0.0
 40
0.0
 40
0.0
 40
0.1999735861201563
 40
0.3995260463912164
 40
0.5990920396763096
 40
0.7991061366414697
 40
0.9999999999999999
 40
0.9999999999999999
 40
0.9999999999999999
 40
0.9999999999999999
 10
171.1774996396078
 20
191.824910796571
 30
0.0
 10
171.1184105286792
 20
191.8176039180749
 30
0.0
 10
171.0003567430163
 20
191.8030055486918
 30
0.0
 10
170.8212446417698
 20
191.7868900880487
 30
0.0
 10
170.6410771746511
 20
191.7751887388021
 30
0.0
 10
170.4596811470675
 20
191.7678998984501
 30
0.0
 10
170.3383155850334
 20
191.766963296212
 30
0.0
 10
170.2774996396078
 20
191.7664939674366
 30
0.0
  0
SPLINE
  5
11B
330
1F
100
AcDbEntity
  8
0
  6
SLD-Сплошная
 62
     7
370
    25
100
AcDbSpline
210
0.0
220
0.0
230
1.0
 70
     8
 71
     3
 72
    14
 73
    10
 74
     0
 42
0.00000001
 43
0.00000001
 40
0.0
 40
0.0
 40
0.0
 40
0.0
 40
0.25
 40
0.25
 40
0.5
 40
0.5
 40
0.75
 40
0.75
 40
1.0
 40
1.0
 40
1.0
 40
1.0
 10
175.442683547709
 20
103.1468271681111
 30
0.0
 10
175.8189272073618
 20
103.1468271681111
 30
0.0
 10
176.2248470565798
 20
103.1141531599241
 30
0.0
 10
177.0108292873284
 20
102.9658855030664
 30
0.0
 10
177.3884550524559
 20
102.8497893853837
 30
0.0
 10
178.0118359587964
 20
102.5527516026562
 30
0.0
 10
178.2554820781523
 20
102.3728148756352
 30
0.0
 10
178.5666452758583
 20
101.9982984015017
 30
0.0
 10
178.6352168651368
 20
101.8048796895225
 30
0.0
 10
178.6352168651368
 20
101.625601528623
 30
0.0
  0
LINE
  5
11C
330
1F
100
AcDbEntity
  8
0
  6
SLD-Сплошная
 62
     7
370
    25
100
AcDbLine
 10
175.5610359279
 20
94.3304111655
 30
0.0
 11
175.5141522306
 21
94.2118428053
 31
0.0
  0
LINE
  5
11D
330
1F
100
AcDbEntity
  8
0
  6
SLD-Сплошная
 62
     7
370
    25
100
AcDbLine
 10
152.1774996396
 20
193.8151616433
 30
0.0
 11
152.1774996396
 21
193.9644507689
 31
0.0
  0
LINE
  5
11E
330
1F
100
AcDbEntity
  8
0
  6
SLD-Сплошная
 62
     7
370
    25
100
AcDbLine
 10
178.6352168651
 20
101.6256015286
 30
0.0
 11
178.547765573
 21
101.3271632455
 31
0.0
  0
LINE
  5
11F
330
1F
100
AcDbEntity
  8
0
  6
SLD-Сплошная
 62
     7
370
    25
100
AcDbLine
 10
175.4426835477
 20
103.1468271681
 30
0.0
 11
175.1774996396
 21
103.1468271681
 31
0.0
  0
SPLINE
  5
120
330
1F
100
AcDbEntity
  8
0
  6
SLD-Сплошная
 62
     7
370
    25
100
AcDbSpline
210
0.0
220
0.0
230
1.0
 70
     8
 71
     3
 72
    11
 73
     7
 74
     0
 42
0.00000001
 43
0.00000001
 40
0.0
 40
0.0
 40
0.0
 40
0.0
 40
0.2653934854498248
 40
0.5305573096678444
 40
0.795598554843053
 40
0.9999999999999999
 40
0.9999999999999999
 40
0.9999999999999999
 40
0.9999999999999999
 10
156.0774996396078
 20
200.8286184483489
 30
0.0
 10
155.5660354085345
 20
200.832674708595
 30
0.0
 10
154.5435495477018
 20
200.8407837189567
 30
0.0
 10
153.261155240359
 20
200.891213030607
 30
0.0
 10
152.4083285503625
 20
200.9371031110104
 30
0.0
 10
152.295619123535
 20
200.9397090348942
 30
0.0
 10
152.2465439750647
 20
200.9408436880027
 30
0.0
  0
LINE
  5
121
330
1F
100
AcDbEntity
  8
0
  6
SLD-Сплошная
 62
     7
370
    25
100
AcDbLine
 10
170.2774996396
 20
200.8286184483
 30
0.0
 11
156.0774996396
 21
200.8286184483
 31
0.0
  0
SPLINE
  5
122
330
1F
100
AcDbEntity
  8
0
  6
SLD-Сплошная
 62
     7
370
    25
100
AcDbSpline
210
0.0
220
0.0
230
1.0
 70
     8
 71
     3
 72
    12
 73
     8
 74
     0
 42
0.00000001
 43
0.00000001
 40
0.0
 40
0.0
 40
0.0
 40
0.0
 40
0.1999735861201251
 40
0.3995260463911559
 40
0.5990920396762639
 40
0.79910613664144
 40
1.0
 40
1.0
 40
1.0
 40
1.0
 10
171.1774996396078
 20
200.8353821906608
 30
0.0
 10
171.1184105286792
 20
200.8345448903106
 30
0.0
 10
171.0003567430163
 20
200.8328720528871
 30
0.0
 10
170.8212446417699
 20
200.8310020989715
 30
0.0
 10
170.6410771746511
 20
200.8296376921819
 30
0.0
 10
170.4596811470676
 20
200.8287834880434
 30
0.0
 10
170.3383155850334
 20
200.8286735420035
 30
0.0
 10
170.2774996396078
 20
200.8286184483489
 30
0.0
  0
SPLINE
  5
123
330
1F
100
AcDbEntity
  8
0
  6
SLD-Сплошная
 62
     7
370
    25
100
AcDbSpline
210
0.0
220
0.0
230
1.0
 70
     8
 71
     3
 72
    12
 73
     8
 74
     0
 42
0.00000001
 43
0.00000001
 40
0.0
 40
0.0
 40
0.0
 40
0.0
 40
0.2491479565661902
 40
0.498374688803885
 40
0.7476259984916243
 40
0.9969262180350512
 40
1.0
 40
1.0
 40
1.0
 40
1.0
 10
171.1774996396079
 20
90.59471240642662
 30
0.0
 10
171.5622770755475
 20
90.58441350803467
 30
0.0
 10
172.3319536064657
 20
90.56381245494221
 30
0.0
 10
173.2325897958735
 20
90.51029275807612
 30
0.0
 10
173.7642626021639
 20
90.46776085294377
 30
0.0
 10
173.9801904161507
 20
90.44529684308111
 30
0.0
 10
173.9160170222098
 20
90.44639783211227
 30
0.0
 10
173.9152354241857
 20
90.44641124157681
 30
0.0
  0
LINE
  5
124
330
1F
100
AcDbEntity
  8
0
  6
SLD-Сплошная
 62
     7
370
    25
100
AcDbLine
 10
171.1774996396
 20
93.0232397707
 30
0.0
 11
171.1774996396
 21
90.5947124064
 31
0.0
  0
LINE
  5
125
330
1F
100
AcDbEntity
  8
0
  6
SLD-Сплошная
 62
     7
370
    25
100
AcDbLine
 10
175.1774996396
 20
93.6326651803
 30
0.0
 11
175.1774996396
 21
90.4444955918
 31
0.0
  0
LINE
  5
126
330
1F
100
AcDbEntity
  8
0
  6
SLD-Сплошная
 62
     7
370
    25
100
AcDbLine
 10
156.0774996396
 20
92.1258415018
 30
0.0
 11
170.2774996396
 21
92.1258415018
 31
0.0
  0
SPLINE
  5
127
330
1F
100
AcDbEntity
  8
0
  6
SLD-Сплошная
 62
     7
370
    25
100
AcDbSpline
210
0.0
220
0.0
230
1.0
 70
     8
 71
     3
 72
    23
 73
    19
 74
     0
 42
0.00000001
 43
0.00000001
 40
0.0
 40
0.0
 40
0.0
 40
0.0
 40
0.0314940789211109
 40
0.0629124883226286
 40
0.0943322187519933
 40
0.1258302510697399
 40
0.1880679949784708
 40
0.2503161959783981
 40
0.3129100356232756
 40
0.375513904886513
 40
0.5000365867414397
 40
0.6248118765558583
 40
0.6873437621501319
 40
0.7498835559997475
 40
0.8121472634458725
 40
0.8744272386431244
 40
0.937208438087283
 40
1.0
 40
1.0
 40
1.0
 40
1.0
 10
152.1774996396079
 20
91.94723370054916
 30
0.0
 10
152.1784090382626
 20
91.94794376008528
 30
0.0
 10
152.1802256505974
 20
91.94936217312683
 30
0.0
 10
152.1949938635076
 20
91.9523445393768
 30
0.0
 10
152.2185951109786
 20
91.95593588756665
 30
0.0
 10
152.2626287162965
 20
91.96156164933173
 30
0.0
 10
152.3402820336399
 20
91.97007760539518
 30
0.0
 10
152.4694316076836
 20
91.98240585856654
 30
0.0
 10
152.6332875417608
 20
91.99652138493063
 30
0.0
 10
152.8959392845657
 20
92.01706880239601
 30
0.0
 10
153.3024460732304
 20
92.0448430154057
 30
0.0
 10
153.7977781466057
 20
92.07171224401313
 30
0.0
 10
154.235581739374
 20
92.09051721451536
 30
0.0
 10
154.5817733947866
 20
92.10277686800356
 30
0.0
 10
154.9417288028679
 20
92.11280582626327
 30
0.0
 10
155.3131240606683
 20
92.12018088452582
 30
0.0
 10
155.6929101025306
 20
92.12495280705332
 30
0.0
 10
155.9492960747863
 20
92.12554525390829
 30
0.0
 10
156.0774996396079
 20
92.12584150178061
 30
0.0
  0
SPLINE
  5
128
330
1F
100
AcDbEntity
  8
0
  6
SLD-Сплошная
 62
     7
370
    25
100
AcDbSpline
210
0.0
220
0.0
230
1.0
 70
     8
 71
     3
 72
    12
 73
     8
 74
     0
 42
0.00000001
 43
0.00000001
 40
0.0
 40
0.0
 40
0.0
 40
0.0
 40
0.2008853285325106
 40
0.4008950975892358
 40
0.600461044139906
 40
0.8000177857576187
 40
1.0
 40
1.0
 40
1.0
 40
1.0
 10
170.2774996396079
 20
92.12584150178063
 30
0.0
 10
170.338313027022
 20
92.12577265850078
 30
0.0
 10
170.4596747464676
 20
92.1256352719948
 30
0.0
 10
170.6410669726924
 20
92.1245667249166
 30
0.0
 10
170.8212344513774
 20
92.12285791749947
 30
0.0
 10
171.0003503745627
 20
92.12051330701138
 30
0.0
 10
171.1184079777253
 20
92.11840989556313
 30
0.0
 10
171.1774996396079
 20
92.11735706986815
 30
0.0
  0
LWPOLYLINE
  5
129
330
1F
100
AcDbEntity
  8
0
  6
SLD-Сплошная
 62
     7
370
    25
100
AcDbPolyline
 90
        3
 70
   128
 43
0.0
 10
183.7705352022
 20
200.3396574178
 10
182.981995757
 20
199.3228774563
 10
182.3072223281
 20
198.0556067028
  0
LINE
  5
12A
330
1F
100
AcDbEntity
  8
0
  6
SLD-Сплошная
 62
     7
370
    25
100
AcDbLine
 10
182.67749964
 20
186.9444955916
 30
0.0
 11
175.1774996396
 21
186.9444955916
 31
0.0
  0
ARC
  5
12B
330
1F
100
AcDbEntity
  8
0
  6
SLD-Сплошная
 62
     7
370
    25
100
AcDbCircle
 10
189.67749964
 20
194.9444955916
 30
0.0
 40
2.099999999999994
100
AcDbArc
 50
0.0
 51
90.0
  0
ARC
  5
12C
330
1F
100
AcDbEntity
  8
0
  6
SLD-Сплошная
 62
     7
370
    25
100
AcDbCircle
 10
189.67749964
 20
194.9444955916
 30
0.0
 40
2.099999999999994
100
AcDbArc
 50
270.0
 51
0.0
  0
ARC
  5
12D
330
1F
100
AcDbEntity
  8
0
  6
SLD-Сплошная
 62
     7
370
    25
100
AcDbCircle
 10
173.0943756882
 20
201.9444955916
 30
0.0
 40
10.00000000000001
100
AcDbArc
 50
282.0234725996
 51
337.1146195238
  0
LINE
  5
12E
330
1F
100
AcDbEntity
  8
0
  6
SLD-Сплошная
 62
     7
370
    25
100
AcDbLine
 10
170.2774996396
 20
87.946457175
 30
0.0
 11
156.0774996396
 21
87.946457175
 31
0.0
  0
LINE
  5
12F
330
1F
100
AcDbEntity
  8
0
  6
SLD-Сплошная
 62
     7
370
    25
100
AcDbLine
 10
152.1774996396
 20
91.8463230497
 30
0.0
 11
152.1774996396
 21
91.9471419609
 31
0.0
  0
LINE
  5
130
330
1F
100
AcDbEntity
  8
0
  6
SLD-Сплошная
 62
     7
370
    25
100
AcDbLine
 10
170.2774996396
 20
204.9425340085
 30
0.0
 11
156.0774996396
 21
204.9425340085
 31
0.0
  0
LINE
  5
131
330
1F
100
AcDbEntity
  8
0
  6
SLD-Сплошная
 62
     7
370
    25
100
AcDbLine
 10
152.1774996396
 20
200.943487045
 30
0.0
 11
152.1774996396
 21
201.0426681338
 31
0.0
  0
LINE
  5
132
330
1F
100
AcDbEntity
  8
0
  6
SLD-Сплошная
 62
     7
370
    25
100
AcDbLine
 10
175.4426835477
 20
192.7846152944
 30
0.0
 11
175.1774996396
 21
192.7846152944
 31
0.0
  0
SPLINE
  5
133
330
1F
100
AcDbEntity
  8
0
  6
SLD-Сплошная
 62
     7
370
    25
100
AcDbSpline
210
0.0
220
0.0
230
1.0
 70
     8
 71
     3
 72
     9
 73
     5
 74
     0
 42
0.00000001
 43
0.00000001
 40
0.0
 40
0.0
 40
0.0
 40
0.0
 40
0.1427206391000434
 40
1.0
 40
1.0
 40
1.0
 40
1.0
 10
176.6300793755804
 20
192.6618548986687
 30
0.0
 10
176.5790794947847
 20
192.6761387025084
 30
0.0
 10
176.2217388808598
 20
192.7762209606161
 30
0.0
 10
175.8022783788202
 20
192.7807406542763
 30
0.0
 10
175.442683547709
 20
192.7846152943688
 30
0.0
  0
LINE
  5
134
330
1F
100
AcDbEntity
  8
0
  6
SLD-Сплошная
 62
     7
370
    25
100
AcDbLine
 10
175.5610359279
 20
198.558580018
 30
0.0
 11
175.5141522306
 21
198.6771483782
 31
0.0
  0
LINE
  5
135
330
1F
100
AcDbEntity
  8
0
  6
SLD-Сплошная
 62
     7
370
    25
100
AcDbLine
 10
59.1890283063
 20
125.9803912509
 30
0.0
 11
59.1890283063
 21
129.8439853344
 31
0.0
  0
LINE
  5
136
330
1F
100
AcDbEntity
  8
0
  6
SLD-Сплошная
 62
     7
370
    25
100
AcDbLine
 10
54.1890283063
 20
129.8439853344
 30
0.0
 11
54.1890283063
 21
125.9803912509
 31
0.0
  0
LINE
  5
137
330
1F
100
AcDbEntity
  8
0
  6
SLD-Сплошная
 62
     7
370
    25
100
AcDbLine
 10
71.817174636
 20
161.4066757421
 30
0.0
 11
71.817174636
 21
158.0448720132
 31
0.0
  0
LINE
  5
138
330
1F
100
AcDbEntity
  8
0
  6
SLD-Сплошная
 62
     7
370
    25
100
AcDbLine
 10
71.817174636
 20
152.8174329076
 30
0.0
 11
71.817174636
 21
151.4066757421
 31
0.0
  0
LINE
  5
139
330
1F
100
AcDbEntity
  8
0
  6
SLD-Сплошная
 62
     7
370
    25
100
AcDbLine
 10
36.5608819765
 20
161.4066757421
 30
0.0
 11
36.5608819765
 21
158.04280188
 31
0.0
  0
LINE
  5
13A
330
1F
100
AcDbEntity
  8
0
  6
SLD-Сплошная
 62
     7
370
    25
100
AcDbLine
 10
36.5608819765
 20
152.8174329076
 30
0.0
 11
36.5608819765
 21
151.4066757421
 31
0.0
  0
LINE
  5
13B
330
1F
100
AcDbEntity
  8
0
  6
SLD-Сплошная
 62
     7
370
    25
100
AcDbLine
 10
76.817174636
 20
158.04280188
 30
0.0
 11
76.817174636
 21
161.4066757421
 31
0.0
  0
LINE
  5
13C
330
1F
100
AcDbEntity
  8
0
  6
SLD-Сплошная
 62
     7
370
    25
100
AcDbLine
 10
41.5608819765
 20
158.0448720132
 30
0.0
 11
41.5608819765
 21
161.4066757421
 31
0.0
  0
LINE
  5
13D
330
1F
100
AcDbEntity
  8
0
  6
SLD-Сплошная
 62
     7
370
    25
100
AcDbLine
 10
41.5608819765
 20
151.4066757421
 30
0.0
 11
41.5608819765
 21
152.8174329076
 31
0.0
  0
LINE
  5
13E
330
1F
100
AcDbEntity
  8
0
  6
SLD-Сплошная
 62
     7
370
    25
100
AcDbLine
 10
76.817174636
 20
151.4066757421
 30
0.0
 11
76.817174636
 21
152.8174329076
 31
0.0
  0
LINE
  5
13F
330
1F
100
AcDbEntity
  8
0
  6
SLD-Сплошная
 62
     7
370
    25
100
AcDbLine
 10
58.8890283063
 20
169.6944955916
 30
0.0
 11
58.8890283063
 21
171.6944955916
 31
0.0
  0
LINE
  5
140
330
1F
100
AcDbEntity
  8
0
  6
SLD-Сплошная
 62
     7
370
    25
100
AcDbLine
 10
54.4890283063
 20
171.6944955916
 30
0.0
 11
54.4890283063
 21
169.6944955916
 31
0.0
  0
LINE
  5
141
330
1F
100
AcDbEntity
  8
0
  6
SLD-Сплошная
 62
     7
370
    25
100
AcDbLine
 10
58.1890283063
 20
169.2359982138
 30
0.0
 11
58.1890283063
 21
169.6944955916
 31
0.0
  0
LINE
  5
142
330
1F
100
AcDbEntity
  8
0
  6
SLD-Сплошная
 62
     7
370
    25
100
AcDbLine
 10
58.1890283063
 20
163.6944955916
 30
0.0
 11
58.1890283063
 21
165.2173712472
 31
0.0
  0
LINE
  5
143
330
1F
100
AcDbEntity
  8
0
  6
SLD-Сплошная
 62
     7
370
    25
100
AcDbLine
 10
55.1890283063
 20
165.2173712472
 30
0.0
 11
55.1890283063
 21
163.6944955916
 31
0.0
  0
LINE
  5
144
330
1F
100
AcDbEntity
  8
0
  6
SLD-Сплошная
 62
     7
370
    25
100
AcDbLine
 10
55.1890283063
 20
169.6944955916
 30
0.0
 11
55.1890283063
 21
169.2359982138
 31
0.0
  0
ARC
  5
145
330
1F
100
AcDbEntity
  8
0
  6
SLD-Сплошная
 62
     7
370
    25
100
AcDbCircle
 10
56.6890283063
 20
127.3944955916
 30
0.0
 40
5.700000000000003
100
AcDbArc
 50
0.0
 51
180.0
  0
ARC
  5
146
330
1F
100
AcDbEntity
  8
0
  6
SLD-Сплошная
 62
     7
370
    25
100
AcDbCircle
 10
56.6890283063
 20
127.3944955916
 30
0.0
 40
5.700000000000003
100
AcDbArc
 50
180.0
 51
0.0
  0
ARC
  5
147
330
1F
100
AcDbEntity
  8
0
  6
SLD-Сплошная
 62
     7
370
    25
100
AcDbCircle
 10
56.6890283063
 20
127.3944955916
 30
0.0
 40
4.5
100
AcDbArc
 50
180.0
 51
0.0
  0
ARC
  5
148
330
1F
100
AcDbEntity
  8
0
  6
SLD-Сплошная
 62
     7
370
    25
100
AcDbCircle
 10
56.6890283063
 20
127.3944955916
 30
0.0
 40
4.5
100
AcDbArc
 50
0.0
 51
180.0
  0
ARC
  5
149
330
1F
100
AcDbEntity
  8
0
  6
SLD-Сплошная
 62
     7
370
    25
100
AcDbCircle
 10
56.6890283063
 20
140.0720351685
 30
0.0
 40
3.509999999649004
100
AcDbArc
 50
0.0
 51
180.0
  0
ARC
  5
14A
330
1F
100
AcDbEntity
  8
0
  6
SLD-Сплошная
 62
     7
370
    25
100
AcDbCircle
 10
56.6890283063
 20
140.0720351685
 30
0.0
 40
3.190909090590004
100
AcDbArc
 50
0.0
 51
180.0
  0
ARC
  5
14B
330
1F
100
AcDbEntity
  8
0
  6
SLD-Сплошная
 62
     7
370
    25
100
AcDbCircle
 10
56.6890283063
 20
140.0720351685
 30
0.0
 40
3.190909090590004
100
AcDbArc
 50
180.0
 51
0.0
  0
ARC
  5
14C
330
1F
100
AcDbEntity
  8
0
  6
SLD-Сплошная
 62
     7
370
    25
100
AcDbCircle
 10
56.6890283063
 20
140.0720351685
 30
0.0
 40
3.509999999649004
100
AcDbArc
 50
180.0
 51
0.0
  0
ARC
  5
14D
330
1F
100
AcDbEntity
  8
0
  6
SLD-Сплошная
 62
     7
370
    25
100
AcDbCircle
 10
55.5117935066
 20
140.6304442593
 30
0.0
 40
0.2393181817942605
100
AcDbArc
 50
180.0
 51
270.0
  0
ARC
  5
14E
330
1F
100
AcDbEntity
  8
0
  6
SLD-Сплошная
 62
     7
370
    25
100
AcDbCircle
 10
55.5117935066
 20
140.6304442593
 30
0.0
 40
0.2393181817942605
100
AcDbArc
 50
90.0
 51
180.0
  0
LINE
  5
14F
330
1F
100
AcDbEntity
  8
0
  6
SLD-Сплошная
 62
     7
370
    25
100
AcDbLine
 10
57.8662631059
 20
140.8697624411
 30
0.0
 11
55.5117935066
 21
140.8697624411
 31
0.0
  0
ARC
  5
150
330
1F
100
AcDbEntity
  8
0
  6
SLD-Сплошная
 62
     7
370
    25
100
AcDbCircle
 10
57.8662631059
 20
140.6304442593
 30
0.0
 40
0.2393181817942605
100
AcDbArc
 50
270.0
 51
90.0
  0
LINE
  5
151
330
1F
100
AcDbEntity
  8
0
  6
SLD-Сплошная
 62
     7
370
    25
100
AcDbLine
 10
57.8662631059
 20
140.3911260776
 30
0.0
 11
55.5117935066
 21
140.3911260776
 31
0.0
  0
LINE
  5
152
330
1F
100
AcDbEntity
  8
0
  6
SLD-Сплошная
 62
     7
370
    25
100
AcDbLine
 10
56.4497101245
 20
138.715898805
 30
0.0
 11
56.4497101245
 21
139.4338533504
 31
0.0
  0
LINE
  5
153
330
1F
100
AcDbEntity
  8
0
  6
SLD-Сплошная
 62
     7
370
    25
100
AcDbLine
 10
56.4497101245
 20
139.4338533504
 30
0.0
 11
54.5545207795
 21
139.4338533504
 31
0.0
  0
ARC
  5
154
330
1F
100
AcDbEntity
  8
0
  6
SLD-Сплошная
 62
     7
370
    25
100
AcDbCircle
 10
54.5545207795
 20
139.6731715322
 30
0.0
 40
0.2393181817942889
100
AcDbArc
 50
180.0
 51
270.0
  0
ARC
  5
155
330
1F
100
AcDbEntity
  8
0
  6
SLD-Сплошная
 62
     7
370
    25
100
AcDbCircle
 10
54.5545207795
 20
139.6731715322
 30
0.0
 40
0.2393181817942605
100
AcDbArc
 50
90.0
 51
180.0
  0
LINE
  5
156
330
1F
100
AcDbEntity
  8
0
  6
SLD-Сплошная
 62
     7
370
    25
100
AcDbLine
 10
58.8235358331
 20
139.912489714
 30
0.0
 11
54.5545207795
 21
139.912489714
 31
0.0
  0
ARC
  5
157
330
1F
100
AcDbEntity
  8
0
  6
SLD-Сплошная
 62
     7
370
    25
100
AcDbCircle
 10
58.8235358331
 20
139.6731715322
 30
0.0
 40
0.2393181817942889
100
AcDbArc
 50
270.0
 51
90.0
  0
LINE
  5
158
330
1F
100
AcDbEntity
  8
0
  6
SLD-Сплошная
 62
     7
370
    25
100
AcDbLine
 10
58.8235358331
 20
139.4338533504
 30
0.0
 11
56.9283464881
 21
139.4338533504
 31
0.0
  0
LINE
  5
159
330
1F
100
AcDbEntity
  8
0
  6
SLD-Сплошная
 62
     7
370
    25
100
AcDbLine
 10
56.9283464881
 20
138.715898805
 30
0.0
 11
56.9283464881
 21
139.4338533504
 31
0.0
  0
ARC
  5
15A
330
1F
100
AcDbEntity
  8
0
  6
SLD-Сплошная
 62
     7
370
    25
100
AcDbCircle
 10
56.6890283063
 20
138.715898805
 30
0.0
 40
0.2393181817942747
100
AcDbArc
 50
180.0
 51
0.0
  0
ARC
  5
15B
330
1F
100
AcDbEntity
  8
0
  6
SLD-Сплошная
 62
     7
370
    25
100
AcDbCircle
 10
57.0685358332
 20
141.428171532
 30
0.0
 40
0.2393181817942889
100
AcDbArc
 50
270.0
 51
90.0
  0
LINE
  5
15C
330
1F
100
AcDbEntity
  8
0
  6
SLD-Сплошная
 62
     7
370
    25
100
AcDbLine
 10
57.0685358332
 20
141.1888533502
 30
0.0
 11
56.3095207793
 21
141.1888533502
 31
0.0
  0
LINE
  5
15D
330
1F
100
AcDbEntity
  8
0
  6
SLD-Сплошная
 62
     7
370
    25
100
AcDbLine
 10
57.0685358332
 20
141.6674897138
 30
0.0
 11
56.3095207793
 21
141.6674897138
 31
0.0
  0
ARC
  5
15E
330
1F
100
AcDbEntity
  8
0
  6
SLD-Сплошная
 62
     7
370
    25
100
AcDbCircle
 10
56.3095207793
 20
141.428171532
 30
0.0
 40
0.2393181817942605
100
AcDbArc
 50
180.0
 51
270.0
  0
ARC
  5
15F
330
1F
100
AcDbEntity
  8
0
  6
SLD-Сплошная
 62
     7
370
    25
100
AcDbCircle
 10
56.3095207793
 20
141.428171532
 30
0.0
 40
0.2393181817942889
100
AcDbArc
 50
90.0
 51
180.0
  0
LINE
  5
160
330
1F
100
AcDbEntity
  8
0
  6
SLD-Сплошная
 62
     7
370
    25
100
AcDbLine
 10
61.8890283063
 20
135.0443131075
 30
0.0
 11
61.8890283063
 21
146.5944955916
 31
0.0
  0
ARC
  5
161
330
1F
100
AcDbEntity
  8
0
  6
SLD-Сплошная
 62
     7
370
    25
100
AcDbCircle
 10
56.6890283063
 20
128.1944955916
 30
0.0
 40
8.600000000000499
100
AcDbArc
 50
0.0
 51
52.7962560093
  0
ARC
  5
162
330
1F
100
AcDbEntity
  8
0
  6
SLD-Сплошная
 62
     7
370
    25
100
AcDbCircle
 10
56.6890283063
 20
128.1944955916
 30
0.0
 40
8.600000000000492
100
AcDbArc
 50
127.2037439907
 51
180.0
  0
LINE
  5
163
330
1F
100
AcDbEntity
  8
0
  6
SLD-Сплошная
 62
     7
370
    25
100
AcDbLine
 10
51.4890283063
 20
146.5944955916
 30
0.0
 11
51.4890283063
 21
135.0443131075
 31
0.0
  0
LINE
  5
164
330
1F
100
AcDbEntity
  8
0
  6
SLD-Сплошная
 62
     7
370
    25
100
AcDbLine
 10
51.4890283063
 20
146.5944955916
 30
0.0
 11
61.8890283063
 21
146.5944955916
 31
0.0
  0
ARC
  5
165
330
1F
100
AcDbEntity
  8
0
  6
SLD-Сплошная
 62
     7
370
    25
100
AcDbCircle
 10
56.6890283063
 20
128.1944955916
 30
0.0
 40
8.600000000000009
100
AcDbArc
 50
180.0
 51
0.0
  0
ARC
  5
166
330
1F
100
AcDbEntity
  8
0
  6
SLD-Сплошная
 62
     7
370
    25
100
AcDbCircle
 10
56.6890283063
 20
127.3944955916
 30
0.0
 40
3.5
100
AcDbArc
 50
180.0
 51
0.0
  0
ARC
  5
167
330
1F
100
AcDbEntity
  8
0
  6
SLD-Сплошная
 62
     7
370
    25
100
AcDbCircle
 10
56.6890283063
 20
127.3944955916
 30
0.0
 40
3.5
100
AcDbArc
 50
0.0
 51
180.0
  0
LINE
  5
168
330
1F
100
AcDbEntity
  8
0
  6
SLD-Сплошная
 62
     7
370
    25
100
AcDbLine
 10
54.5432578856
 20
125.9803912509
 30
0.0
 11
59.1890283063
 21
125.9803912509
 31
0.0
  0
LINE
  5
169
330
1F
100
AcDbEntity
  8
0
  6
SLD-Сплошная
 62
     7
370
    25
100
AcDbLine
 10
54.1890283063
 20
125.9803912509
 30
0.0
 11
54.5432578856
 21
125.9803912509
 31
0.0
  0
LINE
  5
16A
330
1F
100
AcDbEntity
  8
0
  6
SLD-Сплошная
 62
     7
370
    25
100
AcDbLine
 10
65.4390283063
 20
111.5240502909
 30
0.0
 11
62.4390283063
 21
111.5240502909
 31
0.0
  0
LINE
  5
16B
330
1F
100
AcDbEntity
  8
0
  6
SLD-Сплошная
 62
     7
370
    25
100
AcDbLine
 10
65.4390283063
 20
117.0240502909
 30
0.0
 11
65.4390283063
 21
111.5240502909
 31
0.0
  0
LINE
  5
16C
330
1F
100
AcDbEntity
  8
0
  6
SLD-Сплошная
 62
     7
370
    25
100
AcDbLine
 10
47.9390283063
 20
117.0240502909
 30
0.0
 11
65.4390283063
 21
117.0240502909
 31
0.0
  0
LINE
  5
16D
330
1F
100
AcDbEntity
  8
0
  6
SLD-Сплошная
 62
     7
370
    25
100
AcDbLine
 10
47.9390283063
 20
111.5240502909
 30
0.0
 11
47.9390283063
 21
117.0240502909
 31
0.0
  0
LINE
  5
16E
330
1F
100
AcDbEntity
  8
0
  6
SLD-Сплошная
 62
     7
370
    25
100
AcDbLine
 10
50.9390283063
 20
111.5240502909
 30
0.0
 11
47.9390283063
 21
111.5240502909
 31
0.0
  0
LINE
  5
16F
330
1F
100
AcDbEntity
  8
0
  6
SLD-Сплошная
 62
     7
370
    25
100
AcDbLine
 10
50.9390283063
 20
109.3879509605
 30
0.0
 11
50.9390283063
 21
111.5240502909
 31
0.0
  0
ARC
  5
170
330
1F
100
AcDbEntity
  8
0
  6
SLD-Сплошная
 62
     7
370
    25
100
AcDbCircle
 10
56.6890283063
 20
146.4444955916
 30
0.0
 40
37.50000000000006
100
AcDbArc
 50
180.0
 51
261.1798521708
  0
ARC
  5
171
330
1F
100
AcDbEntity
  8
0
  6
SLD-Сплошная
 62
     7
370
    25
100
AcDbCircle
 10
56.6890283063
 20
146.4444955916
 30
0.0
 40
37.50000000000017
100
AcDbArc
 50
0.0
 51
180.0
  0
LINE
  5
172
330
1F
100
AcDbEntity
  8
0
  6
SLD-Сплошная
 62
     7
370
    25
100
AcDbLine
 10
62.4390283063
 20
111.5240502909
 30
0.0
 11
62.4390283063
 21
109.3879509605
 31
0.0
  0
LINE
  5
173
330
1F
100
AcDbEntity
  8
0
  6
SLD-Сплошная
 62
     7
370
    25
100
AcDbLine
 10
59.7890283063
 20
147.5944955916
 30
0.0
 11
53.5890283063
 21
147.5944955916
 31
0.0
  0
ARC
  5
174
330
1F
100
AcDbEntity
  8
0
  6
SLD-Сплошная
 62
     7
370
    25
100
AcDbCircle
 10
68.2322081435
 20
178.1591215432
 30
0.0
 40
2.150000000000006
100
AcDbArc
 50
0.0
 51
180.0
  0
ARC
  5
175
330
1F
100
AcDbEntity
  8
0
  6
SLD-Сплошная
 62
     7
370
    25
100
AcDbCircle
 10
68.2322081435
 20
178.1591215432
 30
0.0
 40
2.150000000000006
100
AcDbArc
 50
180.0
 51
0.0
  0
ARC
  5
176
330
1F
100
AcDbEntity
  8
0
  6
SLD-Сплошная
 62
     7
370
    25
100
AcDbCircle
 10
82.5430282615
 20
124.7504137647
 30
0.0
 40
2.150000000000006
100
AcDbArc
 50
0.0
 51
180.0
  0
ARC
  5
177
330
1F
100
AcDbEntity
  8
0
  6
SLD-Сплошная
 62
     7
370
    25
100
AcDbCircle
 10
82.5430282615
 20
124.7504137647
 30
0.0
 40
2.150000000000006
100
AcDbArc
 50
180.0
 51
0.0
  0
ARC
  5
178
330
1F
100
AcDbEntity
  8
0
  6
SLD-Сплошная
 62
     7
370
    25
100
AcDbCircle
 10
45.145848469
 20
178.1591215432
 30
0.0
 40
2.149999999999999
100
AcDbArc
 50
0.0
 51
180.0
  0
ARC
  5
179
330
1F
100
AcDbEntity
  8
0
  6
SLD-Сплошная
 62
     7
370
    25
100
AcDbCircle
 10
45.145848469
 20
178.1591215432
 30
0.0
 40
2.149999999999999
100
AcDbArc
 50
180.0
 51
0.0
  0
ARC
  5
17A
330
1F
100
AcDbEntity
  8
0
  6
SLD-Сплошная
 62
     7
370
    25
100
AcDbCircle
 10
39.0640283063
 20
150.4444955916
 30
0.0
 40
4.5
100
AcDbArc
 50
0.0
 51
180.0
  0
ARC
  5
17B
330
1F
100
AcDbEntity
  8
0
  6
SLD-Сплошная
 62
     7
370
    25
100
AcDbCircle
 10
39.0640283063
 20
150.4444955916
 30
0.0
 40
4.5
100
AcDbArc
 50
180.0
 51
0.0
  0
ARC
  5
17C
330
1F
100
AcDbEntity
  8
0
  6
SLD-Сплошная
 62
     7
370
    25
100
AcDbCircle
 10
56.6890283063
 20
163.9444955916
 30
0.0
 40
3.000000000000007
100
AcDbArc
 50
0.0
 51
180.0
  0
ARC
  5
17D
330
1F
100
AcDbEntity
  8
0
  6
SLD-Сплошная
 62
     7
370
    25
100
AcDbCircle
 10
56.6890283063
 20
163.9444955916
 30
0.0
 40
3.000000000000007
100
AcDbArc
 50
180.0
 51
0.0
  0
LINE
  5
17E
330
1F
100
AcDbEntity
  8
0
  6
SLD-Сплошная
 62
     7
370
    25
100
AcDbLine
 10
41.567174636
 20
167.6367112303
 30
0.0
 11
36.5608819765
 21
167.6367112303
 31
0.0
  0
ARC
  5
17F
330
1F
100
AcDbEntity
  8
0
  6
SLD-Сплошная
 62
     7
370
    25
100
AcDbCircle
 10
36.5608819765
 20
166.6367112303
 30
0.0
 40
1.0
100
AcDbArc
 50
90.0
 51
180.0
  0
LINE
  5
180
330
1F
100
AcDbEntity
  8
0
  6
SLD-Сплошная
 62
     7
370
    25
100
AcDbLine
 10
35.5608819765
 20
166.6367112303
 30
0.0
 11
35.5608819765
 21
157.6367112303
 31
0.0
  0
ARC
  5
181
330
1F
100
AcDbEntity
  8
0
  6
SLD-Сплошная
 62
     7
370
    25
100
AcDbCircle
 10
76.817174636
 20
166.6367112303
 30
0.0
 40
1.0
100
AcDbArc
 50
0.0
 51
90.0
  0
LINE
  5
182
330
1F
100
AcDbEntity
  8
0
  6
SLD-Сплошная
 62
     7
370
    25
100
AcDbLine
 10
76.817174636
 20
167.6367112303
 30
0.0
 11
71.8108819765
 21
167.6367112303
 31
0.0
  0
LINE
  5
183
330
1F
100
AcDbEntity
  8
0
  6
SLD-Сплошная
 62
     7
370
    25
100
AcDbLine
 10
77.817174636
 20
157.6367112303
 30
0.0
 11
77.817174636
 21
166.6367112303
 31
0.0
  0
LINE
  5
184
330
1F
100
AcDbEntity
  8
0
  6
SLD-Сплошная
 62
     7
370
    25
100
AcDbLine
 10
58.9390283063
 20
168.9632105666
 30
0.0
 11
58.9390283063
 21
173.4632105666
 31
0.0
  0
ARC
  5
185
330
1F
100
AcDbEntity
  8
0
  6
SLD-Сплошная
 62
     7
370
    25
100
AcDbCircle
 10
57.9390283063
 20
173.4632105666
 30
0.0
 40
1.000000000000007
100
AcDbArc
 50
0.0
 51
90.0
  0
LINE
  5
186
330
1F
100
AcDbEntity
  8
0
  6
SLD-Сплошная
 62
     7
370
    25
100
AcDbLine
 10
57.9390283063
 20
174.4632105666
 30
0.0
 11
55.4390283063
 21
174.4632105666
 31
0.0
  0
ARC
  5
187
330
1F
100
AcDbEntity
  8
0
  6
SLD-Сплошная
 62
     7
370
    25
100
AcDbCircle
 10
55.4390283063
 20
173.4632105666
 30
0.0
 40
1.000000000000007
100
AcDbArc
 50
90.0
 51
180.0
  0
LINE
  5
188
330
1F
100
AcDbEntity
  8
0
  6
SLD-Сплошная
 62
     7
370
    25
100
AcDbLine
 10
54.4390283063
 20
173.4632105666
 30
0.0
 11
54.4390283063
 21
168.9632105666
 31
0.0
  0
ARC
  5
189
330
1F
100
AcDbEntity
  8
0
  6
SLD-Сплошная
 62
     7
370
    25
100
AcDbCircle
 10
56.6890283063
 20
163.9444955916
 30
0.0
 40
5.49999999999997
100
AcDbArc
 50
65.852260083
 51
114.147739917
  0
ARC
  5
18A
330
1F
100
AcDbEntity
  8
0
  6
SLD-Сплошная
 62
     7
370
    25
100
AcDbCircle
 10
74.3140283063
 20
150.4444955916
 30
0.0
 40
4.500000000000199
100
AcDbArc
 50
0.0
 51
180.0
  0
ARC
  5
18B
330
1F
100
AcDbEntity
  8
0
  6
SLD-Сплошная
 62
     7
370
    25
100
AcDbCircle
 10
74.3140283063
 20
150.4444955916
 30
0.0
 40
4.500000000000199
100
AcDbArc
 50
180.0
 51
0.0
  0
ARC
  5
18C
330
1F
100
AcDbEntity
  8
0
  6
SLD-Сплошная
 62
     7
370
    25
100
AcDbCircle
 10
30.835028351
 20
124.7504137647
 30
0.0
 40
2.150000000000002
100
AcDbArc
 50
0.0
 51
180.0
  0
ARC
  5
18D
330
1F
100
AcDbEntity
  8
0
  6
SLD-Сплошная
 62
     7
370
    25
100
AcDbCircle
 10
30.835028351
 20
124.7504137647
 30
0.0
 40
2.150000000000002
100
AcDbArc
 50
180.0
 51
0.0
  0
ARC
  5
18E
330
1F
100
AcDbEntity
  8
0
  6
SLD-Сплошная
 62
     7
370
    25
100
AcDbCircle
 10
56.6890283063
 20
146.4444955916
 30
0.0
 40
37.50000000000017
100
AcDbArc
 50
278.8201478292
 51
0.0
  0
LINE
  5
18F
330
1F
100
AcDbEntity
  8
0
  6
SLD-Сплошная
 62
     7
370
    25
100
AcDbLine
 10
42.567174636
 20
157.6367112303
 30
0.0
 11
42.567174636
 21
166.6367112303
 31
0.0
  0
ARC
  5
190
330
1F
100
AcDbEntity
  8
0
  6
SLD-Сплошная
 62
     7
370
    25
100
AcDbCircle
 10
41.567174636
 20
166.6367112303
 30
0.0
 40
1.000000000000007
100
AcDbArc
 50
0.0
 51
90.0
  0
ARC
  5
191
330
1F
100
AcDbEntity
  8
0
  6
SLD-Сплошная
 62
     7
370
    25
100
AcDbCircle
 10
39.0640283063
 20
150.4444955916
 30
0.0
 40
8.000000000000071
100
AcDbArc
 50
64.0304581007
 51
115.9695418993
  0
LINE
  5
192
330
1F
100
AcDbEntity
  8
0
  6
SLD-Сплошная
 62
     7
370
    25
100
AcDbLine
 10
70.8108819765
 20
166.6367112303
 30
0.0
 11
70.8108819765
 21
157.6367112303
 31
0.0
  0
ARC
  5
193
330
1F
100
AcDbEntity
  8
0
  6
SLD-Сплошная
 62
     7
370
    25
100
AcDbCircle
 10
71.8108819765
 20
166.6367112303
 30
0.0
 40
1.000000000000014
100
AcDbArc
 50
90.0
 51
180.0
  0
ARC
  5
194
330
1F
100
AcDbEntity
  8
0
  6
SLD-Сплошная
 62
     7
370
    25
100
AcDbCircle
 10
74.3140283063
 20
150.4444955916
 30
0.0
 40
8.00000000000008
100
AcDbArc
 50
64.0304581007
 51
115.9695418993
  0
LINE
  5
195
330
1F
100
AcDbEntity
  8
0
  6
SLD-Сплошная
 62
     7
370
    25
100
AcDbLine
 10
53.5890283063
 20
147.5944955916
 30
0.0
 11
53.5890283063
 21
146.5944955916
 31
0.0
  0
LINE
  5
196
330
1F
100
AcDbEntity
  8
0
  6
SLD-Сплошная
 62
     7
370
    25
100
AcDbLine
 10
59.7890283063
 20
147.5944955916
 30
0.0
 11
59.7890283063
 21
146.5944955916
 31
0.0
  0
ARC
  5
197
330
1F
100
AcDbEntity
  8
0
  6
SLD-Сплошная
 62
     7
370
    25
100
AcDbCircle
 10
74.317174636
 20
150.3679431648
 30
0.0
 40
3.5
100
AcDbArc
 50
180.0
 51
0.0
  0
ARC
  5
198
330
1F
100
AcDbEntity
  8
0
  6
SLD-Сплошная
 62
     7
370
    25
100
AcDbCircle
 10
74.317174636
 20
150.3679431648
 30
0.0
 40
3.5
100
AcDbArc
 50
0.0
 51
180.0
  0
ARC
  5
199
330
1F
100
AcDbEntity
  8
0
  6
SLD-Сплошная
 62
     7
370
    25
100
AcDbCircle
 10
39.0608819765
 20
150.3679431648
 30
0.0
 40
3.5
100
AcDbArc
 50
180.0
 51
0.0
  0
ARC
  5
19A
330
1F
100
AcDbEntity
  8
0
  6
SLD-Сплошная
 62
     7
370
    25
100
AcDbCircle
 10
39.0608819765
 20
150.3679431648
 30
0.0
 40
3.5
100
AcDbArc
 50
0.0
 51
180.0
  0
LINE
  5
19B
330
1F
100
AcDbEntity
  8
0
  6
SLD-Сплошная
 62
     7
370
    25
100
AcDbLine
 10
70.867174636
 20
161.4066757421
 30
0.0
 11
70.867174636
 21
164.7066757421
 31
0.0
  0
LINE
  5
19C
330
1F
100
AcDbEntity
  8
0
  6
SLD-Сплошная
 62
     7
370
    25
100
AcDbLine
 10
77.3223750868
 20
162.9066757421
 30
0.0
 11
77.3223750868
 21
164.7066757421
 31
0.0
  0
LINE
  5
19D
330
1F
100
AcDbEntity
  8
0
  6
SLD-Сплошная
 62
     7
370
    25
100
AcDbLine
 10
77.3223750868
 20
162.9066757421
 30
0.0
 11
77.748253402
 21
162.9066757421
 31
0.0
  0
LINE
  5
19E
330
1F
100
AcDbEntity
  8
0
  6
SLD-Сплошная
 62
     7
370
    25
100
AcDbLine
 10
77.748253402
 20
164.7066757421
 30
0.0
 11
77.748253402
 21
162.9066757421
 31
0.0
  0
LINE
  5
19F
330
1F
100
AcDbEntity
  8
0
  6
SLD-Сплошная
 62
     7
370
    25
100
AcDbLine
 10
77.748253402
 20
164.7066757421
 30
0.0
 11
77.767174636
 21
164.7066757421
 31
0.0
  0
LINE
  5
1A0
330
1F
100
AcDbEntity
  8
0
  6
SLD-Сплошная
 62
     7
370
    25
100
AcDbLine
 10
77.767174636
 20
161.4066757421
 30
0.0
 11
77.767174636
 21
164.7066757421
 31
0.0
  0
LINE
  5
1A1
330
1F
100
AcDbEntity
  8
0
  6
SLD-Сплошная
 62
     7
370
    25
100
AcDbLine
 10
70.867174636
 20
164.7066757421
 30
0.0
 11
77.3223750868
 21
164.7066757421
 31
0.0
  0
LINE
  5
1A2
330
1F
100
AcDbEntity
  8
0
  6
SLD-Сплошная
 62
     7
370
    25
100
AcDbLine
 10
70.867174636
 20
161.4066757421
 30
0.0
 11
77.767174636
 21
161.4066757421
 31
0.0
  0
LINE
  5
1A3
330
1F
100
AcDbEntity
  8
0
  6
SLD-Сплошная
 62
     7
370
    25
100
AcDbLine
 10
35.6108819765
 20
161.4066757421
 30
0.0
 11
35.6108819765
 21
164.7066757421
 31
0.0
  0
LINE
  5
1A4
330
1F
100
AcDbEntity
  8
0
  6
SLD-Сплошная
 62
     7
370
    25
100
AcDbLine
 10
35.6108819765
 20
164.7066757421
 30
0.0
 11
42.0660824272
 21
164.7066757421
 31
0.0
  0
LINE
  5
1A5
330
1F
100
AcDbEntity
  8
0
  6
SLD-Сплошная
 62
     7
370
    25
100
AcDbLine
 10
42.0660824272
 20
162.9066757421
 30
0.0
 11
42.0660824272
 21
164.7066757421
 31
0.0
  0
LINE
  5
1A6
330
1F
100
AcDbEntity
  8
0
  6
SLD-Сплошная
 62
     7
370
    25
100
AcDbLine
 10
42.0660824272
 20
162.9066757421
 30
0.0
 11
42.4919607425
 21
162.9066757421
 31
0.0
  0
LINE
  5
1A7
330
1F
100
AcDbEntity
  8
0
  6
SLD-Сплошная
 62
     7
370
    25
100
AcDbLine
 10
42.4919607425
 20
164.7066757421
 30
0.0
 11
42.4919607425
 21
162.9066757421
 31
0.0
  0
LINE
  5
1A8
330
1F
100
AcDbEntity
  8
0
  6
SLD-Сплошная
 62
     7
370
    25
100
AcDbLine
 10
42.4919607425
 20
164.7066757421
 30
0.0
 11
42.5108819765
 21
164.7066757421
 31
0.0
  0
LINE
  5
1A9
330
1F
100
AcDbEntity
  8
0
  6
SLD-Сплошная
 62
     7
370
    25
100
AcDbLine
 10
42.5108819765
 20
161.4066757421
 30
0.0
 11
42.5108819765
 21
164.7066757421
 31
0.0
  0
LINE
  5
1AA
330
1F
100
AcDbEntity
  8
0
  6
SLD-Сплошная
 62
     7
370
    25
100
AcDbLine
 10
35.6108819765
 20
161.4066757421
 30
0.0
 11
42.5108819765
 21
161.4066757421
 31
0.0
  0
LINE
  5
1AB
330
1F
100
AcDbEntity
  8
0
  6
SLD-Сплошная
 62
     7
370
    25
100
AcDbLine
 10
71.817174636
 20
151.4066757421
 30
0.0
 11
76.6986960669
 21
151.4066757421
 31
0.0
  0
LINE
  5
1AC
330
1F
100
AcDbEntity
  8
0
  6
SLD-Сплошная
 62
     7
370
    25
100
AcDbLine
 10
36.5608819765
 20
151.4066757421
 30
0.0
 11
41.4424034074
 21
151.4066757421
 31
0.0
  0
ARC
  5
1AD
330
1F
100
AcDbEntity
  8
0
  6
SLD-Сплошная
 62
     7
370
    25
100
AcDbCircle
 10
56.6890283063
 20
163.8944955916
 30
0.0
 40
2.0
100
AcDbArc
 50
90.0
 51
270.0
  0
ARC
  5
1AE
330
1F
100
AcDbEntity
  8
0
  6
SLD-Сплошная
 62
     7
370
    25
100
AcDbCircle
 10
56.6890283063
 20
163.8944955916
 30
0.0
 40
2.0
100
AcDbArc
 50
270.0
 51
90.0
  0
LINE
  5
1AF
330
1F
100
AcDbEntity
  8
0
  6
SLD-Сплошная
 62
     7
370
    25
100
AcDbLine
 10
41.4424034074
 20
151.4066757421
 30
0.0
 11
41.5608819765
 21
151.4066757421
 31
0.0
  0
LINE
  5
1B0
330
1F
100
AcDbEntity
  8
0
  6
SLD-Сплошная
 62
     7
370
    25
100
AcDbLine
 10
76.6986960669
 20
151.4066757421
 30
0.0
 11
76.817174636
 21
151.4066757421
 31
0.0
  0
LINE
  5
1B1
330
1F
100
AcDbEntity
  8
0
  6
SLD-Сплошная
 62
     7
370
    25
100
AcDbLine
 10
77.748253402
 20
164.7066757421
 30
0.0
 11
77.3223750868
 21
164.7066757421
 31
0.0
  0
LINE
  5
1B2
330
1F
100
AcDbEntity
  8
0
  6
SLD-Сплошная
 62
     7
370
    25
100
AcDbLine
 10
42.4919607425
 20
164.7066757421
 30
0.0
 11
42.0660824272
 21
164.7066757421
 31
0.0
  0
LINE
  5
1B3
330
1F
100
AcDbEntity
  8
0
  6
SLD-Сплошная
 62
     7
370
    25
100
AcDbLine
 10
56.6890283063
 20
171.6944955916
 30
0.0
 11
58.8890283063
 21
171.6944955916
 31
0.0
  0
LINE
  5
1B4
330
1F
100
AcDbEntity
  8
0
  6
SLD-Сплошная
 62
     7
370
    25
100
AcDbLine
 10
56.6890283063
 20
169.6944955916
 30
0.0
 11
58.8890283063
 21
169.6944955916
 31
0.0
  0
LINE
  5
1B5
330
1F
100
AcDbEntity
  8
0
  6
SLD-Сплошная
 62
     7
370
    25
100
AcDbLine
 10
54.4890283063
 20
171.6944955916
 30
0.0
 11
54.7577764357
 21
171.6944955916
 31
0.0
  0
LINE
  5
1B6
330
1F
100
AcDbEntity
  8
0
  6
SLD-Сплошная
 62
     7
370
    25
100
AcDbLine
 10
54.7577764357
 20
170.5944955916
 30
0.0
 11
54.7577764357
 21
171.6944955916
 31
0.0
  0
LINE
  5
1B7
330
1F
100
AcDbEntity
  8
0
  6
SLD-Сплошная
 62
     7
370
    25
100
AcDbLine
 10
54.7577764357
 20
170.5944955916
 30
0.0
 11
55.3413210395
 21
170.5944955916
 31
0.0
  0
LINE
  5
1B8
330
1F
100
AcDbEntity
  8
0
  6
SLD-Сплошная
 62
     7
370
    25
100
AcDbLine
 10
55.3413210395
 20
171.6944955916
 30
0.0
 11
55.3413210395
 21
170.5944955916
 31
0.0
  0
LINE
  5
1B9
330
1F
100
AcDbEntity
  8
0
  6
SLD-Сплошная
 62
     7
370
    25
100
AcDbLine
 10
55.3413210395
 20
171.6944955916
 30
0.0
 11
56.6890283063
 21
171.6944955916
 31
0.0
  0
LINE
  5
1BA
330
1F
100
AcDbEntity
  8
0
  6
SLD-Сплошная
 62
     7
370
    25
100
AcDbLine
 10
54.4890283063
 20
169.6944955916
 30
0.0
 11
56.6890283063
 21
169.6944955916
 31
0.0
  0
LINE
  5
1BB
330
1F
100
AcDbEntity
  8
0
  6
SLD-Сплошная
 62
     7
370
    25
100
AcDbLine
 10
55.5470566981
 20
163.6944955916
 30
0.0
 11
58.1890283063
 21
163.6944955916
 31
0.0
  0
LINE
  5
1BC
330
1F
100
AcDbEntity
  8
0
  6
SLD-Сплошная
 62
     7
370
    25
100
AcDbLine
 10
55.3413210395
 20
171.6944955916
 30
0.0
 11
54.7577764357
 21
171.6944955916
 31
0.0
  0
LINE
  5
1BD
330
1F
100
AcDbEntity
  8
0
  6
SLD-Сплошная
 62
     7
370
    25
100
AcDbLine
 10
55.1890283063
 20
163.6944955916
 30
0.0
 11
55.5470566981
 21
163.6944955916
 31
0.0
  0
ARC
  5
1BE
330
1F
100
AcDbEntity
  8
0
  6
SLD-Сплошная
 62
     7
370
    25
100
AcDbCircle
 10
56.6890283063
 20
146.4444955916
 30
0.0
 40
37.50000000000004
100
AcDbArc
 50
261.1798521708
 51
278.8201478292
  0
LINE
  5
1BF
330
1F
100
AcDbEntity
  8
0
  6
SLD-Сплошная
 62
     7
370
    25
100
AcDbLine
 10
58.5390283063
 20
174.2632105666
 30
0.0
 11
58.5390283063
 21
174.1828715355
 31
0.0
  0
ARC
  5
1C0
330
1F
100
AcDbEntity
  8
0
  6
SLD-Сплошная
 62
     7
370
    25
100
AcDbCircle
 10
56.6890283063
 20
146.4444955916
 30
0.0
 40
27.79999999999999
100
AcDbArc
 50
86.1843315584
 51
93.8156684416
  0
LINE
  5
1C1
330
1F
100
AcDbEntity
  8
0
  6
SLD-Сплошная
 62
     7
370
    25
100
AcDbLine
 10
54.8390283063
 20
174.1828715355
 30
0.0
 11
54.8390283063
 21
174.2632105666
 31
0.0
  0
LWPOLYLINE
  5
1C2
330
1F
100
AcDbEntity
  8
0
  6
SLD-Сплошная
 62
     7
370
    25
100
AcDbPolyline
 90
        3
 70
   128
 43
0.0
 10
42.5608819765
 20
160.6882067796
 10
41.709902663
 20
160.9591692728
 10
41.5608819765
 20
160.9982747612
  0
LWPOLYLINE
  5
1C3
330
1F
100
AcDbEntity
  8
0
  6
SLD-Сплошная
 62
     7
370
    25
100
AcDbPolyline
 90
        3
 70
   128
 43
0.0
 10
36.5608819765
 20
160.9982747612
 10
36.41186129
 20
160.9591692728
 10
35.5608819765
 20
160.6882067796
  0
LWPOLYLINE
  5
1C4
330
1F
100
AcDbEntity
  8
0
  6
SLD-Сплошная
 62
     7
370
    25
100
AcDbPolyline
 90
        3
 70
   128
 43
0.0
 10
77.817174636
 20
160.6882067796
 10
76.9661953225
 20
160.9591692728
 10
76.817174636
 20
160.9982747612
  0
LWPOLYLINE
  5
1C5
330
1F
100
AcDbEntity
  8
0
  6
SLD-Сплошная
 62
     7
370
    25
100
AcDbPolyline
 90
        3
 70
   128
 43
0.0
 10
71.817174636
 20
160.9982747612
 10
71.6681539496
 20
160.9591692728
 10
70.817174636
 20
160.6882067796
  0
ARC
  5
1C6
330
1F
100
AcDbEntity
  8
0
  6
SLD-Сплошная
 62
     7
370
    25
100
AcDbCircle
 10
56.6890283063
 20
101.9444955916
 30
0.0
 40
4.000000000000021
100
AcDbArc
 50
0.0
 51
180.0
  0
ARC
  5
1C7
330
1F
100
AcDbEntity
  8
0
  6
SLD-Сплошная
 62
     7
370
    25
100
AcDbCircle
 10
56.6890283063
 20
101.9444955916
 30
0.0
 40
4.000000000000021
100
AcDbArc
 50
180.0
 51
0.0
  0
ARC
  5
1C8
330
1F
100
AcDbEntity
  8
0
  6
SLD-Сплошная
 62
     7
370
    25
100
AcDbCircle
 10
56.6890283063
 20
190.9444955916
 30
0.0
 40
4.000000000000021
100
AcDbArc
 50
0.0
 51
180.0
  0
ARC
  5
1C9
330
1F
100
AcDbEntity
  8
0
  6
SLD-Сплошная
 62
     7
370
    25
100
AcDbCircle
 10
56.6890283063
 20
190.9444955916
 30
0.0
 40
4.000000000000021
100
AcDbArc
 50
180.0
 51
0.0
  0
ARC
  5
1CA
330
1F
100
AcDbEntity
  8
0
  6
SLD-Сплошная
 62
     7
370
    25
100
AcDbCircle
 10
12.1890283063
 20
146.4444955916
 30
0.0
 40
4.000000000000004
100
AcDbArc
 50
0.0
 51
180.0
  0
ARC
  5
1CB
330
1F
100
AcDbEntity
  8
0
  6
SLD-Сплошная
 62
     7
370
    25
100
AcDbCircle
 10
12.1890283063
 20
146.4444955916
 30
0.0
 40
4.000000000000004
100
AcDbArc
 50
180.0
 51
0.0
  0
ARC
  5
1CC
330
1F
100
AcDbEntity
  8
0
  6
SLD-Сплошная
 62
     7
370
    25
100
AcDbCircle
 10
101.1890283063
 20
146.4444955916
 30
0.0
 40
4.0
100
AcDbArc
 50
0.0
 51
180.0
  0
ARC
  5
1CD
330
1F
100
AcDbEntity
  8
0
  6
SLD-Сплошная
 62
     7
370
    25
100
AcDbCircle
 10
101.1890283063
 20
146.4444955916
 30
0.0
 40
4.0
100
AcDbArc
 50
180.0
 51
0.0
  0
ARC
  5
1CE
330
1F
100
AcDbEntity
  8
0
  6
SLD-Сплошная
 62
     7
370
    25
100
AcDbCircle
 10
56.6890283063
 20
146.4444955916
 30
0.0
 40
50.10000000000001
100
AcDbArc
 50
180.0
 51
0.0
  0
ARC
  5
1CF
330
1F
100
AcDbEntity
  8
0
  6
SLD-Сплошная
 62
     7
370
    25
100
AcDbCircle
 10
56.6890283063
 20
146.4444955916
 30
0.0
 40
50.10000000000001
100
AcDbArc
 50
0.0
 51
180.0
  0
ARC
  5
1D0
330
1F
100
AcDbEntity
  8
0
  6
SLD-Сплошная
 62
     7
370
    25
100
AcDbCircle
 10
110.1890283063
 20
92.9444955916
 30
0.0
 40
5.000000000000014
100
AcDbArc
 50
270.0
 51
0.0
  0
LINE
  5
1D1
330
1F
100
AcDbEntity
  8
0
  6
SLD-Сплошная
 62
     7
370
    25
100
AcDbLine
 10
3.1890283063
 20
87.9444955916
 30
0.0
 11
110.1890283063
 21
87.9444955916
 31
0.0
  0
ARC
  5
1D2
330
1F
100
AcDbEntity
  8
0
  6
SLD-Сплошная
 62
     7
370
    25
100
AcDbCircle
 10
3.1890283063
 20
92.9444955916
 30
0.0
 40
5.000000000000004
100
AcDbArc
 50
180.0
 51
270.0
  0
LINE
  5
1D3
330
1F
100
AcDbEntity
  8
0
  6
SLD-Сплошная
 62
     7
370
    25
100
AcDbLine
 10
-1.8109716937
 20
199.9444955916
 30
0.0
 11
-1.8109716937
 21
92.9444955916
 31
0.0
  0
ARC
  5
1D4
330
1F
100
AcDbEntity
  8
0
  6
SLD-Сплошная
 62
     7
370
    25
100
AcDbCircle
 10
3.1890283063
 20
199.9444955916
 30
0.0
 40
5.000000000000004
100
AcDbArc
 50
90.0
 51
180.0
  0
LINE
  5
1D5
330
1F
100
AcDbEntity
  8
0
  6
SLD-Сплошная
 62
     7
370
    25
100
AcDbLine
 10
110.1890283063
 20
204.9444955916
 30
0.0
 11
3.1890283063
 21
204.9444955916
 31
0.0
  0
ARC
  5
1D6
330
1F
100
AcDbEntity
  8
0
  6
SLD-Сплошная
 62
     7
370
    25
100
AcDbCircle
 10
110.1890283063
 20
199.9444955916
 30
0.0
 40
5.000000000000014
100
AcDbArc
 50
0.0
 51
90.0
  0
LINE
  5
1D7
330
1F
100
AcDbEntity
  8
0
  6
SLD-Сплошная
 62
     7
370
    25
100
AcDbLine
 10
115.1890283063
 20
92.9444955916
 30
0.0
 11
115.1890283063
 21
199.9444955916
 31
0.0
  0
LINE
  5
1D8
330
1F
100
AcDbEntity
  8
0
  6
SLD-Сплошная
 62
     7
370
    25
100
AcDbLine
 10
3.1890283063
 20
202.9444955916
 30
0.0
 11
110.1890283063
 21
202.9444955916
 31
0.0
  0
ARC
  5
1D9
330
1F
100
AcDbEntity
  8
0
  6
SLD-Сплошная
 62
     7
370
    25
100
AcDbCircle
 10
110.1890283063
 20
199.9444955916
 30
0.0
 40
3.000000000000014
100
AcDbArc
 50
0.0
 51
90.0
  0
LINE
  5
1DA
330
1F
100
AcDbEntity
  8
0
  6
SLD-Сплошная
 62
     7
370
    25
100
AcDbLine
 10
113.1890283063
 20
199.9444955916
 30
0.0
 11
113.1890283063
 21
92.9444955916
 31
0.0
  0
ARC
  5
1DB
330
1F
100
AcDbEntity
  8
0
  6
SLD-Сплошная
 62
     7
370
    25
100
AcDbCircle
 10
110.1890283063
 20
92.9444955916
 30
0.0
 40
3.000000000000014
100
AcDbArc
 50
270.0
 51
0.0
  0
LINE
  5
1DC
330
1F
100
AcDbEntity
  8
0
  6
SLD-Сплошная
 62
     7
370
    25
100
AcDbLine
 10
110.1890283063
 20
89.9444955916
 30
0.0
 11
3.1890283063
 21
89.9444955916
 31
0.0
  0
ARC
  5
1DD
330
1F
100
AcDbEntity
  8
0
  6
SLD-Сплошная
 62
     7
370
    25
100
AcDbCircle
 10
3.1890283063
 20
92.9444955916
 30
0.0
 40
3.000000000000003
100
AcDbArc
 50
180.0
 51
270.0
  0
LINE
  5
1DE
330
1F
100
AcDbEntity
  8
0
  6
SLD-Сплошная
 62
     7
370
    25
100
AcDbLine
 10
0.1890283063
 20
92.9444955916
 30
0.0
 11
0.1890283063
 21
199.9444955916
 31
0.0
  0
ARC
  5
1DF
330
1F
100
AcDbEntity
  8
0
  6
SLD-Сплошная
 62
     7
370
    25
100
AcDbCircle
 10
3.1890283063
 20
199.9444955916
 30
0.0
 40
3.000000000000003
100
AcDbArc
 50
90.0
 51
180.0
  0
ARC
  5
1E0
330
1F
100
AcDbEntity
  8
0
  6
SLD-Сплошная
 62
     7
370
    25
100
AcDbCircle
 10
105.1890283063
 20
194.9444955916
 30
0.0
 40
2.100000000000009
100
AcDbArc
 50
180.0
 51
0.0
  0
ARC
  5
1E1
330
1F
100
AcDbEntity
  8
0
  6
SLD-Сплошная
 62
     7
370
    25
100
AcDbCircle
 10
105.1890283063
 20
194.9444955916
 30
0.0
 40
2.100000000000009
100
AcDbArc
 50
0.0
 51
180.0
  0
ARC
  5
1E2
330
1F
100
AcDbEntity
  8
0
  6
SLD-Сплошная
 62
     7
370
    25
100
AcDbCircle
 10
8.1890283063
 20
194.9444955916
 30
0.0
 40
2.100000000000005
100
AcDbArc
 50
180.0
 51
0.0
  0
ARC
  5
1E3
330
1F
100
AcDbEntity
  8
0
  6
SLD-Сплошная
 62
     7
370
    25
100
AcDbCircle
 10
8.1890283063
 20
194.9444955916
 30
0.0
 40
2.100000000000005
100
AcDbArc
 50
0.0
 51
180.0
  0
ARC
  5
1E4
330
1F
100
AcDbEntity
  8
0
  6
SLD-Сплошная
 62
     7
370
    25
100
AcDbCircle
 10
8.1890283063
 20
97.9444955916
 30
0.0
 40
2.100000000000005
100
AcDbArc
 50
180.0
 51
0.0
  0
ARC
  5
1E5
330
1F
100
AcDbEntity
  8
0
  6
SLD-Сплошная
 62
     7
370
    25
100
AcDbCircle
 10
8.1890283063
 20
97.9444955916
 30
0.0
 40
2.100000000000005
100
AcDbArc
 50
0.0
 51
180.0
  0
ARC
  5
1E6
330
1F
100
AcDbEntity
  8
0
  6
SLD-Сплошная
 62
     7
370
    25
100
AcDbCircle
 10
105.1890283063
 20
97.9444955916
 30
0.0
 40
2.100000000000009
100
AcDbArc
 50
180.0
 51
0.0
  0
ARC
  5
1E7
330
1F
100
AcDbEntity
  8
0
  6
SLD-Сплошная
 62
     7
370
    25
100
AcDbCircle
 10
105.1890283063
 20
97.9444955916
 30
0.0
 40
2.100000000000009
100
AcDbArc
 50
0.0
 51
180.0
  0
LINE
  5
1E8
330
1F
100
AcDbEntity
  8
0
  6
SLD-Сплошная
 62
     7
370
    25
100
AcDbLine
 10
20.1890283063
 20
196.9444955916
 30
0.0
 11
93.1890283063
 21
196.9444955916
 31
0.0
  0
ARC
  5
1E9
330
1F
100
AcDbEntity
  8
0
  6
SLD-Сплошная
 62
     7
370
    25
100
AcDbCircle
 10
20.1890283063
 20
193.9444955916
 30
0.0
 40
3.000000000000028
100
AcDbArc
 50
90.0
 51
180.0
  0
LINE
  5
1EA
330
1F
100
AcDbEntity
  8
0
  6
SLD-Сплошная
 62
     7
370
    25
100
AcDbLine
 10
17.1890283063
 20
188.9444955916
 30
0.0
 11
17.1890283063
 21
193.9444955916
 31
0.0
  0
ARC
  5
1EB
330
1F
100
AcDbEntity
  8
0
  6
SLD-Сплошная
 62
     7
370
    25
100
AcDbCircle
 10
14.1890283063
 20
188.9444955916
 30
0.0
 40
3.000000000000004
100
AcDbArc
 50
270.0
 51
0.0
  0
LINE
  5
1EC
330
1F
100
AcDbEntity
  8
0
  6
SLD-Сплошная
 62
     7
370
    25
100
AcDbLine
 10
9.1890283063
 20
185.9444955916
 30
0.0
 11
14.1890283063
 21
185.9444955916
 31
0.0
  0
ARC
  5
1ED
330
1F
100
AcDbEntity
  8
0
  6
SLD-Сплошная
 62
     7
370
    25
100
AcDbCircle
 10
9.1890283063
 20
182.9444955916
 30
0.0
 40
3.000000000000003
100
AcDbArc
 50
90.0
 51
180.0
  0
LINE
  5
1EE
330
1F
100
AcDbEntity
  8
0
  6
SLD-Сплошная
 62
     7
370
    25
100
AcDbLine
 10
6.1890283063
 20
109.9444955916
 30
0.0
 11
6.1890283063
 21
182.9444955916
 31
0.0
  0
ARC
  5
1EF
330
1F
100
AcDbEntity
  8
0
  6
SLD-Сплошная
 62
     7
370
    25
100
AcDbCircle
 10
9.1890283063
 20
109.9444955916
 30
0.0
 40
3.000000000000003
100
AcDbArc
 50
180.0
 51
270.0
  0
LINE
  5
1F0
330
1F
100
AcDbEntity
  8
0
  6
SLD-Сплошная
 62
     7
370
    25
100
AcDbLine
 10
14.1890283063
 20
106.9444955916
 30
0.0
 11
9.1890283063
 21
106.9444955916
 31
0.0
  0
ARC
  5
1F1
330
1F
100
AcDbEntity
  8
0
  6
SLD-Сплошная
 62
     7
370
    25
100
AcDbCircle
 10
14.1890283063
 20
103.9444955916
 30
0.0
 40
3.000000000000004
100
AcDbArc
 50
0.0
 51
90.0
  0
LINE
  5
1F2
330
1F
100
AcDbEntity
  8
0
  6
SLD-Сплошная
 62
     7
370
    25
100
AcDbLine
 10
17.1890283063
 20
98.9444955916
 30
0.0
 11
17.1890283063
 21
103.9444955916
 31
0.0
  0
ARC
  5
1F3
330
1F
100
AcDbEntity
  8
0
  6
SLD-Сплошная
 62
     7
370
    25
100
AcDbCircle
 10
20.1890283063
 20
98.9444955916
 30
0.0
 40
3.000000000000004
100
AcDbArc
 50
180.0
 51
270.0
  0
LINE
  5
1F4
330
1F
100
AcDbEntity
  8
0
  6
SLD-Сплошная
 62
     7
370
    25
100
AcDbLine
 10
93.1890283063
 20
95.9444955916
 30
0.0
 11
20.1890283063
 21
95.9444955916
 31
0.0
  0
ARC
  5
1F5
330
1F
100
AcDbEntity
  8
0
  6
SLD-Сплошная
 62
     7
370
    25
100
AcDbCircle
 10
93.1890283063
 20
98.9444955916
 30
0.0
 40
3.000000000000014
100
AcDbArc
 50
270.0
 51
0.0
  0
LINE
  5
1F6
330
1F
100
AcDbEntity
  8
0
  6
SLD-Сплошная
 62
     7
370
    25
100
AcDbLine
 10
96.1890283063
 20
103.9444955916
 30
0.0
 11
96.1890283063
 21
98.9444955916
 31
0.0
  0
ARC
  5
1F7
330
1F
100
AcDbEntity
  8
0
  6
SLD-Сплошная
 62
     7
370
    25
100
AcDbCircle
 10
99.1890283063
 20
103.9444955916
 30
0.0
 40
3.0
100
AcDbArc
 50
90.0
 51
180.0
  0
LINE
  5
1F8
330
1F
100
AcDbEntity
  8
0
  6
SLD-Сплошная
 62
     7
370
    25
100
AcDbLine
 10
104.1890283063
 20
106.9444955916
 30
0.0
 11
99.1890283063
 21
106.9444955916
 31
0.0
  0
ARC
  5
1F9
330
1F
100
AcDbEntity
  8
0
  6
SLD-Сплошная
 62
     7
370
    25
100
AcDbCircle
 10
104.1890283063
 20
109.9444955916
 30
0.0
 40
3.000000000000057
100
AcDbArc
 50
270.0
 51
0.0
  0
LINE
  5
1FA
330
1F
100
AcDbEntity
  8
0
  6
SLD-Сплошная
 62
     7
370
    25
100
AcDbLine
 10
107.1890283063
 20
182.9444955916
 30
0.0
 11
107.1890283063
 21
109.9444955916
 31
0.0
  0
ARC
  5
1FB
330
1F
100
AcDbEntity
  8
0
  6
SLD-Сплошная
 62
     7
370
    25
100
AcDbCircle
 10
104.1890283063
 20
182.9444955916
 30
0.0
 40
3.0
100
AcDbArc
 50
0.0
 51
90.0
  0
LINE
  5
1FC
330
1F
100
AcDbEntity
  8
0
  6
SLD-Сплошная
 62
     7
370
    25
100
AcDbLine
 10
99.1890283063
 20
185.9444955916
 30
0.0
 11
104.1890283063
 21
185.9444955916
 31
0.0
  0
ARC
  5
1FD
330
1F
100
AcDbEntity
  8
0
  6
SLD-Сплошная
 62
     7
370
    25
100
AcDbCircle
 10
99.1890283063
 20
188.9444955916
 30
0.0
 40
3.0
100
AcDbArc
 50
180.0
 51
270.0
  0
LINE
  5
1FE
330
1F
100
AcDbEntity
  8
0
  6
SLD-Сплошная
 62
     7
370
    25
100
AcDbLine
 10
96.1890283063
 20
193.9444955916
 30
0.0
 11
96.1890283063
 21
188.9444955916
 31
0.0
  0
ARC
  5
1FF
330
1F
100
AcDbEntity
  8
0
  6
SLD-Сплошная
 62
     7
370
    25
100
AcDbCircle
 10
93.1890283063
 20
193.9444955916
 30
0.0
 40
3.000000000000028
100
AcDbArc
 50
0.0
 51
90.0
  0
LINE
  5
200
330
1F
100
AcDbEntity
  8
0
  6
SLD-Сплошная
 62
     7
370
    25
100
AcDbLine
 10
391.6510886311
 20
202.9444955916
 30
0.0
 11
384.6678279272
 21
202.9444955916
 31
0.0
  0
LINE
  5
201
330
1F
100
AcDbEntity
  8
0
  6
SLD-Сплошная
 62
     7
370
    25
100
AcDbLine
 10
377.7417361492
 20
202.9444955916
 30
0.0
 11
371.6510886311
 21
202.9444955916
 31
0.0
  0
LINE
  5
202
330
1F
100
AcDbEntity
  8
0
  6
SLD-Сплошная
 62
     7
370
    25
100
AcDbLine
 10
392.1510886311
 20
203.2320632654
 30
0.0
 11
397.1510886311
 21
203.2320632654
 31
0.0
  0
LINE
  5
203
330
1F
100
AcDbEntity
  8
0
  6
SLD-Сплошная
 62
     7
370
    25
100
AcDbLine
 10
397.1510886311
 20
203.2320632654
 30
0.0
 11
397.1510886311
 21
200.2566689354
 31
0.0
  0
LINE
  5
204
330
1F
100
AcDbEntity
  8
0
  6
SLD-Сплошная
 62
     7
370
    25
100
AcDbLine
 10
392.1510886311
 20
201.4513133508
 30
0.0
 11
392.1510886311
 21
203.2320632654
 31
0.0
  0
LINE
  5
205
330
1F
100
AcDbEntity
  8
0
  6
SLD-Сплошная
 62
     7
370
    25
100
AcDbLine
 10
366.1510886311
 20
200.256668936
 30
0.0
 11
366.1510886311
 21
203.2320632654
 31
0.0
  0
LINE
  5
206
330
1F
100
AcDbEntity
  8
0
  6
SLD-Сплошная
 62
     7
370
    25
100
AcDbLine
 10
366.1510886311
 20
203.2320632654
 30
0.0
 11
371.1510886311
 21
203.2320632654
 31
0.0
  0
LINE
  5
207
330
1F
100
AcDbEntity
  8
0
  6
SLD-Сплошная
 62
     7
370
    25
100
AcDbLine
 10
371.1510886311
 20
203.2320632654
 30
0.0
 11
371.1510886311
 21
201.4513133512
 31
0.0
  0
LINE
  5
208
330
1F
100
AcDbEntity
  8
0
  6
SLD-Сплошная
 62
     7
370
    25
100
AcDbLine
 10
440.1510886311
 20
92.9444955916
 30
0.0
 11
440.1510886311
 21
199.9444955916
 31
0.0
  0
LINE
  5
209
330
1F
100
AcDbEntity
  8
0
  6
SLD-Сплошная
 62
     7
370
    25
100
AcDbLine
 10
323.1510886311
 20
199.9444955916
 30
0.0
 11
323.1510886311
 21
92.9444955916
 31
0.0
  0
ARC
  5
20A
330
1F
100
AcDbEntity
  8
0
  6
SLD-Сплошная
 62
     7
370
    25
100
AcDbCircle
 10
328.1510886311
 20
199.9444955916
 30
0.0
 40
5.0
100
AcDbArc
 50
90.0
 51
180.0
  0
LINE
  5
20B
330
1F
100
AcDbEntity
  8
0
  6
SLD-Сплошная
 62
     7
370
    25
100
AcDbLine
 10
435.1510886311
 20
204.9444955916
 30
0.0
 11
328.1510886311
 21
204.9444955916
 31
0.0
  0
ARC
  5
20C
330
1F
100
AcDbEntity
  8
0
  6
SLD-Сплошная
 62
     7
370
    25
100
AcDbCircle
 10
430.1510886311
 20
97.9444955916
 30
0.0
 40
2.100000000000023
100
AcDbArc
 50
180.0
 51
0.0
  0
ARC
  5
20D
330
1F
100
AcDbEntity
  8
0
  6
SLD-Сплошная
 62
     7
370
    25
100
AcDbCircle
 10
328.1510886311
 20
92.9444955916
 30
0.0
 40
5.0
100
AcDbArc
 50
180.0
 51
270.0
  0
ARC
  5
20E
330
1F
100
AcDbEntity
  8
0
  6
SLD-Сплошная
 62
     7
370
    25
100
AcDbCircle
 10
430.1510886311
 20
194.9444955916
 30
0.0
 40
2.100000000000023
100
AcDbArc
 50
0.0
 51
180.0
  0
ARC
  5
20F
330
1F
100
AcDbEntity
  8
0
  6
SLD-Сплошная
 62
     7
370
    25
100
AcDbCircle
 10
435.1510886311
 20
199.9444955916
 30
0.0
 40
5.0
100
AcDbArc
 50
0.0
 51
90.0
  0
ARC
  5
210
330
1F
100
AcDbEntity
  8
0
  6
SLD-Сплошная
 62
     7
370
    25
100
AcDbCircle
 10
430.1510886311
 20
97.9444955916
 30
0.0
 40
2.100000000000023
100
AcDbArc
 50
0.0
 51
180.0
  0
ARC
  5
211
330
1F
100
AcDbEntity
  8
0
  6
SLD-Сплошная
 62
     7
370
    25
100
AcDbCircle
 10
435.1510886311
 20
92.9444955916
 30
0.0
 40
5.0
100
AcDbArc
 50
270.0
 51
0.0
  0
LINE
  5
212
330
1F
100
AcDbEntity
  8
0
  6
SLD-Сплошная
 62
     7
370
    25
100
AcDbLine
 10
328.1510886311
 20
87.9444955916
 30
0.0
 11
435.1510886311
 21
87.9444955916
 31
0.0
  0
ARC
  5
213
330
1F
100
AcDbEntity
  8
0
  6
SLD-Сплошная
 62
     7
370
    25
100
AcDbCircle
 10
430.1510886311
 20
194.9444955916
 30
0.0
 40
2.100000000000023
100
AcDbArc
 50
180.0
 51
0.0
  0
ARC
  5
214
330
1F
100
AcDbEntity
  8
0
  6
SLD-Сплошная
 62
     7
370
    25
100
AcDbCircle
 10
333.1510886311
 20
194.9444955916
 30
0.0
 40
2.100000000000023
100
AcDbArc
 50
180.0
 51
0.0
  0
ARC
  5
215
330
1F
100
AcDbEntity
  8
0
  6
SLD-Сплошная
 62
     7
370
    25
100
AcDbCircle
 10
333.1510886311
 20
97.9444955916
 30
0.0
 40
2.100000000000023
100
AcDbArc
 50
180.0
 51
0.0
  0
ARC
  5
216
330
1F
100
AcDbEntity
  8
0
  6
SLD-Сплошная
 62
     7
370
    25
100
AcDbCircle
 10
333.1510886311
 20
97.9444955916
 30
0.0
 40
2.100000000000023
100
AcDbArc
 50
0.0
 51
180.0
  0
ARC
  5
217
330
1F
100
AcDbEntity
  8
0
  6
SLD-Сплошная
 62
     7
370
    25
100
AcDbCircle
 10
333.1510886311
 20
194.9444955916
 30
0.0
 40
2.100000000000023
100
AcDbArc
 50
0.0
 51
180.0
  0
SPLINE
  5
218
330
1F
100
AcDbEntity
  8
0
  6
SLD-Сплошная
 62
     7
370
    25
100
AcDbSpline
210
0.0
220
0.0
230
1.0
 70
    24
 71
     3
 72
    14
 73
    10
 74
     0
 42
0.00000001
 43
0.00000001
 40
0.0
 40
0.0
 40
0.0
 40
0.0
 40
0.25
 40
0.25
 40
0.5
 40
0.5
 40
0.75
 40
0.75
 40
1.0
 40
1.0
 40
1.0
 40
1.0
 10
407.2076793733484
 20
103.0046444228731
 30
0.0
 10
407.3092554756474
 20
103.0644038098396
 30
0.0
 10
407.4188433851619
 20
103.1288767138327
 30
0.0
 10
407.6310383535753
 20
103.2537155385438
 30
0.0
 10
407.7329875887723
 20
103.3136944475508
 30
0.0
 10
407.9012843855135
 20
103.4127070417933
 30
0.0
 10
407.9670625654497
 20
103.4514057476876
 30
0.0
 10
408.0510686184183
 20
103.5008282999735
 30
0.0
 10
408.0695811822547
 20
103.5117196360358
 30
0.0
 10
408.0695811822547
 20
103.5117196360358
 30
0.0
  0
ARC
  5
219
330
1F
100
AcDbEntity
  8
0
  6
SLD-Сплошная
 62
     7
370
    25
100
AcDbCircle
 10
409.0837316086
 20
101.7879160182
 30
0.0
 40
2.00000000000001
100
AcDbArc
 50
30.4692067871
 51
120.4692067871
  0
SPLINE
  5
21A
330
1F
100
AcDbEntity
  8
0
  6
SLD-Сплошная
 62
     7
370
    25
100
AcDbSpline
210
0.0
220
0.0
230
1.0
 70
    24
 71
     3
 72
    14
 73
    10
 74
     0
 42
0.00000001
 43
0.00000001
 40
0.0
 40
0.0
 40
0.0
 40
0.0
 40
0.25
 40
0.25
 40
0.5
 40
0.5
 40
0.75
 40
0.75
 40
1.0
 40
1.0
 40
1.0
 40
1.0
 10
356.0944978865473
 20
189.8843467606305
 30
0.0
 10
355.9929217842482
 20
189.824587373664
 30
0.0
 10
355.8833338747338
 20
189.760114469671
 30
0.0
 10
355.6711389063203
 20
189.6352756449598
 30
0.0
 10
355.5691896711232
 20
189.5752967359528
 30
0.0
 10
355.4008928743821
 20
189.4762841417103
 30
0.0
 10
355.3351146944459
 20
189.437585435816
 30
0.0
 10
355.2511086414773
 20
189.3881628835301
 30
0.0
 10
355.2325960776409
 20
189.3772715474678
 30
0.0
 10
355.2325960776409
 20
189.3772715474678
 30
0.0
  0
ARC
  5
21B
330
1F
100
AcDbEntity
  8
0
  6
SLD-Сплошная
 62
     7
370
    25
100
AcDbCircle
 10
354.2184456513
 20
191.1010751653
 30
0.0
 40
1.999999999999985
100
AcDbArc
 50
210.4692067871
 51
300.4692067871
  0
ARC
  5
21C
330
1F
100
AcDbEntity
  8
0
  6
SLD-Сплошная
 62
     7
370
    25
100
AcDbCircle
 10
355.9422492691
 20
192.1152255916
 30
0.0
 40
2.000000000000024
100
AcDbArc
 50
300.4692067871
 51
30.4692067871
  0
SPLINE
  5
21D
330
1F
100
AcDbEntity
  8
0
  6
SLD-Сплошная
 62
     7
370
    25
100
AcDbSpline
210
0.0
220
0.0
230
1.0
 70
    24
 71
     3
 72
    14
 73
    10
 74
     0
 42
0.00000001
 43
0.00000001
 40
0.0
 40
0.0
 40
0.0
 40
0.0
 40
0.25
 40
0.25
 40
0.5
 40
0.5
 40
0.75
 40
0.75
 40
1.0
 40
1.0
 40
1.0
 40
1.0
 10
356.9563996954536
 20
190.3914219737933
 30
0.0
 10
356.9563996954536
 20
190.3914219737933
 30
0.0
 10
356.9378871316172
 20
190.3805306377309
 30
0.0
 10
356.8538810786486
 20
190.331108085445
 30
0.0
 10
356.7881028987125
 20
190.2924093795507
 30
0.0
 10
356.6198061019713
 20
190.1933967853082
 30
0.0
 10
356.5178568667742
 20
190.1334178763013
 30
0.0
 10
356.3056618983608
 20
190.0085790515901
 30
0.0
 10
356.1960739888464
 20
189.944106147597
 30
0.0
 10
356.0944978865473
 20
189.8843467606305
 30
0.0
  0
ARC
  5
21E
330
1F
100
AcDbEntity
  8
0
  6
SLD-Сплошная
 62
     7
370
    25
100
AcDbCircle
 10
407.3599279908
 20
100.7737655919
 30
0.0
 40
1.999999999999985
100
AcDbArc
 50
120.4692067871
 51
210.4692067871
  0
SPLINE
  5
21F
330
1F
100
AcDbEntity
  8
0
  6
SLD-Сплошная
 62
     7
370
    25
100
AcDbSpline
210
0.0
220
0.0
230
1.0
 70
    24
 71
     3
 72
    14
 73
    10
 74
     0
 42
0.00000001
 43
0.00000001
 40
0.0
 40
0.0
 40
0.0
 40
0.0
 40
0.25
 40
0.25
 40
0.5
 40
0.5
 40
0.75
 40
0.75
 40
1.0
 40
1.0
 40
1.0
 40
1.0
 10
406.345777564442
 20
102.4975692097104
 30
0.0
 10
406.345777564442
 20
102.4975692097104
 30
0.0
 10
406.3642901282784
 20
102.5084605457727
 30
0.0
 10
406.448296181247
 20
102.5578830980587
 30
0.0
 10
406.5140743611831
 20
102.5965818039529
 30
0.0
 10
406.6823711579243
 20
102.6955943981954
 30
0.0
 10
406.7843203931214
 20
102.7555733072024
 30
0.0
 10
406.9965153615349
 20
102.8804121319135
 30
0.0
 10
407.1061032710492
 20
102.9448850359066
 30
0.0
 10
407.2076793733484
 20
103.0046444228731
 30
0.0
  0
LINE
  5
220
330
1F
100
AcDbEntity
  8
0
  6
SLD-Сплошная
 62
     7
370
    25
100
AcDbLine
 10
408.7292831732
 20
94.5020141312
 30
0.0
 11
405.636124373
 21
99.7596151656
 31
0.0
  0
LINE
  5
221
330
1F
100
AcDbEntity
  8
0
  6
SLD-Сплошная
 62
     7
370
    25
100
AcDbLine
 10
410.8075352264
 20
102.8020664445
 30
0.0
 11
413.9006940267
 21
97.5444654102
 31
0.0
  0
LINE
  5
222
330
1F
100
AcDbEntity
  8
0
  6
SLD-Сплошная
 62
     7
370
    25
100
AcDbLine
 10
352.4946420335
 20
190.086924739
 30
0.0
 11
349.4014832332
 21
195.3445257733
 31
0.0
  0
LINE
  5
223
330
1F
100
AcDbEntity
  8
0
  6
SLD-Сплошная
 62
     7
370
    25
100
AcDbLine
 10
354.5728940866
 20
198.3869770523
 30
0.0
 11
357.6660528869
 21
193.1293760179
 31
0.0
  0
ARC
  5
224
330
1F
100
AcDbEntity
  8
0
  6
SLD-Сплошная
 62
     7
370
    25
100
AcDbCircle
 10
381.6510886299
 20
146.4444955918
 30
0.0
 40
48.75000000000004
100
AcDbArc
 50
210.4692067871
 51
30.4692067871
  0
ARC
  5
225
330
1F
100
AcDbEntity
  8
0
  6
SLD-Сплошная
 62
     7
370
    25
100
AcDbCircle
 10
381.6510886299
 20
146.4444955918
 30
0.0
 40
48.75000000000004
100
AcDbArc
 50
30.4692067871
 51
210.4692067871
  0
ARC
  5
226
330
1F
100
AcDbEntity
  8
0
  6
SLD-Сплошная
 62
     7
370
    25
100
AcDbCircle
 10
381.6510886299
 20
146.4444955918
 30
0.0
 40
54.50000000000008
100
AcDbArc
 50
270.5743366725
 51
297.3137157487
  0
ARC
  5
227
330
1F
100
AcDbEntity
  8
0
  6
SLD-Сплошная
 62
     7
370
    25
100
AcDbCircle
 10
381.6510886299
 20
146.4444955918
 30
0.0
 40
54.50000000000006
100
AcDbArc
 50
270.3640769017
 51
270.5743366725
  0
ARC
  5
228
330
1F
100
AcDbEntity
  8
0
  6
SLD-Сплошная
 62
     7
370
    25
100
AcDbCircle
 10
381.6510886299
 20
146.4444955918
 30
0.0
 40
54.49999999999998
100
AcDbArc
 50
240.5743366725
 51
270.3640769017
  0
ARC
  5
229
330
1F
100
AcDbEntity
  8
0
  6
SLD-Сплошная
 62
     7
370
    25
100
AcDbCircle
 10
381.6510886299
 20
146.4444955918
 30
0.0
 40
54.50000000000001
100
AcDbArc
 50
240.3640769017
 51
240.5743366725
  0
ARC
  5
22A
330
1F
100
AcDbEntity
  8
0
  6
SLD-Сплошная
 62
     7
370
    25
100
AcDbCircle
 10
381.6510886299
 20
146.4444955918
 30
0.0
 40
54.50000000000001
100
AcDbArc
 50
210.5743366725
 51
240.3640769017
  0
ARC
  5
22B
330
1F
100
AcDbEntity
  8
0
  6
SLD-Сплошная
 62
     7
370
    25
100
AcDbCircle
 10
381.6510886299
 20
146.4444955918
 30
0.0
 40
54.49999999999999
100
AcDbArc
 50
210.3640769017
 51
210.5743366725
  0
ARC
  5
22C
330
1F
100
AcDbEntity
  8
0
  6
SLD-Сплошная
 62
     7
370
    25
100
AcDbCircle
 10
381.6510886299
 20
146.4444955918
 30
0.0
 40
54.49999999999999
100
AcDbArc
 50
180.5743366725
 51
210.3640769017
  0
ARC
  5
22D
330
1F
100
AcDbEntity
  8
0
  6
SLD-Сплошная
 62
     7
370
    25
100
AcDbCircle
 10
381.6510886299
 20
146.4444955918
 30
0.0
 40
54.50000000000004
100
AcDbArc
 50
180.3640769017
 51
180.5743366725
  0
ARC
  5
22E
330
1F
100
AcDbEntity
  8
0
  6
SLD-Сплошная
 62
     7
370
    25
100
AcDbCircle
 10
381.6510886299
 20
146.4444955918
 30
0.0
 40
54.50000000000004
100
AcDbArc
 50
150.5743366725
 51
180.3640769017
  0
ARC
  5
22F
330
1F
100
AcDbEntity
  8
0
  6
SLD-Сплошная
 62
     7
370
    25
100
AcDbCircle
 10
381.6510886299
 20
146.4444955918
 30
0.0
 40
54.5
100
AcDbArc
 50
150.3640769017
 51
150.5743366725
  0
ARC
  5
230
330
1F
100
AcDbEntity
  8
0
  6
SLD-Сплошная
 62
     7
370
    25
100
AcDbCircle
 10
381.6510886299
 20
146.4444955918
 30
0.0
 40
54.49999999999999
100
AcDbArc
 50
123.6246978255
 51
150.3640769017
  0
ARC
  5
231
330
1F
100
AcDbEntity
  8
0
  6
SLD-Сплошная
 62
     7
370
    25
100
AcDbCircle
 10
381.6510886299
 20
146.4444955918
 30
0.0
 40
54.50000000000004
100
AcDbArc
 50
90.5743366725
 51
117.3137157487
  0
ARC
  5
232
330
1F
100
AcDbEntity
  8
0
  6
SLD-Сплошная
 62
     7
370
    25
100
AcDbCircle
 10
381.6510886299
 20
146.4444955918
 30
0.0
 40
54.50000000000008
100
AcDbArc
 50
90.3640769017
 51
90.5743366725
  0
ARC
  5
233
330
1F
100
AcDbEntity
  8
0
  6
SLD-Сплошная
 62
     7
370
    25
100
AcDbCircle
 10
381.6510886299
 20
146.4444955918
 30
0.0
 40
54.50000000000008
100
AcDbArc
 50
60.5743366725
 51
90.3640769017
  0
ARC
  5
234
330
1F
100
AcDbEntity
  8
0
  6
SLD-Сплошная
 62
     7
370
    25
100
AcDbCircle
 10
381.6510886299
 20
146.4444955918
 30
0.0
 40
54.50000000000005
100
AcDbArc
 50
60.3640769017
 51
60.5743366725
  0
ARC
  5
235
330
1F
100
AcDbEntity
  8
0
  6
SLD-Сплошная
 62
     7
370
    25
100
AcDbCircle
 10
381.6510886299
 20
146.4444955918
 30
0.0
 40
54.50000000000009
100
AcDbArc
 50
30.5743366725
 51
60.3640769017
  0
ARC
  5
236
330
1F
100
AcDbEntity
  8
0
  6
SLD-Сплошная
 62
     7
370
    25
100
AcDbCircle
 10
381.6510886299
 20
146.4444955918
 30
0.0
 40
54.50000000000009
100
AcDbArc
 50
30.4692067871
 51
30.5743366725
  0
ARC
  5
237
330
1F
100
AcDbEntity
  8
0
  6
SLD-Сплошная
 62
     7
370
    25
100
AcDbCircle
 10
381.6510886299
 20
146.4444955918
 30
0.0
 40
54.5000000000001
100
AcDbArc
 50
0.5743366725
 51
30.3640769017
  0
ARC
  5
238
330
1F
100
AcDbEntity
  8
0
  6
SLD-Сплошная
 62
     7
370
    25
100
AcDbCircle
 10
381.6510886299
 20
146.4444955918
 30
0.0
 40
54.5000000000001
100
AcDbArc
 50
0.3640769017
 51
0.5743366725
  0
ARC
  5
239
330
1F
100
AcDbEntity
  8
0
  6
SLD-Сплошная
 62
     7
370
    25
100
AcDbCircle
 10
381.6510886299
 20
146.4444955918
 30
0.0
 40
54.50000000000004
100
AcDbArc
 50
330.5743366725
 51
0.3640769017
  0
ARC
  5
23A
330
1F
100
AcDbEntity
  8
0
  6
SLD-Сплошная
 62
     7
370
    25
100
AcDbCircle
 10
381.6510886299
 20
146.4444955918
 30
0.0
 40
54.50000000000006
100
AcDbArc
 50
330.3640769017
 51
330.5743366725
  0
ARC
  5
23B
330
1F
100
AcDbEntity
  8
0
  6
SLD-Сплошная
 62
     7
370
    25
100
AcDbCircle
 10
381.6510886299
 20
146.4444955918
 30
0.0
 40
54.50000000000006
100
AcDbArc
 50
303.6246978255
 51
330.3640769017
  0
ARC
  5
23C
330
1F
100
AcDbEntity
  8
0
  6
SLD-Сплошная
 62
     7
370
    25
100
AcDbCircle
 10
381.6510886299
 20
146.4444955918
 30
0.0
 40
54.50000000000008
100
AcDbArc
 50
30.3640769017
 51
30.4692067871
  0
SPLINE
  5
23D
330
1F
100
AcDbEntity
  8
0
  6
SLD-Сплошная
 62
     7
370
    25
100
AcDbSpline
210
0.0
220
0.0
230
1.0
 70
     8
 71
     3
 72
    23
 73
    19
 74
     0
 42
0.00000001
 43
0.00000001
 40
0.0
 40
0.0
 40
0.0
 40
0.0
 40
0.0389796928611023
 40
0.075458785111531
 40
0.1094371730868132
 40
0.1409147694268459
 40
0.1698915055505837
 40
0.1963673352993536
 40
0.2203422404801667
 40
0.2418162396366368
 40
0.3790257506569116
 40
0.5023987366158175
 40
0.6350098414383089
 40
0.7614852658539962
 40
0.8217025307052215
 40
0.8815173420874561
 40
0.9409447249330335
 40
1.0
 40
1.0
 40
1.0
 40
1.0
 10
349.4014832332103
 20
195.3445257732837
 30
0.0
 10
349.3716024005315
 20
195.397405015884
 30
0.0
 10
349.3137576314588
 20
195.4997712253475
 30
0.0
 10
349.2411802202569
 20
195.6542131047275
 30
0.0
 10
349.1809765649444
 20
195.8012592826571
 30
0.0
 10
349.1323570335018
 20
195.9402424701647
 30
0.0
 10
349.0936366127054
 20
196.0701532561407
 30
0.0
 10
349.063422248343
 20
196.1902965799789
 30
0.0
 10
349.0403553541489
 20
196.3001179017015
 30
0.0
 10
348.9916740594933
 20
196.5809480753144
 30
0.0
 10
348.9704215597491
 20
197.0251637529776
 30
0.0
 10
349.0670955569368
 20
197.6371918546174
 30
0.0
 10
349.2790043529949
 20
198.204468004752
 30
0.0
 10
349.549217380209
 20
198.633271505754
 30
0.0
 10
349.802988494185
 20
198.9289361737899
 30
0.0
 10
350.0077336199558
 20
199.1255254542812
 30
0.0
 10
350.2278009347046
 20
199.3025454715907
 30
0.0
 10
350.3867420491949
 20
199.4019237529872
 30
0.0
 10
350.4659630204412
 20
199.4514568394908
 30
0.0
  0
SPLINE
  5
23E
330
1F
100
AcDbEntity
  8
0
  6
SLD-Сплошная
 62
     7
370
    25
100
AcDbSpline
210
0.0
220
0.0
230
1.0
 70
     8
 71
     3
 72
    22
 73
    18
 74
     0
 42
0.00000001
 43
0.00000001
 40
0.0
 40
0.0
 40
0.0
 40
0.0
 40
0.0337078395874567
 40
0.0675358378756963
 40
0.1014868884952723
 40
0.1355638537259399
 40
0.169769564234457
 40
0.2041068188433941
 40
0.2385783843302693
 40
0.365045795442183
 40
0.4976677028324878
 40
0.6210327741682258
 40
0.7582529999495187
 40
0.8036907022864496
 40
0.8591296999898373
 40
0.9245672999938579
 40
1.0
 40
1.0
 40
1.0
 40
1.0
 10
412.8362142394544
 20
93.43753434401295
 30
0.0
 10
412.7898624601409
 20
93.41121646131761
 30
0.0
 10
412.6969936708243
 20
93.3584868802855
 30
0.0
 10
412.5523431666352
 20
93.2888378206188
 30
0.0
 10
412.4039470822087
 20
93.22627556221367
 30
0.0
 10
412.251800712247
 20
93.1717362122286
 30
0.0
 10
412.0964259473506
 20
93.12528080362537
 30
0.0
 10
411.9382055209196
 20
93.08718122032954
 30
0.0
 10
411.6350436090176
 20
93.03136370364584
 30
0.0
 10
411.1696293934569
 20
93.00575240293156
 30
0.0
 10
410.5709195688512
 20
93.09605353546586
 30
0.0
 10
409.9889078185589
 20
93.30885377009804
 30
0.0
 10
409.5789934650055
 20
93.56309691653951
 30
0.0
 10
409.2940947301983
 20
93.80176097139632
 30
0.0
 10
409.1091644942495
 20
93.98384451721493
 30
0.0
 10
408.9100075574307
 20
94.21717298998425
 30
0.0
 10
408.7923083197079
 20
94.40267969595432
 30
0.0
 10
408.7292831732473
 20
94.5020141312438
 30
0.0
  0
SPLINE
  5
23F
330
1F
100
AcDbEntity
  8
0
  6
SLD-Сплошная
 62
     7
370
    25
100
AcDbSpline
210
0.0
220
0.0
230
1.0
 70
     8
 71
     3
 72
    23
 73
    19
 74
     0
 42
0.00000001
 43
0.00000001
 40
0.0
 40
0.0
 40
0.0
 40
0.0
 40
0.0389796928084701
 40
0.0754587850212943
 40
0.1094371729740062
 40
0.1409147693064992
 40
0.1698915054377349
 40
0.1963673352090375
 40
0.2203422404274201
 40
0.2418162396364961
 40
0.3790257503617748
 40
0.5023987366157654
 40
0.6350098410832565
 40
0.7614852658539331
 40
0.8217025305825583
 40
0.8815173419238698
 40
0.9409447248103154
 40
1.0
 40
1.0
 40
1.0
 40
1.0
 10
413.9006940266853
 20
97.54446541022007
 30
0.0
 10
413.9305748593251
 20
97.49158616769179
 30
0.0
 10
413.9884196283309
 20
97.38921995835206
 30
0.0
 10
414.0609970394758
 20
97.23477807913989
 30
0.0
 10
414.1212006947713
 20
97.08773190131731
 30
0.0
 10
414.1698202262277
 20
96.94874871385163
 30
0.0
 10
414.2085406470576
 20
96.81883792784907
 30
0.0
 10
414.2387550114648
 20
96.69869460391325
 30
0.0
 10
414.2618219057073
 20
96.58887328202125
 30
0.0
 10
414.3105032003195
 20
96.30804310872615
 30
0.0
 10
414.3317557001704
 20
95.86382743100334
 30
0.0
 10
414.2350817032081
 20
95.25179932987285
 30
0.0
 10
414.0231729071579
 20
94.68452317927496
 30
0.0
 10
413.7529598801545
 20
94.2557196783379
 30
0.0
 10
413.4991887660142
 20
93.96005501005357
 30
0.0
 10
413.294443640428
 20
93.7634657296503
 30
0.0
 10
413.0743763255682
 20
93.58644571216648
 30
0.0
 10
412.9154352108631
 20
93.48706743062388
 30
0.0
 10
412.8362142394544
 20
93.43753434401295
 30
0.0
  0
SPLINE
  5
240
330
1F
100
AcDbEntity
  8
0
  6
SLD-Сплошная
 62
     7
370
    25
100
AcDbSpline
210
0.0
220
0.0
230
1.0
 70
     8
 71
     3
 72
    22
 73
    18
 74
     0
 42
0.00000001
 43
0.00000001
 40
0.0
 40
0.0
 40
0.0
 40
0.0
 40
0.0337078396559755
 40
0.0675358379898829
 40
0.1014868886322755
 40
0.135563853862918
 40
0.1697695643485807
 40
0.204106818911856
 40
0.2385783843302832
 40
0.3650457954450139
 40
0.4976677028320505
 40
0.6210327742811588
 40
0.7582529999492081
 40
0.8036907027105592
 40
0.8591297005553541
 40
0.92456730041793
 40
1.0
 40
1.0
 40
1.0
 40
1.0
 10
350.4659630204412
 20
199.4514568394908
 30
0.0
 10
350.5123147998498
 20
199.4777747222383
 30
0.0
 10
350.6051835893252
 20
199.5305043033568
 30
0.0
 10
350.7498340937204
 20
199.6001533630961
 30
0.0
 10
350.8982301782592
 20
199.662715621514
 30
0.0
 10
351.0503765482329
 20
199.7172549714661
 30
0.0
 10
351.2057513130346
 20
199.7637103800074
 30
0.0
 10
351.3639717392602
 20
199.8018099632295
 30
0.0
 10
351.6671336509897
 20
199.8576274798644
 30
0.0
 10
352.132547866438
 20
199.8832387805719
 30
0.0
 10
352.7312576912248
 20
199.792937648011
 30
0.0
 10
353.3132694415123
 20
199.5801374133192
 30
0.0
 10
353.7231837955937
 20
199.3258942664977
 30
0.0
 10
354.0080825308632
 20
199.0872302110937
 30
0.0
 10
354.1930127671458
 20
198.9051466646663
 30
0.0
 10
354.3921697033452
 20
198.6718181922456
 30
0.0
 10
354.5098689405606
 20
198.4863114870012
 30
0.0
 10
354.5728940866483
 20
198.3869770522599
 30
0.0
  0
ARC
  5
241
330
1F
100
AcDbEntity
  8
0
  6
SLD-Сплошная
 62
     7
370
    25
100
AcDbCircle
 10
436.149261172
 20
146.8908021835
 30
0.0
 40
4.000000000000013
100
AcDbArc
 50
268.3661371637
 51
270.4692067871
  0
ARC
  5
242
330
1F
100
AcDbEntity
  8
0
  6
SLD-Сплошная
 62
     7
370
    25
100
AcDbCircle
 10
436.149261172
 20
146.8908021835
 30
0.0
 40
4.000000000000014
100
AcDbArc
 50
0.4692067871
 51
90.4692067871
  0
ARC
  5
243
330
1F
100
AcDbEntity
  8
0
  6
SLD-Сплошная
 62
     7
370
    25
100
AcDbCircle
 10
436.149261172
 20
146.8908021835
 30
0.0
 40
4.000000000000013
100
AcDbArc
 50
270.4692067871
 51
0.4692067871
  0
ARC
  5
244
330
1F
100
AcDbEntity
  8
0
  6
SLD-Сплошная
 62
     7
370
    25
100
AcDbCircle
 10
428.6247372153
 20
174.0800947091
 30
0.0
 40
3.999999999999965
100
AcDbArc
 50
300.4692067871
 51
30.4692067871
  0
ARC
  5
245
330
1F
100
AcDbEntity
  8
0
  6
SLD-Сплошная
 62
     7
370
    25
100
AcDbCircle
 10
428.6247372153
 20
174.0800947091
 30
0.0
 40
4.0
100
AcDbArc
 50
30.4692067871
 51
120.4692067871
  0
ARC
  5
246
330
1F
100
AcDbEntity
  8
0
  6
SLD-Сплошная
 62
     7
370
    25
100
AcDbCircle
 10
428.6247372153
 20
174.0800947091
 30
0.0
 40
4.0
100
AcDbArc
 50
298.3661371637
 51
300.4692067871
  0
ARC
  5
247
330
1F
100
AcDbEntity
  8
0
  6
SLD-Сплошная
 62
     7
370
    25
100
AcDbCircle
 10
408.5136620547
 20
193.8644507689
 30
0.0
 40
4.000000000000037
100
AcDbArc
 50
328.3661371637
 51
330.4692067871
  0
ARC
  5
248
330
1F
100
AcDbEntity
  8
0
  6
SLD-Сплошная
 62
     7
370
    25
100
AcDbCircle
 10
408.5136620547
 20
193.8644507689
 30
0.0
 40
4.00000000000003
100
AcDbArc
 50
60.4692067871
 51
150.4692067871
  0
ARC
  5
249
330
1F
100
AcDbEntity
  8
0
  6
SLD-Сплошная
 62
     7
370
    25
100
AcDbCircle
 10
408.5136620547
 20
193.8644507689
 30
0.0
 40
4.000000000000037
100
AcDbArc
 50
330.4692067871
 51
60.4692067871
  0
ARC
  5
24A
330
1F
100
AcDbEntity
  8
0
  6
SLD-Сплошная
 62
     7
370
    25
100
AcDbCircle
 10
382.0973952217
 20
91.9463230497
 30
0.0
 40
4.000000000000013
100
AcDbArc
 50
178.3661371637
 51
180.4692067871
  0
ARC
  5
24B
330
1F
100
AcDbEntity
  8
0
  6
SLD-Сплошная
 62
     7
370
    25
100
AcDbCircle
 10
382.0973952217
 20
91.9463230497
 30
0.0
 40
4.000000000000014
100
AcDbArc
 50
270.4692067871
 51
0.4692067871
  0
ARC
  5
24C
330
1F
100
AcDbEntity
  8
0
  6
SLD-Сплошная
 62
     7
370
    25
100
AcDbCircle
 10
382.0973952217
 20
91.9463230497
 30
0.0
 40
4.000000000000013
100
AcDbArc
 50
180.4692067871
 51
270.4692067871
  0
ARC
  5
24D
330
1F
100
AcDbEntity
  8
0
  6
SLD-Сплошная
 62
     7
370
    25
100
AcDbCircle
 10
429.0710438071
 20
119.581922167
 30
0.0
 40
3.99999999999997
100
AcDbArc
 50
238.3661371637
 51
240.4692067871
  0
ARC
  5
24E
330
1F
100
AcDbEntity
  8
0
  6
SLD-Сплошная
 62
     7
370
    25
100
AcDbCircle
 10
429.0710438071
 20
119.581922167
 30
0.0
 40
4.000000000000059
100
AcDbArc
 50
330.4692067871
 51
60.4692067871
  0
ARC
  5
24F
330
1F
100
AcDbEntity
  8
0
  6
SLD-Сплошная
 62
     7
370
    25
100
AcDbCircle
 10
429.0710438071
 20
119.581922167
 30
0.0
 40
4.000000000000059
100
AcDbArc
 50
240.4692067871
 51
330.4692067871
  0
ARC
  5
250
330
1F
100
AcDbEntity
  8
0
  6
SLD-Сплошная
 62
     7
370
    25
100
AcDbCircle
 10
334.6774400446
 20
118.8088964744
 30
0.0
 40
4.00000000000001
100
AcDbArc
 50
118.3661371637
 51
120.4692067871
  0
ARC
  5
251
330
1F
100
AcDbEntity
  8
0
  6
SLD-Сплошная
 62
     7
370
    25
100
AcDbCircle
 10
334.6774400446
 20
118.8088964744
 30
0.0
 40
4.000000000000008
100
AcDbArc
 50
210.4692067871
 51
300.4692067871
  0
ARC
  5
252
330
1F
100
AcDbEntity
  8
0
  6
SLD-Сплошная
 62
     7
370
    25
100
AcDbCircle
 10
334.6774400446
 20
118.8088964744
 30
0.0
 40
3.999999999999983
100
AcDbArc
 50
120.4692067871
 51
210.4692067871
  0
ARC
  5
253
330
1F
100
AcDbEntity
  8
0
  6
SLD-Сплошная
 62
     7
370
    25
100
AcDbCircle
 10
334.2311334528
 20
173.3070690165
 30
0.0
 40
3.999999999999981
100
AcDbArc
 50
150.4692067871
 51
240.4692067871
  0
ARC
  5
254
330
1F
100
AcDbEntity
  8
0
  6
SLD-Сплошная
 62
     7
370
    25
100
AcDbCircle
 10
334.2311334528
 20
173.3070690165
 30
0.0
 40
3.999999999999981
100
AcDbArc
 50
60.4692067871
 51
150.4692067871
  0
ARC
  5
255
330
1F
100
AcDbEntity
  8
0
  6
SLD-Сплошная
 62
     7
370
    25
100
AcDbCircle
 10
334.2311334528
 20
173.3070690165
 30
0.0
 40
4.000000000000071
100
AcDbArc
 50
58.3661371637
 51
60.4692067871
  0
ARC
  5
256
330
1F
100
AcDbEntity
  8
0
  6
SLD-Сплошная
 62
     7
370
    25
100
AcDbCircle
 10
381.2047820382
 20
200.9426681338
 30
0.0
 40
4.000000000000014
100
AcDbArc
 50
90.4692067871
 51
180.4692067871
  0
ARC
  5
257
330
1F
100
AcDbEntity
  8
0
  6
SLD-Сплошная
 62
     7
370
    25
100
AcDbCircle
 10
381.2047820382
 20
200.9426681338
 30
0.0
 40
3.999999999999956
100
AcDbArc
 50
0.4692067871
 51
90.4692067871
  0
ARC
  5
258
330
1F
100
AcDbEntity
  8
0
  6
SLD-Сплошная
 62
     7
370
    25
100
AcDbCircle
 10
381.2047820382
 20
200.9426681338
 30
0.0
 40
4.000000000000012
100
AcDbArc
 50
358.3661371637
 51
0.4692067871
  0
ARC
  5
259
330
1F
100
AcDbEntity
  8
0
  6
SLD-Сплошная
 62
     7
370
    25
100
AcDbCircle
 10
354.7885152052
 20
99.0245404146
 30
0.0
 40
4.00000000000008
100
AcDbArc
 50
240.4692067871
 51
330.4692067871
  0
ARC
  5
25A
330
1F
100
AcDbEntity
  8
0
  6
SLD-Сплошная
 62
     7
370
    25
100
AcDbCircle
 10
354.7885152052
 20
99.0245404146
 30
0.0
 40
3.999999999999953
100
AcDbArc
 50
150.4692067871
 51
240.4692067871
  0
ARC
  5
25B
330
1F
100
AcDbEntity
  8
0
  6
SLD-Сплошная
 62
     7
370
    25
100
AcDbCircle
 10
354.7885152052
 20
99.0245404146
 30
0.0
 40
3.999999999999932
100
AcDbArc
 50
148.3661371637
 51
150.4692067871
  0
ARC
  5
25C
330
1F
100
AcDbEntity
  8
0
  6
SLD-Сплошная
 62
     7
370
    25
100
AcDbCircle
 10
327.1529160879
 20
145.998189
 30
0.0
 40
4.000000000000042
100
AcDbArc
 50
88.3661371637
 51
90.4692067871
  0
ARC
  5
25D
330
1F
100
AcDbEntity
  8
0
  6
SLD-Сплошная
 62
     7
370
    25
100
AcDbCircle
 10
327.1529160879
 20
145.998189
 30
0.0
 40
4.00000000000007
100
AcDbArc
 50
180.4692067871
 51
270.4692067871
  0
ARC
  5
25E
330
1F
100
AcDbEntity
  8
0
  6
SLD-Сплошная
 62
     7
370
    25
100
AcDbCircle
 10
327.1529160879
 20
145.998189
 30
0.0
 40
4.00000000000007
100
AcDbArc
 50
90.4692067871
 51
180.4692067871
  0
ARC
  5
25F
330
1F
100
AcDbEntity
  8
0
  6
SLD-Сплошная
 62
     7
370
    25
100
AcDbCircle
 10
429.0710438071
 20
119.581922167
 30
0.0
 40
4.00000000000006
100
AcDbArc
 50
60.4692067871
 51
62.5722764104
  0
ARC
  5
260
330
1F
100
AcDbEntity
  8
0
  6
SLD-Сплошная
 62
     7
370
    25
100
AcDbCircle
 10
334.6774400446
 20
118.8088964744
 30
0.0
 40
4.000000000000028
100
AcDbArc
 50
300.4692067871
 51
302.5722764104
  0
ARC
  5
261
330
1F
100
AcDbEntity
  8
0
  6
SLD-Сплошная
 62
     7
370
    25
100
AcDbCircle
 10
334.2311334528
 20
173.3070690165
 30
0.0
 40
3.999999999999981
100
AcDbArc
 50
240.4692067871
 51
242.5722764104
  0
ARC
  5
262
330
1F
100
AcDbEntity
  8
0
  6
SLD-Сплошная
 62
     7
370
    25
100
AcDbCircle
 10
354.7885152052
 20
99.0245404146
 30
0.0
 40
4.00000000000008
100
AcDbArc
 50
330.4692067871
 51
332.5722764104
  0
ARC
  5
263
330
1F
100
AcDbEntity
  8
0
  6
SLD-Сплошная
 62
     7
370
    25
100
AcDbCircle
 10
436.149261172
 20
146.8908021835
 30
0.0
 40
4.000000000000014
100
AcDbArc
 50
90.4692067871
 51
92.5722764104
  0
ARC
  5
264
330
1F
100
AcDbEntity
  8
0
  6
SLD-Сплошная
 62
     7
370
    25
100
AcDbCircle
 10
382.0973952217
 20
91.9463230497
 30
0.0
 40
4.000000000000014
100
AcDbArc
 50
0.4692067871
 51
2.5722764104
  0
ARC
  5
265
330
1F
100
AcDbEntity
  8
0
  6
SLD-Сплошная
 62
     7
370
    25
100
AcDbCircle
 10
408.5136620547
 20
193.8644507689
 30
0.0
 40
4.000000000000035
100
AcDbArc
 50
150.4692067871
 51
152.5722764104
  0
ARC
  5
266
330
1F
100
AcDbEntity
  8
0
  6
SLD-Сплошная
 62
     7
370
    25
100
AcDbCircle
 10
381.2047820382
 20
200.9426681338
 30
0.0
 40
4.000000000000014
100
AcDbArc
 50
180.4692067871
 51
182.5722764104
  0
ARC
  5
267
330
1F
100
AcDbEntity
  8
0
  6
SLD-Сплошная
 62
     7
370
    25
100
AcDbCircle
 10
327.1529160879
 20
145.998189
 30
0.0
 40
4.000000000000012
100
AcDbArc
 50
270.4692067871
 51
272.5722764104
  0
ARC
  5
268
330
1F
100
AcDbEntity
  8
0
  6
SLD-Сплошная
 62
     7
370
    25
100
AcDbCircle
 10
428.6247372153
 20
174.0800947091
 30
0.0
 40
4.000000000000045
100
AcDbArc
 50
120.4692067871
 51
122.5722764104
  0
ARC
  5
269
330
1F
100
AcDbEntity
  8
0
  6
SLD-Сплошная
 62
     7
370
    25
100
AcDbCircle
 10
381.6510886299
 20
146.4444955918
 30
0.0
 40
56.00000000000006
100
AcDbArc
 50
214.19759003
 51
236.7408235441
  0
ARC
  5
26A
330
1F
100
AcDbEntity
  8
0
  6
SLD-Сплошная
 62
     7
370
    25
100
AcDbCircle
 10
381.6510886299
 20
146.4444955918
 30
0.0
 40
56.00000000000006
100
AcDbArc
 50
334.19759003
 51
356.7408235441
  0
ARC
  5
26B
330
1F
100
AcDbEntity
  8
0
  6
SLD-Сплошная
 62
     7
370
    25
100
AcDbCircle
 10
381.6510886299
 20
146.4444955918
 30
0.0
 40
56.00000000000007
100
AcDbArc
 50
4.19759003
 51
26.7408235441
  0
ARC
  5
26C
330
1F
100
AcDbEntity
  8
0
  6
SLD-Сплошная
 62
     7
370
    25
100
AcDbCircle
 10
381.6510886299
 20
146.4444955918
 30
0.0
 40
56.00000000000002
100
AcDbArc
 50
64.19759003
 51
86.7408235441
  0
ARC
  5
26D
330
1F
100
AcDbEntity
  8
0
  6
SLD-Сплошная
 62
     7
370
    25
100
AcDbCircle
 10
381.6510886299
 20
146.4444955918
 30
0.0
 40
56.00000000000005
100
AcDbArc
 50
34.19759003
 51
56.7408235441
  0
ARC
  5
26E
330
1F
100
AcDbEntity
  8
0
  6
SLD-Сплошная
 62
     7
370
    25
100
AcDbCircle
 10
381.6510886299
 20
146.4444955918
 30
0.0
 40
56.0000000000001
100
AcDbArc
 50
303.5400935981
 51
326.7408235441
  0
ARC
  5
26F
330
1F
100
AcDbEntity
  8
0
  6
SLD-Сплошная
 62
     7
370
    25
100
AcDbCircle
 10
381.6510886299
 20
146.4444955918
 30
0.0
 40
56.00000000000007
100
AcDbArc
 50
123.5400935981
 51
146.7408235441
  0
ARC
  5
270
330
1F
100
AcDbEntity
  8
0
  6
SLD-Сплошная
 62
     7
370
    25
100
AcDbCircle
 10
381.6510886299
 20
146.4444955918
 30
0.0
 40
56.00000000000005
100
AcDbArc
 50
154.19759003
 51
176.7408235441
  0
ARC
  5
271
330
1F
100
AcDbEntity
  8
0
  6
SLD-Сплошная
 62
     7
370
    25
100
AcDbCircle
 10
381.6510886299
 20
146.4444955918
 30
0.0
 40
56.00000000000011
100
AcDbArc
 50
244.19759003
 51
266.7408235441
  0
ARC
  5
272
330
1F
100
AcDbEntity
  8
0
  6
SLD-Сплошная
 62
     7
370
    25
100
AcDbCircle
 10
381.6510886299
 20
146.4444955918
 30
0.0
 40
56.00000000000009
100
AcDbArc
 50
94.19759003
 51
117.398319976
  0
ARC
  5
273
330
1F
100
AcDbEntity
  8
0
  6
SLD-Сплошная
 62
     7
370
    25
100
AcDbCircle
 10
381.6510886299
 20
146.4444955918
 30
0.0
 40
56.00000000000006
100
AcDbArc
 50
274.19759003
 51
297.398319976
  0
ARC
  5
274
330
1F
100
AcDbEntity
  8
0
  6
SLD-Сплошная
 62
     7
370
    25
100
AcDbCircle
 10
381.6510886299
 20
146.4444955918
 30
0.0
 40
56.00000000000009
100
AcDbArc
 50
184.19759003
 51
206.7408235441
  0
LINE
  5
275
330
1F
100
AcDbEntity
  8
0
  6
SLD-Сплошная
 62
     7
370
    25
100
AcDbLine
 10
391.6510886311
 20
202.9444955916
 30
0.0
 11
391.6510886311
 21
201.5444048474
 31
0.0
  0
LINE
  5
276
330
1F
100
AcDbEntity
  8
0
  6
SLD-Сплошная
 62
     7
370
    25
100
AcDbLine
 10
371.6510886311
 20
201.5444048478
 30
0.0
 11
371.6510886311
 21
202.9444955916
 31
0.0
  0
LINE
  5
277
330
1F
100
AcDbEntity
  8
0
  6
SLD-Сплошная
 62
     7
370
    25
100
AcDbLine
 10
192.8441663066
 20
328.305174942
 30
0.0
 11
188.68749964
 21
328.305174942
 31
0.0
  0
LINE
  5
278
330
1F
100
AcDbEntity
  8
0
  6
SLD-Сплошная
 62
     7
370
    25
100
AcDbLine
 10
218.66749964
 20
328.305174942
 30
0.0
 11
215.5108329733
 21
328.305174942
 31
0.0
  0
LINE
  5
279
330
1F
100
AcDbEntity
  8
0
  6
SLD-Сплошная
 62
     7
370
    25
100
AcDbLine
 10
198.3051848385
 20
328.105174942
 30
0.0
 11
192.8441663066
 21
328.105174942
 31
0.0
  0
LINE
  5
27A
330
1F
100
AcDbEntity
  8
0
  6
SLD-Сплошная
 62
     7
370
    25
100
AcDbLine
 10
202.575962765
 20
328.105174942
 30
0.0
 11
201.5082585885
 21
328.105174942
 31
0.0
  0
LINE
  5
27B
330
1F
100
AcDbEntity
  8
0
  6
SLD-Сплошная
 62
     7
370
    25
100
AcDbLine
 10
206.8467406915
 20
328.105174942
 30
0.0
 11
205.779036515
 21
328.105174942
 31
0.0
  0
LINE
  5
27C
330
1F
100
AcDbEntity
  8
0
  6
SLD-Сплошная
 62
     7
370
    25
100
AcDbLine
 10
215.5108329733
 20
328.105174942
 30
0.0
 11
210.0498144415
 21
328.105174942
 31
0.0
  0
LINE
  5
27D
330
1F
100
AcDbEntity
  8
0
  6
SLD-Сплошная
 62
     7
370
    25
100
AcDbLine
 10
201.5082585885
 20
328.305174942
 30
0.0
 11
198.3051848385
 21
328.305174942
 31
0.0
  0
LINE
  5
27E
330
1F
100
AcDbEntity
  8
0
  6
SLD-Сплошная
 62
     7
370
    25
100
AcDbLine
 10
205.779036515
 20
328.305174942
 30
0.0
 11
202.575962765
 21
328.305174942
 31
0.0
  0
LINE
  5
27F
330
1F
100
AcDbEntity
  8
0
  6
SLD-Сплошная
 62
     7
370
    25
100
AcDbLine
 10
210.0498144415
 20
328.305174942
 30
0.0
 11
206.8467406915
 21
328.305174942
 31
0.0
  0
LINE
  5
280
330
1F
100
AcDbEntity
  8
0
  6
SLD-Сплошная
 62
     7
370
    25
100
AcDbLine
 10
156.0774996396
 20
285.7514815326
 30
0.0
 11
170.2774996396
 21
285.7514815326
 31
0.0
  0
LINE
  5
281
330
1F
100
AcDbEntity
  8
0
  6
SLD-Сплошная
 62
     7
370
    25
100
AcDbLine
 10
170.2774996396
 20
293.7514815326
 30
0.0
 11
156.0774996396
 21
293.7514815326
 31
0.0
  0
ARC
  5
282
330
1F
100
AcDbEntity
  8
0
  6
SLD-Сплошная
 62
     7
370
    25
100
AcDbCircle
 10
152.1774996396
 20
237.8051749409
 30
0.0
 40
3.0
100
AcDbArc
 50
180.0
 51
270.0
  0
LINE
  5
283
330
1F
100
AcDbEntity
  8
0
  6
SLD-Сплошная
 62
     7
370
    25
100
AcDbLine
 10
173.4303245786
 20
321.9690749109
 30
0.0
 11
151.2487348145
 21
321.9690749109
 31
0.0
  0
SPLINE
  5
284
330
1F
100
AcDbEntity
  8
0
  6
SLD-Сплошная
 62
     7
370
    25
100
AcDbSpline
210
0.0
220
0.0
230
1.0
 70
     8
 71
     3
 72
    10
 73
     6
 74
     0
 42
0.00000001
 43
0.00000001
 40
0.0
 40
0.0
 40
0.0
 40
0.0
 40
0.3699322930868
 40
0.6481229311978538
 40
1.0
 40
1.0
 40
1.0
 40
1.0
 10
151.2569588577536
 20
321.9682920644901
 30
0.0
 10
151.0926203661236
 20
321.9586547391926
 30
0.0
 10
150.8046986385687
 20
321.941770104795
 30
0.0
 10
150.3579512924076
 20
321.799388978256
 30
0.0
 10
150.1061869402412
 20
321.6416699769842
 30
0.0
 10
149.9655828411941
 20
321.5535878562009
 30
0.0
  0
SPLINE
  5
285
330
1F
100
AcDbEntity
  8
0
  6
SLD-Сплошная
 62
     7
370
    25
100
AcDbSpline
210
0.0
220
0.0
230
1.0
 70
     8
 71
     3
 72
    11
 73
     7
 74
     0
 42
0.00000001
 43
0.00000001
 40
0.0
 40
0.0
 40
0.0
 40
0.0
 40
0.2741947956734199
 40
0.545100273750383
 40
0.7912759431516142
 40
1.0
 40
1.0
 40
1.0
 40
1.0
 10
175.334135220484
 20
320.9678780061129
 30
0.0
 10
175.1998213444022
 20
321.1331210200971
 30
0.0
 10
174.9328048591301
 20
321.4616247465697
 30
0.0
 10
174.4092224282863
 20
321.7773253614354
 30
0.0
 10
173.8845357931976
 20
321.9476430385765
 30
0.0
 10
173.5655972809692
 20
321.9617971019533
 30
0.0
 10
173.419257029885
 20
321.9682914860085
 30
0.0
  0
LINE
  5
286
330
1F
100
AcDbEntity
  8
0
  6
SLD-Сплошная
 62
     7
370
    25
100
AcDbLine
 10
149.96541395
 20
321.5534691449
 30
0.0
 11
145.1934638013
 21
318.0977256592
 31
0.0
  0
ARC
  5
287
330
1F
100
AcDbEntity
  8
0
  6
SLD-Сплошная
 62
     7
370
    25
100
AcDbCircle
 10
170.2774996396
 20
262.3426015161
 30
0.0
 40
3.899999999999992
100
AcDbArc
 50
270.0
 51
313.0038408681
  0
LINE
  5
288
330
1F
100
AcDbEntity
  8
0
  6
SLD-Сплошная
 62
     7
370
    25
100
AcDbLine
 10
178.1975930988
 20
316.9797617861
 30
0.0
 11
175.3078122491
 21
321.0057400184
 31
0.0
  0
ARC
  5
289
330
1F
100
AcDbEntity
  8
0
  6
SLD-Сплошная
 62
     7
370
    25
100
AcDbCircle
 10
156.0774996396
 20
262.3426015161
 30
0.0
 40
3.900000000000006
100
AcDbArc
 50
180.0
 51
270.0
  0
LINE
  5
28A
330
1F
100
AcDbEntity
  8
0
  6
SLD-Сплошная
 62
     7
370
    25
100
AcDbLine
 10
156.0774996396
 20
258.4426015161
 30
0.0
 11
170.2774996396
 21
258.4426015161
 31
0.0
  0
ARC
  5
28B
330
1F
100
AcDbEntity
  8
0
  6
SLD-Сплошная
 62
     7
370
    25
100
AcDbCircle
 10
481.6480865704
 20
289.305174942
 30
0.0
 40
335.0
100
AcDbArc
 50
180.0
 51
187.0452879194
  0
LWPOLYLINE
  5
28C
330
1F
100
AcDbEntity
  8
0
  6
SLD-Сплошная
 62
     7
370
    25
100
AcDbPolyline
 90
        3
 70
   128
 43
0.0
 10
149.1774996396
 20
330.3942102909
 10
148.6555723261
 20
325.924643223
 10
148.0742530427
 20
320.183931161
  0
ARC
  5
28D
330
1F
100
AcDbEntity
  8
0
  6
SLD-Сплошная
 62
     7
370
    25
100
AcDbCircle
 10
481.6480865704
 20
289.305174942
 30
0.0
 40
335.0
100
AcDbArc
 50
175.9416328507
 51
180.0
  0
SPLINE
  5
28E
330
1F
100
AcDbEntity
  8
0
  6
SLD-Сплошная
 62
     7
370
    25
100
AcDbSpline
210
0.0
220
0.0
230
1.0
 70
     8
 71
     3
 72
    15
 73
    11
 74
     0
 42
0.00000001
 43
0.00000001
 40
0.0
 40
0.0
 40
0.0
 40
0.0
 40
0.1116153624924387
 40
0.2297477631720647
 40
0.3524193293239309
 40
0.4779212766866091
 40
0.6052801214559222
 40
0.7343620833449098
 40
0.865675673903023
 40
1.0
 40
1.0
 40
1.0
 40
1.0
 10
144.0195320195958
 20
315.8842866851527
 30
0.0
 10
144.0295943591128
 20
315.7101740327651
 30
0.0
 10
144.0503065616688
 20
315.3517825754181
 30
0.0
 10
144.2262248939794
 20
314.8258545380273
 30
0.0
 10
144.5146068102708
 20
314.3240581693185
 30
0.0
 10
144.9172622304467
 20
313.8767866575816
 30
0.0
 10
145.4130164285727
 20
313.5063329350013
 30
0.0
 10
145.9809287682788
 20
313.2308206527071
 30
0.0
 10
146.6004858036404
 20
313.0506742260249
 30
0.0
 10
147.0253823327912
 20
313.0265565937879
 30
0.0
 10
147.2402384823116
 20
313.0143611032566
 30
0.0
  0
LINE
  5
28F
330
1F
100
AcDbEntity
  8
0
  6
SLD-Сплошная
 62
     7
370
    25
100
AcDbLine
 10
175.1774996396
 20
345.3051749409
 30
0.0
 11
173.8461178838
 21
345.3051749409
 31
0.0
  0
LINE
  5
290
330
1F
100
AcDbEntity
  8
0
  6
SLD-Сплошная
 62
     7
370
    25
100
AcDbLine
 10
147.2402384823
 20
313.0140143017
 30
0.0
 11
149.1774996396
 21
313.0140143017
 31
0.0
  0
SPLINE
  5
291
330
1F
100
AcDbEntity
  8
0
  6
SLD-Сплошная
 62
     7
370
    25
100
AcDbSpline
210
0.0
220
0.0
230
1.0
 70
     8
 71
     3
 72
    11
 73
     7
 74
     0
 42
0.00000001
 43
0.00000001
 40
0.0
 40
0.0
 40
0.0
 40
0.0
 40
0.2231185203513364
 40
0.4633141679763195
 40
0.7230742920716823
 40
1.0
 40
1.0
 40
1.0
 40
1.0
 10
145.1929113908243
 20
318.0973247571603
 30
0.0
 10
145.0435251740769
 20
317.9764015943135
 30
0.0
 10
144.7333189634475
 20
317.7253000071607
 30
0.0
 10
144.3618332596917
 20
317.2174338453551
 30
0.0
 10
144.0797224899292
 20
316.5955158844498
 30
0.0
 10
144.0400192293281
 20
316.1263906621571
 30
0.0
 10
144.0195326561917
 20
315.8843257024758
 30
0.0
  0
ARC
  5
292
330
1F
100
AcDbEntity
  8
0
  6
SLD-Сплошная
 62
     7
370
    25
100
AcDbCircle
 10
152.1774996396
 20
340.8051749409
 30
0.0
 40
3.000000000000028
100
AcDbArc
 50
90.0
 51
180.0
  0
ARC
  5
293
330
1F
100
AcDbEntity
  8
0
  6
SLD-Сплошная
 62
     7
370
    25
100
AcDbCircle
 10
156.0774996396
 20
242.2315263555
 30
0.0
 40
3.900000000000006
100
AcDbArc
 50
180.0
 51
270.0
  0
ARC
  5
294
330
1F
100
AcDbEntity
  8
0
  6
SLD-Сплошная
 62
     7
370
    25
100
AcDbCircle
 10
170.2774996396
 20
242.2315263555
 30
0.0
 40
3.899999999999984
100
AcDbArc
 50
270.0
 51
335.0580847647
  0
ARC
  5
295
330
1F
100
AcDbEntity
  8
0
  6
SLD-Сплошная
 62
     7
370
    25
100
AcDbCircle
 10
156.0774996396
 20
336.825130118
 30
0.0
 40
3.900000000000006
100
AcDbArc
 50
90.0
 51
180.0
  0
ARC
  5
296
330
1F
100
AcDbEntity
  8
0
  6
SLD-Сплошная
 62
     7
370
    25
100
AcDbCircle
 10
170.2774996396
 20
336.825130118
 30
0.0
 40
3.899999999999985
100
AcDbArc
 50
24.7970403845
 51
90.0
  0
LINE
  5
297
330
1F
100
AcDbEntity
  8
0
  6
SLD-Сплошная
 62
     7
370
    25
100
AcDbLine
 10
156.0774996396
 20
238.3315263555
 30
0.0
 11
170.2774996396
 21
238.3315263555
 31
0.0
  0
LINE
  5
298
330
1F
100
AcDbEntity
  8
0
  6
SLD-Сплошная
 62
     7
370
    25
100
AcDbLine
 10
170.2774996396
 20
340.725130118
 30
0.0
 11
156.0774996396
 21
340.725130118
 31
0.0
  0
LINE
  5
299
330
1F
100
AcDbEntity
  8
0
  6
SLD-Сплошная
 62
     7
370
    25
100
AcDbLine
 10
173.8461178838
 20
233.3051749409
 30
0.0
 11
175.1774996396
 21
233.3051749409
 31
0.0
  0
ARC
  5
29A
330
1F
100
AcDbEntity
  8
0
  6
SLD-Сплошная
 62
     7
370
    25
100
AcDbCircle
 10
156.0774996396
 20
234.7070023988
 30
0.0
 40
3.900000000000006
100
AcDbArc
 50
180.0
 51
270.0
  0
ARC
  5
29B
330
1F
100
AcDbEntity
  8
0
  6
SLD-Сплошная
 62
     7
370
    25
100
AcDbCircle
 10
170.2774996396
 20
234.7070023988
 30
0.0
 40
3.899999999999995
100
AcDbArc
 50
270.0
 51
338.9646103287
  0
ARC
  5
29C
330
1F
100
AcDbEntity
  8
0
  6
SLD-Сплошная
 62
     7
370
    25
100
AcDbCircle
 10
156.0774996396
 20
343.9033474829
 30
0.0
 40
3.900000000000034
100
AcDbArc
 50
90.0
 51
180.0
  0
ARC
  5
29D
330
1F
100
AcDbEntity
  8
0
  6
SLD-Сплошная
 62
     7
370
    25
100
AcDbCircle
 10
170.2774996396
 20
343.9033474829
 30
0.0
 40
3.900000000000034
100
AcDbArc
 50
21.0626934662
 51
90.0
  0
SPLINE
  5
29E
330
1F
100
AcDbEntity
  8
0
  6
SLD-Сплошная
 62
     7
370
    25
100
AcDbSpline
210
0.0
220
0.0
230
1.0
 70
     8
 71
     3
 72
    11
 73
     7
 74
     0
 42
0.00000001
 43
0.00000001
 40
0.0
 40
0.0
 40
0.0
 40
0.0
 40
0.2769257079283525
 40
0.5366858320237231
 40
0.7768814796486627
 40
1.0
 40
1.0
 40
1.0
 40
1.0
 10
144.0195326561918
 20
262.7260241792313
 30
0.0
 10
144.040019229328
 20
262.4839592195498
 30
0.0
 10
144.0797224899287
 20
262.0148339972569
 30
0.0
 10
144.3618332596913
 20
261.392916036351
 30
0.0
 10
144.7333189634474
 20
260.885049874545
 30
0.0
 10
145.0435251740769
 20
260.6339482873921
 30
0.0
 10
145.1929113908243
 20
260.5130251245453
 30
0.0
  0
LINE
  5
29F
330
1F
100
AcDbEntity
  8
0
  6
SLD-Сплошная
 62
     7
370
    25
100
AcDbLine
 10
145.1934638013
 20
260.5126242226
 30
0.0
 11
148.0742530429
 21
258.4264187206
 31
0.0
  0
SPLINE
  5
2A0
330
1F
100
AcDbEntity
  8
0
  6
SLD-Сплошная
 62
     7
370
    25
100
AcDbSpline
210
0.0
220
0.0
230
1.0
 70
     8
 71
     3
 72
    13
 73
     9
 74
     0
 42
0.00000001
 43
0.00000001
 40
0.0
 40
0.0
 40
0.0
 40
0.0
 40
0.1782809427982591
 40
0.3969230909980547
 40
0.525920895535793
 40
0.6697982898479765
 40
0.8286653288896773
 40
0.9999999999999999
 40
0.9999999999999999
 40
0.9999999999999999
 40
0.9999999999999999
 10
147.2402384823116
 20
265.595988778449
 30
0.0
 10
146.9529554718402
 20
265.5755446279597
 30
0.0
 10
146.313351155654
 20
265.530027954794
 30
0.0
 10
145.5123161669934
 20
265.182829396408
 30
0.0
 10
144.8781243190059
 20
264.7001386331485
 30
0.0
 10
144.4302075299565
 20
264.1693638633649
 30
0.0
 10
144.0890602255165
 20
263.4922135799288
 30
0.0
 10
144.0432842193153
 20
262.9877952041622
 30
0.0
 10
144.0195320195958
 20
262.7260631965534
 30
0.0
  0
LINE
  5
2A1
330
1F
100
AcDbEntity
  8
0
  6
SLD-Сплошная
 62
     7
370
    25
100
AcDbLine
 10
147.4881085118
 20
265.59633558
 30
0.0
 11
147.2402384823
 21
265.59633558
 31
0.0
  0
LINE
  5
2A2
330
1F
100
AcDbEntity
  8
0
  6
SLD-Сплошная
 62
     7
370
    25
100
AcDbLine
 10
238.67749964
 20
230.805174942
 30
0.0
 11
229.17749964
 21
230.805174942
 31
0.0
  0
LINE
  5
2A3
330
1F
100
AcDbEntity
  8
0
  6
SLD-Сплошная
 62
     7
370
    25
100
AcDbLine
 10
229.17749964
 20
230.805174942
 30
0.0
 11
229.17749964
 21
235.805174942
 31
0.0
  0
LINE
  5
2A4
330
1F
100
AcDbEntity
  8
0
  6
SLD-Сплошная
 62
     7
370
    25
100
AcDbLine
 10
238.67749964
 20
235.805174942
 30
0.0
 11
238.67749964
 21
230.805174942
 31
0.0
  0
LINE
  5
2A5
330
1F
100
AcDbEntity
  8
0
  6
SLD-Сплошная
 62
     7
370
    25
100
AcDbLine
 10
229.17749964
 20
235.805174942
 30
0.0
 11
229.17749964
 21
342.805174942
 31
0.0
  0
LINE
  5
2A6
330
1F
100
AcDbEntity
  8
0
  6
SLD-Сплошная
 62
     7
370
    25
100
AcDbLine
 10
238.67749964
 20
342.805174942
 30
0.0
 11
238.67749964
 21
235.805174942
 31
0.0
  0
LINE
  5
2A7
330
1F
100
AcDbEntity
  8
0
  6
SLD-Сплошная
 62
     7
370
    25
100
AcDbLine
 10
229.17749964
 20
347.805174942
 30
0.0
 11
238.67749964
 21
347.805174942
 31
0.0
  0
LINE
  5
2A8
330
1F
100
AcDbEntity
  8
0
  6
SLD-Сплошная
 62
     7
370
    25
100
AcDbLine
 10
229.17749964
 20
342.805174942
 30
0.0
 11
229.17749964
 21
347.805174942
 31
0.0
  0
LINE
  5
2A9
330
1F
100
AcDbEntity
  8
0
  6
SLD-Сплошная
 62
     7
370
    25
100
AcDbLine
 10
238.67749964
 20
347.805174942
 30
0.0
 11
238.67749964
 21
342.805174942
 31
0.0
  0
LINE
  5
2AA
330
1F
100
AcDbEntity
  8
0
  6
SLD-Сплошная
 62
     7
370
    25
100
AcDbLine
 10
251.17749964
 20
339.405174942
 30
0.0
 11
241.67749964
 21
339.405172111
 31
0.0
  0
LINE
  5
2AB
330
1F
100
AcDbEntity
  8
0
  6
SLD-Сплошная
 62
     7
370
    25
100
AcDbLine
 10
251.17749964
 20
339.405174942
 30
0.0
 11
251.17749964
 21
239.205174942
 31
0.0
  0
LINE
  5
2AC
330
1F
100
AcDbEntity
  8
0
  6
SLD-Сплошная
 62
     7
370
    25
100
AcDbLine
 10
251.17749964
 20
239.205174942
 30
0.0
 11
241.67749964
 21
239.205177773
 31
0.0
  0
LINE
  5
2AD
330
1F
100
AcDbEntity
  8
0
  6
SLD-Сплошная
 62
     7
370
    25
100
AcDbLine
 10
229.17749964
 20
280.8737719221
 30
0.0
 11
175.1774996396
 21
280.8737719221
 31
0.0
  0
LINE
  5
2AE
330
1F
100
AcDbEntity
  8
0
  6
SLD-Сплошная
 62
     7
370
    25
100
AcDbLine
 10
229.17749964
 20
297.7365779619
 30
0.0
 11
175.1774996396
 21
297.7365779619
 31
0.0
  0
LINE
  5
2AF
330
1F
100
AcDbEntity
  8
0
  6
SLD-Сплошная
 62
     7
370
    25
100
AcDbLine
 10
229.17749964
 20
250.305174942
 30
0.0
 11
175.1774996396
 21
250.305174942
 31
0.0
  0
LINE
  5
2B0
330
1F
100
AcDbEntity
  8
0
  6
SLD-Сплошная
 62
     7
370
    25
100
AcDbLine
 10
192.8441663066
 20
323.7677883322
 30
0.0
 11
192.8441663066
 21
328.305174942
 31
0.0
  0
LINE
  5
2B1
330
1F
100
AcDbEntity
  8
0
  6
SLD-Сплошная
 62
     7
370
    25
100
AcDbLine
 10
192.8441663066
 20
323.7677883322
 30
0.0
 11
215.5108329733
 21
323.7677883322
 31
0.0
  0
LINE
  5
2B2
330
1F
100
AcDbEntity
  8
0
  6
SLD-Сплошная
 62
     7
370
    25
100
AcDbLine
 10
215.5108329733
 20
323.7677883322
 30
0.0
 11
215.5108329733
 21
328.305174942
 31
0.0
  0
LINE
  5
2B3
330
1F
100
AcDbEntity
  8
0
  6
SLD-Сплошная
 62
     7
370
    25
100
AcDbLine
 10
188.67749964
 20
328.305174942
 30
0.0
 11
175.1774996396
 21
328.305174942
 31
0.0
  0
LINE
  5
2B4
330
1F
100
AcDbEntity
  8
0
  6
SLD-Сплошная
 62
     7
370
    25
100
AcDbLine
 10
229.17749964
 20
328.305174942
 30
0.0
 11
218.67749964
 21
328.305174942
 31
0.0
  0
LINE
  5
2B5
330
1F
100
AcDbEntity
  8
0
  6
SLD-Сплошная
 62
     7
370
    25
100
AcDbLine
 10
251.67749964
 20
326.805174942
 30
0.0
 11
251.17749964
 21
326.805174942
 31
0.0
  0
LINE
  5
2B6
330
1F
100
AcDbEntity
  8
0
  6
SLD-Сплошная
 62
     7
370
    25
100
AcDbLine
 10
251.67749964
 20
318.031841559
 30
0.0
 11
251.67749964
 21
326.805174942
 31
0.0
  0
LINE
  5
2B7
330
1F
100
AcDbEntity
  8
0
  6
SLD-Сплошная
 62
     7
370
    25
100
AcDbLine
 10
251.67749964
 20
260.578508325
 30
0.0
 11
251.67749964
 21
318.031841559
 31
0.0
  0
LINE
  5
2B8
330
1F
100
AcDbEntity
  8
0
  6
SLD-Сплошная
 62
     7
370
    25
100
AcDbLine
 10
251.67749964
 20
251.805174942
 30
0.0
 11
251.67749964
 21
260.578508325
 31
0.0
  0
LINE
  5
2B9
330
1F
100
AcDbEntity
  8
0
  6
SLD-Сплошная
 62
     7
370
    25
100
AcDbLine
 10
251.67749964
 20
251.805174942
 30
0.0
 11
251.17749964
 21
251.805174942
 31
0.0
  0
LINE
  5
2BA
330
1F
100
AcDbEntity
  8
0
  6
SLD-Сплошная
 62
     7
370
    25
100
AcDbLine
 10
269.67749964
 20
260.578508325
 30
0.0
 11
269.67749964
 21
283.555174942
 31
0.0
  0
LINE
  5
2BB
330
1F
100
AcDbEntity
  8
0
  6
SLD-Сплошная
 62
     7
370
    25
100
AcDbLine
 10
275.62749964
 20
283.555174942
 30
0.0
 11
269.67749964
 21
283.555174942
 31
0.0
  0
LINE
  5
2BC
330
1F
100
AcDbEntity
  8
0
  6
SLD-Сплошная
 62
     7
370
    25
100
AcDbLine
 10
275.62749964
 20
251.805174942
 30
0.0
 11
275.62749964
 21
283.555174942
 31
0.0
  0
LINE
  5
2BD
330
1F
100
AcDbEntity
  8
0
  6
SLD-Сплошная
 62
     7
370
    25
100
AcDbLine
 10
269.67749964
 20
251.805174942
 30
0.0
 11
275.62749964
 21
251.805174942
 31
0.0
  0
LINE
  5
2BE
330
1F
100
AcDbEntity
  8
0
  6
SLD-Сплошная
 62
     7
370
    25
100
AcDbLine
 10
269.67749964
 20
251.805174942
 30
0.0
 11
269.67749964
 21
260.578508325
 31
0.0
  0
LINE
  5
2BF
330
1F
100
AcDbEntity
  8
0
  6
SLD-Сплошная
 62
     7
370
    25
100
AcDbLine
 10
275.62749964
 20
295.055174942
 30
0.0
 11
269.67749964
 21
295.055174942
 31
0.0
  0
LINE
  5
2C0
330
1F
100
AcDbEntity
  8
0
  6
SLD-Сплошная
 62
     7
370
    25
100
AcDbLine
 10
269.67749964
 20
326.805174942
 30
0.0
 11
275.62749964
 21
326.805174942
 31
0.0
  0
LINE
  5
2C1
330
1F
100
AcDbEntity
  8
0
  6
SLD-Сплошная
 62
     7
370
    25
100
AcDbLine
 10
269.67749964
 20
318.031841559
 30
0.0
 11
269.67749964
 21
326.805174942
 31
0.0
  0
LINE
  5
2C2
330
1F
100
AcDbEntity
  8
0
  6
SLD-Сплошная
 62
     7
370
    25
100
AcDbLine
 10
269.67749964
 20
295.055174942
 30
0.0
 11
269.67749964
 21
318.031841559
 31
0.0
  0
LINE
  5
2C3
330
1F
100
AcDbEntity
  8
0
  6
SLD-Сплошная
 62
     7
370
    25
100
AcDbLine
 10
275.62749964
 20
295.055174942
 30
0.0
 11
275.62749964
 21
326.805174942
 31
0.0
  0
LINE
  5
2C4
330
1F
100
AcDbEntity
  8
0
  6
SLD-Сплошная
 62
     7
370
    25
100
AcDbLine
 10
269.67749964
 20
295.055174942
 30
0.0
 11
269.67749964
 21
283.555174942
 31
0.0
  0
LINE
  5
2C5
330
1F
100
AcDbEntity
  8
0
  6
SLD-Сплошная
 62
     7
370
    25
100
AcDbLine
 10
275.62749964
 20
295.055174942
 30
0.0
 11
275.62749964
 21
283.555174942
 31
0.0
  0
LINE
  5
2C6
330
1F
100
AcDbEntity
  8
0
  6
SLD-Сплошная
 62
     7
370
    25
100
AcDbLine
 10
294.17749964
 20
297.905174942
 30
0.0
 11
275.62749964
 21
297.905174942
 31
0.0
  0
LINE
  5
2C7
330
1F
100
AcDbEntity
  8
0
  6
SLD-Сплошная
 62
     7
370
    25
100
AcDbLine
 10
294.17749964
 20
297.905174942
 30
0.0
 11
294.17749964
 21
280.705174942
 31
0.0
  0
LINE
  5
2C8
330
1F
100
AcDbEntity
  8
0
  6
SLD-Сплошная
 62
     7
370
    25
100
AcDbLine
 10
294.17749964
 20
280.705174942
 30
0.0
 11
275.62749964
 21
280.705174942
 31
0.0
  0
LINE
  5
2C9
330
1F
100
AcDbEntity
  8
0
  6
SLD-Сплошная
 62
     7
370
    25
100
AcDbLine
 10
269.67749964
 20
297.905174942
 30
0.0
 11
251.67749964
 21
297.905174942
 31
0.0
  0
LINE
  5
2CA
330
1F
100
AcDbEntity
  8
0
  6
SLD-Сплошная
 62
     7
370
    25
100
AcDbLine
 10
269.67749964
 20
280.705174942
 30
0.0
 11
251.67749964
 21
280.705174942
 31
0.0
  0
LINE
  5
2CB
330
1F
100
AcDbEntity
  8
0
  6
SLD-Сплошная
 62
     7
370
    25
100
AcDbLine
 10
269.67749964
 20
267.2011749867
 30
0.0
 11
251.67749964
 21
267.2011749867
 31
0.0
  0
LINE
  5
2CC
330
1F
100
AcDbEntity
  8
0
  6
SLD-Сплошная
 62
     7
370
    25
100
AcDbLine
 10
269.67749964
 20
259.7011749867
 30
0.0
 11
251.67749964
 21
259.7011749867
 31
0.0
  0
LINE
  5
2CD
330
1F
100
AcDbEntity
  8
0
  6
SLD-Сплошная
 62
     7
370
    25
100
AcDbLine
 10
269.67749964
 20
318.9091748973
 30
0.0
 11
251.67749964
 21
318.9091748973
 31
0.0
  0
LINE
  5
2CE
330
1F
100
AcDbEntity
  8
0
  6
SLD-Сплошная
 62
     7
370
    25
100
AcDbLine
 10
269.67749964
 20
311.4091748973
 30
0.0
 11
251.67749964
 21
311.4091748973
 31
0.0
  0
LINE
  5
2CF
330
1F
100
AcDbEntity
  8
0
  6
SLD-Сплошная
 62
     7
370
    25
100
AcDbLine
 10
295.67749964
 20
295.005174942
 30
0.0
 11
294.17749964
 21
295.005174942
 31
0.0
  0
LINE
  5
2D0
330
1F
100
AcDbEntity
  8
0
  6
SLD-Сплошная
 62
     7
370
    25
100
AcDbLine
 10
295.67749964
 20
283.605174942
 30
0.0
 11
294.17749964
 21
283.605174942
 31
0.0
  0
LINE
  5
2D1
330
1F
100
AcDbEntity
  8
0
  6
SLD-Сплошная
 62
     7
370
    25
100
AcDbLine
 10
295.67749964
 20
295.005174942
 30
0.0
 11
295.67749964
 21
283.605174942
 31
0.0
  0
LINE
  5
2D2
330
1F
100
AcDbEntity
  8
0
  6
SLD-Сплошная
 62
     7
370
    25
100
AcDbLine
 10
198.3051848385
 20
325.2410752281
 30
0.0
 11
201.5082585885
 21
325.2410752281
 31
0.0
  0
LINE
  5
2D3
330
1F
100
AcDbEntity
  8
0
  6
SLD-Сплошная
 62
     7
370
    25
100
AcDbLine
 10
202.575962765
 20
325.2410752281
 30
0.0
 11
210.0498144415
 21
325.2410752281
 31
0.0
  0
LINE
  5
2D4
330
1F
100
AcDbEntity
  8
0
  6
SLD-Сплошная
 62
     7
370
    25
100
AcDbLine
 10
202.575962765
 20
326.7729362607
 30
0.0
 11
210.0498144415
 21
326.7729362607
 31
0.0
  0
LINE
  5
2D5
330
1F
100
AcDbEntity
  8
0
  6
SLD-Сплошная
 62
     7
370
    25
100
AcDbLine
 10
198.3051848385
 20
326.7729362607
 30
0.0
 11
201.5082585885
 21
326.7729362607
 31
0.0
  0
LINE
  5
2D6
330
1F
100
AcDbEntity
  8
0
  6
SLD-Сплошная
 62
     7
370
    25
100
AcDbLine
 10
202.575962765
 20
325.456923577
 30
0.0
 11
210.0498144415
 21
325.456923577
 31
0.0
  0
LINE
  5
2D7
330
1F
100
AcDbEntity
  8
0
  6
SLD-Сплошная
 62
     7
370
    25
100
AcDbLine
 10
210.0498144415
 20
325.2410752281
 30
0.0
 11
210.0498144415
 21
325.456923577
 31
0.0
  0
LINE
  5
2D8
330
1F
100
AcDbEntity
  8
0
  6
SLD-Сплошная
 62
     7
370
    25
100
AcDbLine
 10
202.575962765
 20
325.2410752281
 30
0.0
 11
202.575962765
 21
325.456923577
 31
0.0
  0
LINE
  5
2D9
330
1F
100
AcDbEntity
  8
0
  6
SLD-Сплошная
 62
     7
370
    25
100
AcDbLine
 10
198.3051848385
 20
325.456923577
 30
0.0
 11
201.5082585885
 21
325.456923577
 31
0.0
  0
LINE
  5
2DA
330
1F
100
AcDbEntity
  8
0
  6
SLD-Сплошная
 62
     7
370
    25
100
AcDbLine
 10
198.3051848385
 20
325.2410752281
 30
0.0
 11
198.3051848385
 21
325.456923577
 31
0.0
  0
LINE
  5
2DB
330
1F
100
AcDbEntity
  8
0
  6
SLD-Сплошная
 62
     7
370
    25
100
AcDbLine
 10
201.5082585885
 20
325.2410752281
 30
0.0
 11
201.5082585885
 21
325.456923577
 31
0.0
  0
LINE
  5
2DC
330
1F
100
AcDbEntity
  8
0
  6
SLD-Сплошная
 62
     7
370
    25
100
AcDbLine
 10
201.5082585885
 20
326.6900938569
 30
0.0
 11
198.3051848385
 21
326.6900938569
 31
0.0
  0
LINE
  5
2DD
330
1F
100
AcDbEntity
  8
0
  6
SLD-Сплошная
 62
     7
370
    25
100
AcDbLine
 10
198.3051848385
 20
325.456923577
 30
0.0
 11
198.3051848385
 21
326.6900938569
 31
0.0
  0
LINE
  5
2DE
330
1F
100
AcDbEntity
  8
0
  6
SLD-Сплошная
 62
     7
370
    25
100
AcDbLine
 10
201.5082585885
 20
325.456923577
 30
0.0
 11
201.5082585885
 21
326.6900938569
 31
0.0
  0
LINE
  5
2DF
330
1F
100
AcDbEntity
  8
0
  6
SLD-Сплошная
 62
     7
370
    25
100
AcDbLine
 10
210.0498144415
 20
326.6900938569
 30
0.0
 11
202.575962765
 21
326.6900938569
 31
0.0
  0
LINE
  5
2E0
330
1F
100
AcDbEntity
  8
0
  6
SLD-Сплошная
 62
     7
370
    25
100
AcDbLine
 10
210.0498144415
 20
325.456923577
 30
0.0
 11
210.0498144415
 21
326.6900938569
 31
0.0
  0
LINE
  5
2E1
330
1F
100
AcDbEntity
  8
0
  6
SLD-Сплошная
 62
     7
370
    25
100
AcDbLine
 10
202.575962765
 20
325.456923577
 30
0.0
 11
202.575962765
 21
326.6900938569
 31
0.0
  0
LINE
  5
2E2
330
1F
100
AcDbEntity
  8
0
  6
SLD-Сплошная
 62
     7
370
    25
100
AcDbLine
 10
198.3051848385
 20
326.9800092248
 30
0.0
 11
201.5082585885
 21
326.9800092248
 31
0.0
  0
LINE
  5
2E3
330
1F
100
AcDbEntity
  8
0
  6
SLD-Сплошная
 62
     7
370
    25
100
AcDbLine
 10
201.5082585885
 20
326.7729362607
 30
0.0
 11
201.5082585885
 21
326.9800092248
 31
0.0
  0
LINE
  5
2E4
330
1F
100
AcDbEntity
  8
0
  6
SLD-Сплошная
 62
     7
370
    25
100
AcDbLine
 10
198.3051848385
 20
326.7729362607
 30
0.0
 11
198.3051848385
 21
326.9800092248
 31
0.0
  0
LINE
  5
2E5
330
1F
100
AcDbEntity
  8
0
  6
SLD-Сплошная
 62
     7
370
    25
100
AcDbLine
 10
201.5082585885
 20
326.9800092248
 30
0.0
 11
201.5082585885
 21
328.305174942
 31
0.0
  0
LINE
  5
2E6
330
1F
100
AcDbEntity
  8
0
  6
SLD-Сплошная
 62
     7
370
    25
100
AcDbLine
 10
198.3051848385
 20
326.9800092248
 30
0.0
 11
198.3051848385
 21
328.305174942
 31
0.0
  0
LINE
  5
2E7
330
1F
100
AcDbEntity
  8
0
  6
SLD-Сплошная
 62
     7
370
    25
100
AcDbLine
 10
202.575962765
 20
326.9800092248
 30
0.0
 11
202.575962765
 21
326.7729362607
 31
0.0
  0
LINE
  5
2E8
330
1F
100
AcDbEntity
  8
0
  6
SLD-Сплошная
 62
     7
370
    25
100
AcDbLine
 10
202.575962765
 20
326.9800092248
 30
0.0
 11
210.0498144415
 21
326.9800092248
 31
0.0
  0
LINE
  5
2E9
330
1F
100
AcDbEntity
  8
0
  6
SLD-Сплошная
 62
     7
370
    25
100
AcDbLine
 10
210.0498144415
 20
326.9800092248
 30
0.0
 11
210.0498144415
 21
326.7729362607
 31
0.0
  0
LINE
  5
2EA
330
1F
100
AcDbEntity
  8
0
  6
SLD-Сплошная
 62
     7
370
    25
100
AcDbLine
 10
205.779036515
 20
327.771388253
 30
0.0
 11
205.779036515
 21
328.305174942
 31
0.0
  0
LINE
  5
2EB
330
1F
100
AcDbEntity
  8
0
  6
SLD-Сплошная
 62
     7
370
    25
100
AcDbLine
 10
206.8467406915
 20
327.771388253
 30
0.0
 11
205.779036515
 21
327.771388253
 31
0.0
  0
LINE
  5
2EC
330
1F
100
AcDbEntity
  8
0
  6
SLD-Сплошная
 62
     7
370
    25
100
AcDbLine
 10
206.8467406915
 20
327.771388253
 30
0.0
 11
206.8467406915
 21
328.305174942
 31
0.0
  0
LINE
  5
2ED
330
1F
100
AcDbEntity
  8
0
  6
SLD-Сплошная
 62
     7
370
    25
100
AcDbLine
 10
202.575962765
 20
326.9800092248
 30
0.0
 11
202.575962765
 21
328.305174942
 31
0.0
  0
LINE
  5
2EE
330
1F
100
AcDbEntity
  8
0
  6
SLD-Сплошная
 62
     7
370
    25
100
AcDbLine
 10
210.0498144415
 20
326.9800092248
 30
0.0
 11
210.0498144415
 21
328.305174942
 31
0.0
  0
LINE
  5
2EF
330
1F
100
AcDbEntity
  8
0
  6
SLD-Сплошная
 62
     7
370
    25
100
AcDbLine
 10
269.67749964
 20
279.7770286122
 30
0.0
 11
251.67749964
 21
279.7770286122
 31
0.0
  0
LINE
  5
2F0
330
1F
100
AcDbEntity
  8
0
  6
SLD-Сплошная
 62
     7
370
    25
100
AcDbLine
 10
269.67749964
 20
298.8333212718
 30
0.0
 11
251.67749964
 21
298.8333212718
 31
0.0
  0
LINE
  5
2F1
330
1F
100
AcDbEntity
  8
0
  6
SLD-Сплошная
 62
     7
370
    25
100
AcDbLine
 10
201.5082585885
 20
328.2446676526
 30
0.0
 11
202.575962765
 21
328.2446676526
 31
0.0
  0
LINE
  5
2F2
330
1F
100
AcDbEntity
  8
0
  6
SLD-Сплошная
 62
     7
370
    25
100
AcDbLine
 10
205.779036515
 20
328.2446676526
 30
0.0
 11
206.8467406915
 21
328.2446676526
 31
0.0
  0
LINE
  5
2F3
330
1F
100
AcDbEntity
  8
0
  6
SLD-Сплошная
 62
     7
370
    25
100
AcDbLine
 10
238.67749964
 20
232.805174942
 30
0.0
 11
241.67749964
 21
232.805174942
 31
0.0
  0
LINE
  5
2F4
330
1F
100
AcDbEntity
  8
0
  6
SLD-Сплошная
 62
     7
370
    25
100
AcDbLine
 10
241.67749964
 20
232.805174942
 30
0.0
 11
241.67749964
 21
235.805174942
 31
0.0
  0
LINE
  5
2F5
330
1F
100
AcDbEntity
  8
0
  6
SLD-Сплошная
 62
     7
370
    25
100
AcDbLine
 10
241.67749964
 20
235.805174942
 30
0.0
 11
241.67749964
 21
342.805174942
 31
0.0
  0
LINE
  5
2F6
330
1F
100
AcDbEntity
  8
0
  6
SLD-Сплошная
 62
     7
370
    25
100
AcDbLine
 10
238.67749964
 20
345.805174942
 30
0.0
 11
241.67749964
 21
345.805174942
 31
0.0
  0
LINE
  5
2F7
330
1F
100
AcDbEntity
  8
0
  6
SLD-Сплошная
 62
     7
370
    25
100
AcDbLine
 10
241.67749964
 20
342.805174942
 30
0.0
 11
241.67749964
 21
345.805174942
 31
0.0
  0
ARC
  5
2F8
330
1F
100
AcDbEntity
  8
0
  6
SLD-Сплошная
 62
     7
370
    25
100
AcDbCircle
 10
156.0774342546
 20
289.6515502729
 30
0.0
 40
3.899934615535223
100
AcDbArc
 50
180.0009606343
 51
270.0009606021
  0
LINE
  5
2F9
330
1F
100
AcDbEntity
  8
0
  6
SLD-Сплошная
 62
     7
370
    25
100
AcDbLine
 10
152.1774996396
 20
289.6514848857
 30
0.0
 11
152.1774996396
 21
289.8514781795
 31
0.0
  0
ARC
  5
2FA
330
1F
100
AcDbEntity
  8
0
  6
SLD-Сплошная
 62
     7
370
    25
100
AcDbCircle
 10
156.0774342546
 20
289.8514127923
 30
0.0
 40
3.899934615533694
100
AcDbArc
 50
89.9990393979
 51
179.999039984
  0
SPLINE
  5
2FB
330
1F
100
AcDbEntity
  8
0
  6
SLD-Сплошная
 62
     7
370
    25
100
AcDbSpline
210
0.0
220
0.0
230
1.0
 70
     8
 71
     3
 72
    28
 73
    24
 74
     0
 42
0.00000001
 43
0.00000001
 40
0.0
 40
0.0
 40
0.0
 40
0.0
 40
0.0179580482578443
 40
0.0358203863822552
 40
0.0536296572903483
 40
0.0714288853089238
 40
0.0892611674508347
 40
0.1071693620842072
 40
0.1251957861250487
 40
0.1876249836140855
 40
0.2502765176824144
 40
0.3126266041339685
 40
0.3753469326271002
 40
0.5000176023209172
 40
0.624540258743998
 40
0.6871525015520348
 40
0.7494052192767748
 40
0.8119995898751078
 40
0.8743867880694484
 40
0.9059555558299818
 40
0.9372590816964037
 40
0.9685295809083668
 40
1.0
 40
1.0
 40
1.0
 40
1.0
 10
171.1774996396079
 20
293.4041648349815
 30
0.0
 10
171.2340722200186
 20
293.3886231850347
 30
0.0
 10
171.3469158687192
 20
293.3576227167143
 30
0.0
 10
171.5127504412948
 20
293.3009127565027
 30
0.0
 10
171.6752862901494
 20
293.236911896817
 30
0.0
 10
171.8343294864203
 20
293.1648838391103
 30
0.0
 10
171.9899262716794
 20
293.0850280076226
 30
0.0
 10
172.142068696391
 20
292.9972766916242
 30
0.0
 10
172.4122546790832
 20
292.8235673061643
 30
0.0
 10
172.7780715708098
 20
292.5289351147738
 30
0.0
 10
173.1838427807778
 20
292.0673484675312
 30
0.0
 10
173.5098466284399
 20
291.5450504895262
 30
0.0
 10
173.8224207826073
 20
290.7884120212197
 30
0.0
 10
173.9807799521103
 20
289.764223347234
 30
0.0
 10
173.8226387401649
 20
288.74022751089
 30
0.0
 10
173.5108809061843
 20
287.9841785609079
 30
0.0
 10
173.1857535410035
 20
287.4620600304375
 30
0.0
 10
172.7808429034865
 20
287.0001759099866
 30
0.0
 10
172.3810957134116
 20
286.6772653775388
 30
0.0
 10
172.0331579207505
 20
286.4613220923882
 30
0.0
 10
171.7584878370839
 20
286.3224187771178
 30
0.0
 10
171.4735460477867
 20
286.2061661347753
 30
0.0
 10
171.2763911827443
 20
286.1497315722348
 30
0.0
 10
171.1774996396079
 20
286.1214243784222
 30
0.0
  0
ARC
  5
2FC
330
1F
100
AcDbEntity
  8
0
  6
SLD-Сплошная
 62
     7
370
    25
100
AcDbCircle
 10
170.2774999635
 20
289.6517401356
 30
0.0
 40
3.900124477623325
100
AcDbArc
 50
269.9999952419
 51
283.3419252002
  0
ARC
  5
2FD
330
1F
100
AcDbEntity
  8
0
  6
SLD-Сплошная
 62
     7
370
    25
100
AcDbCircle
 10
170.2774999635
 20
289.8512229296
 30
0.0
 40
3.900124477623325
100
AcDbArc
 50
76.6580747999
 51
90.0000047581
  0
LINE
  5
2FE
330
1F
100
AcDbEntity
  8
0
  6
SLD-Сплошная
 62
     7
370
    25
100
AcDbLine
 10
170.2774996396
 20
285.7531077795
 30
0.0
 11
170.2774996396
 21
285.7514834816
 31
0.0
  0
LINE
  5
2FF
330
1F
100
AcDbEntity
  8
0
  6
SLD-Сплошная
 62
     7
370
    25
100
AcDbLine
 10
156.0774996396
 20
285.7531077795
 30
0.0
 11
156.0774996396
 21
285.7514834816
 31
0.0
  0
LINE
  5
300
330
1F
100
AcDbEntity
  8
0
  6
SLD-Сплошная
 62
     7
370
    25
100
AcDbLine
 10
171.1774996396
 20
258.5932538941
 30
0.0
 11
171.1774996396
 21
242.9873388536
 31
0.0
  0
SPLINE
  5
301
330
1F
100
AcDbEntity
  8
0
  6
SLD-Сплошная
 62
     7
370
    25
100
AcDbSpline
210
0.0
220
0.0
230
1.0
 70
     8
 71
     3
 72
    14
 73
    10
 74
     0
 42
0.00000001
 43
0.00000001
 40
0.0
 40
0.0
 40
0.0
 40
0.0
 40
0.1588365912373876
 40
0.3177234034731875
 40
0.4766258843038304
 40
0.6355595461036474
 40
0.7943045164400346
 40
0.9529478349067168
 40
1.0
 40
1.0
 40
1.0
 40
1.0
 10
171.1774996396079
 20
264.9301127263614
 30
0.0
 10
171.5628864504385
 20
264.8016315270071
 30
0.0
 10
172.3337819238108
 20
264.5446285050766
 30
0.0
 10
173.2252735280961
 20
263.752032159494
 30
0.0
 10
173.7917036117986
 20
262.7775077558136
 30
0.0
 10
173.9836357586815
 20
261.6979386264274
 30
0.0
 10
173.779154735559
 20
260.6531078096273
 30
0.0
 10
173.3958195928632
 20
259.8884019642236
 30
0.0
 10
173.0022858026018
 20
259.5897942290275
 30
0.0
 10
172.9122662428686
 20
259.5214886920687
 30
0.0
  0
LINE
  5
302
330
1F
100
AcDbEntity
  8
0
  6
SLD-Сплошная
 62
     7
370
    25
100
AcDbLine
 10
171.1774996396
 20
286.1214243784
 30
0.0
 11
171.1774996396
 21
264.9301127264
 31
0.0
  0
LINE
  5
303
330
1F
100
AcDbEntity
  8
0
  6
SLD-Сплошная
 62
     7
370
    25
100
AcDbLine
 10
171.1774996396
 20
315.0749050589
 30
0.0
 11
171.1774996396
 21
293.404164835
 31
0.0
  0
LINE
  5
304
330
1F
100
AcDbEntity
  8
0
  6
SLD-Сплошная
 62
     7
370
    25
100
AcDbLine
 10
174.0160712333
 20
315.0749050589
 30
0.0
 11
171.1774996396
 21
315.0749050589
 31
0.0
  0
SPLINE
  5
305
330
1F
100
AcDbEntity
  8
0
  6
SLD-Сплошная
 62
     7
370
    25
100
AcDbSpline
210
0.0
220
0.0
230
1.0
 70
     8
 71
     3
 72
    14
 73
    10
 74
     0
 42
0.00000001
 43
0.00000001
 40
0.0
 40
0.0
 40
0.0
 40
0.0
 40
0.1426221706455233
 40
0.2847025815430258
 40
0.4266136992006208
 40
0.5687293212592949
 40
0.7114216382381574
 40
0.8550583577660137
 40
1.0
 40
1.0
 40
1.0
 40
1.0
 10
175.1774996396079
 20
315.2587533711194
 30
0.0
 10
175.1243548307894
 20
315.2420377692383
 30
0.0
 10
175.0182670872237
 20
315.2086700607953
 30
0.0
 10
174.8559165549381
 20
315.1678237521236
 30
0.0
 10
174.6917991412214
 20
315.1339491665428
 30
0.0
 10
174.5256491659786
 20
315.1076470508104
 30
0.0
 10
174.3575420877272
 20
315.0889284747428
 30
0.0
 10
174.1874622665441
 20
315.0771808034772
 30
0.0
 10
174.0733735436968
 20
315.0756659237775
 30
0.0
 10
174.0160712333333
 20
315.0749050588599
 30
0.0
  0
LINE
  5
306
330
1F
100
AcDbEntity
  8
0
  6
SLD-Сплошная
 62
     7
370
    25
100
AcDbLine
 10
175.1774996396
 20
315.2587533711
 30
0.0
 11
175.1774996396
 21
241.0386736421
 31
0.0
  0
SPLINE
  5
307
330
1F
100
AcDbEntity
  8
0
  6
SLD-Сплошная
 62
     7
370
    25
100
AcDbSpline
210
0.0
220
0.0
230
1.0
 70
     8
 71
     3
 72
    21
 73
    17
 74
     0
 42
0.00000001
 43
0.00000001
 40
0.0
 40
0.0
 40
0.0
 40
0.0
 40
0.0358831962994246
 40
0.0715747474732941
 40
0.1071598571800636
 40
0.1427244940940399
 40
0.1783547750676288
 40
0.2141363429785544
 40
0.2501537615071776
 40
0.3748959736156335
 40
0.5000774767850391
 40
0.6246591538508524
 40
0.7499806477280211
 40
0.8330018734148742
 40
0.9160380880457413
 40
1.0
 40
1.0
 40
1.0
 40
1.0
 10
171.1774996396079
 20
242.9873388535725
 30
0.0
 10
171.2340734673714
 20
242.9785829443257
 30
0.0
 10
171.3469189731612
 20
242.9611178894289
 30
0.0
 10
171.5127554680838
 20
242.9292235442425
 30
0.0
 10
171.6752913945259
 20
242.8932875738098
 30
0.0
 10
171.8343328402909
 20
242.8529213795031
 30
0.0
 10
171.9899260200249
 20
242.8082630109568
 30
0.0
 10
172.1420630654214
 20
242.7593040845523
 30
0.0
 10
172.4122449231594
 20
242.6626309651821
 30
0.0
 10
172.7780544882567
 20
242.4996017921216
 30
0.0
 10
173.1838316216979
 20
242.2472311664127
 30
0.0
 10
173.5098122166222
 20
241.9658164795131
 30
0.0
 10
173.7184263752169
 20
241.6977288178979
 30
0.0
 10
173.8404065556957
 20
241.4567700508699
 30
0.0
 10
173.9057093477853
 20
241.247588072925
 30
0.0
 10
173.9135916078845
 20
241.1085686546635
 30
0.0
 10
173.9175545842482
 20
241.0386736420986
 30
0.0
  0
SPLINE
  5
308
330
1F
100
AcDbEntity
  8
0
  6
SLD-Сплошная
 62
     7
370
    25
100
AcDbSpline
210
0.0
220
0.0
230
1.0
 70
     8
 71
     3
 72
    23
 73
    19
 74
     0
 42
0.00000001
 43
0.00000001
 40
0.0
 40
0.0
 40
0.0
 40
0.0
 40
0.0312562128212218
 40
0.0624404244906687
 40
0.0936280050234362
 40
0.1248943000674699
 40
0.1874857986878314
 40
0.2501013057505221
 40
0.3123734219099363
 40
0.374661979537004
 40
0.4997922163517379
 40
0.6242857511613809
 40
0.6868250879657284
 40
0.7493705402812232
 40
0.8118957391266303
 40
0.8744266369438012
 40
0.937211883393918
 40
1.0
 40
1.0
 40
1.0
 40
1.0
 10
156.0774996396079
 20
285.753107779529
 30
0.0
 10
156.0137034338165
 20
285.7540025390842
 30
0.0
 10
155.8862579818261
 20
285.7557899970452
 30
0.0
 10
155.6956155901445
 20
285.7703189940691
 30
0.0
 10
155.5058704098456
 20
285.7935383299446
 30
0.0
 10
155.2543471318793
 20
285.8371412580508
 30
0.0
 10
154.9439949808355
 20
285.9145634437263
 30
0.0
 10
154.5832437556142
 20
286.0436057962553
 30
0.0
 10
154.237298094799
 20
286.2068293896959
 30
0.0
 10
153.7995964965654
 20
286.4687015814017
 30
0.0
 10
153.3038601821776
 20
286.8744994742437
 30
0.0
 10
152.8968510686596
 20
287.369852101511
 30
0.0
 10
152.6341512546366
 20
287.8068457578183
 30
0.0
 10
152.4700138849003
 20
288.1533544770687
 30
0.0
 10
152.3402336750081
 20
288.5142044388599
 30
0.0
 10
152.2473111956243
 20
288.8866041935468
 30
0.0
 10
152.1883745407952
 20
289.2669036564008
 30
0.0
 10
152.1811246619058
 20
289.5232887164676
 30
0.0
 10
152.1774996396079
 20
289.6514841765217
 30
0.0
  0
SPLINE
  5
309
330
1F
100
AcDbEntity
  8
0
  6
SLD-Сплошная
 62
     7
370
    25
100
AcDbSpline
210
0.0
220
0.0
230
1.0
 70
     8
 71
     3
 72
    12
 73
     8
 74
     0
 42
0.00000001
 43
0.00000001
 40
0.0
 40
0.0
 40
0.0
 40
0.0
 40
0.1999735861169054
 40
0.3995260463863398
 40
0.5990920396714431
 40
0.7991061366382509
 40
1.0
 40
1.0
 40
1.0
 40
1.0
 10
171.1774996396079
 20
285.8582262924641
 30
0.0
 10
171.1184105286803
 20
285.8450627822197
 30
0.0
 10
171.0003567430188
 20
285.8187634828641
 30
0.0
 10
170.8212446417737
 20
285.7897714167681
 30
0.0
 10
170.641077174655
 20
285.7687319401569
 30
0.0
 10
170.4596811470701
 20
285.7556337844206
 30
0.0
 10
170.3383155850345
 20
285.753951012071
 30
0.0
 10
170.2774996396079
 20
285.7531077795291
 30
0.0
  0
LINE
  5
30A
330
1F
100
AcDbEntity
  8
0
  6
SLD-Сплошная
 62
     7
370
    25
100
AcDbLine
 10
149.1774996396
 20
237.8051749409
 30
0.0
 11
149.1774996396
 21
313.0145676213
 31
0.0
  0
SPLINE
  5
30B
330
1F
100
AcDbEntity
  8
0
  6
SLD-Сплошная
 62
     7
370
    25
100
AcDbSpline
210
0.0
220
0.0
230
1.0
 70
     8
 71
     3
 72
    15
 73
    11
 74
     0
 42
0.00000001
 43
0.00000001
 40
0.0
 40
0.0
 40
0.0
 40
0.0
 40
0.1300147555520225
 40
0.2575995300935437
 40
0.3832385488624872
 40
0.5074317813728056
 40
0.6306899317987751
 40
0.753528743219157
 40
0.876462916206586
 40
1.0
 40
1.0
 40
1.0
 40
1.0
 10
149.3440947329686
 20
313.2902106838598
 30
0.0
 10
149.3299078520446
 20
313.269284771111
 30
0.0
 10
149.3017992435718
 20
313.2278240517643
 30
0.0
 10
149.2670935945289
 20
313.1740885840094
 30
0.0
 10
149.2381657629085
 20
313.1275983504767
 30
0.0
 10
149.2152436121322
 20
313.0889749621148
 30
0.0
 10
149.1978924916374
 20
313.0581102659623
 30
0.0
 10
149.185967054456
 20
313.0352989261845
 30
0.0
 10
149.1787681400008
 20
313.0198644810568
 30
0.0
 10
149.177923162059
 20
313.0163361182366
 30
0.0
 10
149.1774996396079
 20
313.0145676213373
 30
0.0
  0
SPLINE
  5
30C
330
1F
100
AcDbEntity
  8
0
  6
SLD-Сплошная
 62
     7
370
    25
100
AcDbSpline
210
0.0
220
0.0
230
1.0
 70
     8
 71
     3
 72
    20
 73
    16
 74
     0
 42
0.00000001
 43
0.00000001
 40
0.0
 40
0.0
 40
0.0
 40
0.0
 40
0.0418003679434147
 40
0.0833850569921372
 40
0.1248640240985878
 40
0.1663480668984637
 40
0.2079479424714842
 40
0.2497734877067206
 40
0.3750645065320122
 40
0.5004723076440244
 40
0.6252697632986138
 40
0.7501933136622915
 40
0.8335820227310412
 40
0.9165526230729139
 40
1.0
 40
1.0
 40
1.0
 40
1.0
 10
149.3440947329686
 20
313.2902106838598
 30
0.0
 10
149.36175878798
 20
313.3148353729094
 30
0.0
 10
149.3969957561289
 20
313.3639576940956
 30
0.0
 10
149.4590645918837
 20
313.4356619229369
 30
0.0
 10
149.5276610862488
 20
313.5055715445696
 30
0.0
 10
149.6034468040851
 20
313.5735671040017
 30
0.0
 10
149.6862556031805
 20
313.6396809979405
 30
0.0
 10
149.8355413442603
 20
313.7464011450829
 30
0.0
 10
150.0745826187787
 20
313.8850520690539
 30
0.0
 10
150.4325479307946
 20
314.0362773895095
 30
0.0
 10
150.8311520497432
 20
314.1581393144471
 30
0.0
 10
151.2143272806288
 20
314.2370093996105
 30
0.0
 10
151.5628919712409
 20
314.2835462989346
 30
0.0
 10
151.8685341570552
 20
314.3085972071208
 30
0.0
 10
152.0743146295732
 20
314.3116416761818
 30
0.0
 10
152.1774996396079
 20
314.3131682718143
 30
0.0
  0
LINE
  5
30D
330
1F
100
AcDbEntity
  8
0
  6
SLD-Сплошная
 62
     7
370
    25
100
AcDbLine
 10
156.0774996396
 20
265.9929719373
 30
0.0
 11
170.2774996396
 21
265.9929719373
 31
0.0
  0
SPLINE
  5
30E
330
1F
100
AcDbEntity
  8
0
  6
SLD-Сплошная
 62
     7
370
    25
100
AcDbSpline
210
0.0
220
0.0
230
1.0
 70
     8
 71
     3
 72
    23
 73
    19
 74
     0
 42
0.00000001
 43
0.00000001
 40
0.0
 40
0.0
 40
0.0
 40
0.0
 40
0.031494078926136
 40
0.0629124883293006
 40
0.0943322187569686
 40
0.1258302510697298
 40
0.1880679949850411
 40
0.2503161959782298
 40
0.3129100356230599
 40
0.3755139048862453
 40
0.5000365867410644
 40
0.6248118765554345
 40
0.6873437620352895
 40
0.7498835559995891
 40
0.812147263409641
 40
0.8744272386432228
 40
0.9372084380873335
 40
1.0
 40
1.0
 40
1.0
 40
1.0
 10
152.1774996396079
 20
262.5296557909749
 30
0.0
 10
152.1784090382625
 20
262.5856772761315
 30
0.0
 10
152.1802256505969
 20
262.6975856459357
 30
0.0
 10
152.1949938635067
 20
262.865395448354
 30
0.0
 10
152.2185951109767
 20
263.0326954791492
 30
0.0
 10
152.2626287163038
 20
263.2534281115891
 30
0.0
 10
152.3402820336496
 20
263.5254438066701
 30
0.0
 10
152.469431607688
 20
263.8431309892215
 30
0.0
 10
152.6332875417611
 20
264.1499304883003
 30
0.0
 10
152.8959392845661
 20
264.5387237395789
 30
0.0
 10
153.3024460732261
 20
264.9810326478657
 30
0.0
 10
153.7977781464372
 20
265.3457133139156
 30
0.0
 10
154.2355817391449
 20
265.5820840548676
 30
0.0
 10
154.5817733945079
 20
265.7295959313486
 30
0.0
 10
154.9417288027841
 20
265.84623185453
 30
0.0
 10
155.313124060598
 20
265.9299073959676
 30
0.0
 10
155.6929101025298
 20
265.9831375458846
 30
0.0
 10
155.949296074786
 20
265.9896936265209
 30
0.0
 10
156.0774996396079
 20
265.9929719373482
 30
0.0
  0
SPLINE
  5
30F
330
1F
100
AcDbEntity
  8
0
  6
SLD-Сплошная
 62
     7
370
    25
100
AcDbSpline
210
0.0
220
0.0
230
1.0
 70
     8
 71
     3
 72
    12
 73
     8
 74
     0
 42
0.00000001
 43
0.00000001
 40
0.0
 40
0.0
 40
0.0
 40
0.0
 40
0.2008853285325379
 40
0.4008950975892904
 40
0.6004610441399424
 40
0.8000177857576449
 40
0.9999999999999999
 40
0.9999999999999999
 40
0.9999999999999999
 40
0.9999999999999999
 10
170.2774996396079
 20
265.9929719373482
 30
0.0
 10
170.338313027022
 20
265.9922086974339
 30
0.0
 10
170.4596747464677
 20
265.9906855441891
 30
0.0
 10
170.6410669726924
 20
265.978822212928
 30
0.0
 10
170.8212344513775
 20
265.9597688328439
 30
0.0
 10
171.0003503745628
 20
265.9335176593375
 30
0.0
 10
171.1184079777254
 20
265.9097160433889
 30
0.0
 10
171.1774996396079
 20
265.8978025621373
 30
0.0
  0
SPLINE
  5
310
330
1F
100
AcDbEntity
  8
0
  6
SLD-Сплошная
 62
     7
370
    25
100
AcDbSpline
210
0.0
220
0.0
230
1.0
 70
     8
 71
     3
 72
    23
 73
    19
 74
     0
 42
0.00000001
 43
0.00000001
 40
0.0
 40
0.0
 40
0.0
 40
0.0
 40
0.0314940789211109
 40
0.0629124883226286
 40
0.0943322187519933
 40
0.1258302510697399
 40
0.1880679949784708
 40
0.2503161959783981
 40
0.3129100356232756
 40
0.375513904886513
 40
0.5000365867414397
 40
0.6248118765558583
 40
0.6873437621501319
 40
0.7498835559997475
 40
0.8121472634458725
 40
0.8744272386431244
 40
0.937208438087283
 40
1.0
 40
1.0
 40
1.0
 40
1.0
 10
152.1774996396079
 20
289.8514773860883
 30
0.0
 10
152.1784090382626
 20
289.9157554720848
 30
0.0
 10
152.1802256505974
 20
290.0441572057816
 30
0.0
 10
152.1949938635076
 20
290.2362054050116
 30
0.0
 10
152.2185951109786
 20
290.4273133748075
 30
0.0
 10
152.2626287162965
 20
290.6789454292558
 30
0.0
 10
152.3402820336399
 20
290.9881254092995
 30
0.0
 10
152.4694316076836
 20
291.347841249739
 30
0.0
 10
152.6332875417608
 20
291.6939531935668
 30
0.0
 10
152.8959392845657
 20
292.1310299131326
 30
0.0
 10
153.3024460732304
 20
292.6257287982947
 30
0.0
 10
153.7977781466057
 20
293.0313128035348
 30
0.0
 10
154.235581739374
 20
293.2933931704841
 30
0.0
 10
154.5817733947866
 20
293.4566470994948
 30
0.0
 10
154.9417288028679
 20
293.5855364408818
 30
0.0
 10
155.3131240606683
 20
293.6778986417966
 30
0.0
 10
155.6929101025306
 20
293.7366084537824
 30
0.0
 10
155.9492960747863
 20
293.7438367142734
 30
0.0
 10
156.0774996396079
 20
293.7474511427627
 30
0.0
  0
LINE
  5
311
330
1F
100
AcDbEntity
  8
0
  6
SLD-Сплошная
 62
     7
370
    25
100
AcDbLine
 10
152.1774996396
 20
314.3131682718
 30
0.0
 11
171.1774996396
 21
314.3131682718
 31
0.0
  0
SPLINE
  5
312
330
1F
100
AcDbEntity
  8
0
  6
SLD-Сплошная
 62
     7
370
    25
100
AcDbSpline
210
0.0
220
0.0
230
1.0
 70
     8
 71
     3
 72
    14
 73
    10
 74
     0
 42
0.00000001
 43
0.00000001
 40
0.0
 40
0.0
 40
0.0
 40
0.0
 40
0.25
 40
0.25
 40
0.5
 40
0.5
 40
0.75
 40
0.75
 40
1.0
 40
1.0
 40
1.0
 40
1.0
 10
178.6352168651368
 20
315.6730860253138
 30
0.0
 10
178.6352168651368
 20
315.3683577184164
 30
0.0
 10
178.5666452758583
 20
315.0395939898732
 30
0.0
 10
178.2554820781524
 20
314.4030090846329
 30
0.0
 10
178.0118359587964
 20
314.0971613790416
 30
0.0
 10
177.3884550524559
 20
313.5922709888181
 30
0.0
 10
177.0108292873284
 20
313.3949364490097
 30
0.0
 10
176.2248470565798
 20
313.1429182901039
 30
0.0
 10
175.8189272073618
 20
313.0873805985947
 30
0.0
 10
175.442683547709
 20
313.0873805985947
 30
0.0
  0
SPLINE
  5
313
330
1F
100
AcDbEntity
  8
0
  6
SLD-Сплошная
 62
     7
370
    25
100
AcDbSpline
210
0.0
220
0.0
230
1.0
 70
     8
 71
     3
 72
     9
 73
     5
 74
     0
 42
0.00000001
 43
0.00000001
 40
0.0
 40
0.0
 40
0.0
 40
0.0
 40
0.3773383233418374
 40
0.9999999999999999
 40
0.9999999999999999
 40
0.9999999999999999
 40
0.9999999999999999
 10
178.1589911749338
 20
316.9529344871446
 30
0.0
 10
178.2730697999714
 20
316.8092613295249
 30
0.0
 10
178.5753943134936
 20
316.42850711313
 30
0.0
 10
178.6122612417657
 20
315.962962693931
 30
0.0
 10
178.6352168651368
 20
315.6730860253138
 30
0.0
  0
LINE
  5
314
330
1F
100
AcDbEntity
  8
0
  6
SLD-Сплошная
 62
     7
370
    25
100
AcDbLine
 10
152.1774996396
 20
262.3426015161
 30
0.0
 11
152.1774996396
 21
262.5296106082
 31
0.0
  0
LINE
  5
315
330
1F
100
AcDbEntity
  8
0
  6
SLD-Сплошная
 62
     7
370
    25
100
AcDbLine
 10
156.0774996396
 20
244.4849787005
 30
0.0
 11
170.2774996396
 21
244.4849787005
 31
0.0
  0
SPLINE
  5
316
330
1F
100
AcDbEntity
  8
0
  6
SLD-Сплошная
 62
     7
370
    25
100
AcDbSpline
210
0.0
220
0.0
230
1.0
 70
     8
 71
     3
 72
    23
 73
    19
 74
     0
 42
0.00000001
 43
0.00000001
 40
0.0
 40
0.0
 40
0.0
 40
0.0
 40
0.0314940789261169
 40
0.0629124883292864
 40
0.0943322187569922
 40
0.1258302510698054
 40
0.1880679950061052
 40
0.2503161959785811
 40
0.3129100356441752
 40
0.3755139048864852
 40
0.5000365867413818
 40
0.6248118765557868
 40
0.6873437621011314
 40
0.7498835559994296
 40
0.8121472634095204
 40
0.8744272386431411
 40
0.9372084380872914
 40
1.0
 40
1.0
 40
1.0
 40
1.0
 10
152.1774996396079
 20
242.3823129289954
 30
0.0
 10
152.1784090382625
 20
242.4150669015953
 30
0.0
 10
152.1802256505969
 20
242.4804961501777
 30
0.0
 10
152.1949938635068
 20
242.579103054734
 30
0.0
 10
152.2185951109763
 20
242.6777672383933
 30
0.0
 10
152.2626287163137
 20
242.8084553182423
 30
0.0
 10
152.3402820336424
 20
242.9704203425499
 30
0.0
 10
152.4694316077209
 20
243.1609548432186
 30
0.0
 10
152.6332875417989
 20
243.3462352195178
 30
0.0
 10
152.8959392845827
 20
243.5825681648144
 30
0.0
 10
153.3024460732362
 20
243.8539707814072
 30
0.0
 10
153.7977781465215
 20
244.0800322185552
 30
0.0
 10
154.2355817392959
 20
244.2273579841942
 30
0.0
 10
154.5817733946269
 20
244.3196021200603
 30
0.0
 10
154.9417288027862
 20
244.3927321234265
 30
0.0
 10
155.3131240605974
 20
244.4453002116746
 30
0.0
 10
155.6929101025299
 20
244.4787877238142
 30
0.0
 10
155.9492960747861
 20
244.4829149280856
 30
0.0
 10
156.0774996396079
 20
244.4849787005131
 30
0.0
  0
SPLINE
  5
317
330
1F
100
AcDbEntity
  8
0
  6
SLD-Сплошная
 62
     7
370
    25
100
AcDbSpline
210
0.0
220
0.0
230
1.0
 70
     8
 71
     3
 72
    12
 73
     8
 74
     0
 42
0.00000001
 43
0.00000001
 40
0.0
 40
0.0
 40
0.0
 40
0.0
 40
0.2008853285261154
 40
0.4008950975796096
 40
0.6004610441302092
 40
0.8000177857511686
 40
1.0
 40
1.0
 40
1.0
 40
1.0
 10
170.2774996396079
 20
244.4849787005132
 30
0.0
 10
170.3383130270201
 20
244.4844982970572
 30
0.0
 10
170.4596747464628
 20
244.4835395839857
 30
0.0
 10
170.6410669726847
 20
244.4760733605457
 30
0.0
 10
170.8212344513699
 20
244.4640863060029
 30
0.0
 10
171.0003503745579
 20
244.4475765224155
 30
0.0
 10
171.1184079777234
 20
244.4326202478742
 30
0.0
 10
171.1774996396079
 20
244.4251341470679
 30
0.0
  0
LINE
  5
318
330
1F
100
AcDbEntity
  8
0
  6
SLD-Сплошная
 62
     7
370
    25
100
AcDbLine
 10
175.4426835477
 20
313.0873805986
 30
0.0
 11
175.1774996396
 21
313.0873805986
 31
0.0
  0
LINE
  5
319
330
1F
100
AcDbEntity
  8
0
  6
SLD-Сплошная
 62
     7
370
    25
100
AcDbLine
 10
175.1774996396
 20
345.3051749409
 30
0.0
 11
175.1774996396
 21
321.1813235335
 31
0.0
  0
LINE
  5
31A
330
1F
100
AcDbEntity
  8
0
  6
SLD-Сплошная
 62
     7
370
    25
100
AcDbLine
 10
171.1774996396
 20
336.1322814671
 30
0.0
 11
171.1774996396
 21
321.9690749109
 31
0.0
  0
SPLINE
  5
31B
330
1F
100
AcDbEntity
  8
0
  6
SLD-Сплошная
 62
     7
370
    25
100
AcDbSpline
210
0.0
220
0.0
230
1.0
 70
     8
 71
     3
 72
    12
 73
     8
 74
     0
 42
0.00000001
 43
0.00000001
 40
0.0
 40
0.0
 40
0.0
 40
0.0
 40
0.1493537344742628
 40
0.3618267070326889
 40
0.5741636231548534
 40
0.7866592915813839
 40
0.9999999999999999
 40
0.9999999999999999
 40
0.9999999999999999
 40
0.9999999999999999
 10
173.7853592727402
 20
338.4400528445727
 30
0.0
 10
173.8449596563805
 20
338.3049576870685
 30
0.0
 10
173.9893484835253
 20
337.9776740329445
 30
0.0
 10
173.7844167637538
 20
337.4161301784435
 30
0.0
 10
173.2289920836699
 20
336.8444528524449
 30
0.0
 10
172.3356142138919
 20
336.367578489604
 30
0.0
 10
171.5640482024373
 20
336.2108175013351
 30
0.0
 10
171.1774996395951
 20
336.1322814670548
 30
0.0
  0
LINE
  5
31C
330
1F
100
AcDbEntity
  8
0
  6
SLD-Сплошная
 62
     7
370
    25
100
AcDbLine
 10
171.1774996396
 20
345.2145993017
 30
0.0
 11
171.1774996396
 21
340.6198633102
 31
0.0
  0
SPLINE
  5
31D
330
1F
100
AcDbEntity
  8
0
  6
SLD-Сплошная
 62
     7
370
    25
100
AcDbSpline
210
0.0
220
0.0
230
1.0
 70
     8
 71
     3
 72
    11
 73
     7
 74
     0
 42
0.00000001
 43
0.00000001
 40
0.0
 40
0.0
 40
0.0
 40
0.0
 40
0.1710481470905775
 40
0.4468620709890826
 40
0.7228822053609822
 40
1.0
 40
1.0
 40
1.0
 40
1.0
 10
173.8461178838
 20
345.30211520322
 30
0.0
 10
173.8201628643471
 20
345.302290654624
 30
0.0
 10
173.7523555601315
 20
345.3027490201724
 30
0.0
 10
173.2168038629471
 20
345.2763994786469
 30
0.0
 10
172.3386763628075
 20
345.2388742026708
 30
0.0
 10
171.5650702682059
 20
345.2227016330726
 30
0.0
 10
171.1774996395951
 20
345.2145993016546
 30
0.0
  0
LINE
  5
31E
330
1F
100
AcDbEntity
  8
0
  6
SLD-Сплошная
 62
     7
370
    25
100
AcDbLine
 10
149.1774996396
 20
320.982878577
 30
0.0
 11
149.1774996396
 21
340.8051749409
 31
0.0
  0
SPLINE
  5
31F
330
1F
100
AcDbEntity
  8
0
  6
SLD-Сплошная
 62
     7
370
    25
100
AcDbSpline
210
0.0
220
0.0
230
1.0
 70
     8
 71
     3
 72
    23
 73
    19
 74
     0
 42
0.00000001
 43
0.00000001
 40
0.0
 40
0.0
 40
0.0
 40
0.0
 40
0.0312562128201311
 40
0.0624404244892184
 40
0.093628005022356
 40
0.1248943000674786
 40
0.1874857986907113
 40
0.2501013057506125
 40
0.3123734219017085
 40
0.3746619795369011
 40
0.4997922163516815
 40
0.624285751161338
 40
0.6868250880077537
 40
0.7493705402815647
 40
0.8118957392128804
 40
0.8744266369442161
 40
0.9372118834381148
 40
1.0
 40
1.0
 40
1.0
 40
1.0
 10
156.0774996396079
 20
334.6271733165378
 30
0.0
 10
156.0137034338187
 20
334.6276713417639
 30
0.0
 10
155.8862579818312
 20
334.6286662449754
 30
0.0
 10
155.6956155901518
 20
334.6367510065189
 30
0.0
 10
155.5058704098508
 20
334.6496644974987
 30
0.0
 10
155.2543471318756
 20
334.6738947204549
 30
0.0
 10
154.9439949808286
 20
334.7168576773437
 30
0.0
 10
154.5832437556235
 20
334.78823607869
 30
0.0
 10
154.2372980948217
 20
334.878138708371
 30
0.0
 10
153.7995964965741
 20
335.0216232870221
 30
0.0
 10
153.3038601821719
 20
335.2420401400089
 30
0.0
 10
152.8968510686259
 20
335.5067669067586
 30
0.0
 10
152.6341512545582
 20
335.7368576653764
 30
0.0
 10
152.4700138848064
 20
335.9174378429298
 30
0.0
 10
152.3402336749547
 20
336.1034672631628
 30
0.0
 10
152.2473111955659
 20
336.2932303038274
 30
0.0
 10
152.1883745408282
 20
336.4849065898181
 30
0.0
 10
152.181124661915
 20
336.6121420194754
 30
0.0
 10
152.1774996396079
 20
336.6757611883319
 30
0.0
  0
LINE
  5
320
330
1F
100
AcDbEntity
  8
0
  6
SLD-Сплошная
 62
     7
370
    25
100
AcDbLine
 10
170.2774996396
 20
334.6271733165
 30
0.0
 11
156.0774996396
 21
334.6271733165
 31
0.0
  0
SPLINE
  5
321
330
1F
100
AcDbEntity
  8
0
  6
SLD-Сплошная
 62
     7
370
    25
100
AcDbSpline
210
0.0
220
0.0
230
1.0
 70
     8
 71
     3
 72
    12
 73
     8
 74
     0
 42
0.00000001
 43
0.00000001
 40
0.0
 40
0.0
 40
0.0
 40
0.0
 40
0.1999735861232685
 40
0.3995260463958977
 40
0.5990920396809692
 40
0.7991061366445671
 40
1.0
 40
1.0
 40
1.0
 40
1.0
 10
171.1774996396079
 20
334.6855901456722
 30
0.0
 10
171.1184105286783
 20
334.6782832671759
 30
0.0
 10
171.000356743014
 20
334.6636848977927
 30
0.0
 10
170.8212446417662
 20
334.6475694371493
 30
0.0
 10
170.6410771746474
 20
334.6358680879029
 30
0.0
 10
170.4596811470653
 20
334.628579247551
 30
0.0
 10
170.3383155850325
 20
334.6276426453131
 30
0.0
 10
170.2774996396079
 20
334.6271733165379
 30
0.0
  0
LINE
  5
322
330
1F
100
AcDbEntity
  8
0
  6
SLD-Сплошная
 62
     7
370
    25
100
AcDbLine
 10
152.1774996396
 20
242.2315263555
 30
0.0
 11
152.1774996396
 21
242.3822338768
 31
0.0
  0
LINE
  5
323
330
1F
100
AcDbEntity
  8
0
  6
SLD-Сплошная
 62
     7
370
    25
100
AcDbLine
 10
173.9175545842
 20
241.0386736421
 30
0.0
 11
173.7814701678
 21
240.6038512089
 31
0.0
  0
LINE
  5
324
330
1F
100
AcDbEntity
  8
0
  6
SLD-Сплошная
 62
     7
370
    25
100
AcDbLine
 10
152.1774996396
 20
336.6758409924
 30
0.0
 11
152.1774996396
 21
336.825130118
 31
0.0
  0
SPLINE
  5
325
330
1F
100
AcDbEntity
  8
0
  6
SLD-Сплошная
 62
     7
370
    25
100
AcDbSpline
210
0.0
220
0.0
230
1.0
 70
     8
 71
     3
 72
    12
 73
     8
 74
     0
 42
0.00000001
 43
0.00000001
 40
0.0
 40
0.0
 40
0.0
 40
0.0
 40
0.2491479565662126
 40
0.4983746888038932
 40
0.747625998491593
 40
0.9969262180350305
 40
1.0
 40
1.0
 40
1.0
 40
1.0
 10
171.1774996396079
 20
233.4553917555276
 30
0.0
 10
171.5622770755475
 20
233.4450928571356
 30
0.0
 10
172.3319536064656
 20
233.4244918040431
 30
0.0
 10
173.2325897958735
 20
233.3709721071771
 30
0.0
 10
173.7642626021637
 20
233.3284402020447
 30
0.0
 10
173.9801904161513
 20
233.3059761921822
 30
0.0
 10
173.9160170222098
 20
233.3070771812132
 30
0.0
 10
173.9152354241857
 20
233.3070905906778
 30
0.0
  0
LINE
  5
326
330
1F
100
AcDbEntity
  8
0
  6
SLD-Сплошная
 62
     7
370
    25
100
AcDbLine
 10
171.1774996396
 20
238.4367931633
 30
0.0
 11
171.1774996396
 21
233.4553917555
 31
0.0
  0
LINE
  5
327
330
1F
100
AcDbEntity
  8
0
  6
SLD-Сплошная
 62
     7
370
    25
100
AcDbLine
 10
175.1774996396
 20
241.0386736421
 30
0.0
 11
175.1774996396
 21
233.3051749409
 31
0.0
  0
LINE
  5
328
330
1F
100
AcDbEntity
  8
0
  6
SLD-Сплошная
 62
     7
370
    25
100
AcDbLine
 10
156.0774996396
 20
234.9865208509
 30
0.0
 11
170.2774996396
 21
234.9865208509
 31
0.0
  0
SPLINE
  5
329
330
1F
100
AcDbEntity
  8
0
  6
SLD-Сплошная
 62
     7
370
    25
100
AcDbSpline
210
0.0
220
0.0
230
1.0
 70
     8
 71
     3
 72
    23
 73
    19
 74
     0
 42
0.00000001
 43
0.00000001
 40
0.0
 40
0.0
 40
0.0
 40
0.0
 40
0.0314940789290776
 40
0.0629124883332514
 40
0.0943322187600065
 40
0.1258302510699512
 40
0.1880679950463426
 40
0.2503161959790885
 40
0.3129100356640383
 40
0.3755139048865521
 40
0.5000365867415242
 40
0.6248118765560233
 40
0.6873437621544592
 40
0.7498835559994012
 40
0.8121472634337364
 40
0.874427238643195
 40
0.9372084381002092
 40
0.9999999999999999
 40
0.9999999999999999
 40
0.9999999999999999
 40
0.9999999999999999
 10
152.1774996396079
 20
234.8079130496501
 30
0.0
 10
152.1784090382623
 20
234.8086231091864
 30
0.0
 10
152.1802256505966
 20
234.8100415222283
 30
0.0
 10
152.1949938635064
 20
234.8130238884787
 30
0.0
 10
152.2185951109743
 20
234.8166152366685
 30
0.0
 10
152.2626287163348
 20
234.8222409984361
 30
0.0
 10
152.3402820336362
 20
234.8307569545006
 30
0.0
 10
152.4694316077651
 20
234.8430852076755
 30
0.0
 10
152.633287541863
 20
234.8572007340333
 30
0.0
 10
152.8959392845828
 20
234.8777481515016
 30
0.0
 10
153.3024460732482
 20
234.9055223645057
 30
0.0
 10
153.7977781465954
 20
234.9323915931164
 30
0.0
 10
154.2355817394074
 20
234.9511965636133
 30
0.0
 10
154.5817733947706
 20
234.9634562171042
 30
0.0
 10
154.9417288028346
 20
234.9734851753662
 30
0.0
 10
155.3131240606711
 20
234.9808602336265
 30
0.0
 10
155.6929101025576
 20
234.9856321561537
 30
0.0
 10
155.9492960748129
 20
234.9862246030091
 30
0.0
 10
156.0774996396079
 20
234.9865208508816
 30
0.0
  0
SPLINE
  5
32A
330
1F
100
AcDbEntity
  8
0
  6
SLD-Сплошная
 62
     7
370
    25
100
AcDbSpline
210
0.0
220
0.0
230
1.0
 70
     8
 71
     3
 72
    12
 73
     8
 74
     0
 42
0.00000001
 43
0.00000001
 40
0.0
 40
0.0
 40
0.0
 40
0.0
 40
0.2008853285312862
 40
0.4008950975874184
 40
0.6004610441380683
 40
0.8000177857564015
 40
1.0
 40
1.0
 40
1.0
 40
1.0
 10
170.2774996396079
 20
234.9865208508816
 30
0.0
 10
170.3383130270217
 20
234.9864520076018
 30
0.0
 10
170.4596747464667
 20
234.9863146210958
 30
0.0
 10
170.6410669726909
 20
234.9852460740176
 30
0.0
 10
170.821234451376
 20
234.9835372666005
 30
0.0
 10
171.0003503745618
 20
234.9811926561123
 30
0.0
 10
171.118407977725
 20
234.9790892446641
 30
0.0
 10
171.1774996396079
 20
234.9780364189691
 30
0.0
  0
SPLINE
  5
32B
330
1F
100
AcDbEntity
  8
0
  6
SLD-Сплошная
 62
     7
370
    25
100
AcDbSpline
210
0.0
220
0.0
230
1.0
 70
     8
 71
     3
 72
    11
 73
     7
 74
     0
 42
0.00000001
 43
0.00000001
 40
0.0
 40
0.0
 40
0.0
 40
0.0
 40
0.2653934854498692
 40
0.5305573096679223
 40
0.7955985548431654
 40
0.9999999999999999
 40
0.9999999999999999
 40
0.9999999999999999
 40
0.9999999999999999
 10
156.0774996396078
 20
343.6892977974499
 30
0.0
 10
155.5660354085345
 20
343.693354057696
 30
0.0
 10
154.5435495477018
 20
343.7014630680578
 30
0.0
 10
153.261155240359
 20
343.7518923797081
 30
0.0
 10
152.4083285503627
 20
343.7977824601114
 30
0.0
 10
152.2956191235352
 20
343.8003883839952
 30
0.0
 10
152.2465439750649
 20
343.8015230371037
 30
0.0
  0
LINE
  5
32C
330
1F
100
AcDbEntity
  8
0
  6
SLD-Сплошная
 62
     7
370
    25
100
AcDbLine
 10
170.2774996396
 20
343.6892977974
 30
0.0
 11
156.0774996396
 21
343.6892977974
 31
0.0
  0
SPLINE
  5
32D
330
1F
100
AcDbEntity
  8
0
  6
SLD-Сплошная
 62
     7
370
    25
100
AcDbSpline
210
0.0
220
0.0
230
1.0
 70
     8
 71
     3
 72
    12
 73
     8
 74
     0
 42
0.00000001
 43
0.00000001
 40
0.0
 40
0.0
 40
0.0
 40
0.0
 40
0.1999735861201587
 40
0.399526046391204
 40
0.5990920396762937
 40
0.7991061366414624
 40
1.0
 40
1.0
 40
1.0
 40
1.0
 10
171.1774996396078
 20
343.6960615397618
 30
0.0
 10
171.1184105286792
 20
343.6952242394116
 30
0.0
 10
171.0003567430163
 20
343.693551401988
 30
0.0
 10
170.8212446417699
 20
343.6916814480724
 30
0.0
 10
170.6410771746511
 20
343.6903170412829
 30
0.0
 10
170.4596811470676
 20
343.6894628371444
 30
0.0
 10
170.3383155850334
 20
343.6893528911045
 30
0.0
 10
170.2774996396078
 20
343.6892977974499
 30
0.0
  0
LINE
  5
32E
330
1F
100
AcDbEntity
  8
0
  6
SLD-Сплошная
 62
     7
370
    25
100
AcDbLine
 10
170.2774996396
 20
230.8071365241
 30
0.0
 11
156.0774996396
 21
230.8071365241
 31
0.0
  0
LINE
  5
32F
330
1F
100
AcDbEntity
  8
0
  6
SLD-Сплошная
 62
     7
370
    25
100
AcDbLine
 10
152.1774996396
 20
234.7070023988
 30
0.0
 11
152.1774996396
 21
234.80782131
 31
0.0
  0
LINE
  5
330
330
1F
100
AcDbEntity
  8
0
  6
SLD-Сплошная
 62
     7
370
    25
100
AcDbLine
 10
170.2774996396
 20
347.8032133576
 30
0.0
 11
156.0774996396
 21
347.8032133576
 31
0.0
  0
LINE
  5
331
330
1F
100
AcDbEntity
  8
0
  6
SLD-Сплошная
 62
     7
370
    25
100
AcDbLine
 10
152.1774996396
 20
343.8041663941
 30
0.0
 11
152.1774996396
 21
343.9033474829
 31
0.0
  0
LINE
  5
332
330
1F
100
AcDbEntity
  8
0
  6
SLD-Сплошная
 62
     7
370
    25
100
AcDbLine
 10
215.5108329733
 20
-38.6862422274
 30
0.0
 11
218.66749964
 21
-38.6862422274
 31
0.0
  0
LINE
  5
333
330
1F
100
AcDbEntity
  8
0
  6
SLD-Сплошная
 62
     7
370
    25
100
AcDbLine
 10
188.68749964
 20
-38.6862422274
 30
0.0
 11
192.8441663066
 21
-38.6862422274
 31
0.0
  0
LINE
  5
334
330
1F
100
AcDbEntity
  8
0
  6
SLD-Сплошная
 62
     7
370
    25
100
AcDbLine
 10
210.0498144415
 20
-38.4862422274
 30
0.0
 11
215.5108329733
 21
-38.4862422274
 31
0.0
  0
LINE
  5
335
330
1F
100
AcDbEntity
  8
0
  6
SLD-Сплошная
 62
     7
370
    25
100
AcDbLine
 10
192.8441663066
 20
-38.4862422274
 30
0.0
 11
198.3051848385
 21
-38.4862422274
 31
0.0
  0
LINE
  5
336
330
1F
100
AcDbEntity
  8
0
  6
SLD-Сплошная
 62
     7
370
    25
100
AcDbLine
 10
198.3051848385
 20
-38.6862422274
 30
0.0
 11
201.5082585885
 21
-38.6862422274
 31
0.0
  0
LINE
  5
337
330
1F
100
AcDbEntity
  8
0
  6
SLD-Сплошная
 62
     7
370
    25
100
AcDbLine
 10
206.8467406915
 20
-38.6862422274
 30
0.0
 11
210.0498144415
 21
-38.6862422274
 31
0.0
  0
LINE
  5
338
330
1F
100
AcDbEntity
  8
0
  6
SLD-Сплошная
 62
     7
370
    25
100
AcDbLine
 10
202.575962765
 20
-38.6862422274
 30
0.0
 11
205.779036515
 21
-38.6862422274
 31
0.0
  0
LINE
  5
339
330
1F
100
AcDbEntity
  8
0
  6
SLD-Сплошная
 62
     7
370
    25
100
AcDbLine
 10
156.0774996396
 20
-3.2399356345
 30
0.0
 11
170.2774996396
 21
-3.2399356345
 31
0.0
  0
LINE
  5
33A
330
1F
100
AcDbEntity
  8
0
  6
SLD-Сплошная
 62
     7
370
    25
100
AcDbLine
 10
170.2774996396
 20
4.7600643655
 30
0.0
 11
156.0774996396
 21
4.7600643655
 31
0.0
  0
LINE
  5
33B
330
1F
100
AcDbEntity
  8
0
  6
SLD-Сплошная
 62
     7
370
    25
100
AcDbLine
 10
197.67749964
 20
-9.6862422274
 30
0.0
 11
197.67749964
 21
10.3137577726
 31
0.0
  0
LINE
  5
33C
330
1F
100
AcDbEntity
  8
0
  6
SLD-Сплошная
 62
     7
370
    25
100
AcDbLine
 10
173.8461178838
 20
-55.6862422262
 30
0.0
 11
175.1774996396
 21
-55.6862422262
 31
0.0
  0
LINE
  5
33D
330
1F
100
AcDbEntity
  8
0
  6
SLD-Сплошная
 62
     7
370
    25
100
AcDbLine
 10
173.4303245787
 20
32.9776577438
 30
0.0
 11
151.2487348145
 21
32.9776577438
 31
0.0
  0
SPLINE
  5
33E
330
1F
100
AcDbEntity
  8
0
  6
SLD-Сплошная
 62
     7
370
    25
100
AcDbSpline
210
0.0
220
0.0
230
1.0
 70
     8
 71
     3
 72
    10
 73
     6
 74
     0
 42
0.00000001
 43
0.00000001
 40
0.0
 40
0.0
 40
0.0
 40
0.0
 40
0.3699322924744504
 40
0.648122930690482
 40
1.0
 40
1.0
 40
1.0
 40
1.0
 10
151.2569588568204
 20
32.97687489752755
 30
0.0
 10
151.0926203652077
 20
32.96723757208458
 30
0.0
 10
150.804698637432
 20
32.95035293741714
 30
0.0
 10
150.3579512921324
 20
32.8079718109974
 30
0.0
 10
150.1061869401851
 20
32.65025280986145
 30
0.0
 10
149.9655828411943
 20
32.5621706891127
 30
0.0
  0
SPLINE
  5
33F
330
1F
100
AcDbEntity
  8
0
  6
SLD-Сплошная
 62
     7
370
    25
100
AcDbSpline
210
0.0
220
0.0
230
1.0
 70
     8
 71
     3
 72
    11
 73
     7
 74
     0
 42
0.00000001
 43
0.00000001
 40
0.0
 40
0.0
 40
0.0
 40
0.0
 40
0.2741947956731373
 40
0.5451002737499593
 40
0.7912759431513239
 40
1.0
 40
1.0
 40
1.0
 40
1.0
 10
175.3341352204844
 20
31.97646083902377
 30
0.0
 10
175.1998213444027
 20
32.14170385300795
 30
0.0
 10
174.9328048591307
 20
32.47020757948066
 30
0.0
 10
174.4092224282869
 20
32.78590819434675
 30
0.0
 10
173.8845357931976
 20
32.9562258714878
 30
0.0
 10
173.5655972809691
 20
32.97037993486475
 30
0.0
 10
173.4192570298848
 20
32.97687431892006
 30
0.0
  0
LINE
  5
340
330
1F
100
AcDbEntity
  8
0
  6
SLD-Сплошная
 62
     7
370
    25
100
AcDbLine
 10
149.96541395
 20
32.5620519778
 30
0.0
 11
145.1934638013
 21
29.1063084921
 31
0.0
  0
ARC
  5
341
330
1F
100
AcDbEntity
  8
0
  6
SLD-Сплошная
 62
     7
370
    25
100
AcDbCircle
 10
170.2774996396
 20
-26.6488156509
 30
0.0
 40
3.899999999999999
100
AcDbArc
 50
270.0
 51
313.0038408682
  0
LINE
  5
342
330
1F
100
AcDbEntity
  8
0
  6
SLD-Сплошная
 62
     7
370
    25
100
AcDbLine
 10
178.1975930988
 20
27.988344619
 30
0.0
 11
175.3078122491
 21
32.0143228513
 31
0.0
  0
ARC
  5
343
330
1F
100
AcDbEntity
  8
0
  6
SLD-Сплошная
 62
     7
370
    25
100
AcDbCircle
 10
156.0774996396
 20
-26.6488156509
 30
0.0
 40
3.900000000000006
100
AcDbArc
 50
180.0
 51
270.0
  0
LINE
  5
344
330
1F
100
AcDbEntity
  8
0
  6
SLD-Сплошная
 62
     7
370
    25
100
AcDbLine
 10
156.0774996396
 20
-30.5488156509
 30
0.0
 11
170.2774996396
 21
-30.5488156509
 31
0.0
  0
LWPOLYLINE
  5
345
330
1F
100
AcDbEntity
  8
0
  6
SLD-Сплошная
 62
     7
370
    25
100
AcDbPolyline
 90
        3
 70
   128
 43
0.0
 10
149.1774996396
 20
41.4027931216
 10
148.655572326
 20
36.9332260545
 10
148.0742530429
 20
31.192513994
  0
ARC
  5
346
330
1F
100
AcDbEntity
  8
0
  6
SLD-Сплошная
 62
     7
370
    25
100
AcDbCircle
 10
481.6480865704
 20
0.3137577726
 30
0.0
 40
335.0
100
AcDbArc
 50
175.9416328503
 51
180.0
  0
ARC
  5
347
330
1F
100
AcDbEntity
  8
0
  6
SLD-Сплошная
 62
     7
370
    25
100
AcDbCircle
 10
481.6480865704
 20
0.3137577726
 30
0.0
 40
335.0
100
AcDbArc
 50
180.0
 51
187.0452879194
  0
SPLINE
  5
348
330
1F
100
AcDbEntity
  8
0
  6
SLD-Сплошная
 62
     7
370
    25
100
AcDbSpline
210
0.0
220
0.0
230
1.0
 70
     8
 71
     3
 72
    15
 73
    11
 74
     0
 42
0.00000001
 43
0.00000001
 40
0.0
 40
0.0
 40
0.0
 40
0.0
 40
0.1116153624924226
 40
0.2297477631720324
 40
0.3524193293238755
 40
0.4779212766866001
 40
0.6052801214558683
 40
0.7343620833448988
 40
0.8656756739029865
 40
1.0
 40
1.0
 40
1.0
 40
1.0
 10
144.0195320195958
 20
26.89286951806385
 30
0.0
 10
144.0295943591128
 20
26.71875686567641
 30
0.0
 10
144.0503065616687
 20
26.36036540832949
 30
0.0
 10
144.2262248939797
 20
25.83443737093894
 30
0.0
 10
144.5146068102705
 20
25.33264100223
 30
0.0
 10
144.9172622304467
 20
24.88536949049352
 30
0.0
 10
145.4130164285725
 20
24.51491576791285
 30
0.0
 10
145.9809287682787
 20
24.23940348561894
 30
0.0
 10
146.6004858036402
 20
24.05925705893653
 30
0.0
 10
147.0253823327911
 20
24.03513942669945
 30
0.0
 10
147.2402384823116
 20
24.02294393616824
 30
0.0
  0
LINE
  5
349
330
1F
100
AcDbEntity
  8
0
  6
SLD-Сплошная
 62
     7
370
    25
100
AcDbLine
 10
175.1774996396
 20
56.3137577738
 30
0.0
 11
173.8461178838
 21
56.3137577738
 31
0.0
  0
LINE
  5
34A
330
1F
100
AcDbEntity
  8
0
  6
SLD-Сплошная
 62
     7
370
    25
100
AcDbLine
 10
147.2402384823
 20
24.0225971346
 30
0.0
 11
149.1774996396
 21
24.0225971346
 31
0.0
  0
SPLINE
  5
34B
330
1F
100
AcDbEntity
  8
0
  6
SLD-Сплошная
 62
     7
370
    25
100
AcDbSpline
210
0.0
220
0.0
230
1.0
 70
     8
 71
     3
 72
    11
 73
     7
 74
     0
 42
0.00000001
 43
0.00000001
 40
0.0
 40
0.0
 40
0.0
 40
0.0
 40
0.22311852035133
 40
0.4633141679762715
 40
0.7230742920716431
 40
1.0
 40
1.0
 40
1.0
 40
1.0
 10
145.1929113908243
 20
29.10590759007192
 30
0.0
 10
145.0435251740769
 20
28.9849844272251
 30
0.0
 10
144.7333189634474
 20
28.73388284007217
 30
0.0
 10
144.3618332596913
 20
28.2260166782662
 30
0.0
 10
144.0797224899288
 20
27.60409871736032
 30
0.0
 10
144.040019229328
 20
27.13497349506743
 30
0.0
 10
144.0195326561917
 20
26.89290853538585
 30
0.0
  0
ARC
  5
34C
330
1F
100
AcDbEntity
  8
0
  6
SLD-Сплошная
 62
     7
370
    25
100
AcDbCircle
 10
152.1774996396
 20
51.8137577738
 30
0.0
 40
3.000000000000007
100
AcDbArc
 50
90.0
 51
180.0
  0
ARC
  5
34D
330
1F
100
AcDbEntity
  8
0
  6
SLD-Сплошная
 62
     7
370
    25
100
AcDbCircle
 10
170.2774996396
 20
-46.7598908116
 30
0.0
 40
3.90000000000003
100
AcDbArc
 50
270.0
 51
335.058062338
  0
ARC
  5
34E
330
1F
100
AcDbEntity
  8
0
  6
SLD-Сплошная
 62
     7
370
    25
100
AcDbCircle
 10
156.0774996396
 20
-46.7598908116
 30
0.0
 40
3.900000000000006
100
AcDbArc
 50
180.0
 51
270.0
  0
ARC
  5
34F
330
1F
100
AcDbEntity
  8
0
  6
SLD-Сплошная
 62
     7
370
    25
100
AcDbCircle
 10
170.2774996396
 20
47.8337129509
 30
0.0
 40
3.900000000000006
100
AcDbArc
 50
24.7970403845
 51
90.0
  0
ARC
  5
350
330
1F
100
AcDbEntity
  8
0
  6
SLD-Сплошная
 62
     7
370
    25
100
AcDbCircle
 10
156.0774996396
 20
47.8337129509
 30
0.0
 40
3.900000000000006
100
AcDbArc
 50
90.0
 51
180.0
  0
LINE
  5
351
330
1F
100
AcDbEntity
  8
0
  6
SLD-Сплошная
 62
     7
370
    25
100
AcDbLine
 10
156.0774996396
 20
-50.6598908116
 30
0.0
 11
170.2774996396
 21
-50.6598908116
 31
0.0
  0
LINE
  5
352
330
1F
100
AcDbEntity
  8
0
  6
SLD-Сплошная
 62
     7
370
    25
100
AcDbLine
 10
170.2774996396
 20
51.7337129509
 30
0.0
 11
156.0774996396
 21
51.7337129509
 31
0.0
  0
ARC
  5
353
330
1F
100
AcDbEntity
  8
0
  6
SLD-Сплошная
 62
     7
370
    25
100
AcDbCircle
 10
152.1774996396
 20
-51.1862422262
 30
0.0
 40
3.000000000000028
100
AcDbArc
 50
180.0
 51
270.0
  0
ARC
  5
354
330
1F
100
AcDbEntity
  8
0
  6
SLD-Сплошная
 62
     7
370
    25
100
AcDbCircle
 10
170.2774996396
 20
-54.2844147683
 30
0.0
 40
3.900000000000016
100
AcDbArc
 50
270.0
 51
338.9646103288
  0
ARC
  5
355
330
1F
100
AcDbEntity
  8
0
  6
SLD-Сплошная
 62
     7
370
    25
100
AcDbCircle
 10
156.0774996396
 20
-54.2844147683
 30
0.0
 40
3.900000000000006
100
AcDbArc
 50
180.0
 51
270.0
  0
ARC
  5
356
330
1F
100
AcDbEntity
  8
0
  6
SLD-Сплошная
 62
     7
370
    25
100
AcDbCircle
 10
156.0774996396
 20
54.9119303158
 30
0.0
 40
3.900000000000006
100
AcDbArc
 50
90.0
 51
180.0
  0
ARC
  5
357
330
1F
100
AcDbEntity
  8
0
  6
SLD-Сплошная
 62
     7
370
    25
100
AcDbCircle
 10
170.2774996396
 20
54.9119303158
 30
0.0
 40
3.899999999999999
100
AcDbArc
 50
21.0626934662
 51
90.0
  0
SPLINE
  5
358
330
1F
100
AcDbEntity
  8
0
  6
SLD-Сплошная
 62
     7
370
    25
100
AcDbSpline
210
0.0
220
0.0
230
1.0
 70
     8
 71
     3
 72
    11
 73
     7
 74
     0
 42
0.00000001
 43
0.00000001
 40
0.0
 40
0.0
 40
0.0
 40
0.0
 40
0.2769257079283228
 40
0.5366858320236813
 40
0.7768814796486663
 40
1.0
 40
1.0
 40
1.0
 40
1.0
 10
144.0195326561917
 20
-26.26539298785855
 30
0.0
 10
144.0400192293281
 20
-26.50745794753997
 30
0.0
 10
144.0797224899292
 20
-26.97658316983253
 30
0.0
 10
144.3618332596917
 20
-27.59850113073789
 30
0.0
 10
144.7333189634475
 20
-28.10636729254352
 30
0.0
 10
145.0435251740769
 20
-28.35746887969631
 30
0.0
 10
145.1929113908242
 20
-28.47839204254305
 30
0.0
  0
LINE
  5
359
330
1F
100
AcDbEntity
  8
0
  6
SLD-Сплошная
 62
     7
370
    25
100
AcDbLine
 10
145.1934638013
 20
-28.4787929445
 30
0.0
 11
148.0742530427
 21
-30.5649984464
 31
0.0
  0
SPLINE
  5
35A
330
1F
100
AcDbEntity
  8
0
  6
SLD-Сплошная
 62
     7
370
    25
100
AcDbSpline
210
0.0
220
0.0
230
1.0
 70
     8
 71
     3
 72
    13
 73
     9
 74
     0
 42
0.00000001
 43
0.00000001
 40
0.0
 40
0.0
 40
0.0
 40
0.0
 40
0.1782809427982613
 40
0.3969230909980286
 40
0.52592089553581
 40
0.6697982898479554
 40
0.8286653288896848
 40
1.0
 40
1.0
 40
1.0
 40
1.0
 10
147.2402384823116
 20
-23.39542838863944
 30
0.0
 10
146.9529554718402
 20
-23.41587253912869
 30
0.0
 10
146.313351155654
 20
-23.4613892122944
 30
0.0
 10
145.5123161669934
 20
-23.80858777068049
 30
0.0
 10
144.8781243190058
 20
-24.29127853393992
 30
0.0
 10
144.4302075299568
 20
-24.82205330372389
 30
0.0
 10
144.0890602255164
 20
-25.49920358715979
 30
0.0
 10
144.0432842193152
 20
-26.00362196292653
 30
0.0
 10
144.0195320195958
 20
-26.26535397053546
 30
0.0
  0
LINE
  5
35B
330
1F
100
AcDbEntity
  8
0
  6
SLD-Сплошная
 62
     7
370
    25
100
AcDbLine
 10
147.4881085116
 20
-23.3950815871
 30
0.0
 11
147.2402384823
 21
-23.3950815871
 31
0.0
  0
LINE
  5
35C
330
1F
100
AcDbEntity
  8
0
  6
SLD-Сплошная
 62
     7
370
    25
100
AcDbLine
 10
229.17749964
 20
58.8137577726
 30
0.0
 11
238.67749964
 21
58.8137577726
 31
0.0
  0
LINE
  5
35D
330
1F
100
AcDbEntity
  8
0
  6
SLD-Сплошная
 62
     7
370
    25
100
AcDbLine
 10
229.17749964
 20
53.8137577726
 30
0.0
 11
229.17749964
 21
58.8137577726
 31
0.0
  0
LINE
  5
35E
330
1F
100
AcDbEntity
  8
0
  6
SLD-Сплошная
 62
     7
370
    25
100
AcDbLine
 10
238.67749964
 20
58.8137577726
 30
0.0
 11
238.67749964
 21
53.8137577726
 31
0.0
  0
LINE
  5
35F
330
1F
100
AcDbEntity
  8
0
  6
SLD-Сплошная
 62
     7
370
    25
100
AcDbLine
 10
229.17749964
 20
-53.1862422274
 30
0.0
 11
229.17749964
 21
53.8137577726
 31
0.0
  0
LINE
  5
360
330
1F
100
AcDbEntity
  8
0
  6
SLD-Сплошная
 62
     7
370
    25
100
AcDbLine
 10
238.67749964
 20
53.8137577726
 30
0.0
 11
238.67749964
 21
-53.1862422274
 31
0.0
  0
LINE
  5
361
330
1F
100
AcDbEntity
  8
0
  6
SLD-Сплошная
 62
     7
370
    25
100
AcDbLine
 10
238.67749964
 20
-58.1862422274
 30
0.0
 11
229.17749964
 21
-58.1862422274
 31
0.0
  0
LINE
  5
362
330
1F
100
AcDbEntity
  8
0
  6
SLD-Сплошная
 62
     7
370
    25
100
AcDbLine
 10
229.17749964
 20
-58.1862422274
 30
0.0
 11
229.17749964
 21
-53.1862422274
 31
0.0
  0
LINE
  5
363
330
1F
100
AcDbEntity
  8
0
  6
SLD-Сплошная
 62
     7
370
    25
100
AcDbLine
 10
238.67749964
 20
-53.1862422274
 30
0.0
 11
238.67749964
 21
-58.1862422274
 31
0.0
  0
LINE
  5
364
330
1F
100
AcDbEntity
  8
0
  6
SLD-Сплошная
 62
     7
370
    25
100
AcDbLine
 10
190.629529901
 20
10.8137577726
 30
0.0
 11
189.17749964
 21
10.8137577726
 31
0.0
  0
LINE
  5
365
330
1F
100
AcDbEntity
  8
0
  6
SLD-Сплошная
 62
     7
370
    25
100
AcDbLine
 10
189.17749964
 20
15.8137577726
 30
0.0
 11
190.629529901
 21
15.8137577726
 31
0.0
  0
LINE
  5
366
330
1F
100
AcDbEntity
  8
0
  6
SLD-Сплошная
 62
     7
370
    25
100
AcDbLine
 10
189.17749964
 20
10.8137577726
 30
0.0
 11
182.67749964
 21
10.8137577726
 31
0.0
  0
LINE
  5
367
330
1F
100
AcDbEntity
  8
0
  6
SLD-Сплошная
 62
     7
370
    25
100
AcDbLine
 10
182.67749964
 20
10.8137577726
 30
0.0
 11
182.67749964
 21
15.8137577726
 31
0.0
  0
LINE
  5
368
330
1F
100
AcDbEntity
  8
0
  6
SLD-Сплошная
 62
     7
370
    25
100
AcDbLine
 10
182.67749964
 20
15.8137577726
 30
0.0
 11
189.17749964
 21
15.8137577726
 31
0.0
  0
LINE
  5
369
330
1F
100
AcDbEntity
  8
0
  6
SLD-Сплошная
 62
     7
370
    25
100
AcDbLine
 10
196.9885610718
 20
10.8137577726
 30
0.0
 11
190.629529901
 21
10.8137577726
 31
0.0
  0
LINE
  5
36A
330
1F
100
AcDbEntity
  8
0
  6
SLD-Сплошная
 62
     7
370
    25
100
AcDbLine
 10
190.629529901
 20
15.8137577726
 30
0.0
 11
196.9885610718
 21
15.8137577726
 31
0.0
  0
LINE
  5
36B
330
1F
100
AcDbEntity
  8
0
  6
SLD-Сплошная
 62
     7
370
    25
100
AcDbLine
 10
190.629529901
 20
-10.1862422274
 30
0.0
 11
196.9885610718
 21
-10.1862422274
 31
0.0
  0
LINE
  5
36C
330
1F
100
AcDbEntity
  8
0
  6
SLD-Сплошная
 62
     7
370
    25
100
AcDbLine
 10
196.9885610718
 20
-15.1862422274
 30
0.0
 11
190.629529901
 21
-15.1862422274
 31
0.0
  0
LINE
  5
36D
330
1F
100
AcDbEntity
  8
0
  6
SLD-Сплошная
 62
     7
370
    25
100
AcDbLine
 10
189.17749964
 20
-15.1862422274
 30
0.0
 11
182.67749964
 21
-15.1862422274
 31
0.0
  0
LINE
  5
36E
330
1F
100
AcDbEntity
  8
0
  6
SLD-Сплошная
 62
     7
370
    25
100
AcDbLine
 10
182.67749964
 20
-15.1862422274
 30
0.0
 11
182.67749964
 21
-10.1862422274
 31
0.0
  0
LINE
  5
36F
330
1F
100
AcDbEntity
  8
0
  6
SLD-Сплошная
 62
     7
370
    25
100
AcDbLine
 10
182.67749964
 20
-10.1862422274
 30
0.0
 11
189.17749964
 21
-10.1862422274
 31
0.0
  0
LINE
  5
370
330
1F
100
AcDbEntity
  8
0
  6
SLD-Сплошная
 62
     7
370
    25
100
AcDbLine
 10
190.629529901
 20
-15.1862422274
 30
0.0
 11
189.17749964
 21
-15.1862422274
 31
0.0
  0
LINE
  5
371
330
1F
100
AcDbEntity
  8
0
  6
SLD-Сплошная
 62
     7
370
    25
100
AcDbLine
 10
190.629529901
 20
-10.1862422274
 30
0.0
 11
189.17749964
 21
-10.1862422274
 31
0.0
  0
LINE
  5
372
330
1F
100
AcDbEntity
  8
0
  6
SLD-Сплошная
 62
     7
370
    25
100
AcDbLine
 10
201.943793085
 20
10.8137577726
 30
0.0
 11
201.943793085
 21
-10.1862422274
 31
0.0
  0
SPLINE
  5
373
330
1F
100
AcDbEntity
  8
0
  6
SLD-Сплошная
 62
     7
370
    25
100
AcDbSpline
210
0.0
220
0.0
230
1.0
 70
     8
 71
     3
 72
    18
 73
    14
 74
     0
 42
0.00000001
 43
0.00000001
 40
0.0
 40
0.0
 40
0.0
 40
0.0
 40
0.2499999999999999
 40
0.2499999999999999
 40
0.3749999999999999
 40
0.3749999999999999
 40
0.4999999999999999
 40
0.4999999999999999
 40
0.6249999999999999
 40
0.6249999999999999
 40
0.7499999999999998
 40
0.7499999999999998
 40
1.0
 40
1.0
 40
1.0
 40
1.0
 10
227.6774996399565
 20
-15.18624222737812
 30
0.0
 10
226.0344211331098
 20
-12.81569821480366
 30
0.0
 10
224.7374839440267
 20
-10.29229046585072
 30
0.0
 10
223.4253676524779
 20
-6.378745214362748
 30
0.0
 10
223.0929612930804
 20
-5.05321621343424
 30
0.0
 10
222.6485347441654
 20
-2.380520992878948
 30
0.0
 10
222.5365332659786
 20
-1.033391267437425
 30
0.0
 10
222.5365332659786
 20
1.660906812681142
 30
0.0
 10
222.6485347441654
 20
3.008036538122701
 30
0.0
 10
223.0929612930804
 20
5.680731758677995
 30
0.0
 10
223.4253676524779
 20
7.00626075960647
 30
0.0
 10
224.7374839440267
 20
10.91980601109445
 30
0.0
 10
226.0344211331098
 20
13.44321376004742
 30
0.0
 10
227.6774996399565
 20
15.81375777262189
 30
0.0
  0
LINE
  5
374
330
1F
100
AcDbEntity
  8
0
  6
SLD-Сплошная
 62
     7
370
    25
100
AcDbLine
 10
227.67749964
 20
-15.1862422274
 30
0.0
 11
196.9885610718
 21
-15.1862422274
 31
0.0
  0
LINE
  5
375
330
1F
100
AcDbEntity
  8
0
  6
SLD-Сплошная
 62
     7
370
    25
100
AcDbLine
 10
201.943793085
 20
-10.1862422274
 30
0.0
 11
196.9885610718
 21
-10.1862422274
 31
0.0
  0
LINE
  5
376
330
1F
100
AcDbEntity
  8
0
  6
SLD-Сплошная
 62
     7
370
    25
100
AcDbLine
 10
227.67749964
 20
15.8137577726
 30
0.0
 11
196.9885610718
 21
15.8137577726
 31
0.0
  0
LINE
  5
377
330
1F
100
AcDbEntity
  8
0
  6
SLD-Сплошная
 62
     7
370
    25
100
AcDbLine
 10
196.9885610718
 20
10.8137577726
 30
0.0
 11
201.943793085
 21
10.8137577726
 31
0.0
  0
LINE
  5
378
330
1F
100
AcDbEntity
  8
0
  6
SLD-Сплошная
 62
     7
370
    25
100
AcDbLine
 10
200.3816197052
 20
-10.1862422274
 30
0.0
 11
200.3816197052
 21
10.8137577726
 31
0.0
  0
LINE
  5
379
330
1F
100
AcDbEntity
  8
0
  6
SLD-Сплошная
 62
     7
370
    25
100
AcDbLine
 10
251.17749964
 20
-49.7862422274
 30
0.0
 11
241.67749964
 21
-49.7862393964
 31
0.0
  0
LINE
  5
37A
330
1F
100
AcDbEntity
  8
0
  6
SLD-Сплошная
 62
     7
370
    25
100
AcDbLine
 10
251.17749964
 20
50.4137577726
 30
0.0
 11
241.67749964
 21
50.4137549417
 31
0.0
  0
LINE
  5
37B
330
1F
100
AcDbEntity
  8
0
  6
SLD-Сплошная
 62
     7
370
    25
100
AcDbLine
 10
251.17749964
 20
50.4137577726
 30
0.0
 11
251.17749964
 21
-49.7862422274
 31
0.0
  0
LINE
  5
37C
330
1F
100
AcDbEntity
  8
0
  6
SLD-Сплошная
 62
     7
370
    25
100
AcDbLine
 10
192.8441663066
 20
-38.6862422274
 30
0.0
 11
192.8441663066
 21
-34.1488556176
 31
0.0
  0
LINE
  5
37D
330
1F
100
AcDbEntity
  8
0
  6
SLD-Сплошная
 62
     7
370
    25
100
AcDbLine
 10
215.5108329733
 20
-38.6862422274
 30
0.0
 11
215.5108329733
 21
-34.1488556176
 31
0.0
  0
LINE
  5
37E
330
1F
100
AcDbEntity
  8
0
  6
SLD-Сплошная
 62
     7
370
    25
100
AcDbLine
 10
215.5108329733
 20
-34.1488556176
 30
0.0
 11
192.8441663066
 21
-34.1488556176
 31
0.0
  0
LINE
  5
37F
330
1F
100
AcDbEntity
  8
0
  6
SLD-Сплошная
 62
     7
370
    25
100
AcDbLine
 10
188.67749964
 20
-38.6862422274
 30
0.0
 11
175.1774996396
 21
-38.6862422274
 31
0.0
  0
LINE
  5
380
330
1F
100
AcDbEntity
  8
0
  6
SLD-Сплошная
 62
     7
370
    25
100
AcDbLine
 10
229.17749964
 20
39.3137577726
 30
0.0
 11
175.1774996396
 21
39.3137577726
 31
0.0
  0
LINE
  5
381
330
1F
100
AcDbEntity
  8
0
  6
SLD-Сплошная
 62
     7
370
    25
100
AcDbLine
 10
229.17749964
 20
-38.6862422274
 30
0.0
 11
218.67749964
 21
-38.6862422274
 31
0.0
  0
LINE
  5
382
330
1F
100
AcDbEntity
  8
0
  6
SLD-Сплошная
 62
     7
370
    25
100
AcDbLine
 10
269.67749964
 20
37.8137577726
 30
0.0
 11
275.62749964
 21
37.8137577726
 31
0.0
  0
LINE
  5
383
330
1F
100
AcDbEntity
  8
0
  6
SLD-Сплошная
 62
     7
370
    25
100
AcDbLine
 10
275.62749964
 20
-37.1862422274
 30
0.0
 11
275.62749964
 21
37.8137577726
 31
0.0
  0
LINE
  5
384
330
1F
100
AcDbEntity
  8
0
  6
SLD-Сплошная
 62
     7
370
    25
100
AcDbLine
 10
269.67749964
 20
-37.1862422274
 30
0.0
 11
275.62749964
 21
-37.1862422274
 31
0.0
  0
LINE
  5
385
330
1F
100
AcDbEntity
  8
0
  6
SLD-Сплошная
 62
     7
370
    25
100
AcDbLine
 10
269.67749964
 20
-12.5119976021
 30
0.0
 11
269.67749964
 21
13.1395131473
 31
0.0
  0
LINE
  5
386
330
1F
100
AcDbEntity
  8
0
  6
SLD-Сплошная
 62
     7
370
    25
100
AcDbLine
 10
269.67749964
 20
-37.1862422274
 30
0.0
 11
269.67749964
 21
-12.5119976021
 31
0.0
  0
LINE
  5
387
330
1F
100
AcDbEntity
  8
0
  6
SLD-Сплошная
 62
     7
370
    25
100
AcDbLine
 10
269.67749964
 20
13.1395131473
 30
0.0
 11
269.67749964
 21
37.8137577726
 31
0.0
  0
LINE
  5
388
330
1F
100
AcDbEntity
  8
0
  6
SLD-Сплошная
 62
     7
370
    25
100
AcDbLine
 10
251.67749964
 20
-37.1862422274
 30
0.0
 11
251.17749964
 21
-37.1862422274
 31
0.0
  0
LINE
  5
389
330
1F
100
AcDbEntity
  8
0
  6
SLD-Сплошная
 62
     7
370
    25
100
AcDbLine
 10
251.67749964
 20
37.8137577726
 30
0.0
 11
251.17749964
 21
37.8137577726
 31
0.0
  0
LINE
  5
38A
330
1F
100
AcDbEntity
  8
0
  6
SLD-Сплошная
 62
     7
370
    25
100
AcDbLine
 10
251.67749964
 20
-12.5119976021
 30
0.0
 11
251.67749964
 21
13.1395131473
 31
0.0
  0
LINE
  5
38B
330
1F
100
AcDbEntity
  8
0
  6
SLD-Сплошная
 62
     7
370
    25
100
AcDbLine
 10
251.67749964
 20
13.1395131473
 30
0.0
 11
251.67749964
 21
37.8137577726
 31
0.0
  0
LINE
  5
38C
330
1F
100
AcDbEntity
  8
0
  6
SLD-Сплошная
 62
     7
370
    25
100
AcDbLine
 10
251.67749964
 20
-37.1862422274
 30
0.0
 11
251.67749964
 21
-12.5119976021
 31
0.0
  0
LINE
  5
38D
330
1F
100
AcDbEntity
  8
0
  6
SLD-Сплошная
 62
     7
370
    25
100
AcDbLine
 10
269.67749964
 20
8.1069376099
 30
0.0
 11
251.67749964
 21
8.1069376099
 31
0.0
  0
LINE
  5
38E
330
1F
100
AcDbEntity
  8
0
  6
SLD-Сплошная
 62
     7
370
    25
100
AcDbLine
 10
269.67749964
 20
15.6069376099
 30
0.0
 11
251.67749964
 21
15.6069376099
 31
0.0
  0
LINE
  5
38F
330
1F
100
AcDbEntity
  8
0
  6
SLD-Сплошная
 62
     7
370
    25
100
AcDbLine
 10
269.67749964
 20
-14.9794220646
 30
0.0
 11
251.67749964
 21
-14.9794220646
 31
0.0
  0
LINE
  5
390
330
1F
100
AcDbEntity
  8
0
  6
SLD-Сплошная
 62
     7
370
    25
100
AcDbLine
 10
269.67749964
 20
-7.4794220646
 30
0.0
 11
251.67749964
 21
-7.4794220646
 31
0.0
  0
LINE
  5
391
330
1F
100
AcDbEntity
  8
0
  6
SLD-Сплошная
 62
     7
370
    25
100
AcDbLine
 10
269.67749964
 20
2.5637577726
 30
0.0
 11
251.67749964
 21
2.5637577726
 31
0.0
  0
LINE
  5
392
330
1F
100
AcDbEntity
  8
0
  6
SLD-Сплошная
 62
     7
370
    25
100
AcDbLine
 10
269.67749964
 20
3.9637577726
 30
0.0
 11
251.67749964
 21
3.9637577726
 31
0.0
  0
LINE
  5
393
330
1F
100
AcDbEntity
  8
0
  6
SLD-Сплошная
 62
     7
370
    25
100
AcDbLine
 10
269.67749964
 20
-1.9362422274
 30
0.0
 11
251.67749964
 21
-1.9362422274
 31
0.0
  0
LINE
  5
394
330
1F
100
AcDbEntity
  8
0
  6
SLD-Сплошная
 62
     7
370
    25
100
AcDbLine
 10
269.67749964
 20
-3.3362422274
 30
0.0
 11
251.67749964
 21
-3.3362422274
 31
0.0
  0
LINE
  5
395
330
1F
100
AcDbEntity
  8
0
  6
SLD-Сплошная
 62
     7
370
    25
100
AcDbLine
 10
251.87749964
 20
23.0803656409
 30
0.0
 11
251.67749964
 21
23.0803656409
 31
0.0
  0
LINE
  5
396
330
1F
100
AcDbEntity
  8
0
  6
SLD-Сплошная
 62
     7
370
    25
100
AcDbLine
 10
251.87749964
 20
20.6188271793
 30
0.0
 11
251.67749964
 21
20.6188271793
 31
0.0
  0
LINE
  5
397
330
1F
100
AcDbEntity
  8
0
  6
SLD-Сплошная
 62
     7
370
    25
100
AcDbLine
 10
251.87749964
 20
20.6188271793
 30
0.0
 11
251.87749964
 21
23.0803656409
 31
0.0
  0
LINE
  5
398
330
1F
100
AcDbEntity
  8
0
  6
SLD-Сплошная
 62
     7
370
    25
100
AcDbLine
 10
251.87749964
 20
20.0411028203
 30
0.0
 11
251.67749964
 21
20.0411028203
 31
0.0
  0
LINE
  5
399
330
1F
100
AcDbEntity
  8
0
  6
SLD-Сплошная
 62
     7
370
    25
100
AcDbLine
 10
251.87749964
 20
18.9128976921
 30
0.0
 11
251.87749964
 21
20.0411028203
 31
0.0
  0
LINE
  5
39A
330
1F
100
AcDbEntity
  8
0
  6
SLD-Сплошная
 62
     7
370
    25
100
AcDbLine
 10
251.87749964
 20
18.9128976921
 30
0.0
 11
251.67749964
 21
18.9128976921
 31
0.0
  0
LINE
  5
39B
330
1F
100
AcDbEntity
  8
0
  6
SLD-Сплошная
 62
     7
370
    25
100
AcDbLine
 10
251.87749964
 20
20.0411028203
 30
0.0
 11
251.87749964
 21
20.4649810255
 31
0.0
  0
LINE
  5
39C
330
1F
100
AcDbEntity
  8
0
  6
SLD-Сплошная
 62
     7
370
    25
100
AcDbLine
 10
251.87749964
 20
20.4649810255
 30
0.0
 11
251.67749964
 21
20.4649810255
 31
0.0
  0
LINE
  5
39D
330
1F
100
AcDbEntity
  8
0
  6
SLD-Сплошная
 62
     7
370
    25
100
AcDbLine
 10
251.87749964
 20
17.0803656409
 30
0.0
 11
251.67749964
 21
17.0803656409
 31
0.0
  0
LINE
  5
39E
330
1F
100
AcDbEntity
  8
0
  6
SLD-Сплошная
 62
     7
370
    25
100
AcDbLine
 10
251.87749964
 20
17.5419041024
 30
0.0
 11
251.67749964
 21
17.5419041024
 31
0.0
  0
LINE
  5
39F
330
1F
100
AcDbEntity
  8
0
  6
SLD-Сплошная
 62
     7
370
    25
100
AcDbLine
 10
251.87749964
 20
17.0803656409
 30
0.0
 11
251.87749964
 21
17.5419041024
 31
0.0
  0
ARC
  5
3A0
330
1F
100
AcDbEntity
  8
0
  6
SLD-Сплошная
 62
     7
370
    25
100
AcDbCircle
 10
260.67749964
 20
0.3137577726
 30
0.0
 40
2.200000000000045
100
AcDbArc
 50
0.0
 51
118.6168979242
  0
ARC
  5
3A1
330
1F
100
AcDbEntity
  8
0
  6
SLD-Сплошная
 62
     7
370
    25
100
AcDbCircle
 10
260.67749964
 20
0.3137577726
 30
0.0
 40
2.200000000000045
100
AcDbArc
 50
322.2226813048
 51
0.0
  0
LINE
  5
3A2
330
1F
100
AcDbEntity
  8
0
  6
SLD-Сплошная
 62
     7
370
    25
100
AcDbLine
 10
262.4163743115
 20
-1.0339494941
 30
0.0
 11
259.6238079333
 21
2.2450096431
 31
0.0
  0
ARC
  5
3A3
330
1F
100
AcDbEntity
  8
0
  6
SLD-Сплошная
 62
     7
370
    25
100
AcDbCircle
 10
254.67749964
 20
0.3137577726
 30
0.0
 40
2.200000000000074
100
AcDbArc
 50
322.2226813048
 51
0.0
  0
LINE
  5
3A4
330
1F
100
AcDbEntity
  8
0
  6
SLD-Сплошная
 62
     7
370
    25
100
AcDbLine
 10
256.4163743115
 20
-1.0339494941
 30
0.0
 11
253.6238079333
 21
2.2450096431
 31
0.0
  0
ARC
  5
3A5
330
1F
100
AcDbEntity
  8
0
  6
SLD-Сплошная
 62
     7
370
    25
100
AcDbCircle
 10
254.67749964
 20
0.3137577726
 30
0.0
 40
2.200000000000074
100
AcDbArc
 50
0.0
 51
118.6168979242
  0
ARC
  5
3A6
330
1F
100
AcDbEntity
  8
0
  6
SLD-Сплошная
 62
     7
370
    25
100
AcDbCircle
 10
260.67749964
 20
0.3137577726
 30
0.0
 40
2.2
100
AcDbArc
 50
180.0
 51
298.6168979242
  0
LINE
  5
3A7
330
1F
100
AcDbEntity
  8
0
  6
SLD-Сплошная
 62
     7
370
    25
100
AcDbLine
 10
258.9386249685
 20
1.6614650394
 30
0.0
 11
261.7311913466
 21
-1.6174940979
 31
0.0
  0
ARC
  5
3A8
330
1F
100
AcDbEntity
  8
0
  6
SLD-Сплошная
 62
     7
370
    25
100
AcDbCircle
 10
260.67749964
 20
0.3137577726
 30
0.0
 40
2.199999999999989
100
AcDbArc
 50
142.2226813048
 51
180.0
  0
ARC
  5
3A9
330
1F
100
AcDbEntity
  8
0
  6
SLD-Сплошная
 62
     7
370
    25
100
AcDbCircle
 10
254.67749964
 20
0.3137577726
 30
0.0
 40
2.200000000000028
100
AcDbArc
 50
180.0
 51
298.6168979242
  0
LINE
  5
3AA
330
1F
100
AcDbEntity
  8
0
  6
SLD-Сплошная
 62
     7
370
    25
100
AcDbLine
 10
252.9386249685
 20
1.6614650394
 30
0.0
 11
255.7311913466
 21
-1.6174940979
 31
0.0
  0
ARC
  5
3AB
330
1F
100
AcDbEntity
  8
0
  6
SLD-Сплошная
 62
     7
370
    25
100
AcDbCircle
 10
254.67749964
 20
0.3137577726
 30
0.0
 40
2.199999999999987
100
AcDbArc
 50
142.2226813048
 51
180.0
  0
LINE
  5
3AC
330
1F
100
AcDbEntity
  8
0
  6
SLD-Сплошная
 62
     7
370
    25
100
AcDbLine
 10
251.87749964
 20
18.6188271793
 30
0.0
 11
251.67749964
 21
18.6188271793
 31
0.0
  0
LINE
  5
3AD
330
1F
100
AcDbEntity
  8
0
  6
SLD-Сплошная
 62
     7
370
    25
100
AcDbLine
 10
251.87749964
 20
17.5419041024
 30
0.0
 11
251.87749964
 21
18.6188271793
 31
0.0
  0
LINE
  5
3AE
330
1F
100
AcDbEntity
  8
0
  6
SLD-Сплошная
 62
     7
370
    25
100
AcDbLine
 10
251.87749964
 20
16.0034425639
 30
0.0
 11
251.67749964
 21
16.0034425639
 31
0.0
  0
LINE
  5
3AF
330
1F
100
AcDbEntity
  8
0
  6
SLD-Сплошная
 62
     7
370
    25
100
AcDbLine
 10
251.87749964
 20
16.0034425639
 30
0.0
 11
251.87749964
 21
17.0803656409
 31
0.0
  0
ARC
  5
3B0
330
1F
100
AcDbEntity
  8
0
  6
SLD-Сплошная
 62
     7
370
    25
100
AcDbCircle
 10
254.67749964
 20
0.3137577726
 30
0.0
 40
2.200000000000035
100
AcDbArc
 50
298.6168979242
 51
322.2226813048
  0
ARC
  5
3B1
330
1F
100
AcDbEntity
  8
0
  6
SLD-Сплошная
 62
     7
370
    25
100
AcDbCircle
 10
254.67749964
 20
0.3137577726
 30
0.0
 40
2.199999999999987
100
AcDbArc
 50
118.6168979242
 51
142.2226813048
  0
ARC
  5
3B2
330
1F
100
AcDbEntity
  8
0
  6
SLD-Сплошная
 62
     7
370
    25
100
AcDbCircle
 10
260.67749964
 20
0.3137577726
 30
0.0
 40
2.200000000000014
100
AcDbArc
 50
298.6168979242
 51
322.2226813048
  0
ARC
  5
3B3
330
1F
100
AcDbEntity
  8
0
  6
SLD-Сплошная
 62
     7
370
    25
100
AcDbCircle
 10
260.67749964
 20
0.3137577726
 30
0.0
 40
2.199999999999975
100
AcDbArc
 50
118.6168979242
 51
142.2226813048
  0
LINE
  5
3B4
330
1F
100
AcDbEntity
  8
0
  6
SLD-Сплошная
 62
     7
370
    25
100
AcDbLine
 10
269.67749964
 20
6.2137577726
 30
0.0
 11
251.67749964
 21
6.2137577726
 31
0.0
  0
LINE
  5
3B5
330
1F
100
AcDbEntity
  8
0
  6
SLD-Сплошная
 62
     7
370
    25
100
AcDbLine
 10
269.67749964
 20
-5.5862422274
 30
0.0
 11
251.67749964
 21
-5.5862422274
 31
0.0
  0
LINE
  5
3B6
330
1F
100
AcDbEntity
  8
0
  6
SLD-Сплошная
 62
     7
370
    25
100
AcDbLine
 10
266.17749964
 20
-1.9362422274
 30
0.0
 11
266.17749964
 21
2.5637577726
 31
0.0
  0
LINE
  5
3B7
330
1F
100
AcDbEntity
  8
0
  6
SLD-Сплошная
 62
     7
370
    25
100
AcDbLine
 10
269.67749964
 20
21.4419041024
 30
0.0
 11
251.87749964
 21
21.4419041024
 31
0.0
  0
LINE
  5
3B8
330
1F
100
AcDbEntity
  8
0
  6
SLD-Сплошная
 62
     7
370
    25
100
AcDbLine
 10
269.67749964
 20
23.0419041024
 30
0.0
 11
251.87749964
 21
23.0419041024
 31
0.0
  0
LINE
  5
3B9
330
1F
100
AcDbEntity
  8
0
  6
SLD-Сплошная
 62
     7
370
    25
100
AcDbLine
 10
269.67749964
 20
-20.8143885572
 30
0.0
 11
251.67749964
 21
-20.8143885572
 31
0.0
  0
LINE
  5
3BA
330
1F
100
AcDbEntity
  8
0
  6
SLD-Сплошная
 62
     7
370
    25
100
AcDbLine
 10
269.67749964
 20
-22.4143885572
 30
0.0
 11
251.67749964
 21
-22.4143885572
 31
0.0
  0
ARC
  5
3BB
330
1F
100
AcDbEntity
  8
0
  6
SLD-Сплошная
 62
     7
370
    25
100
AcDbCircle
 10
256.17749964
 20
17.9419041024
 30
0.0
 40
3.450000000000007
100
AcDbArc
 50
90.0
 51
222.5942334764
  0
ARC
  5
3BC
330
1F
100
AcDbEntity
  8
0
  6
SLD-Сплошная
 62
     7
370
    25
100
AcDbCircle
 10
256.17749964
 20
17.9419041024
 30
0.0
 40
3.45000000000001
100
AcDbArc
 50
83.9965416986
 51
90.0
  0
LINE
  5
3BD
330
1F
100
AcDbEntity
  8
0
  6
SLD-Сплошная
 62
     7
370
    25
100
AcDbLine
 10
256.5383299345
 20
21.3729828684
 30
0.0
 11
254.6970447731
 21
15.6069376099
 31
0.0
  0
ARC
  5
3BE
330
1F
100
AcDbEntity
  8
0
  6
SLD-Сплошная
 62
     7
370
    25
100
AcDbCircle
 10
264.17749964
 20
17.9419041024
 30
0.0
 40
3.449999999999999
100
AcDbArc
 50
90.0
 51
222.5942334764
  0
LINE
  5
3BF
330
1F
100
AcDbEntity
  8
0
  6
SLD-Сплошная
 62
     7
370
    25
100
AcDbLine
 10
264.5383299345
 20
21.3729828684
 30
0.0
 11
262.6970447731
 21
15.6069376099
 31
0.0
  0
ARC
  5
3C0
330
1F
100
AcDbEntity
  8
0
  6
SLD-Сплошная
 62
     7
370
    25
100
AcDbCircle
 10
264.17749964
 20
17.9419041024
 30
0.0
 40
3.450000000000016
100
AcDbArc
 50
83.9965416986
 51
90.0
  0
ARC
  5
3C1
330
1F
100
AcDbEntity
  8
0
  6
SLD-Сплошная
 62
     7
370
    25
100
AcDbCircle
 10
256.17749964
 20
17.9419041024
 30
0.0
 40
3.449999999999986
100
AcDbArc
 50
317.4057665236
 51
60.583522112
  0
LINE
  5
3C2
330
1F
100
AcDbEntity
  8
0
  6
SLD-Сплошная
 62
     7
370
    25
100
AcDbLine
 10
256.1666935256
 20
15.6069376099
 30
0.0
 11
257.8719819358
 21
20.9471045531
 31
0.0
  0
LINE
  5
3C3
330
1F
100
AcDbEntity
  8
0
  6
SLD-Сплошная
 62
     7
370
    25
100
AcDbLine
 10
264.1666935256
 20
15.6069376099
 30
0.0
 11
265.8719819358
 21
20.9471045531
 31
0.0
  0
ARC
  5
3C4
330
1F
100
AcDbEntity
  8
0
  6
SLD-Сплошная
 62
     7
370
    25
100
AcDbCircle
 10
264.17749964
 20
17.9419041024
 30
0.0
 40
3.450000000000028
100
AcDbArc
 50
317.4057665236
 51
60.583522112
  0
ARC
  5
3C5
330
1F
100
AcDbEntity
  8
0
  6
SLD-Сплошная
 62
     7
370
    25
100
AcDbCircle
 10
256.17749964
 20
-17.3143885572
 30
0.0
 40
3.450000000000151
100
AcDbArc
 50
137.4057665236
 51
240.583522112
  0
LINE
  5
3C6
330
1F
100
AcDbEntity
  8
0
  6
SLD-Сплошная
 62
     7
370
    25
100
AcDbLine
 10
256.1883057543
 20
-14.9794220646
 30
0.0
 11
254.4830173441
 21
-20.3195890079
 31
0.0
  0
LINE
  5
3C7
330
1F
100
AcDbEntity
  8
0
  6
SLD-Сплошная
 62
     7
370
    25
100
AcDbLine
 10
264.1883057543
 20
-14.9794220646
 30
0.0
 11
262.4830173441
 21
-20.3195890079
 31
0.0
  0
ARC
  5
3C8
330
1F
100
AcDbEntity
  8
0
  6
SLD-Сплошная
 62
     7
370
    25
100
AcDbCircle
 10
264.17749964
 20
-17.3143885572
 30
0.0
 40
3.450000000000111
100
AcDbArc
 50
137.4057665236
 51
240.583522112
  0
LINE
  5
3C9
330
1F
100
AcDbEntity
  8
0
  6
SLD-Сплошная
 62
     7
370
    25
100
AcDbLine
 10
263.8166693454
 20
-20.7454673232
 30
0.0
 11
265.6579545068
 21
-14.9794220646
 31
0.0
  0
ARC
  5
3CA
330
1F
100
AcDbEntity
  8
0
  6
SLD-Сплошная
 62
     7
370
    25
100
AcDbCircle
 10
264.17749964
 20
-17.3143885572
 30
0.0
 40
3.450000000000004
100
AcDbArc
 50
270.0
 51
42.5942334764
  0
ARC
  5
3CB
330
1F
100
AcDbEntity
  8
0
  6
SLD-Сплошная
 62
     7
370
    25
100
AcDbCircle
 10
264.17749964
 20
-17.3143885572
 30
0.0
 40
3.450000000000008
100
AcDbArc
 50
263.9965416985
 51
270.0
  0
LINE
  5
3CC
330
1F
100
AcDbEntity
  8
0
  6
SLD-Сплошная
 62
     7
370
    25
100
AcDbLine
 10
255.8166693454
 20
-20.7454673232
 30
0.0
 11
257.6579545068
 21
-14.9794220646
 31
0.0
  0
ARC
  5
3CD
330
1F
100
AcDbEntity
  8
0
  6
SLD-Сплошная
 62
     7
370
    25
100
AcDbCircle
 10
256.17749964
 20
-17.3143885572
 30
0.0
 40
3.450000000000003
100
AcDbArc
 50
270.0
 51
42.5942334764
  0
ARC
  5
3CE
330
1F
100
AcDbEntity
  8
0
  6
SLD-Сплошная
 62
     7
370
    25
100
AcDbCircle
 10
256.17749964
 20
-17.3143885572
 30
0.0
 40
3.450000000000067
100
AcDbArc
 50
263.9965416985
 51
270.0
  0
SPLINE
  5
3CF
330
1F
100
AcDbEntity
  8
0
  6
SLD-Сплошная
 62
     7
370
    25
100
AcDbSpline
210
0.0
220
0.0
230
1.0
 70
     8
 71
     3
 72
     8
 73
     4
 74
     0
 42
0.00000001
 43
0.00000001
 40
0.0
 40
0.0
 40
0.0
 40
0.0
 40
1.0
 40
1.0
 40
1.0
 40
1.0
 10
210.049814441457
 20
-35.62214251346063
 30
0.0
 10
208.0922079633431
 20
-36.23996820996163
 30
0.0
 10
206.1351061181236
 20
-36.76141255085165
 30
0.0
 10
204.1774996399592
 20
-37.18256899840564
 30
0.0
  0
SPLINE
  5
3D0
330
1F
100
AcDbEntity
  8
0
  6
SLD-Сплошная
 62
     7
370
    25
100
AcDbSpline
210
0.0
220
0.0
230
1.0
 70
     8
 71
     3
 72
     8
 73
     4
 74
     0
 42
0.00000001
 43
0.00000001
 40
0.0
 40
0.0
 40
0.0
 40
0.0
 40
1.0
 40
1.0
 40
1.0
 40
1.0
 10
204.1774996399592
 20
-37.18256899840561
 30
0.0
 10
202.2198931609999
 20
-36.76141255068092
 30
0.0
 10
200.2627913174605
 20
-36.23996821024195
 30
0.0
 10
198.3051848384569
 20
-35.62214251346064
 30
0.0
  0
LINE
  5
3D1
330
1F
100
AcDbEntity
  8
0
  6
SLD-Сплошная
 62
     7
370
    25
100
AcDbLine
 10
202.8398465256
 20
-38.0370814777
 30
0.0
 11
198.3051848385
 21
-38.0370814777
 31
0.0
  0
LINE
  5
3D2
330
1F
100
AcDbEntity
  8
0
  6
SLD-Сплошная
 62
     7
370
    25
100
AcDbLine
 10
210.0498144415
 20
-38.0370814777
 30
0.0
 11
205.6206400582
 21
-38.0370814777
 31
0.0
  0
ARC
  5
3D3
330
1F
100
AcDbEntity
  8
0
  6
SLD-Сплошная
 62
     7
370
    25
100
AcDbCircle
 10
264.17749964
 20
17.9419041024
 30
0.0
 40
3.450000000000016
100
AcDbArc
 50
60.583522112
 51
83.9965416986
  0
ARC
  5
3D4
330
1F
100
AcDbEntity
  8
0
  6
SLD-Сплошная
 62
     7
370
    25
100
AcDbCircle
 10
256.17749964
 20
17.9419041024
 30
0.0
 40
3.45000000000001
100
AcDbArc
 50
60.583522112
 51
83.9965416986
  0
ARC
  5
3D5
330
1F
100
AcDbEntity
  8
0
  6
SLD-Сплошная
 62
     7
370
    25
100
AcDbCircle
 10
256.17749964
 20
-17.3143885572
 30
0.0
 40
3.450000000000151
100
AcDbArc
 50
240.583522112
 51
263.9965416985
  0
ARC
  5
3D6
330
1F
100
AcDbEntity
  8
0
  6
SLD-Сплошная
 62
     7
370
    25
100
AcDbCircle
 10
264.17749964
 20
-17.3143885572
 30
0.0
 40
3.450000000000111
100
AcDbArc
 50
240.583522112
 51
263.9965416985
  0
SPLINE
  5
3D7
330
1F
100
AcDbEntity
  8
0
  6
SLD-Сплошная
 62
     7
370
    25
100
AcDbSpline
210
0.0
220
0.0
230
1.0
 70
     8
 71
     3
 72
     8
 73
     4
 74
     0
 42
0.00000001
 43
0.00000001
 40
0.0
 40
0.0
 40
0.0
 40
0.0
 40
1.0
 40
1.0
 40
1.0
 40
1.0
 10
204.1774996399592
 20
-37.38948507623228
 30
0.0
 10
202.22007442201
 20
-36.97067872490354
 30
0.0
 10
200.2630011087494
 20
-36.45219357217397
 30
0.0
 10
198.3051848384569
 20
-35.83799086242016
 30
0.0
  0
LINE
  5
3D8
330
1F
100
AcDbEntity
  8
0
  6
SLD-Сплошная
 62
     7
370
    25
100
AcDbLine
 10
204.17749964
 20
-37.1825689984
 30
0.0
 11
204.17749964
 21
-37.3894850762
 31
0.0
  0
LINE
  5
3D9
330
1F
100
AcDbEntity
  8
0
  6
SLD-Сплошная
 62
     7
370
    25
100
AcDbLine
 10
198.3051848385
 20
-35.6221425135
 30
0.0
 11
198.3051848385
 21
-35.8379908624
 31
0.0
  0
SPLINE
  5
3DA
330
1F
100
AcDbEntity
  8
0
  6
SLD-Сплошная
 62
     7
370
    25
100
AcDbSpline
210
0.0
220
0.0
230
1.0
 70
     8
 71
     3
 72
     8
 73
     4
 74
     0
 42
0.00000001
 43
0.00000001
 40
0.0
 40
0.0
 40
0.0
 40
0.0
 40
1.0
 40
1.0
 40
1.0
 40
1.0
 10
210.049814441457
 20
-35.83799086242017
 30
0.0
 10
208.0919980807883
 20
-36.45219360052709
 30
0.0
 10
206.1349249348594
 20
-36.97067870843893
 30
0.0
 10
204.1774996399592
 20
-37.38948507623226
 30
0.0
  0
LINE
  5
3DB
330
1F
100
AcDbEntity
  8
0
  6
SLD-Сплошная
 62
     7
370
    25
100
AcDbLine
 10
210.0498144415
 20
-35.6221425135
 30
0.0
 11
210.0498144415
 21
-35.8379908624
 31
0.0
  0
LINE
  5
3DC
330
1F
100
AcDbEntity
  8
0
  6
SLD-Сплошная
 62
     7
370
    25
100
AcDbLine
 10
198.3051848385
 20
-38.625734938
 30
0.0
 11
198.3051848385
 21
-38.2394116328
 31
0.0
  0
LINE
  5
3DD
330
1F
100
AcDbEntity
  8
0
  6
SLD-Сплошная
 62
     7
370
    25
100
AcDbLine
 10
204.0275552822
 20
-38.2394116328
 30
0.0
 11
198.3051848385
 21
-38.2394116328
 31
0.0
  0
LINE
  5
3DE
330
1F
100
AcDbEntity
  8
0
  6
SLD-Сплошная
 62
     7
370
    25
100
AcDbLine
 10
204.0275552822
 20
-38.2394116328
 30
0.0
 11
204.0275552822
 21
-38.2202713649
 31
0.0
  0
SPLINE
  5
3DF
330
1F
100
AcDbEntity
  8
0
  6
SLD-Сплошная
 62
     7
370
    25
100
AcDbSpline
210
0.0
220
0.0
230
1.0
 70
     8
 71
     3
 72
     8
 73
     4
 74
     0
 42
0.00000001
 43
0.00000001
 40
0.0
 40
0.0
 40
0.0
 40
0.0
 40
1.0
 40
1.0
 40
1.0
 40
1.0
 10
198.3051848384569
 20
-37.19408853301704
 30
0.0
 10
200.2129232565067
 20
-37.63135420058096
 30
0.0
 10
202.1200476091849
 20
-37.97424240815204
 30
0.0
 10
204.0275552821597
 20
-38.22027136494147
 30
0.0
  0
SPLINE
  5
3E0
330
1F
100
AcDbEntity
  8
0
  6
SLD-Сплошная
 62
     7
370
    25
100
AcDbSpline
210
0.0
220
0.0
230
1.0
 70
     8
 71
     3
 72
     8
 73
     4
 74
     0
 42
0.00000001
 43
0.00000001
 40
0.0
 40
0.0
 40
0.0
 40
0.0
 40
1.0
 40
1.0
 40
1.0
 40
1.0
 10
204.3274439977524
 20
-38.22027136494118
 30
0.0
 10
206.234951628638
 20
-37.97424241358049
 30
0.0
 10
208.1420760753119
 20
-37.63135418868378
 30
0.0
 10
210.049814441457
 20
-37.19408853301706
 30
0.0
  0
LINE
  5
3E1
330
1F
100
AcDbEntity
  8
0
  6
SLD-Сплошная
 62
     7
370
    25
100
AcDbLine
 10
204.3274439978
 20
-38.2394116328
 30
0.0
 11
204.3274439978
 21
-38.2202713649
 31
0.0
  0
LINE
  5
3E2
330
1F
100
AcDbEntity
  8
0
  6
SLD-Сплошная
 62
     7
370
    25
100
AcDbLine
 10
210.0498144415
 20
-38.2394116328
 30
0.0
 11
204.3274439978
 21
-38.2394116328
 31
0.0
  0
LINE
  5
3E3
330
1F
100
AcDbEntity
  8
0
  6
SLD-Сплошная
 62
     7
370
    25
100
AcDbLine
 10
210.0498144415
 20
-38.625734938
 30
0.0
 11
210.0498144415
 21
-38.2394116328
 31
0.0
  0
LINE
  5
3E4
330
1F
100
AcDbEntity
  8
0
  6
SLD-Сплошная
 62
     7
370
    25
100
AcDbLine
 10
198.3051848385
 20
-38.625734938
 30
0.0
 11
210.0498144415
 21
-38.625734938
 31
0.0
  0
LINE
  5
3E5
330
1F
100
AcDbEntity
  8
0
  6
SLD-Сплошная
 62
     7
370
    25
100
AcDbLine
 10
210.0498144415
 20
-37.194088533
 30
0.0
 11
210.0498144415
 21
-35.8379908624
 31
0.0
  0
LINE
  5
3E6
330
1F
100
AcDbEntity
  8
0
  6
SLD-Сплошная
 62
     7
370
    25
100
AcDbLine
 10
198.3051848385
 20
-37.194088533
 30
0.0
 11
198.3051848385
 21
-35.8379908624
 31
0.0
  0
LINE
  5
3E7
330
1F
100
AcDbEntity
  8
0
  6
SLD-Сплошная
 62
     7
370
    25
100
AcDbLine
 10
269.67749964
 20
26.0419041024
 30
0.0
 11
251.67749964
 21
26.0419041024
 31
0.0
  0
LINE
  5
3E8
330
1F
100
AcDbEntity
  8
0
  6
SLD-Сплошная
 62
     7
370
    25
100
AcDbLine
 10
269.67749964
 20
-25.4143885572
 30
0.0
 11
251.67749964
 21
-25.4143885572
 31
0.0
  0
LINE
  5
3E9
330
1F
100
AcDbEntity
  8
0
  6
SLD-Сплошная
 62
     7
370
    25
100
AcDbLine
 10
210.0498144415
 20
-38.0370814777
 30
0.0
 11
210.0498144415
 21
-38.2394116328
 31
0.0
  0
LINE
  5
3EA
330
1F
100
AcDbEntity
  8
0
  6
SLD-Сплошная
 62
     7
370
    25
100
AcDbLine
 10
198.3051848385
 20
-38.0370814777
 30
0.0
 11
198.3051848385
 21
-38.2394116328
 31
0.0
  0
LINE
  5
3EB
330
1F
100
AcDbEntity
  8
0
  6
SLD-Сплошная
 62
     7
370
    25
100
AcDbLine
 10
201.5082585885
 20
-38.6705878698
 30
0.0
 11
198.3051848385
 21
-38.6705878698
 31
0.0
  0
LINE
  5
3EC
330
1F
100
AcDbEntity
  8
0
  6
SLD-Сплошная
 62
     7
370
    25
100
AcDbLine
 10
198.3051848385
 20
-38.6862422274
 30
0.0
 11
198.3051848385
 21
-38.6705878698
 31
0.0
  0
LINE
  5
3ED
330
1F
100
AcDbEntity
  8
0
  6
SLD-Сплошная
 62
     7
370
    25
100
AcDbLine
 10
201.5082585885
 20
-38.6862422274
 30
0.0
 11
201.5082585885
 21
-38.6705878698
 31
0.0
  0
LINE
  5
3EE
330
1F
100
AcDbEntity
  8
0
  6
SLD-Сплошная
 62
     7
370
    25
100
AcDbLine
 10
205.779036515
 20
-38.6705878698
 30
0.0
 11
202.575962765
 21
-38.6705878698
 31
0.0
  0
LINE
  5
3EF
330
1F
100
AcDbEntity
  8
0
  6
SLD-Сплошная
 62
     7
370
    25
100
AcDbLine
 10
205.779036515
 20
-38.6862422274
 30
0.0
 11
205.779036515
 21
-38.6705878698
 31
0.0
  0
LINE
  5
3F0
330
1F
100
AcDbEntity
  8
0
  6
SLD-Сплошная
 62
     7
370
    25
100
AcDbLine
 10
206.8467406915
 20
-38.6862422274
 30
0.0
 11
206.8467406915
 21
-38.6705878698
 31
0.0
  0
LINE
  5
3F1
330
1F
100
AcDbEntity
  8
0
  6
SLD-Сплошная
 62
     7
370
    25
100
AcDbLine
 10
210.0498144415
 20
-38.6705878698
 30
0.0
 11
206.8467406915
 21
-38.6705878698
 31
0.0
  0
LINE
  5
3F2
330
1F
100
AcDbEntity
  8
0
  6
SLD-Сплошная
 62
     7
370
    25
100
AcDbLine
 10
210.0498144415
 20
-38.6862422274
 30
0.0
 11
210.0498144415
 21
-38.6705878698
 31
0.0
  0
LINE
  5
3F3
330
1F
100
AcDbEntity
  8
0
  6
SLD-Сплошная
 62
     7
370
    25
100
AcDbLine
 10
202.575962765
 20
-38.6862422274
 30
0.0
 11
202.575962765
 21
-38.6705878698
 31
0.0
  0
LINE
  5
3F4
330
1F
100
AcDbEntity
  8
0
  6
SLD-Сплошная
 62
     7
370
    25
100
AcDbLine
 10
198.3051848385
 20
-38.625734938
 30
0.0
 11
198.3051848385
 21
-38.6705878698
 31
0.0
  0
LINE
  5
3F5
330
1F
100
AcDbEntity
  8
0
  6
SLD-Сплошная
 62
     7
370
    25
100
AcDbLine
 10
201.5082585885
 20
-38.625734938
 30
0.0
 11
201.5082585885
 21
-38.6705878698
 31
0.0
  0
LINE
  5
3F6
330
1F
100
AcDbEntity
  8
0
  6
SLD-Сплошная
 62
     7
370
    25
100
AcDbLine
 10
205.779036515
 20
-38.6705878698
 30
0.0
 11
205.779036515
 21
-38.625734938
 31
0.0
  0
LINE
  5
3F7
330
1F
100
AcDbEntity
  8
0
  6
SLD-Сплошная
 62
     7
370
    25
100
AcDbLine
 10
202.575962765
 20
-38.6705878698
 30
0.0
 11
202.575962765
 21
-38.625734938
 31
0.0
  0
LINE
  5
3F8
330
1F
100
AcDbEntity
  8
0
  6
SLD-Сплошная
 62
     7
370
    25
100
AcDbLine
 10
206.8467406915
 20
-38.6705878698
 30
0.0
 11
206.8467406915
 21
-38.625734938
 31
0.0
  0
LINE
  5
3F9
330
1F
100
AcDbEntity
  8
0
  6
SLD-Сплошная
 62
     7
370
    25
100
AcDbLine
 10
210.0498144415
 20
-38.6705878698
 30
0.0
 11
210.0498144415
 21
-38.625734938
 31
0.0
  0
LINE
  5
3FA
330
1F
100
AcDbEntity
  8
0
  6
SLD-Сплошная
 62
     7
370
    25
100
AcDbLine
 10
275.62749964
 20
-4.8862422274
 30
0.0
 11
294.17749964
 21
-4.8862422274
 31
0.0
  0
LINE
  5
3FB
330
1F
100
AcDbEntity
  8
0
  6
SLD-Сплошная
 62
     7
370
    25
100
AcDbLine
 10
275.62749964
 20
5.5137577726
 30
0.0
 11
294.17749964
 21
5.5137577726
 31
0.0
  0
LINE
  5
3FC
330
1F
100
AcDbEntity
  8
0
  6
SLD-Сплошная
 62
     7
370
    25
100
AcDbLine
 10
292.17749964
 20
3.4137577726
 30
0.0
 11
292.17749964
 21
-2.7862422274
 31
0.0
  0
LINE
  5
3FD
330
1F
100
AcDbEntity
  8
0
  6
SLD-Сплошная
 62
     7
370
    25
100
AcDbLine
 10
294.17749964
 20
-4.8862422274
 30
0.0
 11
294.17749964
 21
5.5137577726
 31
0.0
  0
LINE
  5
3FE
330
1F
100
AcDbEntity
  8
0
  6
SLD-Сплошная
 62
     7
370
    25
100
AcDbLine
 10
292.17749964
 20
-2.7862422274
 30
0.0
 11
275.62749964
 21
-2.7862422274
 31
0.0
  0
LINE
  5
3FF
330
1F
100
AcDbEntity
  8
0
  6
SLD-Сплошная
 62
     7
370
    25
100
AcDbLine
 10
292.17749964
 20
3.4137577726
 30
0.0
 11
275.62749964
 21
3.4137577726
 31
0.0
  0
LINE
  5
400
330
1F
100
AcDbEntity
  8
0
  6
SLD-Сплошная
 62
     7
370
    25
100
AcDbLine
 10
294.37749964
 20
-3.196242227
 30
0.0
 11
294.17749964
 21
-3.196242227
 31
0.0
  0
LINE
  5
401
330
1F
100
AcDbEntity
  8
0
  6
SLD-Сплошная
 62
     7
370
    25
100
AcDbLine
 10
294.37749964
 20
3.8237577723
 30
0.0
 11
294.17749964
 21
3.8237577723
 31
0.0
  0
LINE
  5
402
330
1F
100
AcDbEntity
  8
0
  6
SLD-Сплошная
 62
     7
370
    25
100
AcDbLine
 10
294.37749964
 20
3.8237577723
 30
0.0
 11
294.37749964
 21
-3.196242227
 31
0.0
  0
LINE
  5
403
330
1F
100
AcDbEntity
  8
0
  6
SLD-Сплошная
 62
     7
370
    25
100
AcDbLine
 10
281.0380003746
 20
-2.2704319034
 30
0.0
 11
277.6397404712
 21
3.4137577726
 31
0.0
  0
ARC
  5
404
330
1F
100
AcDbEntity
  8
0
  6
SLD-Сплошная
 62
     7
370
    25
100
AcDbCircle
 10
278.67749964
 20
0.3137577726
 30
0.0
 40
3.500000000000028
100
AcDbArc
 50
312.4098074908
 51
62.3395501007
  0
LINE
  5
405
330
1F
100
AcDbEntity
  8
0
  6
SLD-Сплошная
 62
     7
370
    25
100
AcDbLine
 10
289.0380003746
 20
-2.2704319034
 30
0.0
 11
285.6397404712
 21
3.4137577726
 31
0.0
  0
ARC
  5
406
330
1F
100
AcDbEntity
  8
0
  6
SLD-Сплошная
 62
     7
370
    25
100
AcDbCircle
 10
286.67749964
 20
0.3137577726
 30
0.0
 40
3.500000000000028
100
AcDbArc
 50
312.4098074908
 51
62.3395501007
  0
LINE
  5
407
330
1F
100
AcDbEntity
  8
0
  6
SLD-Сплошная
 62
     7
370
    25
100
AcDbLine
 10
284.3169989053
 20
2.8979474487
 30
0.0
 11
287.7152588087
 21
-2.7862422274
 31
0.0
  0
ARC
  5
408
330
1F
100
AcDbEntity
  8
0
  6
SLD-Сплошная
 62
     7
370
    25
100
AcDbCircle
 10
286.67749964
 20
0.3137577726
 30
0.0
 40
3.500000000000127
100
AcDbArc
 50
132.4098074908
 51
242.3395501007
  0
LINE
  5
409
330
1F
100
AcDbEntity
  8
0
  6
SLD-Сплошная
 62
     7
370
    25
100
AcDbLine
 10
276.3169989053
 20
2.8979474487
 30
0.0
 11
279.7152588087
 21
-2.7862422274
 31
0.0
  0
LWPOLYLINE
  5
40A
330
1F
100
AcDbEntity
  8
0
  6
SLD-Сплошная
 62
     7
370
    25
100
AcDbPolyline
 90
        3
 70
   128
 43
0.0
 10
276.3169989053
 20
2.8979474487
 10
275.7191613491
 20
2.1841145719
 10
275.62749964
 20
2.030586244
  0
ARC
  5
40B
330
1F
100
AcDbEntity
  8
0
  6
SLD-Сплошная
 62
     7
370
    25
100
AcDbCircle
 10
278.67749964
 20
0.3137577726
 30
0.0
 40
3.50000000000001
100
AcDbArc
 50
209.3749245345
 51
242.3395501007
  0
ARC
  5
40C
330
1F
100
AcDbEntity
  8
0
  6
SLD-Сплошная
 62
     7
370
    25
100
AcDbCircle
 10
278.67749964
 20
0.3137577726
 30
0.0
 40
3.500000000000165
100
AcDbArc
 50
117.6604498993
 51
132.4098074908
  0
ARC
  5
40D
330
1F
100
AcDbEntity
  8
0
  6
SLD-Сплошная
 62
     7
370
    25
100
AcDbCircle
 10
278.67749964
 20
0.3137577726
 30
0.0
 40
3.500000000000016
100
AcDbArc
 50
297.6604498993
 51
312.4098074908
  0
ARC
  5
40E
330
1F
100
AcDbEntity
  8
0
  6
SLD-Сплошная
 62
     7
370
    25
100
AcDbCircle
 10
286.67749964
 20
0.3137577726
 30
0.0
 40
3.500000000000016
100
AcDbArc
 50
297.6604498993
 51
312.4098074908
  0
ARC
  5
40F
330
1F
100
AcDbEntity
  8
0
  6
SLD-Сплошная
 62
     7
370
    25
100
AcDbCircle
 10
286.67749964
 20
0.3137577726
 30
0.0
 40
3.500000000000127
100
AcDbArc
 50
117.6604498993
 51
132.4098074908
  0
LINE
  5
410
330
1F
100
AcDbEntity
  8
0
  6
SLD-Сплошная
 62
     7
370
    25
100
AcDbLine
 10
294.17749964
 20
8.9137577726
 30
0.0
 11
275.62749964
 21
8.9137577726
 31
0.0
  0
LINE
  5
411
330
1F
100
AcDbEntity
  8
0
  6
SLD-Сплошная
 62
     7
370
    25
100
AcDbLine
 10
294.17749964
 20
8.9137577726
 30
0.0
 11
294.17749964
 21
5.5137577726
 31
0.0
  0
LINE
  5
412
330
1F
100
AcDbEntity
  8
0
  6
SLD-Сплошная
 62
     7
370
    25
100
AcDbLine
 10
294.17749964
 20
-8.2862422274
 30
0.0
 11
275.62749964
 21
-8.2862422274
 31
0.0
  0
LINE
  5
413
330
1F
100
AcDbEntity
  8
0
  6
SLD-Сплошная
 62
     7
370
    25
100
AcDbLine
 10
294.17749964
 20
-4.8862422274
 30
0.0
 11
294.17749964
 21
-8.2862422274
 31
0.0
  0
LINE
  5
414
330
1F
100
AcDbEntity
  8
0
  6
SLD-Сплошная
 62
     7
370
    25
100
AcDbLine
 10
295.67749964
 20
-5.3862422274
 30
0.0
 11
294.17749964
 21
-5.3862422274
 31
0.0
  0
LINE
  5
415
330
1F
100
AcDbEntity
  8
0
  6
SLD-Сплошная
 62
     7
370
    25
100
AcDbLine
 10
295.67749964
 20
6.0137577726
 30
0.0
 11
294.17749964
 21
6.0137577726
 31
0.0
  0
LINE
  5
416
330
1F
100
AcDbEntity
  8
0
  6
SLD-Сплошная
 62
     7
370
    25
100
AcDbLine
 10
295.67749964
 20
6.0137577726
 30
0.0
 11
295.67749964
 21
-5.3862422274
 31
0.0
  0
LINE
  5
417
330
1F
100
AcDbEntity
  8
0
  6
SLD-Сплошная
 62
     7
370
    25
100
AcDbLine
 10
269.67749964
 20
29.9177577279
 30
0.0
 11
251.67749964
 21
29.9177577279
 31
0.0
  0
LINE
  5
418
330
1F
100
AcDbEntity
  8
0
  6
SLD-Сплошная
 62
     7
370
    25
100
AcDbLine
 10
269.67749964
 20
-29.2902421826
 30
0.0
 11
251.67749964
 21
-29.2902421826
 31
0.0
  0
LINE
  5
419
330
1F
100
AcDbEntity
  8
0
  6
SLD-Сплошная
 62
     7
370
    25
100
AcDbLine
 10
238.67749964
 20
56.8137577726
 30
0.0
 11
241.67749964
 21
56.8137577726
 31
0.0
  0
LINE
  5
41A
330
1F
100
AcDbEntity
  8
0
  6
SLD-Сплошная
 62
     7
370
    25
100
AcDbLine
 10
241.67749964
 20
53.8137577726
 30
0.0
 11
241.67749964
 21
56.8137577726
 31
0.0
  0
LINE
  5
41B
330
1F
100
AcDbEntity
  8
0
  6
SLD-Сплошная
 62
     7
370
    25
100
AcDbLine
 10
241.67749964
 20
-53.1862422274
 30
0.0
 11
241.67749964
 21
53.8137577726
 31
0.0
  0
LINE
  5
41C
330
1F
100
AcDbEntity
  8
0
  6
SLD-Сплошная
 62
     7
370
    25
100
AcDbLine
 10
238.67749964
 20
-56.1862422274
 30
0.0
 11
241.67749964
 21
-56.1862422274
 31
0.0
  0
LINE
  5
41D
330
1F
100
AcDbEntity
  8
0
  6
SLD-Сплошная
 62
     7
370
    25
100
AcDbLine
 10
241.67749964
 20
-56.1862422274
 30
0.0
 11
241.67749964
 21
-53.1862422274
 31
0.0
  0
ARC
  5
41E
330
1F
100
AcDbEntity
  8
0
  6
SLD-Сплошная
 62
     7
370
    25
100
AcDbCircle
 10
156.0774342546
 20
0.6601331058
 30
0.0
 40
3.899934615535273
100
AcDbArc
 50
180.0009606343
 51
270.0009606021
  0
LINE
  5
41F
330
1F
100
AcDbEntity
  8
0
  6
SLD-Сплошная
 62
     7
370
    25
100
AcDbLine
 10
152.1774996396
 20
0.6600677186
 30
0.0
 11
152.1774996396
 21
0.8600610124
 31
0.0
  0
ARC
  5
420
330
1F
100
AcDbEntity
  8
0
  6
SLD-Сплошная
 62
     7
370
    25
100
AcDbCircle
 10
156.0774342546
 20
0.8599956252
 30
0.0
 40
3.89993461553359
100
AcDbArc
 50
89.9990393979
 51
179.999039984
  0
SPLINE
  5
421
330
1F
100
AcDbEntity
  8
0
  6
SLD-Сплошная
 62
     7
370
    25
100
AcDbSpline
210
0.0
220
0.0
230
1.0
 70
     8
 71
     3
 72
    28
 73
    24
 74
     0
 42
0.00000001
 43
0.00000001
 40
0.0
 40
0.0
 40
0.0
 40
0.0
 40
0.0179580482542048
 40
0.0358203863762048
 40
0.0536296572831063
 40
0.0714288853017014
 40
0.0892611674448227
 40
0.1071693620805678
 40
0.1251957861249072
 40
0.1876249835958434
 40
0.2502765176823087
 40
0.3126266040740549
 40
0.3753469326260639
 40
0.5000176023200198
 40
0.6245402587432508
 40
0.6871525015601359
 40
0.7494052192771131
 40
0.8119995898936568
 40
0.8743867880692369
 40
0.9059555558278797
 40
0.9372590816936779
 40
0.9685295809063339
 40
1.0
 40
1.0
 40
1.0
 40
1.0
 10
171.1774996396078
 20
4.412747667892676
 30
0.0
 10
171.2340722200071
 20
4.397206017948783
 30
0.0
 10
171.3469158686885
 20
4.366205549633212
 30
0.0
 10
171.512750441241
 20
4.309495589426975
 30
0.0
 10
171.6752862900841
 20
4.245494729744051
 30
0.0
 10
171.8343294863549
 20
4.173466672036882
 30
0.0
 10
171.9899262716257
 20
4.093610840545962
 30
0.0
 10
172.1420686963597
 20
4.005859524540391
 30
0.0
 10
172.4122546790337
 20
3.832150139124661
 30
0.0
 10
172.7780715707514
 20
3.537517947710228
 30
0.0
 10
173.1838427806456
 20
3.075931300653393
 30
0.0
 10
173.5098466282586
 20
2.553633322562285
 30
0.0
 10
173.8224207826324
 20
1.796994854343767
 30
0.0
 10
173.9807799521075
 20
0.7728061801230114
 30
0.0
 10
173.8226387401134
 20
-0.2511896562136757
 30
0.0
 10
173.5108809062476
 20
-1.007238606254219
 30
0.0
 10
173.1857535409409
 20
-1.529357136729025
 30
0.0
 10
172.7808429033919
 20
-1.991241257106681
 30
0.0
 10
172.3810957133581
 20
-2.314151789588592
 30
0.0
 10
172.0331579207552
 20
-2.530095074703432
 30
0.0
 10
171.7584878370943
 20
-2.668998389971811
 30
0.0
 10
171.4735460477895
 20
-2.78525103231413
 30
0.0
 10
171.2763911827381
 20
-2.841685594855877
 30
0.0
 10
171.1774996395951
 20
-2.869992788669736
 30
0.0
  0
ARC
  5
422
330
1F
100
AcDbEntity
  8
0
  6
SLD-Сплошная
 62
     7
370
    25
100
AcDbCircle
 10
170.2774999635
 20
0.6603229685
 30
0.0
 40
3.900124477622249
100
AcDbArc
 50
269.9999952419
 51
283.3419252002
  0
ARC
  5
423
330
1F
100
AcDbEntity
  8
0
  6
SLD-Сплошная
 62
     7
370
    25
100
AcDbCircle
 10
170.2774999635
 20
0.8598057625
 30
0.0
 40
3.900124477622284
100
AcDbArc
 50
76.6580747998
 51
90.0000047581
  0
LINE
  5
424
330
1F
100
AcDbEntity
  8
0
  6
SLD-Сплошная
 62
     7
370
    25
100
AcDbLine
 10
170.2774996396
 20
-3.2383093876
 30
0.0
 11
170.2774996396
 21
-3.2399336855
 31
0.0
  0
LINE
  5
425
330
1F
100
AcDbEntity
  8
0
  6
SLD-Сплошная
 62
     7
370
    25
100
AcDbLine
 10
156.0774996396
 20
-3.2383093876
 30
0.0
 11
156.0774996396
 21
-3.2399336855
 31
0.0
  0
LINE
  5
426
330
1F
100
AcDbEntity
  8
0
  6
SLD-Сплошная
 62
     7
370
    25
100
AcDbLine
 10
197.67749964
 20
-9.6862422274
 30
0.0
 11
182.3072223281
 21
-9.6862422274
 31
0.0
  0
LINE
  5
427
330
1F
100
AcDbEntity
  8
0
  6
SLD-Сплошная
 62
     7
370
    25
100
AcDbLine
 10
182.3072223281
 20
10.3137577726
 30
0.0
 11
197.67749964
 21
10.3137577726
 31
0.0
  0
SPLINE
  5
428
330
1F
100
AcDbEntity
  8
0
  6
SLD-Сплошная
 62
     7
370
    25
100
AcDbSpline
210
0.0
220
0.0
230
1.0
 70
     8
 71
     3
 72
    14
 73
    10
 74
     0
 42
0.00000001
 43
0.00000001
 40
0.0
 40
0.0
 40
0.0
 40
0.0
 40
0.1588365912376148
 40
0.3177234034736435
 40
0.4766258843044685
 40
0.6355595461045268
 40
0.7943045164411556
 40
0.9529478349080147
 40
1.0
 40
1.0
 40
1.0
 40
1.0
 10
171.1774996396078
 20
-24.06130444072747
 30
0.0
 10
171.5628864504389
 20
-24.18978564008201
 30
0.0
 10
172.3337819238121
 20
-24.44678866201312
 30
0.0
 10
173.225273528098
 20
-25.2393850075972
 30
0.0
 10
173.7917036118002
 20
-26.21390941127924
 30
0.0
 10
173.9836357586815
 20
-27.29347854066725
 30
0.0
 10
173.7791547355565
 20
-28.33830935746819
 30
0.0
 10
173.3958195928599
 20
-29.10301520286955
 30
0.0
 10
173.0022858026
 20
-29.40162293806329
 30
0.0
 10
172.9122662428692
 20
-29.46992847502011
 30
0.0
  0
LINE
  5
429
330
1F
100
AcDbEntity
  8
0
  6
SLD-Сплошная
 62
     7
370
    25
100
AcDbLine
 10
171.1774996396
 20
-2.8699927887
 30
0.0
 11
171.1774996396
 21
-24.0613044407
 31
0.0
  0
LINE
  5
42A
330
1F
100
AcDbEntity
  8
0
  6
SLD-Сплошная
 62
     7
370
    25
100
AcDbLine
 10
171.1774996396
 20
26.0834878918
 30
0.0
 11
171.1774996396
 21
4.4127476679
 31
0.0
  0
LINE
  5
42B
330
1F
100
AcDbEntity
  8
0
  6
SLD-Сплошная
 62
     7
370
    25
100
AcDbLine
 10
171.1774996396
 20
26.0834878918
 30
0.0
 11
174.0160712333
 21
26.0834878918
 31
0.0
  0
SPLINE
  5
42C
330
1F
100
AcDbEntity
  8
0
  6
SLD-Сплошная
 62
     7
370
    25
100
AcDbSpline
210
0.0
220
0.0
230
1.0
 70
     8
 71
     3
 72
    14
 73
    10
 74
     0
 42
0.00000001
 43
0.00000001
 40
0.0
 40
0.0
 40
0.0
 40
0.0
 40
0.1426221706461815
 40
0.2847025815441221
 40
0.42661369920193
 40
0.5687293212605804
 40
0.7114216382392199
 40
0.8550583577666417
 40
1.0
 40
1.0
 40
1.0
 40
1.0
 10
175.1774996396078
 20
26.26733620403082
 30
0.0
 10
175.1243548307892
 20
26.2506206021496
 30
0.0
 10
175.0182670872231
 20
26.21725289370649
 30
0.0
 10
174.8559165549369
 20
26.17640658503469
 30
0.0
 10
174.69179914122
 20
26.14253199945371
 30
0.0
 10
174.5256491659771
 20
26.11622988372163
 30
0.0
 10
174.357542087726
 20
26.09751130765397
 30
0.0
 10
174.1874622665434
 20
26.08576363638877
 30
0.0
 10
174.0733735436965
 20
26.08424875668935
 30
0.0
 10
174.0160712333333
 20
26.08348789177182
 30
0.0
  0
LINE
  5
42D
330
1F
100
AcDbEntity
  8
0
  6
SLD-Сплошная
 62
     7
370
    25
100
AcDbLine
 10
175.1774996396
 20
26.267336204
 30
0.0
 11
175.1774996396
 21
-55.6862422262
 31
0.0
  0
SPLINE
  5
42E
330
1F
100
AcDbEntity
  8
0
  6
SLD-Сплошная
 62
     7
370
    25
100
AcDbSpline
210
0.0
220
0.0
230
1.0
 70
     8
 71
     3
 72
    12
 73
     8
 74
     0
 42
0.00000001
 43
0.00000001
 40
0.0
 40
0.0
 40
0.0
 40
0.0
 40
0.2491479565665453
 40
0.4983746888045671
 40
0.7476259984925689
 40
0.996926218036343
 40
1.0
 40
1.0
 40
1.0
 40
1.0
 10
171.1774996396078
 20
-55.53602541156082
 30
0.0
 10
171.5622770755479
 20
-55.54632430995279
 30
0.0
 10
172.331953606467
 20
-55.56692536304534
 30
0.0
 10
173.2325897958756
 20
-55.6204450599114
 30
0.0
 10
173.7642626021645
 20
-55.66297696504408
 30
0.0
 10
173.980190416153
 20
-55.68544097490599
 30
0.0
 10
173.9160170222104
 20
-55.68433998587528
 30
0.0
 10
173.9152354241865
 20
-55.68432657641073
 30
0.0
  0
LINE
  5
42F
330
1F
100
AcDbEntity
  8
0
  6
SLD-Сплошная
 62
     7
370
    25
100
AcDbLine
 10
171.1774996396
 20
-50.5546240038
 30
0.0
 11
171.1774996396
 21
-55.5360254116
 31
0.0
  0
SPLINE
  5
430
330
1F
100
AcDbEntity
  8
0
  6
SLD-Сплошная
 62
     7
370
    25
100
AcDbSpline
210
0.0
220
0.0
230
1.0
 70
     8
 71
     3
 72
    12
 73
     8
 74
     0
 42
0.00000001
 43
0.00000001
 40
0.0
 40
0.0
 40
0.0
 40
0.0
 40
0.2116276157258855
 40
0.4233221439312472
 40
0.6350375483549471
 40
0.8467944970734703
 40
1.0
 40
1.0
 40
1.0
 40
1.0
 10
171.1774996396078
 20
-46.00407831351612
 30
0.0
 10
171.562725732143
 20
-46.08421006488959
 30
0.0
 10
172.3332997181087
 20
-46.24449890371635
 30
0.0
 10
173.2272031417175
 20
-46.7328988142014
 30
0.0
 10
173.7844662405698
 20
-47.3204972130922
 30
0.0
 10
173.9898808409084
 20
-47.90275392977994
 30
0.0
 10
173.8430885771079
 20
-48.24422284375468
 30
0.0
 10
173.7814674911581
 20
-48.38756612869663
 30
0.0
  0
LINE
  5
431
330
1F
100
AcDbEntity
  8
0
  6
SLD-Сплошная
 62
     7
370
    25
100
AcDbLine
 10
171.1774996396
 20
-30.398163273
 30
0.0
 11
171.1774996396
 21
-46.0040783135
 31
0.0
  0
SPLINE
  5
432
330
1F
100
AcDbEntity
  8
0
  6
SLD-Сплошная
 62
     7
370
    25
100
AcDbSpline
210
0.0
220
0.0
230
1.0
 70
     8
 71
     3
 72
    23
 73
    19
 74
     0
 42
0.00000001
 43
0.00000001
 40
0.0
 40
0.0
 40
0.0
 40
0.0
 40
0.0312562128212304
 40
0.0624404244906804
 40
0.0936280050234507
 40
0.1248943000674846
 40
0.1874857987147361
 40
0.2501013057507954
 40
0.3123734218786825
 40
0.3746619795364153
 40
0.4997922163511728
 40
0.6242857511608174
 40
0.686825087921539
 40
0.7493705402813832
 40
0.811895739141883
 40
0.8744266369438031
 40
0.9372118833939616
 40
1.0
 40
1.0
 40
1.0
 40
1.0
 10
156.0774996396078
 20
-3.238309387560086
 30
0.0
 10
156.0137034338164
 20
-3.237414628004978
 30
0.0
 10
155.8862579818259
 20
-3.235627170043979
 30
0.0
 10
155.6956155901443
 20
-3.221098173019717
 30
0.0
 10
155.5058704098453
 20
-3.197878837144775
 30
0.0
 10
155.2543471318258
 20
-3.154275909025498
 30
0.0
 10
154.943994980777
 20
-3.076853723368563
 30
0.0
 10
154.5832437556177
 20
-2.947811370845001
 30
0.0
 10
154.237298094895
 20
-2.784587777349242
 30
0.0
 10
153.7995964965908
 20
-2.522715585768743
 30
0.0
 10
153.3038601821732
 20
-2.116917692837959
 30
0.0
 10
152.8968510687523
 20
-1.621565065627201
 30
0.0
 10
152.6341512546136
 20
-1.184571409385442
 30
0.0
 10
152.4700138849317
 20
-0.8380626900699475
 30
0.0
 10
152.3402336750093
 20
-0.477212728196831
 30
0.0
 10
152.2473111956167
 20
-0.1048129735116551
 30
0.0
 10
152.1883745407958
 20
0.275486489312132
 30
0.0
 10
152.1811246619059
 20
0.5318715493788841
 30
0.0
 10
152.1774996396078
 20
0.6600670094328863
 30
0.0
  0
SPLINE
  5
433
330
1F
100
AcDbEntity
  8
0
  6
SLD-Сплошная
 62
     7
370
    25
100
AcDbSpline
210
0.0
220
0.0
230
1.0
 70
     8
 71
     3
 72
    12
 73
     8
 74
     0
 42
0.00000001
 43
0.00000001
 40
0.0
 40
0.0
 40
0.0
 40
0.0
 40
0.1999735861201251
 40
0.3995260463911559
 40
0.5990920396762639
 40
0.79910613664144
 40
1.0
 40
1.0
 40
1.0
 40
1.0
 10
171.1774996396078
 20
-3.133190874624558
 30
0.0
 10
171.1184105286792
 20
-3.146354384869152
 30
0.0
 10
171.0003567430163
 20
-3.17265368422508
 30
0.0
 10
170.8212446417699
 20
-3.201645750321612
 30
0.0
 10
170.6410771746511
 20
-3.222685226932995
 30
0.0
 10
170.4596811470676
 20
-3.235783382669057
 30
0.0
 10
170.3383155850334
 20
-3.237466155018332
 30
0.0
 10
170.2774996396078
 20
-3.2383093875601
 30
0.0
  0
LINE
  5
434
330
1F
100
AcDbEntity
  8
0
  6
SLD-Сплошная
 62
     7
370
    25
100
AcDbLine
 10
149.1774996396
 20
-44.0741853849
 30
0.0
 11
149.1774996396
 21
24.0231504542
 31
0.0
  0
SPLINE
  5
435
330
1F
100
AcDbEntity
  8
0
  6
SLD-Сплошная
 62
     7
370
    25
100
AcDbSpline
210
0.0
220
0.0
230
1.0
 70
     8
 71
     3
 72
    15
 73
    11
 74
     0
 42
0.00000001
 43
0.00000001
 40
0.0
 40
0.0
 40
0.0
 40
0.0
 40
0.1300147555518768
 40
0.2575995300932983
 40
0.3832385488621718
 40
0.5074317813724614
 40
0.6306899317984567
 40
0.753528743218894
 40
0.876462916206427
 40
1.0
 40
1.0
 40
1.0
 40
1.0
 10
149.3440947329678
 20
24.2987935167704
 30
0.0
 10
149.329907852044
 20
24.27786760402167
 30
0.0
 10
149.3017992435712
 20
24.23640688467509
 30
0.0
 10
149.2670935945286
 20
24.18267141692032
 30
0.0
 10
149.2381657629082
 20
24.13618118338771
 30
0.0
 10
149.2152436121321
 20
24.09755779502597
 30
0.0
 10
149.1978924916374
 20
24.06669309887362
 30
0.0
 10
149.1859670544559
 20
24.04388175909581
 30
0.0
 10
149.1787681400008
 20
24.02844731396803
 30
0.0
 10
149.1779231620589
 20
24.02491895114783
 30
0.0
 10
149.1774996396078
 20
24.02315045424857
 30
0.0
  0
SPLINE
  5
436
330
1F
100
AcDbEntity
  8
0
  6
SLD-Сплошная
 62
     7
370
    25
100
AcDbSpline
210
0.0
220
0.0
230
1.0
 70
     8
 71
     3
 72
    24
 73
    20
 74
     0
 42
0.00000001
 43
0.00000001
 40
0.0
 40
0.0
 40
0.0
 40
0.0
 40
0.0445323584244688
 40
0.0892520453803546
 40
0.1341594792105243
 40
0.1792550713147513
 40
0.2245392253974368
 40
0.2700123367374174
 40
0.315674791487762
 40
0.3615269660132838
 40
0.407569226273407
 40
0.4538019272577524
 40
0.5002254124814994
 40
0.5767051662056333
 40
0.6559103322739064
 40
0.7378418157134105
 40
0.8225002998516007
 40
0.9098862636911564
 40
1.0
 40
1.0
 40
1.0
 40
1.0
 10
152.1774996396079
 20
25.32175110472597
 30
0.0
 10
152.1224350960699
 20
25.32130529838355
 30
0.0
 10
152.0120743760774
 20
25.32041181038265
 30
0.0
 10
151.8466906117444
 20
25.31317422242856
 30
0.0
 10
151.6816323617467
 20
25.30158079506557
 30
0.0
 10
151.517424306863
 20
25.28518738558439
 30
0.0
 10
151.3545991870527
 20
25.26410397384987
 30
0.0
 10
151.1936960586574
 20
25.23830959139076
 30
0.0
 10
151.0352586488877
 20
25.20783758093515
 30
0.0
 10
150.8798330644053
 20
25.1727257969554
 30
0.0
 10
150.7279675240453
 20
25.13303135092519
 30
0.0
 10
150.5802041493791
 20
25.0888232655719
 30
0.0
 10
150.4064131316517
 20
25.02977126116121
 30
0.0
 10
150.2096841755247
 20
24.95128878275421
 30
0.0
 10
149.9969898557921
 20
24.84815072433236
 30
0.0
 10
149.7987782499765
 20
24.73094173470984
 30
0.0
 10
149.620178983844
 20
24.59973308029444
 30
0.0
 10
149.4627381932974
 20
24.45556994864491
 30
0.0
 10
149.3840456623399
 20
24.35158499924755
 30
0.0
 10
149.3440947329678
 20
24.2987935167704
 30
0.0
  0
LINE
  5
437
330
1F
100
AcDbEntity
  8
0
  6
SLD-Сплошная
 62
     7
370
    25
100
AcDbLine
 10
152.1774996396
 20
-46.6598908116
 30
0.0
 11
152.1774996396
 21
-46.6091042381
 31
0.0
  0
LINE
  5
438
330
1F
100
AcDbEntity
  8
0
  6
SLD-Сплошная
 62
     7
370
    25
100
AcDbLine
 10
156.0774996396
 20
-22.9984452297
 30
0.0
 11
170.2774996396
 21
-22.9984452297
 31
0.0
  0
SPLINE
  5
439
330
1F
100
AcDbEntity
  8
0
  6
SLD-Сплошная
 62
     7
370
    25
100
AcDbSpline
210
0.0
220
0.0
230
1.0
 70
     8
 71
     3
 72
    23
 73
    19
 74
     0
 42
0.00000001
 43
0.00000001
 40
0.0
 40
0.0
 40
0.0
 40
0.0
 40
0.0314940789319932
 40
0.0629124883371353
 40
0.0943322187629069
 40
0.1258302510699524
 40
0.1880679950139472
 40
0.2503161959786579
 40
0.3129100356600542
 40
0.3755139048867117
 40
0.5000365867416225
 40
0.6248118765560489
 40
0.6873437621446433
 40
0.7498835559995816
 40
0.8121472634536021
 40
0.8744272386433853
 40
0.9372084381131776
 40
0.9999999999999999
 40
0.9999999999999999
 40
0.9999999999999999
 40
0.9999999999999999
 10
152.1774996396078
 20
-26.46176137611411
 30
0.0
 10
152.1784090382621
 20
-26.40573989094709
 30
0.0
 10
152.1802256505962
 20
-26.29383152112905
 30
0.0
 10
152.1949938635057
 20
-26.12602171870016
 30
0.0
 10
152.2185951109738
 20
-25.95872168791476
 30
0.0
 10
152.2626287163222
 20
-25.73798905544023
 30
0.0
 10
152.3402820336522
 20
-25.46597336036537
 30
0.0
 10
152.4694316077406
 20
-25.1482861777592
 30
0.0
 10
152.6332875418003
 20
-24.84148667873174
 30
0.0
 10
152.8959392846106
 20
-24.45269342745562
 30
0.0
 10
153.3024460732342
 20
-24.01038451923474
 30
0.0
 10
153.7977781465881
 20
-23.64570385301352
 30
0.0
 10
154.2355817393776
 20
-23.40933311218438
 30
0.0
 10
154.581773394791
 20
-23.26182123562323
 30
0.0
 10
154.9417288028707
 20
-23.14518531253414
 30
0.0
 10
155.3131240607362
 20
-23.06150977109216
 30
0.0
 10
155.692910102585
 20
-23.00827962122148
 30
0.0
 10
155.9492960748394
 20
-23.00172354057265
 30
0.0
 10
156.0774996396078
 20
-22.99844522974036
 30
0.0
  0
SPLINE
  5
43A
330
1F
100
AcDbEntity
  8
0
  6
SLD-Сплошная
 62
     7
370
    25
100
AcDbSpline
210
0.0
220
0.0
230
1.0
 70
     8
 71
     3
 72
    12
 73
     8
 74
     0
 42
0.00000001
 43
0.00000001
 40
0.0
 40
0.0
 40
0.0
 40
0.0
 40
0.200885328532462
 40
0.4008950975891911
 40
0.6004610441398452
 40
0.8000177857575884
 40
1.0
 40
1.0
 40
1.0
 40
1.0
 10
170.2774996396078
 20
-22.99844522974037
 30
0.0
 10
170.3383130270219
 20
-22.99920846965478
 30
0.0
 10
170.4596747464675
 20
-23.00073162289951
 30
0.0
 10
170.6410669726922
 20
-23.01259495416087
 30
0.0
 10
170.8212344513773
 20
-23.03164833424488
 30
0.0
 10
171.0003503745625
 20
-23.05789950775142
 30
0.0
 10
171.1184079777252
 20
-23.08170112369994
 30
0.0
 10
171.1774996396078
 20
-23.09361460495158
 30
0.0
  0
SPLINE
  5
43B
330
1F
100
AcDbEntity
  8
0
  6
SLD-Сплошная
 62
     7
370
    25
100
AcDbSpline
210
0.0
220
0.0
230
1.0
 70
     8
 71
     3
 72
    23
 73
    19
 74
     0
 42
0.00000001
 43
0.00000001
 40
0.0
 40
0.0
 40
0.0
 40
0.0
 40
0.031494078909499
 40
0.0629124883071648
 40
0.094332218740393
 40
0.1258302510696293
 40
0.1880679949059751
 40
0.2503161959779168
 40
0.3129100355663046
 40
0.3755139048866193
 40
0.5000365867415648
 40
0.6248118765560428
 40
0.6873437621571923
 40
0.7498835559994975
 40
0.8121472634390996
 40
0.8744272386432016
 40
0.9372084380987282
 40
0.9999999999999999
 40
0.9999999999999999
 40
0.9999999999999999
 40
0.9999999999999999
 10
152.1774996396078
 20
0.8600602189991822
 30
0.0
 10
152.1784090382627
 20
0.924338304971931
 30
0.0
 10
152.1802256505983
 20
1.052740038637106
 30
0.0
 10
152.1949938635093
 20
1.24478823784336
 30
0.0
 10
152.2185951109844
 20
1.435896207661979
 30
0.0
 10
152.2626287162525
 20
1.687528262001322
 30
0.0
 10
152.3402820336374
 20
1.996708242057052
 30
0.0
 10
152.4694316075835
 20
2.356424082405841
 30
0.0
 10
152.6332875416576
 20
2.702536026400974
 30
0.0
 10
152.895939284518
 20
3.139612745938532
 30
0.0
 10
153.3024460732252
 20
3.634311631204047
 30
0.0
 10
153.7977781466053
 20
4.03989563647534
 30
0.0
 10
154.2355817394066
 20
4.301976003365434
 30
0.0
 10
154.581773394786
 20
4.465229932407736
 30
0.0
 10
154.9417288028471
 20
4.594119273814607
 30
0.0
 10
155.3131240606784
 20
4.686481474706898
 30
0.0
 10
155.6929101025545
 20
4.745191286686934
 30
0.0
 10
155.9492960748097
 20
4.752419547182922
 30
0.0
 10
156.0774996396078
 20
4.756033975674167
 30
0.0
  0
LINE
  5
43C
330
1F
100
AcDbEntity
  8
0
  6
SLD-Сплошная
 62
     7
370
    25
100
AcDbLine
 10
171.1774996396
 20
25.3217511047
 30
0.0
 11
152.1774996396
 21
25.3217511047
 31
0.0
  0
SPLINE
  5
43D
330
1F
100
AcDbEntity
  8
0
  6
SLD-Сплошная
 62
     7
370
    25
100
AcDbSpline
210
0.0
220
0.0
230
1.0
 70
     8
 71
     3
 72
    14
 73
    10
 74
     0
 42
0.00000001
 43
0.00000001
 40
0.0
 40
0.0
 40
0.0
 40
0.0
 40
0.25
 40
0.25
 40
0.5
 40
0.5
 40
0.75
 40
0.75
 40
1.0
 40
1.0
 40
1.0
 40
1.0
 10
178.6352168651368
 20
26.68166885822523
 30
0.0
 10
178.6352168651368
 20
26.37694055132793
 30
0.0
 10
178.5666452758583
 20
26.04817682278471
 30
0.0
 10
178.2554820781524
 20
25.4115919175444
 30
0.0
 10
178.0118359587963
 20
25.10574421195311
 30
0.0
 10
177.3884550524559
 20
24.60085382172969
 30
0.0
 10
177.0108292873284
 20
24.40351928192122
 30
0.0
 10
176.2248470565798
 20
24.15150112301543
 30
0.0
 10
175.8189272073618
 20
24.09596343150629
 30
0.0
 10
175.442683547709
 20
24.09596343150628
 30
0.0
  0
SPLINE
  5
43E
330
1F
100
AcDbEntity
  8
0
  6
SLD-Сплошная
 62
     7
370
    25
100
AcDbSpline
210
0.0
220
0.0
230
1.0
 70
     8
 71
     3
 72
     9
 73
     5
 74
     0
 42
0.00000001
 43
0.00000001
 40
0.0
 40
0.0
 40
0.0
 40
0.0
 40
0.3773383233418578
 40
1.0
 40
1.0
 40
1.0
 40
1.0
 10
178.1589911749338
 20
27.9615173200562
 30
0.0
 10
178.2730697999714
 20
27.8178441624364
 30
0.0
 10
178.5753943134936
 20
27.43708994604151
 30
0.0
 10
178.6122612417657
 20
26.97154552684252
 30
0.0
 10
178.6352168651368
 20
26.68166885822523
 30
0.0
  0
LINE
  5
43F
330
1F
100
AcDbEntity
  8
0
  6
SLD-Сплошная
 62
     7
370
    25
100
AcDbLine
 10
175.1774996396
 20
-9.6862422274
 30
0.0
 11
182.3072223281
 21
-9.6862422274
 31
0.0
  0
LINE
  5
440
330
1F
100
AcDbEntity
  8
0
  6
SLD-Сплошная
 62
     7
370
    25
100
AcDbLine
 10
175.1774996396
 20
10.3137577726
 30
0.0
 11
182.3072223281
 21
10.3137577726
 31
0.0
  0
LINE
  5
441
330
1F
100
AcDbEntity
  8
0
  6
SLD-Сплошная
 62
     7
370
    25
100
AcDbLine
 10
152.1774996396
 20
-26.6488156509
 30
0.0
 11
152.1774996396
 21
-26.4618065589
 31
0.0
  0
LINE
  5
442
330
1F
100
AcDbEntity
  8
0
  6
SLD-Сплошная
 62
     7
370
    25
100
AcDbLine
 10
156.0774996396
 20
-44.5064384666
 30
0.0
 11
170.2774996396
 21
-44.5064384666
 31
0.0
  0
SPLINE
  5
443
330
1F
100
AcDbEntity
  8
0
  6
SLD-Сплошная
 62
     7
370
    25
100
AcDbSpline
210
0.0
220
0.0
230
1.0
 70
     8
 71
     3
 72
    23
 73
    19
 74
     0
 42
0.00000001
 43
0.00000001
 40
0.0
 40
0.0
 40
0.0
 40
0.0
 40
0.0314940789428687
 40
0.0629124883516286
 40
0.0943322187738134
 40
0.1258302510701698
 40
0.1880679949924023
 40
0.2503161959784422
 40
0.3129100356083229
 40
0.375513904886732
 40
0.5000365867416813
 40
0.6248118765561584
 40
0.6873437621516786
 40
0.7498835559993347
 40
0.8121472634223932
 40
0.8744272386432154
 40
0.937208438100222
 40
1.0
 40
1.0
 40
1.0
 40
1.0
 10
152.1774996396078
 20
-46.60910423809338
 30
0.0
 10
152.178409038262
 20
-46.576350265476
 30
0.0
 10
152.1802256505953
 20
-46.51092101687033
 30
0.0
 10
152.1949938635034
 20
-46.41231411229598
 30
0.0
 10
152.2185951109704
 20
-46.31364992865355
 30
0.0
 10
152.2626287163208
 20
-46.18296184884393
 30
0.0
 10
152.3402820336868
 20
-46.02099682456159
 30
0.0
 10
152.4694316076783
 20
-45.83046232391941
 30
0.0
 10
152.6332875417355
 20
-45.64518194759749
 30
0.0
 10
152.8959392845511
 20
-45.40884900231017
 30
0.0
 10
153.3024460732356
 20
-45.13744638568459
 30
0.0
 10
153.7977781465868
 20
-44.91138494848305
 30
0.0
 10
154.2355817394111
 20
-44.76405918289167
 30
0.0
 10
154.581773394743
 20
-44.67181504699715
 30
0.0
 10
154.9417288028094
 20
-44.59868504365299
 30
0.0
 10
155.3131240606486
 20
-44.54611695540784
 30
0.0
 10
155.6929101025573
 20
-44.51262944327949
 30
0.0
 10
155.9492960748127
 20
-44.50850223900432
 30
0.0
 10
156.0774996396078
 20
-44.50643846657536
 30
0.0
  0
SPLINE
  5
444
330
1F
100
AcDbEntity
  8
0
  6
SLD-Сплошная
 62
     7
370
    25
100
AcDbSpline
210
0.0
220
0.0
230
1.0
 70
     8
 71
     3
 72
    12
 73
     8
 74
     0
 42
0.00000001
 43
0.00000001
 40
0.0
 40
0.0
 40
0.0
 40
0.0
 40
0.2008853285324618
 40
0.4008950975891897
 40
0.6004610441398431
 40
0.8000177857575903
 40
1.0
 40
1.0
 40
1.0
 40
1.0
 10
170.2774996396078
 20
-44.50643846657537
 30
0.0
 10
170.3383130270219
 20
-44.50691887003157
 30
0.0
 10
170.4596747464675
 20
-44.50787758310365
 30
0.0
 10
170.6410669726922
 20
-44.51534380654414
 30
0.0
 10
170.8212344513773
 20
-44.52733086108685
 30
0.0
 10
171.0003503745625
 20
-44.54384064467388
 30
0.0
 10
171.1184079777252
 20
-44.55879691921476
 30
0.0
 10
171.1774996396078
 20
-44.56628302002078
 30
0.0
  0
LINE
  5
445
330
1F
100
AcDbEntity
  8
0
  6
SLD-Сплошная
 62
     7
370
    25
100
AcDbLine
 10
175.4426835477
 20
24.0959634315
 30
0.0
 11
175.1774996396
 21
24.0959634315
 31
0.0
  0
LINE
  5
446
330
1F
100
AcDbEntity
  8
0
  6
SLD-Сплошная
 62
     7
370
    25
100
AcDbLine
 10
175.1774996396
 20
56.3137577738
 30
0.0
 11
175.1774996396
 21
32.1643363108
 31
0.0
  0
LINE
  5
447
330
1F
100
AcDbEntity
  8
0
  6
SLD-Сплошная
 62
     7
370
    25
100
AcDbLine
 10
171.1774996396
 20
47.1408643
 30
0.0
 11
171.1774996396
 21
32.9776577438
 31
0.0
  0
SPLINE
  5
448
330
1F
100
AcDbEntity
  8
0
  6
SLD-Сплошная
 62
     7
370
    25
100
AcDbSpline
210
0.0
220
0.0
230
1.0
 70
     8
 71
     3
 72
    12
 73
     8
 74
     0
 42
0.00000001
 43
0.00000001
 40
0.0
 40
0.0
 40
0.0
 40
0.0
 40
0.1493537344734699
 40
0.3618267070321002
 40
0.5741636231544893
 40
0.7866592915812104
 40
1.0
 40
1.0
 40
1.0
 40
1.0
 10
173.78535927274
 20
49.44863567748407
 30
0.0
 10
173.8449596563802
 20
49.31354051998096
 30
0.0
 10
173.9893484835253
 20
48.98625686585841
 30
0.0
 10
173.7844167637561
 20
48.42471301135895
 30
0.0
 10
173.2289920836759
 20
47.85303568536052
 30
0.0
 10
172.3356142139014
 20
47.37616132251913
 30
0.0
 10
171.564048202449
 20
47.2194003342489
 30
0.0
 10
171.1774996396079
 20
47.14086429996798
 30
0.0
  0
LINE
  5
449
330
1F
100
AcDbEntity
  8
0
  6
SLD-Сплошная
 62
     7
370
    25
100
AcDbLine
 10
171.1774996396
 20
56.2231821346
 30
0.0
 11
171.1774996396
 21
51.6284461431
 31
0.0
  0
SPLINE
  5
44A
330
1F
100
AcDbEntity
  8
0
  6
SLD-Сплошная
 62
     7
370
    25
100
AcDbSpline
210
0.0
220
0.0
230
1.0
 70
     8
 71
     3
 72
    11
 73
     7
 74
     0
 42
0.00000001
 43
0.00000001
 40
0.0
 40
0.0
 40
0.0
 40
0.0
 40
0.171048147089395
 40
0.4468620709883119
 40
0.7228822053606092
 40
1.0
 40
1.0
 40
1.0
 40
1.0
 10
173.8461178838001
 20
56.31069803613159
 30
0.0
 10
173.8201628643479
 20
56.31087348753559
 30
0.0
 10
173.7523555601336
 20
56.31133185308403
 30
0.0
 10
173.2168038629529
 20
56.28498231155873
 30
0.0
 10
172.3386763628171
 20
56.24745703558273
 30
0.0
 10
171.5650702682177
 20
56.23128446598435
 30
0.0
 10
171.1774996396079
 20
56.22318213456629
 30
0.0
  0
LINE
  5
44B
330
1F
100
AcDbEntity
  8
0
  6
SLD-Сплошная
 62
     7
370
    25
100
AcDbLine
 10
149.1774996396
 20
31.9914614099
 30
0.0
 11
149.1774996396
 21
51.8137577738
 31
0.0
  0
SPLINE
  5
44C
330
1F
100
AcDbEntity
  8
0
  6
SLD-Сплошная
 62
     7
370
    25
100
AcDbSpline
210
0.0
220
0.0
230
1.0
 70
     8
 71
     3
 72
    23
 73
    19
 74
     0
 42
0.00000001
 43
0.00000001
 40
0.0
 40
0.0
 40
0.0
 40
0.0
 40
0.0312562128298801
 40
0.0624404245022168
 40
0.0936280050321452
 40
0.1248943000676836
 40
0.187485798712909
 40
0.2501013057508223
 40
0.3123734218780301
 40
0.374661979536753
 40
0.4997922163516007
 40
0.6242857511612734
 40
0.6868250880459716
 40
0.7493705402818237
 40
0.8118957392471682
 40
0.8744266369442227
 40
0.937211883441946
 40
0.9999999999999999
 40
0.9999999999999999
 40
0.9999999999999999
 40
0.9999999999999999
 10
156.0774996396079
 20
45.63575614944927
 30
0.0
 10
156.0137034337989
 20
45.63625417467512
 30
0.0
 10
155.8862579817849
 20
45.63724907788634
 30
0.0
 10
155.6956155900855
 20
45.6453338394293
 30
0.0
 10
155.5058704098036
 20
45.65824733040798
 30
0.0
 10
155.2543471318133
 20
45.68247755337644
 30
0.0
 10
154.9439949807875
 20
45.7254405102648
 30
0.0
 10
154.5832437556235
 20
45.79681891159699
 30
0.0
 10
154.2372980948848
 20
45.88672154129029
 30
0.0
 10
153.7995964965993
 20
46.03020611990529
 30
0.0
 10
153.3038601821727
 20
46.25062297292335
 30
0.0
 10
152.8968510685859
 20
46.51534973970503
 30
0.0
 10
152.6341512545027
 20
46.74544049831884
 30
0.0
 10
152.4700138847489
 20
46.92602067591184
 30
0.0
 10
152.3402336749595
 20
47.11205009611249
 30
0.0
 10
152.2473111955457
 20
47.30181313677663
 30
0.0
 10
152.1883745408328
 20
47.49348942273386
 30
0.0
 10
152.1811246619164
 20
47.62072485239078
 30
0.0
 10
152.1774996396079
 20
47.68434402124318
 30
0.0
  0
LINE
  5
44D
330
1F
100
AcDbEntity
  8
0
  6
SLD-Сплошная
 62
     7
370
    25
100
AcDbLine
 10
170.2774996396
 20
45.6357561494
 30
0.0
 11
156.0774996396
 21
45.6357561494
 31
0.0
  0
SPLINE
  5
44E
330
1F
100
AcDbEntity
  8
0
  6
SLD-Сплошная
 62
     7
370
    25
100
AcDbSpline
210
0.0
220
0.0
230
1.0
 70
     8
 71
     3
 72
    12
 73
     8
 74
     0
 42
0.00000001
 43
0.00000001
 40
0.0
 40
0.0
 40
0.0
 40
0.0
 40
0.1999735861217729
 40
0.3995260463936198
 40
0.5990920396787018
 40
0.7991061366430622
 40
1.0
 40
1.0
 40
1.0
 40
1.0
 10
171.1774996396079
 20
45.6941729785837
 30
0.0
 10
171.1184105286788
 20
45.68686610008743
 30
0.0
 10
171.0003567430152
 20
45.67226773070421
 30
0.0
 10
170.8212446417679
 20
45.65615227006108
 30
0.0
 10
170.6410771746493
 20
45.6444509208145
 30
0.0
 10
170.4596811470664
 20
45.63716208046261
 30
0.0
 10
170.338315585033
 20
45.63622547822455
 30
0.0
 10
170.2774996396079
 20
45.63575614944926
 30
0.0
  0
LINE
  5
44F
330
1F
100
AcDbEntity
  8
0
  6
SLD-Сплошная
 62
     7
370
    25
100
AcDbLine
 10
152.1774996396
 20
-46.7598908116
 30
0.0
 11
152.1774996396
 21
-46.6091832903
 31
0.0
  0
LINE
  5
450
330
1F
100
AcDbEntity
  8
0
  6
SLD-Сплошная
 62
     7
370
    25
100
AcDbLine
 10
152.1774996396
 20
47.6844238254
 30
0.0
 11
152.1774996396
 21
47.8337129509
 31
0.0
  0
LINE
  5
451
330
1F
100
AcDbEntity
  8
0
  6
SLD-Сплошная
 62
     7
370
    25
100
AcDbLine
 10
149.1774996396
 20
-51.1862422262
 30
0.0
 11
149.1774996396
 21
-44.0741853849
 31
0.0
  0
LINE
  5
452
330
1F
100
AcDbEntity
  8
0
  6
SLD-Сплошная
 62
     7
370
    25
100
AcDbLine
 10
156.0774996396
 20
-54.0048963162
 30
0.0
 11
170.2774996396
 21
-54.0048963162
 31
0.0
  0
SPLINE
  5
453
330
1F
100
AcDbEntity
  8
0
  6
SLD-Сплошная
 62
     7
370
    25
100
AcDbSpline
210
0.0
220
0.0
230
1.0
 70
     8
 71
     3
 72
    23
 73
    19
 74
     0
 42
0.00000001
 43
0.00000001
 40
0.0
 40
0.0
 40
0.0
 40
0.0
 40
0.0314940789820349
 40
0.0629124884037967
 40
0.094332218812989
 40
0.1258302510706908
 40
0.1880679950597233
 40
0.2503161959784925
 40
0.3129100356800675
 40
0.375513904887072
 40
0.5000365867419033
 40
0.6248118765562615
 40
0.6873437621448193
 40
0.7498835559997246
 40
0.8121472634407572
 40
0.8744272386433314
 40
0.9372084381002801
 40
1.0
 40
1.0
 40
1.0
 40
1.0
 10
152.1774996396078
 20
-54.18350411743827
 30
0.0
 10
152.178409038261
 20
-54.18279405790069
 30
0.0
 10
152.1802256505918
 20
-54.18137564485706
 30
0.0
 10
152.1949938634963
 20
-54.17839327860351
 30
0.0
 10
152.2185951109548
 20
-54.17480193041444
 30
0.0
 10
152.2626287163856
 20
-54.16917616864887
 30
0.0
 10
152.3402820337529
 20
-54.16066021258796
 30
0.0
 10
152.469431607789
 20
-54.1483319594111
 30
0.0
 10
152.6332875417696
 20
-54.13421643305114
 30
0.0
 10
152.8959392846644
 20
-54.11366901558706
 30
0.0
 10
153.3024460732244
 20
-54.08589480258184
 30
0.0
 10
153.7977781465891
 20
-54.05902557397377
 30
0.0
 10
154.2355817393776
 20
-54.04022060347428
 30
0.0
 10
154.581773394766
 20
-54.02796094998461
 30
0.0
 10
154.9417288028491
 20
-54.01793199172219
 30
0.0
 10
155.3131240606845
 20
-54.01055693346157
 30
0.0
 10
155.6929101025576
 20
-54.00578501093471
 30
0.0
 10
155.9492960748128
 20
-54.00519256407927
 30
0.0
 10
156.0774996396078
 20
-54.00489631620677
 30
0.0
  0
SPLINE
  5
454
330
1F
100
AcDbEntity
  8
0
  6
SLD-Сплошная
 62
     7
370
    25
100
AcDbSpline
210
0.0
220
0.0
230
1.0
 70
     8
 71
     3
 72
    12
 73
     8
 74
     0
 42
0.00000001
 43
0.00000001
 40
0.0
 40
0.0
 40
0.0
 40
0.0
 40
0.200885328532477
 40
0.4008950975892019
 40
0.6004610441398767
 40
0.8000177857576185
 40
1.0
 40
1.0
 40
1.0
 40
1.0
 10
170.2774996396078
 20
-54.00489631620679
 30
0.0
 10
170.3383130270219
 20
-54.00496515948664
 30
0.0
 10
170.4596747464675
 20
-54.00510254599264
 30
0.0
 10
170.6410669726922
 20
-54.00617109307085
 30
0.0
 10
170.8212344513774
 20
-54.00787990048793
 30
0.0
 10
171.0003503745626
 20
-54.01022451097609
 30
0.0
 10
171.1184079777252
 20
-54.0123279224243
 30
0.0
 10
171.1774996396078
 20
-54.01338074811929
 30
0.0
  0
SPLINE
  5
455
330
1F
100
AcDbEntity
  8
0
  6
SLD-Сплошная
 62
     7
370
    25
100
AcDbSpline
210
0.0
220
0.0
230
1.0
 70
     8
 71
     3
 72
    11
 73
     7
 74
     0
 42
0.00000001
 43
0.00000001
 40
0.0
 40
0.0
 40
0.0
 40
0.0
 40
0.2653934854498191
 40
0.5305573096678595
 40
0.7955985548430369
 40
1.0
 40
1.0
 40
1.0
 40
1.0
 10
156.0774996396079
 20
54.69788063036147
 30
0.0
 10
155.5660354085346
 20
54.70193689060754
 30
0.0
 10
154.5435495477019
 20
54.71004590096934
 30
0.0
 10
153.2611552403592
 20
54.76047521261962
 30
0.0
 10
152.4083285503626
 20
54.80636529302295
 30
0.0
 10
152.2956191235351
 20
54.80897121690684
 30
0.0
 10
152.2465439750648
 20
54.81010587001531
 30
0.0
  0
LINE
  5
456
330
1F
100
AcDbEntity
  8
0
  6
SLD-Сплошная
 62
     7
370
    25
100
AcDbLine
 10
170.2774996396
 20
54.6978806304
 30
0.0
 11
156.0774996396
 21
54.6978806304
 31
0.0
  0
SPLINE
  5
457
330
1F
100
AcDbEntity
  8
0
  6
SLD-Сплошная
 62
     7
370
    25
100
AcDbSpline
210
0.0
220
0.0
230
1.0
 70
     8
 71
     3
 72
    12
 73
     8
 74
     0
 42
0.00000001
 43
0.00000001
 40
0.0
 40
0.0
 40
0.0
 40
0.0
 40
0.1999735861217738
 40
0.3995260463936194
 40
0.5990920396787018
 40
0.7991061366430611
 40
0.9999999999999999
 40
0.9999999999999999
 40
0.9999999999999999
 40
0.9999999999999999
 10
171.1774996396079
 20
54.70464437267332
 30
0.0
 10
171.1184105286789
 20
54.70380707232309
 30
0.0
 10
171.0003567430152
 20
54.7021342348996
 30
0.0
 10
170.821244641768
 20
54.70026428098399
 30
0.0
 10
170.6410771746493
 20
54.69889987419442
 30
0.0
 10
170.4596811470665
 20
54.6980456700559
 30
0.0
 10
170.338315585033
 20
54.69793572401608
 30
0.0
 10
170.2774996396079
 20
54.69788063036145
 30
0.0
  0
LINE
  5
458
330
1F
100
AcDbEntity
  8
0
  6
SLD-Сплошная
 62
     7
370
    25
100
AcDbLine
 10
170.2774996396
 20
-58.184280643
 30
0.0
 11
156.0774996396
 21
-58.184280643
 31
0.0
  0
LINE
  5
459
330
1F
100
AcDbEntity
  8
0
  6
SLD-Сплошная
 62
     7
370
    25
100
AcDbLine
 10
152.1774996396
 20
-54.2844147683
 30
0.0
 11
152.1774996396
 21
-54.1835958571
 31
0.0
  0
LINE
  5
45A
330
1F
100
AcDbEntity
  8
0
  6
SLD-Сплошная
 62
     7
370
    25
100
AcDbLine
 10
170.2774996396
 20
58.8117961905
 30
0.0
 11
156.0774996396
 21
58.8117961905
 31
0.0
  0
LINE
  5
45B
330
1F
100
AcDbEntity
  8
0
  6
SLD-Сплошная
 62
     7
370
    25
100
AcDbLine
 10
152.1774996396
 20
54.812749227
 30
0.0
 11
152.1774996396
 21
54.9119303158
 31
0.0
  0
ENDSEC
  0
SECTION
  2
OBJECTS
  0
DICTIONARY
  5
C
330
0
100
AcDbDictionary
281
     1
  3
ACAD_GROUP
350
D
  3
ACAD_LAYOUT
350
1A
  3
ACAD_MLINESTYLE
350
17
  3
ACAD_PLOTSETTINGS
350
19
  3
ACAD_PLOTSTYLENAME
350
E
  3
ACAD_SCALELIST
350
47
  3
DWGPROPS
350
45C
  0
DICTIONARY
  5
D
102
{ACAD_REACTORS
330
C
102
}
330
C
100
AcDbDictionary
281
     1
  0
DICTIONARY
  5
1A
102
{ACAD_REACTORS
330
C
102
}
330
C
100
AcDbDictionary
281
     1
  3
Layout1
350
1E
  3
Layout2
350
26
  3
Model
350
22
  0
DICTIONARY
  5
17
102
{ACAD_REACTORS
330
C
102
}
330
C
100
AcDbDictionary
281
     1
  3
Standard
350
18
  0
DICTIONARY
  5
19
102
{ACAD_REACTORS
330
C
102
}
330
C
100
AcDbDictionary
281
     1
  0
ACDBDICTIONARYWDFLT
  5
E
102
{ACAD_REACTORS
330
C
102
}
330
C
100
AcDbDictionary
281
     1
  3
Normal
350
F
100
AcDbDictionaryWithDefault
340
F
  0
DICTIONARY
  5
47
102
{ACAD_REACTORS
330
C
102
}
330
C
100
AcDbDictionary
281
     1
  3
A0
350
48
  3
A1
350
49
  3
A2
350
4A
  3
A3
350
4B
  3
A4
350
4C
  3
A5
350
4D
  3
A6
350
4E
  3
A7
350
4F
  3
A8
350
50
  3
A9
350
51
  3
B0
350
52
  3
B1
350
53
  3
B2
350
54
  3
B3
350
55
  3
B4
350
56
  3
B5
350
57
  3
B6
350
58
  0
XRECORD
  5
45C
102
{ACAD_REACTORS
330
C
102
}
330
C
100
AcDbXrecord
280
     1
  1
DWGPROPS COOKIE
  2

  3

  4

  6

  7

  8
inyankin
  9

300
=
301
=
302
=
303
=
304
=
305
=
306
=
307
=
308
=
309
=
 40
0.0
 41
2460927.642593484
 42
2460927.642594294
  1

 90
        0
  0
LAYOUT
  5
1E
102
{ACAD_REACTORS
330
1A
102
}
330
1A
100
AcDbPlotSettings
  1

  2
none_device
  4

  6

 40
0.0
 41
0.0
 42
0.0
 43
0.0
 44
0.0
 45
0.0
 46
0.0
 47
0.0
 48
0.0
 49
0.0
140
0.0
141
0.0
142
1.0
143
1.0
 70
   688
 72
     1
 73
     0
 74
     5
  7

 75
    16
147
1.0
148
0.0
149
0.0
100
AcDbLayout
  1
Layout1
 70
     1
 71
     1
 10
0.0
 20
0.0
 11
420.0
 21
297.0
 12
0.0
 22
0.0
 32
0.0
 14
1.0000000000E+20
 24
1.0000000000E+20
 34
1.0000000000E+20
 15
-1.0000000000E+20
 25
-1.0000000000E+20
 35
-1.0000000000E+20
146
0.0
 13
0.0
 23
0.0
 33
0.0
 16
1.0
 26
0.0
 36
0.0
 17
0.0
 27
1.0
 37
0.0
 76
     0
330
1B
  0
LAYOUT
  5
26
102
{ACAD_REACTORS
330
1A
102
}
330
1A
100
AcDbPlotSettings
  1

  2
none_device
  4

  6

 40
0.0
 41
0.0
 42
0.0
 43
0.0
 44
0.0
 45
0.0
 46
0.0
 47
0.0
 48
0.0
 49
0.0
140
0.0
141
0.0
142
1.0
143
1.0
 70
   688
 72
     1
 73
     0
 74
     5
  7

 75
    16
147
1.0
148
0.0
149
0.0
100
AcDbLayout
  1
Layout2
 70
     1
 71
     2
 10
0.0
 20
0.0
 11
0.0
 21
0.0
 12
0.0
 22
0.0
 32
0.0
 14
0.0
 24
0.0
 34
0.0
 15
0.0
 25
0.0
 35
0.0
146
0.0
 13
0.0
 23
0.0
 33
0.0
 16
1.0
 26
0.0
 36
0.0
 17
0.0
 27
1.0
 37
0.0
 76
     0
330
23
  0
LAYOUT
  5
22
102
{ACAD_REACTORS
330
1A
102
}
330
1A
100
AcDbPlotSettings
  1

  2
none_device
  4
Letter_(8.50_x_11.00_Inches)
  6

 40
6.35
 41
6.35
 42
6.35000508
 43
6.35000508
 44
215.9
 45
279.4
 46
0.0
 47
0.0
 48
0.0
 49
0.0
140
0.0
141
0.0
142
1.0
143
1.0
 70
  1712
 72
     1
 73
     0
 74
     0
  7

 75
     0
147
1.0
148
0.0
149
0.0
100
AcDbLayout
  1
Model
 70
     1
 71
     0
 10
0.0
 20
0.0
 11
431.8
 21
279.4
 12
0.0
 22
0.0
 32
0.0
 14
0.0
 24
0.0
 34
0.0
 15
431.8
 25
279.4
 35
0.0
146
0.0
 13
0.0
 23
0.0
 33
0.0
 16
1.0
 26
0.0
 36
0.0
 17
0.0
 27
1.0
 37
0.0
 76
     0
330
1F
331
29
  0
MLINESTYLE
  5
18
102
{ACAD_REACTORS
330
17
102
}
330
17
100
AcDbMlineStyle
  2
Standard
 70
     0
  3

 62
   256
 51
90.0
 52
90.0
 71
     2
 49
0.5
 62
   256
  6
BYLAYER
 49
-0.5
 62
   256
  6
BYLAYER
  0
ACDBPLACEHOLDER
  5
F
102
{ACAD_REACTORS
330
E
102
}
330
E
  0
SCALE
  5
48
102
{ACAD_REACTORS
330
47
102
}
330
47
100
AcDbScale
 70
     0
300
1:1
140
1.0
141
1.0
290
     1
  0
SCALE
  5
49
102
{ACAD_REACTORS
330
47
102
}
330
47
100
AcDbScale
 70
     0
300
1:2
140
1.0
141
2.0
290
     0
  0
SCALE
  5
4A
102
{ACAD_REACTORS
330
47
102
}
330
47
100
AcDbScale
 70
     0
300
1:4
140
1.0
141
4.0
290
     0
  0
SCALE
  5
4B
102
{ACAD_REACTORS
330
47
102
}
330
47
100
AcDbScale
 70
     0
300
1:5
140
1.0
141
5.0
290
     0
  0
SCALE
  5
4C
102
{ACAD_REACTORS
330
47
102
}
330
47
100
AcDbScale
 70
     0
300
1:8
140
1.0
141
8.0
290
     0
  0
SCALE
  5
4D
102
{ACAD_REACTORS
330
47
102
}
330
47
100
AcDbScale
 70
     0
300
1:10
140
1.0
141
10.0
290
     0
  0
SCALE
  5
4E
102
{ACAD_REACTORS
330
47
102
}
330
47
100
AcDbScale
 70
     0
300
1:16
140
1.0
141
16.0
290
     0
  0
SCALE
  5
4F
102
{ACAD_REACTORS
330
47
102
}
330
47
100
AcDbScale
 70
     0
300
1:20
140
1.0
141
20.0
290
     0
  0
SCALE
  5
50
102
{ACAD_REACTORS
330
47
102
}
330
47
100
AcDbScale
 70
     0
300
1:30
140
1.0
141
30.0
290
     0
  0
SCALE
  5
51
102
{ACAD_REACTORS
330
47
102
}
330
47
100
AcDbScale
 70
     0
300
1:40
140
1.0
141
40.0
290
     0
  0
SCALE
  5
52
102
{ACAD_REACTORS
330
47
102
}
330
47
100
AcDbScale
 70
     0
300
1:50
140
1.0
141
50.0
290
     0
  0
SCALE
  5
53
102
{ACAD_REACTORS
330
47
102
}
330
47
100
AcDbScale
 70
     0
300
1:100
140
1.0
141
100.0
290
     0
  0
SCALE
  5
54
102
{ACAD_REACTORS
330
47
102
}
330
47
100
AcDbScale
 70
     0
300
2:1
140
2.0
141
1.0
290
     0
  0
SCALE
  5
55
102
{ACAD_REACTORS
330
47
102
}
330
47
100
AcDbScale
 70
     0
300
4:1
140
4.0
141
1.0
290
     0
  0
SCALE
  5
56
102
{ACAD_REACTORS
330
47
102
}
330
47
100
AcDbScale
 70
     0
300
8:1
140
8.0
141
1.0
290
     0
  0
SCALE
  5
57
102
{ACAD_REACTORS
330
47
102
}
330
47
100
AcDbScale
 70
     0
300
10:1
140
10.0
141
1.0
290
     0
  0
SCALE
  5
58
102
{ACAD_REACTORS
330
47
102
}
330
47
100
AcDbScale
 70
     0
300
100:1
140
100.0
141
1.0
290
     0
  0
ENDSEC
  0
EOF
