ISO-10303-21;
HEADER;
FILE_DESCRIPTION (( 'STEP AP214' ),
    '1' );
FILE_NAME ('YKM-U-40X50X600 Óãîëîê ãîðèçîíòàëüíûé 40õ50õ600 ÙÎ (êîìï.2 øò.)_1.STEP',
    '2016-11-17T08:32:32',
    ( '' ),
    ( '' ),
    'SwSTEP 2.0',
    'SolidWorks 2014',
    '' );
FILE_SCHEMA (( 'AUTOMOTIVE_DESIGN' ));
ENDSEC;

DATA;
#1 = EDGE_LOOP ( 'NONE', ( #89, #71, #101, #142 ) ) ;
#2 = DIRECTION ( 'NONE',  ( -0.0000000000000000000, 1.000000000000000000, 0.0000000000000000000 ) ) ;
#3 = PRESENTATION_LAYER_ASSIGNMENT (  '', '', ( #30 ) ) ;
#4 =( NAMED_UNIT ( * ) PLANE_ANGLE_UNIT ( ) SI_UNIT ( $, .RADIAN. ) );
#5 = CARTESIAN_POINT ( 'NONE',  ( 592.0000000000000000, -2.000000000000000000, 0.0000000000000000000 ) ) ;
#6 = DIRECTION ( 'NONE',  ( 0.0000000000000000000, 0.0000000000000000000, 1.000000000000000000 ) ) ;
#7 = VECTOR ( 'NONE', #390, 1000.000000000000000 ) ;
#8 = DIRECTION ( 'NONE',  ( 0.0000000000000000000, 0.0000000000000000000, 1.000000000000000000 ) ) ;
#9 = ORIENTED_EDGE ( 'NONE', *, *, #306, .F. ) ;
#10 = CARTESIAN_POINT ( 'NONE',  ( 592.0000000000000000, -2.000000000000000000, -36.00000000000000000 ) ) ;
#11 = ORIENTED_EDGE ( 'NONE', *, *, #92, .F. ) ;
#12 = VECTOR ( 'NONE', #34, 1000.000000000000000 ) ;
#13 = ORIENTED_EDGE ( 'NONE', *, *, #405, .T. ) ;
#14 = EDGE_LOOP ( 'NONE', ( #301, #246, #94, #47 ) ) ;
#15 = CARTESIAN_POINT ( 'NONE',  ( 45.99999999999998600, 0.0000000000000000000, -25.00000000000000000 ) ) ;
#16 = DIRECTION ( 'NONE',  ( -0.0000000000000000000, 1.000000000000000000, -0.0000000000000000000 ) ) ;
#17 = CARTESIAN_POINT ( 'NONE',  ( 592.0000000000000000, -50.00000000000000000, -38.00000000000001400 ) ) ;
#18 = ORIENTED_EDGE ( 'NONE', *, *, #371, .F. ) ;
#19 = EDGE_CURVE ( 'NONE', #77, #329, #326, .T. ) ;
#20 = MANIFOLD_SOLID_BREP ( '1', #266 ) ;
#21 = CARTESIAN_POINT ( 'NONE',  ( 592.0000000000000000, 0.0000000000000000000, -38.00000000000025600 ) ) ;
#22 = FACE_OUTER_BOUND ( 'NONE', #355, .T. ) ;
#23 = AXIS2_PLACEMENT_3D ( 'NONE', #136, #352, #160 ) ;
#24 = FACE_OUTER_BOUND ( 'NONE', #168, .T. ) ;
#25 = VECTOR ( 'NONE', #268, 1000.000000000000000 ) ;
#26 = CARTESIAN_POINT ( 'NONE',  ( 546.0000000000000000, -2.000000000000000000, -11.00000000000009900 ) ) ;
#27 = ADVANCED_FACE ( 'NONE', ( #163 ), #123, .F. ) ;
#28 = DIRECTION ( 'NONE',  ( 0.0000000000000000000, 1.000000000000000000, 0.0000000000000000000 ) ) ;
#29 = ORIENTED_EDGE ( 'NONE', *, *, #306, .T. ) ;
#30 = STYLED_ITEM ( 'NONE', ( #59 ), #149 ) ;
#31 = VERTEX_POINT ( 'NONE', #45 ) ;
#32 = VECTOR ( 'NONE', #28, 1000.000000000000000 ) ;
#33 = LINE ( 'NONE', #10, #141 ) ;
#34 = DIRECTION ( 'NONE',  ( 0.0000000000000000000, -1.000000000000000000, -2.775557561562891400E-016 ) ) ;
#35 = EDGE_CURVE ( 'NONE', #77, #76, #370, .T. ) ;
#36 = CIRCLE ( 'NONE', #340, 7.000000000000013300 ) ;
#37 = VECTOR ( 'NONE', #303, 1000.000000000000000 ) ;
#38 = DIRECTION ( 'NONE',  ( -0.0000000000000000000, 1.000000000000000000, -0.0000000000000000000 ) ) ;
#39 = CARTESIAN_POINT ( 'NONE',  ( 45.99999999999998600, -2.000000000000000000, -10.99999999999997200 ) ) ;
#40 = PLANE ( 'NONE',  #116 ) ;
#41 = PLANE ( 'NONE',  #23 ) ;
#42 = CYLINDRICAL_SURFACE ( 'NONE', #139, 6.999999999999926300 ) ;
#43 = PRODUCT_CONTEXT ( 'NONE', #287, 'mechanical' ) ;
#44 = STYLED_ITEM ( 'NONE', ( #411 ), #20 ) ;
#45 = CARTESIAN_POINT ( 'NONE',  ( 0.0000000000000000000, -2.000000000000000000, -36.00000000000000000 ) ) ;
#46 = CYLINDRICAL_SURFACE ( 'NONE', #227, 7.000000000000013300 ) ;
#47 = ORIENTED_EDGE ( 'NONE', *, *, #321, .T. ) ;
#48 = LINE ( 'NONE', #50, #126 ) ;
#49 = DIRECTION ( 'NONE',  ( -1.000000000000000000, -0.0000000000000000000, -0.0000000000000000000 ) ) ;
#50 = CARTESIAN_POINT ( 'NONE',  ( 592.0000000000000000, -50.00000000000000000, -36.00000000000001400 ) ) ;
#51 = FILL_AREA_STYLE_COLOUR ( '', #220 ) ;
#52 = ORIENTED_EDGE ( 'NONE', *, *, #106, .T. ) ;
#53 = DIRECTION ( 'NONE',  ( 0.0000000000000000000, -0.0000000000000000000, -1.000000000000000000 ) ) ;
#54 = VECTOR ( 'NONE', #124, 1000.000000000000000 ) ;
#55 = LINE ( 'NONE', #299, #281 ) ;
#56 = VERTEX_POINT ( 'NONE', #262 ) ;
#57 = DIRECTION ( 'NONE',  ( -1.000000000000000000, -0.0000000000000000000, -0.0000000000000000000 ) ) ;
#58 = ADVANCED_FACE ( 'NONE', ( #200 ), #290, .T. ) ;
#59 = PRESENTATION_STYLE_ASSIGNMENT (( #140 ) ) ;
#60 = CARTESIAN_POINT ( 'NONE',  ( 592.0000000000000000, -5.551115123125782700E-016, -36.00000000000000000 ) ) ;
#61 = ORIENTED_EDGE ( 'NONE', *, *, #327, .T. ) ;
#62 = DIRECTION ( 'NONE',  ( 0.0000000000000000000, -1.000000000000000000, -2.775557561562891400E-016 ) ) ;
#63 = VERTEX_POINT ( 'NONE', #228 ) ;
#64 = ORIENTED_EDGE ( 'NONE', *, *, #295, .F. ) ;
#65 = DIRECTION ( 'NONE',  ( 0.0000000000000000000, 2.775557561562891400E-016, -1.000000000000000000 ) ) ;
#66 = EDGE_CURVE ( 'NONE', #219, #408, #279, .T. ) ;
#67 = EDGE_CURVE ( 'NONE', #298, #31, #33, .T. ) ;
#68 = DIRECTION ( 'NONE',  ( -0.0000000000000000000, 1.000000000000000000, 0.0000000000000000000 ) ) ;
#69 = CARTESIAN_POINT ( 'NONE',  ( 45.99999999999998600, -2.000000000000000000, -25.00000000000000000 ) ) ;
#70 = VERTEX_POINT ( 'NONE', #218 ) ;
#71 = ORIENTED_EDGE ( 'NONE', *, *, #67, .T. ) ;
#72 = CARTESIAN_POINT ( 'NONE',  ( 592.0000000000000000, -3.000000000000000000, -34.99999999999999300 ) ) ;
#73 = AXIS2_PLACEMENT_3D ( 'NONE', #277, #338, #127 ) ;
#74 = DIRECTION ( 'NONE',  ( 1.000000000000000000, 0.0000000000000000000, -0.0000000000000000000 ) ) ;
#75 = AXIS2_PLACEMENT_3D ( 'NONE', #118, #8, #226 ) ;
#76 = VERTEX_POINT ( 'NONE', #39 ) ;
#77 = VERTEX_POINT ( 'NONE', #69 ) ;
#78 = CARTESIAN_POINT ( 'NONE',  ( 592.0000000000000000, 0.0000000000000000000, 0.0000000000000000000 ) ) ;
#79 = DIRECTION ( 'NONE',  ( -1.000000000000000000, -0.0000000000000000000, -0.0000000000000000000 ) ) ;
#80 = ORIENTED_EDGE ( 'NONE', *, *, #404, .F. ) ;
#81 = ADVANCED_FACE ( 'NONE', ( #289 ), #46, .F. ) ;
#82 = AXIS2_PLACEMENT_3D ( 'NONE', #72, #95, #305 ) ;
#83 = SURFACE_STYLE_FILL_AREA ( #112 ) ;
#84 =( GEOMETRIC_REPRESENTATION_CONTEXT ( 3 ) GLOBAL_UNCERTAINTY_ASSIGNED_CONTEXT ( ( #165 ) ) GLOBAL_UNIT_ASSIGNED_CONTEXT ( ( #353, #97, #117 ) ) REPRESENTATION_CONTEXT ( 'NONE', 'WORKASPACE' ) );
#85 = ORIENTED_EDGE ( 'NONE', *, *, #66, .T. ) ;
#86 = LINE ( 'NONE', #90, #178 ) ;
#87 = ORIENTED_EDGE ( 'NONE', *, *, #236, .T. ) ;
#88 = AXIS2_PLACEMENT_3D ( 'NONE', #366, #170, #401 ) ;
#89 = ORIENTED_EDGE ( 'NONE', *, *, #375, .F. ) ;
#90 = CARTESIAN_POINT ( 'NONE',  ( 0.0000000000000000000, -50.00000000000000000, -38.00000000000001400 ) ) ;
#91 = ORIENTED_EDGE ( 'NONE', *, *, #304, .F. ) ;
#92 = EDGE_CURVE ( 'NONE', #174, #307, #210, .T. ) ;
#93 = ORIENTED_EDGE ( 'NONE', *, *, #19, .T. ) ;
#94 = ORIENTED_EDGE ( 'NONE', *, *, #92, .T. ) ;
#95 = DIRECTION ( 'NONE',  ( 1.000000000000000000, 0.0000000000000000000, 0.0000000000000000000 ) ) ;
#96 = UNCERTAINTY_MEASURE_WITH_UNIT (LENGTH_MEASURE( 1.000000000000000100E-005 ), #194, 'distance_accuracy_value', 'NONE');
#97 =( NAMED_UNIT ( * ) PLANE_ANGLE_UNIT ( ) SI_UNIT ( $, .RADIAN. ) );
#98 = EDGE_CURVE ( 'NONE', #70, #254, #55, .T. ) ;
#99 = LINE ( 'NONE', #157, #12 ) ;
#100 = ORIENTED_EDGE ( 'NONE', *, *, #179, .T. ) ;
#101 = ORIENTED_EDGE ( 'NONE', *, *, #229, .T. ) ;
#102 = DIRECTION ( 'NONE',  ( -0.0000000000000000000, 1.000000000000000000, -0.0000000000000000000 ) ) ;
#103 = DIRECTION ( 'NONE',  ( 0.0000000000000000000, 1.000000000000000000, 0.0000000000000000000 ) ) ;
#104 = ORIENTED_EDGE ( 'NONE', *, *, #404, .T. ) ;
#105 = FILL_AREA_STYLE ('',( #51 ) ) ;
#106 = EDGE_CURVE ( 'NONE', #347, #351, #374, .T. ) ;
#107 = CARTESIAN_POINT ( 'NONE',  ( 0.0000000000000000000, 0.0000000000000000000, 0.0000000000000000000 ) ) ;
#108 = CYLINDRICAL_SURFACE ( 'NONE', #73, 7.000000000000013300 ) ;
#109 = EDGE_CURVE ( 'NONE', #351, #347, #202, .T. ) ;
#110 = MECHANICAL_DESIGN_GEOMETRIC_PRESENTATION_REPRESENTATION (  '', ( #44 ), #84 ) ;
#111 = VECTOR ( 'NONE', #187, 1000.000000000000000 ) ;
#112 = FILL_AREA_STYLE ('',( #143 ) ) ;
#113 = FACE_BOUND ( 'NONE', #221, .T. ) ;
#114 = LINE ( 'NONE', #293, #37 ) ;
#115 = DIRECTION ( 'NONE',  ( 0.0000000000000000000, -0.0000000000000000000, 1.000000000000000000 ) ) ;
#116 = AXIS2_PLACEMENT_3D ( 'NONE', #337, #153, #272 ) ;
#117 =( NAMED_UNIT ( * ) SI_UNIT ( $, .STERADIAN. ) SOLID_ANGLE_UNIT ( ) );
#118 = CARTESIAN_POINT ( 'NONE',  ( 0.0000000000000000000, 0.0000000000000000000, 0.0000000000000000000 ) ) ;
#119 = ADVANCED_FACE ( 'NONE', ( #133 ), #40, .T. ) ;
#120 = AXIS2_PLACEMENT_3D ( 'NONE', #78, #292, #115 ) ;
#121 = EDGE_LOOP ( 'NONE', ( #320, #93, #100, #80 ) ) ;
#122 = FACE_OUTER_BOUND ( 'NONE', #182, .T. ) ;
#123 = CYLINDRICAL_SURFACE ( 'NONE', #164, 6.999999999999926300 ) ;
#124 = DIRECTION ( 'NONE',  ( 0.0000000000000000000, 0.0000000000000000000, -1.000000000000000000 ) ) ;
#125 = VECTOR ( 'NONE', #148, 1000.000000000000000 ) ;
#126 = VECTOR ( 'NONE', #79, 1000.000000000000000 ) ;
#127 = DIRECTION ( 'NONE',  ( 0.0000000000000000000, 0.0000000000000000000, 1.000000000000000000 ) ) ;
#128 = DIRECTION ( 'NONE',  ( -1.358876197777494700E-031, 1.000000000000000000, 2.775557561562891400E-016 ) ) ;
#129 = EDGE_CURVE ( 'NONE', #174, #175, #274, .T. ) ;
#130 = FACE_BOUND ( 'NONE', #269, .T. ) ;
#131 = PRODUCT_DEFINITION_SHAPE ( 'NONE', 'NONE',  #349 ) ;
#132 = CARTESIAN_POINT ( 'NONE',  ( 0.0000000000000000000, -50.00000000000000000, -36.00000000000001400 ) ) ;
#133 = FACE_OUTER_BOUND ( 'NONE', #215, .T. ) ;
#134 = VECTOR ( 'NONE', #155, 1000.000000000000000 ) ;
#135 = DIRECTION ( 'NONE',  ( -0.0000000000000000000, 1.000000000000000000, 0.0000000000000000000 ) ) ;
#136 = CARTESIAN_POINT ( 'NONE',  ( 592.0000000000000000, -5.551115123125782700E-016, -36.00000000000000000 ) ) ;
#137 = DIRECTION ( 'NONE',  ( 0.0000000000000000000, 0.0000000000000000000, 1.000000000000000000 ) ) ;
#138 = ORIENTED_EDGE ( 'NONE', *, *, #19, .F. ) ;
#139 = AXIS2_PLACEMENT_3D ( 'NONE', #185, #242, #177 ) ;
#140 = SURFACE_STYLE_USAGE ( .BOTH. , #314 ) ;
#141 = VECTOR ( 'NONE', #190, 1000.000000000000000 ) ;
#142 = ORIENTED_EDGE ( 'NONE', *, *, #396, .F. ) ;
#143 = FILL_AREA_STYLE_COLOUR ( '', #180 ) ;
#144 = CARTESIAN_POINT ( 'NONE',  ( 45.99999999999998600, -2.000000000000000000, -10.99999999999997200 ) ) ;
#145 = SURFACE_STYLE_FILL_AREA ( #105 ) ;
#146 = CARTESIAN_POINT ( 'NONE',  ( 45.99999999999998600, 0.0000000000000000000, -10.99999999999997200 ) ) ;
#147 = EDGE_CURVE ( 'NONE', #76, #77, #36, .T. ) ;
#148 = DIRECTION ( 'NONE',  ( 0.0000000000000000000, 1.000000000000000000, 0.0000000000000000000 ) ) ;
#149 = ADVANCED_BREP_SHAPE_REPRESENTATION ( 'YKM-U-40X50X600 Lóþûþú óþ¨ø÷þýªðû¹ývù 40¿50¿600 -+ (úþüÿ.2 °ª.)_1', ( #20, #75 ), #197 ) ;
#150 = ORIENTED_EDGE ( 'NONE', *, *, #229, .F. ) ;
#151 = APPLICATION_PROTOCOL_DEFINITION ( 'draft international standard', 'automotive_design', 1998, #260 ) ;
#152 = ORIENTED_EDGE ( 'NONE', *, *, #315, .T. ) ;
#153 = DIRECTION ( 'NONE',  ( -1.000000000000000000, 0.0000000000000000000, -0.0000000000000000000 ) ) ;
#154 = ADVANCED_FACE ( 'NONE', ( #363, #113, #188 ), #176, .F. ) ;
#155 = DIRECTION ( 'NONE',  ( 0.0000000000000000000, 0.0000000000000000000, -1.000000000000000000 ) ) ;
#156 = DIRECTION ( 'NONE',  ( 0.0000000000000000000, 0.0000000000000000000, 1.000000000000000000 ) ) ;
#157 = CARTESIAN_POINT ( 'NONE',  ( 0.0000000000000000000, -5.551115123125782700E-016, -36.00000000000000000 ) ) ;
#158 = EDGE_LOOP ( 'NONE', ( #402, #245, #252, #152 ) ) ;
#159 = VERTEX_POINT ( 'NONE', #317 ) ;
#160 = DIRECTION ( 'NONE',  ( 0.0000000000000000000, 1.000000000000000000, 2.775557561562891400E-016 ) ) ;
#161 = DIRECTION ( 'NONE',  ( 0.0000000000000000000, -0.0000000000000000000, 1.000000000000000000 ) ) ;
#162 =( NAMED_UNIT ( * ) PLANE_ANGLE_UNIT ( ) SI_UNIT ( $, .RADIAN. ) );
#163 = FACE_OUTER_BOUND ( 'NONE', #392, .T. ) ;
#164 = AXIS2_PLACEMENT_3D ( 'NONE', #359, #397, #201 ) ;
#165 = UNCERTAINTY_MEASURE_WITH_UNIT (LENGTH_MEASURE( 1.000000000000000100E-005 ), #353, 'distance_accuracy_value', 'NONE');
#166 = DIRECTION ( 'NONE',  ( -0.0000000000000000000, 1.000000000000000000, -0.0000000000000000000 ) ) ;
#167 = CIRCLE ( 'NONE', #294, 6.999999999999926300 ) ;
#168 = EDGE_LOOP ( 'NONE', ( #198, #29, #316, #319 ) ) ;
#169 = ORIENTED_EDGE ( 'NONE', *, *, #209, .T. ) ;
#170 = DIRECTION ( 'NONE',  ( -0.0000000000000000000, 1.000000000000000000, 0.0000000000000000000 ) ) ;
#171 = CARTESIAN_POINT ( 'NONE',  ( 45.99999999999998600, 0.0000000000000000000, -17.99999999999998600 ) ) ;
#172 = EDGE_LOOP ( 'NONE', ( #18, #11, #212, #61 ) ) ;
#173 = AXIS2_PLACEMENT_3D ( 'NONE', #250, #65, #280 ) ;
#174 = VERTEX_POINT ( 'NONE', #5 ) ;
#175 = VERTEX_POINT ( 'NONE', #224 ) ;
#176 = PLANE ( 'NONE',  #284 ) ;
#177 = DIRECTION ( 'NONE',  ( 0.0000000000000000000, 0.0000000000000000000, 1.000000000000000000 ) ) ;
#178 = VECTOR ( 'NONE', #156, 1000.000000000000000 ) ;
#179 = EDGE_CURVE ( 'NONE', #329, #240, #273, .T. ) ;
#180 = COLOUR_RGB ( '',0.7921568627450980000, 0.8196078431372548800, 0.9333333333333333500 ) ;
#181 = ADVANCED_FACE ( 'NONE', ( #361 ), #41, .F. ) ;
#182 = EDGE_LOOP ( 'NONE', ( #138, #296, #104, #87 ) ) ;
#183 = ORIENTED_EDGE ( 'NONE', *, *, #236, .F. ) ;
#184 = LINE ( 'NONE', #60, #341 ) ;
#185 = CARTESIAN_POINT ( 'NONE',  ( 546.0000000000000000, -2.000000000000000000, -18.00000000000002500 ) ) ;
#186 = CIRCLE ( 'NONE', #344, 7.000000000000013300 ) ;
#187 = DIRECTION ( 'NONE',  ( -1.000000000000000000, -0.0000000000000000000, -0.0000000000000000000 ) ) ;
#188 = FACE_OUTER_BOUND ( 'NONE', #14, .T. ) ;
#189 = VECTOR ( 'NONE', #16, 1000.000000000000000 ) ;
#190 = DIRECTION ( 'NONE',  ( -1.000000000000000000, 0.0000000000000000000, 0.0000000000000000000 ) ) ;
#191 = AXIS2_PLACEMENT_3D ( 'NONE', #394, #196, #6 ) ;
#192 = CARTESIAN_POINT ( 'NONE',  ( 546.0000000000000000, -2.000000000000000000, -18.00000000000002500 ) ) ;
#193 = AXIS2_PLACEMENT_3D ( 'NONE', #286, #103, #312 ) ;
#194 =( LENGTH_UNIT ( ) NAMED_UNIT ( * ) SI_UNIT ( .MILLI., .METRE. ) );
#195 = CARTESIAN_POINT ( 'NONE',  ( 0.0000000000000000000, 0.0000000000000000000, 0.0000000000000000000 ) ) ;
#196 = DIRECTION ( 'NONE',  ( 0.0000000000000000000, 1.000000000000000000, 0.0000000000000000000 ) ) ;
#197 =( GEOMETRIC_REPRESENTATION_CONTEXT ( 3 ) GLOBAL_UNCERTAINTY_ASSIGNED_CONTEXT ( ( #96 ) ) GLOBAL_UNIT_ASSIGNED_CONTEXT ( ( #194, #4, #223 ) ) REPRESENTATION_CONTEXT ( 'NONE', 'WORKASPACE' ) );
#198 = ORIENTED_EDGE ( 'NONE', *, *, #109, .F. ) ;
#199 = LINE ( 'NONE', #26, #356 ) ;
#200 = FACE_OUTER_BOUND ( 'NONE', #172, .T. ) ;
#201 = DIRECTION ( 'NONE',  ( 0.0000000000000000000, 0.0000000000000000000, 1.000000000000000000 ) ) ;
#202 = CIRCLE ( 'NONE', #388, 6.999999999999926300 ) ;
#203 = SURFACE_STYLE_USAGE ( .BOTH. , #399 ) ;
#204 = CIRCLE ( 'NONE', #88, 6.999999999999926300 ) ;
#205 = ORIENTED_EDGE ( 'NONE', *, *, #304, .T. ) ;
#206 = DIRECTION ( 'NONE',  ( 0.0000000000000000000, 0.0000000000000000000, 1.000000000000000000 ) ) ;
#207 = ADVANCED_FACE ( 'NONE', ( #345 ), #393, .T. ) ;
#208 = VECTOR ( 'NONE', #49, 1000.000000000000000 ) ;
#209 = EDGE_CURVE ( 'NONE', #70, #63, #265, .T. ) ;
#210 = LINE ( 'NONE', #276, #385 ) ;
#211 = CARTESIAN_POINT ( 'NONE',  ( 45.99999999999998600, -2.000000000000000000, -17.99999999999998600 ) ) ;
#212 = ORIENTED_EDGE ( 'NONE', *, *, #129, .T. ) ;
#213 = AXIS2_PLACEMENT_3D ( 'NONE', #225, #258, #74 ) ;
#214 = CARTESIAN_POINT ( 'NONE',  ( 0.0000000000000000000, -2.000000000000000000, 0.0000000000000000000 ) ) ;
#215 = EDGE_LOOP ( 'NONE', ( #150, #243, #416, #85, #261, #205 ) ) ;
#216 = ORIENTED_EDGE ( 'NONE', *, *, #391, .T. ) ;
#217 = EDGE_LOOP ( 'NONE', ( #322, #257, #310, #328, #234, #309 ) ) ;
#218 = CARTESIAN_POINT ( 'NONE',  ( 592.0000000000000000, -50.00000000000000000, -38.00000000000001400 ) ) ;
#219 = VERTEX_POINT ( 'NONE', #195 ) ;
#220 = COLOUR_RGB ( '',0.7921568627450980000, 0.8196078431372548800, 0.9333333333333333500 ) ;
#221 = EDGE_LOOP ( 'NONE', ( #52, #387 ) ) ;
#222 = DIRECTION ( 'NONE',  ( 0.0000000000000000000, 0.0000000000000000000, -1.000000000000000000 ) ) ;
#223 =( NAMED_UNIT ( * ) SI_UNIT ( $, .STERADIAN. ) SOLID_ANGLE_UNIT ( ) );
#224 = CARTESIAN_POINT ( 'NONE',  ( 592.0000000000000000, 0.0000000000000000000, 0.0000000000000000000 ) ) ;
#225 = CARTESIAN_POINT ( 'NONE',  ( 592.0000000000000000, -2.000000000000000000, 0.0000000000000000000 ) ) ;
#226 = DIRECTION ( 'NONE',  ( 1.000000000000000000, 0.0000000000000000000, 0.0000000000000000000 ) ) ;
#227 = AXIS2_PLACEMENT_3D ( 'NONE', #285, #102, #308 ) ;
#228 = CARTESIAN_POINT ( 'NONE',  ( 0.0000000000000000000, -50.00000000000000000, -38.00000000000001400 ) ) ;
#229 = EDGE_CURVE ( 'NONE', #31, #291, #99, .T. ) ;
#230 = ORIENTED_EDGE ( 'NONE', *, *, #398, .F. ) ;
#231 = CARTESIAN_POINT ( 'NONE',  ( 592.0000000000000000, 0.0000000000000000000, 0.0000000000000000000 ) ) ;
#232 = EDGE_LOOP ( 'NONE', ( #230, #64 ) ) ;
#233 = PRODUCT ( 'YKM-U-40X50X600 Óãîëîê ãîðèçîíòàëüíûé 40õ50õ600 ÙÎ (êîìï.2 øò.)_1', 'YKM-U-40X50X600 Óãîëîê ãîðèçîíòàëüíûé 40õ50õ600 ÙÎ (êîìï.2 øò.)_1', '', ( #43 ) ) ;
#234 = ORIENTED_EDGE ( 'NONE', *, *, #375, .T. ) ;
#235 = CARTESIAN_POINT ( 'NONE',  ( 592.0000000000000000, -1.643139453302129300E-013, -38.00000000000003600 ) ) ;
#236 = EDGE_CURVE ( 'NONE', #240, #329, #186, .T. ) ;
#237 = ADVANCED_FACE ( 'NONE', ( #333 ), #367, .T. ) ;
#238 = DIRECTION ( 'NONE',  ( 0.0000000000000000000, -1.000000000000000000, 0.0000000000000000000 ) ) ;
#239 = AXIS2_PLACEMENT_3D ( 'NONE', #17, #238, #53 ) ;
#240 = VERTEX_POINT ( 'NONE', #146 ) ;
#241 = ORIENTED_EDGE ( 'NONE', *, *, #412, .T. ) ;
#242 = DIRECTION ( 'NONE',  ( -0.0000000000000000000, 1.000000000000000000, -0.0000000000000000000 ) ) ;
#243 = ORIENTED_EDGE ( 'NONE', *, *, #321, .F. ) ;
#244 = VECTOR ( 'NONE', #38, 1000.000000000000000 ) ;
#245 = ORIENTED_EDGE ( 'NONE', *, *, #66, .F. ) ;
#246 = ORIENTED_EDGE ( 'NONE', *, *, #383, .F. ) ;
#247 = CARTESIAN_POINT ( 'NONE',  ( 546.0000000000000000, -2.000000000000000000, -11.00000000000009900 ) ) ;
#248 = CARTESIAN_POINT ( 'NONE',  ( 1.468760241108806500E-015, -2.000000000000328200, -38.00000000000003600 ) ) ;
#249 = VECTOR ( 'NONE', #166, 1000.000000000000000 ) ;
#250 = CARTESIAN_POINT ( 'NONE',  ( 592.0000000000000000, 0.0000000000000000000, -38.00000000000000000 ) ) ;
#251 = VECTOR ( 'NONE', #373, 1000.000000000000000 ) ;
#252 = ORIENTED_EDGE ( 'NONE', *, *, #327, .F. ) ;
#253 = CARTESIAN_POINT ( 'NONE',  ( 546.0000000000000000, 0.0000000000000000000, -18.00000000000002500 ) ) ;
#254 = VERTEX_POINT ( 'NONE', #346 ) ;
#255 = PRODUCT_RELATED_PRODUCT_CATEGORY ( 'part', '', ( #233 ) ) ;
#256 = APPLICATION_PROTOCOL_DEFINITION ( 'draft international standard', 'automotive_design', 1998, #287 ) ;
#257 = ORIENTED_EDGE ( 'NONE', *, *, #315, .F. ) ;
#258 = DIRECTION ( 'NONE',  ( 0.0000000000000000000, 0.0000000000000000000, 1.000000000000000000 ) ) ;
#259 =( GEOMETRIC_REPRESENTATION_CONTEXT ( 3 ) GLOBAL_UNCERTAINTY_ASSIGNED_CONTEXT ( ( #335 ) ) GLOBAL_UNIT_ASSIGNED_CONTEXT ( ( #354, #162, #395 ) ) REPRESENTATION_CONTEXT ( 'NONE', 'WORKASPACE' ) );
#260 = APPLICATION_CONTEXT ( 'automotive_design' ) ;
#261 = ORIENTED_EDGE ( 'NONE', *, *, #391, .F. ) ;
#262 = CARTESIAN_POINT ( 'NONE',  ( 546.0000000000000000, 0.0000000000000000000, -24.99999999999995400 ) ) ;
#263 = ORIENTED_EDGE ( 'NONE', *, *, #398, .T. ) ;
#264 = CARTESIAN_POINT ( 'NONE',  ( 45.99999999999998600, -2.000000000000000000, -24.99999999999999600 ) ) ;
#265 = LINE ( 'NONE', #386, #111 ) ;
#266 = CLOSED_SHELL ( 'NONE', ( #325, #81, #154, #119, #336, #58, #207, #368, #27, #300, #181, #237 ) ) ;
#267 = CARTESIAN_POINT ( 'NONE',  ( 546.0000000000000000, -2.000000000000000000, -24.99999999999995400 ) ) ;
#268 = DIRECTION ( 'NONE',  ( 1.358876197777494700E-031, -1.000000000000000000, -2.775557561562891400E-016 ) ) ;
#269 = EDGE_LOOP ( 'NONE', ( #183, #413 ) ) ;
#270 = ORIENTED_EDGE ( 'NONE', *, *, #147, .T. ) ;
#271 = LINE ( 'NONE', #214, #32 ) ;
#272 = DIRECTION ( 'NONE',  ( -0.0000000000000000000, 0.0000000000000000000, 1.000000000000000000 ) ) ;
#273 = CIRCLE ( 'NONE', #193, 7.000000000000013300 ) ;
#274 = LINE ( 'NONE', #330, #125 ) ;
#275 = LINE ( 'NONE', #144, #189 ) ;
#276 = CARTESIAN_POINT ( 'NONE',  ( 592.0000000000000000, -2.000000000000000000, 0.0000000000000000000 ) ) ;
#277 = CARTESIAN_POINT ( 'NONE',  ( 45.99999999999998600, -2.000000000000000000, -17.99999999999998600 ) ) ;
#278 = FACE_BOUND ( 'NONE', #232, .T. ) ;
#279 = LINE ( 'NONE', #107, #7 ) ;
#280 = DIRECTION ( 'NONE',  ( 0.0000000000000000000, 1.000000000000000000, 2.775557561562891400E-016 ) ) ;
#281 = VECTOR ( 'NONE', #378, 1000.000000000000000 ) ;
#282 = VECTOR ( 'NONE', #128, 1000.000000000000000 ) ;
#283 = DIRECTION ( 'NONE',  ( 0.0000000000000000000, 0.0000000000000000000, -1.000000000000000000 ) ) ;
#284 = AXIS2_PLACEMENT_3D ( 'NONE', #372, #406, #161 ) ;
#285 = CARTESIAN_POINT ( 'NONE',  ( 45.99999999999998600, -2.000000000000000000, -17.99999999999998600 ) ) ;
#286 = CARTESIAN_POINT ( 'NONE',  ( 45.99999999999998600, 0.0000000000000000000, -17.99999999999998600 ) ) ;
#287 = APPLICATION_CONTEXT ( 'automotive_design' ) ;
#288 = LINE ( 'NONE', #379, #134 ) ;
#289 = FACE_OUTER_BOUND ( 'NONE', #121, .T. ) ;
#290 = PLANE ( 'NONE',  #213 ) ;
#291 = VERTEX_POINT ( 'NONE', #132 ) ;
#292 = DIRECTION ( 'NONE',  ( -0.0000000000000000000, 1.000000000000000000, 0.0000000000000000000 ) ) ;
#293 = CARTESIAN_POINT ( 'NONE',  ( 2.913057684911410700E-013, -5.050820872653912500E-014, -38.00000000000003600 ) ) ;
#294 = AXIS2_PLACEMENT_3D ( 'NONE', #253, #68, #283 ) ;
#295 = EDGE_CURVE ( 'NONE', #56, #159, #167, .T. ) ;
#296 = ORIENTED_EDGE ( 'NONE', *, *, #147, .F. ) ;
#297 = EDGE_LOOP ( 'NONE', ( #91, #410, #381, #343 ) ) ;
#298 = VERTEX_POINT ( 'NONE', #324 ) ;
#299 = CARTESIAN_POINT ( 'NONE',  ( 592.0000000000000000, -50.00000000000000000, -38.00000000000001400 ) ) ;
#300 = ADVANCED_FACE ( 'NONE', ( #22 ), #414, .T. ) ;
#301 = ORIENTED_EDGE ( 'NONE', *, *, #67, .F. ) ;
#302 = DIRECTION ( 'NONE',  ( -0.0000000000000000000, 1.000000000000000000, -0.0000000000000000000 ) ) ;
#303 = DIRECTION ( 'NONE',  ( 1.000000000000000000, 8.531792014618100800E-017, 2.368047983985516400E-032 ) ) ;
#304 = EDGE_CURVE ( 'NONE', #63, #291, #86, .T. ) ;
#305 = DIRECTION ( 'NONE',  ( 0.0000000000000000000, 0.0000000000000000000, -1.000000000000000000 ) ) ;
#306 = EDGE_CURVE ( 'NONE', #351, #56, #415, .T. ) ;
#307 = VERTEX_POINT ( 'NONE', #389 ) ;
#308 = DIRECTION ( 'NONE',  ( 0.0000000000000000000, 0.0000000000000000000, 1.000000000000000000 ) ) ;
#309 = ORIENTED_EDGE ( 'NONE', *, *, #98, .F. ) ;
#310 = ORIENTED_EDGE ( 'NONE', *, *, #129, .F. ) ;
#311 = CARTESIAN_POINT ( 'NONE',  ( 546.0000000000000000, -2.000000000000000000, -18.00000000000002500 ) ) ;
#312 = DIRECTION ( 'NONE',  ( 0.0000000000000000000, 0.0000000000000000000, 1.000000000000000000 ) ) ;
#313 = DIRECTION ( 'NONE',  ( 0.0000000000000000000, 1.000000000000000000, 0.0000000000000000000 ) ) ;
#314 = SURFACE_SIDE_STYLE ('',( #145 ) ) ;
#315 = EDGE_CURVE ( 'NONE', #175, #339, #318, .T. ) ;
#316 = ORIENTED_EDGE ( 'NONE', *, *, #295, .T. ) ;
#317 = CARTESIAN_POINT ( 'NONE',  ( 546.0000000000000000, 0.0000000000000000000, -11.00000000000009900 ) ) ;
#318 = LINE ( 'NONE', #331, #251 ) ;
#319 = ORIENTED_EDGE ( 'NONE', *, *, #357, .F. ) ;
#320 = ORIENTED_EDGE ( 'NONE', *, *, #35, .F. ) ;
#321 = EDGE_CURVE ( 'NONE', #307, #31, #358, .T. ) ;
#322 = ORIENTED_EDGE ( 'NONE', *, *, #405, .F. ) ;
#323 = CARTESIAN_POINT ( 'NONE',  ( 1.468760241108905100E-015, -5.050820872653915000E-014, -38.00000000000025600 ) ) ;
#324 = CARTESIAN_POINT ( 'NONE',  ( 592.0000000000000000, -2.000000000000000000, -36.00000000000000000 ) ) ;
#325 = ADVANCED_FACE ( 'NONE', ( #24 ), #42, .F. ) ;
#326 = LINE ( 'NONE', #264, #249 ) ;
#327 = EDGE_CURVE ( 'NONE', #175, #219, #382, .T. ) ;
#328 = ORIENTED_EDGE ( 'NONE', *, *, #383, .T. ) ;
#329 = VERTEX_POINT ( 'NONE', #15 ) ;
#330 = CARTESIAN_POINT ( 'NONE',  ( 592.0000000000000000, -2.000000000000000000, 0.0000000000000000000 ) ) ;
#331 = CARTESIAN_POINT ( 'NONE',  ( 592.0000000000000000, 0.0000000000000000000, 0.0000000000000000000 ) ) ;
#332 = SHAPE_DEFINITION_REPRESENTATION ( #131, #149 ) ;
#333 = FACE_OUTER_BOUND ( 'NONE', #297, .T. ) ;
#334 = ORIENTED_EDGE ( 'NONE', *, *, #35, .T. ) ;
#335 = UNCERTAINTY_MEASURE_WITH_UNIT (LENGTH_MEASURE( 1.000000000000000100E-005 ), #354, 'distance_accuracy_value', 'NONE');
#336 = ADVANCED_FACE ( 'NONE', ( #369, #130, #278 ), #400, .T. ) ;
#337 = CARTESIAN_POINT ( 'NONE',  ( 0.0000000000000000000, -2.999999999999999600, -36.00000000000000000 ) ) ;
#338 = DIRECTION ( 'NONE',  ( -0.0000000000000000000, 1.000000000000000000, -0.0000000000000000000 ) ) ;
#339 = VERTEX_POINT ( 'NONE', #21 ) ;
#340 = AXIS2_PLACEMENT_3D ( 'NONE', #211, #313, #137 ) ;
#341 = VECTOR ( 'NONE', #62, 1000.000000000000000 ) ;
#342 = EDGE_LOOP ( 'NONE', ( #270, #334 ) ) ;
#343 = ORIENTED_EDGE ( 'NONE', *, *, #396, .T. ) ;
#344 = AXIS2_PLACEMENT_3D ( 'NONE', #171, #403, #206 ) ;
#345 = FACE_OUTER_BOUND ( 'NONE', #217, .T. ) ;
#346 = CARTESIAN_POINT ( 'NONE',  ( 592.0000000000000000, -50.00000000000000000, -36.00000000000001400 ) ) ;
#347 = VERTEX_POINT ( 'NONE', #247 ) ;
#348 = ORIENTED_EDGE ( 'NONE', *, *, #106, .F. ) ;
#349 = PRODUCT_DEFINITION ( 'UNKNOWN', '', #362, #360 ) ;
#350 = DIRECTION ( 'NONE',  ( 0.0000000000000000000, 0.0000000000000000000, -1.000000000000000000 ) ) ;
#351 = VERTEX_POINT ( 'NONE', #267 ) ;
#352 = DIRECTION ( 'NONE',  ( 0.0000000000000000000, 2.775557561562891400E-016, -1.000000000000000000 ) ) ;
#353 =( LENGTH_UNIT ( ) NAMED_UNIT ( * ) SI_UNIT ( .MILLI., .METRE. ) );
#354 =( LENGTH_UNIT ( ) NAMED_UNIT ( * ) SI_UNIT ( .MILLI., .METRE. ) );
#355 = EDGE_LOOP ( 'NONE', ( #13, #169, #216, #241 ) ) ;
#356 = VECTOR ( 'NONE', #302, 1000.000000000000000 ) ;
#357 = EDGE_CURVE ( 'NONE', #347, #159, #199, .T. ) ;
#358 = LINE ( 'NONE', #407, #54 ) ;
#359 = CARTESIAN_POINT ( 'NONE',  ( 546.0000000000000000, -2.000000000000000000, -18.00000000000002500 ) ) ;
#360 = PRODUCT_DEFINITION_CONTEXT ( 'detailed design', #260, 'design' ) ;
#361 = FACE_OUTER_BOUND ( 'NONE', #1, .T. ) ;
#362 = PRODUCT_DEFINITION_FORMATION_WITH_SPECIFIED_SOURCE ( 'ANY', '', #233, .NOT_KNOWN. ) ;
#363 = FACE_BOUND ( 'NONE', #342, .T. ) ;
#364 = LINE ( 'NONE', #235, #25 ) ;
#365 = PRESENTATION_LAYER_ASSIGNMENT (  '', '', ( #44 ) ) ;
#366 = CARTESIAN_POINT ( 'NONE',  ( 546.0000000000000000, 0.0000000000000000000, -18.00000000000002500 ) ) ;
#367 = PLANE ( 'NONE',  #239 ) ;
#368 = ADVANCED_FACE ( 'NONE', ( #122 ), #108, .F. ) ;
#369 = FACE_OUTER_BOUND ( 'NONE', #158, .T. ) ;
#370 = CIRCLE ( 'NONE', #191, 7.000000000000013300 ) ;
#371 = EDGE_CURVE ( 'NONE', #307, #219, #271, .T. ) ;
#372 = CARTESIAN_POINT ( 'NONE',  ( 592.0000000000000000, -2.000000000000000000, 0.0000000000000000000 ) ) ;
#373 = DIRECTION ( 'NONE',  ( 0.0000000000000000000, 0.0000000000000000000, -1.000000000000000000 ) ) ;
#374 = CIRCLE ( 'NONE', #377, 6.999999999999926300 ) ;
#375 = EDGE_CURVE ( 'NONE', #298, #254, #184, .T. ) ;
#376 = LINE ( 'NONE', #248, #282 ) ;
#377 = AXIS2_PLACEMENT_3D ( 'NONE', #311, #135, #350 ) ;
#378 = DIRECTION ( 'NONE',  ( 0.0000000000000000000, 0.0000000000000000000, 1.000000000000000000 ) ) ;
#379 = CARTESIAN_POINT ( 'NONE',  ( 592.0000000000000000, -2.000000000000000000, 0.0000000000000000000 ) ) ;
#380 = MECHANICAL_DESIGN_GEOMETRIC_PRESENTATION_REPRESENTATION (  '', ( #30 ), #259 ) ;
#381 = ORIENTED_EDGE ( 'NONE', *, *, #98, .T. ) ;
#382 = LINE ( 'NONE', #231, #208 ) ;
#383 = EDGE_CURVE ( 'NONE', #174, #298, #288, .T. ) ;
#384 = CARTESIAN_POINT ( 'NONE',  ( 546.0000000000000000, -2.000000000000000000, -24.99999999999995400 ) ) ;
#385 = VECTOR ( 'NONE', #57, 1000.000000000000000 ) ;
#386 = CARTESIAN_POINT ( 'NONE',  ( 592.0000000000000000, -50.00000000000000000, -38.00000000000001400 ) ) ;
#387 = ORIENTED_EDGE ( 'NONE', *, *, #109, .T. ) ;
#388 = AXIS2_PLACEMENT_3D ( 'NONE', #192, #2, #222 ) ;
#389 = CARTESIAN_POINT ( 'NONE',  ( 0.0000000000000000000, -2.000000000000000000, 0.0000000000000000000 ) ) ;
#390 = DIRECTION ( 'NONE',  ( 0.0000000000000000000, 0.0000000000000000000, -1.000000000000000000 ) ) ;
#391 = EDGE_CURVE ( 'NONE', #63, #408, #376, .T. ) ;
#392 = EDGE_LOOP ( 'NONE', ( #9, #348, #409, #263 ) ) ;
#393 = PLANE ( 'NONE',  #82 ) ;
#394 = CARTESIAN_POINT ( 'NONE',  ( 45.99999999999998600, -2.000000000000000000, -17.99999999999998600 ) ) ;
#395 =( NAMED_UNIT ( * ) SI_UNIT ( $, .STERADIAN. ) SOLID_ANGLE_UNIT ( ) );
#396 = EDGE_CURVE ( 'NONE', #254, #291, #48, .T. ) ;
#397 = DIRECTION ( 'NONE',  ( -0.0000000000000000000, 1.000000000000000000, -0.0000000000000000000 ) ) ;
#398 = EDGE_CURVE ( 'NONE', #159, #56, #204, .T. ) ;
#399 = SURFACE_SIDE_STYLE ('',( #83 ) ) ;
#400 = PLANE ( 'NONE',  #120 ) ;
#401 = DIRECTION ( 'NONE',  ( 0.0000000000000000000, 0.0000000000000000000, -1.000000000000000000 ) ) ;
#402 = ORIENTED_EDGE ( 'NONE', *, *, #412, .F. ) ;
#403 = DIRECTION ( 'NONE',  ( 0.0000000000000000000, 1.000000000000000000, 0.0000000000000000000 ) ) ;
#404 = EDGE_CURVE ( 'NONE', #76, #240, #275, .T. ) ;
#405 = EDGE_CURVE ( 'NONE', #339, #70, #364, .T. ) ;
#406 = DIRECTION ( 'NONE',  ( -0.0000000000000000000, 1.000000000000000000, 0.0000000000000000000 ) ) ;
#407 = CARTESIAN_POINT ( 'NONE',  ( 0.0000000000000000000, -2.000000000000000000, 0.0000000000000000000 ) ) ;
#408 = VERTEX_POINT ( 'NONE', #323 ) ;
#409 = ORIENTED_EDGE ( 'NONE', *, *, #357, .T. ) ;
#410 = ORIENTED_EDGE ( 'NONE', *, *, #209, .F. ) ;
#411 = PRESENTATION_STYLE_ASSIGNMENT (( #203 ) ) ;
#412 = EDGE_CURVE ( 'NONE', #408, #339, #114, .T. ) ;
#413 = ORIENTED_EDGE ( 'NONE', *, *, #179, .F. ) ;
#414 = PLANE ( 'NONE',  #173 ) ;
#415 = LINE ( 'NONE', #384, #244 ) ;
#416 = ORIENTED_EDGE ( 'NONE', *, *, #371, .T. ) ;
ENDSEC;
END-ISO-10303-21;
