  0
SECTION
  2
HEADER
  9
$ACADVER
  1
AC1015
  9
$ACADMAINTVER
 70
     6
  9
$DWGCODEPAGE
  3
ANSI_1251
  9
$INSBASE
 10
0.0
 20
0.0
 30
0.0
  9
$EXTMIN
 10
0.0
 20
0.0
 30
0.0
  9
$EXTMAX
 10
420.0
 20
297.0
 30
0.0
  9
$LIMMIN
 10
0.0
 20
0.0
  9
$LIMMAX
 10
420.0
 20
297.0
  9
$ORTHOMODE
 70
     0
  9
$REGENMODE
 70
     1
  9
$FILLMODE
 70
     1
  9
$QTEXTMODE
 70
     0
  9
$MIRRTEXT
 70
     1
  9
$LTSCALE
 40
1.0
  9
$ATTMODE
 70
     1
  9
$TEXTSIZE
 40
5.0
  9
$TRACEWID
 40
1.0
  9
$TEXTSTYLE
  7
Standard
  9
$CLAYER
  8
0
  9
$CELTYPE
  6
ByLayer
  9
$CECOLOR
 62
   256
  9
$CELTSCALE
 40
1.0
  9
$DISPSILH
 70
     0
  9
$DIMSCALE
 40
1.0
  9
$DIMASZ
 40
5.0
  9
$DIMEXO
 40
0.0
  9
$DIMDLI
 40
3.75
  9
$DIMRND
 40
0.0
  9
$DIMDLE
 40
0.0
  9
$DIMEXE
 40
1.0
  9
$DIMTP
 40
0.0
  9
$DIMTM
 40
0.0
  9
$DIMTXT
 40
3.5
  9
$DIMCEN
 40
2.5
  9
$DIMTSZ
 40
0.0
  9
$DIMTOL
 70
     0
  9
$DIMLIM
 70
     0
  9
$DIMTIH
 70
     1
  9
$DIMTOH
 70
     1
  9
$DIMSE1
 70
     0
  9
$DIMSE2
 70
     0
  9
$DIMTAD
 70
     1
  9
$DIMZIN
 70
     0
  9
$DIMBLK
  1

  9
$DIMASO
 70
     1
  9
$DIMSHO
 70
     1
  9
$DIMPOST
  1

  9
$DIMAPOST
  1

  9
$DIMALT
 70
     0
  9
$DIMALTD
 70
     3
  9
$DIMALTF
 40
0.0393700787
  9
$DIMLFAC
 40
1.0
  9
$DIMTOFL
 70
     1
  9
$DIMTVP
 40
0.0
  9
$DIMTIX
 70
     0
  9
$DIMSOXD
 70
     0
  9
$DIMSAH
 70
     0
  9
$DIMBLK1
  1

  9
$DIMBLK2
  1

  9
$DIMSTYLE
  2
ISO-25
  9
$DIMCLRD
 70
     0
  9
$DIMCLRE
 70
     0
  9
$DIMCLRT
 70
     0
  9
$DIMTFAC
 40
1.0
  9
$DIMGAP
 40
1.5
  9
$DIMJUST
 70
     0
  9
$DIMSD1
 70
     0
  9
$DIMSD2
 70
     0
  9
$DIMTOLJ
 70
     0
  9
$DIMTZIN
 70
     0
  9
$DIMALTZ
 70
     0
  9
$DIMALTTZ
 70
     0
  9
$DIMUPT
 70
     0
  9
$DIMDEC
 70
     1
  9
$DIMTDEC
 70
     1
  9
$DIMALTU
 70
     2
  9
$DIMALTTD
 70
     3
  9
$DIMTXSTY
  7
Standard
  9
$DIMAUNIT
 70
     0
  9
$DIMADEC
 70
     2
  9
$DIMALTRND
 40
0.0
  9
$DIMAZIN
 70
     0
  9
$DIMDSEP
 70
    44
  9
$DIMATFIT
 70
     3
  9
$DIMFRAC
 70
     0
  9
$DIMLDRBLK
  1

  9
$DIMLUNIT
 70
     2
  9
$DIMLWD
 70
    -2
  9
$DIMLWE
 70
    -2
  9
$DIMTMOVE
 70
     0
  9
$LUNITS
 70
     2
  9
$LUPREC
 70
     1
  9
$SKETCHINC
 40
1.0
  9
$FILLETRAD
 40
0.0
  9
$AUNITS
 70
     0
  9
$AUPREC
 70
     2
  9
$MENU
  1
.
  9
$ELEVATION
 40
0.0
  9
$PELEVATION
 40
0.0
  9
$THICKNESS
 40
0.0
  9
$LIMCHECK
 70
     0
  9
$CHAMFERA
 40
0.0
  9
$CHAMFERB
 40
0.0
  9
$CHAMFERC
 40
0.0
  9
$CHAMFERD
 40
0.0
  9
$SKPOLY
 70
     0
  9
$TDCREATE
 40
2460670.644866806
  9
$TDUCREATE
 40
2460670.519866806
  9
$TDUPDATE
 40
2460670.644867489
  9
$TDUUPDATE
 40
2460670.519867489
  9
$TDINDWG
 40
0.0000000116
  9
$TDUSRTIMER
 40
0.0000000116
  9
$USRTIMER
 70
     1
  9
$ANGBASE
 50
0.0
  9
$ANGDIR
 70
     0
  9
$PDMODE
 70
     0
  9
$PDSIZE
 40
-1.0
  9
$PLINEWID
 40
0.0
  9
$SPLFRAME
 70
     0
  9
$SPLINETYPE
 70
     6
  9
$SPLINESEGS
 70
     8
  9
$HANDSEED
  5
3C6
  9
$SURFTAB1
 70
     6
  9
$SURFTAB2
 70
     6
  9
$SURFTYPE
 70
     6
  9
$SURFU
 70
     6
  9
$SURFV
 70
     6
  9
$UCSBASE
  2

  9
$UCSNAME
  2

  9
$UCSORG
 10
0.0
 20
0.0
 30
0.0
  9
$UCSXDIR
 10
1.0
 20
0.0
 30
0.0
  9
$UCSYDIR
 10
0.0
 20
1.0
 30
0.0
  9
$UCSORTHOREF
  2

  9
$UCSORTHOVIEW
 70
     0
  9
$UCSORGTOP
 10
0.0
 20
0.0
 30
0.0
  9
$UCSORGBOTTOM
 10
0.0
 20
0.0
 30
0.0
  9
$UCSORGLEFT
 10
0.0
 20
0.0
 30
0.0
  9
$UCSORGRIGHT
 10
0.0
 20
0.0
 30
0.0
  9
$UCSORGFRONT
 10
0.0
 20
0.0
 30
0.0
  9
$UCSORGBACK
 10
0.0
 20
0.0
 30
0.0
  9
$PUCSBASE
  2

  9
$PUCSNAME
  2

  9
$PUCSORG
 10
0.0
 20
0.0
 30
0.0
  9
$PUCSXDIR
 10
1.0
 20
0.0
 30
0.0
  9
$PUCSYDIR
 10
0.0
 20
1.0
 30
0.0
  9
$PUCSORTHOREF
  2

  9
$PUCSORTHOVIEW
 70
     0
  9
$PUCSORGTOP
 10
0.0
 20
0.0
 30
0.0
  9
$PUCSORGBOTTOM
 10
0.0
 20
0.0
 30
0.0
  9
$PUCSORGLEFT
 10
0.0
 20
0.0
 30
0.0
  9
$PUCSORGRIGHT
 10
0.0
 20
0.0
 30
0.0
  9
$PUCSORGFRONT
 10
0.0
 20
0.0
 30
0.0
  9
$PUCSORGBACK
 10
0.0
 20
0.0
 30
0.0
  9
$USERI1
 70
     0
  9
$USERI2
 70
     0
  9
$USERI3
 70
     0
  9
$USERI4
 70
     0
  9
$USERI5
 70
     0
  9
$USERR1
 40
0.0
  9
$USERR2
 40
0.0
  9
$USERR3
 40
0.0
  9
$USERR4
 40
0.0
  9
$USERR5
 40
0.0
  9
$WORLDVIEW
 70
     1
  9
$SHADEDGE
 70
     3
  9
$SHADEDIF
 70
    70
  9
$TILEMODE
 70
     1
  9
$MAXACTVP
 70
    64
  9
$PINSBASE
 10
0.0
 20
0.0
 30
0.0
  9
$PLIMCHECK
 70
     0
  9
$PEXTMIN
 10
1.0000000000E+20
 20
1.0000000000E+20
 30
1.0000000000E+20
  9
$PEXTMAX
 10
-1.0000000000E+20
 20
-1.0000000000E+20
 30
-1.0000000000E+20
  9
$PLIMMIN
 10
0.0
 20
0.0
  9
$PLIMMAX
 10
420.0
 20
297.0
  9
$UNITMODE
 70
     0
  9
$VISRETAIN
 70
     1
  9
$PLINEGEN
 70
     0
  9
$PSLTSCALE
 70
     1
  9
$TREEDEPTH
 70
  3020
  9
$CMLSTYLE
  2
Standard
  9
$CMLJUST
 70
     0
  9
$CMLSCALE
 40
20.0
  9
$PROXYGRAPHICS
 70
     1
  9
$MEASUREMENT
 70
     1
  9
$CELWEIGHT
370
    -1
  9
$ENDCAPS
280
     0
  9
$JOINSTYLE
280
     0
  9
$LWDISPLAY
290
     1
  9
$INSUNITS
 70
     4
  9
$HYPERLINKBASE
  1

  9
$STYLESHEET
  1

  9
$XEDIT
290
     1
  9
$CEPSNTYPE
380
     0
  9
$PSTYLEMODE
290
     1
  9
$FINGERPRINTGUID
  2
{55e167be-9a2b-45f5-b3f5-3c6e6a0c6d79}
  9
$VERSIONGUID
  2
{FAEB1C32-E019-11D5-929B-00C0DF256EC4}
  9
$EXTNAMES
290
     1
  9
$PSVPSCALE
 40
0.0
  9
$OLESTARTUP
290
     0
  0
ENDSEC
  0
SECTION
  2
CLASSES
  0
CLASS
  1
ACDBDICTIONARYWDFLT
  2
AcDbDictionaryWithDefault
  3
ObjectDBX Classes
 90
        0
280
     0
281
     0
  0
CLASS
  1
VISUALSTYLE
  2
AcDbVisualStyle
  3
ObjectDBX Classes
 90
     4095
280
     0
281
     0
  0
CLASS
  1
MATERIAL
  2
AcDbMaterial
  3
ObjectDBX Classes
 90
     1153
280
     0
281
     0
  0
CLASS
  1
SCALE
  2
AcDbScale
  3
ObjectDBX Classes
 90
     1153
280
     0
281
     0
  0
CLASS
  1
TABLESTYLE
  2
AcDbTableStyle
  3
ObjectDBX Classes
 90
     4095
280
     0
281
     0
  0
CLASS
  1
MLEADERSTYLE
  2
AcDbMLeaderStyle
  3
ACDB_MLEADERSTYLE_CLASS
 90
     4095
280
     0
281
     0
  0
CLASS
  1
SUN
  2
AcDbSun
  3
SCENEOE
 90
     1153
280
     0
281
     0
  0
CLASS
  1
ACDBPLACEHOLDER
  2
AcDbPlaceHolder
  3
ObjectDBX Classes
 90
        0
280
     0
281
     0
  0
CLASS
  1
LAYOUT
  2
AcDbLayout
  3
ObjectDBX Classes
 90
        0
280
     0
281
     0
  0
ENDSEC
  0
SECTION
  2
TABLES
  0
TABLE
  2
VPORT
  5
8
330
0
100
AcDbSymbolTable
 70
     1
  0
VPORT
  5
29
330
8
100
AcDbSymbolTableRecord
100
AcDbViewportTableRecord
  2
*Active
 70
     0
 10
0.0
 20
0.0
 11
1.0
 21
1.0
 12
210.0
 22
148.5
 13
0.0
 23
0.0
 14
10.0
 24
10.0
 15
10.0
 25
10.0
 16
0.0
 26
0.0
 36
1.0
 17
0.0
 27
0.0
 37
0.0
 40
297.0
 41
1.4141414141
 42
50.0
 43
0.0
 44
0.0
 50
0.0
 51
0.0
 71
     0
 72
  2000
 73
     1
 74
     3
 75
     0
 76
     0
 77
     0
 78
     0
281
     0
 65
     1
110
0.0
120
0.0
130
0.0
111
1.0
121
0.0
131
0.0
112
0.0
122
1.0
132
0.0
 79
     0
146
0.0
  0
ENDTAB
  0
TABLE
  2
LTYPE
  5
5
330
0
100
AcDbSymbolTable
 70
     6
  0
LTYPE
  5
14
330
5
100
AcDbSymbolTableRecord
100
AcDbLinetypeTableRecord
  2
ByBlock
 70
     0
  3

 72
    65
 73
     0
 40
0.0
  0
LTYPE
  5
15
330
5
100
AcDbSymbolTableRecord
100
AcDbLinetypeTableRecord
  2
ByLayer
 70
     0
  3

 72
    65
 73
     0
 40
0.0
  0
LTYPE
  5
16
330
5
100
AcDbSymbolTableRecord
100
AcDbLinetypeTableRecord
  2
Continuous
 70
     0
  3
Solid line
 72
    65
 73
     0
 40
0.0
  0
LTYPE
  5
5E
330
5
100
AcDbSymbolTableRecord
100
AcDbLinetypeTableRecord
  2
HIDDEN
 70
     0
  3
Hidden __ __ __ __ __ __ __ __ __ __ __ __ __ __
 72
    65
 73
     2
 40
1.905
 49
1.27
 74
     0
 49
-0.635
 74
     0
  0
LTYPE
  5
5F
330
5
100
AcDbSymbolTableRecord
100
AcDbLinetypeTableRecord
  2
PHANTOM
 70
     0
  3
Phantom ______  __  __  ______  __  __  ______
 72
    65
 73
     6
 40
12.7
 49
6.35
 74
     0
 49
-1.27
 74
     0
 49
1.27
 74
     0
 49
-1.27
 74
     0
 49
1.27
 74
     0
 49
-1.27
 74
     0
  0
LTYPE
  5
60
330
5
100
AcDbSymbolTableRecord
100
AcDbLinetypeTableRecord
  2
CENTER
 70
     0
  3
Center ____ _ ____ _ ____ _ ____ _ ____ _ ____
 72
    65
 73
     4
 40
10.16
 49
6.35
 74
     0
 49
-1.27
 74
     0
 49
1.27
 74
     0
 49
-1.27
 74
     0
  0
LTYPE
  5
61
330
5
100
AcDbSymbolTableRecord
100
AcDbLinetypeTableRecord
  2
CENTERX2
 70
     0
  3
Center (2x) ________  __  ________  __  _____
 72
    65
 73
     4
 40
20.32
 49
12.7
 74
     0
 49
-2.54
 74
     0
 49
2.54
 74
     0
 49
-2.54
 74
     0
  0
LTYPE
  5
62
330
5
100
AcDbSymbolTableRecord
100
AcDbLinetypeTableRecord
  2
DOT2
 70
     0
  3
Dot (.5x) ........................................
 72
    65
 73
     2
 40
0.635
 49
0.0
 74
     0
 49
-0.635
 74
     0
  0
ENDTAB
  0
TABLE
  2
LAYER
  5
2
330
0
100
AcDbSymbolTable
 70
     3
  0
LAYER
  5
10
330
2
100
AcDbSymbolTableRecord
100
AcDbLayerTableRecord
  2
0
 70
     0
 62
     7
  6
Continuous
370
    -3
390
F
  0
LAYER
  5
63
330
2
100
AcDbSymbolTableRecord
100
AcDbLayerTableRecord
  2
ВОДЯНОЙ_ЗНАК
 70
     0
 62
    11
  6
Continuous
370
    -3
390
F
  0
LAYER
  5
64
330
2
100
AcDbSymbolTableRecord
100
AcDbLayerTableRecord
  2
ОСНОВНОЙ
 70
     0
 62
     7
  6
Continuous
370
    -3
390
F
  0
ENDTAB
  0
TABLE
  2
STYLE
  5
3
330
0
100
AcDbSymbolTable
 70
     1
  0
STYLE
  5
11
330
3
100
AcDbSymbolTableRecord
100
AcDbTextStyleTableRecord
  2
Standard
 70
     0
 40
0.0
 41
1.0
 50
0.0
 71
     0
 42
5.0
  3
txt
  4

  0
ENDTAB
  0
TABLE
  2
VIEW
  5
6
330
0
100
AcDbSymbolTable
 70
     0
  0
ENDTAB
  0
TABLE
  2
UCS
  5
7
330
0
100
AcDbSymbolTable
 70
     0
  0
ENDTAB
  0
TABLE
  2
APPID
  5
9
330
0
100
AcDbSymbolTable
 70
     1
  0
APPID
  5
12
330
9
100
AcDbSymbolTableRecord
100
AcDbRegAppTableRecord
  2
ACAD
 70
     0
  0
ENDTAB
  0
TABLE
  2
DIMSTYLE
  5
A
330
0
100
AcDbSymbolTable
 70
     1
100
AcDbDimStyleTable
  0
DIMSTYLE
105
27
330
A
100
AcDbSymbolTableRecord
100
AcDbDimStyleTableRecord
  2
ISO-25
 70
     0
 41
2.5
 42
0.625
 43
3.75
 44
1.25
 73
     0
 74
     0
 77
     1
 78
     8
140
2.5
141
2.5
143
0.0393700787
147
0.625
171
     3
172
     1
178
     0
271
     2
272
     2
274
     3
278
    44
283
     0
284
     8
340
11
  0
ENDTAB
  0
TABLE
  2
BLOCK_RECORD
  5
1
330
0
100
AcDbSymbolTable
 70
     1
  0
BLOCK_RECORD
  5
1F
330
1
100
AcDbSymbolTableRecord
100
AcDbBlockTableRecord
  2
*Model_Space
340
22
  0
BLOCK_RECORD
  5
1B
330
1
100
AcDbSymbolTableRecord
100
AcDbBlockTableRecord
  2
*Paper_Space
340
1E
  0
BLOCK_RECORD
  5
23
330
1
100
AcDbSymbolTableRecord
100
AcDbBlockTableRecord
  2
*Paper_Space0
340
26
  0
ENDTAB
  0
ENDSEC
  0
SECTION
  2
BLOCKS
  0
BLOCK
  5
20
330
1F
100
AcDbEntity
  8
0
100
AcDbBlockBegin
  2
*Model_Space
 70
     0
 10
0.0
 20
0.0
 30
0.0
  3
*Model_Space
  1

  0
ENDBLK
  5
21
330
1F
100
AcDbEntity
  8
0
100
AcDbBlockEnd
  0
BLOCK
  5
1C
330
1B
100
AcDbEntity
 67
     1
  8
0
100
AcDbBlockBegin
  2
*Paper_Space
 70
     0
 10
0.0
 20
0.0
 30
0.0
  3
*Paper_Space
  1

  0
ENDBLK
  5
1D
330
1B
100
AcDbEntity
 67
     1
  8
0
100
AcDbBlockEnd
  0
BLOCK
  5
24
330
23
100
AcDbEntity
  8
0
100
AcDbBlockBegin
  2
*Paper_Space0
 70
     0
 10
0.0
 20
0.0
 30
0.0
  3
*Paper_Space0
  1

  0
ENDBLK
  5
25
330
23
100
AcDbEntity
  8
0
100
AcDbBlockEnd
  0
ENDSEC
  0
SECTION
  2
ENTITIES
  0
CIRCLE
  5
65
330
1F
100
AcDbEntity
  8
0
  6
Continuous
 62
     7
100
AcDbCircle
 10
1293.1385289542
 20
151.3164911569
 30
0.0
 40
3.825687437599299
  0
CIRCLE
  5
66
330
1F
100
AcDbEntity
  8
0
  6
Continuous
 62
     7
100
AcDbCircle
 10
1293.1385289542
 20
151.3164911569
 30
0.0
 40
3.132785809343886
  0
ARC
  5
67
330
1F
100
AcDbEntity
  8
0
  6
Continuous
 62
     7
100
AcDbCircle
 10
1299.5427305102
 20
151.3164911569
 30
0.0
 40
4.154201555956536
100
AcDbArc
 50
164.0367205383
 51
195.9632794617
  0
ARC
  5
68
330
1F
100
AcDbEntity
  8
0
  6
Continuous
 62
     7
100
AcDbCircle
 10
1295.2602911935
 20
152.5414911569
 30
0.0
 40
0.3000000000005113
100
AcDbArc
 50
344.0367205383
 51
75.9632794618
  0
ARC
  5
69
330
1F
100
AcDbEntity
  8
0
  6
Continuous
 62
     7
100
AcDbCircle
 10
1296.3406297322
 20
156.8626923953
 30
0.0
 40
4.154201555956321
100
AcDbArc
 50
224.0367205383
 51
255.9632794618
  0
ARC
  5
6A
330
1F
100
AcDbEntity
  8
0
  6
Continuous
 62
     7
100
AcDbCircle
 10
1293.1385289542
 20
153.7664911569
 30
0.0
 40
0.3000000000006569
100
AcDbArc
 50
44.0367205382
 51
135.9632794618
  0
ARC
  5
6B
330
1F
100
AcDbEntity
  8
0
  6
Continuous
 62
     7
100
AcDbCircle
 10
1289.9364281763
 20
156.8626923953
 30
0.0
 40
4.154201555956258
100
AcDbArc
 50
284.0367205383
 51
315.9632794617
  0
ARC
  5
6C
330
1F
100
AcDbEntity
  8
0
  6
Continuous
 62
     7
100
AcDbCircle
 10
1291.016766715
 20
152.5414911569
 30
0.0
 40
0.300000000000594
100
AcDbArc
 50
104.0367205382
 51
195.9632794618
  0
ARC
  5
6D
330
1F
100
AcDbEntity
  8
0
  6
Continuous
 62
     7
100
AcDbCircle
 10
1286.7343273983
 20
151.3164911569
 30
0.0
 40
4.154201555956567
100
AcDbArc
 50
344.0367205383
 51
15.9632794618
  0
ARC
  5
6E
330
1F
100
AcDbEntity
  8
0
  6
Continuous
 62
     7
100
AcDbCircle
 10
1291.016766715
 20
150.0914911569
 30
0.0
 40
0.3000000000005388
100
AcDbArc
 50
164.0367205383
 51
255.9632794618
  0
ARC
  5
6F
330
1F
100
AcDbEntity
  8
0
  6
Continuous
 62
     7
100
AcDbCircle
 10
1289.9364281763
 20
145.7702899185
 30
0.0
 40
4.154201555956321
100
AcDbArc
 50
44.0367205383
 51
75.9632794618
  0
ARC
  5
70
330
1F
100
AcDbEntity
  8
0
  6
Continuous
 62
     7
100
AcDbCircle
 10
1293.1385289542
 20
148.8664911569
 30
0.0
 40
0.2999999999999097
100
AcDbArc
 50
224.0367205383
 51
315.9632794617
  0
ARC
  5
71
330
1F
100
AcDbEntity
  8
0
  6
Continuous
 62
     7
100
AcDbCircle
 10
1296.3406297322
 20
145.7702899185
 30
0.0
 40
4.154201555956382
100
AcDbArc
 50
104.0367205383
 51
135.9632794617
  0
ARC
  5
72
330
1F
100
AcDbEntity
  8
0
  6
Continuous
 62
     7
100
AcDbCircle
 10
1295.2602911935
 20
150.0914911569
 30
0.0
 40
0.3000000000004837
100
AcDbArc
 50
284.0367205382
 51
15.9632794618
  0
CIRCLE
  5
73
330
1F
100
AcDbEntity
  8
0
  6
Continuous
 62
     7
100
AcDbCircle
 10
1293.1385289542
 20
151.3164911569
 30
0.0
 40
5.092901628255504
  0
CIRCLE
  5
74
330
1F
100
AcDbEntity
  8
0
  6
Continuous
 62
     7
100
AcDbCircle
 10
1293.1385289542
 20
151.3164911569
 30
0.0
 40
5.900000000000091
  0
CIRCLE
  5
75
330
1F
100
AcDbEntity
  8
0
  6
Continuous
 62
     7
100
AcDbCircle
 10
1293.1385289542
 20
101.3164911569
 30
0.0
 40
3.825687437599299
  0
CIRCLE
  5
76
330
1F
100
AcDbEntity
  8
0
  6
Continuous
 62
     7
100
AcDbCircle
 10
1293.1385289542
 20
101.3164911569
 30
0.0
 40
3.132785809343886
  0
ARC
  5
77
330
1F
100
AcDbEntity
  8
0
  6
Continuous
 62
     7
100
AcDbCircle
 10
1299.5427305102
 20
101.3164911569
 30
0.0
 40
4.154201555956317
100
AcDbArc
 50
164.0367205383
 51
195.9632794617
  0
ARC
  5
78
330
1F
100
AcDbEntity
  8
0
  6
Continuous
 62
     7
100
AcDbCircle
 10
1295.2602911935
 20
102.5414911569
 30
0.0
 40
0.3000000000004561
100
AcDbArc
 50
344.0367205382
 51
75.9632794618
  0
ARC
  5
79
330
1F
100
AcDbEntity
  8
0
  6
Continuous
 62
     7
100
AcDbCircle
 10
1296.3406297322
 20
106.8626923953
 30
0.0
 40
4.154201555956321
100
AcDbArc
 50
224.0367205383
 51
255.9632794618
  0
ARC
  5
7A
330
1F
100
AcDbEntity
  8
0
  6
Continuous
 62
     7
100
AcDbCircle
 10
1293.1385289542
 20
103.7664911569
 30
0.0
 40
0.300000000000647
100
AcDbArc
 50
44.0367205382
 51
135.9632794618
  0
ARC
  5
7B
330
1F
100
AcDbEntity
  8
0
  6
Continuous
 62
     7
100
AcDbCircle
 10
1289.9364281763
 20
106.8626923953
 30
0.0
 40
4.154201555956266
100
AcDbArc
 50
284.0367205383
 51
315.9632794617
  0
ARC
  5
7C
330
1F
100
AcDbEntity
  8
0
  6
Continuous
 62
     7
100
AcDbCircle
 10
1291.016766715
 20
102.5414911569
 30
0.0
 40
0.3000000000005802
100
AcDbArc
 50
104.0367205382
 51
195.9632794618
  0
ARC
  5
7D
330
1F
100
AcDbEntity
  8
0
  6
Continuous
 62
     7
100
AcDbCircle
 10
1286.7343273983
 20
101.3164911569
 30
0.0
 40
4.154201555956493
100
AcDbArc
 50
344.0367205383
 51
15.9632794618
  0
ARC
  5
7E
330
1F
100
AcDbEntity
  8
0
  6
Continuous
 62
     7
100
AcDbCircle
 10
1291.016766715
 20
100.0914911569
 30
0.0
 40
0.3000000000005634
100
AcDbArc
 50
164.0367205383
 51
255.9632794618
  0
ARC
  5
7F
330
1F
100
AcDbEntity
  8
0
  6
Continuous
 62
     7
100
AcDbCircle
 10
1289.9364281763
 20
95.7702899185
 30
0.0
 40
4.154201555956246
100
AcDbArc
 50
44.0367205383
 51
75.9632794618
  0
ARC
  5
80
330
1F
100
AcDbEntity
  8
0
  6
Continuous
 62
     7
100
AcDbCircle
 10
1293.1385289542
 20
98.8664911569
 30
0.0
 40
0.3000000000000336
100
AcDbArc
 50
224.0367205383
 51
315.9632794618
  0
ARC
  5
81
330
1F
100
AcDbEntity
  8
0
  6
Continuous
 62
     7
100
AcDbCircle
 10
1296.3406297322
 20
95.7702899185
 30
0.0
 40
4.154201555956266
100
AcDbArc
 50
104.0367205382
 51
135.9632794617
  0
ARC
  5
82
330
1F
100
AcDbEntity
  8
0
  6
Continuous
 62
     7
100
AcDbCircle
 10
1295.2602911935
 20
100.0914911569
 30
0.0
 40
0.3000000000005251
100
AcDbArc
 50
284.0367205382
 51
15.9632794618
  0
CIRCLE
  5
83
330
1F
100
AcDbEntity
  8
0
  6
Continuous
 62
     7
100
AcDbCircle
 10
1293.1385289542
 20
101.3164911569
 30
0.0
 40
5.092901628255504
  0
CIRCLE
  5
84
330
1F
100
AcDbEntity
  8
0
  6
Continuous
 62
     7
100
AcDbCircle
 10
1293.1385289542
 20
101.3164911569
 30
0.0
 40
5.900000000000091
  0
CIRCLE
  5
85
330
1F
100
AcDbEntity
  8
0
  6
Continuous
 62
     7
100
AcDbCircle
 10
716.6385289542
 20
101.3164911569
 30
0.0
 40
3.825687437599085
  0
CIRCLE
  5
86
330
1F
100
AcDbEntity
  8
0
  6
Continuous
 62
     7
100
AcDbCircle
 10
716.6385289542
 20
101.3164911569
 30
0.0
 40
3.132785809343599
  0
ARC
  5
87
330
1F
100
AcDbEntity
  8
0
  6
Continuous
 62
     7
100
AcDbCircle
 10
719.2576572246
 20
107.160630501
 30
0.0
 40
4.154201555956274
100
AcDbArc
 50
229.896553102
 51
261.8231120255
  0
ARC
  5
88
330
1F
100
AcDbEntity
  8
0
  6
Continuous
 62
     7
100
AcDbCircle
 10
716.3883957848
 20
103.7536890146
 30
0.0
 40
0.3000000000004759
100
AcDbArc
 50
49.896553102
 51
141.8231120255
  0
ARC
  5
89
330
1F
100
AcDbEntity
  8
0
  6
Continuous
 62
     7
100
AcDbCircle
 10
712.8869199542
 20
106.5067924468
 30
0.0
 40
4.154201555956372
100
AcDbArc
 50
289.896553102
 51
321.8231120255
  0
ARC
  5
8A
330
1F
100
AcDbEntity
  8
0
  6
Continuous
 62
     7
100
AcDbCircle
 10
714.4027871107
 20
102.3184684067
 30
0.0
 40
0.3000000000004773
100
AcDbArc
 50
109.896553102
 51
201.8231120256
  0
ARC
  5
8B
330
1F
100
AcDbEntity
  8
0
  6
Continuous
 62
     7
100
AcDbCircle
 10
710.2677916838
 20
100.6626531028
 30
0.0
 40
4.154201555956374
100
AcDbArc
 50
349.896553102
 51
21.8231120255
  0
ARC
  5
8C
330
1F
100
AcDbEntity
  8
0
  6
Continuous
 62
     7
100
AcDbCircle
 10
714.6529202801
 20
99.881270549
 30
0.0
 40
0.3000000000007069
100
AcDbArc
 50
169.896553102
 51
261.8231120255
  0
ARC
  5
8D
330
1F
100
AcDbEntity
  8
0
  6
Continuous
 62
     7
100
AcDbCircle
 10
714.0194006839
 20
95.4723518129
 30
0.0
 40
4.154201555956201
100
AcDbArc
 50
49.896553102
 51
81.8231120255
  0
ARC
  5
8E
330
1F
100
AcDbEntity
  8
0
  6
Continuous
 62
     7
100
AcDbCircle
 10
716.8886621236
 20
98.8792932992
 30
0.0
 40
0.3000000000006546
100
AcDbArc
 50
229.8965531021
 51
321.8231120256
  0
ARC
  5
8F
330
1F
100
AcDbEntity
  8
0
  6
Continuous
 62
     7
100
AcDbCircle
 10
720.3901379543
 20
96.126189867
 30
0.0
 40
4.154201555956219
100
AcDbArc
 50
109.8965531021
 51
141.8231120255
  0
ARC
  5
90
330
1F
100
AcDbEntity
  8
0
  6
Continuous
 62
     7
100
AcDbCircle
 10
718.8742707977
 20
100.3145139071
 30
0.0
 40
0.2999999999998455
100
AcDbArc
 50
289.8965531021
 51
21.8231120255
  0
ARC
  5
91
330
1F
100
AcDbEntity
  8
0
  6
Continuous
 62
     7
100
AcDbCircle
 10
723.0092662246
 20
101.9703292111
 30
0.0
 40
4.154201555956374
100
AcDbArc
 50
169.896553102
 51
201.8231120255
  0
ARC
  5
92
330
1F
100
AcDbEntity
  8
0
  6
Continuous
 62
     7
100
AcDbCircle
 10
718.6241376283
 20
102.7517117648
 30
0.0
 40
0.300000000000595
100
AcDbArc
 50
349.896553102
 51
81.8231120255
  0
CIRCLE
  5
93
330
1F
100
AcDbEntity
  8
0
  6
Continuous
 62
     7
100
AcDbCircle
 10
716.6385289542
 20
101.3164911569
 30
0.0
 40
5.092901628255407
  0
CIRCLE
  5
94
330
1F
100
AcDbEntity
  8
0
  6
Continuous
 62
     7
100
AcDbCircle
 10
716.6385289542
 20
101.3164911569
 30
0.0
 40
5.899999999999946
  0
CIRCLE
  5
95
330
1F
100
AcDbEntity
  8
0
  6
Continuous
 62
     7
100
AcDbCircle
 10
716.6385289542
 20
151.3164911569
 30
0.0
 40
3.825687437599131
  0
CIRCLE
  5
96
330
1F
100
AcDbEntity
  8
0
  6
Continuous
 62
     7
100
AcDbCircle
 10
716.6385289542
 20
151.3164911569
 30
0.0
 40
3.132785809343645
  0
ARC
  5
97
330
1F
100
AcDbEntity
  8
0
  6
Continuous
 62
     7
100
AcDbCircle
 10
719.2576572246
 20
157.160630501
 30
0.0
 40
4.154201555956274
100
AcDbArc
 50
229.896553102
 51
261.8231120255
  0
ARC
  5
98
330
1F
100
AcDbEntity
  8
0
  6
Continuous
 62
     7
100
AcDbCircle
 10
716.3883957848
 20
153.7536890146
 30
0.0
 40
0.3000000000004847
100
AcDbArc
 50
49.896553102
 51
141.8231120255
  0
ARC
  5
99
330
1F
100
AcDbEntity
  8
0
  6
Continuous
 62
     7
100
AcDbCircle
 10
712.8869199542
 20
156.5067924468
 30
0.0
 40
4.154201555956381
100
AcDbArc
 50
289.896553102
 51
321.8231120255
  0
ARC
  5
9A
330
1F
100
AcDbEntity
  8
0
  6
Continuous
 62
     7
100
AcDbCircle
 10
714.4027871107
 20
152.3184684067
 30
0.0
 40
0.3000000000005211
100
AcDbArc
 50
109.896553102
 51
201.8231120255
  0
ARC
  5
9B
330
1F
100
AcDbEntity
  8
0
  6
Continuous
 62
     7
100
AcDbCircle
 10
710.2677916838
 20
150.6626531028
 30
0.0
 40
4.154201555956357
100
AcDbArc
 50
349.896553102
 51
21.8231120255
  0
ARC
  5
9C
330
1F
100
AcDbEntity
  8
0
  6
Continuous
 62
     7
100
AcDbCircle
 10
714.6529202801
 20
149.881270549
 30
0.0
 40
0.3000000000007019
100
AcDbArc
 50
169.896553102
 51
261.8231120255
  0
ARC
  5
9D
330
1F
100
AcDbEntity
  8
0
  6
Continuous
 62
     7
100
AcDbCircle
 10
714.0194006839
 20
145.4723518129
 30
0.0
 40
4.154201555956198
100
AcDbArc
 50
49.896553102
 51
81.8231120255
  0
ARC
  5
9E
330
1F
100
AcDbEntity
  8
0
  6
Continuous
 62
     7
100
AcDbCircle
 10
716.8886621236
 20
148.8792932992
 30
0.0
 40
0.3000000000006635
100
AcDbArc
 50
229.8965531021
 51
321.8231120255
  0
ARC
  5
9F
330
1F
100
AcDbEntity
  8
0
  6
Continuous
 62
     7
100
AcDbCircle
 10
720.3901379543
 20
146.126189867
 30
0.0
 40
4.154201555956206
100
AcDbArc
 50
109.8965531021
 51
141.8231120255
  0
ARC
  5
A0
330
1F
100
AcDbEntity
  8
0
  6
Continuous
 62
     7
100
AcDbCircle
 10
718.8742707977
 20
150.3145139071
 30
0.0
 40
0.2999999999998561
100
AcDbArc
 50
289.8965531021
 51
21.8231120255
  0
ARC
  5
A1
330
1F
100
AcDbEntity
  8
0
  6
Continuous
 62
     7
100
AcDbCircle
 10
723.0092662246
 20
151.9703292111
 30
0.0
 40
4.154201555956369
100
AcDbArc
 50
169.896553102
 51
201.8231120255
  0
ARC
  5
A2
330
1F
100
AcDbEntity
  8
0
  6
Continuous
 62
     7
100
AcDbCircle
 10
718.6241376283
 20
152.7517117648
 30
0.0
 40
0.3000000000006
100
AcDbArc
 50
349.896553102
 51
81.8231120255
  0
CIRCLE
  5
A3
330
1F
100
AcDbEntity
  8
0
  6
Continuous
 62
     7
100
AcDbCircle
 10
716.6385289542
 20
151.3164911569
 30
0.0
 40
5.092901628255407
  0
CIRCLE
  5
A4
330
1F
100
AcDbEntity
  8
0
  6
Continuous
 62
     7
100
AcDbCircle
 10
716.6385289542
 20
151.3164911569
 30
0.0
 40
5.899999999999946
  0
LINE
  5
A5
330
1F
100
AcDbEntity
  8
0
  6
Continuous
 62
     7
100
AcDbLine
 10
702.1385289542
 20
158.8164911569
 30
0.0
 11
699.1385289542
 21
155.8164911569
 31
0.0
  0
LINE
  5
A6
330
1F
100
AcDbEntity
  8
0
  6
Continuous
 62
     7
100
AcDbLine
 10
723.6385289542
 20
158.8164911569
 30
0.0
 11
702.1385289542
 21
158.8164911569
 31
0.0
  0
LINE
  5
A7
330
1F
100
AcDbEntity
  8
0
  6
Continuous
 62
     7
100
AcDbLine
 10
726.6385289542
 20
155.8164911569
 30
0.0
 11
723.6385289542
 21
158.8164911569
 31
0.0
  0
LINE
  5
A8
330
1F
100
AcDbEntity
  8
0
  6
Continuous
 62
     7
100
AcDbLine
 10
726.6385289542
 20
96.8164911569
 30
0.0
 11
726.6385289542
 21
155.8164911569
 31
0.0
  0
LINE
  5
A9
330
1F
100
AcDbEntity
  8
0
  6
Continuous
 62
     7
100
AcDbLine
 10
723.6385289542
 20
93.8164911569
 30
0.0
 11
726.6385289542
 21
96.8164911569
 31
0.0
  0
LINE
  5
AA
330
1F
100
AcDbEntity
  8
0
  6
Continuous
 62
     7
100
AcDbLine
 10
694.6385289542
 20
93.8164911569
 30
0.0
 11
723.6385289542
 21
93.8164911569
 31
0.0
  0
LINE
  5
AB
330
1F
100
AcDbEntity
  8
0
  6
Continuous
 62
     7
100
AcDbLine
 10
691.6385289542
 20
96.8164911569
 30
0.0
 11
694.6385289542
 21
93.8164911569
 31
0.0
  0
LINE
  5
AC
330
1F
100
AcDbEntity
  8
0
  6
Continuous
 62
     7
100
AcDbLine
 10
691.6385289542
 20
133.8164911569
 30
0.0
 11
691.6385289542
 21
96.8164911569
 31
0.0
  0
LINE
  5
AD
330
1F
100
AcDbEntity
  8
0
  6
Continuous
 62
     7
100
AcDbLine
 10
691.6385289542
 20
133.8164911569
 30
0.0
 11
696.6385289542
 21
133.8164911569
 31
0.0
  0
LINE
  5
AE
330
1F
100
AcDbEntity
  8
0
  6
Continuous
 62
     7
100
AcDbLine
 10
696.6385289542
 20
133.8164911569
 30
0.0
 11
696.6385289542
 21
126.8164911569
 31
0.0
  0
LINE
  5
AF
330
1F
100
AcDbEntity
  8
0
  6
Continuous
 62
     7
100
AcDbLine
 10
699.1385289542
 20
126.8164911569
 30
0.0
 11
696.6385289542
 21
126.8164911569
 31
0.0
  0
LINE
  5
B0
330
1F
100
AcDbEntity
  8
0
  6
Continuous
 62
     7
100
AcDbLine
 10
699.1385289542
 20
155.8164911569
 30
0.0
 11
699.1385289542
 21
126.8164911569
 31
0.0
  0
ARC
  5
B1
330
1F
100
AcDbEntity
  8
0
  6
Continuous
 62
     7
100
AcDbCircle
 10
719.1385289542
 20
101.3164911569
 30
0.0
 40
3.500000000000114
100
AcDbArc
 50
338.7487561387
 51
21.2512438659
  0
ARC
  5
B2
330
1F
100
AcDbEntity
  8
0
  6
Continuous
 62
     7
100
AcDbCircle
 10
714.1385289542
 20
101.3164911569
 30
0.0
 40
3.499999999999969
100
AcDbArc
 50
158.748755884
 51
201.2512441218
  0
ARC
  5
B3
330
1F
100
AcDbEntity
  8
0
  6
Continuous
 62
     7
100
AcDbCircle
 10
714.1385289542
 20
151.3164911569
 30
0.0
 40
3.499999999999993
100
AcDbArc
 50
158.7487559524
 51
201.2512440526
  0
ARC
  5
B4
330
1F
100
AcDbEntity
  8
0
  6
Continuous
 62
     7
100
AcDbCircle
 10
719.1385289542
 20
151.3164911569
 30
0.0
 40
3.500000000000051
100
AcDbArc
 50
338.748755987
 51
21.2512440106
  0
LINE
  5
B5
330
1F
100
AcDbEntity
  8
0
  6
Continuous
 62
     7
100
AcDbLine
 10
1310.6385289542
 20
126.8164911569
 30
0.0
 11
1313.1385289542
 21
126.8164911569
 31
0.0
  0
LINE
  5
B6
330
1F
100
AcDbEntity
  8
0
  6
Continuous
 62
     7
100
AcDbLine
 10
1313.1385289542
 20
133.8164911569
 30
0.0
 11
1313.1385289542
 21
126.8164911569
 31
0.0
  0
LINE
  5
B7
330
1F
100
AcDbEntity
  8
0
  6
Continuous
 62
     7
100
AcDbLine
 10
1313.1385289542
 20
133.8164911569
 30
0.0
 11
1318.1385289542
 21
133.8164911569
 31
0.0
  0
LINE
  5
B8
330
1F
100
AcDbEntity
  8
0
  6
Continuous
 62
     7
100
AcDbLine
 10
1318.1385289542
 20
133.8164911569
 30
0.0
 11
1318.1385289542
 21
96.8164911569
 31
0.0
  0
LINE
  5
B9
330
1F
100
AcDbEntity
  8
0
  6
Continuous
 62
     7
100
AcDbLine
 10
1318.1385289542
 20
96.8164911569
 30
0.0
 11
1315.1385289542
 21
93.8164911569
 31
0.0
  0
LINE
  5
BA
330
1F
100
AcDbEntity
  8
0
  6
Continuous
 62
     7
100
AcDbLine
 10
1315.1385289542
 20
93.8164911569
 30
0.0
 11
1286.1385289542
 21
93.8164911569
 31
0.0
  0
LINE
  5
BB
330
1F
100
AcDbEntity
  8
0
  6
Continuous
 62
     7
100
AcDbLine
 10
1286.1385289542
 20
93.8164911569
 30
0.0
 11
1283.1385289542
 21
96.8164911569
 31
0.0
  0
LINE
  5
BC
330
1F
100
AcDbEntity
  8
0
  6
Continuous
 62
     7
100
AcDbLine
 10
1283.1385289542
 20
96.8164911569
 30
0.0
 11
1283.1385289542
 21
155.8164911569
 31
0.0
  0
LINE
  5
BD
330
1F
100
AcDbEntity
  8
0
  6
Continuous
 62
     7
100
AcDbLine
 10
1283.1385289542
 20
155.8164911569
 30
0.0
 11
1286.1385289542
 21
158.8164911569
 31
0.0
  0
LINE
  5
BE
330
1F
100
AcDbEntity
  8
0
  6
Continuous
 62
     7
100
AcDbLine
 10
1286.1385289542
 20
158.8164911569
 30
0.0
 11
1307.6385289542
 21
158.8164911569
 31
0.0
  0
LINE
  5
BF
330
1F
100
AcDbEntity
  8
0
  6
Continuous
 62
     7
100
AcDbLine
 10
1307.6385289542
 20
158.8164911569
 30
0.0
 11
1310.6385289542
 21
155.8164911569
 31
0.0
  0
LINE
  5
C0
330
1F
100
AcDbEntity
  8
0
  6
Continuous
 62
     7
100
AcDbLine
 10
1310.6385289542
 20
155.8164911569
 30
0.0
 11
1310.6385289542
 21
126.8164911569
 31
0.0
  0
ARC
  5
C1
330
1F
100
AcDbEntity
  8
0
  6
Continuous
 62
     7
100
AcDbCircle
 10
1290.6385289542
 20
101.3164911569
 30
0.0
 40
3.500000000000116
100
AcDbArc
 50
158.7487556622
 51
201.2512443528
  0
ARC
  5
C2
330
1F
100
AcDbEntity
  8
0
  6
Continuous
 62
     7
100
AcDbCircle
 10
1295.6385289542
 20
101.3164911569
 30
0.0
 40
3.500000000000238
100
AcDbArc
 50
338.7487571355
 51
21.2512429087
  0
ARC
  5
C3
330
1F
100
AcDbEntity
  8
0
  6
Continuous
 62
     7
100
AcDbCircle
 10
1295.6385289542
 20
151.3164911569
 30
0.0
 40
3.500000000000298
100
AcDbArc
 50
338.7487564197
 51
21.2512436062
  0
ARC
  5
C4
330
1F
100
AcDbEntity
  8
0
  6
Continuous
 62
     7
100
AcDbCircle
 10
1290.6385289542
 20
151.3164911569
 30
0.0
 40
3.500000000000297
100
AcDbArc
 50
158.7487560716
 51
201.2512439251
  0
CIRCLE
  5
C5
330
1F
100
AcDbEntity
  8
0
  6
Continuous
 62
     7
100
AcDbCircle
 10
904.8885289542
 20
204.3164911569
 30
0.0
 40
2.599999999999994
  0
CIRCLE
  5
C6
330
1F
100
AcDbEntity
  8
0
  6
Continuous
 62
     7
100
AcDbCircle
 10
704.8885289542
 20
204.3164911569
 30
0.0
 40
2.599999999999994
  0
CIRCLE
  5
C7
330
1F
100
AcDbEntity
  8
0
  6
Continuous
 62
     7
100
AcDbCircle
 10
854.8885289542
 20
204.3164911569
 30
0.0
 40
3.25
  0
CIRCLE
  5
C8
330
1F
100
AcDbEntity
  8
0
  6
Continuous
 62
     7
100
AcDbCircle
 10
1004.8885289542
 20
204.3164911569
 30
0.0
 40
2.599999999999994
  0
CIRCLE
  5
C9
330
1F
100
AcDbEntity
  8
0
  6
Continuous
 62
     7
100
AcDbCircle
 10
1204.8885289542
 20
204.3164911569
 30
0.0
 40
2.599999999999994
  0
CIRCLE
  5
CA
330
1F
100
AcDbEntity
  8
0
  6
Continuous
 62
     7
100
AcDbCircle
 10
1304.8885289542
 20
204.3164911569
 30
0.0
 40
2.599999999999994
  0
LINE
  5
CB
330
1F
100
AcDbEntity
  8
0
  6
Continuous
 62
     7
100
AcDbLine
 10
1232.3885289542
 20
226.4946988941
 30
0.0
 11
1232.3885289542
 21
223.8164911569
 31
0.0
  0
LINE
  5
CC
330
1F
100
AcDbEntity
  8
0
  6
Continuous
 62
     7
100
AcDbLine
 10
1232.3885289542
 20
223.8164911569
 30
0.0
 11
1277.3885289542
 21
223.8164911569
 31
0.0
  0
LINE
  5
CD
330
1F
100
AcDbEntity
  8
0
  6
Continuous
 62
     7
100
AcDbLine
 10
1277.3885289542
 20
223.8164911569
 30
0.0
 11
1277.3885289542
 21
226.4946988941
 31
0.0
  0
LINE
  5
CE
330
1F
100
AcDbEntity
  8
0
  6
Continuous
 62
     7
100
AcDbLine
 10
1277.3885289542
 20
226.4946988941
 30
0.0
 11
1232.3885289542
 21
226.4946988941
 31
0.0
  0
LINE
  5
CF
330
1F
100
AcDbEntity
  8
0
  6
Continuous
 62
     7
100
AcDbLine
 10
1194.3885289542
 20
100.3164911569
 30
0.0
 11
1215.3885289542
 21
100.3164911569
 31
0.0
  0
ARC
  5
D0
330
1F
100
AcDbEntity
  8
0
  6
Continuous
 62
     7
100
AcDbCircle
 10
1215.3885289542
 20
104.3164911569
 30
0.0
 40
4.000000000000028
100
AcDbArc
 50
270.0
 51
90.0
  0
LINE
  5
D1
330
1F
100
AcDbEntity
  8
0
  6
Continuous
 62
     7
100
AcDbLine
 10
1215.3885289542
 20
108.3164911569
 30
0.0
 11
1194.3885289542
 21
108.3164911569
 31
0.0
  0
ARC
  5
D2
330
1F
100
AcDbEntity
  8
0
  6
Continuous
 62
     7
100
AcDbCircle
 10
1194.3885289542
 20
104.3164911569
 30
0.0
 40
4.000000000000014
100
AcDbArc
 50
90.0
 51
270.0
  0
CIRCLE
  5
D3
330
1F
100
AcDbEntity
  8
0
  6
Continuous
 62
     7
100
AcDbCircle
 10
1154.8885289542
 20
204.3164911569
 30
0.0
 40
3.249999999999972
  0
CIRCLE
  5
D4
330
1F
100
AcDbEntity
  8
0
  6
Continuous
 62
     7
100
AcDbCircle
 10
1254.8885289542
 20
204.3164911569
 30
0.0
 40
3.25
  0
CIRCLE
  5
D5
330
1F
100
AcDbEntity
  8
0
  6
Continuous
 62
     7
100
AcDbCircle
 10
1167.3885289542
 20
246.9946988941
 30
0.0
 40
3.249999999999972
  0
CIRCLE
  5
D6
330
1F
100
AcDbEntity
  8
0
  6
Continuous
 62
     7
100
AcDbCircle
 10
1267.3885289542
 20
246.9946988941
 30
0.0
 40
3.249999999999972
  0
LINE
  5
D7
330
1F
100
AcDbEntity
  8
0
  6
Continuous
 62
     7
100
AcDbLine
 10
1244.3885289542
 20
100.3164911569
 30
0.0
 11
1265.3885289542
 21
100.3164911569
 31
0.0
  0
ARC
  5
D8
330
1F
100
AcDbEntity
  8
0
  6
Continuous
 62
     7
100
AcDbCircle
 10
1265.3885289542
 20
104.3164911569
 30
0.0
 40
4.000000000000014
100
AcDbArc
 50
270.0
 51
90.0
  0
LINE
  5
D9
330
1F
100
AcDbEntity
  8
0
  6
Continuous
 62
     7
100
AcDbLine
 10
1265.3885289542
 20
108.3164911569
 30
0.0
 11
1244.3885289542
 21
108.3164911569
 31
0.0
  0
ARC
  5
DA
330
1F
100
AcDbEntity
  8
0
  6
Continuous
 62
     7
100
AcDbCircle
 10
1244.3885289542
 20
104.3164911569
 30
0.0
 40
4.000000000000014
100
AcDbArc
 50
90.0
 51
270.0
  0
LINE
  5
DB
330
1F
100
AcDbEntity
  8
0
  6
Continuous
 62
     7
100
AcDbLine
 10
1282.3885289542
 20
226.4946988941
 30
0.0
 11
1282.3885289542
 21
223.8164911569
 31
0.0
  0
LINE
  5
DC
330
1F
100
AcDbEntity
  8
0
  6
Continuous
 62
     7
100
AcDbLine
 10
1282.3885289542
 20
223.8164911569
 30
0.0
 11
1327.3885289542
 21
223.8164911569
 31
0.0
  0
LINE
  5
DD
330
1F
100
AcDbEntity
  8
0
  6
Continuous
 62
     7
100
AcDbLine
 10
1327.3885289542
 20
223.8164911569
 30
0.0
 11
1327.3885289542
 21
226.4946988941
 31
0.0
  0
LINE
  5
DE
330
1F
100
AcDbEntity
  8
0
  6
Continuous
 62
     7
100
AcDbLine
 10
1327.3885289542
 20
226.4946988941
 30
0.0
 11
1282.3885289542
 21
226.4946988941
 31
0.0
  0
LINE
  5
DF
330
1F
100
AcDbEntity
  8
0
  6
Continuous
 62
     7
100
AcDbLine
 10
1347.6385289542
 20
253.9946988941
 30
0.0
 11
662.1385289542
 21
253.9946988941
 31
0.0
  0
LINE
  5
E0
330
1F
100
AcDbEntity
  8
0
  6
Continuous
 62
     7
100
AcDbLine
 10
1350.6385289542
 20
250.9946988941
 30
0.0
 11
1347.6385289542
 21
253.9946988941
 31
0.0
  0
LINE
  5
E1
330
1F
100
AcDbEntity
  8
0
  6
Continuous
 62
     7
100
AcDbLine
 10
1350.6385289542
 20
194.3164911569
 30
0.0
 11
1350.6385289542
 21
250.9946988941
 31
0.0
  0
LINE
  5
E2
330
1F
100
AcDbEntity
  8
0
  6
Continuous
 62
     7
100
AcDbLine
 10
1347.6385289542
 20
191.3164911569
 30
0.0
 11
1350.6385289542
 21
194.3164911569
 31
0.0
  0
LINE
  5
E3
330
1F
100
AcDbEntity
  8
0
  6
Continuous
 62
     7
100
AcDbLine
 10
1312.1385289542
 20
191.3164911569
 30
0.0
 11
1347.6385289542
 21
191.3164911569
 31
0.0
  0
LINE
  5
E4
330
1F
100
AcDbEntity
  8
0
  6
Continuous
 62
     7
100
AcDbLine
 10
1309.1385289542
 20
188.3164911569
 30
0.0
 11
1312.1385289542
 21
191.3164911569
 31
0.0
  0
LINE
  5
E5
330
1F
100
AcDbEntity
  8
0
  6
Continuous
 62
     7
100
AcDbLine
 10
1309.1385289542
 20
79.3164911569
 30
0.0
 11
1309.1385289542
 21
93.8164911569
 31
0.0
  0
LINE
  5
E6
330
1F
100
AcDbEntity
  8
0
  6
Continuous
 62
     7
100
AcDbLine
 10
1309.1385289542
 20
157.3164911569
 30
0.0
 11
1309.1385289542
 21
188.3164911569
 31
0.0
  0
LINE
  5
E7
330
1F
100
AcDbEntity
  8
0
  6
Continuous
 62
     7
100
AcDbLine
 10
1306.1385289542
 20
76.3164911569
 30
0.0
 11
1309.1385289542
 21
79.3164911569
 31
0.0
  0
LINE
  5
E8
330
1F
100
AcDbEntity
  8
0
  6
Continuous
 62
     7
100
AcDbLine
 10
703.6385289542
 20
76.3164911569
 30
0.0
 11
1306.1385289542
 21
76.3164911569
 31
0.0
  0
LINE
  5
E9
330
1F
100
AcDbEntity
  8
0
  6
Continuous
 62
     7
100
AcDbLine
 10
700.6385289542
 20
79.3164911569
 30
0.0
 11
703.6385289542
 21
76.3164911569
 31
0.0
  0
LINE
  5
EA
330
1F
100
AcDbEntity
  8
0
  6
Continuous
 62
     7
100
AcDbLine
 10
700.6385289542
 20
188.3164911569
 30
0.0
 11
700.6385289542
 21
157.3164911569
 31
0.0
  0
LINE
  5
EB
330
1F
100
AcDbEntity
  8
0
  6
Continuous
 62
     7
100
AcDbLine
 10
700.6385289542
 20
93.8164911569
 30
0.0
 11
700.6385289542
 21
79.3164911569
 31
0.0
  0
LINE
  5
EC
330
1F
100
AcDbEntity
  8
0
  6
Continuous
 62
     7
100
AcDbLine
 10
697.6385289542
 20
191.3164911569
 30
0.0
 11
700.6385289542
 21
188.3164911569
 31
0.0
  0
LINE
  5
ED
330
1F
100
AcDbEntity
  8
0
  6
Continuous
 62
     7
100
AcDbLine
 10
662.1385289542
 20
191.3164911569
 30
0.0
 11
697.6385289542
 21
191.3164911569
 31
0.0
  0
LINE
  5
EE
330
1F
100
AcDbEntity
  8
0
  6
Continuous
 62
     7
100
AcDbLine
 10
659.1385289542
 20
194.3164911569
 30
0.0
 11
662.1385289542
 21
191.3164911569
 31
0.0
  0
LINE
  5
EF
330
1F
100
AcDbEntity
  8
0
  6
Continuous
 62
     7
100
AcDbLine
 10
659.1385289542
 20
250.9946988941
 30
0.0
 11
659.1385289542
 21
194.3164911569
 31
0.0
  0
LINE
  5
F0
330
1F
100
AcDbEntity
  8
0
  6
Continuous
 62
     7
100
AcDbLine
 10
662.1385289542
 20
253.9946988941
 30
0.0
 11
659.1385289542
 21
250.9946988941
 31
0.0
  0
CIRCLE
  5
F1
330
1F
100
AcDbEntity
  8
0
  6
Continuous
 62
     7
100
AcDbCircle
 10
1067.3885289542
 20
246.9946988941
 30
0.0
 40
3.249999999999972
  0
CIRCLE
  5
F2
330
1F
100
AcDbEntity
  8
0
  6
Continuous
 62
     7
100
AcDbCircle
 10
1054.8885289542
 20
204.3164911569
 30
0.0
 40
3.249999999999972
  0
LINE
  5
F3
330
1F
100
AcDbEntity
  8
0
  6
Continuous
 62
     7
100
AcDbLine
 10
1144.3885289542
 20
100.3164911569
 30
0.0
 11
1165.3885289542
 21
100.3164911569
 31
0.0
  0
ARC
  5
F4
330
1F
100
AcDbEntity
  8
0
  6
Continuous
 62
     7
100
AcDbCircle
 10
1165.3885289542
 20
104.3164911569
 30
0.0
 40
4.0
100
AcDbArc
 50
270.0
 51
90.0
  0
LINE
  5
F5
330
1F
100
AcDbEntity
  8
0
  6
Continuous
 62
     7
100
AcDbLine
 10
1165.3885289542
 20
108.3164911569
 30
0.0
 11
1144.3885289542
 21
108.3164911569
 31
0.0
  0
ARC
  5
F6
330
1F
100
AcDbEntity
  8
0
  6
Continuous
 62
     7
100
AcDbCircle
 10
1144.3885289542
 20
104.3164911569
 30
0.0
 40
4.000000000000014
100
AcDbArc
 50
90.0
 51
270.0
  0
LINE
  5
F7
330
1F
100
AcDbEntity
  8
0
  6
Continuous
 62
     7
100
AcDbLine
 10
1094.3885289542
 20
100.3164911569
 30
0.0
 11
1115.3885289542
 21
100.3164911569
 31
0.0
  0
ARC
  5
F8
330
1F
100
AcDbEntity
  8
0
  6
Continuous
 62
     7
100
AcDbCircle
 10
1115.3885289542
 20
104.3164911569
 30
0.0
 40
4.000000000000028
100
AcDbArc
 50
270.0
 51
90.0
  0
LINE
  5
F9
330
1F
100
AcDbEntity
  8
0
  6
Continuous
 62
     7
100
AcDbLine
 10
1115.3885289542
 20
108.3164911569
 30
0.0
 11
1094.3885289542
 21
108.3164911569
 31
0.0
  0
ARC
  5
FA
330
1F
100
AcDbEntity
  8
0
  6
Continuous
 62
     7
100
AcDbCircle
 10
1094.3885289542
 20
104.3164911569
 30
0.0
 40
4.000000000000014
100
AcDbArc
 50
90.0
 51
270.0
  0
LINE
  5
FB
330
1F
100
AcDbEntity
  8
0
  6
Continuous
 62
     7
100
AcDbLine
 10
1044.3885289542
 20
100.3164911569
 30
0.0
 11
1065.3885289542
 21
100.3164911569
 31
0.0
  0
ARC
  5
FC
330
1F
100
AcDbEntity
  8
0
  6
Continuous
 62
     7
100
AcDbCircle
 10
1065.3885289542
 20
104.3164911569
 30
0.0
 40
4.0
100
AcDbArc
 50
270.0
 51
90.0
  0
LINE
  5
FD
330
1F
100
AcDbEntity
  8
0
  6
Continuous
 62
     7
100
AcDbLine
 10
1065.3885289542
 20
108.3164911569
 30
0.0
 11
1044.3885289542
 21
108.3164911569
 31
0.0
  0
ARC
  5
FE
330
1F
100
AcDbEntity
  8
0
  6
Continuous
 62
     7
100
AcDbCircle
 10
1044.3885289542
 20
104.3164911569
 30
0.0
 40
4.000000000000028
100
AcDbArc
 50
90.0
 51
270.0
  0
LINE
  5
FF
330
1F
100
AcDbEntity
  8
0
  6
Continuous
 62
     7
100
AcDbLine
 10
994.3885289542
 20
100.3164911569
 30
0.0
 11
1015.3885289542
 21
100.3164911569
 31
0.0
  0
ARC
  5
100
330
1F
100
AcDbEntity
  8
0
  6
Continuous
 62
     7
100
AcDbCircle
 10
1015.3885289542
 20
104.3164911569
 30
0.0
 40
4.000000000000014
100
AcDbArc
 50
270.0
 51
90.0
  0
LINE
  5
101
330
1F
100
AcDbEntity
  8
0
  6
Continuous
 62
     7
100
AcDbLine
 10
1015.3885289542
 20
108.3164911569
 30
0.0
 11
994.3885289542
 21
108.3164911569
 31
0.0
  0
ARC
  5
102
330
1F
100
AcDbEntity
  8
0
  6
Continuous
 62
     7
100
AcDbCircle
 10
994.3885289542
 20
104.3164911569
 30
0.0
 40
4.0
100
AcDbArc
 50
90.0
 51
270.0
  0
LINE
  5
103
330
1F
100
AcDbEntity
  8
0
  6
Continuous
 62
     7
100
AcDbLine
 10
944.3885289542
 20
100.3164911569
 30
0.0
 11
965.3885289542
 21
100.3164911569
 31
0.0
  0
ARC
  5
104
330
1F
100
AcDbEntity
  8
0
  6
Continuous
 62
     7
100
AcDbCircle
 10
965.3885289542
 20
104.3164911569
 30
0.0
 40
4.000000000000028
100
AcDbArc
 50
270.0
 51
90.0
  0
LINE
  5
105
330
1F
100
AcDbEntity
  8
0
  6
Continuous
 62
     7
100
AcDbLine
 10
965.3885289542
 20
108.3164911569
 30
0.0
 11
944.3885289542
 21
108.3164911569
 31
0.0
  0
ARC
  5
106
330
1F
100
AcDbEntity
  8
0
  6
Continuous
 62
     7
100
AcDbCircle
 10
944.3885289542
 20
104.3164911569
 30
0.0
 40
4.0
100
AcDbArc
 50
90.0
 51
270.0
  0
LINE
  5
107
330
1F
100
AcDbEntity
  8
0
  6
Continuous
 62
     7
100
AcDbLine
 10
894.3885289542
 20
100.3164911569
 30
0.0
 11
915.3885289542
 21
100.3164911569
 31
0.0
  0
ARC
  5
108
330
1F
100
AcDbEntity
  8
0
  6
Continuous
 62
     7
100
AcDbCircle
 10
915.3885289542
 20
104.3164911569
 30
0.0
 40
4.000000000000014
100
AcDbArc
 50
270.0
 51
90.0
  0
LINE
  5
109
330
1F
100
AcDbEntity
  8
0
  6
Continuous
 62
     7
100
AcDbLine
 10
915.3885289542
 20
108.3164911569
 30
0.0
 11
894.3885289542
 21
108.3164911569
 31
0.0
  0
ARC
  5
10A
330
1F
100
AcDbEntity
  8
0
  6
Continuous
 62
     7
100
AcDbCircle
 10
894.3885289542
 20
104.3164911569
 30
0.0
 40
4.000000000000014
100
AcDbArc
 50
90.0
 51
270.0
  0
LINE
  5
10B
330
1F
100
AcDbEntity
  8
0
  6
Continuous
 62
     7
100
AcDbLine
 10
844.3885289542
 20
100.3164911569
 30
0.0
 11
865.3885289542
 21
100.3164911569
 31
0.0
  0
ARC
  5
10C
330
1F
100
AcDbEntity
  8
0
  6
Continuous
 62
     7
100
AcDbCircle
 10
865.3885289542
 20
104.3164911569
 30
0.0
 40
4.000000000000028
100
AcDbArc
 50
270.0
 51
90.0
  0
LINE
  5
10D
330
1F
100
AcDbEntity
  8
0
  6
Continuous
 62
     7
100
AcDbLine
 10
865.3885289542
 20
108.3164911569
 30
0.0
 11
844.3885289542
 21
108.3164911569
 31
0.0
  0
ARC
  5
10E
330
1F
100
AcDbEntity
  8
0
  6
Continuous
 62
     7
100
AcDbCircle
 10
844.3885289542
 20
104.3164911569
 30
0.0
 40
4.000000000000014
100
AcDbArc
 50
90.0
 51
270.0
  0
LINE
  5
10F
330
1F
100
AcDbEntity
  8
0
  6
Continuous
 62
     7
100
AcDbLine
 10
794.3885289542
 20
100.3164911569
 30
0.0
 11
815.3885289542
 21
100.3164911569
 31
0.0
  0
ARC
  5
110
330
1F
100
AcDbEntity
  8
0
  6
Continuous
 62
     7
100
AcDbCircle
 10
815.3885289542
 20
104.3164911569
 30
0.0
 40
4.0
100
AcDbArc
 50
270.0
 51
90.0
  0
LINE
  5
111
330
1F
100
AcDbEntity
  8
0
  6
Continuous
 62
     7
100
AcDbLine
 10
815.3885289542
 20
108.3164911569
 30
0.0
 11
794.3885289542
 21
108.3164911569
 31
0.0
  0
ARC
  5
112
330
1F
100
AcDbEntity
  8
0
  6
Continuous
 62
     7
100
AcDbCircle
 10
794.3885289542
 20
104.3164911569
 30
0.0
 40
4.000000000000028
100
AcDbArc
 50
90.0
 51
270.0
  0
LINE
  5
113
330
1F
100
AcDbEntity
  8
0
  6
Continuous
 62
     7
100
AcDbLine
 10
744.3885289542
 20
100.3164911569
 30
0.0
 11
765.3885289542
 21
100.3164911569
 31
0.0
  0
ARC
  5
114
330
1F
100
AcDbEntity
  8
0
  6
Continuous
 62
     7
100
AcDbCircle
 10
765.3885289542
 20
104.3164911569
 30
0.0
 40
4.0
100
AcDbArc
 50
270.0
 51
90.0
  0
LINE
  5
115
330
1F
100
AcDbEntity
  8
0
  6
Continuous
 62
     7
100
AcDbLine
 10
765.3885289542
 20
108.3164911569
 30
0.0
 11
744.3885289542
 21
108.3164911569
 31
0.0
  0
ARC
  5
116
330
1F
100
AcDbEntity
  8
0
  6
Continuous
 62
     7
100
AcDbCircle
 10
744.3885289542
 20
104.3164911569
 30
0.0
 40
4.000000000000014
100
AcDbArc
 50
90.0
 51
270.0
  0
LINE
  5
117
330
1F
100
AcDbEntity
  8
0
  6
Continuous
 62
     7
100
AcDbLine
 10
1244.3885289542
 20
137.8164911569
 30
0.0
 11
1265.3885289542
 21
137.8164911569
 31
0.0
  0
ARC
  5
118
330
1F
100
AcDbEntity
  8
0
  6
Continuous
 62
     7
100
AcDbCircle
 10
1265.3885289542
 20
141.8164911569
 30
0.0
 40
4.0
100
AcDbArc
 50
270.0
 51
90.0
  0
LINE
  5
119
330
1F
100
AcDbEntity
  8
0
  6
Continuous
 62
     7
100
AcDbLine
 10
1265.3885289542
 20
145.8164911569
 30
0.0
 11
1244.3885289542
 21
145.8164911569
 31
0.0
  0
ARC
  5
11A
330
1F
100
AcDbEntity
  8
0
  6
Continuous
 62
     7
100
AcDbCircle
 10
1244.3885289542
 20
141.8164911569
 30
0.0
 40
4.000000000000028
100
AcDbArc
 50
90.0
 51
270.0
  0
LINE
  5
11B
330
1F
100
AcDbEntity
  8
0
  6
Continuous
 62
     7
100
AcDbLine
 10
1194.3885289542
 20
137.8164911569
 30
0.0
 11
1215.3885289542
 21
137.8164911569
 31
0.0
  0
ARC
  5
11C
330
1F
100
AcDbEntity
  8
0
  6
Continuous
 62
     7
100
AcDbCircle
 10
1215.3885289542
 20
141.8164911569
 30
0.0
 40
4.0
100
AcDbArc
 50
270.0
 51
90.0
  0
LINE
  5
11D
330
1F
100
AcDbEntity
  8
0
  6
Continuous
 62
     7
100
AcDbLine
 10
1215.3885289542
 20
145.8164911569
 30
0.0
 11
1194.3885289542
 21
145.8164911569
 31
0.0
  0
ARC
  5
11E
330
1F
100
AcDbEntity
  8
0
  6
Continuous
 62
     7
100
AcDbCircle
 10
1194.3885289542
 20
141.8164911569
 30
0.0
 40
4.0
100
AcDbArc
 50
90.0
 51
270.0
  0
LINE
  5
11F
330
1F
100
AcDbEntity
  8
0
  6
Continuous
 62
     7
100
AcDbLine
 10
1144.3885289542
 20
137.8164911569
 30
0.0
 11
1165.3885289542
 21
137.8164911569
 31
0.0
  0
ARC
  5
120
330
1F
100
AcDbEntity
  8
0
  6
Continuous
 62
     7
100
AcDbCircle
 10
1165.3885289542
 20
141.8164911569
 30
0.0
 40
4.0
100
AcDbArc
 50
270.0
 51
90.0
  0
LINE
  5
121
330
1F
100
AcDbEntity
  8
0
  6
Continuous
 62
     7
100
AcDbLine
 10
1165.3885289542
 20
145.8164911569
 30
0.0
 11
1144.3885289542
 21
145.8164911569
 31
0.0
  0
ARC
  5
122
330
1F
100
AcDbEntity
  8
0
  6
Continuous
 62
     7
100
AcDbCircle
 10
1144.3885289542
 20
141.8164911569
 30
0.0
 40
4.000000000000028
100
AcDbArc
 50
90.0
 51
270.0
  0
LINE
  5
123
330
1F
100
AcDbEntity
  8
0
  6
Continuous
 62
     7
100
AcDbLine
 10
1094.3885289542
 20
137.8164911569
 30
0.0
 11
1115.3885289542
 21
137.8164911569
 31
0.0
  0
ARC
  5
124
330
1F
100
AcDbEntity
  8
0
  6
Continuous
 62
     7
100
AcDbCircle
 10
1115.3885289542
 20
141.8164911569
 30
0.0
 40
4.0
100
AcDbArc
 50
270.0
 51
90.0
  0
LINE
  5
125
330
1F
100
AcDbEntity
  8
0
  6
Continuous
 62
     7
100
AcDbLine
 10
1115.3885289542
 20
145.8164911569
 30
0.0
 11
1094.3885289542
 21
145.8164911569
 31
0.0
  0
ARC
  5
126
330
1F
100
AcDbEntity
  8
0
  6
Continuous
 62
     7
100
AcDbCircle
 10
1094.3885289542
 20
141.8164911569
 30
0.0
 40
4.0
100
AcDbArc
 50
90.0
 51
270.0
  0
LINE
  5
127
330
1F
100
AcDbEntity
  8
0
  6
Continuous
 62
     7
100
AcDbLine
 10
1044.3885289542
 20
137.8164911569
 30
0.0
 11
1065.3885289542
 21
137.8164911569
 31
0.0
  0
ARC
  5
128
330
1F
100
AcDbEntity
  8
0
  6
Continuous
 62
     7
100
AcDbCircle
 10
1065.3885289542
 20
141.8164911569
 30
0.0
 40
4.0
100
AcDbArc
 50
270.0
 51
90.0
  0
LINE
  5
129
330
1F
100
AcDbEntity
  8
0
  6
Continuous
 62
     7
100
AcDbLine
 10
1065.3885289542
 20
145.8164911569
 30
0.0
 11
1044.3885289542
 21
145.8164911569
 31
0.0
  0
ARC
  5
12A
330
1F
100
AcDbEntity
  8
0
  6
Continuous
 62
     7
100
AcDbCircle
 10
1044.3885289542
 20
141.8164911569
 30
0.0
 40
4.0
100
AcDbArc
 50
90.0
 51
270.0
  0
LINE
  5
12B
330
1F
100
AcDbEntity
  8
0
  6
Continuous
 62
     7
100
AcDbLine
 10
994.3885289542
 20
137.8164911569
 30
0.0
 11
1015.3885289542
 21
137.8164911569
 31
0.0
  0
ARC
  5
12C
330
1F
100
AcDbEntity
  8
0
  6
Continuous
 62
     7
100
AcDbCircle
 10
1015.3885289542
 20
141.8164911569
 30
0.0
 40
4.000000000000028
100
AcDbArc
 50
270.0
 51
90.0
  0
LINE
  5
12D
330
1F
100
AcDbEntity
  8
0
  6
Continuous
 62
     7
100
AcDbLine
 10
1015.3885289542
 20
145.8164911569
 30
0.0
 11
994.3885289542
 21
145.8164911569
 31
0.0
  0
ARC
  5
12E
330
1F
100
AcDbEntity
  8
0
  6
Continuous
 62
     7
100
AcDbCircle
 10
994.3885289542
 20
141.8164911569
 30
0.0
 40
4.0
100
AcDbArc
 50
90.0
 51
270.0
  0
LINE
  5
12F
330
1F
100
AcDbEntity
  8
0
  6
Continuous
 62
     7
100
AcDbLine
 10
944.3885289542
 20
137.8164911569
 30
0.0
 11
965.3885289542
 21
137.8164911569
 31
0.0
  0
ARC
  5
130
330
1F
100
AcDbEntity
  8
0
  6
Continuous
 62
     7
100
AcDbCircle
 10
965.3885289542
 20
141.8164911569
 30
0.0
 40
4.0
100
AcDbArc
 50
270.0
 51
90.0
  0
LINE
  5
131
330
1F
100
AcDbEntity
  8
0
  6
Continuous
 62
     7
100
AcDbLine
 10
965.3885289542
 20
145.8164911569
 30
0.0
 11
944.3885289542
 21
145.8164911569
 31
0.0
  0
ARC
  5
132
330
1F
100
AcDbEntity
  8
0
  6
Continuous
 62
     7
100
AcDbCircle
 10
944.3885289542
 20
141.8164911569
 30
0.0
 40
4.0
100
AcDbArc
 50
90.0
 51
270.0
  0
LINE
  5
133
330
1F
100
AcDbEntity
  8
0
  6
Continuous
 62
     7
100
AcDbLine
 10
894.3885289542
 20
137.8164911569
 30
0.0
 11
915.3885289542
 21
137.8164911569
 31
0.0
  0
ARC
  5
134
330
1F
100
AcDbEntity
  8
0
  6
Continuous
 62
     7
100
AcDbCircle
 10
915.3885289542
 20
141.8164911569
 30
0.0
 40
4.000000000000028
100
AcDbArc
 50
270.0
 51
90.0
  0
LINE
  5
135
330
1F
100
AcDbEntity
  8
0
  6
Continuous
 62
     7
100
AcDbLine
 10
915.3885289542
 20
145.8164911569
 30
0.0
 11
894.3885289542
 21
145.8164911569
 31
0.0
  0
ARC
  5
136
330
1F
100
AcDbEntity
  8
0
  6
Continuous
 62
     7
100
AcDbCircle
 10
894.3885289542
 20
141.8164911569
 30
0.0
 40
4.000000000000028
100
AcDbArc
 50
90.0
 51
270.0
  0
LINE
  5
137
330
1F
100
AcDbEntity
  8
0
  6
Continuous
 62
     7
100
AcDbLine
 10
844.3885289542
 20
137.8164911569
 30
0.0
 11
865.3885289542
 21
137.8164911569
 31
0.0
  0
ARC
  5
138
330
1F
100
AcDbEntity
  8
0
  6
Continuous
 62
     7
100
AcDbCircle
 10
865.3885289542
 20
141.8164911569
 30
0.0
 40
4.0
100
AcDbArc
 50
270.0
 51
90.0
  0
LINE
  5
139
330
1F
100
AcDbEntity
  8
0
  6
Continuous
 62
     7
100
AcDbLine
 10
865.3885289542
 20
145.8164911569
 30
0.0
 11
844.3885289542
 21
145.8164911569
 31
0.0
  0
ARC
  5
13A
330
1F
100
AcDbEntity
  8
0
  6
Continuous
 62
     7
100
AcDbCircle
 10
844.3885289542
 20
141.8164911569
 30
0.0
 40
4.0
100
AcDbArc
 50
90.0
 51
270.0
  0
LINE
  5
13B
330
1F
100
AcDbEntity
  8
0
  6
Continuous
 62
     7
100
AcDbLine
 10
794.3885289542
 20
137.8164911569
 30
0.0
 11
815.3885289542
 21
137.8164911569
 31
0.0
  0
ARC
  5
13C
330
1F
100
AcDbEntity
  8
0
  6
Continuous
 62
     7
100
AcDbCircle
 10
815.3885289542
 20
141.8164911569
 30
0.0
 40
4.0
100
AcDbArc
 50
270.0
 51
90.0
  0
LINE
  5
13D
330
1F
100
AcDbEntity
  8
0
  6
Continuous
 62
     7
100
AcDbLine
 10
815.3885289542
 20
145.8164911569
 30
0.0
 11
794.3885289542
 21
145.8164911569
 31
0.0
  0
ARC
  5
13E
330
1F
100
AcDbEntity
  8
0
  6
Continuous
 62
     7
100
AcDbCircle
 10
794.3885289542
 20
141.8164911569
 30
0.0
 40
4.000000000000028
100
AcDbArc
 50
90.0
 51
270.0
  0
LINE
  5
13F
330
1F
100
AcDbEntity
  8
0
  6
Continuous
 62
     7
100
AcDbLine
 10
744.3885289542
 20
137.8164911569
 30
0.0
 11
765.3885289542
 21
137.8164911569
 31
0.0
  0
ARC
  5
140
330
1F
100
AcDbEntity
  8
0
  6
Continuous
 62
     7
100
AcDbCircle
 10
765.3885289542
 20
141.8164911569
 30
0.0
 40
4.0
100
AcDbArc
 50
270.0
 51
90.0
  0
LINE
  5
141
330
1F
100
AcDbEntity
  8
0
  6
Continuous
 62
     7
100
AcDbLine
 10
765.3885289542
 20
145.8164911569
 30
0.0
 11
744.3885289542
 21
145.8164911569
 31
0.0
  0
ARC
  5
142
330
1F
100
AcDbEntity
  8
0
  6
Continuous
 62
     7
100
AcDbCircle
 10
744.3885289542
 20
141.8164911569
 30
0.0
 40
4.0
100
AcDbArc
 50
90.0
 51
270.0
  0
LINE
  5
143
330
1F
100
AcDbEntity
  8
0
  6
Continuous
 62
     7
100
AcDbLine
 10
1244.3885289542
 20
175.3164911569
 30
0.0
 11
1265.3885289542
 21
175.3164911569
 31
0.0
  0
ARC
  5
144
330
1F
100
AcDbEntity
  8
0
  6
Continuous
 62
     7
100
AcDbCircle
 10
1265.3885289542
 20
179.3164911569
 30
0.0
 40
4.000000000000028
100
AcDbArc
 50
270.0
 51
90.0
  0
LINE
  5
145
330
1F
100
AcDbEntity
  8
0
  6
Continuous
 62
     7
100
AcDbLine
 10
1265.3885289542
 20
183.3164911569
 30
0.0
 11
1244.3885289542
 21
183.3164911569
 31
0.0
  0
ARC
  5
146
330
1F
100
AcDbEntity
  8
0
  6
Continuous
 62
     7
100
AcDbCircle
 10
1244.3885289542
 20
179.3164911569
 30
0.0
 40
4.0
100
AcDbArc
 50
90.0
 51
270.0
  0
LINE
  5
147
330
1F
100
AcDbEntity
  8
0
  6
Continuous
 62
     7
100
AcDbLine
 10
1194.3885289542
 20
175.3164911569
 30
0.0
 11
1215.3885289542
 21
175.3164911569
 31
0.0
  0
ARC
  5
148
330
1F
100
AcDbEntity
  8
0
  6
Continuous
 62
     7
100
AcDbCircle
 10
1215.3885289542
 20
179.3164911569
 30
0.0
 40
4.0
100
AcDbArc
 50
270.0
 51
90.0
  0
LINE
  5
149
330
1F
100
AcDbEntity
  8
0
  6
Continuous
 62
     7
100
AcDbLine
 10
1215.3885289542
 20
183.3164911569
 30
0.0
 11
1194.3885289542
 21
183.3164911569
 31
0.0
  0
ARC
  5
14A
330
1F
100
AcDbEntity
  8
0
  6
Continuous
 62
     7
100
AcDbCircle
 10
1194.3885289542
 20
179.3164911569
 30
0.0
 40
4.0
100
AcDbArc
 50
90.0
 51
270.0
  0
LINE
  5
14B
330
1F
100
AcDbEntity
  8
0
  6
Continuous
 62
     7
100
AcDbLine
 10
1144.3885289542
 20
175.3164911569
 30
0.0
 11
1165.3885289542
 21
175.3164911569
 31
0.0
  0
ARC
  5
14C
330
1F
100
AcDbEntity
  8
0
  6
Continuous
 62
     7
100
AcDbCircle
 10
1165.3885289542
 20
179.3164911569
 30
0.0
 40
4.000000000000028
100
AcDbArc
 50
270.0
 51
90.0
  0
LINE
  5
14D
330
1F
100
AcDbEntity
  8
0
  6
Continuous
 62
     7
100
AcDbLine
 10
1165.3885289542
 20
183.3164911569
 30
0.0
 11
1144.3885289542
 21
183.3164911569
 31
0.0
  0
ARC
  5
14E
330
1F
100
AcDbEntity
  8
0
  6
Continuous
 62
     7
100
AcDbCircle
 10
1144.3885289542
 20
179.3164911569
 30
0.0
 40
4.000000000000028
100
AcDbArc
 50
90.0
 51
270.0
  0
LINE
  5
14F
330
1F
100
AcDbEntity
  8
0
  6
Continuous
 62
     7
100
AcDbLine
 10
1094.3885289542
 20
175.3164911569
 30
0.0
 11
1115.3885289542
 21
175.3164911569
 31
0.0
  0
ARC
  5
150
330
1F
100
AcDbEntity
  8
0
  6
Continuous
 62
     7
100
AcDbCircle
 10
1115.3885289542
 20
179.3164911569
 30
0.0
 40
4.0
100
AcDbArc
 50
270.0
 51
90.0
  0
LINE
  5
151
330
1F
100
AcDbEntity
  8
0
  6
Continuous
 62
     7
100
AcDbLine
 10
1115.3885289542
 20
183.3164911569
 30
0.0
 11
1094.3885289542
 21
183.3164911569
 31
0.0
  0
ARC
  5
152
330
1F
100
AcDbEntity
  8
0
  6
Continuous
 62
     7
100
AcDbCircle
 10
1094.3885289542
 20
179.3164911569
 30
0.0
 40
4.0
100
AcDbArc
 50
90.0
 51
270.0
  0
LINE
  5
153
330
1F
100
AcDbEntity
  8
0
  6
Continuous
 62
     7
100
AcDbLine
 10
1044.3885289542
 20
175.3164911569
 30
0.0
 11
1065.3885289542
 21
175.3164911569
 31
0.0
  0
ARC
  5
154
330
1F
100
AcDbEntity
  8
0
  6
Continuous
 62
     7
100
AcDbCircle
 10
1065.3885289542
 20
179.3164911569
 30
0.0
 40
4.0
100
AcDbArc
 50
270.0
 51
90.0
  0
LINE
  5
155
330
1F
100
AcDbEntity
  8
0
  6
Continuous
 62
     7
100
AcDbLine
 10
1065.3885289542
 20
183.3164911569
 30
0.0
 11
1044.3885289542
 21
183.3164911569
 31
0.0
  0
ARC
  5
156
330
1F
100
AcDbEntity
  8
0
  6
Continuous
 62
     7
100
AcDbCircle
 10
1044.3885289542
 20
179.3164911569
 30
0.0
 40
4.000000000000028
100
AcDbArc
 50
90.0
 51
270.0
  0
LINE
  5
157
330
1F
100
AcDbEntity
  8
0
  6
Continuous
 62
     7
100
AcDbLine
 10
994.3885289542
 20
175.3164911569
 30
0.0
 11
1015.3885289542
 21
175.3164911569
 31
0.0
  0
ARC
  5
158
330
1F
100
AcDbEntity
  8
0
  6
Continuous
 62
     7
100
AcDbCircle
 10
1015.3885289542
 20
179.3164911569
 30
0.0
 40
4.0
100
AcDbArc
 50
270.0
 51
90.0
  0
LINE
  5
159
330
1F
100
AcDbEntity
  8
0
  6
Continuous
 62
     7
100
AcDbLine
 10
1015.3885289542
 20
183.3164911569
 30
0.0
 11
994.3885289542
 21
183.3164911569
 31
0.0
  0
ARC
  5
15A
330
1F
100
AcDbEntity
  8
0
  6
Continuous
 62
     7
100
AcDbCircle
 10
994.3885289542
 20
179.3164911569
 30
0.0
 40
4.0
100
AcDbArc
 50
90.0
 51
270.0
  0
LINE
  5
15B
330
1F
100
AcDbEntity
  8
0
  6
Continuous
 62
     7
100
AcDbLine
 10
944.3885289542
 20
175.3164911569
 30
0.0
 11
965.3885289542
 21
175.3164911569
 31
0.0
  0
ARC
  5
15C
330
1F
100
AcDbEntity
  8
0
  6
Continuous
 62
     7
100
AcDbCircle
 10
965.3885289542
 20
179.3164911569
 30
0.0
 40
4.0
100
AcDbArc
 50
270.0
 51
90.0
  0
LINE
  5
15D
330
1F
100
AcDbEntity
  8
0
  6
Continuous
 62
     7
100
AcDbLine
 10
965.3885289542
 20
183.3164911569
 30
0.0
 11
944.3885289542
 21
183.3164911569
 31
0.0
  0
ARC
  5
15E
330
1F
100
AcDbEntity
  8
0
  6
Continuous
 62
     7
100
AcDbCircle
 10
944.3885289542
 20
179.3164911569
 30
0.0
 40
4.0
100
AcDbArc
 50
90.0
 51
270.0
  0
LINE
  5
15F
330
1F
100
AcDbEntity
  8
0
  6
Continuous
 62
     7
100
AcDbLine
 10
894.3885289542
 20
175.3164911569
 30
0.0
 11
915.3885289542
 21
175.3164911569
 31
0.0
  0
ARC
  5
160
330
1F
100
AcDbEntity
  8
0
  6
Continuous
 62
     7
100
AcDbCircle
 10
915.3885289542
 20
179.3164911569
 30
0.0
 40
4.000000000000028
100
AcDbArc
 50
270.0
 51
90.0
  0
LINE
  5
161
330
1F
100
AcDbEntity
  8
0
  6
Continuous
 62
     7
100
AcDbLine
 10
915.3885289542
 20
183.3164911569
 30
0.0
 11
894.3885289542
 21
183.3164911569
 31
0.0
  0
ARC
  5
162
330
1F
100
AcDbEntity
  8
0
  6
Continuous
 62
     7
100
AcDbCircle
 10
894.3885289542
 20
179.3164911569
 30
0.0
 40
4.0
100
AcDbArc
 50
90.0
 51
270.0
  0
LINE
  5
163
330
1F
100
AcDbEntity
  8
0
  6
Continuous
 62
     7
100
AcDbLine
 10
844.3885289542
 20
175.3164911569
 30
0.0
 11
865.3885289542
 21
175.3164911569
 31
0.0
  0
ARC
  5
164
330
1F
100
AcDbEntity
  8
0
  6
Continuous
 62
     7
100
AcDbCircle
 10
865.3885289542
 20
179.3164911569
 30
0.0
 40
4.0
100
AcDbArc
 50
270.0
 51
90.0
  0
LINE
  5
165
330
1F
100
AcDbEntity
  8
0
  6
Continuous
 62
     7
100
AcDbLine
 10
865.3885289542
 20
183.3164911569
 30
0.0
 11
844.3885289542
 21
183.3164911569
 31
0.0
  0
ARC
  5
166
330
1F
100
AcDbEntity
  8
0
  6
Continuous
 62
     7
100
AcDbCircle
 10
844.3885289542
 20
179.3164911569
 30
0.0
 40
4.0
100
AcDbArc
 50
90.0
 51
270.0
  0
LINE
  5
167
330
1F
100
AcDbEntity
  8
0
  6
Continuous
 62
     7
100
AcDbLine
 10
794.3885289542
 20
175.3164911569
 30
0.0
 11
815.3885289542
 21
175.3164911569
 31
0.0
  0
ARC
  5
168
330
1F
100
AcDbEntity
  8
0
  6
Continuous
 62
     7
100
AcDbCircle
 10
815.3885289542
 20
179.3164911569
 30
0.0
 40
4.000000000000028
100
AcDbArc
 50
270.0
 51
90.0
  0
LINE
  5
169
330
1F
100
AcDbEntity
  8
0
  6
Continuous
 62
     7
100
AcDbLine
 10
815.3885289542
 20
183.3164911569
 30
0.0
 11
794.3885289542
 21
183.3164911569
 31
0.0
  0
ARC
  5
16A
330
1F
100
AcDbEntity
  8
0
  6
Continuous
 62
     7
100
AcDbCircle
 10
794.3885289542
 20
179.3164911569
 30
0.0
 40
4.0
100
AcDbArc
 50
90.0
 51
270.0
  0
LINE
  5
16B
330
1F
100
AcDbEntity
  8
0
  6
Continuous
 62
     7
100
AcDbLine
 10
744.3885289542
 20
175.3164911569
 30
0.0
 11
765.3885289542
 21
175.3164911569
 31
0.0
  0
ARC
  5
16C
330
1F
100
AcDbEntity
  8
0
  6
Continuous
 62
     7
100
AcDbCircle
 10
765.3885289542
 20
179.3164911569
 30
0.0
 40
4.0
100
AcDbArc
 50
270.0
 51
90.0
  0
LINE
  5
16D
330
1F
100
AcDbEntity
  8
0
  6
Continuous
 62
     7
100
AcDbLine
 10
765.3885289542
 20
183.3164911569
 30
0.0
 11
744.3885289542
 21
183.3164911569
 31
0.0
  0
ARC
  5
16E
330
1F
100
AcDbEntity
  8
0
  6
Continuous
 62
     7
100
AcDbCircle
 10
744.3885289542
 20
179.3164911569
 30
0.0
 40
4.0
100
AcDbArc
 50
90.0
 51
270.0
  0
LINE
  5
16F
330
1F
100
AcDbEntity
  8
0
  6
Continuous
 62
     7
100
AcDbLine
 10
1182.3885289542
 20
226.4946988941
 30
0.0
 11
1182.3885289542
 21
223.8164911569
 31
0.0
  0
LINE
  5
170
330
1F
100
AcDbEntity
  8
0
  6
Continuous
 62
     7
100
AcDbLine
 10
1182.3885289542
 20
223.8164911569
 30
0.0
 11
1227.3885289542
 21
223.8164911569
 31
0.0
  0
LINE
  5
171
330
1F
100
AcDbEntity
  8
0
  6
Continuous
 62
     7
100
AcDbLine
 10
1227.3885289542
 20
223.8164911569
 30
0.0
 11
1227.3885289542
 21
226.4946988941
 31
0.0
  0
LINE
  5
172
330
1F
100
AcDbEntity
  8
0
  6
Continuous
 62
     7
100
AcDbLine
 10
1227.3885289542
 20
226.4946988941
 30
0.0
 11
1182.3885289542
 21
226.4946988941
 31
0.0
  0
LINE
  5
173
330
1F
100
AcDbEntity
  8
0
  6
Continuous
 62
     7
100
AcDbLine
 10
1132.3885289542
 20
226.4946988941
 30
0.0
 11
1132.3885289542
 21
223.8164911569
 31
0.0
  0
LINE
  5
174
330
1F
100
AcDbEntity
  8
0
  6
Continuous
 62
     7
100
AcDbLine
 10
1132.3885289542
 20
223.8164911569
 30
0.0
 11
1177.3885289542
 21
223.8164911569
 31
0.0
  0
LINE
  5
175
330
1F
100
AcDbEntity
  8
0
  6
Continuous
 62
     7
100
AcDbLine
 10
1177.3885289542
 20
223.8164911569
 30
0.0
 11
1177.3885289542
 21
226.4946988941
 31
0.0
  0
LINE
  5
176
330
1F
100
AcDbEntity
  8
0
  6
Continuous
 62
     7
100
AcDbLine
 10
1177.3885289542
 20
226.4946988941
 30
0.0
 11
1132.3885289542
 21
226.4946988941
 31
0.0
  0
LINE
  5
177
330
1F
100
AcDbEntity
  8
0
  6
Continuous
 62
     7
100
AcDbLine
 10
1082.3885289542
 20
226.4946988941
 30
0.0
 11
1082.3885289542
 21
223.8164911569
 31
0.0
  0
LINE
  5
178
330
1F
100
AcDbEntity
  8
0
  6
Continuous
 62
     7
100
AcDbLine
 10
1082.3885289542
 20
223.8164911569
 30
0.0
 11
1127.3885289542
 21
223.8164911569
 31
0.0
  0
LINE
  5
179
330
1F
100
AcDbEntity
  8
0
  6
Continuous
 62
     7
100
AcDbLine
 10
1127.3885289542
 20
223.8164911569
 30
0.0
 11
1127.3885289542
 21
226.4946988941
 31
0.0
  0
LINE
  5
17A
330
1F
100
AcDbEntity
  8
0
  6
Continuous
 62
     7
100
AcDbLine
 10
1127.3885289542
 20
226.4946988941
 30
0.0
 11
1082.3885289542
 21
226.4946988941
 31
0.0
  0
LINE
  5
17B
330
1F
100
AcDbEntity
  8
0
  6
Continuous
 62
     7
100
AcDbLine
 10
1032.3885289542
 20
226.4946988941
 30
0.0
 11
1032.3885289542
 21
223.8164911569
 31
0.0
  0
LINE
  5
17C
330
1F
100
AcDbEntity
  8
0
  6
Continuous
 62
     7
100
AcDbLine
 10
1032.3885289542
 20
223.8164911569
 30
0.0
 11
1077.3885289542
 21
223.8164911569
 31
0.0
  0
LINE
  5
17D
330
1F
100
AcDbEntity
  8
0
  6
Continuous
 62
     7
100
AcDbLine
 10
1077.3885289542
 20
223.8164911569
 30
0.0
 11
1077.3885289542
 21
226.4946988941
 31
0.0
  0
LINE
  5
17E
330
1F
100
AcDbEntity
  8
0
  6
Continuous
 62
     7
100
AcDbLine
 10
1077.3885289542
 20
226.4946988941
 30
0.0
 11
1032.3885289542
 21
226.4946988941
 31
0.0
  0
LINE
  5
17F
330
1F
100
AcDbEntity
  8
0
  6
Continuous
 62
     7
100
AcDbLine
 10
982.3885289542
 20
226.4946988941
 30
0.0
 11
982.3885289542
 21
223.8164911569
 31
0.0
  0
LINE
  5
180
330
1F
100
AcDbEntity
  8
0
  6
Continuous
 62
     7
100
AcDbLine
 10
982.3885289542
 20
223.8164911569
 30
0.0
 11
1027.3885289542
 21
223.8164911569
 31
0.0
  0
LINE
  5
181
330
1F
100
AcDbEntity
  8
0
  6
Continuous
 62
     7
100
AcDbLine
 10
1027.3885289542
 20
223.8164911569
 30
0.0
 11
1027.3885289542
 21
226.4946988941
 31
0.0
  0
LINE
  5
182
330
1F
100
AcDbEntity
  8
0
  6
Continuous
 62
     7
100
AcDbLine
 10
1027.3885289542
 20
226.4946988941
 30
0.0
 11
982.3885289542
 21
226.4946988941
 31
0.0
  0
LINE
  5
183
330
1F
100
AcDbEntity
  8
0
  6
Continuous
 62
     7
100
AcDbLine
 10
932.3885289542
 20
226.4946988941
 30
0.0
 11
932.3885289542
 21
223.8164911569
 31
0.0
  0
LINE
  5
184
330
1F
100
AcDbEntity
  8
0
  6
Continuous
 62
     7
100
AcDbLine
 10
932.3885289542
 20
223.8164911569
 30
0.0
 11
977.3885289542
 21
223.8164911569
 31
0.0
  0
LINE
  5
185
330
1F
100
AcDbEntity
  8
0
  6
Continuous
 62
     7
100
AcDbLine
 10
977.3885289542
 20
223.8164911569
 30
0.0
 11
977.3885289542
 21
226.4946988941
 31
0.0
  0
LINE
  5
186
330
1F
100
AcDbEntity
  8
0
  6
Continuous
 62
     7
100
AcDbLine
 10
977.3885289542
 20
226.4946988941
 30
0.0
 11
932.3885289542
 21
226.4946988941
 31
0.0
  0
LINE
  5
187
330
1F
100
AcDbEntity
  8
0
  6
Continuous
 62
     7
100
AcDbLine
 10
882.3885289542
 20
226.4946988941
 30
0.0
 11
882.3885289542
 21
223.8164911569
 31
0.0
  0
LINE
  5
188
330
1F
100
AcDbEntity
  8
0
  6
Continuous
 62
     7
100
AcDbLine
 10
882.3885289542
 20
223.8164911569
 30
0.0
 11
927.3885289542
 21
223.8164911569
 31
0.0
  0
LINE
  5
189
330
1F
100
AcDbEntity
  8
0
  6
Continuous
 62
     7
100
AcDbLine
 10
927.3885289542
 20
223.8164911569
 30
0.0
 11
927.3885289542
 21
226.4946988941
 31
0.0
  0
LINE
  5
18A
330
1F
100
AcDbEntity
  8
0
  6
Continuous
 62
     7
100
AcDbLine
 10
927.3885289542
 20
226.4946988941
 30
0.0
 11
882.3885289542
 21
226.4946988941
 31
0.0
  0
LINE
  5
18B
330
1F
100
AcDbEntity
  8
0
  6
Continuous
 62
     7
100
AcDbLine
 10
832.3885289542
 20
226.4946988941
 30
0.0
 11
832.3885289542
 21
223.8164911569
 31
0.0
  0
LINE
  5
18C
330
1F
100
AcDbEntity
  8
0
  6
Continuous
 62
     7
100
AcDbLine
 10
832.3885289542
 20
223.8164911569
 30
0.0
 11
877.3885289542
 21
223.8164911569
 31
0.0
  0
LINE
  5
18D
330
1F
100
AcDbEntity
  8
0
  6
Continuous
 62
     7
100
AcDbLine
 10
877.3885289542
 20
223.8164911569
 30
0.0
 11
877.3885289542
 21
226.4946988941
 31
0.0
  0
LINE
  5
18E
330
1F
100
AcDbEntity
  8
0
  6
Continuous
 62
     7
100
AcDbLine
 10
877.3885289542
 20
226.4946988941
 30
0.0
 11
832.3885289542
 21
226.4946988941
 31
0.0
  0
LINE
  5
18F
330
1F
100
AcDbEntity
  8
0
  6
Continuous
 62
     7
100
AcDbLine
 10
782.3885289542
 20
226.4946988941
 30
0.0
 11
782.3885289542
 21
223.8164911569
 31
0.0
  0
LINE
  5
190
330
1F
100
AcDbEntity
  8
0
  6
Continuous
 62
     7
100
AcDbLine
 10
782.3885289542
 20
223.8164911569
 30
0.0
 11
827.3885289542
 21
223.8164911569
 31
0.0
  0
LINE
  5
191
330
1F
100
AcDbEntity
  8
0
  6
Continuous
 62
     7
100
AcDbLine
 10
827.3885289542
 20
223.8164911569
 30
0.0
 11
827.3885289542
 21
226.4946988941
 31
0.0
  0
LINE
  5
192
330
1F
100
AcDbEntity
  8
0
  6
Continuous
 62
     7
100
AcDbLine
 10
827.3885289542
 20
226.4946988941
 30
0.0
 11
782.3885289542
 21
226.4946988941
 31
0.0
  0
LINE
  5
193
330
1F
100
AcDbEntity
  8
0
  6
Continuous
 62
     7
100
AcDbLine
 10
732.3885289542
 20
226.4946988941
 30
0.0
 11
732.3885289542
 21
223.8164911569
 31
0.0
  0
LINE
  5
194
330
1F
100
AcDbEntity
  8
0
  6
Continuous
 62
     7
100
AcDbLine
 10
732.3885289542
 20
223.8164911569
 30
0.0
 11
777.3885289542
 21
223.8164911569
 31
0.0
  0
LINE
  5
195
330
1F
100
AcDbEntity
  8
0
  6
Continuous
 62
     7
100
AcDbLine
 10
777.3885289542
 20
223.8164911569
 30
0.0
 11
777.3885289542
 21
226.4946988941
 31
0.0
  0
LINE
  5
196
330
1F
100
AcDbEntity
  8
0
  6
Continuous
 62
     7
100
AcDbLine
 10
777.3885289542
 20
226.4946988941
 30
0.0
 11
732.3885289542
 21
226.4946988941
 31
0.0
  0
LINE
  5
197
330
1F
100
AcDbEntity
  8
0
  6
Continuous
 62
     7
100
AcDbLine
 10
682.3885289542
 20
226.4946988941
 30
0.0
 11
682.3885289542
 21
223.8164911569
 31
0.0
  0
LINE
  5
198
330
1F
100
AcDbEntity
  8
0
  6
Continuous
 62
     7
100
AcDbLine
 10
682.3885289542
 20
223.8164911569
 30
0.0
 11
727.3885289542
 21
223.8164911569
 31
0.0
  0
LINE
  5
199
330
1F
100
AcDbEntity
  8
0
  6
Continuous
 62
     7
100
AcDbLine
 10
727.3885289542
 20
223.8164911569
 30
0.0
 11
727.3885289542
 21
226.4946988941
 31
0.0
  0
LINE
  5
19A
330
1F
100
AcDbEntity
  8
0
  6
Continuous
 62
     7
100
AcDbLine
 10
727.3885289542
 20
226.4946988941
 30
0.0
 11
682.3885289542
 21
226.4946988941
 31
0.0
  0
CIRCLE
  5
19B
330
1F
100
AcDbEntity
  8
0
  6
Continuous
 62
     7
100
AcDbCircle
 10
1104.8885289542
 20
204.3164911569
 30
0.0
 40
2.599999999999994
  0
CIRCLE
  5
19C
330
1F
100
AcDbEntity
  8
0
  6
Continuous
 62
     7
100
AcDbCircle
 10
742.3885289542
 20
246.9946988941
 30
0.0
 40
3.25
  0
CIRCLE
  5
19D
330
1F
100
AcDbEntity
  8
0
  6
Continuous
 62
     7
100
AcDbCircle
 10
842.3885289542
 20
246.9946988941
 30
0.0
 40
3.249999999999943
  0
CIRCLE
  5
19E
330
1F
100
AcDbEntity
  8
0
  6
Continuous
 62
     7
100
AcDbCircle
 10
942.3885289542
 20
246.9946988941
 30
0.0
 40
3.249999999999972
  0
CIRCLE
  5
19F
330
1F
100
AcDbEntity
  8
0
  6
Continuous
 62
     7
100
AcDbCircle
 10
754.8885289542
 20
204.3164911569
 30
0.0
 40
3.25
  0
CIRCLE
  5
1A0
330
1F
100
AcDbEntity
  8
0
  6
Continuous
 62
     7
100
AcDbCircle
 10
954.8885289542
 20
204.3164911569
 30
0.0
 40
3.249999999999972
  0
CIRCLE
  5
1A1
330
1F
100
AcDbEntity
  8
0
  6
Continuous
 62
     7
100
AcDbCircle
 10
804.8885289542
 20
204.3164911569
 30
0.0
 40
2.599999999999994
  0
LINE
  5
1A2
330
1F
100
AcDbEntity
  8
0
  6
Continuous
 62
     7
100
AcDbLine
 10
604.6197547704
 20
157.2164911569
 30
0.0
 11
601.7797621614
 21
157.2164911569
 31
0.0
  0
LINE
  5
1A3
330
1F
100
AcDbEntity
  8
0
  6
Continuous
 62
     7
100
AcDbLine
 10
601.7797621614
 20
145.4164911569
 30
0.0
 11
604.6197547704
 21
145.4164911569
 31
0.0
  0
ARC
  5
1A4
330
1F
100
AcDbEntity
  8
0
  6
Continuous
 62
     7
100
AcDbCircle
 10
601.7797621614
 20
155.7164911569
 30
0.0
 40
1.50000000000002
100
AcDbArc
 50
90.0
 51
152.4879973761
  0
ARC
  5
1A5
330
1F
100
AcDbEntity
  8
0
  6
Continuous
 62
     7
100
AcDbCircle
 10
601.7797621614
 20
146.9164911569
 30
0.0
 40
1.500000000000007
100
AcDbArc
 50
207.5120026239
 51
270.0
  0
LINE
  5
1A6
330
1F
100
AcDbEntity
  8
0
  6
Continuous
 62
     7
100
AcDbLine
 10
600.4493910351
 20
156.4093927852
 30
0.0
 11
599.7893836442
 21
155.1421785945
 31
0.0
  0
LINE
  5
1A7
330
1F
100
AcDbEntity
  8
0
  6
Continuous
 62
     7
100
AcDbLine
 10
599.7893836442
 20
147.4908037193
 30
0.0
 11
600.4493910351
 21
146.2235895287
 31
0.0
  0
ARC
  5
1A8
330
1F
100
AcDbEntity
  8
0
  6
Continuous
 62
     7
100
AcDbCircle
 10
601.1197547704
 20
154.4492769663
 30
0.0
 40
1.50000000000002
100
AcDbArc
 50
152.4879973761
 51
180.0
  0
ARC
  5
1A9
330
1F
100
AcDbEntity
  8
0
  6
Continuous
 62
     7
100
AcDbCircle
 10
601.1197547704
 20
148.1837053476
 30
0.0
 40
1.50000000000002
100
AcDbArc
 50
180.0
 51
207.5120026239
  0
LINE
  5
1AA
330
1F
100
AcDbEntity
  8
0
  6
Continuous
 62
     7
100
AcDbLine
 10
613.3197547704
 20
148.3164911569
 30
0.0
 11
613.8197547704
 21
148.8164911569
 31
0.0
  0
LINE
  5
1AB
330
1F
100
AcDbEntity
  8
0
  6
Continuous
 62
     7
100
AcDbLine
 10
613.8197547704
 20
153.8164911569
 30
0.0
 11
613.3197547704
 21
154.3164911569
 31
0.0
  0
LINE
  5
1AC
330
1F
100
AcDbEntity
  8
0
  6
Continuous
 62
     7
100
AcDbLine
 10
607.6197547704
 20
148.3164911569
 30
0.0
 11
613.3197547704
 21
148.3164911569
 31
0.0
  0
LINE
  5
1AD
330
1F
100
AcDbEntity
  8
0
  6
Continuous
 62
     7
100
AcDbLine
 10
613.3197547704
 20
154.3164911569
 30
0.0
 11
607.6197547704
 21
154.3164911569
 31
0.0
  0
ARC
  5
1AE
330
1F
100
AcDbEntity
  8
0
  6
Continuous
 62
     7
100
AcDbCircle
 10
601.7797621614
 20
105.7164911569
 30
0.0
 40
1.500000000000013
100
AcDbArc
 50
90.0
 51
152.4879973761
  0
ARC
  5
1AF
330
1F
100
AcDbEntity
  8
0
  6
Continuous
 62
     7
100
AcDbCircle
 10
601.7797621614
 20
96.9164911569
 30
0.0
 40
1.50000000000002
100
AcDbArc
 50
207.5120026239
 51
270.0
  0
LINE
  5
1B0
330
1F
100
AcDbEntity
  8
0
  6
Continuous
 62
     7
100
AcDbLine
 10
604.6197547704
 20
107.2164911569
 30
0.0
 11
601.7797621614
 21
107.2164911569
 31
0.0
  0
LINE
  5
1B1
330
1F
100
AcDbEntity
  8
0
  6
Continuous
 62
     7
100
AcDbLine
 10
601.7797621614
 20
95.4164911569
 30
0.0
 11
604.6197547704
 21
95.4164911569
 31
0.0
  0
LINE
  5
1B2
330
1F
100
AcDbEntity
  8
0
  6
Continuous
 62
     7
100
AcDbLine
 10
600.4493910351
 20
106.4093927852
 30
0.0
 11
599.7893836442
 21
105.1421785945
 31
0.0
  0
LINE
  5
1B3
330
1F
100
AcDbEntity
  8
0
  6
Continuous
 62
     7
100
AcDbLine
 10
599.7893836442
 20
97.4908037193
 30
0.0
 11
600.4493910351
 21
96.2235895287
 31
0.0
  0
ARC
  5
1B4
330
1F
100
AcDbEntity
  8
0
  6
Continuous
 62
     7
100
AcDbCircle
 10
601.1197547704
 20
104.4492769663
 30
0.0
 40
1.50000000000002
100
AcDbArc
 50
152.4879973761
 51
180.0
  0
ARC
  5
1B5
330
1F
100
AcDbEntity
  8
0
  6
Continuous
 62
     7
100
AcDbCircle
 10
601.1197547704
 20
98.1837053476
 30
0.0
 40
1.500000000000026
100
AcDbArc
 50
180.0
 51
207.5120026239
  0
LINE
  5
1B6
330
1F
100
AcDbEntity
  8
0
  6
Continuous
 62
     7
100
AcDbLine
 10
607.6197547704
 20
98.3164911569
 30
0.0
 11
613.3197547704
 21
98.3164911569
 31
0.0
  0
LINE
  5
1B7
330
1F
100
AcDbEntity
  8
0
  6
Continuous
 62
     7
100
AcDbLine
 10
613.3197547704
 20
104.3164911569
 30
0.0
 11
607.6197547704
 21
104.3164911569
 31
0.0
  0
LINE
  5
1B8
330
1F
100
AcDbEntity
  8
0
  6
Continuous
 62
     7
100
AcDbLine
 10
613.3197547704
 20
98.3164911569
 30
0.0
 11
613.8197547704
 21
98.8164911569
 31
0.0
  0
LINE
  5
1B9
330
1F
100
AcDbEntity
  8
0
  6
Continuous
 62
     7
100
AcDbLine
 10
613.8197547704
 20
103.8164911569
 30
0.0
 11
613.3197547704
 21
104.3164911569
 31
0.0
  0
LINE
  5
1BA
330
1F
100
AcDbEntity
  8
0
  6
Continuous
 62
     7
100
AcDbLine
 10
599.6197547704
 20
151.3164911569
 30
0.0
 11
599.6197547704
 21
148.1837053476
 31
0.0
  0
LINE
  5
1BB
330
1F
100
AcDbEntity
  8
0
  6
Continuous
 62
     7
100
AcDbLine
 10
599.6197547704
 20
154.4492769663
 30
0.0
 11
599.6197547704
 21
151.3164911569
 31
0.0
  0
LINE
  5
1BC
330
1F
100
AcDbEntity
  8
0
  6
Continuous
 62
     7
100
AcDbLine
 10
613.3197547704
 20
151.3164911569
 30
0.0
 11
613.3197547704
 21
148.3164911569
 31
0.0
  0
LINE
  5
1BD
330
1F
100
AcDbEntity
  8
0
  6
Continuous
 62
     7
100
AcDbLine
 10
613.3197547704
 20
154.3164911569
 30
0.0
 11
613.3197547704
 21
151.3164911569
 31
0.0
  0
LINE
  5
1BE
330
1F
100
AcDbEntity
  8
0
  6
Continuous
 62
     7
100
AcDbLine
 10
613.8197547704
 20
151.3164911569
 30
0.0
 11
613.8197547704
 21
148.8164911569
 31
0.0
  0
LINE
  5
1BF
330
1F
100
AcDbEntity
  8
0
  6
Continuous
 62
     7
100
AcDbLine
 10
613.8197547704
 20
153.8164911569
 30
0.0
 11
613.8197547704
 21
151.3164911569
 31
0.0
  0
LINE
  5
1C0
330
1F
100
AcDbEntity
  8
0
  6
Continuous
 62
     7
100
AcDbLine
 10
599.6197547704
 20
101.3164911569
 30
0.0
 11
599.6197547704
 21
98.1837053476
 31
0.0
  0
LINE
  5
1C1
330
1F
100
AcDbEntity
  8
0
  6
Continuous
 62
     7
100
AcDbLine
 10
599.6197547704
 20
104.4492769663
 30
0.0
 11
599.6197547704
 21
101.3164911569
 31
0.0
  0
LINE
  5
1C2
330
1F
100
AcDbEntity
  8
0
  6
Continuous
 62
     7
100
AcDbLine
 10
613.3197547704
 20
101.3164911569
 30
0.0
 11
613.3197547704
 21
98.3164911569
 31
0.0
  0
LINE
  5
1C3
330
1F
100
AcDbEntity
  8
0
  6
Continuous
 62
     7
100
AcDbLine
 10
613.3197547704
 20
104.3164911569
 30
0.0
 11
613.3197547704
 21
101.3164911569
 31
0.0
  0
LINE
  5
1C4
330
1F
100
AcDbEntity
  8
0
  6
Continuous
 62
     7
100
AcDbLine
 10
613.8197547704
 20
101.3164911569
 30
0.0
 11
613.8197547704
 21
98.8164911569
 31
0.0
  0
LINE
  5
1C5
330
1F
100
AcDbEntity
  8
0
  6
Continuous
 62
     7
100
AcDbLine
 10
613.8197547704
 20
103.8164911569
 30
0.0
 11
613.8197547704
 21
101.3164911569
 31
0.0
  0
LINE
  5
1C6
330
1F
100
AcDbEntity
  8
0
  6
Continuous
 62
     7
100
AcDbLine
 10
604.6197547704
 20
93.8164911569
 30
0.0
 11
606.1197547704
 21
93.8164911569
 31
0.0
  0
LINE
  5
1C7
330
1F
100
AcDbEntity
  8
0
  6
Continuous
 62
     7
100
AcDbLine
 10
604.6197547704
 20
96.8164911569
 30
0.0
 11
604.6197547704
 21
93.8164911569
 31
0.0
  0
LINE
  5
1C8
330
1F
100
AcDbEntity
  8
0
  6
Continuous
 62
     7
100
AcDbLine
 10
604.6197547704
 20
96.8164911569
 30
0.0
 11
606.1197547704
 21
96.8164911569
 31
0.0
  0
LINE
  5
1C9
330
1F
100
AcDbEntity
  8
0
  6
Continuous
 62
     7
100
AcDbLine
 10
606.1197547704
 20
96.8164911569
 30
0.0
 11
606.1197547704
 21
93.8164911569
 31
0.0
  0
LINE
  5
1CA
330
1F
100
AcDbEntity
  8
0
  6
Continuous
 62
     7
100
AcDbLine
 10
604.6197547704
 20
133.8164911569
 30
0.0
 11
606.1197547704
 21
133.8164911569
 31
0.0
  0
LINE
  5
1CB
330
1F
100
AcDbEntity
  8
0
  6
Continuous
 62
     7
100
AcDbLine
 10
604.6197547704
 20
133.8164911569
 30
0.0
 11
604.6197547704
 21
96.8164911569
 31
0.0
  0
LINE
  5
1CC
330
1F
100
AcDbEntity
  8
0
  6
Continuous
 62
     7
100
AcDbLine
 10
606.1197547704
 20
133.8164911569
 30
0.0
 11
606.1197547704
 21
96.8164911569
 31
0.0
  0
LINE
  5
1CD
330
1F
100
AcDbEntity
  8
0
  6
Continuous
 62
     7
100
AcDbLine
 10
604.6197547704
 20
155.8164911569
 30
0.0
 11
606.1197547704
 21
155.8164911569
 31
0.0
  0
LINE
  5
1CE
330
1F
100
AcDbEntity
  8
0
  6
Continuous
 62
     7
100
AcDbLine
 10
604.6197547704
 20
155.8164911569
 30
0.0
 11
604.6197547704
 21
133.8164911569
 31
0.0
  0
LINE
  5
1CF
330
1F
100
AcDbEntity
  8
0
  6
Continuous
 62
     7
100
AcDbLine
 10
606.1197547704
 20
155.8164911569
 30
0.0
 11
606.1197547704
 21
133.8164911569
 31
0.0
  0
LINE
  5
1D0
330
1F
100
AcDbEntity
  8
0
  6
Continuous
 62
     7
100
AcDbLine
 10
604.6197547704
 20
158.8164911569
 30
0.0
 11
606.1197547704
 21
158.8164911569
 31
0.0
  0
LINE
  5
1D1
330
1F
100
AcDbEntity
  8
0
  6
Continuous
 62
     7
100
AcDbLine
 10
604.6197547704
 20
158.8164911569
 30
0.0
 11
604.6197547704
 21
155.8164911569
 31
0.0
  0
LINE
  5
1D2
330
1F
100
AcDbEntity
  8
0
  6
Continuous
 62
     7
100
AcDbLine
 10
606.1197547704
 20
157.3164911569
 30
0.0
 11
606.1197547704
 21
155.8164911569
 31
0.0
  0
LINE
  5
1D3
330
1F
100
AcDbEntity
  8
0
  6
Continuous
 62
     7
100
AcDbLine
 10
607.6197547704
 20
194.3164911569
 30
0.0
 11
606.1197547704
 21
194.3164911569
 31
0.0
  0
LINE
  5
1D4
330
1F
100
AcDbEntity
  8
0
  6
Continuous
 62
     7
100
AcDbLine
 10
607.6197547704
 20
191.3164911569
 30
0.0
 11
606.1197547704
 21
191.3164911569
 31
0.0
  0
LINE
  5
1D5
330
1F
100
AcDbEntity
  8
0
  6
Continuous
 62
     7
100
AcDbLine
 10
607.6197547704
 20
191.3164911569
 30
0.0
 11
607.6197547704
 21
194.3164911569
 31
0.0
  0
LINE
  5
1D6
330
1F
100
AcDbEntity
  8
0
  6
Continuous
 62
     7
100
AcDbLine
 10
606.1197547704
 20
191.3164911569
 30
0.0
 11
606.1197547704
 21
194.3164911569
 31
0.0
  0
LINE
  5
1D7
330
1F
100
AcDbEntity
  8
0
  6
Continuous
 62
     7
100
AcDbLine
 10
607.6197547704
 20
250.9946988941
 30
0.0
 11
606.1197547704
 21
250.9946988941
 31
0.0
  0
LINE
  5
1D8
330
1F
100
AcDbEntity
  8
0
  6
Continuous
 62
     7
100
AcDbLine
 10
607.6197547704
 20
194.3164911569
 30
0.0
 11
607.6197547704
 21
250.9946988941
 31
0.0
  0
LINE
  5
1D9
330
1F
100
AcDbEntity
  8
0
  6
Continuous
 62
     7
100
AcDbLine
 10
606.1197547704
 20
194.3164911569
 30
0.0
 11
606.1197547704
 21
250.9946988941
 31
0.0
  0
LINE
  5
1DA
330
1F
100
AcDbEntity
  8
0
  6
Continuous
 62
     7
100
AcDbLine
 10
607.6197547704
 20
253.9946988941
 30
0.0
 11
606.1197547704
 21
253.9946988941
 31
0.0
  0
LINE
  5
1DB
330
1F
100
AcDbEntity
  8
0
  6
Continuous
 62
     7
100
AcDbLine
 10
607.6197547704
 20
250.9946988941
 30
0.0
 11
607.6197547704
 21
253.9946988941
 31
0.0
  0
LINE
  5
1DC
330
1F
100
AcDbEntity
  8
0
  6
Continuous
 62
     7
100
AcDbLine
 10
606.1197547704
 20
250.9946988941
 30
0.0
 11
606.1197547704
 21
253.9946988941
 31
0.0
  0
LINE
  5
1DD
330
1F
100
AcDbEntity
  8
0
  6
Continuous
 62
     7
100
AcDbLine
 10
607.6197547704
 20
188.3164911569
 30
0.0
 11
606.1197547704
 21
188.3164911569
 31
0.0
  0
LINE
  5
1DE
330
1F
100
AcDbEntity
  8
0
  6
Continuous
 62
     7
100
AcDbLine
 10
607.6197547704
 20
188.3164911569
 30
0.0
 11
607.6197547704
 21
191.3164911569
 31
0.0
  0
LINE
  5
1DF
330
1F
100
AcDbEntity
  8
0
  6
Continuous
 62
     7
100
AcDbLine
 10
606.1197547704
 20
188.3164911569
 30
0.0
 11
606.1197547704
 21
191.3164911569
 31
0.0
  0
LINE
  5
1E0
330
1F
100
AcDbEntity
  8
0
  6
Continuous
 62
     7
100
AcDbLine
 10
607.6197547704
 20
79.3164911569
 30
0.0
 11
606.1197547704
 21
79.3164911569
 31
0.0
  0
LINE
  5
1E1
330
1F
100
AcDbEntity
  8
0
  6
Continuous
 62
     7
100
AcDbLine
 10
607.6197547704
 20
76.3164911569
 30
0.0
 11
606.1197547704
 21
76.3164911569
 31
0.0
  0
LINE
  5
1E2
330
1F
100
AcDbEntity
  8
0
  6
Continuous
 62
     7
100
AcDbLine
 10
607.6197547704
 20
76.3164911569
 30
0.0
 11
607.6197547704
 21
79.3164911569
 31
0.0
  0
LINE
  5
1E3
330
1F
100
AcDbEntity
  8
0
  6
Continuous
 62
     7
100
AcDbLine
 10
606.1197547704
 20
76.3164911569
 30
0.0
 11
606.1197547704
 21
79.3164911569
 31
0.0
  0
LINE
  5
1E4
330
1F
100
AcDbEntity
  8
0
  6
Continuous
 62
     7
100
AcDbLine
 10
607.6197547704
 20
79.3164911569
 30
0.0
 11
607.6197547704
 21
188.3164911569
 31
0.0
  0
LINE
  5
1E5
330
1F
100
AcDbEntity
  8
0
  6
Continuous
 62
     7
100
AcDbLine
 10
606.1197547704
 20
79.3164911569
 30
0.0
 11
606.1197547704
 21
93.8164911569
 31
0.0
  0
LINE
  5
1E6
330
1F
100
AcDbEntity
  8
0
  6
Continuous
 62
     7
100
AcDbLine
 10
606.1197547704
 20
157.3164911569
 30
0.0
 11
606.1197547704
 21
188.3164911569
 31
0.0
  0
LINE
  5
1E7
330
1F
100
AcDbEntity
  8
0
  6
Continuous
 62
     7
100
AcDbLine
 10
601.7797621614
 20
151.3164911569
 30
0.0
 11
601.7797621614
 21
145.4164911569
 31
0.0
  0
LINE
  5
1E8
330
1F
100
AcDbEntity
  8
0
  6
Continuous
 62
     7
100
AcDbLine
 10
601.7797621614
 20
157.2164911569
 30
0.0
 11
601.7797621614
 21
151.3164911569
 31
0.0
  0
LINE
  5
1E9
330
1F
100
AcDbEntity
  8
0
  6
Continuous
 62
     7
100
AcDbLine
 10
600.4493910351
 20
151.3164911569
 30
0.0
 11
600.4493910351
 21
146.2235895287
 31
0.0
  0
LINE
  5
1EA
330
1F
100
AcDbEntity
  8
0
  6
Continuous
 62
     7
100
AcDbLine
 10
600.4493910351
 20
156.4093927852
 30
0.0
 11
600.4493910351
 21
151.3164911569
 31
0.0
  0
LINE
  5
1EB
330
1F
100
AcDbEntity
  8
0
  6
Continuous
 62
     7
100
AcDbLine
 10
599.7893836442
 20
151.3164911569
 30
0.0
 11
599.7893836442
 21
147.4908037193
 31
0.0
  0
LINE
  5
1EC
330
1F
100
AcDbEntity
  8
0
  6
Continuous
 62
     7
100
AcDbLine
 10
599.7893836442
 20
155.1421785945
 30
0.0
 11
599.7893836442
 21
151.3164911569
 31
0.0
  0
LINE
  5
1ED
330
1F
100
AcDbEntity
  8
0
  6
Continuous
 62
     7
100
AcDbLine
 10
601.7797621614
 20
101.3164911569
 30
0.0
 11
601.7797621614
 21
95.4164911569
 31
0.0
  0
LINE
  5
1EE
330
1F
100
AcDbEntity
  8
0
  6
Continuous
 62
     7
100
AcDbLine
 10
601.7797621614
 20
107.2164911569
 30
0.0
 11
601.7797621614
 21
101.3164911569
 31
0.0
  0
LINE
  5
1EF
330
1F
100
AcDbEntity
  8
0
  6
Continuous
 62
     7
100
AcDbLine
 10
600.4493910351
 20
101.3164911569
 30
0.0
 11
600.4493910351
 21
96.2235895287
 31
0.0
  0
LINE
  5
1F0
330
1F
100
AcDbEntity
  8
0
  6
Continuous
 62
     7
100
AcDbLine
 10
600.4493910351
 20
106.4093927852
 30
0.0
 11
600.4493910351
 21
101.3164911569
 31
0.0
  0
LINE
  5
1F1
330
1F
100
AcDbEntity
  8
0
  6
Continuous
 62
     7
100
AcDbLine
 10
599.7893836442
 20
101.3164911569
 30
0.0
 11
599.7893836442
 21
97.4908037193
 31
0.0
  0
LINE
  5
1F2
330
1F
100
AcDbEntity
  8
0
  6
Continuous
 62
     7
100
AcDbLine
 10
599.7893836442
 20
105.1421785945
 30
0.0
 11
599.7893836442
 21
101.3164911569
 31
0.0
  0
LINE
  5
1F3
330
1F
100
AcDbEntity
  8
0
  6
Continuous
 62
     7
100
AcDbLine
 10
1408.1946248999
 20
95.4164911569
 30
0.0
 11
1411.0346175089
 21
95.4164911569
 31
0.0
  0
LINE
  5
1F4
330
1F
100
AcDbEntity
  8
0
  6
Continuous
 62
     7
100
AcDbLine
 10
1411.0346175089
 20
107.2164911569
 30
0.0
 11
1408.1946248999
 21
107.2164911569
 31
0.0
  0
ARC
  5
1F5
330
1F
100
AcDbEntity
  8
0
  6
Continuous
 62
     7
100
AcDbCircle
 10
1411.0346175089
 20
96.9164911569
 30
0.0
 40
1.5
100
AcDbArc
 50
270.0
 51
332.4879973761
  0
ARC
  5
1F6
330
1F
100
AcDbEntity
  8
0
  6
Continuous
 62
     7
100
AcDbCircle
 10
1411.0346175089
 20
105.7164911569
 30
0.0
 40
1.500000000000014
100
AcDbArc
 50
27.5120026239
 51
90.0
  0
LINE
  5
1F7
330
1F
100
AcDbEntity
  8
0
  6
Continuous
 62
     7
100
AcDbLine
 10
1412.3649886352
 20
96.2235895287
 30
0.0
 11
1413.0249960262
 21
97.4908037193
 31
0.0
  0
LINE
  5
1F8
330
1F
100
AcDbEntity
  8
0
  6
Continuous
 62
     7
100
AcDbLine
 10
1413.0249960262
 20
105.1421785945
 30
0.0
 11
1412.3649886352
 21
106.4093927852
 31
0.0
  0
ARC
  5
1F9
330
1F
100
AcDbEntity
  8
0
  6
Continuous
 62
     7
100
AcDbCircle
 10
1411.6946248999
 20
98.1837053476
 30
0.0
 40
1.5
100
AcDbArc
 50
332.4879973761
 51
0.0
  0
ARC
  5
1FA
330
1F
100
AcDbEntity
  8
0
  6
Continuous
 62
     7
100
AcDbCircle
 10
1411.6946248999
 20
104.4492769663
 30
0.0
 40
1.5
100
AcDbArc
 50
0.0
 51
27.5120026239
  0
LINE
  5
1FB
330
1F
100
AcDbEntity
  8
0
  6
Continuous
 62
     7
100
AcDbLine
 10
1399.4946248999
 20
104.3164911569
 30
0.0
 11
1398.9946248999
 21
103.8164911569
 31
0.0
  0
LINE
  5
1FC
330
1F
100
AcDbEntity
  8
0
  6
Continuous
 62
     7
100
AcDbLine
 10
1398.9946248999
 20
98.8164911569
 30
0.0
 11
1399.4946248999
 21
98.3164911569
 31
0.0
  0
LINE
  5
1FD
330
1F
100
AcDbEntity
  8
0
  6
Continuous
 62
     7
100
AcDbLine
 10
1405.1946248999
 20
104.3164911569
 30
0.0
 11
1399.4946248999
 21
104.3164911569
 31
0.0
  0
LINE
  5
1FE
330
1F
100
AcDbEntity
  8
0
  6
Continuous
 62
     7
100
AcDbLine
 10
1399.4946248999
 20
98.3164911569
 30
0.0
 11
1405.1946248999
 21
98.3164911569
 31
0.0
  0
LINE
  5
1FF
330
1F
100
AcDbEntity
  8
0
  6
Continuous
 62
     7
100
AcDbLine
 10
1408.1946248999
 20
145.4164911569
 30
0.0
 11
1411.0346175089
 21
145.4164911569
 31
0.0
  0
LINE
  5
200
330
1F
100
AcDbEntity
  8
0
  6
Continuous
 62
     7
100
AcDbLine
 10
1411.0346175089
 20
157.2164911569
 30
0.0
 11
1408.1946248999
 21
157.2164911569
 31
0.0
  0
ARC
  5
201
330
1F
100
AcDbEntity
  8
0
  6
Continuous
 62
     7
100
AcDbCircle
 10
1411.0346175089
 20
146.9164911569
 30
0.0
 40
1.5
100
AcDbArc
 50
270.0
 51
332.4879973761
  0
ARC
  5
202
330
1F
100
AcDbEntity
  8
0
  6
Continuous
 62
     7
100
AcDbCircle
 10
1411.0346175089
 20
155.7164911569
 30
0.0
 40
1.5
100
AcDbArc
 50
27.5120026239
 51
90.0
  0
LINE
  5
203
330
1F
100
AcDbEntity
  8
0
  6
Continuous
 62
     7
100
AcDbLine
 10
1412.3649886352
 20
146.2235895287
 30
0.0
 11
1413.0249960262
 21
147.4908037193
 31
0.0
  0
LINE
  5
204
330
1F
100
AcDbEntity
  8
0
  6
Continuous
 62
     7
100
AcDbLine
 10
1413.0249960262
 20
155.1421785945
 30
0.0
 11
1412.3649886352
 21
156.4093927852
 31
0.0
  0
ARC
  5
205
330
1F
100
AcDbEntity
  8
0
  6
Continuous
 62
     7
100
AcDbCircle
 10
1411.6946248999
 20
148.1837053476
 30
0.0
 40
1.5
100
AcDbArc
 50
332.4879973761
 51
0.0
  0
ARC
  5
206
330
1F
100
AcDbEntity
  8
0
  6
Continuous
 62
     7
100
AcDbCircle
 10
1411.6946248999
 20
154.4492769663
 30
0.0
 40
1.5
100
AcDbArc
 50
0.0
 51
27.5120026239
  0
LINE
  5
207
330
1F
100
AcDbEntity
  8
0
  6
Continuous
 62
     7
100
AcDbLine
 10
1399.4946248999
 20
154.3164911569
 30
0.0
 11
1398.9946248999
 21
153.8164911569
 31
0.0
  0
LINE
  5
208
330
1F
100
AcDbEntity
  8
0
  6
Continuous
 62
     7
100
AcDbLine
 10
1398.9946248999
 20
148.8164911569
 30
0.0
 11
1399.4946248999
 21
148.3164911569
 31
0.0
  0
LINE
  5
209
330
1F
100
AcDbEntity
  8
0
  6
Continuous
 62
     7
100
AcDbLine
 10
1405.1946248999
 20
154.3164911569
 30
0.0
 11
1399.4946248999
 21
154.3164911569
 31
0.0
  0
LINE
  5
20A
330
1F
100
AcDbEntity
  8
0
  6
Continuous
 62
     7
100
AcDbLine
 10
1399.4946248999
 20
148.3164911569
 30
0.0
 11
1405.1946248999
 21
148.3164911569
 31
0.0
  0
LINE
  5
20B
330
1F
100
AcDbEntity
  8
0
  6
Continuous
 62
     7
100
AcDbLine
 10
1413.1946248999
 20
98.1837053476
 30
0.0
 11
1413.1946248999
 21
104.4492769663
 31
0.0
  0
LINE
  5
20C
330
1F
100
AcDbEntity
  8
0
  6
Continuous
 62
     7
100
AcDbLine
 10
1399.4946248999
 20
98.3164911569
 30
0.0
 11
1399.4946248999
 21
104.3164911569
 31
0.0
  0
LINE
  5
20D
330
1F
100
AcDbEntity
  8
0
  6
Continuous
 62
     7
100
AcDbLine
 10
1398.9946248999
 20
98.8164911569
 30
0.0
 11
1398.9946248999
 21
103.8164911569
 31
0.0
  0
LINE
  5
20E
330
1F
100
AcDbEntity
  8
0
  6
Continuous
 62
     7
100
AcDbLine
 10
1413.1946248999
 20
148.1837053476
 30
0.0
 11
1413.1946248999
 21
154.4492769663
 31
0.0
  0
LINE
  5
20F
330
1F
100
AcDbEntity
  8
0
  6
Continuous
 62
     7
100
AcDbLine
 10
1399.4946248999
 20
148.3164911569
 30
0.0
 11
1399.4946248999
 21
154.3164911569
 31
0.0
  0
LINE
  5
210
330
1F
100
AcDbEntity
  8
0
  6
Continuous
 62
     7
100
AcDbLine
 10
1398.9946248999
 20
148.8164911569
 30
0.0
 11
1398.9946248999
 21
153.8164911569
 31
0.0
  0
LINE
  5
211
330
1F
100
AcDbEntity
  8
0
  6
Continuous
 62
     7
100
AcDbLine
 10
1406.6946248999
 20
96.8164911569
 30
0.0
 11
1408.1946248999
 21
96.8164911569
 31
0.0
  0
LINE
  5
212
330
1F
100
AcDbEntity
  8
0
  6
Continuous
 62
     7
100
AcDbLine
 10
1406.6946248999
 20
133.8164911569
 30
0.0
 11
1408.1946248999
 21
133.8164911569
 31
0.0
  0
LINE
  5
213
330
1F
100
AcDbEntity
  8
0
  6
Continuous
 62
     7
100
AcDbLine
 10
1408.1946248999
 20
133.8164911569
 30
0.0
 11
1408.1946248999
 21
96.8164911569
 31
0.0
  0
LINE
  5
214
330
1F
100
AcDbEntity
  8
0
  6
Continuous
 62
     7
100
AcDbLine
 10
1406.6946248999
 20
133.8164911569
 30
0.0
 11
1406.6946248999
 21
96.8164911569
 31
0.0
  0
LINE
  5
215
330
1F
100
AcDbEntity
  8
0
  6
Continuous
 62
     7
100
AcDbLine
 10
1406.6946248999
 20
93.8164911569
 30
0.0
 11
1408.1946248999
 21
93.8164911569
 31
0.0
  0
LINE
  5
216
330
1F
100
AcDbEntity
  8
0
  6
Continuous
 62
     7
100
AcDbLine
 10
1408.1946248999
 20
96.8164911569
 30
0.0
 11
1408.1946248999
 21
93.8164911569
 31
0.0
  0
LINE
  5
217
330
1F
100
AcDbEntity
  8
0
  6
Continuous
 62
     7
100
AcDbLine
 10
1406.6946248999
 20
96.8164911569
 30
0.0
 11
1406.6946248999
 21
93.8164911569
 31
0.0
  0
LINE
  5
218
330
1F
100
AcDbEntity
  8
0
  6
Continuous
 62
     7
100
AcDbLine
 10
1406.6946248999
 20
155.8164911569
 30
0.0
 11
1408.1946248999
 21
155.8164911569
 31
0.0
  0
LINE
  5
219
330
1F
100
AcDbEntity
  8
0
  6
Continuous
 62
     7
100
AcDbLine
 10
1406.6946248999
 20
158.8164911569
 30
0.0
 11
1408.1946248999
 21
158.8164911569
 31
0.0
  0
LINE
  5
21A
330
1F
100
AcDbEntity
  8
0
  6
Continuous
 62
     7
100
AcDbLine
 10
1408.1946248999
 20
158.8164911569
 30
0.0
 11
1408.1946248999
 21
155.8164911569
 31
0.0
  0
LINE
  5
21B
330
1F
100
AcDbEntity
  8
0
  6
Continuous
 62
     7
100
AcDbLine
 10
1406.6946248999
 20
157.3164911569
 30
0.0
 11
1406.6946248999
 21
155.8164911569
 31
0.0
  0
LINE
  5
21C
330
1F
100
AcDbEntity
  8
0
  6
Continuous
 62
     7
100
AcDbLine
 10
1408.1946248999
 20
155.8164911569
 30
0.0
 11
1408.1946248999
 21
133.8164911569
 31
0.0
  0
LINE
  5
21D
330
1F
100
AcDbEntity
  8
0
  6
Continuous
 62
     7
100
AcDbLine
 10
1406.6946248999
 20
155.8164911569
 30
0.0
 11
1406.6946248999
 21
133.8164911569
 31
0.0
  0
LINE
  5
21E
330
1F
100
AcDbEntity
  8
0
  6
Continuous
 62
     7
100
AcDbLine
 10
1405.1946248999
 20
250.9946988941
 30
0.0
 11
1406.6946248999
 21
250.9946988941
 31
0.0
  0
LINE
  5
21F
330
1F
100
AcDbEntity
  8
0
  6
Continuous
 62
     7
100
AcDbLine
 10
1405.1946248999
 20
253.9946988941
 30
0.0
 11
1406.6946248999
 21
253.9946988941
 31
0.0
  0
LINE
  5
220
330
1F
100
AcDbEntity
  8
0
  6
Continuous
 62
     7
100
AcDbLine
 10
1405.1946248999
 20
253.9946988941
 30
0.0
 11
1405.1946248999
 21
250.9946988941
 31
0.0
  0
LINE
  5
221
330
1F
100
AcDbEntity
  8
0
  6
Continuous
 62
     7
100
AcDbLine
 10
1406.6946248999
 20
253.9946988941
 30
0.0
 11
1406.6946248999
 21
250.9946988941
 31
0.0
  0
LINE
  5
222
330
1F
100
AcDbEntity
  8
0
  6
Continuous
 62
     7
100
AcDbLine
 10
1405.1946248999
 20
194.3164911569
 30
0.0
 11
1406.6946248999
 21
194.3164911569
 31
0.0
  0
LINE
  5
223
330
1F
100
AcDbEntity
  8
0
  6
Continuous
 62
     7
100
AcDbLine
 10
1405.1946248999
 20
250.9946988941
 30
0.0
 11
1405.1946248999
 21
194.3164911569
 31
0.0
  0
LINE
  5
224
330
1F
100
AcDbEntity
  8
0
  6
Continuous
 62
     7
100
AcDbLine
 10
1406.6946248999
 20
250.9946988941
 30
0.0
 11
1406.6946248999
 21
194.3164911569
 31
0.0
  0
LINE
  5
225
330
1F
100
AcDbEntity
  8
0
  6
Continuous
 62
     7
100
AcDbLine
 10
1405.1946248999
 20
191.3164911569
 30
0.0
 11
1406.6946248999
 21
191.3164911569
 31
0.0
  0
LINE
  5
226
330
1F
100
AcDbEntity
  8
0
  6
Continuous
 62
     7
100
AcDbLine
 10
1405.1946248999
 20
194.3164911569
 30
0.0
 11
1405.1946248999
 21
191.3164911569
 31
0.0
  0
LINE
  5
227
330
1F
100
AcDbEntity
  8
0
  6
Continuous
 62
     7
100
AcDbLine
 10
1406.6946248999
 20
194.3164911569
 30
0.0
 11
1406.6946248999
 21
191.3164911569
 31
0.0
  0
LINE
  5
228
330
1F
100
AcDbEntity
  8
0
  6
Continuous
 62
     7
100
AcDbLine
 10
1405.1946248999
 20
188.3164911569
 30
0.0
 11
1406.6946248999
 21
188.3164911569
 31
0.0
  0
LINE
  5
229
330
1F
100
AcDbEntity
  8
0
  6
Continuous
 62
     7
100
AcDbLine
 10
1405.1946248999
 20
191.3164911569
 30
0.0
 11
1405.1946248999
 21
188.3164911569
 31
0.0
  0
LINE
  5
22A
330
1F
100
AcDbEntity
  8
0
  6
Continuous
 62
     7
100
AcDbLine
 10
1406.6946248999
 20
191.3164911569
 30
0.0
 11
1406.6946248999
 21
188.3164911569
 31
0.0
  0
LINE
  5
22B
330
1F
100
AcDbEntity
  8
0
  6
Continuous
 62
     7
100
AcDbLine
 10
1405.1946248999
 20
79.3164911569
 30
0.0
 11
1406.6946248999
 21
79.3164911569
 31
0.0
  0
LINE
  5
22C
330
1F
100
AcDbEntity
  8
0
  6
Continuous
 62
     7
100
AcDbLine
 10
1405.1946248999
 20
188.3164911569
 30
0.0
 11
1405.1946248999
 21
79.3164911569
 31
0.0
  0
LINE
  5
22D
330
1F
100
AcDbEntity
  8
0
  6
Continuous
 62
     7
100
AcDbLine
 10
1406.6946248999
 20
188.3164911569
 30
0.0
 11
1406.6946248999
 21
157.3164911569
 31
0.0
  0
LINE
  5
22E
330
1F
100
AcDbEntity
  8
0
  6
Continuous
 62
     7
100
AcDbLine
 10
1406.6946248999
 20
93.8164911569
 30
0.0
 11
1406.6946248999
 21
79.3164911569
 31
0.0
  0
LINE
  5
22F
330
1F
100
AcDbEntity
  8
0
  6
Continuous
 62
     7
100
AcDbLine
 10
1405.1946248999
 20
76.3164911569
 30
0.0
 11
1406.6946248999
 21
76.3164911569
 31
0.0
  0
LINE
  5
230
330
1F
100
AcDbEntity
  8
0
  6
Continuous
 62
     7
100
AcDbLine
 10
1405.1946248999
 20
79.3164911569
 30
0.0
 11
1405.1946248999
 21
76.3164911569
 31
0.0
  0
LINE
  5
231
330
1F
100
AcDbEntity
  8
0
  6
Continuous
 62
     7
100
AcDbLine
 10
1406.6946248999
 20
79.3164911569
 30
0.0
 11
1406.6946248999
 21
76.3164911569
 31
0.0
  0
LINE
  5
232
330
1F
100
AcDbEntity
  8
0
  6
Continuous
 62
     7
100
AcDbLine
 10
1411.0346175089
 20
95.4164911569
 30
0.0
 11
1411.0346175089
 21
107.2164911569
 31
0.0
  0
LINE
  5
233
330
1F
100
AcDbEntity
  8
0
  6
Continuous
 62
     7
100
AcDbLine
 10
1412.3649886352
 20
96.2235895287
 30
0.0
 11
1412.3649886352
 21
106.4093927852
 31
0.0
  0
LINE
  5
234
330
1F
100
AcDbEntity
  8
0
  6
Continuous
 62
     7
100
AcDbLine
 10
1413.0249960262
 20
97.4908037193
 30
0.0
 11
1413.0249960262
 21
105.1421785945
 31
0.0
  0
LINE
  5
235
330
1F
100
AcDbEntity
  8
0
  6
Continuous
 62
     7
100
AcDbLine
 10
1411.0346175089
 20
145.4164911569
 30
0.0
 11
1411.0346175089
 21
157.2164911569
 31
0.0
  0
LINE
  5
236
330
1F
100
AcDbEntity
  8
0
  6
Continuous
 62
     7
100
AcDbLine
 10
1412.3649886352
 20
146.2235895287
 30
0.0
 11
1412.3649886352
 21
156.4093927852
 31
0.0
  0
LINE
  5
237
330
1F
100
AcDbEntity
  8
0
  6
Continuous
 62
     7
100
AcDbLine
 10
1413.0249960262
 20
147.4908037193
 30
0.0
 11
1413.0249960262
 21
155.1421785945
 31
0.0
  0
ARC
  5
238
330
1F
100
AcDbEntity
  8
0
  6
Continuous
 62
     7
100
AcDbCircle
 10
1297.5385289542
 20
329.7528748374
 30
0.0
 40
1.500000000000007
100
AcDbArc
 50
0.0
 51
62.4879973762
  0
ARC
  5
239
330
1F
100
AcDbEntity
  8
0
  6
Continuous
 62
     7
100
AcDbCircle
 10
1288.7385289542
 20
329.7528748374
 30
0.0
 40
1.500000000000112
100
AcDbArc
 50
117.5120026239
 51
180.0
  0
LINE
  5
23A
330
1F
100
AcDbEntity
  8
0
  6
Continuous
 62
     7
100
AcDbLine
 10
1299.0385289542
 20
326.9128822284
 30
0.0
 11
1299.0385289542
 21
329.7528748374
 31
0.0
  0
LINE
  5
23B
330
1F
100
AcDbEntity
  8
0
  6
Continuous
 62
     7
100
AcDbLine
 10
1287.2385289542
 20
329.7528748374
 30
0.0
 11
1287.2385289542
 21
326.9128822284
 31
0.0
  0
LINE
  5
23C
330
1F
100
AcDbEntity
  8
0
  6
Continuous
 62
     7
100
AcDbLine
 10
1298.2314305825
 20
331.0832459637
 30
0.0
 11
1296.9642163918
 21
331.7432533547
 31
0.0
  0
LINE
  5
23D
330
1F
100
AcDbEntity
  8
0
  6
Continuous
 62
     7
100
AcDbLine
 10
1289.3128415166
 20
331.7432533547
 30
0.0
 11
1288.045627326
 21
331.0832459637
 31
0.0
  0
ARC
  5
23E
330
1F
100
AcDbEntity
  8
0
  6
Continuous
 62
     7
100
AcDbCircle
 10
1296.2713147636
 20
330.4128822284
 30
0.0
 40
1.500000000000007
100
AcDbArc
 50
62.4879973762
 51
90.0
  0
ARC
  5
23F
330
1F
100
AcDbEntity
  8
0
  6
Continuous
 62
     7
100
AcDbCircle
 10
1290.0057431449
 20
330.4128822284
 30
0.0
 40
1.5
100
AcDbArc
 50
90.0
 51
117.5120026238
  0
LINE
  5
240
330
1F
100
AcDbEntity
  8
0
  6
Continuous
 62
     7
100
AcDbLine
 10
1290.1385289542
 20
323.9128822284
 30
0.0
 11
1290.1385289542
 21
318.2128822284
 31
0.0
  0
LINE
  5
241
330
1F
100
AcDbEntity
  8
0
  6
Continuous
 62
     7
100
AcDbLine
 10
1296.1385289542
 20
318.2128822284
 30
0.0
 11
1296.1385289542
 21
323.9128822284
 31
0.0
  0
LINE
  5
242
330
1F
100
AcDbEntity
  8
0
  6
Continuous
 62
     7
100
AcDbLine
 10
1290.1385289542
 20
318.2128822284
 30
0.0
 11
1290.6385289542
 21
317.7128822284
 31
0.0
  0
LINE
  5
243
330
1F
100
AcDbEntity
  8
0
  6
Continuous
 62
     7
100
AcDbLine
 10
1295.6385289542
 20
317.7128822284
 30
0.0
 11
1296.1385289542
 21
318.2128822284
 31
0.0
  0
ARC
  5
244
330
1F
100
AcDbEntity
  8
0
  6
Continuous
 62
     7
100
AcDbCircle
 10
721.0385289542
 20
329.7528748374
 30
0.0
 40
1.500000000000059
100
AcDbArc
 50
0.0
 51
62.4879973761
  0
ARC
  5
245
330
1F
100
AcDbEntity
  8
0
  6
Continuous
 62
     7
100
AcDbCircle
 10
712.2385289542
 20
329.7528748374
 30
0.0
 40
1.500000000000114
100
AcDbArc
 50
117.5120026239
 51
180.0
  0
LINE
  5
246
330
1F
100
AcDbEntity
  8
0
  6
Continuous
 62
     7
100
AcDbLine
 10
722.5385289542
 20
326.9128822284
 30
0.0
 11
722.5385289542
 21
329.7528748374
 31
0.0
  0
LINE
  5
247
330
1F
100
AcDbEntity
  8
0
  6
Continuous
 62
     7
100
AcDbLine
 10
710.7385289542
 20
329.7528748374
 30
0.0
 11
710.7385289542
 21
326.9128822284
 31
0.0
  0
LINE
  5
248
330
1F
100
AcDbEntity
  8
0
  6
Continuous
 62
     7
100
AcDbLine
 10
721.7314305825
 20
331.0832459637
 30
0.0
 11
720.4642163918
 21
331.7432533547
 31
0.0
  0
LINE
  5
249
330
1F
100
AcDbEntity
  8
0
  6
Continuous
 62
     7
100
AcDbLine
 10
712.8128415166
 20
331.7432533547
 30
0.0
 11
711.545627326
 21
331.0832459637
 31
0.0
  0
ARC
  5
24A
330
1F
100
AcDbEntity
  8
0
  6
Continuous
 62
     7
100
AcDbCircle
 10
719.7713147636
 20
330.4128822284
 30
0.0
 40
1.500000000000009
100
AcDbArc
 50
62.4879973761
 51
90.0
  0
ARC
  5
24B
330
1F
100
AcDbEntity
  8
0
  6
Continuous
 62
     7
100
AcDbCircle
 10
713.5057431449
 20
330.4128822284
 30
0.0
 40
1.500000000000009
100
AcDbArc
 50
90.0
 51
117.5120026239
  0
LINE
  5
24C
330
1F
100
AcDbEntity
  8
0
  6
Continuous
 62
     7
100
AcDbLine
 10
713.6385289542
 20
318.2128822284
 30
0.0
 11
714.1385289542
 21
317.7128822284
 31
0.0
  0
LINE
  5
24D
330
1F
100
AcDbEntity
  8
0
  6
Continuous
 62
     7
100
AcDbLine
 10
719.1385289542
 20
317.7128822284
 30
0.0
 11
719.6385289542
 21
318.2128822284
 31
0.0
  0
LINE
  5
24E
330
1F
100
AcDbEntity
  8
0
  6
Continuous
 62
     7
100
AcDbLine
 10
713.6385289542
 20
323.9128822284
 30
0.0
 11
713.6385289542
 21
318.2128822284
 31
0.0
  0
LINE
  5
24F
330
1F
100
AcDbEntity
  8
0
  6
Continuous
 62
     7
100
AcDbLine
 10
719.6385289542
 20
318.2128822284
 30
0.0
 11
719.6385289542
 21
323.9128822284
 31
0.0
  0
LINE
  5
250
330
1F
100
AcDbEntity
  8
0
  6
Continuous
 62
     7
100
AcDbLine
 10
1296.2713147636
 20
331.9128822284
 30
0.0
 11
1290.0057431449
 21
331.9128822284
 31
0.0
  0
LINE
  5
251
330
1F
100
AcDbEntity
  8
0
  6
Continuous
 62
     7
100
AcDbLine
 10
1296.1385289542
 20
318.2128822284
 30
0.0
 11
1290.1385289542
 21
318.2128822284
 31
0.0
  0
LINE
  5
252
330
1F
100
AcDbEntity
  8
0
  6
Continuous
 62
     7
100
AcDbLine
 10
1295.6385289542
 20
317.7128822284
 30
0.0
 11
1290.6385289542
 21
317.7128822284
 31
0.0
  0
LINE
  5
253
330
1F
100
AcDbEntity
  8
0
  6
Continuous
 62
     7
100
AcDbLine
 10
719.7713147636
 20
331.9128822284
 30
0.0
 11
713.5057431449
 21
331.9128822284
 31
0.0
  0
LINE
  5
254
330
1F
100
AcDbEntity
  8
0
  6
Continuous
 62
     7
100
AcDbLine
 10
719.6385289542
 20
318.2128822284
 30
0.0
 11
713.6385289542
 21
318.2128822284
 31
0.0
  0
LINE
  5
255
330
1F
100
AcDbEntity
  8
0
  6
Continuous
 62
     7
100
AcDbLine
 10
719.1385289542
 20
317.7128822284
 30
0.0
 11
714.1385289542
 21
317.7128822284
 31
0.0
  0
LINE
  5
256
330
1F
100
AcDbEntity
  8
0
  6
Continuous
 62
     7
100
AcDbLine
 10
694.6385289542
 20
325.4128822284
 30
0.0
 11
694.6385289542
 21
326.9128822284
 31
0.0
  0
LINE
  5
257
330
1F
100
AcDbEntity
  8
0
  6
Continuous
 62
     7
100
AcDbLine
 10
691.6385289542
 20
325.4128822284
 30
0.0
 11
694.6385289542
 21
325.4128822284
 31
0.0
  0
LINE
  5
258
330
1F
100
AcDbEntity
  8
0
  6
Continuous
 62
     7
100
AcDbLine
 10
691.6385289542
 20
325.4128822284
 30
0.0
 11
691.6385289542
 21
326.9128822284
 31
0.0
  0
LINE
  5
259
330
1F
100
AcDbEntity
  8
0
  6
Continuous
 62
     7
100
AcDbLine
 10
691.6385289542
 20
326.9128822284
 30
0.0
 11
694.6385289542
 21
326.9128822284
 31
0.0
  0
LINE
  5
25A
330
1F
100
AcDbEntity
  8
0
  6
Continuous
 62
     7
100
AcDbLine
 10
723.6385289542
 20
325.4128822284
 30
0.0
 11
723.6385289542
 21
326.9128822284
 31
0.0
  0
LINE
  5
25B
330
1F
100
AcDbEntity
  8
0
  6
Continuous
 62
     7
100
AcDbLine
 10
694.6385289542
 20
325.4128822284
 30
0.0
 11
700.6385289542
 21
325.4128822284
 31
0.0
  0
LINE
  5
25C
330
1F
100
AcDbEntity
  8
0
  6
Continuous
 62
     7
100
AcDbLine
 10
694.6385289542
 20
326.9128822284
 30
0.0
 11
723.6385289542
 21
326.9128822284
 31
0.0
  0
LINE
  5
25D
330
1F
100
AcDbEntity
  8
0
  6
Continuous
 62
     7
100
AcDbLine
 10
726.6385289542
 20
325.4128822284
 30
0.0
 11
726.6385289542
 21
326.9128822284
 31
0.0
  0
LINE
  5
25E
330
1F
100
AcDbEntity
  8
0
  6
Continuous
 62
     7
100
AcDbLine
 10
723.6385289542
 20
326.9128822284
 30
0.0
 11
726.6385289542
 21
326.9128822284
 31
0.0
  0
LINE
  5
25F
330
1F
100
AcDbEntity
  8
0
  6
Continuous
 62
     7
100
AcDbLine
 10
1283.1385289542
 20
326.9128822284
 30
0.0
 11
1283.1385289542
 21
325.4128822284
 31
0.0
  0
LINE
  5
260
330
1F
100
AcDbEntity
  8
0
  6
Continuous
 62
     7
100
AcDbLine
 10
1286.1385289542
 20
326.9128822284
 30
0.0
 11
1283.1385289542
 21
326.9128822284
 31
0.0
  0
LINE
  5
261
330
1F
100
AcDbEntity
  8
0
  6
Continuous
 62
     7
100
AcDbLine
 10
1286.1385289542
 20
326.9128822284
 30
0.0
 11
1286.1385289542
 21
325.4128822284
 31
0.0
  0
LINE
  5
262
330
1F
100
AcDbEntity
  8
0
  6
Continuous
 62
     7
100
AcDbLine
 10
1315.1385289542
 20
326.9128822284
 30
0.0
 11
1286.1385289542
 21
326.9128822284
 31
0.0
  0
LINE
  5
263
330
1F
100
AcDbEntity
  8
0
  6
Continuous
 62
     7
100
AcDbLine
 10
1315.1385289542
 20
326.9128822284
 30
0.0
 11
1315.1385289542
 21
325.4128822284
 31
0.0
  0
LINE
  5
264
330
1F
100
AcDbEntity
  8
0
  6
Continuous
 62
     7
100
AcDbLine
 10
1315.1385289542
 20
325.4128822284
 30
0.0
 11
1309.1385289542
 21
325.4128822284
 31
0.0
  0
LINE
  5
265
330
1F
100
AcDbEntity
  8
0
  6
Continuous
 62
     7
100
AcDbLine
 10
1318.1385289542
 20
326.9128822284
 30
0.0
 11
1318.1385289542
 21
325.4128822284
 31
0.0
  0
LINE
  5
266
330
1F
100
AcDbEntity
  8
0
  6
Continuous
 62
     7
100
AcDbLine
 10
1318.1385289542
 20
326.9128822284
 30
0.0
 11
1315.1385289542
 21
326.9128822284
 31
0.0
  0
LINE
  5
267
330
1F
100
AcDbEntity
  8
0
  6
Continuous
 62
     7
100
AcDbLine
 10
1318.1385289542
 20
325.4128822284
 30
0.0
 11
1315.1385289542
 21
325.4128822284
 31
0.0
  0
LINE
  5
268
330
1F
100
AcDbEntity
  8
0
  6
Continuous
 62
     7
100
AcDbLine
 10
703.6385289542
 20
323.9128822284
 30
0.0
 11
703.6385289542
 21
325.4128822284
 31
0.0
  0
LINE
  5
269
330
1F
100
AcDbEntity
  8
0
  6
Continuous
 62
     7
100
AcDbLine
 10
700.6385289542
 20
323.9128822284
 30
0.0
 11
700.6385289542
 21
325.4128822284
 31
0.0
  0
LINE
  5
26A
330
1F
100
AcDbEntity
  8
0
  6
Continuous
 62
     7
100
AcDbLine
 10
700.6385289542
 20
323.9128822284
 30
0.0
 11
703.6385289542
 21
323.9128822284
 31
0.0
  0
LINE
  5
26B
330
1F
100
AcDbEntity
  8
0
  6
Continuous
 62
     7
100
AcDbLine
 10
700.6385289542
 20
325.4128822284
 30
0.0
 11
703.6385289542
 21
325.4128822284
 31
0.0
  0
LINE
  5
26C
330
1F
100
AcDbEntity
  8
0
  6
Continuous
 62
     7
100
AcDbLine
 10
1306.1385289542
 20
323.9128822284
 30
0.0
 11
1306.1385289542
 21
325.4128822284
 31
0.0
  0
LINE
  5
26D
330
1F
100
AcDbEntity
  8
0
  6
Continuous
 62
     7
100
AcDbLine
 10
703.6385289542
 20
323.9128822284
 30
0.0
 11
1306.1385289542
 21
323.9128822284
 31
0.0
  0
LINE
  5
26E
330
1F
100
AcDbEntity
  8
0
  6
Continuous
 62
     7
100
AcDbLine
 10
703.6385289542
 20
325.4128822284
 30
0.0
 11
1306.1385289542
 21
325.4128822284
 31
0.0
  0
LINE
  5
26F
330
1F
100
AcDbEntity
  8
0
  6
Continuous
 62
     7
100
AcDbLine
 10
1309.1385289542
 20
323.9128822284
 30
0.0
 11
1309.1385289542
 21
325.4128822284
 31
0.0
  0
LINE
  5
270
330
1F
100
AcDbEntity
  8
0
  6
Continuous
 62
     7
100
AcDbLine
 10
1306.1385289542
 20
323.9128822284
 30
0.0
 11
1309.1385289542
 21
323.9128822284
 31
0.0
  0
LINE
  5
271
330
1F
100
AcDbEntity
  8
0
  6
Continuous
 62
     7
100
AcDbLine
 10
1306.1385289542
 20
325.4128822284
 30
0.0
 11
1309.1385289542
 21
325.4128822284
 31
0.0
  0
LINE
  5
272
330
1F
100
AcDbEntity
  8
0
  6
Continuous
 62
     7
100
AcDbLine
 10
697.6385289542
 20
323.9128822284
 30
0.0
 11
697.6385289542
 21
325.4128822284
 31
0.0
  0
LINE
  5
273
330
1F
100
AcDbEntity
  8
0
  6
Continuous
 62
     7
100
AcDbLine
 10
697.6385289542
 20
323.9128822284
 30
0.0
 11
700.6385289542
 21
323.9128822284
 31
0.0
  0
LINE
  5
274
330
1F
100
AcDbEntity
  8
0
  6
Continuous
 62
     7
100
AcDbLine
 10
1312.1385289542
 20
323.9128822284
 30
0.0
 11
1312.1385289542
 21
325.4128822284
 31
0.0
  0
LINE
  5
275
330
1F
100
AcDbEntity
  8
0
  6
Continuous
 62
     7
100
AcDbLine
 10
1309.1385289542
 20
323.9128822284
 30
0.0
 11
1312.1385289542
 21
323.9128822284
 31
0.0
  0
LINE
  5
276
330
1F
100
AcDbEntity
  8
0
  6
Continuous
 62
     7
100
AcDbLine
 10
662.1385289542
 20
323.9128822284
 30
0.0
 11
662.1385289542
 21
325.4128822284
 31
0.0
  0
LINE
  5
277
330
1F
100
AcDbEntity
  8
0
  6
Continuous
 62
     7
100
AcDbLine
 10
659.1385289542
 20
323.9128822284
 30
0.0
 11
659.1385289542
 21
325.4128822284
 31
0.0
  0
LINE
  5
278
330
1F
100
AcDbEntity
  8
0
  6
Continuous
 62
     7
100
AcDbLine
 10
659.1385289542
 20
323.9128822284
 30
0.0
 11
662.1385289542
 21
323.9128822284
 31
0.0
  0
LINE
  5
279
330
1F
100
AcDbEntity
  8
0
  6
Continuous
 62
     7
100
AcDbLine
 10
659.1385289542
 20
325.4128822284
 30
0.0
 11
662.1385289542
 21
325.4128822284
 31
0.0
  0
LINE
  5
27A
330
1F
100
AcDbEntity
  8
0
  6
Continuous
 62
     7
100
AcDbLine
 10
662.1385289542
 20
323.9128822284
 30
0.0
 11
697.6385289542
 21
323.9128822284
 31
0.0
  0
LINE
  5
27B
330
1F
100
AcDbEntity
  8
0
  6
Continuous
 62
     7
100
AcDbLine
 10
662.1385289542
 20
325.4128822284
 30
0.0
 11
691.6385289542
 21
325.4128822284
 31
0.0
  0
LINE
  5
27C
330
1F
100
AcDbEntity
  8
0
  6
Continuous
 62
     7
100
AcDbLine
 10
1347.6385289542
 20
323.9128822284
 30
0.0
 11
1347.6385289542
 21
325.4128822284
 31
0.0
  0
LINE
  5
27D
330
1F
100
AcDbEntity
  8
0
  6
Continuous
 62
     7
100
AcDbLine
 10
1312.1385289542
 20
323.9128822284
 30
0.0
 11
1347.6385289542
 21
323.9128822284
 31
0.0
  0
LINE
  5
27E
330
1F
100
AcDbEntity
  8
0
  6
Continuous
 62
     7
100
AcDbLine
 10
1318.1385289542
 20
325.4128822284
 30
0.0
 11
1347.6385289542
 21
325.4128822284
 31
0.0
  0
LINE
  5
27F
330
1F
100
AcDbEntity
  8
0
  6
Continuous
 62
     7
100
AcDbLine
 10
1350.6385289542
 20
323.9128822284
 30
0.0
 11
1350.6385289542
 21
325.4128822284
 31
0.0
  0
LINE
  5
280
330
1F
100
AcDbEntity
  8
0
  6
Continuous
 62
     7
100
AcDbLine
 10
1347.6385289542
 20
323.9128822284
 30
0.0
 11
1350.6385289542
 21
323.9128822284
 31
0.0
  0
LINE
  5
281
330
1F
100
AcDbEntity
  8
0
  6
Continuous
 62
     7
100
AcDbLine
 10
1347.6385289542
 20
325.4128822284
 30
0.0
 11
1350.6385289542
 21
325.4128822284
 31
0.0
  0
LINE
  5
282
330
1F
100
AcDbEntity
  8
0
  6
Continuous
 62
     7
100
AcDbLine
 10
1299.0385289542
 20
329.7528748374
 30
0.0
 11
1287.2385289542
 21
329.7528748374
 31
0.0
  0
LINE
  5
283
330
1F
100
AcDbEntity
  8
0
  6
Continuous
 62
     7
100
AcDbLine
 10
1298.2314305825
 20
331.0832459637
 30
0.0
 11
1288.045627326
 21
331.0832459637
 31
0.0
  0
LINE
  5
284
330
1F
100
AcDbEntity
  8
0
  6
Continuous
 62
     7
100
AcDbLine
 10
1296.9642163918
 20
331.7432533547
 30
0.0
 11
1289.3128415166
 21
331.7432533547
 31
0.0
  0
LINE
  5
285
330
1F
100
AcDbEntity
  8
0
  6
Continuous
 62
     7
100
AcDbLine
 10
722.5385289542
 20
329.7528748374
 30
0.0
 11
710.7385289542
 21
329.7528748374
 31
0.0
  0
LINE
  5
286
330
1F
100
AcDbEntity
  8
0
  6
Continuous
 62
     7
100
AcDbLine
 10
721.7314305825
 20
331.0832459637
 30
0.0
 11
711.545627326
 21
331.0832459637
 31
0.0
  0
LINE
  5
287
330
1F
100
AcDbEntity
  8
0
  6
Continuous
 62
     7
100
AcDbLine
 10
720.4642163918
 20
331.7432533547
 30
0.0
 11
712.8128415166
 21
331.7432533547
 31
0.0
  0
ARC
  5
288
330
1F
100
AcDbEntity
  8
0
  6
Continuous
 62
     7
100
AcDbCircle
 10
1288.7385289542
 20
15.2207468719
 30
0.0
 40
1.5
100
AcDbArc
 50
180.0
 51
242.4879973762
  0
ARC
  5
289
330
1F
100
AcDbEntity
  8
0
  6
Continuous
 62
     7
100
AcDbCircle
 10
1297.5385289542
 20
15.2207468719
 30
0.0
 40
1.5
100
AcDbArc
 50
297.5120026239
 51
0.0
  0
LINE
  5
28A
330
1F
100
AcDbEntity
  8
0
  6
Continuous
 62
     7
100
AcDbLine
 10
1287.2385289542
 20
18.0607394809
 30
0.0
 11
1287.2385289542
 21
15.2207468719
 31
0.0
  0
LINE
  5
28B
330
1F
100
AcDbEntity
  8
0
  6
Continuous
 62
     7
100
AcDbLine
 10
1299.0385289542
 20
15.2207468719
 30
0.0
 11
1299.0385289542
 21
18.0607394809
 31
0.0
  0
LINE
  5
28C
330
1F
100
AcDbEntity
  8
0
  6
Continuous
 62
     7
100
AcDbLine
 10
1288.045627326
 20
13.8903757456
 30
0.0
 11
1289.3128415166
 21
13.2303683547
 31
0.0
  0
LINE
  5
28D
330
1F
100
AcDbEntity
  8
0
  6
Continuous
 62
     7
100
AcDbLine
 10
1296.9642163918
 20
13.2303683547
 30
0.0
 11
1298.2314305825
 21
13.8903757456
 31
0.0
  0
ARC
  5
28E
330
1F
100
AcDbEntity
  8
0
  6
Continuous
 62
     7
100
AcDbCircle
 10
1290.0057431449
 20
14.5607394809
 30
0.0
 40
1.499999999999995
100
AcDbArc
 50
242.4879973762
 51
270.0
  0
ARC
  5
28F
330
1F
100
AcDbEntity
  8
0
  6
Continuous
 62
     7
100
AcDbCircle
 10
1296.2713147636
 20
14.5607394809
 30
0.0
 40
1.499999999999995
100
AcDbArc
 50
270.0
 51
297.5120026239
  0
LINE
  5
290
330
1F
100
AcDbEntity
  8
0
  6
Continuous
 62
     7
100
AcDbLine
 10
1296.1385289542
 20
26.7607394809
 30
0.0
 11
1295.6385289542
 21
27.2607394809
 31
0.0
  0
LINE
  5
291
330
1F
100
AcDbEntity
  8
0
  6
Continuous
 62
     7
100
AcDbLine
 10
1290.6385289542
 20
27.2607394809
 30
0.0
 11
1290.1385289542
 21
26.7607394809
 31
0.0
  0
LINE
  5
292
330
1F
100
AcDbEntity
  8
0
  6
Continuous
 62
     7
100
AcDbLine
 10
1296.1385289542
 20
21.0607394809
 30
0.0
 11
1296.1385289542
 21
26.7607394809
 31
0.0
  0
LINE
  5
293
330
1F
100
AcDbEntity
  8
0
  6
Continuous
 62
     7
100
AcDbLine
 10
1290.1385289542
 20
26.7607394809
 30
0.0
 11
1290.1385289542
 21
21.0607394809
 31
0.0
  0
LINE
  5
294
330
1F
100
AcDbEntity
  8
0
  6
Continuous
 62
     7
100
AcDbLine
 10
710.7385289542
 20
18.0607394809
 30
0.0
 11
710.7385289542
 21
15.2207468719
 31
0.0
  0
LINE
  5
295
330
1F
100
AcDbEntity
  8
0
  6
Continuous
 62
     7
100
AcDbLine
 10
722.5385289542
 20
15.2207468719
 30
0.0
 11
722.5385289542
 21
18.0607394809
 31
0.0
  0
ARC
  5
296
330
1F
100
AcDbEntity
  8
0
  6
Continuous
 62
     7
100
AcDbCircle
 10
712.2385289542
 20
15.2207468719
 30
0.0
 40
1.500000000000114
100
AcDbArc
 50
180.0
 51
242.4879973762
  0
ARC
  5
297
330
1F
100
AcDbEntity
  8
0
  6
Continuous
 62
     7
100
AcDbCircle
 10
721.0385289542
 20
15.2207468719
 30
0.0
 40
1.500000000000037
100
AcDbArc
 50
297.5120026239
 51
0.0
  0
LINE
  5
298
330
1F
100
AcDbEntity
  8
0
  6
Continuous
 62
     7
100
AcDbLine
 10
711.545627326
 20
13.8903757456
 30
0.0
 11
712.8128415166
 21
13.2303683547
 31
0.0
  0
LINE
  5
299
330
1F
100
AcDbEntity
  8
0
  6
Continuous
 62
     7
100
AcDbLine
 10
720.4642163918
 20
13.2303683547
 30
0.0
 11
721.7314305825
 21
13.8903757456
 31
0.0
  0
ARC
  5
29A
330
1F
100
AcDbEntity
  8
0
  6
Continuous
 62
     7
100
AcDbCircle
 10
713.5057431449
 20
14.5607394809
 30
0.0
 40
1.499999999999996
100
AcDbArc
 50
242.4879973762
 51
270.0
  0
ARC
  5
29B
330
1F
100
AcDbEntity
  8
0
  6
Continuous
 62
     7
100
AcDbCircle
 10
719.7713147636
 20
14.5607394809
 30
0.0
 40
1.499999999999996
100
AcDbArc
 50
270.0
 51
297.5120026239
  0
LINE
  5
29C
330
1F
100
AcDbEntity
  8
0
  6
Continuous
 62
     7
100
AcDbLine
 10
719.6385289542
 20
21.0607394809
 30
0.0
 11
719.6385289542
 21
26.7607394809
 31
0.0
  0
LINE
  5
29D
330
1F
100
AcDbEntity
  8
0
  6
Continuous
 62
     7
100
AcDbLine
 10
713.6385289542
 20
26.7607394809
 30
0.0
 11
713.6385289542
 21
21.0607394809
 31
0.0
  0
LINE
  5
29E
330
1F
100
AcDbEntity
  8
0
  6
Continuous
 62
     7
100
AcDbLine
 10
719.6385289542
 20
26.7607394809
 30
0.0
 11
719.1385289542
 21
27.2607394809
 31
0.0
  0
LINE
  5
29F
330
1F
100
AcDbEntity
  8
0
  6
Continuous
 62
     7
100
AcDbLine
 10
714.1385289542
 20
27.2607394809
 30
0.0
 11
713.6385289542
 21
26.7607394809
 31
0.0
  0
LINE
  5
2A0
330
1F
100
AcDbEntity
  8
0
  6
Continuous
 62
     7
100
AcDbLine
 10
1290.0057435222
 20
13.0607394809
 30
0.0
 11
1296.2713147636
 21
13.0607394809
 31
0.0
  0
LINE
  5
2A1
330
1F
100
AcDbEntity
  8
0
  6
Continuous
 62
     7
100
AcDbLine
 10
1290.1385289542
 20
26.7607394809
 30
0.0
 11
1296.1385289542
 21
26.7607394809
 31
0.0
  0
LINE
  5
2A2
330
1F
100
AcDbEntity
  8
0
  6
Continuous
 62
     7
100
AcDbLine
 10
1290.6385289542
 20
27.2607394809
 30
0.0
 11
1295.6385289542
 21
27.2607394809
 31
0.0
  0
LINE
  5
2A3
330
1F
100
AcDbEntity
  8
0
  6
Continuous
 62
     7
100
AcDbLine
 10
717.9197453255
 20
13.0607394809
 30
0.0
 11
719.7713147636
 21
13.0607394809
 31
0.0
  0
LINE
  5
2A4
330
1F
100
AcDbEntity
  8
0
  6
Continuous
 62
     7
100
AcDbLine
 10
713.5057431449
 20
13.0607394809
 30
0.0
 11
717.9197453255
 21
13.0607394809
 31
0.0
  0
LINE
  5
2A5
330
1F
100
AcDbEntity
  8
0
  6
Continuous
 62
     7
100
AcDbLine
 10
717.8654398724
 20
26.7607394809
 30
0.0
 11
719.6385289542
 21
26.7607394809
 31
0.0
  0
LINE
  5
2A6
330
1F
100
AcDbEntity
  8
0
  6
Continuous
 62
     7
100
AcDbLine
 10
713.6385289542
 20
26.7607394809
 30
0.0
 11
717.8654398724
 21
26.7607394809
 31
0.0
  0
LINE
  5
2A7
330
1F
100
AcDbEntity
  8
0
  6
Continuous
 62
     7
100
AcDbLine
 10
717.6609547194
 20
27.2607394809
 30
0.0
 11
719.1385289542
 21
27.2607394809
 31
0.0
  0
LINE
  5
2A8
330
1F
100
AcDbEntity
  8
0
  6
Continuous
 62
     7
100
AcDbLine
 10
714.1385289542
 20
27.2607394809
 30
0.0
 11
717.6609547194
 21
27.2607394809
 31
0.0
  0
LINE
  5
2A9
330
1F
100
AcDbEntity
  8
0
  6
Continuous
 62
     7
100
AcDbLine
 10
723.6385289542
 20
19.5607394809
 30
0.0
 11
723.6385289542
 21
18.0607394809
 31
0.0
  0
LINE
  5
2AA
330
1F
100
AcDbEntity
  8
0
  6
Continuous
 62
     7
100
AcDbLine
 10
726.6385289542
 20
19.5607394809
 30
0.0
 11
726.6385289542
 21
18.0607394809
 31
0.0
  0
LINE
  5
2AB
330
1F
100
AcDbEntity
  8
0
  6
Continuous
 62
     7
100
AcDbLine
 10
726.6385289542
 20
18.0607394809
 30
0.0
 11
723.6385289542
 21
18.0607394809
 31
0.0
  0
LINE
  5
2AC
330
1F
100
AcDbEntity
  8
0
  6
Continuous
 62
     7
100
AcDbLine
 10
702.1385289542
 20
19.5607394809
 30
0.0
 11
702.1385289542
 21
18.0607394809
 31
0.0
  0
LINE
  5
2AD
330
1F
100
AcDbEntity
  8
0
  6
Continuous
 62
     7
100
AcDbLine
 10
723.6385289542
 20
18.0607394809
 30
0.0
 11
702.1385289542
 21
18.0607394809
 31
0.0
  0
LINE
  5
2AE
330
1F
100
AcDbEntity
  8
0
  6
Continuous
 62
     7
100
AcDbLine
 10
699.1385289542
 20
19.5607394809
 30
0.0
 11
699.1385289542
 21
18.0607394809
 31
0.0
  0
LINE
  5
2AF
330
1F
100
AcDbEntity
  8
0
  6
Continuous
 62
     7
100
AcDbLine
 10
702.1385289542
 20
18.0607394809
 30
0.0
 11
699.1385289542
 21
18.0607394809
 31
0.0
  0
LINE
  5
2B0
330
1F
100
AcDbEntity
  8
0
  6
Continuous
 62
     7
100
AcDbLine
 10
696.6385289542
 20
18.0607394809
 30
0.0
 11
696.6385289542
 21
19.5607394809
 31
0.0
  0
LINE
  5
2B1
330
1F
100
AcDbEntity
  8
0
  6
Continuous
 62
     7
100
AcDbLine
 10
691.6385289542
 20
19.5607394809
 30
0.0
 11
691.6385289542
 21
18.0607394809
 31
0.0
  0
LINE
  5
2B2
330
1F
100
AcDbEntity
  8
0
  6
Continuous
 62
     7
100
AcDbLine
 10
691.6385289542
 20
18.0607394809
 30
0.0
 11
696.6385289542
 21
18.0607394809
 31
0.0
  0
LINE
  5
2B3
330
1F
100
AcDbEntity
  8
0
  6
Continuous
 62
     7
100
AcDbLine
 10
699.1385289542
 20
18.0607394809
 30
0.0
 11
696.6385289542
 21
18.0607394809
 31
0.0
  0
LINE
  5
2B4
330
1F
100
AcDbEntity
  8
0
  6
Continuous
 62
     7
100
AcDbLine
 10
1310.6385289542
 20
18.0607394809
 30
0.0
 11
1310.6385289542
 21
19.5607394809
 31
0.0
  0
LINE
  5
2B5
330
1F
100
AcDbEntity
  8
0
  6
Continuous
 62
     7
100
AcDbLine
 10
1307.6385289542
 20
18.0607394809
 30
0.0
 11
1307.6385289542
 21
19.5607394809
 31
0.0
  0
LINE
  5
2B6
330
1F
100
AcDbEntity
  8
0
  6
Continuous
 62
     7
100
AcDbLine
 10
1307.6385289542
 20
18.0607394809
 30
0.0
 11
1310.6385289542
 21
18.0607394809
 31
0.0
  0
LINE
  5
2B7
330
1F
100
AcDbEntity
  8
0
  6
Continuous
 62
     7
100
AcDbLine
 10
1286.1385289542
 20
18.0607394809
 30
0.0
 11
1286.1385289542
 21
19.5607394809
 31
0.0
  0
LINE
  5
2B8
330
1F
100
AcDbEntity
  8
0
  6
Continuous
 62
     7
100
AcDbLine
 10
1286.1385289542
 20
18.0607394809
 30
0.0
 11
1307.6385289542
 21
18.0607394809
 31
0.0
  0
LINE
  5
2B9
330
1F
100
AcDbEntity
  8
0
  6
Continuous
 62
     7
100
AcDbLine
 10
1283.1385289542
 20
18.0607394809
 30
0.0
 11
1283.1385289542
 21
19.5607394809
 31
0.0
  0
LINE
  5
2BA
330
1F
100
AcDbEntity
  8
0
  6
Continuous
 62
     7
100
AcDbLine
 10
1283.1385289542
 20
18.0607394809
 30
0.0
 11
1286.1385289542
 21
18.0607394809
 31
0.0
  0
LINE
  5
2BB
330
1F
100
AcDbEntity
  8
0
  6
Continuous
 62
     7
100
AcDbLine
 10
1313.1385289542
 20
19.5607394809
 30
0.0
 11
1313.1385289542
 21
18.0607394809
 31
0.0
  0
LINE
  5
2BC
330
1F
100
AcDbEntity
  8
0
  6
Continuous
 62
     7
100
AcDbLine
 10
1318.1385289542
 20
18.0607394809
 30
0.0
 11
1318.1385289542
 21
19.5607394809
 31
0.0
  0
LINE
  5
2BD
330
1F
100
AcDbEntity
  8
0
  6
Continuous
 62
     7
100
AcDbLine
 10
1313.1385289542
 20
18.0607394809
 30
0.0
 11
1318.1385289542
 21
18.0607394809
 31
0.0
  0
LINE
  5
2BE
330
1F
100
AcDbEntity
  8
0
  6
Continuous
 62
     7
100
AcDbLine
 10
1310.6385289542
 20
18.0607394809
 30
0.0
 11
1313.1385289542
 21
18.0607394809
 31
0.0
  0
LINE
  5
2BF
330
1F
100
AcDbEntity
  8
0
  6
Continuous
 62
     7
100
AcDbLine
 10
1347.6385289542
 20
21.0607394809
 30
0.0
 11
1347.6385289542
 21
19.5607394809
 31
0.0
  0
LINE
  5
2C0
330
1F
100
AcDbEntity
  8
0
  6
Continuous
 62
     7
100
AcDbLine
 10
1350.6385289542
 20
21.0607394809
 30
0.0
 11
1350.6385289542
 21
19.5607394809
 31
0.0
  0
LINE
  5
2C1
330
1F
100
AcDbEntity
  8
0
  6
Continuous
 62
     7
100
AcDbLine
 10
1350.6385289542
 20
19.5607394809
 30
0.0
 11
1347.6385289542
 21
19.5607394809
 31
0.0
  0
LINE
  5
2C2
330
1F
100
AcDbEntity
  8
0
  6
Continuous
 62
     7
100
AcDbLine
 10
1350.6385289542
 20
21.0607394809
 30
0.0
 11
1347.6385289542
 21
21.0607394809
 31
0.0
  0
LINE
  5
2C3
330
1F
100
AcDbEntity
  8
0
  6
Continuous
 62
     7
100
AcDbLine
 10
662.1385289542
 20
21.0607394809
 30
0.0
 11
662.1385289542
 21
19.5607394809
 31
0.0
  0
LINE
  5
2C4
330
1F
100
AcDbEntity
  8
0
  6
Continuous
 62
     7
100
AcDbLine
 10
1347.6385289542
 20
19.5607394809
 30
0.0
 11
662.1385289542
 21
19.5607394809
 31
0.0
  0
LINE
  5
2C5
330
1F
100
AcDbEntity
  8
0
  6
Continuous
 62
     7
100
AcDbLine
 10
1347.6385289542
 20
21.0607394809
 30
0.0
 11
662.1385289542
 21
21.0607394809
 31
0.0
  0
LINE
  5
2C6
330
1F
100
AcDbEntity
  8
0
  6
Continuous
 62
     7
100
AcDbLine
 10
659.1385289542
 20
21.0607394809
 30
0.0
 11
659.1385289542
 21
19.5607394809
 31
0.0
  0
LINE
  5
2C7
330
1F
100
AcDbEntity
  8
0
  6
Continuous
 62
     7
100
AcDbLine
 10
662.1385289542
 20
19.5607394809
 30
0.0
 11
659.1385289542
 21
19.5607394809
 31
0.0
  0
LINE
  5
2C8
330
1F
100
AcDbEntity
  8
0
  6
Continuous
 62
     7
100
AcDbLine
 10
662.1385289542
 20
21.0607394809
 30
0.0
 11
659.1385289542
 21
21.0607394809
 31
0.0
  0
LINE
  5
2C9
330
1F
100
AcDbEntity
  8
0
  6
Continuous
 62
     7
100
AcDbLine
 10
1287.2385289542
 20
15.2207468719
 30
0.0
 11
1299.0385289542
 21
15.2207468719
 31
0.0
  0
LINE
  5
2CA
330
1F
100
AcDbEntity
  8
0
  6
Continuous
 62
     7
100
AcDbLine
 10
1288.045627326
 20
13.8903757456
 30
0.0
 11
1298.2314305825
 21
13.8903757456
 31
0.0
  0
LINE
  5
2CB
330
1F
100
AcDbEntity
  8
0
  6
Continuous
 62
     7
100
AcDbLine
 10
1289.3128415166
 20
13.2303683547
 30
0.0
 11
1296.9642163918
 21
13.2303683547
 31
0.0
  0
LINE
  5
2CC
330
1F
100
AcDbEntity
  8
0
  6
Continuous
 62
     7
100
AcDbLine
 10
719.0514537599
 20
15.2207468719
 30
0.0
 11
722.5385289542
 21
15.2207468719
 31
0.0
  0
LINE
  5
2CD
330
1F
100
AcDbEntity
  8
0
  6
Continuous
 62
     7
100
AcDbLine
 10
710.7385289542
 20
15.2207468719
 30
0.0
 11
719.0514537599
 21
15.2207468719
 31
0.0
  0
LINE
  5
2CE
330
1F
100
AcDbEntity
  8
0
  6
Continuous
 62
     7
100
AcDbLine
 10
718.7213744918
 20
13.8903757456
 30
0.0
 11
721.7314305825
 21
13.8903757456
 31
0.0
  0
LINE
  5
2CF
330
1F
100
AcDbEntity
  8
0
  6
Continuous
 62
     7
100
AcDbLine
 10
711.545627326
 20
13.8903757456
 30
0.0
 11
718.7213744918
 21
13.8903757456
 31
0.0
  0
LINE
  5
2D0
330
1F
100
AcDbEntity
  8
0
  6
Continuous
 62
     7
100
AcDbLine
 10
718.2031215164
 20
13.2303683547
 30
0.0
 11
720.4642163918
 21
13.2303683547
 31
0.0
  0
LINE
  5
2D1
330
1F
100
AcDbEntity
  8
0
  6
Continuous
 62
     7
100
AcDbLine
 10
712.8128415166
 20
13.2303683547
 30
0.0
 11
718.2031215164
 21
13.2303683547
 31
0.0
  0
CIRCLE
  5
2D2
330
1F
100
AcDbEntity
  8
0
  6
Continuous
 62
     7
100
AcDbCircle
 10
1525.0270418836
 20
151.3164911569
 30
0.0
 40
2.999999999999773
  0
CIRCLE
  5
2D3
330
1F
100
AcDbEntity
  8
0
  6
Continuous
 62
     7
100
AcDbCircle
 10
1525.0270418836
 20
151.3164911569
 30
0.0
 40
2.5
  0
CIRCLE
  5
2D4
330
1F
100
AcDbEntity
  8
0
  6
Continuous
 62
     7
100
AcDbCircle
 10
1525.0270418836
 20
101.3164911569
 30
0.0
 40
2.999999999999773
  0
CIRCLE
  5
2D5
330
1F
100
AcDbEntity
  8
0
  6
Continuous
 62
     7
100
AcDbCircle
 10
1525.0270418836
 20
101.3164911569
 30
0.0
 40
2.5
  0
CIRCLE
  5
2D6
330
1F
100
AcDbEntity
  8
0
  6
Continuous
 62
     7
100
AcDbCircle
 10
2101.5270418836
 20
101.3164911569
 30
0.0
 40
2.999999999999985
  0
CIRCLE
  5
2D7
330
1F
100
AcDbEntity
  8
0
  6
Continuous
 62
     7
100
AcDbCircle
 10
2101.5270418836
 20
101.3164911569
 30
0.0
 40
2.499999999999959
  0
CIRCLE
  5
2D8
330
1F
100
AcDbEntity
  8
0
  6
Continuous
 62
     7
100
AcDbCircle
 10
2101.5270418836
 20
151.3164911569
 30
0.0
 40
2.999999999999973
  0
CIRCLE
  5
2D9
330
1F
100
AcDbEntity
  8
0
  6
Continuous
 62
     7
100
AcDbCircle
 10
2101.5270418836
 20
151.3164911569
 30
0.0
 40
2.499999999999959
  0
LINE
  5
2DA
330
1F
100
AcDbEntity
  8
0
  6
Continuous
 62
     7
100
AcDbLine
 10
2119.0270418836
 20
126.8164911569
 30
0.0
 11
2121.5270418836
 21
126.8164911569
 31
0.0
  0
LINE
  5
2DB
330
1F
100
AcDbEntity
  8
0
  6
Continuous
 62
     7
100
AcDbLine
 10
2121.5270418836
 20
133.8164911569
 30
0.0
 11
2121.5270418836
 21
126.8164911569
 31
0.0
  0
LINE
  5
2DC
330
1F
100
AcDbEntity
  8
0
  6
Continuous
 62
     7
100
AcDbLine
 10
2121.5270418836
 20
133.8164911569
 30
0.0
 11
2126.5270418836
 21
133.8164911569
 31
0.0
  0
LINE
  5
2DD
330
1F
100
AcDbEntity
  8
0
  6
Continuous
 62
     7
100
AcDbLine
 10
2126.5270418836
 20
133.8164911569
 30
0.0
 11
2126.5270418836
 21
96.8164911569
 31
0.0
  0
LINE
  5
2DE
330
1F
100
AcDbEntity
  8
0
  6
Continuous
 62
     7
100
AcDbLine
 10
2126.5270418836
 20
96.8164911569
 30
0.0
 11
2123.5270418836
 21
93.8164911569
 31
0.0
  0
LINE
  5
2DF
330
1F
100
AcDbEntity
  8
0
  6
Continuous
 62
     7
100
AcDbLine
 10
2123.5270418836
 20
93.8164911569
 30
0.0
 11
2117.5270418836
 21
93.8164911569
 31
0.0
  0
LINE
  5
2E0
330
1F
100
AcDbEntity
  8
0
  6
Continuous
 62
     7
100
AcDbLine
 10
2117.5270418836
 20
157.3164911569
 30
0.0
 11
2119.0270418836
 21
155.8164911569
 31
0.0
  0
LINE
  5
2E1
330
1F
100
AcDbEntity
  8
0
  6
Continuous
 62
     7
100
AcDbLine
 10
2119.0270418836
 20
155.8164911569
 30
0.0
 11
2119.0270418836
 21
126.8164911569
 31
0.0
  0
LINE
  5
2E2
330
1F
100
AcDbEntity
  8
0
  6
Continuous
 62
     7
100
AcDbLine
 10
1509.0270418836
 20
157.3164911569
 30
0.0
 11
1507.5270418836
 21
155.8164911569
 31
0.0
  0
LINE
  5
2E3
330
1F
100
AcDbEntity
  8
0
  6
Continuous
 62
     7
100
AcDbLine
 10
1503.0270418836
 20
93.8164911569
 30
0.0
 11
1509.0270418836
 21
93.8164911569
 31
0.0
  0
LINE
  5
2E4
330
1F
100
AcDbEntity
  8
0
  6
Continuous
 62
     7
100
AcDbLine
 10
1500.0270418836
 20
96.8164911569
 30
0.0
 11
1503.0270418836
 21
93.8164911569
 31
0.0
  0
LINE
  5
2E5
330
1F
100
AcDbEntity
  8
0
  6
Continuous
 62
     7
100
AcDbLine
 10
1500.0270418836
 20
133.8164911569
 30
0.0
 11
1500.0270418836
 21
96.8164911569
 31
0.0
  0
LINE
  5
2E6
330
1F
100
AcDbEntity
  8
0
  6
Continuous
 62
     7
100
AcDbLine
 10
1500.0270418836
 20
133.8164911569
 30
0.0
 11
1505.0270418836
 21
133.8164911569
 31
0.0
  0
LINE
  5
2E7
330
1F
100
AcDbEntity
  8
0
  6
Continuous
 62
     7
100
AcDbLine
 10
1505.0270418836
 20
133.8164911569
 30
0.0
 11
1505.0270418836
 21
126.8164911569
 31
0.0
  0
LINE
  5
2E8
330
1F
100
AcDbEntity
  8
0
  6
Continuous
 62
     7
100
AcDbLine
 10
1507.5270418836
 20
126.8164911569
 30
0.0
 11
1505.0270418836
 21
126.8164911569
 31
0.0
  0
LINE
  5
2E9
330
1F
100
AcDbEntity
  8
0
  6
Continuous
 62
     7
100
AcDbLine
 10
1507.5270418836
 20
155.8164911569
 30
0.0
 11
1507.5270418836
 21
126.8164911569
 31
0.0
  0
CIRCLE
  5
2EA
330
1F
100
AcDbEntity
  8
0
  6
Continuous
 62
     7
100
AcDbCircle
 10
1913.2770418836
 20
204.3164911569
 30
0.0
 40
2.599999999999994
  0
CIRCLE
  5
2EB
330
1F
100
AcDbEntity
  8
0
  6
Continuous
 62
     7
100
AcDbCircle
 10
2013.2770418836
 20
204.3164911569
 30
0.0
 40
2.599999999999994
  0
CIRCLE
  5
2EC
330
1F
100
AcDbEntity
  8
0
  6
Continuous
 62
     7
100
AcDbCircle
 10
2113.2770418836
 20
204.3164911569
 30
0.0
 40
2.599999999999994
  0
CIRCLE
  5
2ED
330
1F
100
AcDbEntity
  8
0
  6
Continuous
 62
     7
100
AcDbCircle
 10
1863.2770418836
 20
204.3164911569
 30
0.0
 40
3.249999999999972
  0
CIRCLE
  5
2EE
330
1F
100
AcDbEntity
  8
0
  6
Continuous
 62
     7
100
AcDbCircle
 10
1963.2770418836
 20
204.3164911569
 30
0.0
 40
3.25
  0
CIRCLE
  5
2EF
330
1F
100
AcDbEntity
  8
0
  6
Continuous
 62
     7
100
AcDbCircle
 10
2063.2770418836
 20
204.3164911569
 30
0.0
 40
3.25
  0
CIRCLE
  5
2F0
330
1F
100
AcDbEntity
  8
0
  6
Continuous
 62
     7
100
AcDbCircle
 10
1813.2770418836
 20
204.3164911569
 30
0.0
 40
2.599999999999994
  0
CIRCLE
  5
2F1
330
1F
100
AcDbEntity
  8
0
  6
Continuous
 62
     7
100
AcDbCircle
 10
1713.2770418836
 20
204.3164911569
 30
0.0
 40
2.599999999999994
  0
CIRCLE
  5
2F2
330
1F
100
AcDbEntity
  8
0
  6
Continuous
 62
     7
100
AcDbCircle
 10
1613.2770418836
 20
204.3164911569
 30
0.0
 40
2.599999999999994
  0
CIRCLE
  5
2F3
330
1F
100
AcDbEntity
  8
0
  6
Continuous
 62
     7
100
AcDbCircle
 10
1513.2770418836
 20
204.3164911569
 30
0.0
 40
2.599999999999994
  0
LINE
  5
2F4
330
1F
100
AcDbEntity
  8
0
  6
Continuous
 62
     7
100
AcDbLine
 10
2090.7770418836
 20
223.8164911569
 30
0.0
 11
2090.7770418836
 21
226.4946988941
 31
0.0
  0
LINE
  5
2F5
330
1F
100
AcDbEntity
  8
0
  6
Continuous
 62
     7
100
AcDbLine
 10
2135.7770418836
 20
223.8164911569
 30
0.0
 11
2090.7770418836
 21
223.8164911569
 31
0.0
  0
LINE
  5
2F6
330
1F
100
AcDbEntity
  8
0
  6
Continuous
 62
     7
100
AcDbLine
 10
2135.7770418836
 20
226.4946988941
 30
0.0
 11
2135.7770418836
 21
223.8164911569
 31
0.0
  0
LINE
  5
2F7
330
1F
100
AcDbEntity
  8
0
  6
Continuous
 62
     7
100
AcDbLine
 10
2090.7770418836
 20
226.4946988941
 30
0.0
 11
2135.7770418836
 21
226.4946988941
 31
0.0
  0
LINE
  5
2F8
330
1F
100
AcDbEntity
  8
0
  6
Continuous
 62
     7
100
AcDbLine
 10
2040.7770418836
 20
223.8164911569
 30
0.0
 11
2040.7770418836
 21
226.4946988941
 31
0.0
  0
LINE
  5
2F9
330
1F
100
AcDbEntity
  8
0
  6
Continuous
 62
     7
100
AcDbLine
 10
2085.7770418836
 20
223.8164911569
 30
0.0
 11
2040.7770418836
 21
223.8164911569
 31
0.0
  0
LINE
  5
2FA
330
1F
100
AcDbEntity
  8
0
  6
Continuous
 62
     7
100
AcDbLine
 10
2085.7770418836
 20
226.4946988941
 30
0.0
 11
2085.7770418836
 21
223.8164911569
 31
0.0
  0
LINE
  5
2FB
330
1F
100
AcDbEntity
  8
0
  6
Continuous
 62
     7
100
AcDbLine
 10
2040.7770418836
 20
226.4946988941
 30
0.0
 11
2085.7770418836
 21
226.4946988941
 31
0.0
  0
LINE
  5
2FC
330
1F
100
AcDbEntity
  8
0
  6
Continuous
 62
     7
100
AcDbLine
 10
1990.7770418836
 20
223.8164911569
 30
0.0
 11
1990.7770418836
 21
226.4946988941
 31
0.0
  0
LINE
  5
2FD
330
1F
100
AcDbEntity
  8
0
  6
Continuous
 62
     7
100
AcDbLine
 10
2035.7770418836
 20
223.8164911569
 30
0.0
 11
1990.7770418836
 21
223.8164911569
 31
0.0
  0
LINE
  5
2FE
330
1F
100
AcDbEntity
  8
0
  6
Continuous
 62
     7
100
AcDbLine
 10
2035.7770418836
 20
226.4946988941
 30
0.0
 11
2035.7770418836
 21
223.8164911569
 31
0.0
  0
LINE
  5
2FF
330
1F
100
AcDbEntity
  8
0
  6
Continuous
 62
     7
100
AcDbLine
 10
1990.7770418836
 20
226.4946988941
 30
0.0
 11
2035.7770418836
 21
226.4946988941
 31
0.0
  0
LINE
  5
300
330
1F
100
AcDbEntity
  8
0
  6
Continuous
 62
     7
100
AcDbLine
 10
1940.7770418836
 20
223.8164911569
 30
0.0
 11
1940.7770418836
 21
226.4946988941
 31
0.0
  0
LINE
  5
301
330
1F
100
AcDbEntity
  8
0
  6
Continuous
 62
     7
100
AcDbLine
 10
1985.7770418836
 20
223.8164911569
 30
0.0
 11
1940.7770418836
 21
223.8164911569
 31
0.0
  0
LINE
  5
302
330
1F
100
AcDbEntity
  8
0
  6
Continuous
 62
     7
100
AcDbLine
 10
1985.7770418836
 20
226.4946988941
 30
0.0
 11
1985.7770418836
 21
223.8164911569
 31
0.0
  0
LINE
  5
303
330
1F
100
AcDbEntity
  8
0
  6
Continuous
 62
     7
100
AcDbLine
 10
1940.7770418836
 20
226.4946988941
 30
0.0
 11
1985.7770418836
 21
226.4946988941
 31
0.0
  0
LINE
  5
304
330
1F
100
AcDbEntity
  8
0
  6
Continuous
 62
     7
100
AcDbLine
 10
1890.7770418836
 20
223.8164911569
 30
0.0
 11
1890.7770418836
 21
226.4946988941
 31
0.0
  0
LINE
  5
305
330
1F
100
AcDbEntity
  8
0
  6
Continuous
 62
     7
100
AcDbLine
 10
1935.7770418836
 20
223.8164911569
 30
0.0
 11
1890.7770418836
 21
223.8164911569
 31
0.0
  0
LINE
  5
306
330
1F
100
AcDbEntity
  8
0
  6
Continuous
 62
     7
100
AcDbLine
 10
1935.7770418836
 20
226.4946988941
 30
0.0
 11
1935.7770418836
 21
223.8164911569
 31
0.0
  0
LINE
  5
307
330
1F
100
AcDbEntity
  8
0
  6
Continuous
 62
     7
100
AcDbLine
 10
1890.7770418836
 20
226.4946988941
 30
0.0
 11
1935.7770418836
 21
226.4946988941
 31
0.0
  0
LINE
  5
308
330
1F
100
AcDbEntity
  8
0
  6
Continuous
 62
     7
100
AcDbLine
 10
1840.7770418836
 20
223.8164911569
 30
0.0
 11
1840.7770418836
 21
226.4946988941
 31
0.0
  0
LINE
  5
309
330
1F
100
AcDbEntity
  8
0
  6
Continuous
 62
     7
100
AcDbLine
 10
1885.7770418836
 20
223.8164911569
 30
0.0
 11
1840.7770418836
 21
223.8164911569
 31
0.0
  0
LINE
  5
30A
330
1F
100
AcDbEntity
  8
0
  6
Continuous
 62
     7
100
AcDbLine
 10
1885.7770418836
 20
226.4946988941
 30
0.0
 11
1885.7770418836
 21
223.8164911569
 31
0.0
  0
LINE
  5
30B
330
1F
100
AcDbEntity
  8
0
  6
Continuous
 62
     7
100
AcDbLine
 10
1840.7770418836
 20
226.4946988941
 30
0.0
 11
1885.7770418836
 21
226.4946988941
 31
0.0
  0
LINE
  5
30C
330
1F
100
AcDbEntity
  8
0
  6
Continuous
 62
     7
100
AcDbLine
 10
1790.7770418836
 20
223.8164911569
 30
0.0
 11
1790.7770418836
 21
226.4946988941
 31
0.0
  0
LINE
  5
30D
330
1F
100
AcDbEntity
  8
0
  6
Continuous
 62
     7
100
AcDbLine
 10
1835.7770418836
 20
223.8164911569
 30
0.0
 11
1790.7770418836
 21
223.8164911569
 31
0.0
  0
LINE
  5
30E
330
1F
100
AcDbEntity
  8
0
  6
Continuous
 62
     7
100
AcDbLine
 10
1835.7770418836
 20
226.4946988941
 30
0.0
 11
1835.7770418836
 21
223.8164911569
 31
0.0
  0
LINE
  5
30F
330
1F
100
AcDbEntity
  8
0
  6
Continuous
 62
     7
100
AcDbLine
 10
1790.7770418836
 20
226.4946988941
 30
0.0
 11
1835.7770418836
 21
226.4946988941
 31
0.0
  0
LINE
  5
310
330
1F
100
AcDbEntity
  8
0
  6
Continuous
 62
     7
100
AcDbLine
 10
1740.7770418836
 20
223.8164911569
 30
0.0
 11
1740.7770418836
 21
226.4946988941
 31
0.0
  0
LINE
  5
311
330
1F
100
AcDbEntity
  8
0
  6
Continuous
 62
     7
100
AcDbLine
 10
1785.7770418836
 20
223.8164911569
 30
0.0
 11
1740.7770418836
 21
223.8164911569
 31
0.0
  0
LINE
  5
312
330
1F
100
AcDbEntity
  8
0
  6
Continuous
 62
     7
100
AcDbLine
 10
1785.7770418836
 20
226.4946988941
 30
0.0
 11
1785.7770418836
 21
223.8164911569
 31
0.0
  0
LINE
  5
313
330
1F
100
AcDbEntity
  8
0
  6
Continuous
 62
     7
100
AcDbLine
 10
1740.7770418836
 20
226.4946988941
 30
0.0
 11
1785.7770418836
 21
226.4946988941
 31
0.0
  0
LINE
  5
314
330
1F
100
AcDbEntity
  8
0
  6
Continuous
 62
     7
100
AcDbLine
 10
1690.7770418836
 20
223.8164911569
 30
0.0
 11
1690.7770418836
 21
226.4946988941
 31
0.0
  0
LINE
  5
315
330
1F
100
AcDbEntity
  8
0
  6
Continuous
 62
     7
100
AcDbLine
 10
1735.7770418836
 20
223.8164911569
 30
0.0
 11
1690.7770418836
 21
223.8164911569
 31
0.0
  0
LINE
  5
316
330
1F
100
AcDbEntity
  8
0
  6
Continuous
 62
     7
100
AcDbLine
 10
1735.7770418836
 20
226.4946988941
 30
0.0
 11
1735.7770418836
 21
223.8164911569
 31
0.0
  0
LINE
  5
317
330
1F
100
AcDbEntity
  8
0
  6
Continuous
 62
     7
100
AcDbLine
 10
1690.7770418836
 20
226.4946988941
 30
0.0
 11
1735.7770418836
 21
226.4946988941
 31
0.0
  0
LINE
  5
318
330
1F
100
AcDbEntity
  8
0
  6
Continuous
 62
     7
100
AcDbLine
 10
1640.7770418836
 20
223.8164911569
 30
0.0
 11
1640.7770418836
 21
226.4946988941
 31
0.0
  0
LINE
  5
319
330
1F
100
AcDbEntity
  8
0
  6
Continuous
 62
     7
100
AcDbLine
 10
1685.7770418836
 20
223.8164911569
 30
0.0
 11
1640.7770418836
 21
223.8164911569
 31
0.0
  0
LINE
  5
31A
330
1F
100
AcDbEntity
  8
0
  6
Continuous
 62
     7
100
AcDbLine
 10
1685.7770418836
 20
226.4946988941
 30
0.0
 11
1685.7770418836
 21
223.8164911569
 31
0.0
  0
LINE
  5
31B
330
1F
100
AcDbEntity
  8
0
  6
Continuous
 62
     7
100
AcDbLine
 10
1640.7770418836
 20
226.4946988941
 30
0.0
 11
1685.7770418836
 21
226.4946988941
 31
0.0
  0
LINE
  5
31C
330
1F
100
AcDbEntity
  8
0
  6
Continuous
 62
     7
100
AcDbLine
 10
1590.7770418836
 20
223.8164911569
 30
0.0
 11
1590.7770418836
 21
226.4946988941
 31
0.0
  0
LINE
  5
31D
330
1F
100
AcDbEntity
  8
0
  6
Continuous
 62
     7
100
AcDbLine
 10
1635.7770418836
 20
223.8164911569
 30
0.0
 11
1590.7770418836
 21
223.8164911569
 31
0.0
  0
LINE
  5
31E
330
1F
100
AcDbEntity
  8
0
  6
Continuous
 62
     7
100
AcDbLine
 10
1635.7770418836
 20
226.4946988941
 30
0.0
 11
1635.7770418836
 21
223.8164911569
 31
0.0
  0
LINE
  5
31F
330
1F
100
AcDbEntity
  8
0
  6
Continuous
 62
     7
100
AcDbLine
 10
1590.7770418836
 20
226.4946988941
 30
0.0
 11
1635.7770418836
 21
226.4946988941
 31
0.0
  0
LINE
  5
320
330
1F
100
AcDbEntity
  8
0
  6
Continuous
 62
     7
100
AcDbLine
 10
2052.7770418836
 20
183.3164911569
 30
0.0
 11
2073.7770418836
 21
183.3164911569
 31
0.0
  0
ARC
  5
321
330
1F
100
AcDbEntity
  8
0
  6
Continuous
 62
     7
100
AcDbCircle
 10
2052.7770418836
 20
179.3164911569
 30
0.0
 40
4.0
100
AcDbArc
 50
90.0
 51
270.0
  0
LINE
  5
322
330
1F
100
AcDbEntity
  8
0
  6
Continuous
 62
     7
100
AcDbLine
 10
2073.7770418836
 20
175.3164911569
 30
0.0
 11
2052.7770418836
 21
175.3164911569
 31
0.0
  0
ARC
  5
323
330
1F
100
AcDbEntity
  8
0
  6
Continuous
 62
     7
100
AcDbCircle
 10
2073.7770418836
 20
179.3164911569
 30
0.0
 40
4.0
100
AcDbArc
 50
270.0
 51
90.0
  0
LINE
  5
324
330
1F
100
AcDbEntity
  8
0
  6
Continuous
 62
     7
100
AcDbLine
 10
2002.7770418836
 20
183.3164911569
 30
0.0
 11
2023.7770418836
 21
183.3164911569
 31
0.0
  0
ARC
  5
325
330
1F
100
AcDbEntity
  8
0
  6
Continuous
 62
     7
100
AcDbCircle
 10
2002.7770418836
 20
179.3164911569
 30
0.0
 40
4.000000000000028
100
AcDbArc
 50
90.0
 51
270.0
  0
LINE
  5
326
330
1F
100
AcDbEntity
  8
0
  6
Continuous
 62
     7
100
AcDbLine
 10
2023.7770418836
 20
175.3164911569
 30
0.0
 11
2002.7770418836
 21
175.3164911569
 31
0.0
  0
ARC
  5
327
330
1F
100
AcDbEntity
  8
0
  6
Continuous
 62
     7
100
AcDbCircle
 10
2023.7770418836
 20
179.3164911569
 30
0.0
 40
4.0
100
AcDbArc
 50
270.0
 51
90.0
  0
LINE
  5
328
330
1F
100
AcDbEntity
  8
0
  6
Continuous
 62
     7
100
AcDbLine
 10
1952.7770418836
 20
183.3164911569
 30
0.0
 11
1973.7770418836
 21
183.3164911569
 31
0.0
  0
ARC
  5
329
330
1F
100
AcDbEntity
  8
0
  6
Continuous
 62
     7
100
AcDbCircle
 10
1952.7770418836
 20
179.3164911569
 30
0.0
 40
4.0
100
AcDbArc
 50
90.0
 51
270.0
  0
LINE
  5
32A
330
1F
100
AcDbEntity
  8
0
  6
Continuous
 62
     7
100
AcDbLine
 10
1973.7770418836
 20
175.3164911569
 30
0.0
 11
1952.7770418836
 21
175.3164911569
 31
0.0
  0
ARC
  5
32B
330
1F
100
AcDbEntity
  8
0
  6
Continuous
 62
     7
100
AcDbCircle
 10
1973.7770418836
 20
179.3164911569
 30
0.0
 40
4.0
100
AcDbArc
 50
270.0
 51
90.0
  0
LINE
  5
32C
330
1F
100
AcDbEntity
  8
0
  6
Continuous
 62
     7
100
AcDbLine
 10
1902.7770418836
 20
183.3164911569
 30
0.0
 11
1923.7770418836
 21
183.3164911569
 31
0.0
  0
ARC
  5
32D
330
1F
100
AcDbEntity
  8
0
  6
Continuous
 62
     7
100
AcDbCircle
 10
1902.7770418836
 20
179.3164911569
 30
0.0
 40
4.000000000000028
100
AcDbArc
 50
90.0
 51
270.0
  0
LINE
  5
32E
330
1F
100
AcDbEntity
  8
0
  6
Continuous
 62
     7
100
AcDbLine
 10
1923.7770418836
 20
175.3164911569
 30
0.0
 11
1902.7770418836
 21
175.3164911569
 31
0.0
  0
ARC
  5
32F
330
1F
100
AcDbEntity
  8
0
  6
Continuous
 62
     7
100
AcDbCircle
 10
1923.7770418836
 20
179.3164911569
 30
0.0
 40
4.0
100
AcDbArc
 50
270.0
 51
90.0
  0
LINE
  5
330
330
1F
100
AcDbEntity
  8
0
  6
Continuous
 62
     7
100
AcDbLine
 10
1852.7770418836
 20
183.3164911569
 30
0.0
 11
1873.7770418836
 21
183.3164911569
 31
0.0
  0
ARC
  5
331
330
1F
100
AcDbEntity
  8
0
  6
Continuous
 62
     7
100
AcDbCircle
 10
1852.7770418836
 20
179.3164911569
 30
0.0
 40
4.0
100
AcDbArc
 50
90.0
 51
270.0
  0
LINE
  5
332
330
1F
100
AcDbEntity
  8
0
  6
Continuous
 62
     7
100
AcDbLine
 10
1873.7770418836
 20
175.3164911569
 30
0.0
 11
1852.7770418836
 21
175.3164911569
 31
0.0
  0
ARC
  5
333
330
1F
100
AcDbEntity
  8
0
  6
Continuous
 62
     7
100
AcDbCircle
 10
1873.7770418836
 20
179.3164911569
 30
0.0
 40
4.0
100
AcDbArc
 50
270.0
 51
90.0
  0
LINE
  5
334
330
1F
100
AcDbEntity
  8
0
  6
Continuous
 62
     7
100
AcDbLine
 10
1802.7770418836
 20
183.3164911569
 30
0.0
 11
1823.7770418836
 21
183.3164911569
 31
0.0
  0
ARC
  5
335
330
1F
100
AcDbEntity
  8
0
  6
Continuous
 62
     7
100
AcDbCircle
 10
1802.7770418836
 20
179.3164911569
 30
0.0
 40
4.0
100
AcDbArc
 50
90.0
 51
270.0
  0
LINE
  5
336
330
1F
100
AcDbEntity
  8
0
  6
Continuous
 62
     7
100
AcDbLine
 10
1823.7770418836
 20
175.3164911569
 30
0.0
 11
1802.7770418836
 21
175.3164911569
 31
0.0
  0
ARC
  5
337
330
1F
100
AcDbEntity
  8
0
  6
Continuous
 62
     7
100
AcDbCircle
 10
1823.7770418836
 20
179.3164911569
 30
0.0
 40
4.0
100
AcDbArc
 50
270.0
 51
90.0
  0
LINE
  5
338
330
1F
100
AcDbEntity
  8
0
  6
Continuous
 62
     7
100
AcDbLine
 10
1752.7770418836
 20
183.3164911569
 30
0.0
 11
1773.7770418836
 21
183.3164911569
 31
0.0
  0
ARC
  5
339
330
1F
100
AcDbEntity
  8
0
  6
Continuous
 62
     7
100
AcDbCircle
 10
1752.7770418836
 20
179.3164911569
 30
0.0
 40
4.0
100
AcDbArc
 50
90.0
 51
270.0
  0
LINE
  5
33A
330
1F
100
AcDbEntity
  8
0
  6
Continuous
 62
     7
100
AcDbLine
 10
1773.7770418836
 20
175.3164911569
 30
0.0
 11
1752.7770418836
 21
175.3164911569
 31
0.0
  0
ARC
  5
33B
330
1F
100
AcDbEntity
  8
0
  6
Continuous
 62
     7
100
AcDbCircle
 10
1773.7770418836
 20
179.3164911569
 30
0.0
 40
4.000000000000028
100
AcDbArc
 50
270.0
 51
90.0
  0
LINE
  5
33C
330
1F
100
AcDbEntity
  8
0
  6
Continuous
 62
     7
100
AcDbLine
 10
1702.7770418836
 20
183.3164911569
 30
0.0
 11
1723.7770418836
 21
183.3164911569
 31
0.0
  0
ARC
  5
33D
330
1F
100
AcDbEntity
  8
0
  6
Continuous
 62
     7
100
AcDbCircle
 10
1702.7770418836
 20
179.3164911569
 30
0.0
 40
4.0
100
AcDbArc
 50
90.0
 51
270.0
  0
LINE
  5
33E
330
1F
100
AcDbEntity
  8
0
  6
Continuous
 62
     7
100
AcDbLine
 10
1723.7770418836
 20
175.3164911569
 30
0.0
 11
1702.7770418836
 21
175.3164911569
 31
0.0
  0
ARC
  5
33F
330
1F
100
AcDbEntity
  8
0
  6
Continuous
 62
     7
100
AcDbCircle
 10
1723.7770418836
 20
179.3164911569
 30
0.0
 40
4.0
100
AcDbArc
 50
270.0
 51
90.0
  0
LINE
  5
340
330
1F
100
AcDbEntity
  8
0
  6
Continuous
 62
     7
100
AcDbLine
 10
1652.7770418836
 20
183.3164911569
 30
0.0
 11
1673.7770418836
 21
183.3164911569
 31
0.0
  0
ARC
  5
341
330
1F
100
AcDbEntity
  8
0
  6
Continuous
 62
     7
100
AcDbCircle
 10
1652.7770418836
 20
179.3164911569
 30
0.0
 40
4.000000000000028
100
AcDbArc
 50
90.0
 51
270.0
  0
LINE
  5
342
330
1F
100
AcDbEntity
  8
0
  6
Continuous
 62
     7
100
AcDbLine
 10
1673.7770418836
 20
175.3164911569
 30
0.0
 11
1652.7770418836
 21
175.3164911569
 31
0.0
  0
ARC
  5
343
330
1F
100
AcDbEntity
  8
0
  6
Continuous
 62
     7
100
AcDbCircle
 10
1673.7770418836
 20
179.3164911569
 30
0.0
 40
4.000000000000028
100
AcDbArc
 50
270.0
 51
90.0
  0
LINE
  5
344
330
1F
100
AcDbEntity
  8
0
  6
Continuous
 62
     7
100
AcDbLine
 10
1602.7770418836
 20
183.3164911569
 30
0.0
 11
1623.7770418836
 21
183.3164911569
 31
0.0
  0
ARC
  5
345
330
1F
100
AcDbEntity
  8
0
  6
Continuous
 62
     7
100
AcDbCircle
 10
1602.7770418836
 20
179.3164911569
 30
0.0
 40
4.0
100
AcDbArc
 50
90.0
 51
270.0
  0
LINE
  5
346
330
1F
100
AcDbEntity
  8
0
  6
Continuous
 62
     7
100
AcDbLine
 10
1623.7770418836
 20
175.3164911569
 30
0.0
 11
1602.7770418836
 21
175.3164911569
 31
0.0
  0
ARC
  5
347
330
1F
100
AcDbEntity
  8
0
  6
Continuous
 62
     7
100
AcDbCircle
 10
1623.7770418836
 20
179.3164911569
 30
0.0
 40
4.0
100
AcDbArc
 50
270.0
 51
90.0
  0
LINE
  5
348
330
1F
100
AcDbEntity
  8
0
  6
Continuous
 62
     7
100
AcDbLine
 10
1552.7770418836
 20
183.3164911569
 30
0.0
 11
1573.7770418836
 21
183.3164911569
 31
0.0
  0
ARC
  5
349
330
1F
100
AcDbEntity
  8
0
  6
Continuous
 62
     7
100
AcDbCircle
 10
1552.7770418836
 20
179.3164911569
 30
0.0
 40
4.000000000000028
100
AcDbArc
 50
90.0
 51
270.0
  0
LINE
  5
34A
330
1F
100
AcDbEntity
  8
0
  6
Continuous
 62
     7
100
AcDbLine
 10
1573.7770418836
 20
175.3164911569
 30
0.0
 11
1552.7770418836
 21
175.3164911569
 31
0.0
  0
ARC
  5
34B
330
1F
100
AcDbEntity
  8
0
  6
Continuous
 62
     7
100
AcDbCircle
 10
1573.7770418836
 20
179.3164911569
 30
0.0
 40
4.0
100
AcDbArc
 50
270.0
 51
90.0
  0
LINE
  5
34C
330
1F
100
AcDbEntity
  8
0
  6
Continuous
 62
     7
100
AcDbLine
 10
2052.7770418836
 20
145.8164911569
 30
0.0
 11
2073.7770418836
 21
145.8164911569
 31
0.0
  0
ARC
  5
34D
330
1F
100
AcDbEntity
  8
0
  6
Continuous
 62
     7
100
AcDbCircle
 10
2052.7770418836
 20
141.8164911569
 30
0.0
 40
4.0
100
AcDbArc
 50
90.0
 51
270.0
  0
LINE
  5
34E
330
1F
100
AcDbEntity
  8
0
  6
Continuous
 62
     7
100
AcDbLine
 10
2073.7770418836
 20
137.8164911569
 30
0.0
 11
2052.7770418836
 21
137.8164911569
 31
0.0
  0
ARC
  5
34F
330
1F
100
AcDbEntity
  8
0
  6
Continuous
 62
     7
100
AcDbCircle
 10
2073.7770418836
 20
141.8164911569
 30
0.0
 40
4.0
100
AcDbArc
 50
270.0
 51
90.0
  0
LINE
  5
350
330
1F
100
AcDbEntity
  8
0
  6
Continuous
 62
     7
100
AcDbLine
 10
2002.7770418836
 20
145.8164911569
 30
0.0
 11
2023.7770418836
 21
145.8164911569
 31
0.0
  0
ARC
  5
351
330
1F
100
AcDbEntity
  8
0
  6
Continuous
 62
     7
100
AcDbCircle
 10
2002.7770418836
 20
141.8164911569
 30
0.0
 40
4.0
100
AcDbArc
 50
90.0
 51
270.0
  0
LINE
  5
352
330
1F
100
AcDbEntity
  8
0
  6
Continuous
 62
     7
100
AcDbLine
 10
2023.7770418836
 20
137.8164911569
 30
0.0
 11
2002.7770418836
 21
137.8164911569
 31
0.0
  0
ARC
  5
353
330
1F
100
AcDbEntity
  8
0
  6
Continuous
 62
     7
100
AcDbCircle
 10
2023.7770418836
 20
141.8164911569
 30
0.0
 40
4.000000000000028
100
AcDbArc
 50
270.0
 51
90.0
  0
LINE
  5
354
330
1F
100
AcDbEntity
  8
0
  6
Continuous
 62
     7
100
AcDbLine
 10
1952.7770418836
 20
145.8164911569
 30
0.0
 11
1973.7770418836
 21
145.8164911569
 31
0.0
  0
ARC
  5
355
330
1F
100
AcDbEntity
  8
0
  6
Continuous
 62
     7
100
AcDbCircle
 10
1952.7770418836
 20
141.8164911569
 30
0.0
 40
4.0
100
AcDbArc
 50
90.0
 51
270.0
  0
LINE
  5
356
330
1F
100
AcDbEntity
  8
0
  6
Continuous
 62
     7
100
AcDbLine
 10
1973.7770418836
 20
137.8164911569
 30
0.0
 11
1952.7770418836
 21
137.8164911569
 31
0.0
  0
ARC
  5
357
330
1F
100
AcDbEntity
  8
0
  6
Continuous
 62
     7
100
AcDbCircle
 10
1973.7770418836
 20
141.8164911569
 30
0.0
 40
4.0
100
AcDbArc
 50
270.0
 51
90.0
  0
LINE
  5
358
330
1F
100
AcDbEntity
  8
0
  6
Continuous
 62
     7
100
AcDbLine
 10
1902.7770418836
 20
145.8164911569
 30
0.0
 11
1923.7770418836
 21
145.8164911569
 31
0.0
  0
ARC
  5
359
330
1F
100
AcDbEntity
  8
0
  6
Continuous
 62
     7
100
AcDbCircle
 10
1902.7770418836
 20
141.8164911569
 30
0.0
 40
4.000000000000028
100
AcDbArc
 50
90.0
 51
270.0
  0
LINE
  5
35A
330
1F
100
AcDbEntity
  8
0
  6
Continuous
 62
     7
100
AcDbLine
 10
1923.7770418836
 20
137.8164911569
 30
0.0
 11
1902.7770418836
 21
137.8164911569
 31
0.0
  0
ARC
  5
35B
330
1F
100
AcDbEntity
  8
0
  6
Continuous
 62
     7
100
AcDbCircle
 10
1923.7770418836
 20
141.8164911569
 30
0.0
 40
4.000000000000028
100
AcDbArc
 50
270.0
 51
90.0
  0
LINE
  5
35C
330
1F
100
AcDbEntity
  8
0
  6
Continuous
 62
     7
100
AcDbLine
 10
1852.7770418836
 20
145.8164911569
 30
0.0
 11
1873.7770418836
 21
145.8164911569
 31
0.0
  0
ARC
  5
35D
330
1F
100
AcDbEntity
  8
0
  6
Continuous
 62
     7
100
AcDbCircle
 10
1852.7770418836
 20
141.8164911569
 30
0.0
 40
4.0
100
AcDbArc
 50
90.0
 51
270.0
  0
LINE
  5
35E
330
1F
100
AcDbEntity
  8
0
  6
Continuous
 62
     7
100
AcDbLine
 10
1873.7770418836
 20
137.8164911569
 30
0.0
 11
1852.7770418836
 21
137.8164911569
 31
0.0
  0
ARC
  5
35F
330
1F
100
AcDbEntity
  8
0
  6
Continuous
 62
     7
100
AcDbCircle
 10
1873.7770418836
 20
141.8164911569
 30
0.0
 40
4.0
100
AcDbArc
 50
270.0
 51
90.0
  0
LINE
  5
360
330
1F
100
AcDbEntity
  8
0
  6
Continuous
 62
     7
100
AcDbLine
 10
1802.7770418836
 20
145.8164911569
 30
0.0
 11
1823.7770418836
 21
145.8164911569
 31
0.0
  0
ARC
  5
361
330
1F
100
AcDbEntity
  8
0
  6
Continuous
 62
     7
100
AcDbCircle
 10
1802.7770418836
 20
141.8164911569
 30
0.0
 40
4.000000000000028
100
AcDbArc
 50
90.0
 51
270.0
  0
LINE
  5
362
330
1F
100
AcDbEntity
  8
0
  6
Continuous
 62
     7
100
AcDbLine
 10
1823.7770418836
 20
137.8164911569
 30
0.0
 11
1802.7770418836
 21
137.8164911569
 31
0.0
  0
ARC
  5
363
330
1F
100
AcDbEntity
  8
0
  6
Continuous
 62
     7
100
AcDbCircle
 10
1823.7770418836
 20
141.8164911569
 30
0.0
 40
4.0
100
AcDbArc
 50
270.0
 51
90.0
  0
LINE
  5
364
330
1F
100
AcDbEntity
  8
0
  6
Continuous
 62
     7
100
AcDbLine
 10
1752.7770418836
 20
145.8164911569
 30
0.0
 11
1773.7770418836
 21
145.8164911569
 31
0.0
  0
ARC
  5
365
330
1F
100
AcDbEntity
  8
0
  6
Continuous
 62
     7
100
AcDbCircle
 10
1752.7770418836
 20
141.8164911569
 30
0.0
 40
4.0
100
AcDbArc
 50
90.0
 51
270.0
  0
LINE
  5
366
330
1F
100
AcDbEntity
  8
0
  6
Continuous
 62
     7
100
AcDbLine
 10
1773.7770418836
 20
137.8164911569
 30
0.0
 11
1752.7770418836
 21
137.8164911569
 31
0.0
  0
ARC
  5
367
330
1F
100
AcDbEntity
  8
0
  6
Continuous
 62
     7
100
AcDbCircle
 10
1773.7770418836
 20
141.8164911569
 30
0.0
 40
4.0
100
AcDbArc
 50
270.0
 51
90.0
  0
LINE
  5
368
330
1F
100
AcDbEntity
  8
0
  6
Continuous
 62
     7
100
AcDbLine
 10
1702.7770418836
 20
145.8164911569
 30
0.0
 11
1723.7770418836
 21
145.8164911569
 31
0.0
  0
ARC
  5
369
330
1F
100
AcDbEntity
  8
0
  6
Continuous
 62
     7
100
AcDbCircle
 10
1702.7770418836
 20
141.8164911569
 30
0.0
 40
4.0
100
AcDbArc
 50
90.0
 51
270.0
  0
LINE
  5
36A
330
1F
100
AcDbEntity
  8
0
  6
Continuous
 62
     7
100
AcDbLine
 10
1723.7770418836
 20
137.8164911569
 30
0.0
 11
1702.7770418836
 21
137.8164911569
 31
0.0
  0
ARC
  5
36B
330
1F
100
AcDbEntity
  8
0
  6
Continuous
 62
     7
100
AcDbCircle
 10
1723.7770418836
 20
141.8164911569
 30
0.0
 40
4.0
100
AcDbArc
 50
270.0
 51
90.0
  0
LINE
  5
36C
330
1F
100
AcDbEntity
  8
0
  6
Continuous
 62
     7
100
AcDbLine
 10
1652.7770418836
 20
145.8164911569
 30
0.0
 11
1673.7770418836
 21
145.8164911569
 31
0.0
  0
ARC
  5
36D
330
1F
100
AcDbEntity
  8
0
  6
Continuous
 62
     7
100
AcDbCircle
 10
1652.7770418836
 20
141.8164911569
 30
0.0
 40
4.0
100
AcDbArc
 50
90.0
 51
270.0
  0
LINE
  5
36E
330
1F
100
AcDbEntity
  8
0
  6
Continuous
 62
     7
100
AcDbLine
 10
1673.7770418836
 20
137.8164911569
 30
0.0
 11
1652.7770418836
 21
137.8164911569
 31
0.0
  0
ARC
  5
36F
330
1F
100
AcDbEntity
  8
0
  6
Continuous
 62
     7
100
AcDbCircle
 10
1673.7770418836
 20
141.8164911569
 30
0.0
 40
4.000000000000028
100
AcDbArc
 50
270.0
 51
90.0
  0
LINE
  5
370
330
1F
100
AcDbEntity
  8
0
  6
Continuous
 62
     7
100
AcDbLine
 10
1602.7770418836
 20
145.8164911569
 30
0.0
 11
1623.7770418836
 21
145.8164911569
 31
0.0
  0
ARC
  5
371
330
1F
100
AcDbEntity
  8
0
  6
Continuous
 62
     7
100
AcDbCircle
 10
1602.7770418836
 20
141.8164911569
 30
0.0
 40
4.0
100
AcDbArc
 50
90.0
 51
270.0
  0
LINE
  5
372
330
1F
100
AcDbEntity
  8
0
  6
Continuous
 62
     7
100
AcDbLine
 10
1623.7770418836
 20
137.8164911569
 30
0.0
 11
1602.7770418836
 21
137.8164911569
 31
0.0
  0
ARC
  5
373
330
1F
100
AcDbEntity
  8
0
  6
Continuous
 62
     7
100
AcDbCircle
 10
1623.7770418836
 20
141.8164911569
 30
0.0
 40
4.0
100
AcDbArc
 50
270.0
 51
90.0
  0
LINE
  5
374
330
1F
100
AcDbEntity
  8
0
  6
Continuous
 62
     7
100
AcDbLine
 10
1552.7770418836
 20
145.8164911569
 30
0.0
 11
1573.7770418836
 21
145.8164911569
 31
0.0
  0
ARC
  5
375
330
1F
100
AcDbEntity
  8
0
  6
Continuous
 62
     7
100
AcDbCircle
 10
1552.7770418836
 20
141.8164911569
 30
0.0
 40
4.0
100
AcDbArc
 50
90.0
 51
270.0
  0
LINE
  5
376
330
1F
100
AcDbEntity
  8
0
  6
Continuous
 62
     7
100
AcDbLine
 10
1573.7770418836
 20
137.8164911569
 30
0.0
 11
1552.7770418836
 21
137.8164911569
 31
0.0
  0
ARC
  5
377
330
1F
100
AcDbEntity
  8
0
  6
Continuous
 62
     7
100
AcDbCircle
 10
1573.7770418836
 20
141.8164911569
 30
0.0
 40
4.000000000000028
100
AcDbArc
 50
270.0
 51
90.0
  0
LINE
  5
378
330
1F
100
AcDbEntity
  8
0
  6
Continuous
 62
     7
100
AcDbLine
 10
2052.7770418836
 20
108.3164911569
 30
0.0
 11
2073.7770418836
 21
108.3164911569
 31
0.0
  0
ARC
  5
379
330
1F
100
AcDbEntity
  8
0
  6
Continuous
 62
     7
100
AcDbCircle
 10
2052.7770418836
 20
104.3164911569
 30
0.0
 40
4.0
100
AcDbArc
 50
90.0
 51
270.0
  0
LINE
  5
37A
330
1F
100
AcDbEntity
  8
0
  6
Continuous
 62
     7
100
AcDbLine
 10
2073.7770418836
 20
100.3164911569
 30
0.0
 11
2052.7770418836
 21
100.3164911569
 31
0.0
  0
ARC
  5
37B
330
1F
100
AcDbEntity
  8
0
  6
Continuous
 62
     7
100
AcDbCircle
 10
2073.7770418836
 20
104.3164911569
 30
0.0
 40
4.000000000000014
100
AcDbArc
 50
270.0
 51
90.0
  0
LINE
  5
37C
330
1F
100
AcDbEntity
  8
0
  6
Continuous
 62
     7
100
AcDbLine
 10
2002.7770418836
 20
108.3164911569
 30
0.0
 11
2023.7770418836
 21
108.3164911569
 31
0.0
  0
ARC
  5
37D
330
1F
100
AcDbEntity
  8
0
  6
Continuous
 62
     7
100
AcDbCircle
 10
2002.7770418836
 20
104.3164911569
 30
0.0
 40
4.0
100
AcDbArc
 50
90.0
 51
270.0
  0
LINE
  5
37E
330
1F
100
AcDbEntity
  8
0
  6
Continuous
 62
     7
100
AcDbLine
 10
2023.7770418836
 20
100.3164911569
 30
0.0
 11
2002.7770418836
 21
100.3164911569
 31
0.0
  0
ARC
  5
37F
330
1F
100
AcDbEntity
  8
0
  6
Continuous
 62
     7
100
AcDbCircle
 10
2023.7770418836
 20
104.3164911569
 30
0.0
 40
4.000000000000028
100
AcDbArc
 50
270.0
 51
90.0
  0
LINE
  5
380
330
1F
100
AcDbEntity
  8
0
  6
Continuous
 62
     7
100
AcDbLine
 10
1952.7770418836
 20
108.3164911569
 30
0.0
 11
1973.7770418836
 21
108.3164911569
 31
0.0
  0
ARC
  5
381
330
1F
100
AcDbEntity
  8
0
  6
Continuous
 62
     7
100
AcDbCircle
 10
1952.7770418836
 20
104.3164911569
 30
0.0
 40
4.000000000000028
100
AcDbArc
 50
90.0
 51
270.0
  0
LINE
  5
382
330
1F
100
AcDbEntity
  8
0
  6
Continuous
 62
     7
100
AcDbLine
 10
1973.7770418836
 20
100.3164911569
 30
0.0
 11
1952.7770418836
 21
100.3164911569
 31
0.0
  0
ARC
  5
383
330
1F
100
AcDbEntity
  8
0
  6
Continuous
 62
     7
100
AcDbCircle
 10
1973.7770418836
 20
104.3164911569
 30
0.0
 40
4.000000000000014
100
AcDbArc
 50
270.0
 51
90.0
  0
LINE
  5
384
330
1F
100
AcDbEntity
  8
0
  6
Continuous
 62
     7
100
AcDbLine
 10
1902.7770418836
 20
108.3164911569
 30
0.0
 11
1923.7770418836
 21
108.3164911569
 31
0.0
  0
ARC
  5
385
330
1F
100
AcDbEntity
  8
0
  6
Continuous
 62
     7
100
AcDbCircle
 10
1902.7770418836
 20
104.3164911569
 30
0.0
 40
4.000000000000014
100
AcDbArc
 50
90.0
 51
270.0
  0
LINE
  5
386
330
1F
100
AcDbEntity
  8
0
  6
Continuous
 62
     7
100
AcDbLine
 10
1923.7770418836
 20
100.3164911569
 30
0.0
 11
1902.7770418836
 21
100.3164911569
 31
0.0
  0
ARC
  5
387
330
1F
100
AcDbEntity
  8
0
  6
Continuous
 62
     7
100
AcDbCircle
 10
1923.7770418836
 20
104.3164911569
 30
0.0
 40
4.000000000000014
100
AcDbArc
 50
270.0
 51
90.0
  0
LINE
  5
388
330
1F
100
AcDbEntity
  8
0
  6
Continuous
 62
     7
100
AcDbLine
 10
1852.7770418836
 20
108.3164911569
 30
0.0
 11
1873.7770418836
 21
108.3164911569
 31
0.0
  0
ARC
  5
389
330
1F
100
AcDbEntity
  8
0
  6
Continuous
 62
     7
100
AcDbCircle
 10
1852.7770418836
 20
104.3164911569
 30
0.0
 40
4.000000000000028
100
AcDbArc
 50
90.0
 51
270.0
  0
LINE
  5
38A
330
1F
100
AcDbEntity
  8
0
  6
Continuous
 62
     7
100
AcDbLine
 10
1873.7770418836
 20
100.3164911569
 30
0.0
 11
1852.7770418836
 21
100.3164911569
 31
0.0
  0
ARC
  5
38B
330
1F
100
AcDbEntity
  8
0
  6
Continuous
 62
     7
100
AcDbCircle
 10
1873.7770418836
 20
104.3164911569
 30
0.0
 40
4.0
100
AcDbArc
 50
270.0
 51
90.0
  0
LINE
  5
38C
330
1F
100
AcDbEntity
  8
0
  6
Continuous
 62
     7
100
AcDbLine
 10
1802.7770418836
 20
108.3164911569
 30
0.0
 11
1823.7770418836
 21
108.3164911569
 31
0.0
  0
ARC
  5
38D
330
1F
100
AcDbEntity
  8
0
  6
Continuous
 62
     7
100
AcDbCircle
 10
1802.7770418836
 20
104.3164911569
 30
0.0
 40
4.000000000000014
100
AcDbArc
 50
90.0
 51
270.0
  0
LINE
  5
38E
330
1F
100
AcDbEntity
  8
0
  6
Continuous
 62
     7
100
AcDbLine
 10
1823.7770418836
 20
100.3164911569
 30
0.0
 11
1802.7770418836
 21
100.3164911569
 31
0.0
  0
ARC
  5
38F
330
1F
100
AcDbEntity
  8
0
  6
Continuous
 62
     7
100
AcDbCircle
 10
1823.7770418836
 20
104.3164911569
 30
0.0
 40
4.0
100
AcDbArc
 50
270.0
 51
90.0
  0
LINE
  5
390
330
1F
100
AcDbEntity
  8
0
  6
Continuous
 62
     7
100
AcDbLine
 10
1752.7770418836
 20
108.3164911569
 30
0.0
 11
1773.7770418836
 21
108.3164911569
 31
0.0
  0
ARC
  5
391
330
1F
100
AcDbEntity
  8
0
  6
Continuous
 62
     7
100
AcDbCircle
 10
1752.7770418836
 20
104.3164911569
 30
0.0
 40
4.0
100
AcDbArc
 50
90.0
 51
270.0
  0
LINE
  5
392
330
1F
100
AcDbEntity
  8
0
  6
Continuous
 62
     7
100
AcDbLine
 10
1773.7770418836
 20
100.3164911569
 30
0.0
 11
1752.7770418836
 21
100.3164911569
 31
0.0
  0
ARC
  5
393
330
1F
100
AcDbEntity
  8
0
  6
Continuous
 62
     7
100
AcDbCircle
 10
1773.7770418836
 20
104.3164911569
 30
0.0
 40
4.000000000000028
100
AcDbArc
 50
270.0
 51
90.0
  0
LINE
  5
394
330
1F
100
AcDbEntity
  8
0
  6
Continuous
 62
     7
100
AcDbLine
 10
1702.7770418836
 20
108.3164911569
 30
0.0
 11
1723.7770418836
 21
108.3164911569
 31
0.0
  0
ARC
  5
395
330
1F
100
AcDbEntity
  8
0
  6
Continuous
 62
     7
100
AcDbCircle
 10
1702.7770418836
 20
104.3164911569
 30
0.0
 40
4.000000000000028
100
AcDbArc
 50
90.0
 51
270.0
  0
LINE
  5
396
330
1F
100
AcDbEntity
  8
0
  6
Continuous
 62
     7
100
AcDbLine
 10
1723.7770418836
 20
100.3164911569
 30
0.0
 11
1702.7770418836
 21
100.3164911569
 31
0.0
  0
ARC
  5
397
330
1F
100
AcDbEntity
  8
0
  6
Continuous
 62
     7
100
AcDbCircle
 10
1723.7770418836
 20
104.3164911569
 30
0.0
 40
4.000000000000014
100
AcDbArc
 50
270.0
 51
90.0
  0
LINE
  5
398
330
1F
100
AcDbEntity
  8
0
  6
Continuous
 62
     7
100
AcDbLine
 10
1652.7770418836
 20
108.3164911569
 30
0.0
 11
1673.7770418836
 21
108.3164911569
 31
0.0
  0
ARC
  5
399
330
1F
100
AcDbEntity
  8
0
  6
Continuous
 62
     7
100
AcDbCircle
 10
1652.7770418836
 20
104.3164911569
 30
0.0
 40
4.0
100
AcDbArc
 50
90.0
 51
270.0
  0
LINE
  5
39A
330
1F
100
AcDbEntity
  8
0
  6
Continuous
 62
     7
100
AcDbLine
 10
1673.7770418836
 20
100.3164911569
 30
0.0
 11
1652.7770418836
 21
100.3164911569
 31
0.0
  0
ARC
  5
39B
330
1F
100
AcDbEntity
  8
0
  6
Continuous
 62
     7
100
AcDbCircle
 10
1673.7770418836
 20
104.3164911569
 30
0.0
 40
4.000000000000014
100
AcDbArc
 50
270.0
 51
90.0
  0
CIRCLE
  5
39C
330
1F
100
AcDbEntity
  8
0
  6
Continuous
 62
     7
100
AcDbCircle
 10
1763.2770418836
 20
204.3164911569
 30
0.0
 40
3.249999999999972
  0
CIRCLE
  5
39D
330
1F
100
AcDbEntity
  8
0
  6
Continuous
 62
     7
100
AcDbCircle
 10
1750.7770418836
 20
246.9946988941
 30
0.0
 40
3.249999999999972
  0
LINE
  5
39E
330
1F
100
AcDbEntity
  8
0
  6
Continuous
 62
     7
100
AcDbLine
 10
2159.0270418836
 20
250.9946988941
 30
0.0
 11
2159.0270418836
 21
194.3164911569
 31
0.0
  0
LINE
  5
39F
330
1F
100
AcDbEntity
  8
0
  6
Continuous
 62
     7
100
AcDbLine
 10
2159.0270418836
 20
194.3164911569
 30
0.0
 11
2156.0270418836
 21
191.3164911569
 31
0.0
  0
LINE
  5
3A0
330
1F
100
AcDbEntity
  8
0
  6
Continuous
 62
     7
100
AcDbLine
 10
2156.0270418836
 20
191.3164911569
 30
0.0
 11
2120.5270418836
 21
191.3164911569
 31
0.0
  0
LINE
  5
3A1
330
1F
100
AcDbEntity
  8
0
  6
Continuous
 62
     7
100
AcDbLine
 10
2120.5270418836
 20
191.3164911569
 30
0.0
 11
2117.5270418836
 21
188.3164911569
 31
0.0
  0
LINE
  5
3A2
330
1F
100
AcDbEntity
  8
0
  6
Continuous
 62
     7
100
AcDbLine
 10
2117.5270418836
 20
188.3164911569
 30
0.0
 11
2117.5270418836
 21
79.3164911569
 31
0.0
  0
LINE
  5
3A3
330
1F
100
AcDbEntity
  8
0
  6
Continuous
 62
     7
100
AcDbLine
 10
2117.5270418836
 20
79.3164911569
 30
0.0
 11
2114.5270418836
 21
76.3164911569
 31
0.0
  0
LINE
  5
3A4
330
1F
100
AcDbEntity
  8
0
  6
Continuous
 62
     7
100
AcDbLine
 10
2114.5270418836
 20
76.3164911569
 30
0.0
 11
1512.0270418836
 21
76.3164911569
 31
0.0
  0
LINE
  5
3A5
330
1F
100
AcDbEntity
  8
0
  6
Continuous
 62
     7
100
AcDbLine
 10
1512.0270418836
 20
76.3164911569
 30
0.0
 11
1509.0270418836
 21
79.3164911569
 31
0.0
  0
LINE
  5
3A6
330
1F
100
AcDbEntity
  8
0
  6
Continuous
 62
     7
100
AcDbLine
 10
1509.0270418836
 20
79.3164911569
 30
0.0
 11
1509.0270418836
 21
188.3164911569
 31
0.0
  0
LINE
  5
3A7
330
1F
100
AcDbEntity
  8
0
  6
Continuous
 62
     7
100
AcDbLine
 10
1509.0270418836
 20
188.3164911569
 30
0.0
 11
1506.0270418836
 21
191.3164911569
 31
0.0
  0
LINE
  5
3A8
330
1F
100
AcDbEntity
  8
0
  6
Continuous
 62
     7
100
AcDbLine
 10
1506.0270418836
 20
191.3164911569
 30
0.0
 11
1470.5270418836
 21
191.3164911569
 31
0.0
  0
LINE
  5
3A9
330
1F
100
AcDbEntity
  8
0
  6
Continuous
 62
     7
100
AcDbLine
 10
1470.5270418836
 20
191.3164911569
 30
0.0
 11
1467.5270418836
 21
194.3164911569
 31
0.0
  0
LINE
  5
3AA
330
1F
100
AcDbEntity
  8
0
  6
Continuous
 62
     7
100
AcDbLine
 10
1467.5270418836
 20
194.3164911569
 30
0.0
 11
1467.5270418836
 21
250.9946988941
 31
0.0
  0
LINE
  5
3AB
330
1F
100
AcDbEntity
  8
0
  6
Continuous
 62
     7
100
AcDbLine
 10
1467.5270418836
 20
250.9946988941
 30
0.0
 11
1470.5270418836
 21
253.9946988941
 31
0.0
  0
LINE
  5
3AC
330
1F
100
AcDbEntity
  8
0
  6
Continuous
 62
     7
100
AcDbLine
 10
1470.5270418836
 20
253.9946988941
 30
0.0
 11
2156.0270418836
 21
253.9946988941
 31
0.0
  0
LINE
  5
3AD
330
1F
100
AcDbEntity
  8
0
  6
Continuous
 62
     7
100
AcDbLine
 10
2156.0270418836
 20
253.9946988941
 30
0.0
 11
2159.0270418836
 21
250.9946988941
 31
0.0
  0
LINE
  5
3AE
330
1F
100
AcDbEntity
  8
0
  6
Continuous
 62
     7
100
AcDbLine
 10
1535.7770418836
 20
223.8164911569
 30
0.0
 11
1490.7770418836
 21
223.8164911569
 31
0.0
  0
LINE
  5
3AF
330
1F
100
AcDbEntity
  8
0
  6
Continuous
 62
     7
100
AcDbLine
 10
1535.7770418836
 20
226.4946988941
 30
0.0
 11
1535.7770418836
 21
223.8164911569
 31
0.0
  0
LINE
  5
3B0
330
1F
100
AcDbEntity
  8
0
  6
Continuous
 62
     7
100
AcDbLine
 10
1490.7770418836
 20
226.4946988941
 30
0.0
 11
1535.7770418836
 21
226.4946988941
 31
0.0
  0
LINE
  5
3B1
330
1F
100
AcDbEntity
  8
0
  6
Continuous
 62
     7
100
AcDbLine
 10
1490.7770418836
 20
223.8164911569
 30
0.0
 11
1490.7770418836
 21
226.4946988941
 31
0.0
  0
ARC
  5
3B2
330
1F
100
AcDbEntity
  8
0
  6
Continuous
 62
     7
100
AcDbCircle
 10
1552.7770418836
 20
104.3164911569
 30
0.0
 40
4.000000000000014
100
AcDbArc
 50
90.0
 51
270.0
  0
LINE
  5
3B3
330
1F
100
AcDbEntity
  8
0
  6
Continuous
 62
     7
100
AcDbLine
 10
1573.7770418836
 20
100.3164911569
 30
0.0
 11
1552.7770418836
 21
100.3164911569
 31
0.0
  0
ARC
  5
3B4
330
1F
100
AcDbEntity
  8
0
  6
Continuous
 62
     7
100
AcDbCircle
 10
1573.7770418836
 20
104.3164911569
 30
0.0
 40
4.000000000000014
100
AcDbArc
 50
270.0
 51
90.0
  0
LINE
  5
3B5
330
1F
100
AcDbEntity
  8
0
  6
Continuous
 62
     7
100
AcDbLine
 10
1552.7770418836
 20
108.3164911569
 30
0.0
 11
1573.7770418836
 21
108.3164911569
 31
0.0
  0
CIRCLE
  5
3B6
330
1F
100
AcDbEntity
  8
0
  6
Continuous
 62
     7
100
AcDbCircle
 10
1550.7770418836
 20
246.9946988941
 30
0.0
 40
3.249999999999972
  0
CIRCLE
  5
3B7
330
1F
100
AcDbEntity
  8
0
  6
Continuous
 62
     7
100
AcDbCircle
 10
1650.7770418836
 20
246.9946988941
 30
0.0
 40
3.249999999999972
  0
CIRCLE
  5
3B8
330
1F
100
AcDbEntity
  8
0
  6
Continuous
 62
     7
100
AcDbCircle
 10
1563.2770418836
 20
204.3164911569
 30
0.0
 40
3.25
  0
CIRCLE
  5
3B9
330
1F
100
AcDbEntity
  8
0
  6
Continuous
 62
     7
100
AcDbCircle
 10
1663.2770418836
 20
204.3164911569
 30
0.0
 40
3.249999999999972
  0
ARC
  5
3BA
330
1F
100
AcDbEntity
  8
0
  6
Continuous
 62
     7
100
AcDbCircle
 10
1602.7770418836
 20
104.3164911569
 30
0.0
 40
4.000000000000028
100
AcDbArc
 50
90.0
 51
270.0
  0
LINE
  5
3BB
330
1F
100
AcDbEntity
  8
0
  6
Continuous
 62
     7
100
AcDbLine
 10
1623.7770418836
 20
100.3164911569
 30
0.0
 11
1602.7770418836
 21
100.3164911569
 31
0.0
  0
ARC
  5
3BC
330
1F
100
AcDbEntity
  8
0
  6
Continuous
 62
     7
100
AcDbCircle
 10
1623.7770418836
 20
104.3164911569
 30
0.0
 40
4.000000000000014
100
AcDbArc
 50
270.0
 51
90.0
  0
LINE
  5
3BD
330
1F
100
AcDbEntity
  8
0
  6
Continuous
 62
     7
100
AcDbLine
 10
1602.7770418836
 20
108.3164911569
 30
0.0
 11
1623.7770418836
 21
108.3164911569
 31
0.0
  0
LINE
  5
3BE
330
1F
100
AcDbEntity
  8
0
  6
Continuous
 62
     7
100
AcDbLine
 10
1585.7770418836
 20
223.8164911569
 30
0.0
 11
1540.7770418836
 21
223.8164911569
 31
0.0
  0
LINE
  5
3BF
330
1F
100
AcDbEntity
  8
0
  6
Continuous
 62
     7
100
AcDbLine
 10
1585.7770418836
 20
226.4946988941
 30
0.0
 11
1585.7770418836
 21
223.8164911569
 31
0.0
  0
LINE
  5
3C0
330
1F
100
AcDbEntity
  8
0
  6
Continuous
 62
     7
100
AcDbLine
 10
1540.7770418836
 20
226.4946988941
 30
0.0
 11
1585.7770418836
 21
226.4946988941
 31
0.0
  0
LINE
  5
3C1
330
1F
100
AcDbEntity
  8
0
  6
Continuous
 62
     7
100
AcDbLine
 10
1540.7770418836
 20
223.8164911569
 30
0.0
 11
1540.7770418836
 21
226.4946988941
 31
0.0
  0
CIRCLE
  5
3C2
330
1F
100
AcDbEntity
  8
0
  6
Continuous
 62
     7
100
AcDbCircle
 10
2075.7770418836
 20
246.9946988941
 30
0.0
 40
3.25
  0
CIRCLE
  5
3C3
330
1F
100
AcDbEntity
  8
0
  6
Continuous
 62
     7
100
AcDbCircle
 10
1975.7770418836
 20
246.9946988941
 30
0.0
 40
3.249999999999943
  0
CIRCLE
  5
3C4
330
1F
100
AcDbEntity
  8
0
  6
Continuous
 62
     7
100
AcDbCircle
 10
1875.7770418836
 20
246.9946988941
 30
0.0
 40
3.249999999999972
  0
ENDSEC
  0
SECTION
  2
OBJECTS
  0
DICTIONARY
  5
C
330
0
100
AcDbDictionary
281
     1
  3
ACAD_GROUP
350
D
  3
ACAD_LAYOUT
350
1A
  3
ACAD_MLINESTYLE
350
17
  3
ACAD_PLOTSETTINGS
350
19
  3
ACAD_PLOTSTYLENAME
350
E
  3
ACAD_SCALELIST
350
47
  3
DWGPROPS
350
3C5
  0
DICTIONARY
  5
D
102
{ACAD_REACTORS
330
C
102
}
330
C
100
AcDbDictionary
281
     1
  0
DICTIONARY
  5
1A
102
{ACAD_REACTORS
330
C
102
}
330
C
100
AcDbDictionary
281
     1
  3
Layout1
350
1E
  3
Layout2
350
26
  3
Model
350
22
  0
DICTIONARY
  5
17
102
{ACAD_REACTORS
330
C
102
}
330
C
100
AcDbDictionary
281
     1
  3
Standard
350
18
  0
DICTIONARY
  5
19
102
{ACAD_REACTORS
330
C
102
}
330
C
100
AcDbDictionary
281
     1
  0
ACDBDICTIONARYWDFLT
  5
E
102
{ACAD_REACTORS
330
C
102
}
330
C
100
AcDbDictionary
281
     1
  3
Normal
350
F
100
AcDbDictionaryWithDefault
340
F
  0
DICTIONARY
  5
47
102
{ACAD_REACTORS
330
C
102
}
330
C
100
AcDbDictionary
281
     1
  3
A0
350
48
  3
A1
350
49
  3
A2
350
4A
  3
A3
350
4B
  3
A4
350
4C
  3
A5
350
4D
  3
A6
350
4E
  3
A7
350
4F
  3
A8
350
50
  3
A9
350
51
  3
B0
350
52
  3
B1
350
53
  3
B2
350
54
  3
B3
350
55
  3
B4
350
56
  3
B5
350
57
  3
B6
350
58
  0
XRECORD
  5
3C5
102
{ACAD_REACTORS
330
C
102
}
330
C
100
AcDbXrecord
280
     1
  1
DWGPROPS COOKIE
  2

  3

  4

  6

  7

  8
moskovchenkovapa
  9

300
=
301
=
302
=
303
=
304
=
305
=
306
=
307
=
308
=
309
=
 40
0.0
 41
2460670.519866806
 42
2460670.519867489
  1

 90
        0
  0
LAYOUT
  5
1E
102
{ACAD_REACTORS
330
1A
102
}
330
1A
100
AcDbPlotSettings
  1

  2
none_device
  4

  6

 40
0.0
 41
0.0
 42
0.0
 43
0.0
 44
0.0
 45
0.0
 46
0.0
 47
0.0
 48
0.0
 49
0.0
140
0.0
141
0.0
142
1.0
143
1.0
 70
   688
 72
     1
 73
     0
 74
     5
  7

 75
    16
147
1.0
148
0.0
149
0.0
100
AcDbLayout
  1
Layout1
 70
     1
 71
     1
 10
0.0
 20
0.0
 11
420.0
 21
297.0
 12
0.0
 22
0.0
 32
0.0
 14
1.0000000000E+20
 24
1.0000000000E+20
 34
1.0000000000E+20
 15
-1.0000000000E+20
 25
-1.0000000000E+20
 35
-1.0000000000E+20
146
0.0
 13
0.0
 23
0.0
 33
0.0
 16
1.0
 26
0.0
 36
0.0
 17
0.0
 27
1.0
 37
0.0
 76
     0
330
1B
  0
LAYOUT
  5
26
102
{ACAD_REACTORS
330
1A
102
}
330
1A
100
AcDbPlotSettings
  1

  2
none_device
  4

  6

 40
0.0
 41
0.0
 42
0.0
 43
0.0
 44
0.0
 45
0.0
 46
0.0
 47
0.0
 48
0.0
 49
0.0
140
0.0
141
0.0
142
1.0
143
1.0
 70
   688
 72
     1
 73
     0
 74
     5
  7

 75
    16
147
1.0
148
0.0
149
0.0
100
AcDbLayout
  1
Layout2
 70
     1
 71
     2
 10
0.0
 20
0.0
 11
0.0
 21
0.0
 12
0.0
 22
0.0
 32
0.0
 14
0.0
 24
0.0
 34
0.0
 15
0.0
 25
0.0
 35
0.0
146
0.0
 13
0.0
 23
0.0
 33
0.0
 16
1.0
 26
0.0
 36
0.0
 17
0.0
 27
1.0
 37
0.0
 76
     0
330
23
  0
LAYOUT
  5
22
102
{ACAD_REACTORS
330
1A
102
}
330
1A
100
AcDbPlotSettings
  1

  2
none_device
  4
Letter_(8.50_x_11.00_Inches)
  6

 40
6.35
 41
6.35
 42
6.35000508
 43
6.35000508
 44
215.9
 45
279.4
 46
0.0
 47
0.0
 48
0.0
 49
0.0
140
0.0
141
0.0
142
1.0
143
1.0
 70
  1712
 72
     1
 73
     0
 74
     0
  7

 75
     0
147
1.0
148
0.0
149
0.0
100
AcDbLayout
  1
Model
 70
     1
 71
     0
 10
0.0
 20
0.0
 11
420.0
 21
297.0
 12
0.0
 22
0.0
 32
0.0
 14
0.0
 24
0.0
 34
0.0
 15
420.0
 25
297.0
 35
0.0
146
0.0
 13
0.0
 23
0.0
 33
0.0
 16
1.0
 26
0.0
 36
0.0
 17
0.0
 27
1.0
 37
0.0
 76
     0
330
1F
331
29
  0
MLINESTYLE
  5
18
102
{ACAD_REACTORS
330
17
102
}
330
17
100
AcDbMlineStyle
  2
Standard
 70
     0
  3

 62
   256
 51
90.0
 52
90.0
 71
     2
 49
0.5
 62
   256
  6
BYLAYER
 49
-0.5
 62
   256
  6
BYLAYER
  0
ACDBPLACEHOLDER
  5
F
102
{ACAD_REACTORS
330
E
102
}
330
E
  0
SCALE
  5
48
102
{ACAD_REACTORS
330
47
102
}
330
47
100
AcDbScale
 70
     0
300
1:1
140
1.0
141
1.0
290
     1
  0
SCALE
  5
49
102
{ACAD_REACTORS
330
47
102
}
330
47
100
AcDbScale
 70
     0
300
1:2
140
1.0
141
2.0
290
     0
  0
SCALE
  5
4A
102
{ACAD_REACTORS
330
47
102
}
330
47
100
AcDbScale
 70
     0
300
1:4
140
1.0
141
4.0
290
     0
  0
SCALE
  5
4B
102
{ACAD_REACTORS
330
47
102
}
330
47
100
AcDbScale
 70
     0
300
1:5
140
1.0
141
5.0
290
     0
  0
SCALE
  5
4C
102
{ACAD_REACTORS
330
47
102
}
330
47
100
AcDbScale
 70
     0
300
1:8
140
1.0
141
8.0
290
     0
  0
SCALE
  5
4D
102
{ACAD_REACTORS
330
47
102
}
330
47
100
AcDbScale
 70
     0
300
1:10
140
1.0
141
10.0
290
     0
  0
SCALE
  5
4E
102
{ACAD_REACTORS
330
47
102
}
330
47
100
AcDbScale
 70
     0
300
1:16
140
1.0
141
16.0
290
     0
  0
SCALE
  5
4F
102
{ACAD_REACTORS
330
47
102
}
330
47
100
AcDbScale
 70
     0
300
1:20
140
1.0
141
20.0
290
     0
  0
SCALE
  5
50
102
{ACAD_REACTORS
330
47
102
}
330
47
100
AcDbScale
 70
     0
300
1:30
140
1.0
141
30.0
290
     0
  0
SCALE
  5
51
102
{ACAD_REACTORS
330
47
102
}
330
47
100
AcDbScale
 70
     0
300
1:40
140
1.0
141
40.0
290
     0
  0
SCALE
  5
52
102
{ACAD_REACTORS
330
47
102
}
330
47
100
AcDbScale
 70
     0
300
1:50
140
1.0
141
50.0
290
     0
  0
SCALE
  5
53
102
{ACAD_REACTORS
330
47
102
}
330
47
100
AcDbScale
 70
     0
300
1:100
140
1.0
141
100.0
290
     0
  0
SCALE
  5
54
102
{ACAD_REACTORS
330
47
102
}
330
47
100
AcDbScale
 70
     0
300
2:1
140
2.0
141
1.0
290
     0
  0
SCALE
  5
55
102
{ACAD_REACTORS
330
47
102
}
330
47
100
AcDbScale
 70
     0
300
4:1
140
4.0
141
1.0
290
     0
  0
SCALE
  5
56
102
{ACAD_REACTORS
330
47
102
}
330
47
100
AcDbScale
 70
     0
300
8:1
140
8.0
141
1.0
290
     0
  0
SCALE
  5
57
102
{ACAD_REACTORS
330
47
102
}
330
47
100
AcDbScale
 70
     0
300
10:1
140
10.0
141
1.0
290
     0
  0
SCALE
  5
58
102
{ACAD_REACTORS
330
47
102
}
330
47
100
AcDbScale
 70
     0
300
100:1
140
100.0
141
1.0
290
     0
  0
ENDSEC
  0
EOF
