  0
SECTION
  2
HEADER
  9
$ACADVER
  1
AC1015
  9
$ACADMAINTVER
 70
     6
  9
$DWGCODEPAGE
  3
ANSI_1251
  9
$INSBASE
 10
0.0
 20
0.0
 30
0.0
  9
$EXTMIN
 10
0.0
 20
0.0
 30
0.0
  9
$EXTMAX
 10
431.8
 20
279.4
 30
0.0
  9
$LIMMIN
 10
0.0
 20
0.0
  9
$LIMMAX
 10
431.8
 20
279.4
  9
$ORTHOMODE
 70
     0
  9
$REGENMODE
 70
     1
  9
$FILLMODE
 70
     1
  9
$QTEXTMODE
 70
     0
  9
$MIRRTEXT
 70
     1
  9
$LTSCALE
 40
1.0
  9
$ATTMODE
 70
     1
  9
$TEXTSIZE
 40
3.5
  9
$TRACEWID
 40
1.0
  9
$TEXTSTYLE
  7
STANDARD
  9
$CLAYER
  8
0
  9
$CELTYPE
  6
ByLayer
  9
$CECOLOR
 62
   256
  9
$CELTSCALE
 40
1.0
  9
$DISPSILH
 70
     0
  9
$DIMSCALE
 40
1.0
  9
$DIMASZ
 40
5.0
  9
$DIMEXO
 40
0.0
  9
$DIMDLI
 40
3.75
  9
$DIMRND
 40
0.0
  9
$DIMDLE
 40
0.0
  9
$DIMEXE
 40
1.0
  9
$DIMTP
 40
0.0
  9
$DIMTM
 40
0.0
  9
$DIMTXT
 40
3.5
  9
$DIMCEN
 40
2.5
  9
$DIMTSZ
 40
0.0
  9
$DIMTOL
 70
     0
  9
$DIMLIM
 70
     0
  9
$DIMTIH
 70
     1
  9
$DIMTOH
 70
     1
  9
$DIMSE1
 70
     0
  9
$DIMSE2
 70
     0
  9
$DIMTAD
 70
     1
  9
$DIMZIN
 70
     0
  9
$DIMBLK
  1

  9
$DIMASO
 70
     1
  9
$DIMSHO
 70
     1
  9
$DIMPOST
  1

  9
$DIMAPOST
  1

  9
$DIMALT
 70
     0
  9
$DIMALTD
 70
     3
  9
$DIMALTF
 40
0.0393700787
  9
$DIMLFAC
 40
1.0
  9
$DIMTOFL
 70
     1
  9
$DIMTVP
 40
0.0
  9
$DIMTIX
 70
     0
  9
$DIMSOXD
 70
     0
  9
$DIMSAH
 70
     0
  9
$DIMBLK1
  1

  9
$DIMBLK2
  1

  9
$DIMSTYLE
  2
ISO-25
  9
$DIMCLRD
 70
     0
  9
$DIMCLRE
 70
     0
  9
$DIMCLRT
 70
     0
  9
$DIMTFAC
 40
1.0
  9
$DIMGAP
 40
1.5
  9
$DIMJUST
 70
     0
  9
$DIMSD1
 70
     0
  9
$DIMSD2
 70
     0
  9
$DIMTOLJ
 70
     0
  9
$DIMTZIN
 70
     0
  9
$DIMALTZ
 70
     0
  9
$DIMALTTZ
 70
     0
  9
$DIMUPT
 70
     0
  9
$DIMDEC
 70
     1
  9
$DIMTDEC
 70
     3
  9
$DIMALTU
 70
     2
  9
$DIMALTTD
 70
     3
  9
$DIMTXSTY
  7
STANDARD
  9
$DIMAUNIT
 70
     0
  9
$DIMADEC
 70
     2
  9
$DIMALTRND
 40
0.0
  9
$DIMAZIN
 70
     0
  9
$DIMDSEP
 70
    44
  9
$DIMATFIT
 70
     3
  9
$DIMFRAC
 70
     0
  9
$DIMLDRBLK
  1

  9
$DIMLUNIT
 70
     2
  9
$DIMLWD
 70
    -2
  9
$DIMLWE
 70
    -2
  9
$DIMTMOVE
 70
     0
  9
$LUNITS
 70
     2
  9
$LUPREC
 70
     1
  9
$SKETCHINC
 40
1.0
  9
$FILLETRAD
 40
0.0
  9
$AUNITS
 70
     0
  9
$AUPREC
 70
     2
  9
$MENU
  1
.
  9
$ELEVATION
 40
0.0
  9
$PELEVATION
 40
0.0
  9
$THICKNESS
 40
0.0
  9
$LIMCHECK
 70
     0
  9
$CHAMFERA
 40
0.0
  9
$CHAMFERB
 40
0.0
  9
$CHAMFERC
 40
0.0
  9
$CHAMFERD
 40
0.0
  9
$SKPOLY
 70
     0
  9
$TDCREATE
 40
2460928.567974028
  9
$TDUCREATE
 40
2460928.442974028
  9
$TDUPDATE
 40
2460928.567974722
  9
$TDUUPDATE
 40
2460928.442974722
  9
$TDINDWG
 40
0.0000000116
  9
$TDUSRTIMER
 40
0.0000000116
  9
$USRTIMER
 70
     1
  9
$ANGBASE
 50
0.0
  9
$ANGDIR
 70
     0
  9
$PDMODE
 70
     0
  9
$PDSIZE
 40
-1.0
  9
$PLINEWID
 40
0.0
  9
$SPLFRAME
 70
     0
  9
$SPLINETYPE
 70
     6
  9
$SPLINESEGS
 70
     8
  9
$HANDSEED
  5
3EF
  9
$SURFTAB1
 70
     6
  9
$SURFTAB2
 70
     6
  9
$SURFTYPE
 70
     6
  9
$SURFU
 70
     6
  9
$SURFV
 70
     6
  9
$UCSBASE
  2

  9
$UCSNAME
  2

  9
$UCSORG
 10
0.0
 20
0.0
 30
0.0
  9
$UCSXDIR
 10
1.0
 20
0.0
 30
0.0
  9
$UCSYDIR
 10
0.0
 20
1.0
 30
0.0
  9
$UCSORTHOREF
  2

  9
$UCSORTHOVIEW
 70
     0
  9
$UCSORGTOP
 10
0.0
 20
0.0
 30
0.0
  9
$UCSORGBOTTOM
 10
0.0
 20
0.0
 30
0.0
  9
$UCSORGLEFT
 10
0.0
 20
0.0
 30
0.0
  9
$UCSORGRIGHT
 10
0.0
 20
0.0
 30
0.0
  9
$UCSORGFRONT
 10
0.0
 20
0.0
 30
0.0
  9
$UCSORGBACK
 10
0.0
 20
0.0
 30
0.0
  9
$PUCSBASE
  2

  9
$PUCSNAME
  2

  9
$PUCSORG
 10
0.0
 20
0.0
 30
0.0
  9
$PUCSXDIR
 10
1.0
 20
0.0
 30
0.0
  9
$PUCSYDIR
 10
0.0
 20
1.0
 30
0.0
  9
$PUCSORTHOREF
  2

  9
$PUCSORTHOVIEW
 70
     0
  9
$PUCSORGTOP
 10
0.0
 20
0.0
 30
0.0
  9
$PUCSORGBOTTOM
 10
0.0
 20
0.0
 30
0.0
  9
$PUCSORGLEFT
 10
0.0
 20
0.0
 30
0.0
  9
$PUCSORGRIGHT
 10
0.0
 20
0.0
 30
0.0
  9
$PUCSORGFRONT
 10
0.0
 20
0.0
 30
0.0
  9
$PUCSORGBACK
 10
0.0
 20
0.0
 30
0.0
  9
$USERI1
 70
     0
  9
$USERI2
 70
     0
  9
$USERI3
 70
     0
  9
$USERI4
 70
     0
  9
$USERI5
 70
     0
  9
$USERR1
 40
0.0
  9
$USERR2
 40
0.0
  9
$USERR3
 40
0.0
  9
$USERR4
 40
0.0
  9
$USERR5
 40
0.0
  9
$WORLDVIEW
 70
     1
  9
$SHADEDGE
 70
     3
  9
$SHADEDIF
 70
    70
  9
$TILEMODE
 70
     1
  9
$MAXACTVP
 70
    64
  9
$PINSBASE
 10
0.0
 20
0.0
 30
0.0
  9
$PLIMCHECK
 70
     0
  9
$PEXTMIN
 10
1.0000000000E+20
 20
1.0000000000E+20
 30
1.0000000000E+20
  9
$PEXTMAX
 10
-1.0000000000E+20
 20
-1.0000000000E+20
 30
-1.0000000000E+20
  9
$PLIMMIN
 10
0.0
 20
0.0
  9
$PLIMMAX
 10
420.0
 20
297.0
  9
$UNITMODE
 70
     0
  9
$VISRETAIN
 70
     1
  9
$PLINEGEN
 70
     0
  9
$PSLTSCALE
 70
     1
  9
$TREEDEPTH
 70
  3020
  9
$CMLSTYLE
  2
Standard
  9
$CMLJUST
 70
     0
  9
$CMLSCALE
 40
20.0
  9
$PROXYGRAPHICS
 70
     1
  9
$MEASUREMENT
 70
     1
  9
$CELWEIGHT
370
    -1
  9
$ENDCAPS
280
     0
  9
$JOINSTYLE
280
     0
  9
$LWDISPLAY
290
     1
  9
$INSUNITS
 70
     4
  9
$HYPERLINKBASE
  1

  9
$STYLESHEET
  1

  9
$XEDIT
290
     1
  9
$CEPSNTYPE
380
     0
  9
$PSTYLEMODE
290
     1
  9
$FINGERPRINTGUID
  2
{bd30c1e1-9cb5-4927-9f06-f5431e08a86b}
  9
$VERSIONGUID
  2
{FAEB1C32-E019-11D5-929B-00C0DF256EC4}
  9
$EXTNAMES
290
     1
  9
$PSVPSCALE
 40
0.0
  9
$OLESTARTUP
290
     0
  0
ENDSEC
  0
SECTION
  2
CLASSES
  0
CLASS
  1
ACDBDICTIONARYWDFLT
  2
AcDbDictionaryWithDefault
  3
ObjectDBX Classes
 90
        0
280
     0
281
     0
  0
CLASS
  1
VISUALSTYLE
  2
AcDbVisualStyle
  3
ObjectDBX Classes
 90
     4095
280
     0
281
     0
  0
CLASS
  1
MATERIAL
  2
AcDbMaterial
  3
ObjectDBX Classes
 90
     1153
280
     0
281
     0
  0
CLASS
  1
SCALE
  2
AcDbScale
  3
ObjectDBX Classes
 90
     1153
280
     0
281
     0
  0
CLASS
  1
TABLESTYLE
  2
AcDbTableStyle
  3
ObjectDBX Classes
 90
     4095
280
     0
281
     0
  0
CLASS
  1
MLEADERSTYLE
  2
AcDbMLeaderStyle
  3
ACDB_MLEADERSTYLE_CLASS
 90
     4095
280
     0
281
     0
  0
CLASS
  1
SUN
  2
AcDbSun
  3
SCENEOE
 90
     1153
280
     0
281
     0
  0
CLASS
  1
ACDBPLACEHOLDER
  2
AcDbPlaceHolder
  3
ObjectDBX Classes
 90
        0
280
     0
281
     0
  0
CLASS
  1
LAYOUT
  2
AcDbLayout
  3
ObjectDBX Classes
 90
        0
280
     0
281
     0
  0
ENDSEC
  0
SECTION
  2
TABLES
  0
TABLE
  2
VPORT
  5
8
330
0
100
AcDbSymbolTable
 70
     1
  0
VPORT
  5
29
330
8
100
AcDbSymbolTableRecord
100
AcDbViewportTableRecord
  2
*Active
 70
     0
 10
0.0
 20
0.0
 11
1.0
 21
1.0
 12
215.9
 22
139.7
 13
0.0
 23
0.0
 14
10.0
 24
10.0
 15
10.0
 25
10.0
 16
0.0
 26
0.0
 36
1.0
 17
0.0
 27
0.0
 37
0.0
 40
279.4
 41
1.5454545455
 42
50.0
 43
0.0
 44
0.0
 50
0.0
 51
0.0
 71
     0
 72
  2000
 73
     1
 74
     3
 75
     0
 76
     0
 77
     0
 78
     0
281
     0
 65
     1
110
0.0
120
0.0
130
0.0
111
1.0
121
0.0
131
0.0
112
0.0
122
1.0
132
0.0
 79
     0
146
0.0
  0
ENDTAB
  0
TABLE
  2
LTYPE
  5
5
330
0
100
AcDbSymbolTable
 70
     8
  0
LTYPE
  5
14
330
5
100
AcDbSymbolTableRecord
100
AcDbLinetypeTableRecord
  2
ByBlock
 70
     0
  3

 72
    65
 73
     0
 40
0.0
  0
LTYPE
  5
15
330
5
100
AcDbSymbolTableRecord
100
AcDbLinetypeTableRecord
  2
ByLayer
 70
     0
  3

 72
    65
 73
     0
 40
0.0
  0
LTYPE
  5
16
330
5
100
AcDbSymbolTableRecord
100
AcDbLinetypeTableRecord
  2
Continuous
 70
     0
  3
Solid line
 72
    65
 73
     0
 40
0.0
  0
LTYPE
  5
5E
330
5
100
AcDbSymbolTableRecord
100
AcDbLinetypeTableRecord
  2
SLD-Сплошная
 70
     0
  3
SolidWorks Line Style
 72
    65
 73
     0
 40
0.0
  0
LTYPE
  5
5F
330
5
100
AcDbSymbolTableRecord
100
AcDbLinetypeTableRecord
  2
SLD-Штриховая
 70
     0
  3
SolidWorks Line Style
 72
    65
 73
     2
 40
1.905
 49
1.27
 74
     0
 49
-0.635
 74
     0
  0
LTYPE
  5
60
330
5
100
AcDbSymbolTableRecord
100
AcDbLinetypeTableRecord
  2
SLD-Штрихпункт.-с-двумя-точками
 70
     0
  3
SolidWorks Line Style
 72
    65
 73
     6
 40
12.7
 49
6.35
 74
     0
 49
-1.27
 74
     0
 49
1.27
 74
     0
 49
-1.27
 74
     0
 49
1.27
 74
     0
 49
-1.27
 74
     0
  0
LTYPE
  5
61
330
5
100
AcDbSymbolTableRecord
100
AcDbLinetypeTableRecord
  2
SLD-Штрихпункт.-утолщ.
 70
     0
  3
SolidWorks Line Style
 72
    65
 73
     4
 40
10.16
 49
6.35
 74
     0
 49
-1.27
 74
     0
 49
1.27
 74
     0
 49
-1.27
 74
     0
  0
LTYPE
  5
62
330
5
100
AcDbSymbolTableRecord
100
AcDbLinetypeTableRecord
  2
SLD-Осевая
 70
     0
  3
SolidWorks Line Style
 72
    65
 73
     4
 40
19.05
 49
15.24
 74
     0
 49
-1.27
 74
     0
 49
1.27
 74
     0
 49
-1.27
 74
     0
  0
LTYPE
  5
63
330
5
100
AcDbSymbolTableRecord
100
AcDbLinetypeTableRecord
  2
SLD-Сшитая
 70
     0
  3
SolidWorks Line Style
 72
    65
 73
     2
 40
0.635
 49
0.0
 74
     0
 49
-0.635
 74
     0
  0
LTYPE
  5
64
330
5
100
AcDbSymbolTableRecord
100
AcDbLinetypeTableRecord
  2
SLD-Тонкая-Толстая
 70
     0
  3
SolidWorks Line Style
 72
    65
 73
     2
 40
5.080508
 49
0.000508
 74
     0
 49
-5.08
 74
     0
  0
ENDTAB
  0
TABLE
  2
LAYER
  5
2
330
0
100
AcDbSymbolTable
 70
     3
  0
LAYER
  5
10
330
2
100
AcDbSymbolTableRecord
100
AcDbLayerTableRecord
  2
0
 70
     0
 62
     7
  6
Continuous
370
    -3
390
F
  0
LAYER
  5
65
330
2
100
AcDbSymbolTableRecord
100
AcDbLayerTableRecord
  2
ВОДЯНОЙ_ЗНАК
 70
     0
 62
    11
  6
SLD-Сплошная
370
    -3
390
F
  0
LAYER
  5
66
330
2
100
AcDbSymbolTableRecord
100
AcDbLayerTableRecord
  2
ОСНОВНОЙ
 70
     0
 62
     7
  6
SLD-Сплошная
370
    -3
390
F
  0
ENDTAB
  0
TABLE
  2
STYLE
  5
3
330
0
100
AcDbSymbolTable
 70
     1
  0
STYLE
  5
11
330
3
100
AcDbSymbolTableRecord
100
AcDbTextStyleTableRecord
  2
STANDARD
 70
     0
 40
0.0
 41
1.0
 50
0.0
 71
     0
 42
3.5
  3
GOST-TYPE-A.TTF
  4

1001
ACAD
1000
GOST TYPE A
1071
 16777250
  0
ENDTAB
  0
TABLE
  2
VIEW
  5
6
330
0
100
AcDbSymbolTable
 70
     0
  0
ENDTAB
  0
TABLE
  2
UCS
  5
7
330
0
100
AcDbSymbolTable
 70
     0
  0
ENDTAB
  0
TABLE
  2
APPID
  5
9
330
0
100
AcDbSymbolTable
 70
     1
  0
APPID
  5
12
330
9
100
AcDbSymbolTableRecord
100
AcDbRegAppTableRecord
  2
ACAD
 70
     0
  0
ENDTAB
  0
TABLE
  2
DIMSTYLE
  5
A
330
0
100
AcDbSymbolTable
 70
     1
100
AcDbDimStyleTable
  0
DIMSTYLE
105
27
330
A
100
AcDbSymbolTableRecord
100
AcDbDimStyleTableRecord
  2
ISO-25
 70
     0
 41
2.5
 42
0.625
 43
3.75
 44
1.25
 73
     0
 74
     0
 77
     1
 78
     8
140
2.5
141
2.5
143
0.0393700787
147
0.625
171
     3
172
     1
178
     0
271
     2
272
     2
274
     3
278
    44
283
     0
284
     8
340
11
  0
ENDTAB
  0
TABLE
  2
BLOCK_RECORD
  5
1
330
0
100
AcDbSymbolTable
 70
     1
  0
BLOCK_RECORD
  5
1F
330
1
100
AcDbSymbolTableRecord
100
AcDbBlockTableRecord
  2
*Model_Space
340
22
  0
BLOCK_RECORD
  5
1B
330
1
100
AcDbSymbolTableRecord
100
AcDbBlockTableRecord
  2
*Paper_Space
340
1E
  0
BLOCK_RECORD
  5
23
330
1
100
AcDbSymbolTableRecord
100
AcDbBlockTableRecord
  2
*Paper_Space0
340
26
  0
ENDTAB
  0
ENDSEC
  0
SECTION
  2
BLOCKS
  0
BLOCK
  5
20
330
1F
100
AcDbEntity
  8
0
100
AcDbBlockBegin
  2
*Model_Space
 70
     0
 10
0.0
 20
0.0
 30
0.0
  3
*Model_Space
  1

  0
ENDBLK
  5
21
330
1F
100
AcDbEntity
  8
0
100
AcDbBlockEnd
  0
BLOCK
  5
1C
330
1B
100
AcDbEntity
 67
     1
  8
0
100
AcDbBlockBegin
  2
*Paper_Space
 70
     0
 10
0.0
 20
0.0
 30
0.0
  3
*Paper_Space
  1

  0
ENDBLK
  5
1D
330
1B
100
AcDbEntity
 67
     1
  8
0
100
AcDbBlockEnd
  0
BLOCK
  5
24
330
23
100
AcDbEntity
  8
0
100
AcDbBlockBegin
  2
*Paper_Space0
 70
     0
 10
0.0
 20
0.0
 30
0.0
  3
*Paper_Space0
  1

  0
ENDBLK
  5
25
330
23
100
AcDbEntity
  8
0
100
AcDbBlockEnd
  0
ENDSEC
  0
SECTION
  2
ENTITIES
  0
LINE
  5
67
330
1F
100
AcDbEntity
  8
0
  6
SLD-Сплошная
 62
     7
370
    25
100
AcDbLine
 10
258.3197004877
 20
169.5639660096
 30
0.0
 11
249.0197004877
 21
169.5639660096
 31
0.0
  0
LINE
  5
68
330
1F
100
AcDbEntity
  8
0
  6
SLD-Сплошная
 62
     7
370
    25
100
AcDbLine
 10
249.0197004877
 20
127.5639660096
 30
0.0
 11
258.3197004877
 21
127.5639660096
 31
0.0
  0
LINE
  5
69
330
1F
100
AcDbEntity
  8
0
  6
SLD-Сплошная
 62
     7
370
    25
100
AcDbLine
 10
268.7197004877
 20
153.2631806114
 30
0.0
 11
266.2197004877
 21
153.2639660096
 31
0.0
  0
LINE
  5
6A
330
1F
100
AcDbEntity
  8
0
  6
SLD-Сплошная
 62
     7
370
    25
100
AcDbLine
 10
266.2197004877
 20
143.8639660096
 30
0.0
 11
268.7197004877
 21
143.8647514078
 31
0.0
  0
LINE
  5
6B
330
1F
100
AcDbEntity
  8
0
  6
SLD-Сплошная
 62
     7
370
    25
100
AcDbLine
 10
234.0197004877
 20
124.7749796998
 30
0.0
 11
242.0197004877
 21
124.7724664256
 31
0.0
  0
LINE
  5
6C
330
1F
100
AcDbEntity
  8
0
  6
SLD-Сплошная
 62
     7
370
    25
100
AcDbLine
 10
228.7474405013
 20
123.5639660096
 30
0.0
 11
233.7197004877
 21
123.5639660096
 31
0.0
  0
LINE
  5
6D
330
1F
100
AcDbEntity
  8
0
  6
SLD-Сплошная
 62
     7
370
    25
100
AcDbLine
 10
266.2197004877
 20
136.3329465615
 30
0.0
 11
268.7197004877
 21
136.3337319597
 31
0.0
  0
LINE
  5
6E
330
1F
100
AcDbEntity
  8
0
  6
SLD-Сплошная
 62
     7
370
    25
100
AcDbLine
 10
268.7197004877
 20
143.7942000594
 30
0.0
 11
266.2197004877
 21
143.7949854576
 31
0.0
  0
LINE
  5
6F
330
1F
100
AcDbEntity
  8
0
  6
SLD-Сплошная
 62
     7
370
    25
100
AcDbLine
 10
226.7836604534
 20
122.7433936278
 30
0.0
 11
228.7817568966
 21
122.8306324026
 31
0.0
  0
ARC
  5
70
330
1F
100
AcDbEntity
  8
0
  6
SLD-Сплошная
 62
     7
370
    25
100
AcDbCircle
 10
233.7197004877
 20
126.0318738903
 30
0.0
 40
0.2999999999999843
100
AcDbArc
 50
0.0
 51
89.0
  0
LINE
  5
71
330
1F
100
AcDbEntity
  8
0
  6
SLD-Сплошная
 62
     7
370
    25
100
AcDbLine
 10
233.7197004877
 20
126.3319195888
 30
0.0
 11
233.7249362096
 21
126.3318281989
 31
0.0
  0
LINE
  5
72
330
1F
100
AcDbEntity
  8
0
  6
SLD-Сплошная
 62
     7
370
    25
100
AcDbLine
 10
242.0197004877
 20
111.0443118297
 30
0.0
 11
249.0197004877
 21
111.0465109446
 31
0.0
  0
LINE
  5
73
330
1F
100
AcDbEntity
  8
0
  6
SLD-Сплошная
 62
     7
370
    25
100
AcDbLine
 10
242.0197004877
 20
111.0443118297
 30
0.0
 11
242.0197004877
 21
186.0836201894
 31
0.0
  0
LINE
  5
74
330
1F
100
AcDbEntity
  8
0
  6
SLD-Сплошная
 62
     7
370
    25
100
AcDbLine
 10
242.0197004877
 20
186.0836201894
 30
0.0
 11
249.0197004877
 21
186.0814210745
 31
0.0
  0
LINE
  5
75
330
1F
100
AcDbEntity
  8
0
  6
SLD-Сплошная
 62
     7
370
    25
100
AcDbLine
 10
249.0197004877
 20
186.0814210745
 30
0.0
 11
249.0197004877
 21
111.0465109446
 31
0.0
  0
LWPOLYLINE
  5
76
330
1F
100
AcDbEntity
  8
0
  6
SLD-Сплошная
 62
     7
370
    25
100
AcDbPolyline
 90
        3
 70
   128
 43
0.0
 10
242.0197004877
 20
127.1424507583
 10
237.5397004877
 20
127.1444078428
 10
234.0197004877
 20
127.1459455932
  0
SPLINE
  5
77
330
1F
100
AcDbEntity
  8
0
  6
SLD-Сплошная
 62
     7
370
    25
100
AcDbSpline
210
0.0
220
0.0
230
1.0
 70
     8
 71
     3
 72
    21
 73
    17
 74
     0
 42
0.00000001
 43
0.00000001
 40
0.0
 40
0.0
 40
0.0
 40
0.0
 40
0.0549170113574354
 40
0.1099658388133415
 40
0.1651531580368737
 40
0.2204855945699935
 40
0.2759697219663331
 40
0.3316120600159971
 40
0.3874190730575466
 40
0.4433971683781199
 40
0.4995526947024176
 40
0.5944542363811511
 40
0.6919244296175919
 40
0.7919895630932727
 40
0.8946739282324432
 40
1.0
 40
1.0
 40
1.0
 40
1.0
 10
234.0197004877124
 20
128.261085113508
 30
0.0
 10
234.0189087067604
 20
128.322963681489
 30
0.0
 10
234.0173232443621
 20
128.4468693432212
 30
0.0
 10
234.0044567454648
 20
128.6358678954707
 30
0.0
 10
233.9838276470196
 20
128.8272170303039
 30
0.0
 10
233.9546199344272
 20
129.0209668900545
 30
0.0
 10
233.9169798679448
 20
129.2168801622274
 30
0.0
 10
233.8708039508232
 20
129.4147935761918
 30
0.0
 10
233.8160660181643
 20
129.6145196287773
 30
0.0
 10
233.7527265055027
 20
129.8158777425346
 30
0.0
 10
233.6642975748952
 20
130.0650866329564
 30
0.0
 10
233.5415036687617
 20
130.3654706943633
 30
0.0
 10
233.37268500096
 20
130.7192994921158
 30
0.0
 10
233.1736719631625
 20
131.0813271326398
 30
0.0
 10
232.9453257257561
 20
131.4505571394985
 30
0.0
 10
232.769157364369
 20
131.6959835172299
 30
0.0
 10
232.6799545255568
 20
131.8202551483028
 30
0.0
  0
SPLINE
  5
78
330
1F
100
AcDbEntity
  8
0
  6
SLD-Сплошная
 62
     7
370
    25
100
AcDbSpline
210
0.0
220
0.0
230
1.0
 70
     8
 71
     3
 72
     8
 73
     4
 74
     0
 42
0.00000001
 43
0.00000001
 40
0.0
 40
0.0
 40
0.0
 40
0.0
 40
1.0
 40
1.0
 40
1.0
 40
1.0
 10
232.6799545255569
 20
131.8202551483029
 30
0.0
 10
232.3244768000364
 20
132.2998809504934
 30
0.0
 10
231.9700489037112
 20
132.7935245460612
 30
0.0
 10
231.6179755336827
 20
133.2993687660567
 30
0.0
  0
SPLINE
  5
79
330
1F
100
AcDbEntity
  8
0
  6
SLD-Сплошная
 62
     7
370
    25
100
AcDbSpline
210
0.0
220
0.0
230
1.0
 70
     8
 71
     3
 72
    20
 73
    16
 74
     0
 42
0.00000001
 43
0.00000001
 40
0.0
 40
0.0
 40
0.0
 40
0.0
 40
0.0562632203679784
 40
0.1123137302406561
 40
0.1681585297565599
 40
0.2238046966982248
 40
0.2792593849142319
 40
0.3345298226149821
 40
0.3896233105418002
 40
0.4445472200094042
 40
0.4993089908222295
 40
0.6229369389844271
 40
0.74753971150965
 40
0.8732003958916299
 40
1.0
 40
1.0
 40
1.0
 40
1.0
 10
231.6179755336828
 20
133.2993687660568
 30
0.0
 10
231.5700800924439
 20
133.3696909820067
 30
0.0
 10
231.4744702849732
 20
133.5100695515318
 30
0.0
 10
231.3408393302964
 20
133.7263076908456
 30
0.0
 10
231.2147073995336
 20
133.9459462494272
 30
0.0
 10
231.096714288034
 20
134.1692446343585
 30
0.0
 10
230.9866355978472
 20
134.3959012359794
 30
0.0
 10
230.8844661098065
 20
134.6257687330617
 30
0.0
 10
230.7901336225241
 20
134.8586627717076
 30
0.0
 10
230.7035677802797
 20
135.0944163273147
 30
0.0
 10
230.5915832878558
 20
135.4330229300876
 30
0.0
 10
230.4682710098278
 20
135.8824771941982
 30
0.0
 10
230.3548188585426
 20
136.4514775108837
 30
0.0
 10
230.2758222706344
 20
137.0369690762556
 30
0.0
 10
230.254695178196
 20
137.4371571854189
 30
0.0
 10
230.2440839768337
 20
137.6381539208429
 30
0.0
  0
SPLINE
  5
7A
330
1F
100
AcDbEntity
  8
0
  6
SLD-Сплошная
 62
     7
370
    25
100
AcDbSpline
210
0.0
220
0.0
230
1.0
 70
    24
 71
     3
 72
    10
 73
     6
 74
     0
 42
0.00000001
 43
0.00000001
 40
0.0
 40
0.0
 40
0.0
 40
0.0
 40
0.5
 40
0.5
 40
1.0
 40
1.0
 40
1.0
 40
1.0
 10
230.2440839768337
 20
137.6381539208429
 30
0.0
 10
230.1848218249763
 20
139.3351999115209
 30
0.0
 10
230.1220219828064
 20
141.1335520980253
 30
0.0
 10
229.9933948770848
 20
144.8169504765189
 30
0.0
 10
229.9276002080823
 20
146.7010632827392
 30
0.0
 10
229.8625462113734
 20
148.5639660095607
 30
0.0
  0
LINE
  5
7B
330
1F
100
AcDbEntity
  8
0
  6
SLD-Сплошная
 62
     7
370
    25
100
AcDbLine
 10
234.0197004877
 20
127.1459455932
 30
0.0
 11
234.0197004877
 21
128.2610851135
 31
0.0
  0
SPLINE
  5
7C
330
1F
100
AcDbEntity
  8
0
  6
SLD-Сплошная
 62
     7
370
    25
100
AcDbSpline
210
0.0
220
0.0
230
1.0
 70
     8
 71
     3
 72
    25
 73
    21
 74
     0
 42
0.00000001
 43
0.00000001
 40
0.0
 40
0.0
 40
0.0
 40
0.0
 40
0.0277137913902192
 40
0.0554204615731617
 40
0.0831286288287574
 40
0.1108469100415684
 40
0.1385839126710858
 40
0.1663482267658715
 40
0.1941484170584201
 40
0.2219930151767359
 40
0.2498905120073833
 40
0.3745021179285503
 40
0.4994617273758915
 40
0.6246397975016373
 40
0.7497942425931176
 40
0.800031851756727
 40
0.8501227559525798
 40
0.9001153024437296
 40
0.9500581242983076
 40
1.0
 40
1.0
 40
1.0
 40
1.0
 10
229.4790071002922
 20
159.5470891383871
 30
0.0
 10
229.4736580259363
 20
159.690059814085
 30
0.0
 10
229.4629612516977
 20
159.9759644283991
 30
0.0
 10
229.4424764413019
 20
160.400108876328
 30
0.0
 10
229.4188673186337
 20
160.8206308902782
 30
0.0
 10
229.3919031194835
 20
161.2371800932047
 30
0.0
 10
229.361765491388
 20
161.6498205064589
 30
0.0
 10
229.3285245906689
 20
162.0585074323333
 30
0.0
 10
229.2922799183443
 20
162.4632255077734
 30
0.0
 10
229.2531209541134
 20
162.8639596185668
 30
0.0
 10
229.1626706476084
 20
163.7187731617097
 30
0.0
 10
228.9995796357687
 20
164.9902200354791
 30
0.0
 10
228.7381330038482
 20
166.5979497840246
 30
0.0
 10
228.4467370505419
 20
168.0907633113082
 30
0.0
 10
228.1996488907824
 20
169.1850860930136
 30
0.0
 10
228.0122329221882
 20
169.9499443772005
 30
0.0
 10
227.8872642865409
 20
170.4381884211505
 30
0.0
 10
227.763398594976
 20
170.9027890393288
 30
0.0
 10
227.6410053888797
 20
171.3459930404001
 30
0.0
 10
227.5615030421157
 20
171.6219453509952
 30
0.0
 10
227.5217522452747
 20
171.7599201993204
 30
0.0
  0
LWPOLYLINE
  5
7D
330
1F
100
AcDbEntity
  8
0
  6
SLD-Сплошная
 62
     7
370
    25
100
AcDbPolyline
 90
        3
 70
   128
 43
0.0
 10
227.5217522453
 20
171.7599201993
 10
235.640603261
 20
171.7614265937
 10
242.0197004877
 20
171.7626101206
  0
SPLINE
  5
7E
330
1F
100
AcDbEntity
  8
0
  6
SLD-Сплошная
 62
     7
370
    25
100
AcDbSpline
210
0.0
220
0.0
230
1.0
 70
    24
 71
     3
 72
    10
 73
     6
 74
     0
 42
0.00000001
 43
0.00000001
 40
0.0
 40
0.0
 40
0.0
 40
0.0
 40
0.5
 40
0.5
 40
1.0
 40
1.0
 40
1.0
 40
1.0
 10
229.8625462113734
 20
148.5639660095607
 30
0.0
 10
229.7971338266789
 20
150.4371316255117
 30
0.0
 10
229.7309684236202
 20
152.3318608660674
 30
0.0
 10
229.6016501529575
 20
156.0350516188733
 30
0.0
 10
229.5385307916862
 20
157.8425536352939
 30
0.0
 10
229.4790071002922
 20
159.5470891383871
 30
0.0
  0
LINE
  5
7F
330
1F
100
AcDbEntity
  8
0
  6
SLD-Сплошная
 62
     7
370
    25
100
AcDbLine
 10
228.0883655185
 20
169.6062034357
 30
0.0
 11
227.0197004877
 21
169.5854364782
 31
0.0
  0
LINE
  5
80
330
1F
100
AcDbEntity
  8
0
  6
SLD-Сплошная
 62
     7
370
    25
100
AcDbLine
 10
233.7197004877
 20
129.8696056397
 30
0.0
 11
233.7197004877
 21
126.2652829183
 31
0.0
  0
LWPOLYLINE
  5
81
330
1F
100
AcDbEntity
  8
0
  6
SLD-Сплошная
 62
     7
370
    25
100
AcDbPolyline
 90
        3
 70
   128
 43
0.0
 10
228.9197004877
 20
126.3536972721
 10
231.6077004065
 20
126.3041808228
 10
233.7197004877
 20
126.2652829183
  0
LWPOLYLINE
  5
82
330
1F
100
AcDbEntity
  8
0
  6
SLD-Сплошная
 62
     7
370
    25
100
AcDbPolyline
 90
        3
 70
   128
 43
0.0
 10
227.0197004877
 20
129.0197939449
 10
228.0837004543
 20
128.9987644346
 10
228.9197004877
 20
128.9822446579
  0
LINE
  5
83
330
1F
100
AcDbEntity
  8
0
  6
SLD-Сплошная
 62
     7
370
    25
100
AcDbLine
 10
227.0197004877
 20
169.5854364782
 30
0.0
 11
227.0197004877
 21
129.0197939449
 31
0.0
  0
LINE
  5
84
330
1F
100
AcDbEntity
  8
0
  6
SLD-Сплошная
 62
     7
370
    25
100
AcDbLine
 10
258.3197004877
 20
158.1639660096
 30
0.0
 11
258.3197004877
 21
169.5639660096
 31
0.0
  0
LINE
  5
85
330
1F
100
AcDbEntity
  8
0
  6
SLD-Сплошная
 62
     7
370
    25
100
AcDbLine
 10
266.2197004877
 20
158.1639660096
 30
0.0
 11
258.3197004877
 21
158.1639660096
 31
0.0
  0
LINE
  5
86
330
1F
100
AcDbEntity
  8
0
  6
SLD-Сплошная
 62
     7
370
    25
100
AcDbLine
 10
266.2197004877
 20
148.5639660096
 30
0.0
 11
266.2197004877
 21
158.1639660096
 31
0.0
  0
LINE
  5
87
330
1F
100
AcDbEntity
  8
0
  6
SLD-Сплошная
 62
     7
370
    25
100
AcDbLine
 10
266.2197004877
 20
138.9639660096
 30
0.0
 11
266.2197004877
 21
148.5639660096
 31
0.0
  0
LINE
  5
88
330
1F
100
AcDbEntity
  8
0
  6
SLD-Сплошная
 62
     7
370
    25
100
AcDbLine
 10
258.3197004877
 20
138.9639660096
 30
0.0
 11
266.2197004877
 21
138.9639660096
 31
0.0
  0
LINE
  5
89
330
1F
100
AcDbEntity
  8
0
  6
SLD-Сплошная
 62
     7
370
    25
100
AcDbLine
 10
258.3197004877
 20
127.5639660096
 30
0.0
 11
258.3197004877
 21
138.9639660096
 31
0.0
  0
LINE
  5
8A
330
1F
100
AcDbEntity
  8
0
  6
SLD-Сплошная
 62
     7
370
    25
100
AcDbLine
 10
258.3197004877
 20
134.1639660096
 30
0.0
 11
266.2197004877
 21
134.1639660096
 31
0.0
  0
LINE
  5
8B
330
1F
100
AcDbEntity
  8
0
  6
SLD-Сплошная
 62
     7
370
    25
100
AcDbLine
 10
266.2197004877
 20
138.9639660096
 30
0.0
 11
266.2197004877
 21
134.1639660096
 31
0.0
  0
LINE
  5
8C
330
1F
100
AcDbEntity
  8
0
  6
SLD-Сплошная
 62
     7
370
    25
100
AcDbLine
 10
268.7197004877
 20
142.9942000596
 30
0.0
 11
268.7197004877
 21
137.1337319595
 31
0.0
  0
LINE
  5
8D
330
1F
100
AcDbEntity
  8
0
  6
SLD-Сплошная
 62
     7
370
    25
100
AcDbLine
 10
266.2197004877
 20
142.9949854578
 30
0.0
 11
268.7197004877
 21
142.9942000596
 31
0.0
  0
LINE
  5
8E
330
1F
100
AcDbEntity
  8
0
  6
SLD-Сплошная
 62
     7
370
    25
100
AcDbLine
 10
266.2197004877
 20
137.1329465614
 30
0.0
 11
268.7197004877
 21
137.1337319595
 31
0.0
  0
LINE
  5
8F
330
1F
100
AcDbEntity
  8
0
  6
SLD-Сплошная
 62
     7
370
    25
100
AcDbLine
 10
268.7197004877
 20
148.5639660096
 30
0.0
 11
268.7197004877
 21
153.2631806114
 31
0.0
  0
LINE
  5
90
330
1F
100
AcDbEntity
  8
0
  6
SLD-Сплошная
 62
     7
370
    25
100
AcDbLine
 10
268.7197004877
 20
143.8647514078
 30
0.0
 11
268.7197004877
 21
148.5639660096
 31
0.0
  0
LINE
  5
91
330
1F
100
AcDbEntity
  8
0
  6
SLD-Сплошная
 62
     7
370
    25
100
AcDbLine
 10
234.0197004877
 20
127.1459455932
 30
0.0
 11
234.0197004877
 21
124.7749796998
 31
0.0
  0
SPLINE
  5
92
330
1F
100
AcDbEntity
  8
0
  6
SLD-Сплошная
 62
     7
370
    25
100
AcDbSpline
210
0.0
220
0.0
230
1.0
 70
     8
 71
     3
 72
    15
 73
    11
 74
     0
 42
0.00000001
 43
0.00000001
 40
0.0
 40
0.0
 40
0.0
 40
0.0
 40
0.1004584111455271
 40
0.1840068712179631
 40
0.2506431494921372
 40
0.3821902199796015
 40
0.500231100157279
 40
0.6761221300376893
 40
0.8419135447319638
 40
1.0
 40
1.0
 40
1.0
 40
1.0
 10
226.6000263122935
 20
126.9493069429087
 30
0.0
 10
226.6004902806091
 20
126.9632024579036
 30
0.0
 10
226.6013401184386
 20
126.9886544853546
 30
0.0
 10
226.6135995900387
 20
127.0231534068771
 30
0.0
 10
226.6345066803958
 20
127.0612541314471
 30
0.0
 10
226.6698818047435
 20
127.1020450649964
 30
0.0
 10
226.736195103555
 20
127.1521153548199
 30
0.0
 10
226.8311212420715
 20
127.1961161994724
 30
0.0
 10
226.9570042281411
 20
127.2285241521677
 30
0.0
 10
227.0463369969068
 20
127.2327357781789
 30
0.0
 10
227.0899407811206
 20
127.2347914945114
 30
0.0
  0
LINE
  5
93
330
1F
100
AcDbEntity
  8
0
  6
SLD-Сплошная
 62
     7
370
    25
100
AcDbLine
 10
226.6000263123
 20
126.9493069429
 30
0.0
 11
225.4100561713
 21
154.2041040609
 31
0.0
  0
LINE
  5
94
330
1F
100
AcDbEntity
  8
0
  6
SLD-Сплошная
 62
     7
370
    25
100
AcDbLine
 10
228.9197004877
 20
124.7154859741
 30
0.0
 11
228.9197004877
 21
127.2347914945
 31
0.0
  0
LINE
  5
95
330
1F
100
AcDbEntity
  8
0
  6
SLD-Сплошная
 62
     7
370
    25
100
AcDbLine
 10
233.7197004877
 20
124.7154859741
 30
0.0
 11
228.9197004877
 21
124.7154859741
 31
0.0
  0
LWPOLYLINE
  5
96
330
1F
100
AcDbEntity
  8
0
  6
SLD-Сплошная
 62
     7
370
    25
100
AcDbPolyline
 90
        3
 70
   128
 43
0.0
 10
226.6751347729
 20
125.2290403696
 10
227.7959259933
 20
125.2353524031
 10
228.6765476664
 20
125.2403199453
  0
SPLINE
  5
97
330
1F
100
AcDbEntity
  8
0
  6
SLD-Сплошная
 62
     7
370
    25
100
AcDbSpline
210
0.0
220
0.0
230
1.0
 70
    24
 71
     3
 72
     8
 73
     4
 74
     0
 42
0.00000001
 43
0.00000001
 40
0.0
 40
0.0
 40
0.0
 40
0.0
 40
1.0
 40
1.0
 40
1.0
 40
1.0
 10
226.6751347729362
 20
125.2290403696471
 30
0.0
 10
226.6543400049413
 20
125.7053188604358
 30
0.0
 10
226.6291448256025
 20
126.2823833409614
 30
0.0
 10
226.6000263122936
 20
126.9493069429088
 30
0.0
  0
LINE
  5
98
330
1F
100
AcDbEntity
  8
0
  6
SLD-Сплошная
 62
     7
370
    25
100
AcDbLine
 10
228.9197004877
 20
127.2347914945
 30
0.0
 11
227.0899407811
 21
127.2347914945
 31
0.0
  0
LINE
  5
99
330
1F
100
AcDbEntity
  8
0
  6
SLD-Сплошная
 62
     7
370
    25
100
AcDbLine
 10
233.7197004877
 20
123.5639660096
 30
0.0
 11
233.7197004877
 21
124.7154859741
 31
0.0
  0
LINE
  5
9A
330
1F
100
AcDbEntity
  8
0
  6
SLD-Сплошная
 62
     7
370
    25
100
AcDbLine
 10
228.9197004877
 20
127.2347914945
 30
0.0
 11
228.9197004877
 21
128.9822446579
 31
0.0
  0
SPLINE
  5
9B
330
1F
100
AcDbEntity
  8
0
  6
SLD-Сплошная
 62
     7
370
    25
100
AcDbSpline
210
0.0
220
0.0
230
1.0
 70
     8
 71
     3
 72
    10
 73
     6
 74
     0
 42
0.00000001
 43
0.00000001
 40
0.0
 40
0.0
 40
0.0
 40
0.0
 40
0.5
 40
0.5
 40
1.0
 40
1.0
 40
1.0
 40
1.0
 10
225.8975991444883
 20
176.4606533702331
 30
0.0
 10
225.7084770733555
 20
176.9308413003913
 30
0.0
 10
225.5627060332713
 20
177.4234898338681
 30
0.0
 10
225.3683015968242
 20
178.4277635707141
 30
0.0
 10
225.3197004877124
 20
178.9392219813961
 30
0.0
 10
225.3197004877124
 20
179.4460196209485
 30
0.0
  0
LINE
  5
9C
330
1F
100
AcDbEntity
  8
0
  6
SLD-Сплошная
 62
     7
370
    25
100
AcDbLine
 10
225.3197004877
 20
179.4460196209
 30
0.0
 11
225.3197004877
 21
179.771552457
 31
0.0
  0
SPLINE
  5
9D
330
1F
100
AcDbEntity
  8
0
  6
SLD-Сплошная
 62
     7
370
    25
100
AcDbSpline
210
0.0
220
0.0
230
1.0
 70
     8
 71
     3
 72
    22
 73
    18
 74
     0
 42
0.00000001
 43
0.00000001
 40
0.0
 40
0.0
 40
0.0
 40
0.0
 40
0.125
 40
0.125
 40
0.25
 40
0.25
 40
0.375
 40
0.375
 40
0.5
 40
0.5
 40
0.625
 40
0.625
 40
0.75
 40
0.75
 40
0.875
 40
0.875
 40
1.0
 40
1.0
 40
1.0
 40
1.0
 10
225.3197004877124
 20
179.771552456996
 30
0.0
 10
225.3197004877124
 20
180.1220070891459
 30
0.0
 10
225.350580779289
 20
180.4852873832367
 30
0.0
 10
225.4853771955236
 20
181.2208555173142
 30
0.0
 10
225.5894064793861
 20
181.5930705341308
 30
0.0
 10
225.8756934979335
 20
182.3243911558619
 30
0.0
 10
226.0580154956678
 20
182.6833552013739
 30
0.0
 10
226.4969071963297
 20
183.3638482474716
 30
0.0
 10
226.7534482419415
 20
183.685209579923
 30
0.0
 10
227.3269473436332
 20
184.2688065056672
 30
0.0
 10
227.6437824726012
 20
184.5309170074223
 30
0.0
 10
228.31651215997
 20
184.9816181039707
 30
0.0
 10
228.6722395759123
 20
185.1701771196003
 30
0.0
 10
229.398452416565
 20
185.4691838399745
 30
0.0
 10
229.7687951818884
 20
185.5796933274288
 30
0.0
 10
230.5018987635339
 20
185.7273066475545
 30
0.0
 10
230.8645847928767
 20
185.7645223512562
 30
0.0
 10
231.2149860490887
 20
185.7706386279343
 30
0.0
  0
LINE
  5
9E
330
1F
100
AcDbEntity
  8
0
  6
SLD-Сплошная
 62
     7
370
    25
100
AcDbLine
 10
242.0197004877
 20
185.95923562
 30
0.0
 11
231.2149860491
 21
185.7706386279
 31
0.0
  0
SPLINE
  5
9F
330
1F
100
AcDbEntity
  8
0
  6
SLD-Сплошная
 62
     7
370
    25
100
AcDbSpline
210
0.0
220
0.0
230
1.0
 70
     8
 71
     3
 72
     8
 73
     4
 74
     0
 42
0.00000001
 43
0.00000001
 40
0.0
 40
0.0
 40
0.0
 40
0.0
 40
1.0
 40
1.0
 40
1.0
 40
1.0
 10
227.5217522452747
 20
171.7599201993204
 30
0.0
 10
227.0589666896586
 20
173.3518174393223
 30
0.0
 10
226.5162423921014
 20
174.9226066136632
 30
0.0
 10
225.8975991444883
 20
176.4606533702331
 30
0.0
  0
LINE
  5
A0
330
1F
100
AcDbEntity
  8
0
  6
SLD-Сплошная
 62
     7
370
    25
100
AcDbLine
 10
268.7197004877
 20
136.3337319597
 30
0.0
 11
268.7197004877
 21
137.1337319595
 31
0.0
  0
LINE
  5
A1
330
1F
100
AcDbEntity
  8
0
  6
SLD-Сплошная
 62
     7
370
    25
100
AcDbLine
 10
268.7197004877
 20
142.9942000596
 30
0.0
 11
268.7197004877
 21
143.7942000594
 31
0.0
  0
SPLINE
  5
A2
330
1F
100
AcDbEntity
  8
0
  6
SLD-Сплошная
 62
     7
370
    25
100
AcDbSpline
210
0.0
220
0.0
230
1.0
 70
     8
 71
     3
 72
     8
 73
     4
 74
     0
 42
0.00000001
 43
0.00000001
 40
0.0
 40
0.0
 40
0.0
 40
0.0
 40
1.0
 40
1.0
 40
1.0
 40
1.0
 10
225.4100561713408
 20
154.2041040609236
 30
0.0
 10
225.3524971301962
 20
155.5224228444946
 30
0.0
 10
225.3079856662681
 20
156.8413112942104
 30
0.0
 10
225.27653049856
 20
158.160511063297
 30
0.0
  0
SPLINE
  5
A3
330
1F
100
AcDbEntity
  8
0
  6
SLD-Сплошная
 62
     7
370
    25
100
AcDbSpline
210
0.0
220
0.0
230
1.0
 70
     8
 71
     3
 72
     8
 73
     4
 74
     0
 42
0.00000001
 43
0.00000001
 40
0.0
 40
0.0
 40
0.0
 40
0.0
 40
1.0
 40
1.0
 40
1.0
 40
1.0
 10
225.2602019241041
 20
158.9031915779387
 30
0.0
 10
225.2651944928225
 20
158.6551509228053
 30
0.0
 10
225.2706391605894
 20
158.407588165625
 30
0.0
 10
225.27653049856
 20
158.160511063297
 30
0.0
  0
LWPOLYLINE
  5
A4
330
1F
100
AcDbEntity
  8
0
  6
SLD-Сплошная
 62
     7
370
    25
100
AcDbPolyline
 90
        3
 70
   128
 43
0.0
 10
225.3333737756
 20
180.1763888387
 10
225.2822803834
 20
179.8912885641
 10
225.2197004877
 20
179.0639660096
  0
LINE
  5
A5
330
1F
100
AcDbEntity
  8
0
  6
SLD-Сплошная
 62
     7
370
    25
100
AcDbLine
 10
225.2197004877
 20
179.0639660096
 30
0.0
 11
225.2197004877
 21
162.927981534
 31
0.0
  0
ARC
  5
A6
330
1F
100
AcDbEntity
  8
0
  6
SLD-Сплошная
 62
     7
370
    25
100
AcDbCircle
 10
425.2197004877
 20
162.927981534
 30
0.0
 40
200.0
100
AcDbArc
 50
180.0
 51
181.1530952273
  0
SPLINE
  5
A7
330
1F
100
AcDbEntity
  8
0
  6
SLD-Сплошная
 62
     7
370
    25
100
AcDbSpline
210
0.0
220
0.0
230
1.0
 70
    24
 71
     3
 72
    11
 73
     7
 74
     0
 42
0.00000001
 43
0.00000001
 40
0.0
 40
0.0
 40
0.0
 40
0.0
 40
0.1199891317660804
 40
0.4133086899123508
 40
0.7066392524822515
 40
1.0
 40
1.0
 40
1.0
 40
1.0
 10
228.7802875583367
 20
122.8642857813142
 30
0.0
 10
228.7806326150803
 20
122.856382682557
 30
0.0
 10
228.7818211806492
 20
122.8291600554282
 30
0.0
 10
228.7702946987636
 20
123.0931598941332
 30
0.0
 10
228.7467090295017
 20
123.633360533212
 30
0.0
 10
228.7201117672515
 20
124.242537992021
 30
0.0
 10
228.706812451919
 20
124.5471423923495
 30
0.0
  0
LINE
  5
A8
330
1F
100
AcDbEntity
  8
0
  6
SLD-Сплошная
 62
     7
370
    25
100
AcDbLine
 10
228.7068124519
 20
124.5471423923
 30
0.0
 11
226.7087160088
 21
124.4599036176
 31
0.0
  0
SPLINE
  5
A9
330
1F
100
AcDbEntity
  8
0
  6
SLD-Сплошная
 62
     7
370
    25
100
AcDbSpline
210
0.0
220
0.0
230
1.0
 70
    24
 71
     3
 72
    11
 73
     7
 74
     0
 42
0.00000001
 43
0.00000001
 40
0.0
 40
0.0
 40
0.0
 40
0.0
 40
0.280023254896161
 40
0.5600177302225926
 40
0.8400029960900197
 40
1.0
 40
1.0
 40
1.0
 40
1.0
 10
226.7087160087553
 20
124.4599036176192
 30
0.0
 10
226.7214497267522
 20
124.1682535260595
 30
0.0
 10
226.7469158540298
 20
123.5849833174656
 30
0.0
 10
226.7704207907391
 20
123.0466317578458
 30
0.0
 10
226.7829337054686
 20
122.7600388925534
 30
0.0
 10
226.7823891423843
 20
122.7725114377625
 30
0.0
 10
226.782191115173
 20
122.7770470065835
 30
0.0
  0
LINE
  5
AA
330
1F
100
AcDbEntity
  8
0
  6
SLD-Сплошная
 62
     7
370
    25
100
AcDbLine
 10
228.7068124519
 20
124.5471423923
 30
0.0
 11
228.6765476664
 21
125.2403199453
 31
0.0
  0
LINE
  5
AB
330
1F
100
AcDbEntity
  8
0
  6
SLD-Сплошная
 62
     7
370
    25
100
AcDbLine
 10
226.7087160088
 20
124.4599036176
 30
0.0
 11
226.6751347729
 21
125.2290403696
 31
0.0
  0
LINE
  5
AC
330
1F
100
AcDbEntity
  8
0
  6
SLD-Сплошная
 62
     7
370
    25
100
AcDbLine
 10
233.7197004877
 20
124.7154859741
 30
0.0
 11
233.7197004877
 21
126.2652829183
 31
0.0
  0
LINE
  5
AD
330
1F
100
AcDbEntity
  8
0
  6
SLD-Сплошная
 62
     7
370
    25
100
AcDbLine
 10
259.1197004877
 20
167.5639660096
 30
0.0
 11
258.3197004877
 21
167.5639660096
 31
0.0
  0
LINE
  5
AE
330
1F
100
AcDbEntity
  8
0
  6
SLD-Сплошная
 62
     7
370
    25
100
AcDbLine
 10
259.1197004877
 20
158.1639660096
 30
0.0
 11
259.1197004877
 21
167.5639660096
 31
0.0
  0
LINE
  5
AF
330
1F
100
AcDbEntity
  8
0
  6
SLD-Сплошная
 62
     7
370
    25
100
AcDbLine
 10
258.3197004877
 20
129.5639660096
 30
0.0
 11
259.1197004877
 21
129.5639660096
 31
0.0
  0
LINE
  5
B0
330
1F
100
AcDbEntity
  8
0
  6
SLD-Сплошная
 62
     7
370
    25
100
AcDbLine
 10
259.1197004877
 20
129.5639660096
 30
0.0
 11
259.1197004877
 21
134.1639660096
 31
0.0
  0
ARC
  5
B1
330
1F
100
AcDbEntity
  8
0
  6
SLD-Сплошная
 62
     7
370
    25
100
AcDbCircle
 10
176.6068903338
 20
148.5639660096
 30
0.0
 40
4.699999999999335
100
AcDbArc
 50
180.0
 51
0.0
  0
ARC
  5
B2
330
1F
100
AcDbEntity
  8
0
  6
SLD-Сплошная
 62
     7
370
    25
100
AcDbCircle
 10
176.6068903338
 20
148.5639660096
 30
0.0
 40
4.69921460181007
100
AcDbArc
 50
180.0
 51
0.0
  0
ARC
  5
B3
330
1F
100
AcDbEntity
  8
0
  6
SLD-Сплошная
 62
     7
370
    25
100
AcDbCircle
 10
176.6068903338
 20
148.5639660096
 30
0.0
 40
4.69921460181007
100
AcDbArc
 50
0.0
 51
180.0
  0
LINE
  5
B4
330
1F
100
AcDbEntity
  8
0
  6
SLD-Сплошная
 62
     7
370
    25
100
AcDbLine
 10
181.537909782
 20
142.9949854578
 30
0.0
 11
181.5371243838
 21
142.9942000596
 31
0.0
  0
LINE
  5
B5
330
1F
100
AcDbEntity
  8
0
  6
SLD-Сплошная
 62
     7
370
    25
100
AcDbLine
 10
181.537909782
 20
137.1329465614
 30
0.0
 11
181.537909782
 21
142.9949854578
 31
0.0
  0
LINE
  5
B6
330
1F
100
AcDbEntity
  8
0
  6
SLD-Сплошная
 62
     7
370
    25
100
AcDbLine
 10
181.537909782
 20
137.1329465614
 30
0.0
 11
181.5371243838
 21
137.1337319595
 31
0.0
  0
LINE
  5
B7
330
1F
100
AcDbEntity
  8
0
  6
SLD-Сплошная
 62
     7
370
    25
100
AcDbLine
 10
181.5371243838
 20
142.9942000596
 30
0.0
 11
181.5371243838
 21
137.1337319595
 31
0.0
  0
ARC
  5
B8
330
1F
100
AcDbEntity
  8
0
  6
SLD-Сплошная
 62
     7
370
    25
100
AcDbCircle
 10
176.6068903338
 20
148.5639660096
 30
0.0
 40
4.699999999999335
100
AcDbArc
 50
0.0
 51
180.0
  0
LINE
  5
B9
330
1F
100
AcDbEntity
  8
0
  6
SLD-Сплошная
 62
     7
370
    25
100
AcDbLine
 10
178.809078136
 20
137.1329465614
 30
0.0
 11
181.537909782
 21
137.1329465614
 31
0.0
  0
LINE
  5
BA
330
1F
100
AcDbEntity
  8
0
  6
SLD-Сплошная
 62
     7
370
    25
100
AcDbLine
 10
178.8087928019
 20
137.1337319595
 30
0.0
 11
178.809078136
 21
137.1329465614
 31
0.0
  0
LINE
  5
BB
330
1F
100
AcDbEntity
  8
0
  6
SLD-Сплошная
 62
     7
370
    25
100
AcDbLine
 10
181.5371243838
 20
137.1337319595
 30
0.0
 11
178.8087928019
 21
137.1337319595
 31
0.0
  0
LINE
  5
BC
330
1F
100
AcDbEntity
  8
0
  6
SLD-Сплошная
 62
     7
370
    25
100
AcDbLine
 10
174.8195579491
 20
138.1673678514
 30
0.0
 11
172.7102921756
 21
138.1673678514
 31
0.0
  0
ARC
  5
BD
330
1F
100
AcDbEntity
  8
0
  6
SLD-Сплошная
 62
     7
370
    25
100
AcDbCircle
 10
176.6068903338
 20
139.7639660096
 30
0.0
 40
2.396598158289744
100
AcDbArc
 50
221.7739541029
 51
318.2260458971
  0
LINE
  5
BE
330
1F
100
AcDbEntity
  8
0
  6
SLD-Сплошная
 62
     7
370
    25
100
AcDbLine
 10
180.503488492
 20
138.1673678514
 30
0.0
 11
178.3942227186
 21
138.1673678514
 31
0.0
  0
LINE
  5
BF
330
1F
100
AcDbEntity
  8
0
  6
SLD-Сплошная
 62
     7
370
    25
100
AcDbLine
 10
180.503488492
 20
141.9605641677
 30
0.0
 11
180.503488492
 21
138.1673678514
 31
0.0
  0
LINE
  5
C0
330
1F
100
AcDbEntity
  8
0
  6
SLD-Сплошная
 62
     7
370
    25
100
AcDbLine
 10
178.3940387059
 20
141.9605641677
 30
0.0
 11
180.503488492
 21
141.9605641677
 31
0.0
  0
ARC
  5
C1
330
1F
100
AcDbEntity
  8
0
  6
SLD-Сплошная
 62
     7
370
    25
100
AcDbCircle
 10
176.6068903338
 20
140.3639660096
 30
0.0
 40
2.396460928626792
100
AcDbArc
 50
41.7768849995
 51
138.2231150005
  0
LINE
  5
C2
330
1F
100
AcDbEntity
  8
0
  6
SLD-Сплошная
 62
     7
370
    25
100
AcDbLine
 10
172.7102921756
 20
141.9605641677
 30
0.0
 11
174.8197419618
 21
141.9605641677
 31
0.0
  0
LINE
  5
C3
330
1F
100
AcDbEntity
  8
0
  6
SLD-Сплошная
 62
     7
370
    25
100
AcDbLine
 10
172.7102921756
 20
138.1673678514
 30
0.0
 11
172.7102921756
 21
141.9605641677
 31
0.0
  0
ARC
  5
C4
330
1F
100
AcDbEntity
  8
0
  6
SLD-Сплошная
 62
     7
370
    25
100
AcDbCircle
 10
176.6068903338
 20
140.3639660096
 30
0.0
 40
3.430234049865129
100
AcDbArc
 50
50.0655884815
 51
129.9344115185
  0
LINE
  5
C5
330
1F
100
AcDbEntity
  8
0
  6
SLD-Сплошная
 62
     7
370
    25
100
AcDbLine
 10
178.8087928019
 20
142.9942000596
 30
0.0
 11
181.5371243838
 21
142.9942000596
 31
0.0
  0
ARC
  5
C6
330
1F
100
AcDbEntity
  8
0
  6
SLD-Сплошная
 62
     7
370
    25
100
AcDbCircle
 10
176.6068903338
 20
139.7639660096
 30
0.0
 40
3.430234049865129
100
AcDbArc
 50
230.0655884815
 51
309.9344115185
  0
LINE
  5
C7
330
1F
100
AcDbEntity
  8
0
  6
SLD-Сплошная
 62
     7
370
    25
100
AcDbLine
 10
174.4049878657
 20
137.1337319595
 30
0.0
 11
171.6766562838
 21
137.1337319595
 31
0.0
  0
LINE
  5
C8
330
1F
100
AcDbEntity
  8
0
  6
SLD-Сплошная
 62
     7
370
    25
100
AcDbLine
 10
171.6766562838
 20
137.1337319595
 30
0.0
 11
171.6766562838
 21
142.9942000596
 31
0.0
  0
LINE
  5
C9
330
1F
100
AcDbEntity
  8
0
  6
SLD-Сплошная
 62
     7
370
    25
100
AcDbLine
 10
171.6766562838
 20
142.9942000596
 30
0.0
 11
174.4049878657
 21
142.9942000596
 31
0.0
  0
LINE
  5
CA
330
1F
100
AcDbEntity
  8
0
  6
SLD-Сплошная
 62
     7
370
    25
100
AcDbLine
 10
178.8087928019
 20
142.9942000596
 30
0.0
 11
178.809078136
 21
142.9949854578
 31
0.0
  0
LINE
  5
CB
330
1F
100
AcDbEntity
  8
0
  6
SLD-Сплошная
 62
     7
370
    25
100
AcDbLine
 10
181.537909782
 20
142.9949854578
 30
0.0
 11
178.809078136
 21
142.9949854578
 31
0.0
  0
LINE
  5
CC
330
1F
100
AcDbEntity
  8
0
  6
SLD-Сплошная
 62
     7
370
    25
100
AcDbLine
 10
180.503488492
 20
138.1673678514
 30
0.0
 11
180.5027030938
 21
138.1681532496
 31
0.0
  0
LINE
  5
CD
330
1F
100
AcDbEntity
  8
0
  6
SLD-Сплошная
 62
     7
370
    25
100
AcDbLine
 10
178.3942227186
 20
138.1673678514
 30
0.0
 11
178.3939836555
 21
138.1679019222
 31
0.0
  0
LINE
  5
CE
330
1F
100
AcDbEntity
  8
0
  6
SLD-Сплошная
 62
     7
370
    25
100
AcDbLine
 10
178.3939836555
 20
138.1679019222
 30
0.0
 11
178.9317432273
 21
138.1679019222
 31
0.0
  0
LINE
  5
CF
330
1F
100
AcDbEntity
  8
0
  6
SLD-Сплошная
 62
     7
370
    25
100
AcDbLine
 10
180.4123936219
 20
138.1681532496
 30
0.0
 11
178.9319481781
 21
138.1681532496
 31
0.0
  0
LINE
  5
D0
330
1F
100
AcDbEntity
  8
0
  6
SLD-Сплошная
 62
     7
370
    25
100
AcDbLine
 10
180.5027030938
 20
138.1681532496
 30
0.0
 11
180.4123936219
 21
138.1681532496
 31
0.0
  0
LINE
  5
D1
330
1F
100
AcDbEntity
  8
0
  6
SLD-Сплошная
 62
     7
370
    25
100
AcDbLine
 10
178.9317432273
 20
141.960030097
 30
0.0
 11
178.3937996592
 21
141.960030097
 31
0.0
  0
LINE
  5
D2
330
1F
100
AcDbEntity
  8
0
  6
SLD-Сплошная
 62
     7
370
    25
100
AcDbLine
 10
178.3940387059
 20
141.9605641677
 30
0.0
 11
178.3937996592
 21
141.960030097
 31
0.0
  0
LINE
  5
D3
330
1F
100
AcDbEntity
  8
0
  6
SLD-Сплошная
 62
     7
370
    25
100
AcDbLine
 10
180.503488492
 20
141.9605641677
 30
0.0
 11
180.5027030938
 21
141.9597787695
 31
0.0
  0
LINE
  5
D4
330
1F
100
AcDbEntity
  8
0
  6
SLD-Сплошная
 62
     7
370
    25
100
AcDbLine
 10
180.4123936219
 20
141.9597787695
 30
0.0
 11
180.5027030938
 21
141.9597787695
 31
0.0
  0
LINE
  5
D5
330
1F
100
AcDbEntity
  8
0
  6
SLD-Сплошная
 62
     7
370
    25
100
AcDbLine
 10
178.9319481781
 20
141.9597787695
 30
0.0
 11
180.4123936219
 21
141.9597787695
 31
0.0
  0
LINE
  5
D6
330
1F
100
AcDbEntity
  8
0
  6
SLD-Сплошная
 62
     7
370
    25
100
AcDbLine
 10
180.5027030938
 20
138.2584627215
 30
0.0
 11
180.5027030938
 21
138.1681532496
 31
0.0
  0
LINE
  5
D7
330
1F
100
AcDbEntity
  8
0
  6
SLD-Сплошная
 62
     7
370
    25
100
AcDbLine
 10
180.5027030938
 20
141.8694692976
 30
0.0
 11
180.5027030938
 21
138.2584627215
 31
0.0
  0
LINE
  5
D8
330
1F
100
AcDbEntity
  8
0
  6
SLD-Сплошная
 62
     7
370
    25
100
AcDbLine
 10
180.5027030938
 20
141.9597787695
 30
0.0
 11
180.5027030938
 21
141.8694692976
 31
0.0
  0
LINE
  5
D9
330
1F
100
AcDbEntity
  8
0
  6
SLD-Сплошная
 62
     7
370
    25
100
AcDbLine
 10
174.4049878657
 20
142.9942000596
 30
0.0
 11
174.4047025316
 21
142.9949854578
 31
0.0
  0
ARC
  5
DA
330
1F
100
AcDbEntity
  8
0
  6
SLD-Сплошная
 62
     7
370
    25
100
AcDbCircle
 10
176.6068903338
 20
140.3639660096
 30
0.0
 40
3.431019448055022
100
AcDbArc
 50
50.0703539196
 51
129.9296460804
  0
LINE
  5
DB
330
1F
100
AcDbEntity
  8
0
  6
SLD-Сплошная
 62
     7
370
    25
100
AcDbLine
 10
174.4049878657
 20
137.1337319595
 30
0.0
 11
174.4047025316
 21
137.1329465614
 31
0.0
  0
ARC
  5
DC
330
1F
100
AcDbEntity
  8
0
  6
SLD-Сплошная
 62
     7
370
    25
100
AcDbCircle
 10
176.6068903338
 20
139.7639660096
 30
0.0
 40
3.431019448055022
100
AcDbArc
 50
230.0703539196
 51
309.9296460804
  0
LINE
  5
DD
330
1F
100
AcDbEntity
  8
0
  6
SLD-Сплошная
 62
     7
370
    25
100
AcDbLine
 10
174.8195579491
 20
138.1673678514
 30
0.0
 11
174.8197970121
 21
138.1679019222
 31
0.0
  0
ARC
  5
DE
330
1F
100
AcDbEntity
  8
0
  6
SLD-Сплошная
 62
     7
370
    25
100
AcDbCircle
 10
176.6068903338
 20
139.7639660096
 30
0.0
 40
2.396064087521035
100
AcDbArc
 50
221.7682381542
 51
318.2317618458
  0
LINE
  5
DF
330
1F
100
AcDbEntity
  8
0
  6
SLD-Сплошная
 62
     7
370
    25
100
AcDbLine
 10
174.8197419618
 20
141.9605641677
 30
0.0
 11
174.8199810085
 21
141.960030097
 31
0.0
  0
ARC
  5
E0
330
1F
100
AcDbEntity
  8
0
  6
SLD-Сплошная
 62
     7
370
    25
100
AcDbCircle
 10
176.6068903338
 20
140.3639660096
 30
0.0
 40
2.395926857858096
100
AcDbArc
 50
41.7711691155
 51
138.2288308845
  0
LINE
  5
E1
330
1F
100
AcDbEntity
  8
0
  6
SLD-Сплошная
 62
     7
370
    25
100
AcDbLine
 10
174.2820374403
 20
138.1679019222
 30
0.0
 11
174.8197970121
 21
138.1679019222
 31
0.0
  0
LINE
  5
E2
330
1F
100
AcDbEntity
  8
0
  6
SLD-Сплошная
 62
     7
370
    25
100
AcDbLine
 10
172.7102921756
 20
138.1673678514
 30
0.0
 11
172.7110775738
 21
138.1681532496
 31
0.0
  0
LINE
  5
E3
330
1F
100
AcDbEntity
  8
0
  6
SLD-Сплошная
 62
     7
370
    25
100
AcDbLine
 10
172.8013870457
 20
138.1681532496
 30
0.0
 11
172.7110775738
 21
138.1681532496
 31
0.0
  0
LINE
  5
E4
330
1F
100
AcDbEntity
  8
0
  6
SLD-Сплошная
 62
     7
370
    25
100
AcDbLine
 10
174.2818324896
 20
138.1681532496
 30
0.0
 11
172.8013870457
 21
138.1681532496
 31
0.0
  0
LINE
  5
E5
330
1F
100
AcDbEntity
  8
0
  6
SLD-Сплошная
 62
     7
370
    25
100
AcDbLine
 10
174.2820374403
 20
141.960030097
 30
0.0
 11
174.8199810085
 21
141.960030097
 31
0.0
  0
LINE
  5
E6
330
1F
100
AcDbEntity
  8
0
  6
SLD-Сплошная
 62
     7
370
    25
100
AcDbLine
 10
172.8013870457
 20
141.9597787695
 30
0.0
 11
174.2818324896
 21
141.9597787695
 31
0.0
  0
LINE
  5
E7
330
1F
100
AcDbEntity
  8
0
  6
SLD-Сплошная
 62
     7
370
    25
100
AcDbLine
 10
172.7110775738
 20
141.9597787695
 30
0.0
 11
172.8013870457
 21
141.9597787695
 31
0.0
  0
LINE
  5
E8
330
1F
100
AcDbEntity
  8
0
  6
SLD-Сплошная
 62
     7
370
    25
100
AcDbLine
 10
172.7102921756
 20
141.9605641677
 30
0.0
 11
172.7110775738
 21
141.9597787695
 31
0.0
  0
LINE
  5
E9
330
1F
100
AcDbEntity
  8
0
  6
SLD-Сплошная
 62
     7
370
    25
100
AcDbLine
 10
171.6758708856
 20
142.9949854578
 30
0.0
 11
171.6766562838
 21
142.9942000596
 31
0.0
  0
LINE
  5
EA
330
1F
100
AcDbEntity
  8
0
  6
SLD-Сплошная
 62
     7
370
    25
100
AcDbLine
 10
174.4047025316
 20
142.9949854578
 30
0.0
 11
171.6758708856
 21
142.9949854578
 31
0.0
  0
LINE
  5
EB
330
1F
100
AcDbEntity
  8
0
  6
SLD-Сплошная
 62
     7
370
    25
100
AcDbLine
 10
171.6758708856
 20
137.1329465614
 30
0.0
 11
174.4047025316
 21
137.1329465614
 31
0.0
  0
LINE
  5
EC
330
1F
100
AcDbEntity
  8
0
  6
SLD-Сплошная
 62
     7
370
    25
100
AcDbLine
 10
171.6758708856
 20
137.1329465614
 30
0.0
 11
171.6766562838
 21
137.1337319595
 31
0.0
  0
LINE
  5
ED
330
1F
100
AcDbEntity
  8
0
  6
SLD-Сплошная
 62
     7
370
    25
100
AcDbLine
 10
172.7110775738
 20
138.1681532496
 30
0.0
 11
172.7110775738
 21
138.2584627215
 31
0.0
  0
LINE
  5
EE
330
1F
100
AcDbEntity
  8
0
  6
SLD-Сплошная
 62
     7
370
    25
100
AcDbLine
 10
172.7110775738
 20
141.8694692976
 30
0.0
 11
172.7110775738
 21
141.9597787695
 31
0.0
  0
LINE
  5
EF
330
1F
100
AcDbEntity
  8
0
  6
SLD-Сплошная
 62
     7
370
    25
100
AcDbLine
 10
172.7110775738
 20
138.2584627215
 30
0.0
 11
172.7110775738
 21
141.8694692976
 31
0.0
  0
LINE
  5
F0
330
1F
100
AcDbEntity
  8
0
  6
SLD-Сплошная
 62
     7
370
    25
100
AcDbLine
 10
171.6758708856
 20
142.9949854578
 30
0.0
 11
171.6758708856
 21
137.1329465614
 31
0.0
  0
LINE
  5
F1
330
1F
100
AcDbEntity
  8
0
  6
SLD-Сплошная
 62
     7
370
    25
100
AcDbLine
 10
162.537909782
 20
137.1329465614
 30
0.0
 11
162.5371243838
 21
137.1337319595
 31
0.0
  0
LINE
  5
F2
330
1F
100
AcDbEntity
  8
0
  6
SLD-Сплошная
 62
     7
370
    25
100
AcDbLine
 10
162.5371243838
 20
137.1337319595
 30
0.0
 11
162.5371243838
 21
142.9942000596
 31
0.0
  0
LINE
  5
F3
330
1F
100
AcDbEntity
  8
0
  6
SLD-Сплошная
 62
     7
370
    25
100
AcDbLine
 10
162.537909782
 20
142.9949854578
 30
0.0
 11
162.5371243838
 21
142.9942000596
 31
0.0
  0
LINE
  5
F4
330
1F
100
AcDbEntity
  8
0
  6
SLD-Сплошная
 62
     7
370
    25
100
AcDbLine
 10
162.537909782
 20
142.9949854578
 30
0.0
 11
162.537909782
 21
137.1329465614
 31
0.0
  0
LINE
  5
F5
330
1F
100
AcDbEntity
  8
0
  6
SLD-Сплошная
 62
     7
370
    25
100
AcDbLine
 10
159.8087928019
 20
137.1337319595
 30
0.0
 11
162.5371243838
 21
137.1337319595
 31
0.0
  0
ARC
  5
F6
330
1F
100
AcDbEntity
  8
0
  6
SLD-Сплошная
 62
     7
370
    25
100
AcDbCircle
 10
157.6068903338
 20
139.7639660096
 30
0.0
 40
3.430234049865129
100
AcDbArc
 50
230.0655884815
 51
309.9344115185
  0
LINE
  5
F7
330
1F
100
AcDbEntity
  8
0
  6
SLD-Сплошная
 62
     7
370
    25
100
AcDbLine
 10
152.6766562838
 20
137.1337319595
 30
0.0
 11
155.4049878657
 21
137.1337319595
 31
0.0
  0
LINE
  5
F8
330
1F
100
AcDbEntity
  8
0
  6
SLD-Сплошная
 62
     7
370
    25
100
AcDbLine
 10
152.6766562838
 20
142.9942000596
 30
0.0
 11
152.6766562838
 21
137.1337319595
 31
0.0
  0
LINE
  5
F9
330
1F
100
AcDbEntity
  8
0
  6
SLD-Сплошная
 62
     7
370
    25
100
AcDbLine
 10
155.4049878657
 20
142.9942000596
 30
0.0
 11
152.6766562838
 21
142.9942000596
 31
0.0
  0
ARC
  5
FA
330
1F
100
AcDbEntity
  8
0
  6
SLD-Сплошная
 62
     7
370
    25
100
AcDbCircle
 10
157.6068903338
 20
140.3639660096
 30
0.0
 40
3.430234049865129
100
AcDbArc
 50
50.0655884815
 51
129.9344115185
  0
LINE
  5
FB
330
1F
100
AcDbEntity
  8
0
  6
SLD-Сплошная
 62
     7
370
    25
100
AcDbLine
 10
162.5371243838
 20
142.9942000596
 30
0.0
 11
159.8087928019
 21
142.9942000596
 31
0.0
  0
ARC
  5
FC
330
1F
100
AcDbEntity
  8
0
  6
SLD-Сплошная
 62
     7
370
    25
100
AcDbCircle
 10
157.6068903338
 20
140.3639660096
 30
0.0
 40
2.396460928626792
100
AcDbArc
 50
41.7768849995
 51
138.2231150005
  0
LINE
  5
FD
330
1F
100
AcDbEntity
  8
0
  6
SLD-Сплошная
 62
     7
370
    25
100
AcDbLine
 10
155.8197419618
 20
141.9605641677
 30
0.0
 11
153.7102921756
 21
141.9605641677
 31
0.0
  0
LINE
  5
FE
330
1F
100
AcDbEntity
  8
0
  6
SLD-Сплошная
 62
     7
370
    25
100
AcDbLine
 10
153.7102921756
 20
141.9605641677
 30
0.0
 11
153.7102921756
 21
138.1673678514
 31
0.0
  0
LINE
  5
FF
330
1F
100
AcDbEntity
  8
0
  6
SLD-Сплошная
 62
     7
370
    25
100
AcDbLine
 10
153.7102921756
 20
138.1673678514
 30
0.0
 11
155.8195579491
 21
138.1673678514
 31
0.0
  0
ARC
  5
100
330
1F
100
AcDbEntity
  8
0
  6
SLD-Сплошная
 62
     7
370
    25
100
AcDbCircle
 10
157.6068903338
 20
139.7639660096
 30
0.0
 40
2.396598158289744
100
AcDbArc
 50
221.7739541029
 51
318.2260458971
  0
LINE
  5
101
330
1F
100
AcDbEntity
  8
0
  6
SLD-Сплошная
 62
     7
370
    25
100
AcDbLine
 10
159.3942227186
 20
138.1673678514
 30
0.0
 11
161.503488492
 21
138.1673678514
 31
0.0
  0
LINE
  5
102
330
1F
100
AcDbEntity
  8
0
  6
SLD-Сплошная
 62
     7
370
    25
100
AcDbLine
 10
161.503488492
 20
138.1673678514
 30
0.0
 11
161.503488492
 21
141.9605641677
 31
0.0
  0
LINE
  5
103
330
1F
100
AcDbEntity
  8
0
  6
SLD-Сплошная
 62
     7
370
    25
100
AcDbLine
 10
161.503488492
 20
141.9605641677
 30
0.0
 11
159.3940387059
 21
141.9605641677
 31
0.0
  0
LINE
  5
104
330
1F
100
AcDbEntity
  8
0
  6
SLD-Сплошная
 62
     7
370
    25
100
AcDbLine
 10
162.537909782
 20
137.1329465614
 30
0.0
 11
159.809078136
 21
137.1329465614
 31
0.0
  0
LINE
  5
105
330
1F
100
AcDbEntity
  8
0
  6
SLD-Сплошная
 62
     7
370
    25
100
AcDbLine
 10
159.8087928019
 20
137.1337319595
 30
0.0
 11
159.809078136
 21
137.1329465614
 31
0.0
  0
LINE
  5
106
330
1F
100
AcDbEntity
  8
0
  6
SLD-Сплошная
 62
     7
370
    25
100
AcDbLine
 10
159.8087928019
 20
142.9942000596
 30
0.0
 11
159.809078136
 21
142.9949854578
 31
0.0
  0
LINE
  5
107
330
1F
100
AcDbEntity
  8
0
  6
SLD-Сплошная
 62
     7
370
    25
100
AcDbLine
 10
159.809078136
 20
142.9949854578
 30
0.0
 11
162.537909782
 21
142.9949854578
 31
0.0
  0
ARC
  5
108
330
1F
100
AcDbEntity
  8
0
  6
SLD-Сплошная
 62
     7
370
    25
100
AcDbCircle
 10
157.6068903338
 20
148.5639660096
 30
0.0
 40
4.699214601810098
100
AcDbArc
 50
180.0
 51
0.0
  0
ARC
  5
109
330
1F
100
AcDbEntity
  8
0
  6
SLD-Сплошная
 62
     7
370
    25
100
AcDbCircle
 10
157.6068903338
 20
148.5639660096
 30
0.0
 40
4.699999999999335
100
AcDbArc
 50
180.0
 51
0.0
  0
ARC
  5
10A
330
1F
100
AcDbEntity
  8
0
  6
SLD-Сплошная
 62
     7
370
    25
100
AcDbCircle
 10
157.6068903338
 20
148.5639660096
 30
0.0
 40
4.699214601810098
100
AcDbArc
 50
0.0
 51
180.0
  0
ARC
  5
10B
330
1F
100
AcDbEntity
  8
0
  6
SLD-Сплошная
 62
     7
370
    25
100
AcDbCircle
 10
157.6068903338
 20
148.5639660096
 30
0.0
 40
4.699999999999335
100
AcDbArc
 50
0.0
 51
180.0
  0
LINE
  5
10C
330
1F
100
AcDbEntity
  8
0
  6
SLD-Сплошная
 62
     7
370
    25
100
AcDbLine
 10
159.9317432273
 20
141.960030097
 30
0.0
 11
159.3937996592
 21
141.960030097
 31
0.0
  0
LINE
  5
10D
330
1F
100
AcDbEntity
  8
0
  6
SLD-Сплошная
 62
     7
370
    25
100
AcDbLine
 10
159.3940387059
 20
141.9605641677
 30
0.0
 11
159.3937996592
 21
141.960030097
 31
0.0
  0
LINE
  5
10E
330
1F
100
AcDbEntity
  8
0
  6
SLD-Сплошная
 62
     7
370
    25
100
AcDbLine
 10
161.503488492
 20
141.9605641677
 30
0.0
 11
161.5020747753
 21
141.959150451
 31
0.0
  0
LINE
  5
10F
330
1F
100
AcDbEntity
  8
0
  6
SLD-Сплошная
 62
     7
370
    25
100
AcDbLine
 10
159.9324603571
 20
141.959150451
 30
0.0
 11
161.5020747753
 21
141.959150451
 31
0.0
  0
LINE
  5
110
330
1F
100
AcDbEntity
  8
0
  6
SLD-Сплошная
 62
     7
370
    25
100
AcDbLine
 10
159.3942227186
 20
138.1673678514
 30
0.0
 11
159.3939836555
 21
138.1679019222
 31
0.0
  0
LINE
  5
111
330
1F
100
AcDbEntity
  8
0
  6
SLD-Сплошная
 62
     7
370
    25
100
AcDbLine
 10
159.9317432273
 20
138.1679019222
 30
0.0
 11
159.3939836555
 21
138.1679019222
 31
0.0
  0
LINE
  5
112
330
1F
100
AcDbEntity
  8
0
  6
SLD-Сплошная
 62
     7
370
    25
100
AcDbLine
 10
161.5020747753
 20
138.1687815681
 30
0.0
 11
159.9324603571
 21
138.1687815681
 31
0.0
  0
LINE
  5
113
330
1F
100
AcDbEntity
  8
0
  6
SLD-Сплошная
 62
     7
370
    25
100
AcDbLine
 10
161.503488492
 20
138.1673678514
 30
0.0
 11
161.5020747753
 21
138.1687815681
 31
0.0
  0
LINE
  5
114
330
1F
100
AcDbEntity
  8
0
  6
SLD-Сплошная
 62
     7
370
    25
100
AcDbLine
 10
161.5020747753
 20
141.959150451
 30
0.0
 11
161.5020747753
 21
138.1687815681
 31
0.0
  0
LINE
  5
115
330
1F
100
AcDbEntity
  8
0
  6
SLD-Сплошная
 62
     7
370
    25
100
AcDbLine
 10
155.4049878657
 20
137.1337319595
 30
0.0
 11
155.4047025316
 21
137.1329465614
 31
0.0
  0
ARC
  5
116
330
1F
100
AcDbEntity
  8
0
  6
SLD-Сплошная
 62
     7
370
    25
100
AcDbCircle
 10
157.6068903338
 20
139.7639660096
 30
0.0
 40
3.431019448055022
100
AcDbArc
 50
230.0703539196
 51
309.9296460804
  0
LINE
  5
117
330
1F
100
AcDbEntity
  8
0
  6
SLD-Сплошная
 62
     7
370
    25
100
AcDbLine
 10
155.4049878657
 20
142.9942000596
 30
0.0
 11
155.4047025316
 21
142.9949854578
 31
0.0
  0
ARC
  5
118
330
1F
100
AcDbEntity
  8
0
  6
SLD-Сплошная
 62
     7
370
    25
100
AcDbCircle
 10
157.6068903338
 20
140.3639660096
 30
0.0
 40
3.431019448055022
100
AcDbArc
 50
50.0703539196
 51
129.9296460804
  0
LINE
  5
119
330
1F
100
AcDbEntity
  8
0
  6
SLD-Сплошная
 62
     7
370
    25
100
AcDbLine
 10
155.8197419618
 20
141.9605641677
 30
0.0
 11
155.8199810085
 21
141.960030097
 31
0.0
  0
ARC
  5
11A
330
1F
100
AcDbEntity
  8
0
  6
SLD-Сплошная
 62
     7
370
    25
100
AcDbCircle
 10
157.6068903338
 20
140.3639660096
 30
0.0
 40
2.395926857858096
100
AcDbArc
 50
41.7711691155
 51
138.2288308845
  0
LINE
  5
11B
330
1F
100
AcDbEntity
  8
0
  6
SLD-Сплошная
 62
     7
370
    25
100
AcDbLine
 10
155.8195579491
 20
138.1673678514
 30
0.0
 11
155.8197970121
 21
138.1679019222
 31
0.0
  0
ARC
  5
11C
330
1F
100
AcDbEntity
  8
0
  6
SLD-Сплошная
 62
     7
370
    25
100
AcDbCircle
 10
157.6068903338
 20
139.7639660096
 30
0.0
 40
2.396064087521056
100
AcDbArc
 50
221.7682381542
 51
318.2317618458
  0
LINE
  5
11D
330
1F
100
AcDbEntity
  8
0
  6
SLD-Сплошная
 62
     7
370
    25
100
AcDbLine
 10
155.2820374403
 20
141.960030097
 30
0.0
 11
155.8199810085
 21
141.960030097
 31
0.0
  0
LINE
  5
11E
330
1F
100
AcDbEntity
  8
0
  6
SLD-Сплошная
 62
     7
370
    25
100
AcDbLine
 10
155.2813203106
 20
141.959150451
 30
0.0
 11
153.7117058924
 21
141.959150451
 31
0.0
  0
LINE
  5
11F
330
1F
100
AcDbEntity
  8
0
  6
SLD-Сплошная
 62
     7
370
    25
100
AcDbLine
 10
153.7102921756
 20
141.9605641677
 30
0.0
 11
153.7117058924
 21
141.959150451
 31
0.0
  0
LINE
  5
120
330
1F
100
AcDbEntity
  8
0
  6
SLD-Сплошная
 62
     7
370
    25
100
AcDbLine
 10
155.8197970121
 20
138.1679019222
 30
0.0
 11
155.2820374403
 21
138.1679019222
 31
0.0
  0
LINE
  5
121
330
1F
100
AcDbEntity
  8
0
  6
SLD-Сплошная
 62
     7
370
    25
100
AcDbLine
 10
153.7102921756
 20
138.1673678514
 30
0.0
 11
153.7117058924
 21
138.1687815681
 31
0.0
  0
LINE
  5
122
330
1F
100
AcDbEntity
  8
0
  6
SLD-Сплошная
 62
     7
370
    25
100
AcDbLine
 10
155.2813203106
 20
138.1687815681
 30
0.0
 11
153.7117058924
 21
138.1687815681
 31
0.0
  0
LINE
  5
123
330
1F
100
AcDbEntity
  8
0
  6
SLD-Сплошная
 62
     7
370
    25
100
AcDbLine
 10
155.4047025316
 20
137.1329465614
 30
0.0
 11
152.6758708856
 21
137.1329465614
 31
0.0
  0
LINE
  5
124
330
1F
100
AcDbEntity
  8
0
  6
SLD-Сплошная
 62
     7
370
    25
100
AcDbLine
 10
152.6758708856
 20
137.1329465614
 30
0.0
 11
152.6766562838
 21
137.1337319595
 31
0.0
  0
LINE
  5
125
330
1F
100
AcDbEntity
  8
0
  6
SLD-Сплошная
 62
     7
370
    25
100
AcDbLine
 10
152.6758708856
 20
142.9949854578
 30
0.0
 11
152.6766562838
 21
142.9942000596
 31
0.0
  0
LINE
  5
126
330
1F
100
AcDbEntity
  8
0
  6
SLD-Сплошная
 62
     7
370
    25
100
AcDbLine
 10
152.6758708856
 20
142.9949854578
 30
0.0
 11
155.4047025316
 21
142.9949854578
 31
0.0
  0
LINE
  5
127
330
1F
100
AcDbEntity
  8
0
  6
SLD-Сплошная
 62
     7
370
    25
100
AcDbLine
 10
153.7117058924
 20
138.1687815681
 30
0.0
 11
153.7117058924
 21
141.959150451
 31
0.0
  0
LINE
  5
128
330
1F
100
AcDbEntity
  8
0
  6
SLD-Сплошная
 62
     7
370
    25
100
AcDbLine
 10
152.6758708856
 20
137.1329465614
 30
0.0
 11
152.6758708856
 21
142.9949854578
 31
0.0
  0
LINE
  5
129
330
1F
100
AcDbEntity
  8
0
  6
SLD-Сплошная
 62
     7
370
    25
100
AcDbLine
 10
177.0568903338
 20
140.5643795933
 30
0.0
 11
177.0568903338
 21
142.4214010564
 31
0.0
  0
LINE
  5
12A
330
1F
100
AcDbEntity
  8
0
  6
SLD-Сплошная
 62
     7
370
    25
100
AcDbLine
 10
177.0568903338
 20
137.7065309627
 30
0.0
 11
177.0568903338
 21
139.5635524258
 31
0.0
  0
LINE
  5
12B
330
1F
100
AcDbEntity
  8
0
  6
SLD-Сплошная
 62
     7
370
    25
100
AcDbLine
 10
177.0568903338
 20
139.5635524258
 30
0.0
 11
178.3737474198
 21
139.5639660096
 31
0.0
  0
LINE
  5
12C
330
1F
100
AcDbEntity
  8
0
  6
SLD-Сплошная
 62
     7
370
    25
100
AcDbLine
 10
178.3737474198
 20
139.5639660096
 30
0.0
 11
178.3737474198
 21
140.5639660096
 31
0.0
  0
LINE
  5
12D
330
1F
100
AcDbEntity
  8
0
  6
SLD-Сплошная
 62
     7
370
    25
100
AcDbLine
 10
178.3737474198
 20
140.5639660096
 30
0.0
 11
177.0568903338
 21
140.5643795933
 31
0.0
  0
ARC
  5
12E
330
1F
100
AcDbEntity
  8
0
  6
SLD-Сплошная
 62
     7
370
    25
100
AcDbCircle
 10
176.6068903338
 20
140.0639660096
 30
0.0
 40
2.4
100
AcDbArc
 50
280.8069228749
 51
0.0
  0
ARC
  5
12F
330
1F
100
AcDbEntity
  8
0
  6
SLD-Сплошная
 62
     7
370
    25
100
AcDbCircle
 10
176.6068903338
 20
140.0639660096
 30
0.0
 40
2.4
100
AcDbArc
 50
0.0
 51
79.1930771251
  0
LINE
  5
130
330
1F
100
AcDbEntity
  8
0
  6
SLD-Сплошная
 62
     7
370
    25
100
AcDbLine
 10
178.3733075968
 20
139.5643690331
 30
0.0
 11
178.3733075968
 21
140.563562986
 31
0.0
  0
LINE
  5
131
330
1F
100
AcDbEntity
  8
0
  6
SLD-Сплошная
 62
     7
370
    25
100
AcDbLine
 10
178.3737474198
 20
140.5639660096
 30
0.0
 11
178.3733075968
 21
140.563562986
 31
0.0
  0
LINE
  5
132
330
1F
100
AcDbEntity
  8
0
  6
SLD-Сплошная
 62
     7
370
    25
100
AcDbLine
 10
178.3733075968
 20
139.5643690331
 30
0.0
 11
178.3737474198
 21
139.5639660096
 31
0.0
  0
LINE
  5
133
330
1F
100
AcDbEntity
  8
0
  6
SLD-Сплошная
 62
     7
370
    25
100
AcDbLine
 10
177.0568903338
 20
140.5640916207
 30
0.0
 11
177.0568903338
 21
140.5643795933
 31
0.0
  0
LINE
  5
134
330
1F
100
AcDbEntity
  8
0
  6
SLD-Сплошная
 62
     7
370
    25
100
AcDbLine
 10
178.3733075968
 20
140.563562986
 30
0.0
 11
176.6068903338
 21
140.5641177627
 31
0.0
  0
LINE
  5
135
330
1F
100
AcDbEntity
  8
0
  6
SLD-Сплошная
 62
     7
370
    25
100
AcDbLine
 10
177.0568903338
 20
140.5640916207
 30
0.0
 11
176.6068903338
 21
140.5642329517
 31
0.0
  0
LINE
  5
136
330
1F
100
AcDbEntity
  8
0
  6
SLD-Сплошная
 62
     7
370
    25
100
AcDbLine
 10
177.0568903338
 20
139.5638403984
 30
0.0
 11
176.6068903338
 21
139.5636990674
 31
0.0
  0
LINE
  5
137
330
1F
100
AcDbEntity
  8
0
  6
SLD-Сплошная
 62
     7
370
    25
100
AcDbLine
 10
176.6068903338
 20
139.5638142565
 30
0.0
 11
178.3733075968
 21
139.5643690331
 31
0.0
  0
LINE
  5
138
330
1F
100
AcDbEntity
  8
0
  6
SLD-Сплошная
 62
     7
370
    25
100
AcDbLine
 10
177.0568903338
 20
139.5638403984
 30
0.0
 11
177.0568903338
 21
139.5635524258
 31
0.0
  0
LINE
  5
139
330
1F
100
AcDbEntity
  8
0
  6
SLD-Сплошная
 62
     7
370
    25
100
AcDbLine
 10
176.1568903338
 20
139.5638403984
 30
0.0
 11
176.1568903338
 21
139.5635524258
 31
0.0
  0
LINE
  5
13A
330
1F
100
AcDbEntity
  8
0
  6
SLD-Сплошная
 62
     7
370
    25
100
AcDbLine
 10
174.8400332479
 20
139.5639660096
 30
0.0
 11
176.1568903338
 21
139.5635524258
 31
0.0
  0
LINE
  5
13B
330
1F
100
AcDbEntity
  8
0
  6
SLD-Сплошная
 62
     7
370
    25
100
AcDbLine
 10
174.8400332479
 20
139.5639660096
 30
0.0
 11
174.8404730709
 21
139.5643690331
 31
0.0
  0
LINE
  5
13C
330
1F
100
AcDbEntity
  8
0
  6
SLD-Сплошная
 62
     7
370
    25
100
AcDbLine
 10
174.8404730709
 20
139.5643690331
 30
0.0
 11
176.6068903338
 21
139.5638142565
 31
0.0
  0
LINE
  5
13D
330
1F
100
AcDbEntity
  8
0
  6
SLD-Сплошная
 62
     7
370
    25
100
AcDbLine
 10
176.1568903338
 20
139.5638403984
 30
0.0
 11
176.6068903338
 21
139.5636990674
 31
0.0
  0
LINE
  5
13E
330
1F
100
AcDbEntity
  8
0
  6
SLD-Сплошная
 62
     7
370
    25
100
AcDbLine
 10
176.1568903338
 20
140.5640916207
 30
0.0
 11
176.6068903338
 21
140.5642329517
 31
0.0
  0
LINE
  5
13F
330
1F
100
AcDbEntity
  8
0
  6
SLD-Сплошная
 62
     7
370
    25
100
AcDbLine
 10
176.6068903338
 20
140.5641177627
 30
0.0
 11
174.8404730709
 21
140.563562986
 31
0.0
  0
LINE
  5
140
330
1F
100
AcDbEntity
  8
0
  6
SLD-Сплошная
 62
     7
370
    25
100
AcDbLine
 10
174.8404730709
 20
140.563562986
 30
0.0
 11
174.8400332479
 21
140.5639660096
 31
0.0
  0
LINE
  5
141
330
1F
100
AcDbEntity
  8
0
  6
SLD-Сплошная
 62
     7
370
    25
100
AcDbLine
 10
176.1568903338
 20
140.5643795933
 30
0.0
 11
174.8400332479
 21
140.5639660096
 31
0.0
  0
LINE
  5
142
330
1F
100
AcDbEntity
  8
0
  6
SLD-Сплошная
 62
     7
370
    25
100
AcDbLine
 10
176.1568903338
 20
140.5640916207
 30
0.0
 11
176.1568903338
 21
140.5643795933
 31
0.0
  0
LINE
  5
143
330
1F
100
AcDbEntity
  8
0
  6
SLD-Сплошная
 62
     7
370
    25
100
AcDbLine
 10
176.1568903338
 20
139.5635524258
 30
0.0
 11
176.1568903338
 21
137.7065309627
 31
0.0
  0
LINE
  5
144
330
1F
100
AcDbEntity
  8
0
  6
SLD-Сплошная
 62
     7
370
    25
100
AcDbLine
 10
176.1568903338
 20
142.4214010564
 30
0.0
 11
176.1568903338
 21
140.5643795933
 31
0.0
  0
LINE
  5
145
330
1F
100
AcDbEntity
  8
0
  6
SLD-Сплошная
 62
     7
370
    25
100
AcDbLine
 10
174.8400332479
 20
140.5639660096
 30
0.0
 11
174.8400332479
 21
139.5639660096
 31
0.0
  0
ARC
  5
146
330
1F
100
AcDbEntity
  8
0
  6
SLD-Сплошная
 62
     7
370
    25
100
AcDbCircle
 10
176.6068903338
 20
140.0639660096
 30
0.0
 40
2.400000000000034
100
AcDbArc
 50
180.0
 51
259.1930771251
  0
ARC
  5
147
330
1F
100
AcDbEntity
  8
0
  6
SLD-Сплошная
 62
     7
370
    25
100
AcDbCircle
 10
176.6068903338
 20
140.0639660096
 30
0.0
 40
2.400000000000034
100
AcDbArc
 50
100.8069228749
 51
180.0
  0
LINE
  5
148
330
1F
100
AcDbEntity
  8
0
  6
SLD-Сплошная
 62
     7
370
    25
100
AcDbLine
 10
174.8404730709
 20
140.563562986
 30
0.0
 11
174.8404730709
 21
139.5643690331
 31
0.0
  0
LINE
  5
149
330
1F
100
AcDbEntity
  8
0
  6
SLD-Сплошная
 62
     7
370
    25
100
AcDbLine
 10
159.3737474198
 20
140.5639660096
 30
0.0
 11
159.3737474198
 21
139.5639660096
 31
0.0
  0
LINE
  5
14A
330
1F
100
AcDbEntity
  8
0
  6
SLD-Сплошная
 62
     7
370
    25
100
AcDbLine
 10
158.0568903338
 20
140.5643795933
 30
0.0
 11
159.3737474198
 21
140.5639660096
 31
0.0
  0
LINE
  5
14B
330
1F
100
AcDbEntity
  8
0
  6
SLD-Сплошная
 62
     7
370
    25
100
AcDbLine
 10
158.0568903338
 20
142.4214010564
 30
0.0
 11
158.0568903338
 21
140.5643795933
 31
0.0
  0
ARC
  5
14C
330
1F
100
AcDbEntity
  8
0
  6
SLD-Сплошная
 62
     7
370
    25
100
AcDbCircle
 10
157.6068903338
 20
140.0639660096
 30
0.0
 40
2.400000000000006
100
AcDbArc
 50
280.8069228749
 51
0.0
  0
LINE
  5
14D
330
1F
100
AcDbEntity
  8
0
  6
SLD-Сплошная
 62
     7
370
    25
100
AcDbLine
 10
158.0568903338
 20
139.5635524258
 30
0.0
 11
158.0568903338
 21
137.7065309627
 31
0.0
  0
LINE
  5
14E
330
1F
100
AcDbEntity
  8
0
  6
SLD-Сплошная
 62
     7
370
    25
100
AcDbLine
 10
159.3737474198
 20
139.5639660096
 30
0.0
 11
158.0568903338
 21
139.5635524258
 31
0.0
  0
ARC
  5
14F
330
1F
100
AcDbEntity
  8
0
  6
SLD-Сплошная
 62
     7
370
    25
100
AcDbCircle
 10
157.6068903338
 20
140.0639660096
 30
0.0
 40
2.400000000000006
100
AcDbArc
 50
0.0
 51
79.1930771251
  0
LINE
  5
150
330
1F
100
AcDbEntity
  8
0
  6
SLD-Сплошная
 62
     7
370
    25
100
AcDbLine
 10
159.3737474198
 20
139.5639660096
 30
0.0
 11
159.3733075968
 21
139.5643690331
 31
0.0
  0
LINE
  5
151
330
1F
100
AcDbEntity
  8
0
  6
SLD-Сплошная
 62
     7
370
    25
100
AcDbLine
 10
159.3733075968
 20
140.563562986
 30
0.0
 11
159.3733075968
 21
139.5643690331
 31
0.0
  0
LINE
  5
152
330
1F
100
AcDbEntity
  8
0
  6
SLD-Сплошная
 62
     7
370
    25
100
AcDbLine
 10
159.3733075968
 20
140.563562986
 30
0.0
 11
159.3737474198
 21
140.5639660096
 31
0.0
  0
LINE
  5
153
330
1F
100
AcDbEntity
  8
0
  6
SLD-Сплошная
 62
     7
370
    25
100
AcDbLine
 10
159.3733075968
 20
139.5643690331
 30
0.0
 11
157.6068903338
 21
139.5638142565
 31
0.0
  0
LINE
  5
154
330
1F
100
AcDbEntity
  8
0
  6
SLD-Сплошная
 62
     7
370
    25
100
AcDbLine
 10
158.0568903338
 20
139.5638403984
 30
0.0
 11
158.0568903338
 21
139.5635524258
 31
0.0
  0
LINE
  5
155
330
1F
100
AcDbEntity
  8
0
  6
SLD-Сплошная
 62
     7
370
    25
100
AcDbLine
 10
158.0568903338
 20
139.5638403984
 30
0.0
 11
157.6068903338
 21
139.5636990674
 31
0.0
  0
LINE
  5
156
330
1F
100
AcDbEntity
  8
0
  6
SLD-Сплошная
 62
     7
370
    25
100
AcDbLine
 10
157.6068903338
 20
140.5641177627
 30
0.0
 11
159.3733075968
 21
140.563562986
 31
0.0
  0
LINE
  5
157
330
1F
100
AcDbEntity
  8
0
  6
SLD-Сплошная
 62
     7
370
    25
100
AcDbLine
 10
158.0568903338
 20
140.5640916207
 30
0.0
 11
157.6068903338
 21
140.5642329517
 31
0.0
  0
LINE
  5
158
330
1F
100
AcDbEntity
  8
0
  6
SLD-Сплошная
 62
     7
370
    25
100
AcDbLine
 10
158.0568903338
 20
140.5640916207
 30
0.0
 11
158.0568903338
 21
140.5643795933
 31
0.0
  0
LINE
  5
159
330
1F
100
AcDbEntity
  8
0
  6
SLD-Сплошная
 62
     7
370
    25
100
AcDbLine
 10
157.1568903338
 20
139.5635524258
 30
0.0
 11
155.8400332479
 21
139.5639660096
 31
0.0
  0
LINE
  5
15A
330
1F
100
AcDbEntity
  8
0
  6
SLD-Сплошная
 62
     7
370
    25
100
AcDbLine
 10
155.8404730709
 20
139.5643690331
 30
0.0
 11
155.8400332479
 21
139.5639660096
 31
0.0
  0
LINE
  5
15B
330
1F
100
AcDbEntity
  8
0
  6
SLD-Сплошная
 62
     7
370
    25
100
AcDbLine
 10
157.6068903338
 20
139.5638142565
 30
0.0
 11
155.8404730709
 21
139.5643690331
 31
0.0
  0
LINE
  5
15C
330
1F
100
AcDbEntity
  8
0
  6
SLD-Сплошная
 62
     7
370
    25
100
AcDbLine
 10
157.1568903338
 20
139.5638403984
 30
0.0
 11
157.6068903338
 21
139.5636990674
 31
0.0
  0
LINE
  5
15D
330
1F
100
AcDbEntity
  8
0
  6
SLD-Сплошная
 62
     7
370
    25
100
AcDbLine
 10
157.1568903338
 20
139.5638403984
 30
0.0
 11
157.1568903338
 21
139.5635524258
 31
0.0
  0
LINE
  5
15E
330
1F
100
AcDbEntity
  8
0
  6
SLD-Сплошная
 62
     7
370
    25
100
AcDbLine
 10
155.8404730709
 20
140.563562986
 30
0.0
 11
157.6068903338
 21
140.5641177627
 31
0.0
  0
LINE
  5
15F
330
1F
100
AcDbEntity
  8
0
  6
SLD-Сплошная
 62
     7
370
    25
100
AcDbLine
 10
155.8400332479
 20
140.5639660096
 30
0.0
 11
155.8404730709
 21
140.563562986
 31
0.0
  0
LINE
  5
160
330
1F
100
AcDbEntity
  8
0
  6
SLD-Сплошная
 62
     7
370
    25
100
AcDbLine
 10
155.8400332479
 20
140.5639660096
 30
0.0
 11
157.1568903338
 21
140.5643795933
 31
0.0
  0
LINE
  5
161
330
1F
100
AcDbEntity
  8
0
  6
SLD-Сплошная
 62
     7
370
    25
100
AcDbLine
 10
157.1568903338
 20
140.5640916207
 30
0.0
 11
157.1568903338
 21
140.5643795933
 31
0.0
  0
LINE
  5
162
330
1F
100
AcDbEntity
  8
0
  6
SLD-Сплошная
 62
     7
370
    25
100
AcDbLine
 10
157.1568903338
 20
140.5640916207
 30
0.0
 11
157.6068903338
 21
140.5642329517
 31
0.0
  0
LINE
  5
163
330
1F
100
AcDbEntity
  8
0
  6
SLD-Сплошная
 62
     7
370
    25
100
AcDbLine
 10
155.8400332479
 20
139.5639660096
 30
0.0
 11
155.8400332479
 21
140.5639660096
 31
0.0
  0
LINE
  5
164
330
1F
100
AcDbEntity
  8
0
  6
SLD-Сплошная
 62
     7
370
    25
100
AcDbLine
 10
157.1568903338
 20
140.5643795933
 30
0.0
 11
157.1568903338
 21
142.4214010564
 31
0.0
  0
LINE
  5
165
330
1F
100
AcDbEntity
  8
0
  6
SLD-Сплошная
 62
     7
370
    25
100
AcDbLine
 10
157.1568903338
 20
137.7065309627
 30
0.0
 11
157.1568903338
 21
139.5635524258
 31
0.0
  0
ARC
  5
166
330
1F
100
AcDbEntity
  8
0
  6
SLD-Сплошная
 62
     7
370
    25
100
AcDbCircle
 10
157.6068903338
 20
140.0639660096
 30
0.0
 40
2.4
100
AcDbArc
 50
180.0
 51
259.1930771251
  0
ARC
  5
167
330
1F
100
AcDbEntity
  8
0
  6
SLD-Сплошная
 62
     7
370
    25
100
AcDbCircle
 10
157.6068903338
 20
140.0639660096
 30
0.0
 40
2.4
100
AcDbArc
 50
100.8069228749
 51
180.0
  0
LINE
  5
168
330
1F
100
AcDbEntity
  8
0
  6
SLD-Сплошная
 62
     7
370
    25
100
AcDbLine
 10
155.8404730709
 20
139.5643690331
 30
0.0
 11
155.8404730709
 21
140.563562986
 31
0.0
  0
ARC
  5
169
330
1F
100
AcDbEntity
  8
0
  6
SLD-Сплошная
 62
     7
370
    25
100
AcDbCircle
 10
176.6068903338
 20
140.0639660096
 30
0.0
 40
2.400000000000006
100
AcDbArc
 50
79.1930771251
 51
100.8069228749
  0
ARC
  5
16A
330
1F
100
AcDbEntity
  8
0
  6
SLD-Сплошная
 62
     7
370
    25
100
AcDbCircle
 10
176.6068903338
 20
140.0639660096
 30
0.0
 40
2.400000000000006
100
AcDbArc
 50
259.1930771251
 51
280.8069228749
  0
ARC
  5
16B
330
1F
100
AcDbEntity
  8
0
  6
SLD-Сплошная
 62
     7
370
    25
100
AcDbCircle
 10
167.1068903338
 20
148.5639660096
 30
0.0
 40
2.500000000000028
100
AcDbArc
 50
0.0
 51
180.0
  0
ARC
  5
16C
330
1F
100
AcDbEntity
  8
0
  6
SLD-Сплошная
 62
     7
370
    25
100
AcDbCircle
 10
167.1068903338
 20
148.5639660096
 30
0.0
 40
2.500000000000028
100
AcDbArc
 50
180.0
 51
0.0
  0
ARC
  5
16D
330
1F
100
AcDbEntity
  8
0
  6
SLD-Сплошная
 62
     7
370
    25
100
AcDbCircle
 10
167.1068903338
 20
148.5639660096
 30
0.0
 40
4.000000000000028
100
AcDbArc
 50
180.0
 51
0.0
  0
ARC
  5
16E
330
1F
100
AcDbEntity
  8
0
  6
SLD-Сплошная
 62
     7
370
    25
100
AcDbCircle
 10
167.1068903338
 20
148.5639660096
 30
0.0
 40
4.000000000000028
100
AcDbArc
 50
0.0
 51
180.0
  0
ARC
  5
16F
330
1F
100
AcDbEntity
  8
0
  6
SLD-Сплошная
 62
     7
370
    25
100
AcDbCircle
 10
157.6068903338
 20
140.0639660096
 30
0.0
 40
2.400000000000006
100
AcDbArc
 50
79.1930771251
 51
100.8069228749
  0
ARC
  5
170
330
1F
100
AcDbEntity
  8
0
  6
SLD-Сплошная
 62
     7
370
    25
100
AcDbCircle
 10
157.6068903338
 20
140.0639660096
 30
0.0
 40
2.400000000000006
100
AcDbArc
 50
259.1930771251
 51
280.8069228749
  0
ARC
  5
171
330
1F
100
AcDbEntity
  8
0
  6
SLD-Сплошная
 62
     7
370
    25
100
AcDbCircle
 10
176.6068903338
 20
140.0639660096
 30
0.0
 40
3.000000000000003
100
AcDbArc
 50
180.0
 51
219.1994129414
  0
ARC
  5
172
330
1F
100
AcDbEntity
  8
0
  6
SLD-Сплошная
 62
     7
370
    25
100
AcDbCircle
 10
176.6068903338
 20
140.0639660096
 30
0.0
 40
3.000000000000021
100
AcDbArc
 50
140.8005870586
 51
180.0
  0
ARC
  5
173
330
1F
100
AcDbEntity
  8
0
  6
SLD-Сплошная
 62
     7
370
    25
100
AcDbCircle
 10
176.6068903338
 20
140.0639660096
 30
0.0
 40
2.999999999999999
100
AcDbArc
 50
320.8005870586
 51
39.1994129414
  0
ARC
  5
174
330
1F
100
AcDbEntity
  8
0
  6
SLD-Сплошная
 62
     7
370
    25
100
AcDbCircle
 10
157.6068903338
 20
140.0639660096
 30
0.0
 40
2.999999999999999
100
AcDbArc
 50
140.8005870586
 51
219.1994129414
  0
ARC
  5
175
330
1F
100
AcDbEntity
  8
0
  6
SLD-Сплошная
 62
     7
370
    25
100
AcDbCircle
 10
157.6068903338
 20
140.0639660096
 30
0.0
 40
3.000000000000021
100
AcDbArc
 50
0.0
 51
39.1994129414
  0
ARC
  5
176
330
1F
100
AcDbEntity
  8
0
  6
SLD-Сплошная
 62
     7
370
    25
100
AcDbCircle
 10
157.6068903338
 20
140.0639660096
 30
0.0
 40
3.000000000000003
100
AcDbArc
 50
320.8005870586
 51
0.0
  0
LINE
  5
177
330
1F
100
AcDbEntity
  8
0
  6
SLD-Сплошная
 62
     7
370
    25
100
AcDbLine
 10
168.8737474198
 20
148.0639660096
 30
0.0
 11
168.8737474198
 21
149.0639660096
 31
0.0
  0
LINE
  5
178
330
1F
100
AcDbEntity
  8
0
  6
SLD-Сплошная
 62
     7
370
    25
100
AcDbLine
 10
167.5568903338
 20
149.0643795933
 30
0.0
 11
168.8737474198
 21
149.0639660096
 31
0.0
  0
LINE
  5
179
330
1F
100
AcDbEntity
  8
0
  6
SLD-Сплошная
 62
     7
370
    25
100
AcDbLine
 10
167.5568903338
 20
150.9214010564
 30
0.0
 11
167.5568903338
 21
149.0643795933
 31
0.0
  0
ARC
  5
17A
330
1F
100
AcDbEntity
  8
0
  6
SLD-Сплошная
 62
     7
370
    25
100
AcDbCircle
 10
167.1068903338
 20
148.5639660096
 30
0.0
 40
2.400000000000034
100
AcDbArc
 50
280.8069228749
 51
0.0
  0
LINE
  5
17B
330
1F
100
AcDbEntity
  8
0
  6
SLD-Сплошная
 62
     7
370
    25
100
AcDbLine
 10
167.5568903338
 20
146.2065309627
 30
0.0
 11
167.5568903338
 21
148.0635524258
 31
0.0
  0
LINE
  5
17C
330
1F
100
AcDbEntity
  8
0
  6
SLD-Сплошная
 62
     7
370
    25
100
AcDbLine
 10
167.5568903338
 20
148.0635524258
 30
0.0
 11
168.8737474198
 21
148.0639660096
 31
0.0
  0
ARC
  5
17D
330
1F
100
AcDbEntity
  8
0
  6
SLD-Сплошная
 62
     7
370
    25
100
AcDbCircle
 10
167.1068903338
 20
148.5639660096
 30
0.0
 40
2.400000000000034
100
AcDbArc
 50
0.0
 51
79.1930771251
  0
LINE
  5
17E
330
1F
100
AcDbEntity
  8
0
  6
SLD-Сплошная
 62
     7
370
    25
100
AcDbLine
 10
168.8737474198
 20
148.0639660096
 30
0.0
 11
168.8733075968
 21
148.0643690331
 31
0.0
  0
LINE
  5
17F
330
1F
100
AcDbEntity
  8
0
  6
SLD-Сплошная
 62
     7
370
    25
100
AcDbLine
 10
168.8733075968
 20
149.063562986
 30
0.0
 11
168.8733075968
 21
148.0643690331
 31
0.0
  0
LINE
  5
180
330
1F
100
AcDbEntity
  8
0
  6
SLD-Сплошная
 62
     7
370
    25
100
AcDbLine
 10
168.8737474198
 20
149.0639660096
 30
0.0
 11
168.8733075968
 21
149.063562986
 31
0.0
  0
LINE
  5
181
330
1F
100
AcDbEntity
  8
0
  6
SLD-Сплошная
 62
     7
370
    25
100
AcDbLine
 10
167.1068903338
 20
149.0641177627
 30
0.0
 11
168.8733075968
 21
149.063562986
 31
0.0
  0
LINE
  5
182
330
1F
100
AcDbEntity
  8
0
  6
SLD-Сплошная
 62
     7
370
    25
100
AcDbLine
 10
167.5568903338
 20
149.0640916207
 30
0.0
 11
167.1068903338
 21
149.0642329517
 31
0.0
  0
LINE
  5
183
330
1F
100
AcDbEntity
  8
0
  6
SLD-Сплошная
 62
     7
370
    25
100
AcDbLine
 10
167.5568903338
 20
149.0640916207
 30
0.0
 11
167.5568903338
 21
149.0643795933
 31
0.0
  0
LINE
  5
184
330
1F
100
AcDbEntity
  8
0
  6
SLD-Сплошная
 62
     7
370
    25
100
AcDbLine
 10
167.5568903338
 20
148.0635524258
 30
0.0
 11
167.5568903338
 21
148.0638403984
 31
0.0
  0
LINE
  5
185
330
1F
100
AcDbEntity
  8
0
  6
SLD-Сплошная
 62
     7
370
    25
100
AcDbLine
 10
167.5568903338
 20
148.0638403984
 30
0.0
 11
167.1068903338
 21
148.0636990674
 31
0.0
  0
LINE
  5
186
330
1F
100
AcDbEntity
  8
0
  6
SLD-Сплошная
 62
     7
370
    25
100
AcDbLine
 10
168.8733075968
 20
148.0643690331
 30
0.0
 11
167.1068903338
 21
148.0638142565
 31
0.0
  0
LINE
  5
187
330
1F
100
AcDbEntity
  8
0
  6
SLD-Сплошная
 62
     7
370
    25
100
AcDbLine
 10
165.3400332479
 20
149.0639660096
 30
0.0
 11
166.6568903338
 21
149.0643795933
 31
0.0
  0
LINE
  5
188
330
1F
100
AcDbEntity
  8
0
  6
SLD-Сплошная
 62
     7
370
    25
100
AcDbLine
 10
166.6568903338
 20
149.0643795933
 30
0.0
 11
166.6568903338
 21
149.0640916207
 31
0.0
  0
LINE
  5
189
330
1F
100
AcDbEntity
  8
0
  6
SLD-Сплошная
 62
     7
370
    25
100
AcDbLine
 10
166.6568903338
 20
149.0640916207
 30
0.0
 11
167.1068903338
 21
149.0642329517
 31
0.0
  0
LINE
  5
18A
330
1F
100
AcDbEntity
  8
0
  6
SLD-Сплошная
 62
     7
370
    25
100
AcDbLine
 10
165.3404730709
 20
149.063562986
 30
0.0
 11
167.1068903338
 21
149.0641177627
 31
0.0
  0
LINE
  5
18B
330
1F
100
AcDbEntity
  8
0
  6
SLD-Сплошная
 62
     7
370
    25
100
AcDbLine
 10
165.3400332479
 20
149.0639660096
 30
0.0
 11
165.3404730709
 21
149.063562986
 31
0.0
  0
LINE
  5
18C
330
1F
100
AcDbEntity
  8
0
  6
SLD-Сплошная
 62
     7
370
    25
100
AcDbLine
 10
166.6568903338
 20
148.0635524258
 30
0.0
 11
165.3400332479
 21
148.0639660096
 31
0.0
  0
LINE
  5
18D
330
1F
100
AcDbEntity
  8
0
  6
SLD-Сплошная
 62
     7
370
    25
100
AcDbLine
 10
165.3400332479
 20
148.0639660096
 30
0.0
 11
165.3404730709
 21
148.0643690331
 31
0.0
  0
LINE
  5
18E
330
1F
100
AcDbEntity
  8
0
  6
SLD-Сплошная
 62
     7
370
    25
100
AcDbLine
 10
167.1068903338
 20
148.0638142565
 30
0.0
 11
165.3404730709
 21
148.0643690331
 31
0.0
  0
LINE
  5
18F
330
1F
100
AcDbEntity
  8
0
  6
SLD-Сплошная
 62
     7
370
    25
100
AcDbLine
 10
166.6568903338
 20
148.0638403984
 30
0.0
 11
167.1068903338
 21
148.0636990674
 31
0.0
  0
LINE
  5
190
330
1F
100
AcDbEntity
  8
0
  6
SLD-Сплошная
 62
     7
370
    25
100
AcDbLine
 10
166.6568903338
 20
148.0638403984
 30
0.0
 11
166.6568903338
 21
148.0635524258
 31
0.0
  0
LINE
  5
191
330
1F
100
AcDbEntity
  8
0
  6
SLD-Сплошная
 62
     7
370
    25
100
AcDbLine
 10
166.6568903338
 20
149.0643795933
 30
0.0
 11
166.6568903338
 21
150.9214010564
 31
0.0
  0
LINE
  5
192
330
1F
100
AcDbEntity
  8
0
  6
SLD-Сплошная
 62
     7
370
    25
100
AcDbLine
 10
165.3400332479
 20
148.0639660096
 30
0.0
 11
165.3400332479
 21
149.0639660096
 31
0.0
  0
LINE
  5
193
330
1F
100
AcDbEntity
  8
0
  6
SLD-Сплошная
 62
     7
370
    25
100
AcDbLine
 10
166.6568903338
 20
146.2065309627
 30
0.0
 11
166.6568903338
 21
148.0635524258
 31
0.0
  0
ARC
  5
194
330
1F
100
AcDbEntity
  8
0
  6
SLD-Сплошная
 62
     7
370
    25
100
AcDbCircle
 10
167.1068903338
 20
148.5639660096
 30
0.0
 40
2.400000000000006
100
AcDbArc
 50
180.0
 51
259.1930771251
  0
ARC
  5
195
330
1F
100
AcDbEntity
  8
0
  6
SLD-Сплошная
 62
     7
370
    25
100
AcDbCircle
 10
167.1068903338
 20
148.5639660096
 30
0.0
 40
2.400000000000006
100
AcDbArc
 50
100.8069228749
 51
180.0
  0
LINE
  5
196
330
1F
100
AcDbEntity
  8
0
  6
SLD-Сплошная
 62
     7
370
    25
100
AcDbLine
 10
165.3404730709
 20
148.0643690331
 30
0.0
 11
165.3404730709
 21
149.063562986
 31
0.0
  0
LINE
  5
197
330
1F
100
AcDbEntity
  8
0
  6
SLD-Сплошная
 62
     7
370
    25
100
AcDbLine
 10
148.9068903338
 20
144.0639660096
 30
0.0
 11
147.5068903338
 21
144.0639660096
 31
0.0
  0
LINE
  5
198
330
1F
100
AcDbEntity
  8
0
  6
SLD-Сплошная
 62
     7
370
    25
100
AcDbLine
 10
148.9068903338
 20
140.3639660096
 30
0.0
 11
148.9068903338
 21
144.0639660096
 31
0.0
  0
LINE
  5
199
330
1F
100
AcDbEntity
  8
0
  6
SLD-Сплошная
 62
     7
370
    25
100
AcDbLine
 10
152.1068903338
 20
140.3639660096
 30
0.0
 11
148.9068903338
 21
140.3639660096
 31
0.0
  0
LINE
  5
19A
330
1F
100
AcDbEntity
  8
0
  6
SLD-Сплошная
 62
     7
370
    25
100
AcDbLine
 10
152.1068903338
 20
156.7639660096
 30
0.0
 11
152.1068903338
 21
140.3639660096
 31
0.0
  0
LINE
  5
19B
330
1F
100
AcDbEntity
  8
0
  6
SLD-Сплошная
 62
     7
370
    25
100
AcDbLine
 10
148.9068903338
 20
156.7639660096
 30
0.0
 11
152.1068903338
 21
156.7639660096
 31
0.0
  0
LINE
  5
19C
330
1F
100
AcDbEntity
  8
0
  6
SLD-Сплошная
 62
     7
370
    25
100
AcDbLine
 10
148.9068903338
 20
153.0639660096
 30
0.0
 11
148.9068903338
 21
156.7639660096
 31
0.0
  0
LINE
  5
19D
330
1F
100
AcDbEntity
  8
0
  6
SLD-Сплошная
 62
     7
370
    25
100
AcDbLine
 10
148.9068903338
 20
153.0639660096
 30
0.0
 11
147.5068903338
 21
153.0639660096
 31
0.0
  0
LINE
  5
19E
330
1F
100
AcDbEntity
  8
0
  6
SLD-Сплошная
 62
     7
370
    25
100
AcDbLine
 10
147.5068903338
 20
144.0639660096
 30
0.0
 11
147.5068903338
 21
153.0639660096
 31
0.0
  0
LINE
  5
19F
330
1F
100
AcDbEntity
  8
0
  6
SLD-Сплошная
 62
     7
370
    25
100
AcDbLine
 10
182.1068903338
 20
156.7639660096
 30
0.0
 11
185.3068903338
 21
156.7639660096
 31
0.0
  0
LINE
  5
1A0
330
1F
100
AcDbEntity
  8
0
  6
SLD-Сплошная
 62
     7
370
    25
100
AcDbLine
 10
182.1068903338
 20
140.3639660096
 30
0.0
 11
182.1068903338
 21
156.7639660096
 31
0.0
  0
LINE
  5
1A1
330
1F
100
AcDbEntity
  8
0
  6
SLD-Сплошная
 62
     7
370
    25
100
AcDbLine
 10
185.3068903338
 20
140.3639660096
 30
0.0
 11
182.1068903338
 21
140.3639660096
 31
0.0
  0
LINE
  5
1A2
330
1F
100
AcDbEntity
  8
0
  6
SLD-Сплошная
 62
     7
370
    25
100
AcDbLine
 10
185.3068903338
 20
144.0639660096
 30
0.0
 11
185.3068903338
 21
140.3639660096
 31
0.0
  0
LINE
  5
1A3
330
1F
100
AcDbEntity
  8
0
  6
SLD-Сплошная
 62
     7
370
    25
100
AcDbLine
 10
186.7068903338
 20
144.0639660096
 30
0.0
 11
185.3068903338
 21
144.0639660096
 31
0.0
  0
LINE
  5
1A4
330
1F
100
AcDbEntity
  8
0
  6
SLD-Сплошная
 62
     7
370
    25
100
AcDbLine
 10
186.7068903338
 20
153.0639660096
 30
0.0
 11
186.7068903338
 21
144.0639660096
 31
0.0
  0
LINE
  5
1A5
330
1F
100
AcDbEntity
  8
0
  6
SLD-Сплошная
 62
     7
370
    25
100
AcDbLine
 10
186.7068903338
 20
153.0639660096
 30
0.0
 11
185.3068903338
 21
153.0639660096
 31
0.0
  0
LINE
  5
1A6
330
1F
100
AcDbEntity
  8
0
  6
SLD-Сплошная
 62
     7
370
    25
100
AcDbLine
 10
185.3068903338
 20
156.7639660096
 30
0.0
 11
185.3068903338
 21
153.0639660096
 31
0.0
  0
ARC
  5
1A7
330
1F
100
AcDbEntity
  8
0
  6
SLD-Сплошная
 62
     7
370
    25
100
AcDbCircle
 10
167.1068903338
 20
148.5639660096
 30
0.0
 40
21.0
100
AcDbArc
 50
0.0
 51
27.2028944122
  0
ARC
  5
1A8
330
1F
100
AcDbEntity
  8
0
  6
SLD-Сплошная
 62
     7
370
    25
100
AcDbCircle
 10
167.1068903338
 20
148.5639660096
 30
0.0
 40
21.0
100
AcDbArc
 50
332.7971055878
 51
0.0
  0
LINE
  5
1A9
330
1F
100
AcDbEntity
  8
0
  6
SLD-Сплошная
 62
     7
370
    25
100
AcDbLine
 10
185.7841492334
 20
138.9639660096
 30
0.0
 11
183.0068903338
 21
138.9639660096
 31
0.0
  0
LINE
  5
1AA
330
1F
100
AcDbEntity
  8
0
  6
SLD-Сплошная
 62
     7
370
    25
100
AcDbLine
 10
183.0068903338
 20
138.9639660096
 30
0.0
 11
182.1605208264
 21
134.1639660096
 31
0.0
  0
LINE
  5
1AB
330
1F
100
AcDbEntity
  8
0
  6
SLD-Сплошная
 62
     7
370
    25
100
AcDbLine
 10
182.1605208264
 20
134.1639660096
 30
0.0
 11
180.4783335414
 21
134.1639660096
 31
0.0
  0
LINE
  5
1AC
330
1F
100
AcDbEntity
  8
0
  6
SLD-Сплошная
 62
     7
370
    25
100
AcDbLine
 10
180.4783335414
 20
134.1639660096
 30
0.0
 11
180.4783335414
 21
136.1639660096
 31
0.0
  0
LINE
  5
1AD
330
1F
100
AcDbEntity
  8
0
  6
SLD-Сплошная
 62
     7
370
    25
100
AcDbLine
 10
172.7354471262
 20
136.1639660096
 30
0.0
 11
180.4783335414
 21
136.1639660096
 31
0.0
  0
LINE
  5
1AE
330
1F
100
AcDbEntity
  8
0
  6
SLD-Сплошная
 62
     7
370
    25
100
AcDbLine
 10
172.7354471262
 20
136.1639660096
 30
0.0
 11
172.7354471262
 21
134.1639660096
 31
0.0
  0
LINE
  5
1AF
330
1F
100
AcDbEntity
  8
0
  6
SLD-Сплошная
 62
     7
370
    25
100
AcDbLine
 10
172.7354471262
 20
134.1639660096
 30
0.0
 11
170.2068903338
 21
134.1639660096
 31
0.0
  0
LINE
  5
1B0
330
1F
100
AcDbEntity
  8
0
  6
SLD-Сплошная
 62
     7
370
    25
100
AcDbLine
 10
170.2068903338
 20
137.5639660096
 30
0.0
 11
170.2068903338
 21
134.1639660096
 31
0.0
  0
LINE
  5
1B1
330
1F
100
AcDbEntity
  8
0
  6
SLD-Сплошная
 62
     7
370
    25
100
AcDbLine
 10
164.0068903338
 20
137.5639660096
 30
0.0
 11
170.2068903338
 21
137.5639660096
 31
0.0
  0
LINE
  5
1B2
330
1F
100
AcDbEntity
  8
0
  6
SLD-Сплошная
 62
     7
370
    25
100
AcDbLine
 10
164.0068903338
 20
134.1639660096
 30
0.0
 11
164.0068903338
 21
137.5639660096
 31
0.0
  0
LINE
  5
1B3
330
1F
100
AcDbEntity
  8
0
  6
SLD-Сплошная
 62
     7
370
    25
100
AcDbLine
 10
161.4783335414
 20
134.1639660096
 30
0.0
 11
164.0068903338
 21
134.1639660096
 31
0.0
  0
LINE
  5
1B4
330
1F
100
AcDbEntity
  8
0
  6
SLD-Сплошная
 62
     7
370
    25
100
AcDbLine
 10
161.4783335414
 20
134.1639660096
 30
0.0
 11
161.4783335414
 21
136.1639660096
 31
0.0
  0
LINE
  5
1B5
330
1F
100
AcDbEntity
  8
0
  6
SLD-Сплошная
 62
     7
370
    25
100
AcDbLine
 10
153.7354471262
 20
136.1639660096
 30
0.0
 11
161.4783335414
 21
136.1639660096
 31
0.0
  0
LINE
  5
1B6
330
1F
100
AcDbEntity
  8
0
  6
SLD-Сплошная
 62
     7
370
    25
100
AcDbLine
 10
153.7354471262
 20
136.1639660096
 30
0.0
 11
153.7354471262
 21
134.1639660096
 31
0.0
  0
LINE
  5
1B7
330
1F
100
AcDbEntity
  8
0
  6
SLD-Сплошная
 62
     7
370
    25
100
AcDbLine
 10
153.7354471262
 20
134.1639660096
 30
0.0
 11
152.0532598412
 21
134.1639660096
 31
0.0
  0
LINE
  5
1B8
330
1F
100
AcDbEntity
  8
0
  6
SLD-Сплошная
 62
     7
370
    25
100
AcDbLine
 10
151.2068903338
 20
138.9639660096
 30
0.0
 11
152.0532598412
 21
134.1639660096
 31
0.0
  0
LINE
  5
1B9
330
1F
100
AcDbEntity
  8
0
  6
SLD-Сплошная
 62
     7
370
    25
100
AcDbLine
 10
151.2068903338
 20
138.9639660096
 30
0.0
 11
148.4296314343
 21
138.9639660096
 31
0.0
  0
ARC
  5
1BA
330
1F
100
AcDbEntity
  8
0
  6
SLD-Сплошная
 62
     7
370
    25
100
AcDbCircle
 10
167.1068903338
 20
148.5639660096
 30
0.0
 40
20.99999999999997
100
AcDbArc
 50
180.0
 51
207.2028944122
  0
ARC
  5
1BB
330
1F
100
AcDbEntity
  8
0
  6
SLD-Сплошная
 62
     7
370
    25
100
AcDbCircle
 10
167.1068903338
 20
148.5639660096
 30
0.0
 40
20.99999999999997
100
AcDbArc
 50
152.7971055878
 51
180.0
  0
LINE
  5
1BC
330
1F
100
AcDbEntity
  8
0
  6
SLD-Сплошная
 62
     7
370
    25
100
AcDbLine
 10
164.0068903338
 20
158.1639660096
 30
0.0
 11
148.4296314343
 21
158.1639660096
 31
0.0
  0
LINE
  5
1BD
330
1F
100
AcDbEntity
  8
0
  6
SLD-Сплошная
 62
     7
370
    25
100
AcDbLine
 10
164.0068903338
 20
158.1639660096
 30
0.0
 11
164.0068903338
 21
153.2639660096
 31
0.0
  0
LINE
  5
1BE
330
1F
100
AcDbEntity
  8
0
  6
SLD-Сплошная
 62
     7
370
    25
100
AcDbLine
 10
164.0068903338
 20
153.2639660096
 30
0.0
 11
170.2068903338
 21
153.2639660096
 31
0.0
  0
LINE
  5
1BF
330
1F
100
AcDbEntity
  8
0
  6
SLD-Сплошная
 62
     7
370
    25
100
AcDbLine
 10
170.2068903338
 20
153.2639660096
 30
0.0
 11
170.2068903338
 21
158.1639660096
 31
0.0
  0
LINE
  5
1C0
330
1F
100
AcDbEntity
  8
0
  6
SLD-Сплошная
 62
     7
370
    25
100
AcDbLine
 10
170.2068903338
 20
158.1639660096
 30
0.0
 11
185.7841492334
 21
158.1639660096
 31
0.0
  0
LINE
  5
1C1
330
1F
100
AcDbEntity
  8
0
  6
SLD-Сплошная
 62
     7
370
    25
100
AcDbLine
 10
178.9324603571
 20
138.1687815681
 30
0.0
 11
180.1068903338
 21
138.1687815681
 31
0.0
  0
LINE
  5
1C2
330
1F
100
AcDbEntity
  8
0
  6
SLD-Сплошная
 62
     7
370
    25
100
AcDbLine
 10
174.2813203106
 20
138.1687815681
 30
0.0
 11
173.1068903338
 21
138.1687815681
 31
0.0
  0
ARC
  5
1C3
330
1F
100
AcDbEntity
  8
0
  6
SLD-Сплошная
 62
     7
370
    25
100
AcDbCircle
 10
180.1068903338
 20
141.5639660096
 30
0.0
 40
0.4999999999968083
100
AcDbArc
 50
37.6623206138
 51
52.3376793862
  0
ARC
  5
1C4
330
1F
100
AcDbEntity
  8
0
  6
SLD-Сплошная
 62
     7
370
    25
100
AcDbCircle
 10
180.1068903338
 20
138.5639660096
 30
0.0
 40
0.4999999999967858
100
AcDbArc
 50
307.6623206138
 51
322.3376793862
  0
ARC
  5
1C5
330
1F
100
AcDbEntity
  8
0
  6
SLD-Сплошная
 62
     7
370
    25
100
AcDbCircle
 10
180.1068903338
 20
138.5639660096
 30
0.0
 40
0.3951844414924892
100
AcDbArc
 50
270.0
 51
0.0
  0
LINE
  5
1C6
330
1F
100
AcDbEntity
  8
0
  6
SLD-Сплошная
 62
     7
370
    25
100
AcDbLine
 10
180.5020747753
 20
141.5639660096
 30
0.0
 11
180.5020747753
 21
138.5639660096
 31
0.0
  0
LINE
  5
1C7
330
1F
100
AcDbEntity
  8
0
  6
SLD-Сплошная
 62
     7
370
    25
100
AcDbLine
 10
180.4759773469
 20
135.1639660096
 30
0.0
 11
180.4759773469
 21
134.1639660096
 31
0.0
  0
LINE
  5
1C8
330
1F
100
AcDbEntity
  8
0
  6
SLD-Сплошная
 62
     7
370
    25
100
AcDbLine
 10
180.4777052229
 20
135.1639660096
 30
0.0
 11
180.4777052229
 21
136.1639660096
 31
0.0
  0
LINE
  5
1C9
330
1F
100
AcDbEntity
  8
0
  6
SLD-Сплошная
 62
     7
370
    25
100
AcDbLine
 10
180.4759773469
 20
134.1639660096
 30
0.0
 11
180.4783335414
 21
134.1639660096
 31
0.0
  0
ARC
  5
1CA
330
1F
100
AcDbEntity
  8
0
  6
SLD-Сплошная
 62
     7
370
    25
100
AcDbCircle
 10
180.1068903338
 20
141.5639660096
 30
0.0
 40
0.3951844414942798
100
AcDbArc
 50
0.0
 51
90.0
  0
LINE
  5
1CB
330
1F
100
AcDbEntity
  8
0
  6
SLD-Сплошная
 62
     7
370
    25
100
AcDbLine
 10
178.9324603571
 20
141.959150451
 30
0.0
 11
180.1068903338
 21
141.9591504511
 31
0.0
  0
LINE
  5
1CC
330
1F
100
AcDbEntity
  8
0
  6
SLD-Сплошная
 62
     7
370
    25
100
AcDbLine
 10
173.1068903338
 20
141.9591504511
 30
0.0
 11
174.2813203106
 21
141.959150451
 31
0.0
  0
ARC
  5
1CD
330
1F
100
AcDbEntity
  8
0
  6
SLD-Сплошная
 62
     7
370
    25
100
AcDbCircle
 10
173.1068903338
 20
141.5639660096
 30
0.0
 40
0.4999999999953843
100
AcDbArc
 50
127.6623206136
 51
142.3376793864
  0
ARC
  5
1CE
330
1F
100
AcDbEntity
  8
0
  6
SLD-Сплошная
 62
     7
370
    25
100
AcDbCircle
 10
173.1068903338
 20
141.5639660096
 30
0.0
 40
0.3951844414925176
100
AcDbArc
 50
90.0
 51
180.0
  0
ARC
  5
1CF
330
1F
100
AcDbEntity
  8
0
  6
SLD-Сплошная
 62
     7
370
    25
100
AcDbCircle
 10
173.1068903338
 20
138.5639660096
 30
0.0
 40
0.4999999999953669
100
AcDbArc
 50
217.6623206136
 51
232.3376793864
  0
ARC
  5
1D0
330
1F
100
AcDbEntity
  8
0
  6
SLD-Сплошная
 62
     7
370
    25
100
AcDbCircle
 10
173.1068903338
 20
138.5639660096
 30
0.0
 40
0.3951844414924892
100
AcDbArc
 50
180.0
 51
270.0
  0
LINE
  5
1D1
330
1F
100
AcDbEntity
  8
0
  6
SLD-Сплошная
 62
     7
370
    25
100
AcDbLine
 10
172.7117058924
 20
138.5639660096
 30
0.0
 11
172.7117058924
 21
141.5639660096
 31
0.0
  0
LINE
  5
1D2
330
1F
100
AcDbEntity
  8
0
  6
SLD-Сплошная
 62
     7
370
    25
100
AcDbLine
 10
172.7360754448
 20
135.1639660096
 30
0.0
 11
172.7360754448
 21
136.1639660096
 31
0.0
  0
LINE
  5
1D3
330
1F
100
AcDbEntity
  8
0
  6
SLD-Сплошная
 62
     7
370
    25
100
AcDbLine
 10
172.7378033208
 20
135.1639660096
 30
0.0
 11
172.7378033208
 21
134.1639660096
 31
0.0
  0
LINE
  5
1D4
330
1F
100
AcDbEntity
  8
0
  6
SLD-Сплошная
 62
     7
370
    25
100
AcDbLine
 10
172.7354471262
 20
134.1639660096
 30
0.0
 11
172.7378033208
 21
134.1639660096
 31
0.0
  0
LINE
  5
1D5
330
1F
100
AcDbEntity
  8
0
  6
SLD-Сплошная
 62
     7
370
    25
100
AcDbLine
 10
161.4759773469
 20
135.1639660096
 30
0.0
 11
161.4759773469
 21
134.1639660096
 31
0.0
  0
LINE
  5
1D6
330
1F
100
AcDbEntity
  8
0
  6
SLD-Сплошная
 62
     7
370
    25
100
AcDbLine
 10
161.4777052229
 20
135.1639660096
 30
0.0
 11
161.4777052229
 21
136.1639660096
 31
0.0
  0
LINE
  5
1D7
330
1F
100
AcDbEntity
  8
0
  6
SLD-Сплошная
 62
     7
370
    25
100
AcDbLine
 10
161.4759773469
 20
134.1639660096
 30
0.0
 11
161.4783335414
 21
134.1639660096
 31
0.0
  0
LINE
  5
1D8
330
1F
100
AcDbEntity
  8
0
  6
SLD-Сплошная
 62
     7
370
    25
100
AcDbLine
 10
153.7360754448
 20
135.1639660096
 30
0.0
 11
153.7360754448
 21
136.1639660096
 31
0.0
  0
LINE
  5
1D9
330
1F
100
AcDbEntity
  8
0
  6
SLD-Сплошная
 62
     7
370
    25
100
AcDbLine
 10
153.7378033208
 20
135.1639660096
 30
0.0
 11
153.7378033208
 21
134.1639660096
 31
0.0
  0
LINE
  5
1DA
330
1F
100
AcDbEntity
  8
0
  6
SLD-Сплошная
 62
     7
370
    25
100
AcDbLine
 10
153.7354471262
 20
134.1639660096
 30
0.0
 11
153.7378033208
 21
134.1639660096
 31
0.0
  0
LINE
  5
1DB
330
1F
100
AcDbEntity
  8
0
  6
SLD-Сплошная
 62
     7
370
    25
100
AcDbLine
 10
185.9306507645
 20
152.2639660096
 30
0.0
 11
185.0068903338
 21
152.2639660096
 31
0.0
  0
LINE
  5
1DC
330
1F
100
AcDbEntity
  8
0
  6
SLD-Сплошная
 62
     7
370
    25
100
AcDbLine
 10
185.9306507645
 20
152.2639660096
 30
0.0
 11
185.9306507645
 21
144.8639660096
 31
0.0
  0
LINE
  5
1DD
330
1F
100
AcDbEntity
  8
0
  6
SLD-Сплошная
 62
     7
370
    25
100
AcDbLine
 10
185.0068903338
 20
144.8639660096
 30
0.0
 11
185.9306507645
 21
144.8639660096
 31
0.0
  0
LINE
  5
1DE
330
1F
100
AcDbEntity
  8
0
  6
SLD-Сплошная
 62
     7
370
    25
100
AcDbLine
 10
185.0068903338
 20
152.2639660096
 30
0.0
 11
185.0068903338
 21
144.8639660096
 31
0.0
  0
LINE
  5
1DF
330
1F
100
AcDbEntity
  8
0
  6
SLD-Сплошная
 62
     7
370
    25
100
AcDbLine
 10
182.5068903338
 20
154.3639660096
 30
0.0
 11
182.5068903338
 21
155.3639660096
 31
0.0
  0
LINE
  5
1E0
330
1F
100
AcDbEntity
  8
0
  6
SLD-Сплошная
 62
     7
370
    25
100
AcDbLine
 10
182.5068903338
 20
155.3639660096
 30
0.0
 11
185.1068903338
 21
155.3639660096
 31
0.0
  0
LINE
  5
1E1
330
1F
100
AcDbEntity
  8
0
  6
SLD-Сплошная
 62
     7
370
    25
100
AcDbLine
 10
185.1068903338
 20
154.3639660096
 30
0.0
 11
182.5068903338
 21
154.3639660096
 31
0.0
  0
LINE
  5
1E2
330
1F
100
AcDbEntity
  8
0
  6
SLD-Сплошная
 62
     7
370
    25
100
AcDbLine
 10
185.1068903338
 20
154.3639660096
 30
0.0
 11
185.1068903338
 21
155.3639660096
 31
0.0
  0
LINE
  5
1E3
330
1F
100
AcDbEntity
  8
0
  6
SLD-Сплошная
 62
     7
370
    25
100
AcDbLine
 10
182.5068903338
 20
141.7639660096
 30
0.0
 11
182.5068903338
 21
142.7639660096
 31
0.0
  0
LINE
  5
1E4
330
1F
100
AcDbEntity
  8
0
  6
SLD-Сплошная
 62
     7
370
    25
100
AcDbLine
 10
182.5068903338
 20
142.7639660096
 30
0.0
 11
185.1068903338
 21
142.7639660096
 31
0.0
  0
LINE
  5
1E5
330
1F
100
AcDbEntity
  8
0
  6
SLD-Сплошная
 62
     7
370
    25
100
AcDbLine
 10
185.1068903338
 20
142.7639660096
 30
0.0
 11
185.1068903338
 21
141.7639660096
 31
0.0
  0
LINE
  5
1E6
330
1F
100
AcDbEntity
  8
0
  6
SLD-Сплошная
 62
     7
370
    25
100
AcDbLine
 10
182.5068903338
 20
141.7639660096
 30
0.0
 11
185.1068903338
 21
141.7639660096
 31
0.0
  0
LINE
  5
1E7
330
1F
100
AcDbEntity
  8
0
  6
SLD-Сплошная
 62
     7
370
    25
100
AcDbLine
 10
185.1068903338
 20
154.3080927784
 30
0.0
 11
182.4789622299
 21
154.3080927784
 31
0.0
  0
LINE
  5
1E8
330
1F
100
AcDbEntity
  8
0
  6
SLD-Сплошная
 62
     7
370
    25
100
AcDbLine
 10
182.4789622299
 20
154.3080927784
 30
0.0
 11
182.5068903338
 21
154.3639660096
 31
0.0
  0
LINE
  5
1E9
330
1F
100
AcDbEntity
  8
0
  6
SLD-Сплошная
 62
     7
370
    25
100
AcDbLine
 10
185.1068903338
 20
154.3080927784
 30
0.0
 11
185.1068903338
 21
154.3639660096
 31
0.0
  0
LINE
  5
1EA
330
1F
100
AcDbEntity
  8
0
  6
SLD-Сплошная
 62
     7
370
    25
100
AcDbLine
 10
185.1068903338
 20
140.4214065997
 30
0.0
 11
185.1068903338
 21
141.7639660096
 31
0.0
  0
LINE
  5
1EB
330
1F
100
AcDbEntity
  8
0
  6
SLD-Сплошная
 62
     7
370
    25
100
AcDbLine
 10
182.4789622299
 20
140.4214065997
 30
0.0
 11
185.1068903338
 21
140.4214065997
 31
0.0
  0
LINE
  5
1EC
330
1F
100
AcDbEntity
  8
0
  6
SLD-Сплошная
 62
     7
370
    25
100
AcDbLine
 10
182.4789622299
 20
140.4214065997
 30
0.0
 11
182.5068903338
 21
141.7639660096
 31
0.0
  0
LINE
  5
1ED
330
1F
100
AcDbEntity
  8
0
  6
SLD-Сплошная
 62
     7
370
    25
100
AcDbLine
 10
182.4789622299
 20
142.8198392407
 30
0.0
 11
182.5068903338
 21
142.7639660096
 31
0.0
  0
LINE
  5
1EE
330
1F
100
AcDbEntity
  8
0
  6
SLD-Сплошная
 62
     7
370
    25
100
AcDbLine
 10
182.4789622299
 20
142.8198392407
 30
0.0
 11
185.1068903338
 21
142.8198392407
 31
0.0
  0
LINE
  5
1EF
330
1F
100
AcDbEntity
  8
0
  6
SLD-Сплошная
 62
     7
370
    25
100
AcDbLine
 10
185.1068903338
 20
142.7639660096
 30
0.0
 11
185.1068903338
 21
142.8198392407
 31
0.0
  0
LINE
  5
1F0
330
1F
100
AcDbEntity
  8
0
  6
SLD-Сплошная
 62
     7
370
    25
100
AcDbLine
 10
184.0068903338
 20
144.8639660096
 30
0.0
 11
184.0068903338
 21
152.2639660096
 31
0.0
  0
LINE
  5
1F1
330
1F
100
AcDbEntity
  8
0
  6
SLD-Сплошная
 62
     7
370
    25
100
AcDbLine
 10
184.0068903338
 20
152.2639660096
 30
0.0
 11
185.0068903338
 21
152.2639660096
 31
0.0
  0
LINE
  5
1F2
330
1F
100
AcDbEntity
  8
0
  6
SLD-Сплошная
 62
     7
370
    25
100
AcDbLine
 10
185.0068903338
 20
144.8639660096
 30
0.0
 11
184.0068903338
 21
144.8639660096
 31
0.0
  0
LINE
  5
1F3
330
1F
100
AcDbEntity
  8
0
  6
SLD-Сплошная
 62
     7
370
    25
100
AcDbLine
 10
182.5068903338
 20
155.3639660096
 30
0.0
 11
182.4789622299
 21
156.7065254194
 31
0.0
  0
LINE
  5
1F4
330
1F
100
AcDbEntity
  8
0
  6
SLD-Сплошная
 62
     7
370
    25
100
AcDbLine
 10
185.1068903338
 20
156.7065254194
 30
0.0
 11
182.4789622299
 21
156.7065254194
 31
0.0
  0
LINE
  5
1F5
330
1F
100
AcDbEntity
  8
0
  6
SLD-Сплошная
 62
     7
370
    25
100
AcDbLine
 10
185.1068903338
 20
155.3639660096
 30
0.0
 11
185.1068903338
 21
156.7065254194
 31
0.0
  0
LINE
  5
1F6
330
1F
100
AcDbEntity
  8
0
  6
SLD-Сплошная
 62
     7
370
    25
100
AcDbLine
 10
183.923037887
 20
152.2639660096
 30
0.0
 11
183.923037887
 21
144.8639660096
 31
0.0
  0
LINE
  5
1F7
330
1F
100
AcDbEntity
  8
0
  6
SLD-Сплошная
 62
     7
370
    25
100
AcDbLine
 10
184.0068903338
 20
152.2639660096
 30
0.0
 11
183.923037887
 21
152.2639660096
 31
0.0
  0
LINE
  5
1F8
330
1F
100
AcDbEntity
  8
0
  6
SLD-Сплошная
 62
     7
370
    25
100
AcDbLine
 10
183.923037887
 20
144.8639660096
 30
0.0
 11
184.0068903338
 21
144.8639660096
 31
0.0
  0
LINE
  5
1F9
330
1F
100
AcDbEntity
  8
0
  6
SLD-Сплошная
 62
     7
370
    25
100
AcDbLine
 10
182.4789622299
 20
154.3080927784
 30
0.0
 11
182.4789622299
 21
156.7065254194
 31
0.0
  0
LINE
  5
1FA
330
1F
100
AcDbEntity
  8
0
  6
SLD-Сплошная
 62
     7
370
    25
100
AcDbLine
 10
182.4789622299
 20
140.4214065997
 30
0.0
 11
182.4789622299
 21
142.8198392407
 31
0.0
  0
LINE
  5
1FB
330
1F
100
AcDbEntity
  8
0
  6
SLD-Сплошная
 62
     7
370
    25
100
AcDbLine
 10
151.7348184377
 20
154.3080927784
 30
0.0
 11
151.7068903338
 21
154.3639660096
 31
0.0
  0
LINE
  5
1FC
330
1F
100
AcDbEntity
  8
0
  6
SLD-Сплошная
 62
     7
370
    25
100
AcDbLine
 10
151.7348184377
 20
154.3080927784
 30
0.0
 11
149.1068903338
 21
154.3080927784
 31
0.0
  0
LINE
  5
1FD
330
1F
100
AcDbEntity
  8
0
  6
SLD-Сплошная
 62
     7
370
    25
100
AcDbLine
 10
149.1068903338
 20
154.3639660096
 30
0.0
 11
149.1068903338
 21
154.3080927784
 31
0.0
  0
LINE
  5
1FE
330
1F
100
AcDbEntity
  8
0
  6
SLD-Сплошная
 62
     7
370
    25
100
AcDbLine
 10
151.7068903338
 20
154.3639660096
 30
0.0
 11
149.1068903338
 21
154.3639660096
 31
0.0
  0
LINE
  5
1FF
330
1F
100
AcDbEntity
  8
0
  6
SLD-Сплошная
 62
     7
370
    25
100
AcDbLine
 10
151.7068903338
 20
155.3639660096
 30
0.0
 11
151.7068903338
 21
154.3639660096
 31
0.0
  0
LINE
  5
200
330
1F
100
AcDbEntity
  8
0
  6
SLD-Сплошная
 62
     7
370
    25
100
AcDbLine
 10
149.1068903338
 20
154.3639660096
 30
0.0
 11
149.1068903338
 21
155.3639660096
 31
0.0
  0
LINE
  5
201
330
1F
100
AcDbEntity
  8
0
  6
SLD-Сплошная
 62
     7
370
    25
100
AcDbLine
 10
151.7068903338
 20
155.3639660096
 30
0.0
 11
149.1068903338
 21
155.3639660096
 31
0.0
  0
LINE
  5
202
330
1F
100
AcDbEntity
  8
0
  6
SLD-Сплошная
 62
     7
370
    25
100
AcDbLine
 10
151.7068903338
 20
142.7639660096
 30
0.0
 11
151.7068903338
 21
141.7639660096
 31
0.0
  0
LINE
  5
203
330
1F
100
AcDbEntity
  8
0
  6
SLD-Сплошная
 62
     7
370
    25
100
AcDbLine
 10
151.7348184377
 20
142.8198392407
 30
0.0
 11
151.7068903338
 21
142.7639660096
 31
0.0
  0
LINE
  5
204
330
1F
100
AcDbEntity
  8
0
  6
SLD-Сплошная
 62
     7
370
    25
100
AcDbLine
 10
151.7348184377
 20
142.8198392407
 30
0.0
 11
151.7348184377
 21
140.4214065997
 31
0.0
  0
LINE
  5
205
330
1F
100
AcDbEntity
  8
0
  6
SLD-Сплошная
 62
     7
370
    25
100
AcDbLine
 10
151.7068903338
 20
141.7639660096
 30
0.0
 11
151.7348184377
 21
140.4214065997
 31
0.0
  0
LINE
  5
206
330
1F
100
AcDbEntity
  8
0
  6
SLD-Сплошная
 62
     7
370
    25
100
AcDbLine
 10
149.1068903338
 20
156.7065254194
 30
0.0
 11
149.1068903338
 21
155.3639660096
 31
0.0
  0
LINE
  5
207
330
1F
100
AcDbEntity
  8
0
  6
SLD-Сплошная
 62
     7
370
    25
100
AcDbLine
 10
151.7348184377
 20
156.7065254194
 30
0.0
 11
149.1068903338
 21
156.7065254194
 31
0.0
  0
LINE
  5
208
330
1F
100
AcDbEntity
  8
0
  6
SLD-Сплошная
 62
     7
370
    25
100
AcDbLine
 10
151.7348184377
 20
156.7065254194
 30
0.0
 11
151.7068903338
 21
155.3639660096
 31
0.0
  0
LINE
  5
209
330
1F
100
AcDbEntity
  8
0
  6
SLD-Сплошная
 62
     7
370
    25
100
AcDbLine
 10
151.7068903338
 20
141.7639660096
 30
0.0
 11
149.1068903338
 21
141.7639660096
 31
0.0
  0
LINE
  5
20A
330
1F
100
AcDbEntity
  8
0
  6
SLD-Сплошная
 62
     7
370
    25
100
AcDbLine
 10
149.1068903338
 20
142.7639660096
 30
0.0
 11
149.1068903338
 21
141.7639660096
 31
0.0
  0
LINE
  5
20B
330
1F
100
AcDbEntity
  8
0
  6
SLD-Сплошная
 62
     7
370
    25
100
AcDbLine
 10
149.1068903338
 20
142.7639660096
 30
0.0
 11
151.7068903338
 21
142.7639660096
 31
0.0
  0
LINE
  5
20C
330
1F
100
AcDbEntity
  8
0
  6
SLD-Сплошная
 62
     7
370
    25
100
AcDbLine
 10
151.7348184377
 20
156.7065254194
 30
0.0
 11
151.7348184377
 21
154.3080927784
 31
0.0
  0
LINE
  5
20D
330
1F
100
AcDbEntity
  8
0
  6
SLD-Сплошная
 62
     7
370
    25
100
AcDbLine
 10
149.1068903338
 20
142.8198392407
 30
0.0
 11
149.1068903338
 21
142.7639660096
 31
0.0
  0
LINE
  5
20E
330
1F
100
AcDbEntity
  8
0
  6
SLD-Сплошная
 62
     7
370
    25
100
AcDbLine
 10
149.1068903338
 20
142.8198392407
 30
0.0
 11
151.7348184377
 21
142.8198392407
 31
0.0
  0
LINE
  5
20F
330
1F
100
AcDbEntity
  8
0
  6
SLD-Сплошная
 62
     7
370
    25
100
AcDbLine
 10
149.1068903338
 20
140.4214065997
 30
0.0
 11
151.7348184377
 21
140.4214065997
 31
0.0
  0
LINE
  5
210
330
1F
100
AcDbEntity
  8
0
  6
SLD-Сплошная
 62
     7
370
    25
100
AcDbLine
 10
149.1068903338
 20
141.7639660096
 30
0.0
 11
149.1068903338
 21
140.4214065997
 31
0.0
  0
LINE
  5
211
330
1F
100
AcDbEntity
  8
0
  6
SLD-Сплошная
 62
     7
370
    25
100
AcDbLine
 10
150.2068903338
 20
144.8639660096
 30
0.0
 11
149.2068903338
 21
144.8639660096
 31
0.0
  0
LINE
  5
212
330
1F
100
AcDbEntity
  8
0
  6
SLD-Сплошная
 62
     7
370
    25
100
AcDbLine
 10
149.2068903338
 20
144.8639660096
 30
0.0
 11
149.2068903338
 21
152.2639660096
 31
0.0
  0
LINE
  5
213
330
1F
100
AcDbEntity
  8
0
  6
SLD-Сплошная
 62
     7
370
    25
100
AcDbLine
 10
150.2068903338
 20
152.2639660096
 30
0.0
 11
150.2068903338
 21
144.8639660096
 31
0.0
  0
LINE
  5
214
330
1F
100
AcDbEntity
  8
0
  6
SLD-Сплошная
 62
     7
370
    25
100
AcDbLine
 10
149.2068903338
 20
152.2639660096
 30
0.0
 11
150.2068903338
 21
152.2639660096
 31
0.0
  0
LINE
  5
215
330
1F
100
AcDbEntity
  8
0
  6
SLD-Сплошная
 62
     7
370
    25
100
AcDbLine
 10
150.2907427807
 20
144.8639660096
 30
0.0
 11
150.2907427807
 21
152.2639660096
 31
0.0
  0
LINE
  5
216
330
1F
100
AcDbEntity
  8
0
  6
SLD-Сплошная
 62
     7
370
    25
100
AcDbLine
 10
150.2068903338
 20
144.8639660096
 30
0.0
 11
150.2907427807
 21
144.8639660096
 31
0.0
  0
LINE
  5
217
330
1F
100
AcDbEntity
  8
0
  6
SLD-Сплошная
 62
     7
370
    25
100
AcDbLine
 10
150.2907427807
 20
152.2639660096
 30
0.0
 11
150.2068903338
 21
152.2639660096
 31
0.0
  0
LINE
  5
218
330
1F
100
AcDbEntity
  8
0
  6
SLD-Сплошная
 62
     7
370
    25
100
AcDbLine
 10
148.2831299031
 20
144.8639660096
 30
0.0
 11
148.2831299031
 21
152.2639660096
 31
0.0
  0
LINE
  5
219
330
1F
100
AcDbEntity
  8
0
  6
SLD-Сплошная
 62
     7
370
    25
100
AcDbLine
 10
148.2831299031
 20
144.8639660096
 30
0.0
 11
149.2068903338
 21
144.8639660096
 31
0.0
  0
LINE
  5
21A
330
1F
100
AcDbEntity
  8
0
  6
SLD-Сплошная
 62
     7
370
    25
100
AcDbLine
 10
149.2068903338
 20
152.2639660096
 30
0.0
 11
148.2831299031
 21
152.2639660096
 31
0.0
  0
ARC
  5
21B
330
1F
100
AcDbEntity
  8
0
  6
SLD-Сплошная
 62
     7
370
    25
100
AcDbCircle
 10
167.1068903338
 20
148.5639660096
 30
0.0
 40
2.400000000000006
100
AcDbArc
 50
79.1930771251
 51
100.8069228749
  0
ARC
  5
21C
330
1F
100
AcDbEntity
  8
0
  6
SLD-Сплошная
 62
     7
370
    25
100
AcDbCircle
 10
167.1068903338
 20
148.5639660096
 30
0.0
 40
2.400000000000006
100
AcDbArc
 50
259.1930771251
 51
280.8069228749
  0
LINE
  5
21D
330
1F
100
AcDbEntity
  8
0
  6
SLD-Сплошная
 62
     7
370
    25
100
AcDbLine
 10
180.4777052229
 20
135.1639660096
 30
0.0
 11
172.7360754448
 21
135.1639660096
 31
0.0
  0
LINE
  5
21E
330
1F
100
AcDbEntity
  8
0
  6
SLD-Сплошная
 62
     7
370
    25
100
AcDbLine
 10
164.0068903338
 20
158.1639660096
 30
0.0
 11
170.2068903338
 21
158.1639660096
 31
0.0
  0
LINE
  5
21F
330
1F
100
AcDbEntity
  8
0
  6
SLD-Сплошная
 62
     7
370
    25
100
AcDbLine
 10
170.2068903338
 20
135.1639660096
 30
0.0
 11
164.0068903338
 21
135.1639660096
 31
0.0
  0
LINE
  5
220
330
1F
100
AcDbEntity
  8
0
  6
SLD-Сплошная
 62
     7
370
    25
100
AcDbLine
 10
161.4777052229
 20
135.1639660096
 30
0.0
 11
153.7360754448
 21
135.1639660096
 31
0.0
  0
LINE
  5
221
330
1F
100
AcDbEntity
  8
0
  6
SLD-Сплошная
 62
     7
370
    25
100
AcDbLine
 10
169.6068903338
 20
129.5639660096
 30
0.0
 11
169.6068903338
 21
135.1639660096
 31
0.0
  0
LINE
  5
222
330
1F
100
AcDbEntity
  8
0
  6
SLD-Сплошная
 62
     7
370
    25
100
AcDbLine
 10
169.6068903338
 20
129.5639660096
 30
0.0
 11
164.6068903338
 21
129.5639660096
 31
0.0
  0
LINE
  5
223
330
1F
100
AcDbEntity
  8
0
  6
SLD-Сплошная
 62
     7
370
    25
100
AcDbLine
 10
164.6068903338
 20
129.5639660096
 30
0.0
 11
164.6068903338
 21
135.1639660096
 31
0.0
  0
LINE
  5
224
330
1F
100
AcDbEntity
  8
0
  6
SLD-Сплошная
 62
     7
370
    25
100
AcDbLine
 10
169.6068903338
 20
167.5639660096
 30
0.0
 11
164.6068903338
 21
167.5639660096
 31
0.0
  0
LINE
  5
225
330
1F
100
AcDbEntity
  8
0
  6
SLD-Сплошная
 62
     7
370
    25
100
AcDbLine
 10
169.6068903338
 20
158.1639660096
 30
0.0
 11
169.6068903338
 21
167.5639660096
 31
0.0
  0
LINE
  5
226
330
1F
100
AcDbEntity
  8
0
  6
SLD-Сплошная
 62
     7
370
    25
100
AcDbLine
 10
164.6068903338
 20
158.1639660096
 30
0.0
 11
164.6068903338
 21
167.5639660096
 31
0.0
  0
LINE
  5
227
330
1F
100
AcDbEntity
  8
0
  6
SLD-Сплошная
 62
     7
370
    25
100
AcDbLine
 10
179.0748085334
 20
135.1639660096
 30
0.0
 11
179.0748085334
 21
134.1639660096
 31
0.0
  0
LINE
  5
228
330
1F
100
AcDbEntity
  8
0
  6
SLD-Сплошная
 62
     7
370
    25
100
AcDbLine
 10
179.0748085334
 20
134.1639660096
 30
0.0
 11
180.4759773469
 21
134.1639660096
 31
0.0
  0
LINE
  5
229
330
1F
100
AcDbEntity
  8
0
  6
SLD-Сплошная
 62
     7
370
    25
100
AcDbLine
 10
179.0746828697
 20
134.1639660096
 30
0.0
 11
179.0746828697
 21
135.1639660096
 31
0.0
  0
LINE
  5
22A
330
1F
100
AcDbEntity
  8
0
  6
SLD-Сплошная
 62
     7
370
    25
100
AcDbLine
 10
179.0748085334
 20
134.1639660096
 30
0.0
 11
179.0746828697
 21
134.1639660096
 31
0.0
  0
LINE
  5
22B
330
1F
100
AcDbEntity
  8
0
  6
SLD-Сплошная
 62
     7
370
    25
100
AcDbLine
 10
174.139097798
 20
135.1639660096
 30
0.0
 11
174.139097798
 21
134.1639660096
 31
0.0
  0
LINE
  5
22C
330
1F
100
AcDbEntity
  8
0
  6
SLD-Сплошная
 62
     7
370
    25
100
AcDbLine
 10
174.1389721343
 20
134.1639660096
 30
0.0
 11
174.1389721343
 21
135.1639660096
 31
0.0
  0
LINE
  5
22D
330
1F
100
AcDbEntity
  8
0
  6
SLD-Сплошная
 62
     7
370
    25
100
AcDbLine
 10
174.1389721343
 20
134.1639660096
 30
0.0
 11
174.139097798
 21
134.1639660096
 31
0.0
  0
LINE
  5
22E
330
1F
100
AcDbEntity
  8
0
  6
SLD-Сплошная
 62
     7
370
    25
100
AcDbLine
 10
172.7378033208
 20
134.1639660096
 30
0.0
 11
174.1389721343
 21
134.1639660096
 31
0.0
  0
LINE
  5
22F
330
1F
100
AcDbEntity
  8
0
  6
SLD-Сплошная
 62
     7
370
    25
100
AcDbLine
 10
160.0748085334
 20
135.1639660096
 30
0.0
 11
160.0748085334
 21
134.1639660096
 31
0.0
  0
LINE
  5
230
330
1F
100
AcDbEntity
  8
0
  6
SLD-Сплошная
 62
     7
370
    25
100
AcDbLine
 10
160.0748085334
 20
134.1639660096
 30
0.0
 11
161.4759773469
 21
134.1639660096
 31
0.0
  0
LINE
  5
231
330
1F
100
AcDbEntity
  8
0
  6
SLD-Сплошная
 62
     7
370
    25
100
AcDbLine
 10
160.0746828697
 20
134.1639660096
 30
0.0
 11
160.0746828697
 21
135.1639660096
 31
0.0
  0
LINE
  5
232
330
1F
100
AcDbEntity
  8
0
  6
SLD-Сплошная
 62
     7
370
    25
100
AcDbLine
 10
160.0748085334
 20
134.1639660096
 30
0.0
 11
160.0746828697
 21
134.1639660096
 31
0.0
  0
LINE
  5
233
330
1F
100
AcDbEntity
  8
0
  6
SLD-Сплошная
 62
     7
370
    25
100
AcDbLine
 10
155.139097798
 20
135.1639660096
 30
0.0
 11
155.139097798
 21
134.1639660096
 31
0.0
  0
LINE
  5
234
330
1F
100
AcDbEntity
  8
0
  6
SLD-Сплошная
 62
     7
370
    25
100
AcDbLine
 10
155.1389721343
 20
134.1639660096
 30
0.0
 11
155.1389721343
 21
135.1639660096
 31
0.0
  0
LINE
  5
235
330
1F
100
AcDbEntity
  8
0
  6
SLD-Сплошная
 62
     7
370
    25
100
AcDbLine
 10
155.1389721343
 20
134.1639660096
 30
0.0
 11
155.139097798
 21
134.1639660096
 31
0.0
  0
LINE
  5
236
330
1F
100
AcDbEntity
  8
0
  6
SLD-Сплошная
 62
     7
370
    25
100
AcDbLine
 10
153.7378033208
 20
134.1639660096
 30
0.0
 11
155.1389721343
 21
134.1639660096
 31
0.0
  0
ARC
  5
237
330
1F
100
AcDbEntity
  8
0
  6
SLD-Сплошная
 62
     7
370
    25
100
AcDbCircle
 10
167.1068903338
 20
148.5639660096
 30
0.0
 40
21.0
100
AcDbArc
 50
27.2028944122
 51
152.7971055878
  0
ARC
  5
238
330
1F
100
AcDbEntity
  8
0
  6
SLD-Сплошная
 62
     7
370
    25
100
AcDbCircle
 10
167.1068903338
 20
148.5639660096
 30
0.0
 40
21.0
100
AcDbArc
 50
207.2028944122
 51
332.7971055878
  0
LINE
  5
239
330
1F
100
AcDbEntity
  8
0
  6
SLD-Сплошная
 62
     7
370
    25
100
AcDbLine
 10
204.6265445137
 20
111.0443118297
 30
0.0
 11
204.6243453988
 21
111.0465109446
 31
0.0
  0
LINE
  5
23A
330
1F
100
AcDbEntity
  8
0
  6
SLD-Сплошная
 62
     7
370
    25
100
AcDbLine
 10
204.6265445137
 20
111.0443118297
 30
0.0
 11
129.587236154
 21
111.0443118297
 31
0.0
  0
LINE
  5
23B
330
1F
100
AcDbEntity
  8
0
  6
SLD-Сплошная
 62
     7
370
    25
100
AcDbLine
 10
129.587236154
 20
111.0443118297
 30
0.0
 11
129.5894352689
 21
111.0465109446
 31
0.0
  0
LINE
  5
23C
330
1F
100
AcDbEntity
  8
0
  6
SLD-Сплошная
 62
     7
370
    25
100
AcDbLine
 10
129.5894352689
 20
111.0465109446
 30
0.0
 11
204.6243453988
 21
111.0465109446
 31
0.0
  0
LINE
  5
23D
330
1F
100
AcDbEntity
  8
0
  6
SLD-Сплошная
 62
     7
370
    25
100
AcDbLine
 10
204.6243453988
 20
186.0814210745
 30
0.0
 11
129.5894352689
 21
186.0814210745
 31
0.0
  0
LINE
  5
23E
330
1F
100
AcDbEntity
  8
0
  6
SLD-Сплошная
 62
     7
370
    25
100
AcDbLine
 10
129.587236154
 20
186.0836201894
 30
0.0
 11
129.5894352689
 21
186.0814210745
 31
0.0
  0
LINE
  5
23F
330
1F
100
AcDbEntity
  8
0
  6
SLD-Сплошная
 62
     7
370
    25
100
AcDbLine
 10
204.6265445137
 20
186.0836201894
 30
0.0
 11
129.587236154
 21
186.0836201894
 31
0.0
  0
LINE
  5
240
330
1F
100
AcDbEntity
  8
0
  6
SLD-Сплошная
 62
     7
370
    25
100
AcDbLine
 10
204.6265445137
 20
186.0836201894
 30
0.0
 11
204.6243453988
 21
186.0814210745
 31
0.0
  0
ARC
  5
241
330
1F
100
AcDbEntity
  8
0
  6
SLD-Сплошная
 62
     7
370
    25
100
AcDbCircle
 10
137.1068903338
 20
118.5639660096
 30
0.0
 40
2.750000000000028
100
AcDbArc
 50
0.0
 51
180.0
  0
ARC
  5
242
330
1F
100
AcDbEntity
  8
0
  6
SLD-Сплошная
 62
     7
370
    25
100
AcDbCircle
 10
137.1068903338
 20
118.5639660096
 30
0.0
 40
2.750000000000028
100
AcDbArc
 50
180.0
 51
0.0
  0
ARC
  5
243
330
1F
100
AcDbEntity
  8
0
  6
SLD-Сплошная
 62
     7
370
    25
100
AcDbCircle
 10
197.1068903338
 20
118.5639660096
 30
0.0
 40
2.750000000000028
100
AcDbArc
 50
0.0
 51
180.0
  0
ARC
  5
244
330
1F
100
AcDbEntity
  8
0
  6
SLD-Сплошная
 62
     7
370
    25
100
AcDbCircle
 10
197.1068903338
 20
118.5639660096
 30
0.0
 40
2.750000000000028
100
AcDbArc
 50
180.0
 51
0.0
  0
ARC
  5
245
330
1F
100
AcDbEntity
  8
0
  6
SLD-Сплошная
 62
     7
370
    25
100
AcDbCircle
 10
197.1068903338
 20
178.5639660096
 30
0.0
 40
2.750000000000028
100
AcDbArc
 50
0.0
 51
180.0
  0
ARC
  5
246
330
1F
100
AcDbEntity
  8
0
  6
SLD-Сплошная
 62
     7
370
    25
100
AcDbCircle
 10
197.1068903338
 20
178.5639660096
 30
0.0
 40
2.750000000000028
100
AcDbArc
 50
180.0
 51
0.0
  0
ARC
  5
247
330
1F
100
AcDbEntity
  8
0
  6
SLD-Сплошная
 62
     7
370
    25
100
AcDbCircle
 10
137.1068903338
 20
178.5639660096
 30
0.0
 40
2.750000000000028
100
AcDbArc
 50
0.0
 51
180.0
  0
ARC
  5
248
330
1F
100
AcDbEntity
  8
0
  6
SLD-Сплошная
 62
     7
370
    25
100
AcDbCircle
 10
137.1068903338
 20
178.5639660096
 30
0.0
 40
2.750000000000028
100
AcDbArc
 50
180.0
 51
0.0
  0
LINE
  5
249
330
1F
100
AcDbEntity
  8
0
  6
SLD-Сплошная
 62
     7
370
    25
100
AcDbLine
 10
204.6243453988
 20
111.0465109446
 30
0.0
 11
204.6243453988
 21
186.0814210745
 31
0.0
  0
LINE
  5
24A
330
1F
100
AcDbEntity
  8
0
  6
SLD-Сплошная
 62
     7
370
    25
100
AcDbLine
 10
129.5894352689
 20
186.0814210745
 30
0.0
 11
129.5894352689
 21
111.0465109446
 31
0.0
  0
LINE
  5
24B
330
1F
100
AcDbEntity
  8
0
  6
SLD-Сплошная
 62
     7
370
    25
100
AcDbLine
 10
204.6265445137
 20
186.0836201894
 30
0.0
 11
204.6265445137
 21
111.0443118297
 31
0.0
  0
LINE
  5
24C
330
1F
100
AcDbEntity
  8
0
  6
SLD-Сплошная
 62
     7
370
    25
100
AcDbLine
 10
129.587236154
 20
111.0443118297
 30
0.0
 11
129.587236154
 21
186.0836201894
 31
0.0
  0
LINE
  5
24D
330
1F
100
AcDbEntity
  8
0
  6
SLD-Сплошная
 62
     7
370
    25
100
AcDbLine
 10
336.8002364733
 20
184.5639660096
 30
0.0
 11
317.2002364733
 21
184.5639660096
 31
0.0
  0
ARC
  5
24E
330
1F
100
AcDbEntity
  8
0
  6
SLD-Сплошная
 62
     7
370
    25
100
AcDbCircle
 10
317.2002364733
 20
184.0639660096
 30
0.0
 40
0.5
100
AcDbArc
 50
90.0
 51
180.0
  0
ARC
  5
24F
330
1F
100
AcDbEntity
  8
0
  6
SLD-Сплошная
 62
     7
370
    25
100
AcDbCircle
 10
336.8002364733
 20
184.0639660096
 30
0.0
 40
0.4999999999999432
100
AcDbArc
 50
0.0
 51
90.0
  0
LINE
  5
250
330
1F
100
AcDbEntity
  8
0
  6
SLD-Сплошная
 62
     7
370
    25
100
AcDbLine
 10
316.7002364733
 20
158.9132535528
 30
0.0
 11
316.6697940581
 21
158.2160076108
 31
0.0
  0
LINE
  5
251
330
1F
100
AcDbEntity
  8
0
  6
SLD-Сплошная
 62
     7
370
    25
100
AcDbLine
 10
337.3306788886
 20
158.2160076108
 30
0.0
 11
337.3002364733
 21
158.9132535528
 31
0.0
  0
LINE
  5
252
330
1F
100
AcDbEntity
  8
0
  6
SLD-Сплошная
 62
     7
370
    25
100
AcDbLine
 10
316.7002364733
 20
181.5639660096
 30
0.0
 11
316.5002364733
 21
181.5639660096
 31
0.0
  0
LINE
  5
253
330
1F
100
AcDbEntity
  8
0
  6
SLD-Сплошная
 62
     7
370
    25
100
AcDbLine
 10
316.5002364733
 20
176.5639660096
 30
0.0
 11
316.7002364733
 21
176.5639660096
 31
0.0
  0
LINE
  5
254
330
1F
100
AcDbEntity
  8
0
  6
SLD-Сплошная
 62
     7
370
    25
100
AcDbLine
 10
337.3002364733
 20
176.5639660096
 30
0.0
 11
337.5002364733
 21
176.5639660096
 31
0.0
  0
LINE
  5
255
330
1F
100
AcDbEntity
  8
0
  6
SLD-Сплошная
 62
     7
370
    25
100
AcDbLine
 10
337.5002364733
 20
181.5639660096
 30
0.0
 11
337.3002364733
 21
181.5639660096
 31
0.0
  0
SPLINE
  5
256
330
1F
100
AcDbEntity
  8
0
  6
SLD-Сплошная
 62
     7
370
    25
100
AcDbSpline
210
0.0
220
0.0
230
1.0
 70
     8
 71
     3
 72
    25
 73
    21
 74
     0
 42
0.00000001
 43
0.00000001
 40
0.0
 40
0.0
 40
0.0
 40
0.0
 40
0.0417095406779056
 40
0.0815441224899623
 40
0.1202164510149568
 40
0.1585042016492743
 40
0.1972082464154248
 40
0.2371044003434295
 40
0.2539665695183515
 40
0.302916313433306
 40
0.3358550188913587
 40
0.3690584866111273
 40
0.5013451596437972
 40
0.6336349642602831
 40
0.6665756168987534
 40
0.6997810519172016
 40
0.748316463196165
 40
0.7654779311814659
 40
0.8808270383341922
 40
1.0
 40
1.0
 40
1.0
 40
1.0
 10
330.0377576520567
 20
179.0639660095607
 30
0.0
 10
330.05770288203
 20
179.0840300265785
 30
0.0
 10
330.0966967488912
 20
179.1232561277235
 30
0.0
 10
330.1628010787791
 20
179.1713952840682
 30
0.0
 10
330.2325256412173
 20
179.209265565537
 30
0.0
 10
330.306404244008
 20
179.2361916744396
 30
0.0
 10
330.3841773207589
 20
179.2524989040159
 30
0.0
 10
330.4489203881348
 20
179.2563411890365
 30
0.0
 10
330.5205170758854
 20
179.2557491487287
 30
0.0
 10
330.5874163725014
 20
179.2559432917325
 30
0.0
 10
330.6653793896123
 20
179.2558306547139
 30
0.0
 10
330.7997970145669
 20
179.2557790088453
 30
0.0
 10
331.0015164049244
 20
179.2557042054023
 30
0.0
 10
331.2030529073709
 20
179.255782478565
 30
0.0
 10
331.3374801550986
 20
179.2558299199295
 30
0.0
 10
331.4151529338228
 20
179.2559553761905
 30
0.0
 10
331.4822062154048
 20
179.2557103413491
 30
0.0
 10
331.6046333727905
 20
179.2569188540403
 30
0.0
 10
331.7808544211083
 20
179.2260179572712
 30
0.0
 10
331.9014396275917
 20
179.1185673154539
 30
0.0
 10
331.9627152945773
 20
179.0639660095607
 30
0.0
  0
LINE
  5
257
330
1F
100
AcDbEntity
  8
0
  6
SLD-Сплошная
 62
     7
370
    25
100
AcDbLine
 10
335.5002364733
 20
176.1816574632
 30
0.0
 11
318.5002364733
 21
176.1816574632
 31
0.0
  0
SPLINE
  5
258
330
1F
100
AcDbEntity
  8
0
  6
SLD-Сплошная
 62
     7
370
    25
100
AcDbSpline
210
0.0
220
0.0
230
1.0
 70
     8
 71
     3
 72
    25
 73
    21
 74
     0
 42
0.00000001
 43
0.00000001
 40
0.0
 40
0.0
 40
0.0
 40
0.0
 40
0.0417095406797587
 40
0.0815441224941578
 40
0.1202164510221743
 40
0.1585042016603549
 40
0.197208246431326
 40
0.2371044003651618
 40
0.2539665695634356
 40
0.3029163134574977
 40
0.3358550187061796
 40
0.3690584866352075
 40
0.5013451596677653
 40
0.6336349642842386
 40
0.6665756167109639
 40
0.6997810519411916
 40
0.7483164632814894
 40
0.7654779312029273
 40
0.8808270383449837
 40
1.0
 40
1.0
 40
1.0
 40
1.0
 10
322.0377576520567
 20
179.0639660095607
 30
0.0
 10
322.057702882031
 20
179.0840300265793
 30
0.0
 10
322.0966967488944
 20
179.1232561277261
 30
0.0
 10
322.1628010787875
 20
179.171395284072
 30
0.0
 10
322.2325256412326
 20
179.2092655655412
 30
0.0
 10
322.306404244032
 20
179.2361916744432
 30
0.0
 10
322.3841773207932
 20
179.2524989040186
 30
0.0
 10
322.4489203881923
 20
179.2563411890367
 30
0.0
 10
322.5205170759484
 20
179.2557491487292
 30
0.0
 10
322.5874163724242
 20
179.2559432917321
 30
0.0
 10
322.6653793895208
 20
179.2558306547139
 30
0.0
 10
322.7997970144752
 20
179.2557790088453
 30
0.0
 10
323.0015164049743
 20
179.2557042054025
 30
0.0
 10
323.2030529072772
 20
179.2557824785644
 30
0.0
 10
323.3374801550048
 20
179.2558299199299
 30
0.0
 10
323.4151529337705
 20
179.2559553761909
 30
0.0
 10
323.4822062154942
 20
179.2557103413483
 30
0.0
 10
323.6046333728718
 20
179.2569188540379
 30
0.0
 10
323.780854421127
 20
179.2260179572527
 30
0.0
 10
323.9014396275979
 20
179.1185673154477
 30
0.0
 10
323.9627152945773
 20
179.0639660095607
 30
0.0
  0
SPLINE
  5
259
330
1F
100
AcDbEntity
  8
0
  6
SLD-Сплошная
 62
     7
370
    25
100
AcDbSpline
210
0.0
220
0.0
230
1.0
 70
    24
 71
     3
 72
    13
 73
     9
 74
     0
 42
0.00000001
 43
0.00000001
 40
0.0
 40
0.0
 40
0.0
 40
0.0
 40
0.1661696934622368
 40
0.3394770894343984
 40
0.5140241915241456
 40
0.6841740192674917
 40
0.8584166695076716
 40
1.0
 40
1.0
 40
1.0
 40
1.0
 10
316.7002364733177
 20
179.0639660095607
 30
0.0
 10
316.7002364733177
 20
179.4989715577367
 30
0.0
 10
316.7002364733177
 20
180.3876680119802
 30
0.0
 10
316.7002364733177
 20
181.6399267258673
 30
0.0
 10
316.7002364733177
 20
182.715421059944
 30
0.0
 10
316.7002364733177
 20
183.5137508811184
 30
0.0
 10
316.7002364733177
 20
183.9965532752975
 30
0.0
 10
316.7002364733177
 20
184.0219743459734
 30
0.0
 10
316.7002364733177
 20
184.033370494709
 30
0.0
  0
SPLINE
  5
25A
330
1F
100
AcDbEntity
  8
0
  6
SLD-Сплошная
 62
     7
370
    25
100
AcDbSpline
210
0.0
220
0.0
230
1.0
 70
    24
 71
     3
 72
    13
 73
     9
 74
     0
 42
0.00000001
 43
0.00000001
 40
0.0
 40
0.0
 40
0.0
 40
0.0
 40
0.1542611214249699
 40
0.3236836056881516
 40
0.5039167175862064
 40
0.6884277225940506
 40
0.8780799092749343
 40
1.0
 40
1.0
 40
1.0
 40
1.0
 10
337.3002364733176
 20
179.0639660095607
 30
0.0
 10
337.3002364733176
 20
179.4675393707567
 30
0.0
 10
337.3002364733176
 20
180.3143508000068
 30
0.0
 10
337.3002364733176
 20
181.5518820514108
 30
0.0
 10
337.3002364733176
 20
182.6800268507523
 30
0.0
 10
337.3002364733176
 20
183.5374438487292
 30
0.0
 10
337.3002364733176
 20
184.0179246050575
 30
0.0
 10
337.3002364733176
 20
184.0205803533339
 30
0.0
 10
337.3002364733176
 20
184.0216195634764
 30
0.0
  0
SPLINE
  5
25B
330
1F
100
AcDbEntity
  8
0
  6
SLD-Сплошная
 62
     7
370
    25
100
AcDbSpline
210
0.0
220
0.0
230
1.0
 70
    24
 71
     3
 72
     8
 73
     4
 74
     0
 42
0.00000001
 43
0.00000001
 40
0.0
 40
0.0
 40
0.0
 40
0.0
 40
1.0
 40
1.0
 40
1.0
 40
1.0
 10
316.7002364733177
 20
158.9132535528288
 30
0.0
 10
316.7002364733177
 20
160.2513606976194
 30
0.0
 10
316.7002364733177
 20
161.5896033580067
 30
0.0
 10
316.7002364733177
 20
162.9279815339909
 30
0.0
  0
SPLINE
  5
25C
330
1F
100
AcDbEntity
  8
0
  6
SLD-Сплошная
 62
     7
370
    25
100
AcDbSpline
210
0.0
220
0.0
230
1.0
 70
    24
 71
     3
 72
     8
 73
     4
 74
     0
 42
0.00000001
 43
0.00000001
 40
0.0
 40
0.0
 40
0.0
 40
0.0
 40
1.0
 40
1.0
 40
1.0
 40
1.0
 10
337.3002364733176
 20
158.9132535528288
 30
0.0
 10
337.3002364733176
 20
160.251292951828
 30
0.0
 10
337.3002364733176
 20
161.5896711175206
 30
0.0
 10
337.3002364733176
 20
162.9279815339909
 30
0.0
  0
LINE
  5
25D
330
1F
100
AcDbEntity
  8
0
  6
SLD-Сплошная
 62
     7
370
    25
100
AcDbLine
 10
337.3002364733
 20
162.927981534
 30
0.0
 11
337.3002364733
 21
179.0639660096
 31
0.0
  0
LINE
  5
25E
330
1F
100
AcDbEntity
  8
0
  6
SLD-Сплошная
 62
     7
370
    25
100
AcDbLine
 10
316.7002364733
 20
162.927981534
 30
0.0
 11
316.7002364733
 21
179.0639660096
 31
0.0
  0
SPLINE
  5
25F
330
1F
100
AcDbEntity
  8
0
  6
SLD-Сплошная
 62
     7
370
    25
100
AcDbSpline
210
0.0
220
0.0
230
1.0
 70
     8
 71
     3
 72
    14
 73
    10
 74
     0
 42
0.00000001
 43
0.00000001
 40
0.0
 40
0.0
 40
0.0
 40
0.0
 40
0.25
 40
0.25
 40
0.5
 40
0.5
 40
0.75
 40
0.75
 40
1.0
 40
1.0
 40
1.0
 40
1.0
 10
335.0002364733177
 20
175.3156320594003
 30
0.0
 10
335.0002364733177
 20
175.4176941320162
 30
0.0
 10
335.0109758427244
 20
175.5278063427187
 30
0.0
 10
335.0597088028485
 20
175.7410165150403
 30
0.0
 10
335.0978675462555
 20
175.8434535057332
 30
0.0
 10
335.1954986191933
 20
176.0125554844589
 30
0.0
 10
335.2546406433448
 20
176.0786483667929
 30
0.0
 10
335.3777375937287
 20
176.163056329731
 30
0.0
 10
335.4413109082188
 20
176.1816574631847
 30
0.0
 10
335.5002364733177
 20
176.1816574631847
 30
0.0
  0
SPLINE
  5
260
330
1F
100
AcDbEntity
  8
0
  6
SLD-Сплошная
 62
     7
370
    25
100
AcDbSpline
210
0.0
220
0.0
230
1.0
 70
     8
 71
     3
 72
     8
 73
     4
 74
     0
 42
0.00000001
 43
0.00000001
 40
0.0
 40
0.0
 40
0.0
 40
0.0
 40
1.0
 40
1.0
 40
1.0
 40
1.0
 10
335.5002364733177
 20
162.9279815339909
 30
0.0
 10
335.4275175261913
 20
161.4735881210769
 30
0.0
 10
335.3547571434349
 20
160.0192676466562
 30
0.0
 10
335.2873295932145
 20
158.5650045270769
 30
0.0
  0
SPLINE
  5
261
330
1F
100
AcDbEntity
  8
0
  6
SLD-Сплошная
 62
     7
370
    25
100
AcDbSpline
210
0.0
220
0.0
230
1.0
 70
     8
 71
     3
 72
    10
 73
     6
 74
     0
 42
0.00000001
 43
0.00000001
 40
0.0
 40
0.0
 40
0.0
 40
0.0
 40
0.5
 40
0.5
 40
1.0
 40
1.0
 40
1.0
 40
1.0
 10
335.0002364733177
 20
158.5748760483727
 30
0.0
 10
335.0002364733177
 20
158.5729274764811
 30
0.0
 10
335.0261801180876
 20
158.5708144454073
 30
0.0
 10
335.1299546971672
 20
158.5672462199909
 30
0.0
 10
335.2065283704192
 20
158.5658342558006
 30
0.0
 10
335.2873295932145
 20
158.5650045270769
 30
0.0
  0
LINE
  5
262
330
1F
100
AcDbEntity
  8
0
  6
SLD-Сплошная
 62
     7
370
    25
100
AcDbLine
 10
335.0002364733
 20
175.3156320594
 30
0.0
 11
335.0002364733
 21
158.5748760484
 31
0.0
  0
SPLINE
  5
263
330
1F
100
AcDbEntity
  8
0
  6
SLD-Сплошная
 62
     7
370
    25
100
AcDbSpline
210
0.0
220
0.0
230
1.0
 70
     8
 71
     3
 72
    12
 73
     8
 74
     0
 42
0.00000001
 43
0.00000001
 40
0.0
 40
0.0
 40
0.0
 40
0.0
 40
0.5000000000000122
 40
0.5000000000000122
 40
0.7500000000000061
 40
0.7500000000000061
 40
1.0
 40
1.0
 40
1.0
 40
1.0
 10
335.0002364733177
 20
173.4103761710745
 30
0.0
 10
335.0002364733177
 20
173.3287265129817
 30
0.0
 10
334.9807102587301
 20
173.2330679882865
 30
0.0
 10
334.9221316149674
 20
173.131606801051
 30
0.0
 10
334.8984748053068
 20
173.1051696481175
 30
0.0
 10
334.8492360251533
 20
173.0714064629422
 30
0.0
 10
334.8238066993572
 20
173.0639660095607
 30
0.0
 10
334.8002364733176
 20
173.0639660095607
 30
0.0
  0
LINE
  5
264
330
1F
100
AcDbEntity
  8
0
  6
SLD-Сплошная
 62
     7
370
    25
100
AcDbLine
 10
319.2002364733
 20
173.0639660096
 30
0.0
 11
334.8002364733
 21
173.0639660096
 31
0.0
  0
SPLINE
  5
265
330
1F
100
AcDbEntity
  8
0
  6
SLD-Сплошная
 62
     7
370
    25
100
AcDbSpline
210
0.0
220
0.0
230
1.0
 70
     8
 71
     3
 72
    12
 73
     8
 74
     0
 42
0.00000001
 43
0.00000001
 40
0.0
 40
0.0
 40
0.0
 40
0.0
 40
0.2499999999999978
 40
0.2499999999999978
 40
0.4999999999999956
 40
0.4999999999999956
 40
1.0
 40
1.0
 40
1.0
 40
1.0
 10
319.2002364733177
 20
173.0639660095607
 30
0.0
 10
319.1766662472781
 20
173.0639660095607
 30
0.0
 10
319.1512369214821
 20
173.0714064629422
 30
0.0
 10
319.1019981413285
 20
173.1051696481175
 30
0.0
 10
319.0783413316679
 20
173.131606801051
 30
0.0
 10
319.0197626879052
 20
173.2330679882865
 30
0.0
 10
319.0002364733177
 20
173.3287265129817
 30
0.0
 10
319.0002364733177
 20
173.4103761710745
 30
0.0
  0
SPLINE
  5
266
330
1F
100
AcDbEntity
  8
0
  6
SLD-Сплошная
 62
     7
370
    25
100
AcDbSpline
210
0.0
220
0.0
230
1.0
 70
     8
 71
     3
 72
    14
 73
    10
 74
     0
 42
0.00000001
 43
0.00000001
 40
0.0
 40
0.0
 40
0.0
 40
0.0
 40
0.25
 40
0.25
 40
0.5
 40
0.5
 40
0.75
 40
0.75
 40
1.0
 40
1.0
 40
1.0
 40
1.0
 10
319.0002364733177
 20
175.3156320594003
 30
0.0
 10
319.0002364733177
 20
175.4176941320162
 30
0.0
 10
318.9894971039109
 20
175.5278063427187
 30
0.0
 10
318.9407641437869
 20
175.7410165150403
 30
0.0
 10
318.9026054003799
 20
175.8434535057332
 30
0.0
 10
318.804974327442
 20
176.0125554844589
 30
0.0
 10
318.7458323032905
 20
176.0786483667928
 30
0.0
 10
318.6227353529067
 20
176.163056329731
 30
0.0
 10
318.5591620384166
 20
176.1816574631847
 30
0.0
 10
318.5002364733177
 20
176.1816574631847
 30
0.0
  0
LINE
  5
267
330
1F
100
AcDbEntity
  8
0
  6
SLD-Сплошная
 62
     7
370
    25
100
AcDbLine
 10
319.0002364733
 20
158.5748760484
 30
0.0
 11
319.0002364733
 21
175.3156320594
 31
0.0
  0
SPLINE
  5
268
330
1F
100
AcDbEntity
  8
0
  6
SLD-Сплошная
 62
     7
370
    25
100
AcDbSpline
210
0.0
220
0.0
230
1.0
 70
     8
 71
     3
 72
    10
 73
     6
 74
     0
 42
0.00000001
 43
0.00000001
 40
0.0
 40
0.0
 40
0.0
 40
0.0
 40
0.5
 40
0.5
 40
1.0
 40
1.0
 40
1.0
 40
1.0
 10
319.0002364733177
 20
158.5748760483715
 30
0.0
 10
319.0002364733177
 20
158.5729274764808
 30
0.0
 10
318.9742928285472
 20
158.5708144454076
 30
0.0
 10
318.8705182494656
 20
158.5672462199507
 30
0.0
 10
318.7939445762124
 20
158.5658342557178
 30
0.0
 10
318.7131433534163
 20
158.5650045269261
 30
0.0
  0
SPLINE
  5
269
330
1F
100
AcDbEntity
  8
0
  6
SLD-Сплошная
 62
     7
370
    25
100
AcDbSpline
210
0.0
220
0.0
230
1.0
 70
     8
 71
     3
 72
     8
 73
     4
 74
     0
 42
0.00000001
 43
0.00000001
 40
0.0
 40
0.0
 40
0.0
 40
0.0
 40
1.0
 40
1.0
 40
1.0
 40
1.0
 10
318.5002364733177
 20
162.9279815339909
 30
0.0
 10
318.5729554204465
 20
161.4735881210268
 30
0.0
 10
318.6457158032055
 20
160.019267646556
 30
0.0
 10
318.7131433534163
 20
158.5650045269261
 30
0.0
  0
SPLINE
  5
26A
330
1F
100
AcDbEntity
  8
0
  6
SLD-Сплошная
 62
     7
370
    25
100
AcDbSpline
210
0.0
220
0.0
230
1.0
 70
     8
 71
     3
 72
     8
 73
     4
 74
     0
 42
0.00000001
 43
0.00000001
 40
0.0
 40
0.0
 40
0.0
 40
0.0
 40
1.0
 40
1.0
 40
1.0
 40
1.0
 10
335.5002364733177
 20
154.2041040609237
 30
0.0
 10
335.4275175261391
 20
155.657113213572
 30
0.0
 10
335.3547571434349
 20
157.1107414074986
 30
0.0
 10
335.2873295932145
 20
158.5650045270769
 30
0.0
  0
SPLINE
  5
26B
330
1F
100
AcDbEntity
  8
0
  6
SLD-Сплошная
 62
     7
370
    25
100
AcDbSpline
210
0.0
220
0.0
230
1.0
 70
     8
 71
     3
 72
     8
 73
     4
 74
     0
 42
0.00000001
 43
0.00000001
 40
0.0
 40
0.0
 40
0.0
 40
0.0
 40
1.0
 40
1.0
 40
1.0
 40
1.0
 10
318.5002364733177
 20
154.2041040609237
 30
0.0
 10
318.5729554204474
 20
155.6571132135241
 30
0.0
 10
318.6457158031955
 20
157.1107414073983
 30
0.0
 10
318.7131433534163
 20
158.5650045269261
 30
0.0
  0
SPLINE
  5
26C
330
1F
100
AcDbEntity
  8
0
  6
SLD-Сплошная
 62
     7
370
    25
100
AcDbSpline
210
0.0
220
0.0
230
1.0
 70
    24
 71
     3
 72
     8
 73
     4
 74
     0
 42
0.00000001
 43
0.00000001
 40
0.0
 40
0.0
 40
0.0
 40
0.0
 40
1.0
 40
1.0
 40
1.0
 40
1.0
 10
337.6759542976835
 20
154.2694916259802
 30
0.0
 10
337.5609046935427
 20
155.5845146187217
 30
0.0
 10
337.4458053762835
 20
156.900105835005
 30
0.0
 10
337.3306788885836
 20
158.2160076108475
 30
0.0
  0
SPLINE
  5
26D
330
1F
100
AcDbEntity
  8
0
  6
SLD-Сплошная
 62
     7
370
    25
100
AcDbSpline
210
0.0
220
0.0
230
1.0
 70
    24
 71
     3
 72
     8
 73
     4
 74
     0
 42
0.00000001
 43
0.00000001
 40
0.0
 40
0.0
 40
0.0
 40
0.0
 40
1.0
 40
1.0
 40
1.0
 40
1.0
 10
316.6697940582731
 20
158.216007613378
 30
0.0
 10
316.554667570352
 20
156.9001058350075
 30
0.0
 10
316.4395682530924
 20
155.5845146187185
 30
0.0
 10
316.3245186489519
 20
154.2694916259802
 30
0.0
  0
LINE
  5
26E
330
1F
100
AcDbEntity
  8
0
  6
SLD-Сплошная
 62
     7
370
    25
100
AcDbLine
 10
319.0002364733
 20
133.3807339451
 30
0.0
 11
319.0002364733
 21
158.5748760484
 31
0.0
  0
LINE
  5
26F
330
1F
100
AcDbEntity
  8
0
  6
SLD-Сплошная
 62
     7
370
    25
100
AcDbLine
 10
335.0002364733
 20
158.5748760484
 30
0.0
 11
335.0002364733
 21
133.3807339451
 31
0.0
  0
SPLINE
  5
270
330
1F
100
AcDbEntity
  8
0
  6
SLD-Сплошная
 62
     7
370
    25
100
AcDbSpline
210
0.0
220
0.0
230
1.0
 70
    24
 71
     3
 72
    18
 73
    14
 74
     0
 42
0.00000001
 43
0.00000001
 40
0.0
 40
0.0
 40
0.0
 40
0.0
 40
0.25
 40
0.25
 40
0.375
 40
0.375
 40
0.5
 40
0.5
 40
0.625
 40
0.625
 40
0.75
 40
0.75
 40
1.0
 40
1.0
 40
1.0
 40
1.0
 10
316.5002364733177
 20
179.771552456996
 30
0.0
 10
316.5002364733177
 20
180.4140526159375
 30
0.0
 10
316.5002364733177
 20
181.1060887427429
 30
0.0
 10
316.5002364733177
 20
182.111654597623
 30
0.0
 10
316.5002364733177
 20
182.4407049726757
 30
0.0
 10
316.5002364733177
 20
183.0644902649319
 30
0.0
 10
316.5002364733177
 20
183.3590714863457
 30
0.0
 10
316.5002364733177
 20
183.8940353349446
 30
0.0
 10
316.5002364733177
 20
184.1343032948868
 30
0.0
 10
316.5002364733177
 20
184.5474459667228
 30
0.0
 10
316.5002364733177
 20
184.72029173105
 30
0.0
 10
316.5002364733177
 20
185.1314259715645
 30
0.0
 10
316.5002364733177
 20
185.2595016064463
 30
0.0
 10
316.5002364733177
 20
185.2707147803562
 30
0.0
  0
SPLINE
  5
271
330
1F
100
AcDbEntity
  8
0
  6
SLD-Сплошная
 62
     7
370
    25
100
AcDbSpline
210
0.0
220
0.0
230
1.0
 70
     8
 71
     3
 72
    10
 73
     6
 74
     0
 42
0.00000001
 43
0.00000001
 40
0.0
 40
0.0
 40
0.0
 40
0.0
 40
0.5
 40
0.5
 40
1.0
 40
1.0
 40
1.0
 40
1.0
 10
339.7866711499383
 20
176.4606533702331
 30
0.0
 10
339.7866117354853
 20
176.9308413003913
 30
0.0
 10
339.786565940161
 20
177.4234898338681
 30
0.0
 10
339.786504866204
 20
178.4277635707141
 30
0.0
 10
339.7864895977148
 20
178.9392219813961
 30
0.0
 10
339.7864895977148
 20
179.4460196209485
 30
0.0
  0
SPLINE
  5
272
330
1F
100
AcDbEntity
  8
0
  6
SLD-Сплошная
 62
     7
370
    25
100
AcDbSpline
210
0.0
220
0.0
230
1.0
 70
     8
 71
     3
 72
    22
 73
    18
 74
     0
 42
0.00000001
 43
0.00000001
 40
0.0
 40
0.0
 40
0.0
 40
0.0
 40
0.125
 40
0.125
 40
0.25
 40
0.25
 40
0.375
 40
0.375
 40
0.5
 40
0.5
 40
0.625
 40
0.625
 40
0.75
 40
0.75
 40
0.875
 40
0.875
 40
1.0
 40
1.0
 40
1.0
 40
1.0
 10
314.2139833489205
 20
179.771552456996
 30
0.0
 10
314.2139833489205
 20
180.1220070891459
 30
0.0
 10
314.2139736475905
 20
180.4852873832367
 30
0.0
 10
314.213931300046
 20
181.2208555173142
 30
0.0
 10
314.2138986182815
 20
181.5930705341308
 30
0.0
 10
314.2138086785591
 20
182.3243911558619
 30
0.0
 10
314.2137514004124
 20
182.6833552013739
 30
0.0
 10
314.2136135185136
 20
183.3638482474716
 30
0.0
 10
314.2135329237645
 20
183.685209579923
 30
0.0
 10
314.2133527537022
 20
184.2688065056672
 30
0.0
 10
314.2132532170075
 20
184.5309170074223
 30
0.0
 10
314.2130418727362
 20
184.9816181039707
 30
0.0
 10
314.2129301176688
 20
185.1701771196003
 30
0.0
 10
314.2127019711688
 20
185.4691838399745
 30
0.0
 10
314.2125856245539
 20
185.5796933274288
 30
0.0
 10
314.2123553132637
 20
185.7273066475545
 30
0.0
 10
314.2122413720834
 20
185.7645223512562
 30
0.0
 10
314.2121312902786
 20
185.7706386279343
 30
0.0
  0
LINE
  5
273
330
1F
100
AcDbEntity
  8
0
  6
SLD-Сплошная
 62
     7
370
    25
100
AcDbLine
 10
314.2139833489
 20
179.4460196209
 30
0.0
 11
314.2139833489
 21
179.771552457
 31
0.0
  0
SPLINE
  5
274
330
1F
100
AcDbEntity
  8
0
  6
SLD-Сплошная
 62
     7
370
    25
100
AcDbSpline
210
0.0
220
0.0
230
1.0
 70
     8
 71
     3
 72
    10
 73
     6
 74
     0
 42
0.00000001
 43
0.00000001
 40
0.0
 40
0.0
 40
0.0
 40
0.0
 40
0.5
 40
0.5
 40
1.0
 40
1.0
 40
1.0
 40
1.0
 10
314.2138017966971
 20
176.4606533702331
 30
0.0
 10
314.2138612111499
 20
176.9308413003913
 30
0.0
 10
314.2139070064744
 20
177.4234898338681
 30
0.0
 10
314.2139680804313
 20
178.4277635707141
 30
0.0
 10
314.2139833489205
 20
178.9392219813961
 30
0.0
 10
314.2139833489205
 20
179.4460196209485
 30
0.0
  0
SPLINE
  5
275
330
1F
100
AcDbEntity
  8
0
  6
SLD-Сплошная
 62
     7
370
    25
100
AcDbSpline
210
0.0
220
0.0
230
1.0
 70
     8
 71
     3
 72
     8
 73
     4
 74
     0
 42
0.00000001
 43
0.00000001
 40
0.0
 40
0.0
 40
0.0
 40
0.0
 40
1.0
 40
1.0
 40
1.0
 40
1.0
 10
314.2132915539353
 20
171.7599201993204
 30
0.0
 10
314.2134369423103
 20
173.3518174393223
 30
0.0
 10
314.2136074441825
 20
174.9226066136632
 30
0.0
 10
314.2138017966971
 20
176.4606533702331
 30
0.0
  0
LWPOLYLINE
  5
276
330
1F
100
AcDbEntity
  8
0
  6
SLD-Сплошная
 62
     7
370
    25
100
AcDbPolyline
 90
        3
 70
   128
 43
0.0
 10
314.2132915539
 20
171.7599201993
 10
314.2107409416
 20
171.7614265937
 10
314.208736889
 20
171.7626101206
  0
LINE
  5
277
330
1F
100
AcDbEntity
  8
0
  6
SLD-Сплошная
 62
     7
370
    25
100
AcDbLine
 10
314.208736889
 20
171.7626101206
 30
0.0
 11
314.208736889
 21
185.95923562
 31
0.0
  0
LINE
  5
278
330
1F
100
AcDbEntity
  8
0
  6
SLD-Сплошная
 62
     7
370
    25
100
AcDbLine
 10
314.208736889
 20
185.95923562
 30
0.0
 11
314.2121312903
 21
185.7706386279
 31
0.0
  0
SPLINE
  5
279
330
1F
100
AcDbEntity
  8
0
  6
SLD-Сплошная
 62
     7
370
    25
100
AcDbSpline
210
0.0
220
0.0
230
1.0
 70
    24
 71
     3
 72
    10
 73
     6
 74
     0
 42
0.00000001
 43
0.00000001
 40
0.0
 40
0.0
 40
0.0
 40
0.0
 40
0.5
 40
0.5
 40
1.0
 40
1.0
 40
1.0
 40
1.0
 10
316.5002364733177
 20
176.6472387609028
 30
0.0
 10
316.5002364733177
 20
177.088039945426
 30
0.0
 10
316.5002364733177
 20
177.5498979455606
 30
0.0
 10
316.5002364733177
 20
178.4914045738538
 30
0.0
 10
316.5002364733177
 20
178.9708968338681
 30
0.0
 10
316.5002364733177
 20
179.4460196209485
 30
0.0
  0
LINE
  5
27A
330
1F
100
AcDbEntity
  8
0
  6
SLD-Сплошная
 62
     7
370
    25
100
AcDbLine
 10
339.7864895977
 20
179.4460196209
 30
0.0
 11
339.7864895977
 21
179.771552457
 31
0.0
  0
SPLINE
  5
27B
330
1F
100
AcDbEntity
  8
0
  6
SLD-Сплошная
 62
     7
370
    25
100
AcDbSpline
210
0.0
220
0.0
230
1.0
 70
     8
 71
     3
 72
    22
 73
    18
 74
     0
 42
0.00000001
 43
0.00000001
 40
0.0
 40
0.0
 40
0.0
 40
0.0
 40
0.125
 40
0.125
 40
0.25
 40
0.25
 40
0.375
 40
0.375
 40
0.5
 40
0.5
 40
0.625
 40
0.625
 40
0.75
 40
0.75
 40
0.875
 40
0.875
 40
1.0
 40
1.0
 40
1.0
 40
1.0
 10
339.7864895977148
 20
179.771552456996
 30
0.0
 10
339.7864895977148
 20
180.1220070891459
 30
0.0
 10
339.7864992990448
 20
180.4852873832367
 30
0.0
 10
339.7865416465893
 20
181.2208555173142
 30
0.0
 10
339.7865743283538
 20
181.5930705341308
 30
0.0
 10
339.7866642680762
 20
182.3243911558619
 30
0.0
 10
339.7867215462229
 20
182.6833552013739
 30
0.0
 10
339.7868594281217
 20
183.3638482474716
 30
0.0
 10
339.7869400228708
 20
183.685209579923
 30
0.0
 10
339.7871201929332
 20
184.2688065056672
 30
0.0
 10
339.7872197296279
 20
184.5309170074223
 30
0.0
 10
339.7874310738991
 20
184.9816181039707
 30
0.0
 10
339.7875428289665
 20
185.1701771196003
 30
0.0
 10
339.7877709754665
 20
185.4691838399745
 30
0.0
 10
339.7878873220814
 20
185.5796933274288
 30
0.0
 10
339.7881176333717
 20
185.7273066475545
 30
0.0
 10
339.7882315745519
 20
185.7645223512562
 30
0.0
 10
339.7883416563567
 20
185.7706386279343
 30
0.0
  0
LINE
  5
27C
330
1F
100
AcDbEntity
  8
0
  6
SLD-Сплошная
 62
     7
370
    25
100
AcDbLine
 10
339.7917360576
 20
185.95923562
 30
0.0
 11
339.7883416564
 21
185.7706386279
 31
0.0
  0
LINE
  5
27D
330
1F
100
AcDbEntity
  8
0
  6
SLD-Сплошная
 62
     7
370
    25
100
AcDbLine
 10
339.7917360576
 20
171.7626101206
 30
0.0
 11
339.7917360576
 21
185.95923562
 31
0.0
  0
LWPOLYLINE
  5
27E
330
1F
100
AcDbEntity
  8
0
  6
SLD-Сплошная
 62
     7
370
    25
100
AcDbPolyline
 90
        3
 70
   128
 43
0.0
 10
339.7871813927
 20
171.7599201993
 10
339.7897320051
 20
171.7614265937
 10
339.7917360576
 20
171.7626101206
  0
SPLINE
  5
27F
330
1F
100
AcDbEntity
  8
0
  6
SLD-Сплошная
 62
     7
370
    25
100
AcDbSpline
210
0.0
220
0.0
230
1.0
 70
     8
 71
     3
 72
     8
 73
     4
 74
     0
 42
0.00000001
 43
0.00000001
 40
0.0
 40
0.0
 40
0.0
 40
0.0
 40
1.0
 40
1.0
 40
1.0
 40
1.0
 10
339.7871813926999
 20
171.7599201993204
 30
0.0
 10
339.787036004325
 20
173.3518174393223
 30
0.0
 10
339.7868655024528
 20
174.9226066136632
 30
0.0
 10
339.7866711499383
 20
176.4606533702331
 30
0.0
  0
SPLINE
  5
280
330
1F
100
AcDbEntity
  8
0
  6
SLD-Сплошная
 62
     7
370
    25
100
AcDbSpline
210
0.0
220
0.0
230
1.0
 70
    24
 71
     3
 72
    10
 73
     6
 74
     0
 42
0.00000001
 43
0.00000001
 40
0.0
 40
0.0
 40
0.0
 40
0.0
 40
0.5
 40
0.5
 40
1.0
 40
1.0
 40
1.0
 40
1.0
 10
337.5002364733177
 20
179.4460196209485
 30
0.0
 10
337.5002364733177
 20
178.9708968338681
 30
0.0
 10
337.5002364733177
 20
178.4914045738538
 30
0.0
 10
337.5002364733177
 20
177.5498979455606
 30
0.0
 10
337.5002364733177
 20
177.0880399454261
 30
0.0
 10
337.5002364733177
 20
176.6472387609028
 30
0.0
  0
SPLINE
  5
281
330
1F
100
AcDbEntity
  8
0
  6
SLD-Сплошная
 62
     7
370
    25
100
AcDbSpline
210
0.0
220
0.0
230
1.0
 70
    24
 71
     3
 72
    18
 73
    14
 74
     0
 42
0.00000001
 43
0.00000001
 40
0.0
 40
0.0
 40
0.0
 40
0.0
 40
0.2500000000000001
 40
0.2500000000000001
 40
0.3749999999999997
 40
0.3749999999999997
 40
0.4999999999999993
 40
0.4999999999999993
 40
0.6249999999999989
 40
0.6249999999999989
 40
0.7499999999999986
 40
0.7499999999999986
 40
1.0
 40
1.0
 40
1.0
 40
1.0
 10
337.5002364733177
 20
185.2707147803562
 30
0.0
 10
337.5002364733177
 20
185.2595016064463
 30
0.0
 10
337.5002364733177
 20
185.1314259715645
 30
0.0
 10
337.5002364733177
 20
184.72029173105
 30
0.0
 10
337.5002364733177
 20
184.5474459667229
 30
0.0
 10
337.5002364733177
 20
184.1343032948869
 30
0.0
 10
337.5002364733177
 20
183.8940353349447
 30
0.0
 10
337.5002364733177
 20
183.3590714863458
 30
0.0
 10
337.5002364733177
 20
183.064490264932
 30
0.0
 10
337.5002364733177
 20
182.4407049726757
 30
0.0
 10
337.5002364733177
 20
182.1116545976231
 30
0.0
 10
337.5002364733177
 20
181.1060887427429
 30
0.0
 10
337.5002364733177
 20
180.4140526159375
 30
0.0
 10
337.5002364733177
 20
179.771552456996
 30
0.0
  0
LINE
  5
282
330
1F
100
AcDbEntity
  8
0
  6
SLD-Сплошная
 62
     7
370
    25
100
AcDbLine
 10
316.5002364733
 20
179.4460196209
 30
0.0
 11
316.5002364733
 21
179.771552457
 31
0.0
  0
LINE
  5
283
330
1F
100
AcDbEntity
  8
0
  6
SLD-Сплошная
 62
     7
370
    25
100
AcDbLine
 10
337.5002364733
 20
179.771552457
 30
0.0
 11
337.5002364733
 21
179.4460196209
 31
0.0
  0
SPLINE
  5
284
330
1F
100
AcDbEntity
  8
0
  6
SLD-Сплошная
 62
     7
370
    25
100
AcDbSpline
210
0.0
220
0.0
230
1.0
 70
     8
 71
     3
 72
     8
 73
     4
 74
     0
 42
0.00000001
 43
0.00000001
 40
0.0
 40
0.0
 40
0.0
 40
0.0
 40
1.0
 40
1.0
 40
1.0
 40
1.0
 10
335.9713704807718
 20
125.2290403696471
 30
0.0
 10
337.2102242485576
 20
125.7053188604358
 30
0.0
 10
338.4148180968867
 20
126.2823833409614
 30
0.0
 10
339.5623427231629
 20
126.9493069429088
 30
0.0
  0
LINE
  5
285
330
1F
100
AcDbEntity
  8
0
  6
SLD-Сплошная
 62
     7
370
    25
100
AcDbLine
 10
336.2678958053
 20
124.4599036176
 30
0.0
 11
335.9713704808
 21
125.2290403696
 31
0.0
  0
SPLINE
  5
286
330
1F
100
AcDbEntity
  8
0
  6
SLD-Сплошная
 62
     7
370
    25
100
AcDbSpline
210
0.0
220
0.0
230
1.0
 70
     8
 71
     3
 72
    18
 73
    14
 74
     0
 42
0.00000001
 43
0.00000001
 40
0.0
 40
0.0
 40
0.0
 40
0.0
 40
0.0625000000000001
 40
0.0625000000000001
 40
0.125
 40
0.25
 40
0.4999999999999999
 40
0.4999999999999999
 40
0.7499999999999999
 40
0.875
 40
0.9375
 40
0.9375
 40
1.0
 40
1.0
 40
1.0
 40
1.0
 10
336.2678958052664
 20
124.4599036176192
 30
0.0
 10
335.8966126812895
 20
124.3253961611481
 30
0.0
 10
335.5257880875021
 20
124.1894496612779
 30
0.0
 10
334.7764068194661
 20
123.9401038603806
 30
0.0
 10
333.6437102923788
 20
123.5920466369902
 30
0.0
 10
330.9489660250143
 20
122.9631517485728
 30
0.0
 10
328.5798497466727
 20
122.7433936278217
 30
0.0
 10
325.4206231999626
 20
122.7433936278217
 30
0.0
 10
323.051506921621
 20
122.9631517485728
 30
0.0
 10
320.3567626542565
 20
123.5920466369901
 30
0.0
 10
319.2240661271692
 20
123.9401038603806
 30
0.0
 10
318.4746848591333
 20
124.1894496612779
 30
0.0
 10
318.1038602653459
 20
124.3253961611481
 30
0.0
 10
317.7325771413689
 20
124.4599036176192
 30
0.0
  0
LINE
  5
287
330
1F
100
AcDbEntity
  8
0
  6
SLD-Сплошная
 62
     7
370
    25
100
AcDbLine
 10
317.7325771414
 20
124.4599036176
 30
0.0
 11
318.0291024659
 21
125.2290403696
 31
0.0
  0
SPLINE
  5
288
330
1F
100
AcDbEntity
  8
0
  6
SLD-Сплошная
 62
     7
370
    25
100
AcDbSpline
210
0.0
220
0.0
230
1.0
 70
     8
 71
     3
 72
     8
 73
     4
 74
     0
 42
0.00000001
 43
0.00000001
 40
0.0
 40
0.0
 40
0.0
 40
0.0
 40
1.0
 40
1.0
 40
1.0
 40
1.0
 10
318.0291024658634
 20
125.2290403696471
 30
0.0
 10
316.7902486980777
 20
125.7053188604358
 30
0.0
 10
315.5856548497487
 20
126.2823833409614
 30
0.0
 10
314.4381302234725
 20
126.9493069429088
 30
0.0
  0
LINE
  5
289
330
1F
100
AcDbEntity
  8
0
  6
SLD-Сплошная
 62
     7
370
    25
100
AcDbLine
 10
340.041184081
 20
127.2347914945
 30
0.0
 11
337.6759542977
 21
154.269491626
 31
0.0
  0
SPLINE
  5
28A
330
1F
100
AcDbEntity
  8
0
  6
SLD-Сплошная
 62
     7
370
    25
100
AcDbSpline
210
0.0
220
0.0
230
1.0
 70
     8
 71
     3
 72
    15
 73
    11
 74
     0
 42
0.00000001
 43
0.00000001
 40
0.0
 40
0.0
 40
0.0
 40
0.0
 40
0.1004584111455271
 40
0.1840068712179631
 40
0.2506431494921372
 40
0.3821902199796015
 40
0.500231100157279
 40
0.6761221300376893
 40
0.8419135447319638
 40
1.0
 40
1.0
 40
1.0
 40
1.0
 10
339.5623427231629
 20
126.9493069429087
 30
0.0
 10
339.5862527410704
 20
126.9632024579036
 30
0.0
 10
339.6300480543326
 20
126.9886544853546
 30
0.0
 10
339.6887117628451
 20
127.0231534068771
 30
0.0
 10
339.7528786517627
 20
127.0612541314471
 30
0.0
 10
339.8217594888595
 20
127.1020450649964
 30
0.0
 10
339.9049607953905
 20
127.1521153548199
 30
0.0
 10
339.978456166308
 20
127.1961161994724
 30
0.0
 10
340.0315099087731
 20
127.2285241521677
 30
0.0
 10
340.0380109092281
 20
127.2327357781789
 30
0.0
 10
340.0411840810097
 20
127.2347914945114
 30
0.0
  0
SPLINE
  5
28B
330
1F
100
AcDbEntity
  8
0
  6
SLD-Сплошная
 62
     7
370
    25
100
AcDbSpline
210
0.0
220
0.0
230
1.0
 70
     8
 71
     3
 72
    16
 73
    12
 74
     0
 42
0.00000001
 43
0.00000001
 40
0.0
 40
0.0
 40
0.0
 40
0.0
 40
0.0783438972030397
 40
0.1582907044480274
 40
0.2401736516706478
 40
0.3243029567544415
 40
0.4109647091022036
 40
0.5004206960754638
 40
0.6312367075363017
 40
0.7977101405843969
 40
1.0
 40
1.0
 40
1.0
 40
1.0
 10
313.9592888656256
 20
127.2347914945114
 30
0.0
 10
313.9600559773105
 20
127.2342920661538
 30
0.0
 10
313.9616058957258
 20
127.2332829911733
 30
0.0
 10
313.9743049221343
 20
127.2252950740735
 30
0.0
 10
313.9949099090996
 20
127.2126349426949
 30
0.0
 10
314.0242543358908
 20
127.1948731823947
 30
0.0
 10
314.0619907103811
 20
127.1721844955908
 30
0.0
 10
314.1144248906905
 20
127.1408555970217
 30
0.0
 10
314.1903343709522
 20
127.0942340567858
 30
0.0
 10
314.3014601113848
 20
127.0282861980542
 30
0.0
 10
314.3897162051459
 20
126.9772845529921
 30
0.0
 10
314.4381302234725
 20
126.9493069429087
 30
0.0
  0
LINE
  5
28C
330
1F
100
AcDbEntity
  8
0
  6
SLD-Сплошная
 62
     7
370
    25
100
AcDbLine
 10
316.324518649
 20
154.269491626
 30
0.0
 11
313.9592888656
 21
127.2347914945
 31
0.0
  0
SPLINE
  5
28D
330
1F
100
AcDbEntity
  8
0
  6
SLD-Сплошная
 62
     7
370
    25
100
AcDbSpline
210
0.0
220
0.0
230
1.0
 70
    24
 71
     3
 72
     8
 73
     4
 74
     0
 42
0.00000001
 43
0.00000001
 40
0.0
 40
0.0
 40
0.0
 40
0.0
 40
1.0
 40
1.0
 40
1.0
 40
1.0
 10
316.5002364733177
 20
172.7773232139876
 30
0.0
 10
316.5002364733177
 20
174.0848881163374
 30
0.0
 10
316.5002364733177
 20
175.3769942901191
 30
0.0
 10
316.5002364733177
 20
176.6472387609028
 30
0.0
  0
SPLINE
  5
28E
330
1F
100
AcDbEntity
  8
0
  6
SLD-Сплошная
 62
     7
370
    25
100
AcDbSpline
210
0.0
220
0.0
230
1.0
 70
    24
 71
     3
 72
     8
 73
     4
 74
     0
 42
0.00000001
 43
0.00000001
 40
0.0
 40
0.0
 40
0.0
 40
0.0
 40
1.0
 40
1.0
 40
1.0
 40
1.0
 10
337.5002364733177
 20
176.6472387609028
 30
0.0
 10
337.5002364733177
 20
175.376994290119
 30
0.0
 10
337.5002364733177
 20
174.0848881163374
 30
0.0
 10
337.5002364733177
 20
172.7773232139876
 30
0.0
  0
SPLINE
  5
28F
330
1F
100
AcDbEntity
  8
0
  6
SLD-Сплошная
 62
     7
370
    25
100
AcDbSpline
210
0.0
220
0.0
230
1.0
 70
     8
 71
     3
 72
    25
 73
    21
 74
     0
 42
0.00000001
 43
0.00000001
 40
0.0
 40
0.0
 40
0.0
 40
0.0
 40
0.0297549294460626
 40
0.0599127238356394
 40
0.090475259993189
 40
0.1214443410045776
 40
0.1528216997158365
 40
0.184609002047289
 40
0.2168078501329232
 40
0.2494197852944304
 40
0.3687284586790194
 40
0.4998172345667032
 40
0.5598189794042117
 40
0.6251352260965901
 40
0.749728893415139
 40
0.8120783858205093
 40
0.8744296466359764
 40
0.9161547382301731
 40
0.9580114418349859
 40
1.0
 40
1.0
 40
1.0
 40
1.0
 10
302.8970866591801
 20
159.5470891383877
 30
0.0
 10
302.9680507571125
 20
159.7005628340674
 30
0.0
 10
303.1109397667934
 20
160.0095881726069
 30
0.0
 10
303.337971983509
 20
160.4706960683841
 30
0.0
 10
303.5763974855785
 20
160.9335554782897
 30
0.0
 10
303.8272973824734
 20
161.3974180204507
 30
0.0
 10
304.090699964922
 20
161.8620158650583
 30
0.0
 10
304.3669111120649
 20
162.3269296829204
 30
0.0
 10
304.656156088547
 20
162.7917693879396
 30
0.0
 10
305.2254226132349
 20
163.6655788361775
 30
0.0
 10
306.1644791126317
 20
164.9639481383324
 30
0.0
 10
307.3028835166413
 20
166.2982430590145
 30
0.0
 10
308.3061621583
 20
167.3384612606321
 30
0.0
 10
309.3230434774268
 20
168.3117607374809
 30
0.0
 10
310.4071307995796
 20
169.2303558099204
 30
0.0
 10
311.5292785338489
 20
170.0717072312491
 30
0.0
 10
312.3000751009478
 20
170.6033456270357
 30
0.0
 10
312.9912235002728
 20
171.0464767233838
 30
0.0
 10
313.5954814085875
 20
171.4131297409491
 30
0.0
 10
314.0071390486996
 20
171.644202252112
 30
0.0
 10
314.2132915539344
 20
171.759920199322
 30
0.0
  0
SPLINE
  5
290
330
1F
100
AcDbEntity
  8
0
  6
SLD-Сплошная
 62
     7
370
    25
100
AcDbSpline
210
0.0
220
0.0
230
1.0
 70
     8
 71
     3
 72
    25
 73
    21
 74
     0
 42
0.00000001
 43
0.00000001
 40
0.0
 40
0.0
 40
0.0
 40
0.0
 40
0.0277137913902192
 40
0.0554204615731617
 40
0.0831286288287574
 40
0.1108469100415684
 40
0.1385839126710858
 40
0.1663482267658715
 40
0.1941484170584201
 40
0.2219930151767359
 40
0.2498905120073833
 40
0.3745021179285503
 40
0.4994617273758915
 40
0.6246397975016373
 40
0.7497942425931176
 40
0.800031851756727
 40
0.8501227559525798
 40
0.9001153024437296
 40
0.9500581242983076
 40
1.0
 40
1.0
 40
1.0
 40
1.0
 10
351.1033862874536
 20
159.5470891383871
 30
0.0
 10
351.0373506599232
 20
159.690059814085
 30
0.0
 10
350.9052963730705
 20
159.9759644283991
 30
0.0
 10
350.6976650337469
 20
160.400108876328
 30
0.0
 10
350.4831047312651
 20
160.8206308902782
 30
0.0
 10
350.2609257224852
 20
161.2371800932047
 30
0.0
 10
350.0313130486342
 20
161.6498205064589
 30
0.0
 10
349.7942168619176
 20
162.0585074323333
 30
0.0
 10
349.5496518948189
 20
162.4632255077734
 30
0.0
 10
349.2976096431078
 20
162.8639596185668
 30
0.0
 10
348.738455519129
 20
163.7187731617097
 30
0.0
 10
347.8153765087217
 20
164.9902200354791
 30
0.0
 10
346.4383239604851
 20
166.5979497840246
 30
0.0
 10
344.9386276363447
 20
168.0907633113082
 30
0.0
 10
343.646877498525
 20
169.1850860930136
 30
0.0
 10
342.6350490093045
 20
169.9499443772005
 30
0.0
 10
341.9445828724029
 20
170.4381884211505
 30
0.0
 10
341.2398949556951
 20
170.9027890393288
 30
0.0
 10
340.5221817851198
 20
171.3459930404001
 30
0.0
 10
340.0321799763339
 20
171.6219453509952
 30
0.0
 10
339.7871813926999
 20
171.7599201993204
 30
0.0
  0
SPLINE
  5
291
330
1F
100
AcDbEntity
  8
0
  6
SLD-Сплошная
 62
     7
370
    25
100
AcDbSpline
210
0.0
220
0.0
230
1.0
 70
     8
 71
     3
 72
    42
 73
    38
 74
     0
 42
0.00000001
 43
0.00000001
 40
0.0
 40
0.0
 40
0.0
 40
0.0
 40
0.0286848549674083
 40
0.0572839004214238
 40
0.0858089638341418
 40
0.1142717127007673
 40
0.1426836733784672
 40
0.1710562483589025
 40
0.199400732129762
 40
0.2277283257771435
 40
0.2560501504775767
 40
0.2843772600257319
 40
0.3127206525413219
 40
0.3410912814962707
 40
0.36950006620084
 40
0.3979579018849867
 40
0.4264756695087487
 40
0.4550642454328686
 40
0.483734511078162
 40
0.5124855166966988
 40
0.5412449400155517
 40
0.5699985828326238
 40
0.5987461690021807
 40
0.6274871630031594
 40
0.6562208024569004
 40
0.6849461298599655
 40
0.7136620237309269
 40
0.7423672293751584
 40
0.7710603894778414
 40
0.7997400747428002
 40
0.8284048148035978
 40
0.8570531296437797
 40
0.8856835617753746
 40
0.9142947094389787
 40
0.9428852611050806
 40
0.9714540315748963
 40
1.0
 40
1.0
 40
1.0
 40
1.0
 10
334.3567304550659
 20
128.8687824844314
 30
0.0
 10
334.2219095846888
 20
128.8188517136026
 30
0.0
 10
333.9526711547863
 20
128.7191395377044
 30
0.0
 10
333.5455896612512
 20
128.5802909365225
 30
0.0
 10
333.1370168396763
 20
128.4495723961316
 30
0.0
 10
332.726686429081
 20
128.3277003988181
 30
0.0
 10
332.3146887193553
 20
128.2144510715502
 30
0.0
 10
331.9010185396084
 20
128.1098585008668
 30
0.0
 10
331.485696000912
 20
128.0138944857797
 30
0.0
 10
331.0687342756009
 20
127.9265538753208
 30
0.0
 10
330.6501482510911
 20
127.8478315549066
 30
0.0
 10
330.229952253433
 20
127.7777284311859
 30
0.0
 10
329.8081606948219
 20
127.7162496962159
 30
0.0
 10
329.3847879364835
 20
127.6634051520431
 30
0.0
 10
328.9598483664016
 20
127.6192091382198
 30
0.0
 10
328.5333564005787
 20
127.5836801142676
 30
0.0
 10
328.1053265749472
 20
127.5568421487596
 30
0.0
 10
327.6757733507029
 20
127.5387192273354
 30
0.0
 10
327.2447713414541
 20
127.5293578824074
 30
0.0
 10
326.8128101505655
 20
127.5287411777518
 30
0.0
 10
326.3805139695058
 20
127.537301326283
 30
0.0
 10
325.9485107472448
 20
127.5549255683261
 30
0.0
 10
325.517061377992
 20
127.581547892729
 30
0.0
 10
325.0863566224867
 20
127.6170949472779
 30
0.0
 10
324.6565875117635
 20
127.6615013637993
 30
0.0
 10
324.2279457779272
 20
127.7147052040856
 30
0.0
 10
323.8006239560455
 20
127.7766491440641
 30
0.0
 10
323.3748155659693
 20
127.8472801064286
 30
0.0
 10
322.9507153363459
 20
127.9265494808814
 30
0.0
 10
322.5285192201361
 20
128.0144126635202
 30
0.0
 10
322.1084252484962
 20
128.1108308496286
 30
0.0
 10
321.6906312964584
 20
128.215764619602
 30
0.0
 10
321.2753444158633
 20
128.3291981955639
 30
0.0
 10
320.8627470953433
 20
128.4510494453942
 30
0.0
 10
320.4531241716969
 20
128.5815059497245
 30
0.0
 10
320.0463908988865
 20
128.7197727970832
 30
0.0
 10
319.7779228656806
 20
128.8191257022298
 30
0.0
 10
319.6437424396238
 20
128.8687823223621
 30
0.0
  0
LINE
  5
292
330
1F
100
AcDbEntity
  8
0
  6
SLD-Сплошная
 62
     7
370
    25
100
AcDbLine
 10
317.7325771414
 20
124.5471423923
 30
0.0
 11
317.7325771414
 21
124.4599036176
 31
0.0
  0
LINE
  5
293
330
1F
100
AcDbEntity
  8
0
  6
SLD-Сплошная
 62
     7
370
    25
100
AcDbLine
 10
317.9998179126
 20
125.2403199453
 30
0.0
 11
317.7325771414
 21
124.5471423923
 31
0.0
  0
LINE
  5
294
330
1F
100
AcDbEntity
  8
0
  6
SLD-Сплошная
 62
     7
370
    25
100
AcDbLine
 10
336.2678958053
 20
124.5471423923
 30
0.0
 11
336.000655034
 21
125.2403199453
 31
0.0
  0
LINE
  5
295
330
1F
100
AcDbEntity
  8
0
  6
SLD-Сплошная
 62
     7
370
    25
100
AcDbLine
 10
336.2678958053
 20
124.5471423923
 30
0.0
 11
336.2678958053
 21
124.4599036176
 31
0.0
  0
ARC
  5
296
330
1F
100
AcDbEntity
  8
0
  6
SLD-Сплошная
 62
     7
370
    25
100
AcDbCircle
 10
327.0002364733
 20
148.5639660096
 30
0.0
 40
23.40923366247702
100
AcDbArc
 50
303.3954496134
 51
63.8962900608
  0
LINE
  5
297
330
1F
100
AcDbEntity
  8
0
  6
SLD-Сплошная
 62
     7
370
    25
100
AcDbLine
 10
327.8658736883
 20
157.5639660096
 30
0.0
 11
329.3546236883
 21
157.5639660096
 31
0.0
  0
LINE
  5
298
330
1F
100
AcDbEntity
  8
0
  6
SLD-Сплошная
 62
     7
370
    25
100
AcDbLine
 10
329.3546236883
 20
157.5639660096
 30
0.0
 11
329.3546236883
 21
155.2841371475
 31
0.0
  0
LINE
  5
299
330
1F
100
AcDbEntity
  8
0
  6
SLD-Сплошная
 62
     7
370
    25
100
AcDbLine
 10
329.3546236883
 20
155.2841371475
 30
0.0
 11
329.4046236883
 21
155.2841371475
 31
0.0
  0
LINE
  5
29A
330
1F
100
AcDbEntity
  8
0
  6
SLD-Сплошная
 62
     7
370
    25
100
AcDbLine
 10
329.4046236883
 20
155.2841371475
 30
0.0
 11
331.3127883328
 21
157.5639660096
 31
0.0
  0
LINE
  5
29B
330
1F
100
AcDbEntity
  8
0
  6
SLD-Сплошная
 62
     7
370
    25
100
AcDbLine
 10
331.3127883328
 20
157.5639660096
 30
0.0
 11
332.9769114733
 21
157.5639660096
 31
0.0
  0
LINE
  5
29C
330
1F
100
AcDbEntity
  8
0
  6
SLD-Сплошная
 62
     7
370
    25
100
AcDbLine
 10
332.9769114733
 20
157.5639660096
 30
0.0
 11
331.0187468289
 21
155.2243983596
 31
0.0
  0
LINE
  5
29D
330
1F
100
AcDbEntity
  8
0
  6
SLD-Сплошная
 62
     7
370
    25
100
AcDbLine
 10
331.0187468289
 20
155.2243983596
 30
0.0
 11
332.9769114733
 21
152.8848307096
 31
0.0
  0
LINE
  5
29E
330
1F
100
AcDbEntity
  8
0
  6
SLD-Сплошная
 62
     7
370
    25
100
AcDbLine
 10
332.9769114733
 20
152.8848307096
 30
0.0
 11
331.3127883328
 21
152.8848307096
 31
0.0
  0
LINE
  5
29F
330
1F
100
AcDbEntity
  8
0
  6
SLD-Сплошная
 62
     7
370
    25
100
AcDbLine
 10
331.3127883328
 20
152.8848307096
 30
0.0
 11
329.4046236883
 21
155.1646595716
 31
0.0
  0
LINE
  5
2A0
330
1F
100
AcDbEntity
  8
0
  6
SLD-Сплошная
 62
     7
370
    25
100
AcDbLine
 10
329.4046236883
 20
155.1646595716
 30
0.0
 11
329.3546236883
 21
155.1646595716
 31
0.0
  0
LINE
  5
2A1
330
1F
100
AcDbEntity
  8
0
  6
SLD-Сплошная
 62
     7
370
    25
100
AcDbLine
 10
329.3546236883
 20
155.1646595716
 30
0.0
 11
329.3546236883
 21
152.8848307096
 31
0.0
  0
LINE
  5
2A2
330
1F
100
AcDbEntity
  8
0
  6
SLD-Сплошная
 62
     7
370
    25
100
AcDbLine
 10
329.3546236883
 20
152.8848307096
 30
0.0
 11
327.8658736883
 21
152.8848307096
 31
0.0
  0
LINE
  5
2A3
330
1F
100
AcDbEntity
  8
0
  6
SLD-Сплошная
 62
     7
370
    25
100
AcDbLine
 10
327.8658736883
 20
152.8848307096
 30
0.0
 11
327.8658736883
 21
157.5639660096
 31
0.0
  0
ARC
  5
2A4
330
1F
100
AcDbEntity
  8
0
  6
SLD-Сплошная
 62
     7
370
    25
100
AcDbCircle
 10
332.2502364733
 20
160.0639660096
 30
0.0
 40
1.5
100
AcDbArc
 50
0.0
 51
90.0
  0
LINE
  5
2A5
330
1F
100
AcDbEntity
  8
0
  6
SLD-Сплошная
 62
     7
370
    25
100
AcDbLine
 10
321.7502364733
 20
161.5639660096
 30
0.0
 11
332.2502364733
 21
161.5639660096
 31
0.0
  0
ARC
  5
2A6
330
1F
100
AcDbEntity
  8
0
  6
SLD-Сплошная
 62
     7
370
    25
100
AcDbCircle
 10
321.7502364733
 20
160.0639660096
 30
0.0
 40
1.5
100
AcDbArc
 50
90.0
 51
180.0
  0
LINE
  5
2A7
330
1F
100
AcDbEntity
  8
0
  6
SLD-Сплошная
 62
     7
370
    25
100
AcDbLine
 10
320.2502364733
 20
143.0639660096
 30
0.0
 11
320.2502364733
 21
160.0639660096
 31
0.0
  0
ARC
  5
2A8
330
1F
100
AcDbEntity
  8
0
  6
SLD-Сплошная
 62
     7
370
    25
100
AcDbCircle
 10
321.7502364733
 20
143.0639660096
 30
0.0
 40
1.5
100
AcDbArc
 50
180.0
 51
270.0
  0
LINE
  5
2A9
330
1F
100
AcDbEntity
  8
0
  6
SLD-Сплошная
 62
     7
370
    25
100
AcDbLine
 10
332.2502364733
 20
141.5639660096
 30
0.0
 11
321.7502364733
 21
141.5639660096
 31
0.0
  0
ARC
  5
2AA
330
1F
100
AcDbEntity
  8
0
  6
SLD-Сплошная
 62
     7
370
    25
100
AcDbCircle
 10
332.2502364733
 20
143.0639660096
 30
0.0
 40
1.5
100
AcDbArc
 50
270.0
 51
0.0
  0
LINE
  5
2AB
330
1F
100
AcDbEntity
  8
0
  6
SLD-Сплошная
 62
     7
370
    25
100
AcDbLine
 10
333.7502364733
 20
160.0639660096
 30
0.0
 11
333.7502364733
 21
143.0639660096
 31
0.0
  0
LINE
  5
2AC
330
1F
100
AcDbEntity
  8
0
  6
SLD-Сплошная
 62
     7
370
    25
100
AcDbLine
 10
322.9376864733
 20
157.5639660096
 30
0.0
 11
327.4404935383
 21
157.5639660096
 31
0.0
  0
LINE
  5
2AD
330
1F
100
AcDbEntity
  8
0
  6
SLD-Сплошная
 62
     7
370
    25
100
AcDbLine
 10
327.4404935383
 20
157.5639660096
 30
0.0
 11
327.4404935383
 21
156.2878410096
 31
0.0
  0
LINE
  5
2AE
330
1F
100
AcDbEntity
  8
0
  6
SLD-Сплошная
 62
     7
370
    25
100
AcDbLine
 10
327.4404935383
 20
156.2878410096
 30
0.0
 11
322.9376864733
 21
156.2878410096
 31
0.0
  0
LINE
  5
2AF
330
1F
100
AcDbEntity
  8
0
  6
SLD-Сплошная
 62
     7
370
    25
100
AcDbLine
 10
322.9376864733
 20
156.2878410096
 30
0.0
 11
322.9376864733
 21
157.5639660096
 31
0.0
  0
LINE
  5
2B0
330
1F
100
AcDbEntity
  8
0
  6
SLD-Сплошная
 62
     7
370
    25
100
AcDbLine
 10
322.5123114733
 20
152.8848307096
 30
0.0
 11
321.0235614733
 21
152.8848307096
 31
0.0
  0
LINE
  5
2B1
330
1F
100
AcDbEntity
  8
0
  6
SLD-Сплошная
 62
     7
370
    25
100
AcDbLine
 10
321.0235614733
 20
152.8848307096
 30
0.0
 11
321.0235614733
 21
155.8624608596
 31
0.0
  0
LINE
  5
2B2
330
1F
100
AcDbEntity
  8
0
  6
SLD-Сплошная
 62
     7
370
    25
100
AcDbLine
 10
321.0235614733
 20
155.8624608596
 30
0.0
 11
322.5123114733
 21
155.8624608596
 31
0.0
  0
LINE
  5
2B3
330
1F
100
AcDbEntity
  8
0
  6
SLD-Сплошная
 62
     7
370
    25
100
AcDbLine
 10
322.5123114733
 20
155.8624608596
 30
0.0
 11
322.5123114733
 21
152.8848307096
 31
0.0
  0
ARC
  5
2B4
330
1F
100
AcDbEntity
  8
0
  6
SLD-Сплошная
 62
     7
370
    25
100
AcDbCircle
 10
327.0002364733
 20
148.5639660096
 30
0.0
 40
23.52618259736238
100
AcDbArc
 50
180.0
 51
236.7584101818
  0
ARC
  5
2B5
330
1F
100
AcDbEntity
  8
0
  6
SLD-Сплошная
 62
     7
370
    25
100
AcDbCircle
 10
327.0002364733
 20
148.5639660096
 30
0.0
 40
23.40923366247702
100
AcDbArc
 50
180.0
 51
236.6045503866
  0
ARC
  5
2B6
330
1F
100
AcDbEntity
  8
0
  6
SLD-Сплошная
 62
     7
370
    25
100
AcDbCircle
 10
327.0002364733
 20
148.5639660096
 30
0.0
 40
23.52618259736241
100
AcDbArc
 50
303.2415898182
 51
64.0357607943
  0
LINE
  5
2B7
330
1F
100
AcDbEntity
  8
0
  6
SLD-Сплошная
 62
     7
370
    25
100
AcDbLine
 10
321.0235614733
 20
157.5639660096
 30
0.0
 11
322.5123114733
 21
157.5639660096
 31
0.0
  0
LINE
  5
2B8
330
1F
100
AcDbEntity
  8
0
  6
SLD-Сплошная
 62
     7
370
    25
100
AcDbLine
 10
321.0235614733
 20
156.2878410096
 30
0.0
 11
321.0235614733
 21
157.5639660096
 31
0.0
  0
LINE
  5
2B9
330
1F
100
AcDbEntity
  8
0
  6
SLD-Сплошная
 62
     7
370
    25
100
AcDbLine
 10
322.5123114733
 20
157.5639660096
 30
0.0
 11
322.5123114733
 21
156.2878410096
 31
0.0
  0
LINE
  5
2BA
330
1F
100
AcDbEntity
  8
0
  6
SLD-Сплошная
 62
     7
370
    25
100
AcDbLine
 10
322.5123114733
 20
156.2878410096
 30
0.0
 11
321.0235614733
 21
156.2878410096
 31
0.0
  0
LINE
  5
2BB
330
1F
100
AcDbEntity
  8
0
  6
SLD-Сплошная
 62
     7
370
    25
100
AcDbLine
 10
327.4404935383
 20
155.8624608596
 30
0.0
 11
327.4404935383
 21
154.5863358596
 31
0.0
  0
LINE
  5
2BC
330
1F
100
AcDbEntity
  8
0
  6
SLD-Сплошная
 62
     7
370
    25
100
AcDbLine
 10
324.4264364733
 20
154.5863358596
 30
0.0
 11
324.4264364733
 21
154.1609557096
 31
0.0
  0
LINE
  5
2BD
330
1F
100
AcDbEntity
  8
0
  6
SLD-Сплошная
 62
     7
370
    25
100
AcDbLine
 10
322.9376864733
 20
155.8624608596
 30
0.0
 11
327.4404935383
 21
155.8624608596
 31
0.0
  0
LINE
  5
2BE
330
1F
100
AcDbEntity
  8
0
  6
SLD-Сплошная
 62
     7
370
    25
100
AcDbLine
 10
327.4404935383
 20
154.1609557096
 30
0.0
 11
327.4404935383
 21
152.8848307096
 31
0.0
  0
LINE
  5
2BF
330
1F
100
AcDbEntity
  8
0
  6
SLD-Сплошная
 62
     7
370
    25
100
AcDbLine
 10
324.4264364733
 20
154.1609557096
 30
0.0
 11
327.4404935383
 21
154.1609557096
 31
0.0
  0
LINE
  5
2C0
330
1F
100
AcDbEntity
  8
0
  6
SLD-Сплошная
 62
     7
370
    25
100
AcDbLine
 10
327.4404935383
 20
154.5863358596
 30
0.0
 11
324.4264364733
 21
154.5863358596
 31
0.0
  0
LINE
  5
2C1
330
1F
100
AcDbEntity
  8
0
  6
SLD-Сплошная
 62
     7
370
    25
100
AcDbLine
 10
327.4404935383
 20
152.8848307096
 30
0.0
 11
322.9376864733
 21
152.8848307096
 31
0.0
  0
LINE
  5
2C2
330
1F
100
AcDbEntity
  8
0
  6
SLD-Сплошная
 62
     7
370
    25
100
AcDbLine
 10
322.9376864733
 20
152.8848307096
 30
0.0
 11
322.9376864733
 21
155.8624608596
 31
0.0
  0
ARC
  5
2C3
330
1F
100
AcDbEntity
  8
0
  6
SLD-Сплошная
 62
     7
370
    25
100
AcDbCircle
 10
327.0002364733
 20
148.5639660096
 30
0.0
 40
23.5261825973624
100
AcDbArc
 50
115.9642392057
 51
180.0
  0
ARC
  5
2C4
330
1F
100
AcDbEntity
  8
0
  6
SLD-Сплошная
 62
     7
370
    25
100
AcDbCircle
 10
327.0002364733
 20
148.5639660096
 30
0.0
 40
23.40923366247699
100
AcDbArc
 50
116.1037099392
 51
180.0
  0
SPLINE
  5
2C5
330
1F
100
AcDbEntity
  8
0
  6
SLD-Сплошная
 62
     7
370
    25
100
AcDbSpline
210
0.0
220
0.0
230
1.0
 70
     8
 71
     3
 72
    14
 73
    10
 74
     0
 42
0.00000001
 43
0.00000001
 40
0.0
 40
0.0
 40
0.0
 40
0.0
 40
0.25
 40
0.25
 40
0.5
 40
0.5
 40
0.75
 40
0.75
 40
1.0
 40
1.0
 40
1.0
 40
1.0
 10
302.8707899862314
 20
137.6381539208429
 30
0.0
 10
302.1177143663117
 20
139.301351221998
 30
0.0
 10
301.5212144991449
 20
141.0813220610657
 30
0.0
 10
300.7172017555822
 20
144.7731268341826
 30
0.0
 10
300.5102811696958
 20
146.684166595733
 30
0.0
 10
300.5148693308661
 20
150.5067690230441
 30
0.0
 10
300.7263768474866
 20
152.4173065572221
 30
0.0
 10
301.539249598599
 20
156.1071706285827
 30
0.0
 10
302.1400206378451
 20
157.8857044173716
 30
0.0
 10
302.8970866591816
 20
159.5470891383871
 30
0.0
  0
SPLINE
  5
2C6
330
1F
100
AcDbEntity
  8
0
  6
SLD-Сплошная
 62
     7
370
    25
100
AcDbSpline
210
0.0
220
0.0
230
1.0
 70
     8
 71
     3
 72
    19
 73
    15
 74
     0
 42
0.00000001
 43
0.00000001
 40
0.0
 40
0.0
 40
0.0
 40
0.0
 40
0.0622449584615382
 40
0.124452930587828
 40
0.1866874850638914
 40
0.2490121096122244
 40
0.311490017770315
 40
0.3741839598225107
 40
0.4371560406592683
 40
0.5004675470985106
 40
0.623906893627299
 40
0.7480242825575961
 40
0.873249230505287
 40
1.0
 40
1.0
 40
1.0
 40
1.0
 10
305.3526385899304
 20
133.2993687660561
 30
0.0
 10
305.2981230362832
 20
133.3772164474136
 30
0.0
 10
305.1891243224645
 20
133.53286555256
 30
0.0
 10
305.025315153492
 20
133.7737332052734
 30
0.0
 10
304.8616116758759
 20
134.0198809949088
 30
0.0
 10
304.6981217328279
 20
134.2719062371625
 30
0.0
 10
304.5350123144749
 20
134.5297175882007
 30
0.0
 10
304.3724405875076
 20
134.7934050150866
 30
0.0
 10
304.210565794834
 20
135.0630106288905
 30
0.0
 10
303.9989594367598
 20
135.4252008314069
 30
0.0
 10
303.7403274997728
 20
135.8863684939088
 30
0.0
 10
303.4401739174075
 20
136.4537182394548
 30
0.0
 10
303.1478866318599
 20
137.0377792124613
 30
0.0
 10
302.9635276591138
 20
137.4372227504668
 30
0.0
 10
302.87078998623
 20
137.6381539208423
 30
0.0
  0
SPLINE
  5
2C7
330
1F
100
AcDbEntity
  8
0
  6
SLD-Сплошная
 62
     7
370
    25
100
AcDbSpline
210
0.0
220
0.0
230
1.0
 70
     8
 71
     3
 72
     8
 73
     4
 74
     0
 42
0.00000001
 43
0.00000001
 40
0.0
 40
0.0
 40
0.0
 40
0.0
 40
1.0
 40
1.0
 40
1.0
 40
1.0
 10
306.4748316198246
 20
131.8202551483029
 30
0.0
 10
306.0837183795647
 20
132.2998809504934
 30
0.0
 10
305.709194478528
 20
132.7935245460612
 30
0.0
 10
305.3526385899315
 20
133.2993687660568
 30
0.0
  0
SPLINE
  5
2C8
330
1F
100
AcDbEntity
  8
0
  6
SLD-Сплошная
 62
     7
370
    25
100
AcDbSpline
210
0.0
220
0.0
230
1.0
 70
     8
 71
     3
 72
    21
 73
    17
 74
     0
 42
0.00000001
 43
0.00000001
 40
0.0
 40
0.0
 40
0.0
 40
0.0
 40
0.0558684877771383
 40
0.1115583700765061
 40
0.1671165127765092
 40
0.22259011578452
 40
0.2780265950789577
 40
0.3334734620108659
 40
0.3889782013873215
 40
0.4445881498951569
 40
0.5003503764133048
 40
0.6002721700383689
 40
0.6999272390259622
 40
0.7995866088571008
 40
0.899521272928494
 40
1.0
 40
1.0
 40
1.0
 40
1.0
 10
309.9867293968944
 20
128.2610851135071
 30
0.0
 10
309.9120929348667
 20
128.3240363367511
 30
0.0
 10
309.7630586154611
 20
128.4497375350265
 30
0.0
 10
309.5426419750868
 20
128.6409954113302
 30
0.0
 10
309.3250755055559
 20
128.8337086971055
 30
0.0
 10
309.1105486177918
 20
129.0280496600759
 30
0.0
 10
308.8990111837034
 20
129.2239057981025
 30
0.0
 10
308.6904759703362
 20
129.4212413457356
 30
0.0
 10
308.4849383094058
 20
129.6199999084618
 30
0.0
 10
308.2823957724523
 20
129.8201334280142
 30
0.0
 10
308.030426476104
 20
130.0745071526863
 30
0.0
 10
307.7337448282584
 20
130.3831260251199
 30
0.0
 10
307.3985881587114
 20
130.745115833248
 30
0.0
 10
307.0769424000623
 20
131.1058426647967
 30
0.0
 10
306.7672155351821
 20
131.4652994285999
 30
0.0
 10
306.5724691511944
 20
131.7017226354065
 30
0.0
 10
306.4748316198235
 20
131.8202551483021
 30
0.0
  0
ARC
  5
2C9
330
1F
100
AcDbEntity
  8
0
  6
SLD-Сплошная
 62
     7
370
    25
100
AcDbCircle
 10
327.0002364733
 20
148.5639660096
 30
0.0
 40
26.48898630976256
100
AcDbArc
 50
230.0375015732
 51
233.9557920148
  0
LWPOLYLINE
  5
2CA
330
1F
100
AcDbEntity
  8
0
  6
SLD-Сплошная
 62
     7
370
    25
100
AcDbPolyline
 90
        3
 70
   128
 43
0.0
 10
311.414402054
 20
127.1424507583
 10
311.414104494
 20
127.1444078428
 10
311.4138707275
 20
127.1459455932
  0
ARC
  5
2CB
330
1F
100
AcDbEntity
  8
0
  6
SLD-Сплошная
 62
     7
370
    25
100
AcDbCircle
 10
327.0002364733
 20
148.5639660096
 30
0.0
 40
26.49149958396811
100
AcDbArc
 50
118.871901176
 51
233.9611687418
  0
ARC
  5
2CC
330
1F
100
AcDbEntity
  8
0
  6
SLD-Сплошная
 62
     7
370
    25
100
AcDbCircle
 10
327.0002364733
 20
148.5639660096
 30
0.0
 40
26.49149958396811
100
AcDbArc
 50
0.0
 51
61.128098824
  0
SPLINE
  5
2CD
330
1F
100
AcDbEntity
  8
0
  6
SLD-Сплошная
 62
     7
370
    25
100
AcDbSpline
210
0.0
220
0.0
230
1.0
 70
     8
 71
     3
 72
    10
 73
     6
 74
     0
 42
0.00000001
 43
0.00000001
 40
0.0
 40
0.0
 40
0.0
 40
0.0
 40
0.5
 40
0.5
 40
1.0
 40
1.0
 40
1.0
 40
1.0
 10
353.4879167745037
 20
148.5639660095607
 30
0.0
 10
353.4878962245963
 20
150.4371316255117
 30
0.0
 10
353.2868869547084
 20
152.3318608660674
 30
0.0
 10
352.4828923945226
 20
156.0350516188733
 30
0.0
 10
351.880115419021
 20
157.8425536352939
 30
0.0
 10
351.1033862874537
 20
159.5470891383871
 30
0.0
  0
LINE
  5
2CE
330
1F
100
AcDbEntity
  8
0
  6
SLD-Сплошная
 62
     7
370
    25
100
AcDbLine
 10
316.5002364733
 20
172.6596159102
 30
0.0
 11
316.5002364733
 21
172.777323214
 31
0.0
  0
LINE
  5
2CF
330
1F
100
AcDbEntity
  8
0
  6
SLD-Сплошная
 62
     7
370
    25
100
AcDbLine
 10
337.5002364733
 20
172.777323214
 30
0.0
 11
337.5002364733
 21
172.6596159102
 31
0.0
  0
SPLINE
  5
2D0
330
1F
100
AcDbEntity
  8
0
  6
SLD-Сплошная
 62
     7
370
    25
100
AcDbSpline
210
0.0
220
0.0
230
1.0
 70
     8
 71
     3
 72
    10
 73
     6
 74
     0
 42
0.00000001
 43
0.00000001
 40
0.0
 40
0.0
 40
0.0
 40
0.0
 40
0.5
 40
0.5
 40
1.0
 40
1.0
 40
1.0
 40
1.0
 10
351.1296829604039
 20
137.6381539208429
 30
0.0
 10
351.8980848575057
 20
139.3351999115209
 30
0.0
 10
352.4941641439406
 20
141.1335520980253
 30
0.0
 10
353.2891910523691
 20
144.8169504765189
 30
0.0
 10
353.4879372118203
 20
146.7010632827392
 30
0.0
 10
353.4879167745037
 20
148.5639660095607
 30
0.0
  0
ARC
  5
2D1
330
1F
100
AcDbEntity
  8
0
  6
SLD-Сплошная
 62
     7
370
    25
100
AcDbCircle
 10
327.0002364733
 20
148.5639660096
 30
0.0
 40
26.49149958396811
100
AcDbArc
 50
306.0388312582
 51
0.0
  0
LWPOLYLINE
  5
2D2
330
1F
100
AcDbEntity
  8
0
  6
SLD-Сплошная
 62
     7
370
    25
100
AcDbPolyline
 90
        3
 70
   128
 43
0.0
 10
342.5860708927
 20
127.1424507583
 10
342.5863684527
 20
127.1444078428
 10
342.5866022192
 20
127.1459455932
  0
ARC
  5
2D3
330
1F
100
AcDbEntity
  8
0
  6
SLD-Сплошная
 62
     7
370
    25
100
AcDbCircle
 10
327.0002364733
 20
148.5639660096
 30
0.0
 40
26.48898630976256
100
AcDbArc
 50
306.0442079852
 51
309.9624984268
  0
SPLINE
  5
2D4
330
1F
100
AcDbEntity
  8
0
  6
SLD-Сплошная
 62
     7
370
    25
100
AcDbSpline
210
0.0
220
0.0
230
1.0
 70
     8
 71
     3
 72
    21
 73
    17
 74
     0
 42
0.00000001
 43
0.00000001
 40
0.0
 40
0.0
 40
0.0
 40
0.0
 40
0.0549170113574354
 40
0.1099658388133415
 40
0.1651531580368737
 40
0.2204855945699935
 40
0.2759697219663331
 40
0.3316120600159971
 40
0.3874190730575466
 40
0.4433971683781199
 40
0.4995526947024176
 40
0.5944542363811511
 40
0.6919244296175919
 40
0.7919895630932727
 40
0.8946739282324432
 40
1.0
 40
1.0
 40
1.0
 40
1.0
 10
344.0137435497403
 20
128.261085113508
 30
0.0
 10
344.0871065968148
 20
128.322963681489
 30
0.0
 10
344.2340087826774
 20
128.4468693432212
 30
0.0
 10
344.4518424014225
 20
128.6358678954707
 30
0.0
 10
344.6679390027434
 20
128.8272170303039
 30
0.0
 10
344.8819366776473
 20
129.0209668900545
 30
0.0
 10
345.0937090281749
 20
129.2168801622274
 30
0.0
 10
345.3030627064524
 20
129.4147935761918
 30
0.0
 10
345.5098192718692
 20
129.6145196287773
 30
0.0
 10
345.713792149419
 20
129.8158777425346
 30
0.0
 10
345.9608063010476
 20
130.0650866329564
 30
0.0
 10
346.2497713345703
 20
130.3654706943633
 30
0.0
 10
346.5780143534354
 20
130.7192994921158
 30
0.0
 10
346.9017382265635
 20
131.0813271326398
 30
0.0
 10
347.22085176029
 20
131.4505571394985
 30
0.0
 10
347.4231882552131
 20
131.6959835172299
 30
0.0
 10
347.5256413268108
 20
131.8202551483028
 30
0.0
  0
SPLINE
  5
2D5
330
1F
100
AcDbEntity
  8
0
  6
SLD-Сплошная
 62
     7
370
    25
100
AcDbSpline
210
0.0
220
0.0
230
1.0
 70
     8
 71
     3
 72
     8
 73
     4
 74
     0
 42
0.00000001
 43
0.00000001
 40
0.0
 40
0.0
 40
0.0
 40
0.0
 40
1.0
 40
1.0
 40
1.0
 40
1.0
 10
347.5256413268108
 20
131.8202551483029
 30
0.0
 10
347.9167545670707
 20
132.2998809504934
 30
0.0
 10
348.2912784681073
 20
132.7935245460612
 30
0.0
 10
348.6478343567038
 20
133.2993687660567
 30
0.0
  0
SPLINE
  5
2D6
330
1F
100
AcDbEntity
  8
0
  6
SLD-Сплошная
 62
     7
370
    25
100
AcDbSpline
210
0.0
220
0.0
230
1.0
 70
     8
 71
     3
 72
    20
 73
    16
 74
     0
 42
0.00000001
 43
0.00000001
 40
0.0
 40
0.0
 40
0.0
 40
0.0
 40
0.0562632203679784
 40
0.1123137302406561
 40
0.1681585297565599
 40
0.2238046966982248
 40
0.2792593849142319
 40
0.3345298226149821
 40
0.3896233105418002
 40
0.4445472200094042
 40
0.4993089908222295
 40
0.6229369389844271
 40
0.74753971150965
 40
0.8732003958916299
 40
1.0
 40
1.0
 40
1.0
 40
1.0
 10
348.6478343567038
 20
133.2993687660568
 30
0.0
 10
348.6971050468821
 20
133.3696909820067
 30
0.0
 10
348.7954601529225
 20
133.5100695515318
 30
0.0
 10
348.9429802899423
 20
133.7263076908456
 30
0.0
 10
349.089865721984
 20
133.9459462494272
 30
0.0
 10
349.2359488094993
 20
134.1692446343585
 30
0.0
 10
349.3810220170643
 20
134.3959012359794
 30
0.0
 10
349.5248941971711
 20
134.6257687330617
 30
0.0
 10
349.6673742464126
 20
134.8586627717076
 30
0.0
 10
349.8082812673224
 20
135.0944163273147
 30
0.0
 10
350.0058748307
 20
135.4330229300876
 30
0.0
 10
350.2579616574592
 20
135.8824771941982
 30
0.0
 10
350.5590153876813
 20
136.4514775108837
 30
0.0
 10
350.8521426253124
 20
137.0369690762556
 30
0.0
 10
351.0368916969445
 20
137.4371571854189
 30
0.0
 10
351.1296829604038
 20
137.6381539208429
 30
0.0
  0
SPLINE
  5
2D7
330
1F
100
AcDbEntity
  8
0
  6
SLD-Сплошная
 62
     7
370
    25
100
AcDbSpline
210
0.0
220
0.0
230
1.0
 70
     8
 71
     3
 72
    14
 73
    10
 74
     0
 42
0.00000001
 43
0.00000001
 40
0.0
 40
0.0
 40
0.0
 40
0.0
 40
0.25
 40
0.25
 40
0.5
 40
0.5
 40
0.75
 40
0.75
 40
1.0
 40
1.0
 40
1.0
 40
1.0
 10
316.5002364733177
 20
185.3020638716156
 30
0.0
 10
316.5002364733177
 20
185.3609982062584
 30
0.0
 10
316.4894971812213
 20
185.4245809397167
 30
0.0
 10
316.4407646317094
 20
185.5476961562537
 30
0.0
 10
316.4026062261394
 20
185.6068469778805
 30
0.0
 10
316.3049759789611
 20
185.7044927810687
 30
0.0
 10
316.2458344336618
 20
185.7426574136933
 30
0.0
 10
316.1227383096319
 20
185.791398249187
 30
0.0
 10
316.0591653353817
 20
185.802139622693
 30
0.0
 10
316.0002399767249
 20
185.8021400356374
 30
0.0
  0
SPLINE
  5
2D8
330
1F
100
AcDbEntity
  8
0
  6
SLD-Сплошная
 62
     7
370
    25
100
AcDbSpline
210
0.0
220
0.0
230
1.0
 70
     8
 71
     3
 72
    14
 73
    10
 74
     0
 42
0.00000001
 43
0.00000001
 40
0.0
 40
0.0
 40
0.0
 40
0.0
 40
0.25
 40
0.25
 40
0.5
 40
0.5
 40
0.75
 40
0.75
 40
1.0
 40
1.0
 40
1.0
 40
1.0
 10
337.5002364733177
 20
185.3020638716156
 30
0.0
 10
337.5002364733177
 20
185.3609982061528
 30
0.0
 10
337.5109757653745
 20
185.4245809394755
 30
0.0
 10
337.5597083146763
 20
185.5476961557644
 30
0.0
 10
337.5978667200735
 20
185.606846977283
 30
0.0
 10
337.6954969668292
 20
185.7044927803987
 30
0.0
 10
337.7546385118836
 20
185.7426574130624
 30
0.0
 10
337.8777346354906
 20
185.7913982487873
 30
0.0
 10
337.9413076095668
 20
185.8021396224818
 30
0.0
 10
338.0002329681179
 20
185.8021400356374
 30
0.0
  0
LINE
  5
2D9
330
1F
100
AcDbEntity
  8
0
  6
SLD-Сплошная
 62
     7
370
    25
100
AcDbLine
 10
316.0002399767
 20
185.8021400356
 30
0.0
 11
338.0002329681
 21
185.8021400356
 31
0.0
  0
LINE
  5
2DA
330
1F
100
AcDbEntity
  8
0
  6
SLD-Сплошная
 62
     7
370
    25
100
AcDbLine
 10
314.208736889
 20
185.95923562
 30
0.0
 11
339.7917360576
 21
185.95923562
 31
0.0
  0
LINE
  5
2DB
330
1F
100
AcDbEntity
  8
0
  6
SLD-Сплошная
 62
     7
370
    25
100
AcDbLine
 10
337.5002364733
 20
184.2425078197
 30
0.0
 11
337.2672726839
 21
184.2425078197
 31
0.0
  0
LINE
  5
2DC
330
1F
100
AcDbEntity
  8
0
  6
SLD-Сплошная
 62
     7
370
    25
100
AcDbLine
 10
316.7332002627
 20
184.2425078197
 30
0.0
 11
316.5002364733
 21
184.2425078197
 31
0.0
  0
LINE
  5
2DD
330
1F
100
AcDbEntity
  8
0
  6
SLD-Сплошная
 62
     7
370
    25
100
AcDbLine
 10
316.5002364733
 20
184.146512274
 30
0.0
 11
316.7070974318
 21
184.146512274
 31
0.0
  0
LINE
  5
2DE
330
1F
100
AcDbEntity
  8
0
  6
SLD-Сплошная
 62
     7
370
    25
100
AcDbLine
 10
337.2933755148
 20
184.146512274
 30
0.0
 11
337.5002364733
 21
184.146512274
 31
0.0
  0
SPLINE
  5
2DF
330
1F
100
AcDbEntity
  8
0
  6
SLD-Сплошная
 62
     7
370
    25
100
AcDbSpline
210
0.0
220
0.0
230
1.0
 70
     8
 71
     3
 72
    13
 73
     9
 74
     0
 42
0.00000001
 43
0.00000001
 40
0.0
 40
0.0
 40
0.0
 40
0.0
 40
0.1114897667767016
 40
0.2778075886583194
 40
0.5001187465655492
 40
0.6906285279992259
 40
0.8574581265973387
 40
1.0
 40
1.0
 40
1.0
 40
1.0
 10
337.5002386619224
 20
172.6596159105931
 30
0.0
 10
337.5005980234286
 20
172.5943313768052
 30
0.0
 10
337.5014934720101
 20
172.4316569051235
 30
0.0
 10
337.5105504193528
 20
172.1390123493003
 30
0.0
 10
337.529172684747
 20
171.7995303532592
 30
0.0
 10
337.5568191259039
 20
171.4580336064726
 30
0.0
 10
337.5853903990921
 20
171.1619651625502
 30
0.0
 10
337.6067630381386
 20
170.9772860839856
 30
0.0
 10
337.6166104102623
 20
170.8921958147806
 30
0.0
  0
SPLINE
  5
2E0
330
1F
100
AcDbEntity
  8
0
  6
SLD-Сплошная
 62
     7
370
    25
100
AcDbSpline
210
0.0
220
0.0
230
1.0
 70
     8
 71
     3
 72
    12
 73
     8
 74
     0
 42
0.00000001
 43
0.00000001
 40
0.0
 40
0.0
 40
0.0
 40
0.0
 40
0.1372882761329083
 40
0.3041981651894091
 40
0.4999012173747417
 40
0.8340402899436765
 40
1.0
 40
1.0
 40
1.0
 40
1.0
 10
316.3838625398479
 20
170.8921958131871
 30
0.0
 10
316.393436158557
 20
170.9741514381732
 30
0.0
 10
316.414649020482
 20
171.1557456095764
 30
0.0
 10
316.4436221150139
 20
171.4519422337541
 30
0.0
 10
316.4760801143573
 20
171.8623910140684
 30
0.0
 10
316.4968097392948
 20
172.2693424443088
 30
0.0
 10
316.4993810014566
 20
172.5623726924388
 30
0.0
 10
316.5002342847231
 20
172.6596159105928
 30
0.0
  0
SPLINE
  5
2E1
330
1F
100
AcDbEntity
  8
0
  6
SLD-Сплошная
 62
     7
370
    25
100
AcDbSpline
210
0.0
220
0.0
230
1.0
 70
     8
 71
     3
 72
    20
 73
    16
 74
     0
 42
0.00000001
 43
0.00000001
 40
0.0
 40
0.0
 40
0.0
 40
0.0
 40
0.2500000000000441
 40
0.2500000000000441
 40
0.3750000000000689
 40
0.3750000000000689
 40
0.4375000000000799
 40
0.4375000000000799
 40
0.4687500000000828
 40
0.4843750000000842
 40
0.4921875000000856
 40
0.4921875000000856
 40
0.5000000000000869
 40
0.5000000000000869
 40
1.0
 40
1.0
 40
1.0
 40
1.0
 10
316.5002364733177
 20
170.9302352559057
 30
0.0
 10
316.5002364733177
 20
171.0014599261724
 30
0.0
 10
316.5002365117075
 20
171.1117433624519
 30
0.0
 10
316.5002360552714
 20
171.3324848669501
 30
0.0
 10
316.5002358106103
 20
171.4152689072471
 30
0.0
 10
316.5002353891333
 20
171.5528342934698
 30
0.0
 10
316.500235241963
 20
171.6009216813897
 30
0.0
 10
316.5002350428772
 20
171.6763609063948
 30
0.0
 10
316.5002349489669
 20
171.714907721264
 30
0.0
 10
316.5002348578896
 20
171.7613198875617
 30
0.0
 10
316.5002348237946
 20
171.7815190141277
 30
0.0
 10
316.5002348022685
 20
171.7950535294622
 30
0.0
 10
316.5002347888366
 20
171.8042070931721
 30
0.0
 10
316.5002343835608
 20
172.0956392447222
 30
0.0
 10
316.5002364733177
 20
172.3780962343046
 30
0.0
 10
316.5002359261691
 20
172.6596159103048
 30
0.0
  0
SPLINE
  5
2E2
330
1F
100
AcDbEntity
  8
0
  6
SLD-Сплошная
 62
     7
370
    25
100
AcDbSpline
210
0.0
220
0.0
230
1.0
 70
     8
 71
     3
 72
    20
 73
    16
 74
     0
 42
0.00000001
 43
0.00000001
 40
0.0
 40
0.0
 40
0.0
 40
0.0
 40
0.499999999999874
 40
0.499999999999874
 40
0.6249999999998429
 40
0.6249999999998429
 40
0.6874999999998247
 40
0.7187499999998183
 40
0.7343749999998151
 40
0.7421874999998163
 40
0.746093749999814
 40
0.746093749999814
 40
0.7499999999998118
 40
0.7499999999998118
 40
1.0
 40
1.0
 40
1.0
 40
1.0
 10
337.5002370204688
 20
172.659615910305
 30
0.0
 10
337.5002364733177
 20
172.3778967948015
 30
0.0
 10
337.5002348233004
 20
172.0964045230134
 30
0.0
 10
337.5002389992169
 20
171.7367622001653
 30
0.0
 10
337.5002397565212
 20
171.6646043149466
 30
0.0
 10
337.5002394100971
 20
171.5559542174034
 30
0.0
 10
337.5002388779716
 20
171.5015255096221
 30
0.0
 10
337.5002378542932
 20
171.4378245573102
 30
0.0
 10
337.5002373480688
 20
171.4059210869238
 30
0.0
 10
337.5002371139808
 20
171.3899557412005
 30
0.0
 10
337.5002370199265
 20
171.3831104937089
 30
0.0
 10
337.5002369588805
 20
171.3785463338843
 30
0.0
 10
337.5002369089466
 20
171.3746559124662
 30
0.0
 10
337.5002363569622
 20
171.3307982728412
 30
0.0
 10
337.5002364733177
 20
171.1858537970079
 30
0.0
 10
337.5002364733177
 20
170.9302352559057
 30
0.0
  0
SPLINE
  5
2E3
330
1F
100
AcDbEntity
  8
0
  6
SLD-Сплошная
 62
     7
370
    25
100
AcDbSpline
210
0.0
220
0.0
230
1.0
 70
     8
 71
     3
 72
     8
 73
     4
 74
     0
 42
0.00000001
 43
0.00000001
 40
0.0
 40
0.0
 40
0.0
 40
0.0
 40
1.0
 40
1.0
 40
1.0
 40
1.0
 10
316.60596770107
 20
170.6227419466609
 30
0.0
 10
316.536335981392
 20
170.7120239303709
 30
0.0
 10
316.5002364733177
 20
170.820381093517
 30
0.0
 10
316.5002364733177
 20
170.9302352559057
 30
0.0
  0
SPLINE
  5
2E4
330
1F
100
AcDbEntity
  8
0
  6
SLD-Сплошная
 62
     7
370
    25
100
AcDbSpline
210
0.0
220
0.0
230
1.0
 70
     8
 71
     3
 72
     8
 73
     4
 74
     0
 42
0.00000001
 43
0.00000001
 40
0.0
 40
0.0
 40
0.0
 40
0.0
 40
1.0
 40
1.0
 40
1.0
 40
1.0
 10
337.5002364733177
 20
170.9302352559057
 30
0.0
 10
337.5002364733177
 20
170.8200927231828
 30
0.0
 10
337.4640926375652
 20
170.7119670932993
 30
0.0
 10
337.3945052455654
 20
170.6227419466609
 30
0.0
  0
LINE
  5
2E5
330
1F
100
AcDbEntity
  8
0
  6
SLD-Сплошная
 62
     7
370
    25
100
AcDbLine
 10
342.5866022192
 20
127.1459455932
 30
0.0
 11
340.9740676695
 21
129.3117476609
 31
0.0
  0
LINE
  5
2E6
330
1F
100
AcDbEntity
  8
0
  6
SLD-Сплошная
 62
     7
370
    25
100
AcDbLine
 10
340.9740676695
 20
129.3117476609
 30
0.0
 11
339.922553592
 21
128.5907441881
 31
0.0
  0
LINE
  5
2E7
330
1F
100
AcDbEntity
  8
0
  6
SLD-Сплошная
 62
     7
370
    25
100
AcDbLine
 10
314.0779193546
 20
128.5907441881
 30
0.0
 11
313.0264052771
 21
129.3117476609
 31
0.0
  0
LINE
  5
2E8
330
1F
100
AcDbEntity
  8
0
  6
SLD-Сплошная
 62
     7
370
    25
100
AcDbLine
 10
311.4138707275
 20
127.1459455932
 30
0.0
 11
313.0264052771
 21
129.3117476609
 31
0.0
  0
LWPOLYLINE
  5
2E9
330
1F
100
AcDbEntity
  8
0
  6
SLD-Сплошная
 62
     7
370
    25
100
AcDbPolyline
 90
        3
 70
   128
 43
0.0
 10
337.3945052456
 20
170.6227419467
 10
337.3382356894
 20
170.5617837259
 10
337.3002364733
 20
170.5302352559
  0
LWPOLYLINE
  5
2EA
330
1F
100
AcDbEntity
  8
0
  6
SLD-Сплошная
 62
     7
370
    25
100
AcDbPolyline
 90
        3
 70
   128
 43
0.0
 10
316.7002364733
 20
170.5302352559
 10
316.6622372573
 20
170.5617837259
 10
316.6059677011
 20
170.6227419467
  0
LINE
  5
2EB
330
1F
100
AcDbEntity
  8
0
  6
SLD-Сплошная
 62
     7
370
    25
100
AcDbLine
 10
342.5860708927
 20
127.1424507583
 30
0.0
 11
340.9735344979
 21
129.3082553042
 31
0.0
  0
LWPOLYLINE
  5
2EC
330
1F
100
AcDbEntity
  8
0
  6
SLD-Сплошная
 62
     7
370
    25
100
AcDbPolyline
 90
        3
 70
   128
 43
0.0
 10
340.9740676695
 20
129.3117476609
 10
340.9737691125
 20
129.3097919155
 10
340.9735344979
 20
129.3082553042
  0
LINE
  5
2ED
330
1F
100
AcDbEntity
  8
0
  6
SLD-Сплошная
 62
     7
370
    25
100
AcDbLine
 10
340.9735344979
 20
129.3082553042
 30
0.0
 11
339.9228014489
 21
128.5879111712
 31
0.0
  0
LINE
  5
2EE
330
1F
100
AcDbEntity
  8
0
  6
SLD-Сплошная
 62
     7
370
    25
100
AcDbLine
 10
314.0776714977
 20
128.5879111712
 30
0.0
 11
313.0269384487
 21
129.3082553042
 31
0.0
  0
LWPOLYLINE
  5
2EF
330
1F
100
AcDbEntity
  8
0
  6
SLD-Сплошная
 62
     7
370
    25
100
AcDbPolyline
 90
        3
 70
   128
 43
0.0
 10
313.0264052771
 20
129.3117476609
 10
313.0267038342
 20
129.3097919155
 10
313.0269384487
 20
129.3082553042
  0
LINE
  5
2F0
330
1F
100
AcDbEntity
  8
0
  6
SLD-Сплошная
 62
     7
370
    25
100
AcDbLine
 10
313.0269384487
 20
129.3082553042
 30
0.0
 11
311.414402054
 21
127.1424507583
 31
0.0
  0
ARC
  5
2F1
330
1F
100
AcDbEntity
  8
0
  6
SLD-Сплошная
 62
     7
370
    25
100
AcDbCircle
 10
297.0002364733
 20
118.5639660096
 30
0.0
 40
4.250000000000057
100
AcDbArc
 50
180.0
 51
0.0
  0
ARC
  5
2F2
330
1F
100
AcDbEntity
  8
0
  6
SLD-Сплошная
 62
     7
370
    25
100
AcDbCircle
 10
297.0002364733
 20
118.5639660096
 30
0.0
 40
4.250000000000057
100
AcDbArc
 50
0.0
 51
180.0
  0
ARC
  5
2F3
330
1F
100
AcDbEntity
  8
0
  6
SLD-Сплошная
 62
     7
370
    25
100
AcDbCircle
 10
297.0002364733
 20
178.5639660096
 30
0.0
 40
4.250000000000057
100
AcDbArc
 50
0.0
 51
180.0
  0
ARC
  5
2F4
330
1F
100
AcDbEntity
  8
0
  6
SLD-Сплошная
 62
     7
370
    25
100
AcDbCircle
 10
357.0002364733
 20
118.5639660096
 30
0.0
 40
4.25
100
AcDbArc
 50
180.0
 51
0.0
  0
ARC
  5
2F5
330
1F
100
AcDbEntity
  8
0
  6
SLD-Сплошная
 62
     7
370
    25
100
AcDbCircle
 10
357.0002364733
 20
178.5639660096
 30
0.0
 40
4.25
100
AcDbArc
 50
180.0
 51
0.0
  0
ARC
  5
2F6
330
1F
100
AcDbEntity
  8
0
  6
SLD-Сплошная
 62
     7
370
    25
100
AcDbCircle
 10
357.0002364733
 20
178.5639660096
 30
0.0
 40
4.25
100
AcDbArc
 50
0.0
 51
180.0
  0
LINE
  5
2F7
330
1F
100
AcDbEntity
  8
0
  6
SLD-Сплошная
 62
     7
370
    25
100
AcDbLine
 10
289.4805822935
 20
186.0836201894
 30
0.0
 11
364.5198906532
 21
186.0836201894
 31
0.0
  0
ARC
  5
2F8
330
1F
100
AcDbEntity
  8
0
  6
SLD-Сплошная
 62
     7
370
    25
100
AcDbCircle
 10
357.0002364733
 20
118.5639660096
 30
0.0
 40
4.25
100
AcDbArc
 50
0.0
 51
180.0
  0
LINE
  5
2F9
330
1F
100
AcDbEntity
  8
0
  6
SLD-Сплошная
 62
     7
370
    25
100
AcDbLine
 10
289.4805822935
 20
186.0836201894
 30
0.0
 11
289.4805822935
 21
111.0443118297
 31
0.0
  0
LINE
  5
2FA
330
1F
100
AcDbEntity
  8
0
  6
SLD-Сплошная
 62
     7
370
    25
100
AcDbLine
 10
289.4805822935
 20
111.0443118297
 30
0.0
 11
364.5198906532
 21
111.0443118297
 31
0.0
  0
ARC
  5
2FB
330
1F
100
AcDbEntity
  8
0
  6
SLD-Сплошная
 62
     7
370
    25
100
AcDbCircle
 10
297.0002364733
 20
178.5639660096
 30
0.0
 40
4.250000000000057
100
AcDbArc
 50
180.0
 51
0.0
  0
LINE
  5
2FC
330
1F
100
AcDbEntity
  8
0
  6
SLD-Сплошная
 62
     7
370
    25
100
AcDbLine
 10
364.5198906532
 20
111.0443118297
 30
0.0
 11
364.5198906532
 21
186.0836201894
 31
0.0
  0
ARC
  5
2FD
330
1F
100
AcDbEntity
  8
0
  6
SLD-Сплошная
 62
     7
370
    25
100
AcDbCircle
 10
357.0002364733
 20
118.5639660096
 30
0.0
 40
2.75
100
AcDbArc
 50
0.0
 51
180.0
  0
ARC
  5
2FE
330
1F
100
AcDbEntity
  8
0
  6
SLD-Сплошная
 62
     7
370
    25
100
AcDbCircle
 10
357.0002364733
 20
118.5639660096
 30
0.0
 40
2.75
100
AcDbArc
 50
180.0
 51
0.0
  0
ARC
  5
2FF
330
1F
100
AcDbEntity
  8
0
  6
SLD-Сплошная
 62
     7
370
    25
100
AcDbCircle
 10
357.0002364733
 20
178.5639660096
 30
0.0
 40
2.75
100
AcDbArc
 50
180.0
 51
0.0
  0
ARC
  5
300
330
1F
100
AcDbEntity
  8
0
  6
SLD-Сплошная
 62
     7
370
    25
100
AcDbCircle
 10
357.0002364733
 20
178.5639660096
 30
0.0
 40
2.75
100
AcDbArc
 50
0.0
 51
180.0
  0
ARC
  5
301
330
1F
100
AcDbEntity
  8
0
  6
SLD-Сплошная
 62
     7
370
    25
100
AcDbCircle
 10
297.0002364733
 20
178.5639660096
 30
0.0
 40
2.750000000000057
100
AcDbArc
 50
0.0
 51
180.0
  0
ARC
  5
302
330
1F
100
AcDbEntity
  8
0
  6
SLD-Сплошная
 62
     7
370
    25
100
AcDbCircle
 10
297.0002364733
 20
178.5639660096
 30
0.0
 40
2.750000000000057
100
AcDbArc
 50
180.0
 51
0.0
  0
ARC
  5
303
330
1F
100
AcDbEntity
  8
0
  6
SLD-Сплошная
 62
     7
370
    25
100
AcDbCircle
 10
297.0002364733
 20
118.5639660096
 30
0.0
 40
2.750000000000057
100
AcDbArc
 50
180.0
 51
0.0
  0
ARC
  5
304
330
1F
100
AcDbEntity
  8
0
  6
SLD-Сплошная
 62
     7
370
    25
100
AcDbCircle
 10
297.0002364733
 20
118.5639660096
 30
0.0
 40
2.750000000000057
100
AcDbArc
 50
0.0
 51
180.0
  0
LINE
  5
305
330
1F
100
AcDbEntity
  8
0
  6
SLD-Сплошная
 62
     7
370
    25
100
AcDbLine
 10
350.4636701402
 20
243.6406981273
 30
0.0
 11
350.4094701358
 21
246.7458143026
 31
0.0
  0
LINE
  5
306
330
1F
100
AcDbEntity
  8
0
  6
SLD-Сплошная
 62
     7
370
    25
100
AcDbLine
 10
316.5993504006
 20
248.3033185413
 30
0.0
 11
314.2238549436
 21
247.11783499
 31
0.0
  0
LINE
  5
307
330
1F
100
AcDbEntity
  8
0
  6
SLD-Сплошная
 62
     7
370
    25
100
AcDbLine
 10
339.7766553062
 20
247.117816374
 30
0.0
 11
337.401122546
 21
248.3033185413
 31
0.0
  0
LINE
  5
308
330
1F
100
AcDbEntity
  8
0
  6
SLD-Сплошная
 62
     7
370
    25
100
AcDbLine
 10
300.5125561808
 20
243.9029960923
 30
0.0
 11
300.5087368893
 21
231.7458143026
 31
0.0
  0
SPLINE
  5
309
330
1F
100
AcDbEntity
  8
0
  6
SLD-Сплошная
 62
     7
370
    25
100
AcDbSpline
210
0.0
220
0.0
230
1.0
 70
     8
 71
     3
 72
    11
 73
     7
 74
     0
 42
0.00000001
 43
0.00000001
 40
0.0
 40
0.0
 40
0.0
 40
0.0
 40
0.1299944291800742
 40
0.4196216742249647
 40
0.7093776884131814
 40
1.0
 40
1.0
 40
1.0
 40
1.0
 10
310.3927749352226
 20
239.8421617739645
 30
0.0
 10
310.271780724254
 20
239.860124271507
 30
0.0
 10
309.8812117306563
 20
239.9181071661554
 30
0.0
 10
309.2789287762134
 20
240.1472588963794
 30
0.0
 10
308.5843076027008
 20
240.5114075444116
 30
0.0
 10
308.1775209796621
 20
240.8538749425302
 30
0.0
 10
307.9738240746265
 20
241.025364232299
 30
0.0
  0
LINE
  5
30A
330
1F
100
AcDbEntity
  8
0
  6
SLD-Сплошная
 62
     7
370
    25
100
AcDbLine
 10
310.8353911653
 20
239.7666903384
 30
0.0
 11
310.3927749352
 21
239.842161774
 31
0.0
  0
LINE
  5
30B
330
1F
100
AcDbEntity
  8
0
  6
SLD-Сплошная
 62
     7
370
    25
100
AcDbLine
 10
343.6076980114
 20
239.842161774
 30
0.0
 11
343.1650817814
 21
239.7666903384
 31
0.0
  0
SPLINE
  5
30C
330
1F
100
AcDbEntity
  8
0
  6
SLD-Сплошная
 62
     7
370
    25
100
AcDbSpline
210
0.0
220
0.0
230
1.0
 70
     8
 71
     3
 72
    11
 73
     7
 74
     0
 42
0.00000001
 43
0.00000001
 40
0.0
 40
0.0
 40
0.0
 40
0.0
 40
0.2906223115852888
 40
0.5803783257725411
 40
0.8700055708164196
 40
1.0
 40
1.0
 40
1.0
 40
1.0
 10
346.0266488720088
 20
241.025364232299
 30
0.0
 10
345.8229519669737
 20
240.8538749425305
 30
0.0
 10
345.4161653439355
 20
240.511407544412
 30
0.0
 10
344.7215441704247
 20
240.1472588963795
 30
0.0
 10
344.119261215979
 20
239.9181071661544
 30
0.0
 10
343.7286922223767
 20
239.8601242715056
 30
0.0
 10
343.6076980114041
 20
239.8421617739626
 30
0.0
  0
LINE
  5
30D
330
1F
100
AcDbEntity
  8
0
  6
SLD-Сплошная
 62
     7
370
    25
100
AcDbLine
 10
307.9738208799
 20
241.0253670005
 30
0.0
 11
306.8364981179
 21
242.1178060983
 31
0.0
  0
LINE
  5
30E
330
1F
100
AcDbEntity
  8
0
  6
SLD-Сплошная
 62
     7
370
    25
100
AcDbLine
 10
347.1639748287
 20
242.1178060983
 30
0.0
 11
346.0266520667
 21
241.0253670005
 31
0.0
  0
SPLINE
  5
30F
330
1F
100
AcDbEntity
  8
0
  6
SLD-Сплошная
 62
     7
370
    25
100
AcDbSpline
210
0.0
220
0.0
230
1.0
 70
     8
 71
     3
 72
    11
 73
     7
 74
     0
 42
0.00000001
 43
0.00000001
 40
0.0
 40
0.0
 40
0.0
 40
0.0
 40
0.2520634169780783
 40
0.5020391076580213
 40
0.7509025413346143
 40
1.0
 40
1.0
 40
1.0
 40
1.0
 10
349.69020065899
 20
243.5618218519309
 30
0.0
 10
349.4979026163018
 20
243.5288637449485
 30
0.0
 10
349.1148992478916
 20
243.4632205079493
 30
0.0
 10
348.4817973308466
 20
243.1677333897877
 30
0.0
 10
347.8272136593488
 20
242.7408187307183
 30
0.0
 10
347.3851219903241
 20
242.3255403368597
 30
0.0
 10
347.1639722716519
 20
242.1178035564425
 30
0.0
  0
SPLINE
  5
310
330
1F
100
AcDbEntity
  8
0
  6
SLD-Сплошная
 62
     7
370
    25
100
AcDbSpline
210
0.0
220
0.0
230
1.0
 70
     8
 71
     3
 72
    11
 73
     7
 74
     0
 42
0.00000001
 43
0.00000001
 40
0.0
 40
0.0
 40
0.0
 40
0.0
 40
0.24909745866561
 40
0.4979608923420147
 40
0.7479365830217817
 40
0.9999999999999999
 40
0.9999999999999999
 40
0.9999999999999999
 40
0.9999999999999999
 10
306.8365006749839
 20
242.117803556442
 30
0.0
 10
306.6153509563127
 20
242.3255403368589
 30
0.0
 10
306.1732592872905
 20
242.7408187307164
 30
0.0
 10
305.5186756157918
 20
243.1677333897869
 30
0.0
 10
304.8855736987446
 20
243.4632205079493
 30
0.0
 10
304.5025703303339
 20
243.5288637449485
 30
0.0
 10
304.3102722876453
 20
243.5618218519309
 30
0.0
  0
LINE
  5
311
330
1F
100
AcDbEntity
  8
0
  6
SLD-Сплошная
 62
     7
370
    25
100
AcDbLine
 10
317.0364046843
 20
248.4715279026
 30
0.0
 11
316.5993601179
 21
248.3033233905
 31
0.0
  0
LINE
  5
312
330
1F
100
AcDbEntity
  8
0
  6
SLD-Сплошная
 62
     7
370
    25
100
AcDbLine
 10
337.4011128286
 20
248.3033233906
 30
0.0
 11
336.9640682623
 21
248.4715279026
 31
0.0
  0
LINE
  5
313
330
1F
100
AcDbEntity
  8
0
  6
SLD-Сплошная
 62
     7
370
    25
100
AcDbLine
 10
289.4805822935
 20
231.7458143026
 30
0.0
 11
289.4827814084
 21
224.7458143026
 31
0.0
  0
LINE
  5
314
330
1F
100
AcDbEntity
  8
0
  6
SLD-Сплошная
 62
     7
370
    25
100
AcDbLine
 10
289.4805822935
 20
231.7458143026
 30
0.0
 11
364.5198906532
 21
231.7458143026
 31
0.0
  0
LINE
  5
315
330
1F
100
AcDbEntity
  8
0
  6
SLD-Сплошная
 62
     7
370
    25
100
AcDbLine
 10
364.5176915382
 20
224.7458143026
 30
0.0
 11
289.4827814084
 21
224.7458143026
 31
0.0
  0
LINE
  5
316
330
1F
100
AcDbEntity
  8
0
  6
SLD-Сплошная
 62
     7
370
    25
100
AcDbLine
 10
364.5198906532
 20
231.7458143026
 30
0.0
 11
364.5176915382
 21
224.7458143026
 31
0.0
  0
SPLINE
  5
317
330
1F
100
AcDbEntity
  8
0
  6
SLD-Сплошная
 62
     7
370
    25
100
AcDbSpline
210
0.0
220
0.0
230
1.0
 70
     8
 71
     3
 72
    18
 73
    14
 74
     0
 42
0.00000001
 43
0.00000001
 40
0.0
 40
0.0
 40
0.0
 40
0.0
 40
0.0625
 40
0.0625
 40
0.125
 40
0.2499999999999999
 40
0.4999999999999998
 40
0.4999999999999998
 40
0.7499999999999997
 40
0.8749999999999998
 40
0.9375
 40
0.9375
 40
1.0
 40
1.0
 40
1.0
 40
1.0
 10
317.7325771413921
 20
245.0587023384397
 30
0.0
 10
318.1038602653686
 20
245.0528296160618
 30
0.0
 10
318.4746848591556
 20
245.0468940636925
 30
0.0
 10
319.2240661271909
 20
245.036007390915
 30
0.0
 10
320.3567626542769
 20
245.0208108843558
 30
0.0
 10
323.0515069216383
 20
244.9933527405373
 30
0.0
 10
325.4206231999771
 20
244.9837578937736
 30
0.0
 10
328.579849746683
 20
244.9837578937737
 30
0.0
 10
330.9489660250214
 20
244.9933527405375
 30
0.0
 10
333.6437102923823
 20
245.0208108843561
 30
0.0
 10
334.776406819468
 20
245.0360073909154
 30
0.0
 10
335.525788087503
 20
245.0468940636928
 30
0.0
 10
335.8966126812898
 20
245.0528296160622
 30
0.0
 10
336.2678958052666
 20
245.0587023384401
 30
0.0
  0
LINE
  5
318
330
1F
100
AcDbEntity
  8
0
  6
SLD-Сплошная
 62
     7
370
    25
100
AcDbLine
 10
317.7325771414
 20
245.0587023384
 30
0.0
 11
317.7325771414
 21
247.0567987816
 31
0.0
  0
SPLINE
  5
319
330
1F
100
AcDbEntity
  8
0
  6
SLD-Сплошная
 62
     7
370
    25
100
AcDbSpline
210
0.0
220
0.0
230
1.0
 70
     8
 71
     3
 72
    18
 73
    14
 74
     0
 42
0.00000001
 43
0.00000001
 40
0.0
 40
0.0
 40
0.0
 40
0.0
 40
0.0625000000000001
 40
0.0625000000000001
 40
0.125
 40
0.25
 40
0.4999999999999999
 40
0.4999999999999999
 40
0.7499999999999999
 40
0.875
 40
0.9375
 40
0.9375
 40
1.0
 40
1.0
 40
1.0
 40
1.0
 10
336.2678958052664
 20
247.0567987816038
 30
0.0
 10
335.8966126812895
 20
247.0509260592262
 30
0.0
 10
335.5257880875021
 20
247.0449905068566
 30
0.0
 10
334.7764068194661
 20
247.0341038340791
 30
0.0
 10
333.6437102923788
 20
247.0189073275198
 30
0.0
 10
330.9489660250143
 20
246.9914491837011
 30
0.0
 10
328.5798497466727
 20
246.9818543369373
 30
0.0
 10
325.4206231999626
 20
246.9818543369373
 30
0.0
 10
323.051506921621
 20
246.9914491837011
 30
0.0
 10
320.3567626542565
 20
247.0189073275198
 30
0.0
 10
319.2240661271692
 20
247.0341038340792
 30
0.0
 10
318.4746848591333
 20
247.0449905068566
 30
0.0
 10
318.1038602653459
 20
247.0509260592262
 30
0.0
 10
317.7325771413689
 20
247.0567987816038
 30
0.0
  0
LINE
  5
31A
330
1F
100
AcDbEntity
  8
0
  6
SLD-Сплошная
 62
     7
370
    25
100
AcDbLine
 10
336.2678958053
 20
245.0587023384
 30
0.0
 11
336.2678958053
 21
247.0567987816
 31
0.0
  0
SPLINE
  5
31B
330
1F
100
AcDbEntity
  8
0
  6
SLD-Сплошная
 62
     7
370
    25
100
AcDbSpline
210
0.0
220
0.0
230
1.0
 70
     8
 71
     3
 72
     8
 73
     4
 74
     0
 42
0.00000001
 43
0.00000001
 40
0.0
 40
0.0
 40
0.0
 40
0.0
 40
1.0
 40
1.0
 40
1.0
 40
1.0
 10
319.475330764709
 20
247.2289270942684
 30
0.0
 10
319.2571916044477
 20
247.2324801906049
 30
0.0
 10
319.0683566321231
 20
247.237950630328
 30
0.0
 10
318.9088258477353
 20
247.2453384134376
 30
0.0
  0
SPLINE
  5
31C
330
1F
100
AcDbEntity
  8
0
  6
SLD-Сплошная
 62
     7
370
    25
100
AcDbSpline
210
0.0
220
0.0
230
1.0
 70
     8
 71
     3
 72
    17
 73
    13
 74
     0
 42
0.00000001
 43
0.00000001
 40
0.0
 40
0.0
 40
0.0
 40
0.0
 40
0.2500000000000001
 40
0.375
 40
0.375
 40
0.5
 40
0.5
 40
0.625
 40
0.625
 40
0.75
 40
0.75
 40
1.0
 40
1.0
 40
1.0
 40
1.0
 10
334.5251421819265
 20
247.2289270942684
 30
0.0
 10
333.3192647971788
 20
247.2092855108271
 30
0.0
 10
331.4775079234334
 20
247.1871626456798
 30
0.0
 10
329.5863398547517
 20
247.1760490455547
 30
0.0
 10
328.3145808767559
 20
247.1710864821428
 30
0.0
 10
327.6708865666355
 20
247.1698283271192
 30
0.0
 10
326.3818164342603
 20
247.1697590203572
 30
0.0
 10
325.7398551359369
 20
247.1709729215997
 30
0.0
 10
324.4610800750182
 20
247.1758978333315
 30
0.0
 10
323.8255986058668
 20
247.1795984256886
 30
0.0
 10
321.9188817413424
 20
247.1945083754234
 30
0.0
 10
320.680649890348
 20
247.2092946038684
 30
0.0
 10
319.475330764709
 20
247.2289270942684
 30
0.0
  0
SPLINE
  5
31D
330
1F
100
AcDbEntity
  8
0
  6
SLD-Сплошная
 62
     7
370
    25
100
AcDbSpline
210
0.0
220
0.0
230
1.0
 70
     8
 71
     3
 72
     8
 73
     4
 74
     0
 42
0.00000001
 43
0.00000001
 40
0.0
 40
0.0
 40
0.0
 40
0.0
 40
1.0
 40
1.0
 40
1.0
 40
1.0
 10
335.0916470989001
 20
247.2453384134376
 30
0.0
 10
334.9321163145123
 20
247.237950630328
 30
0.0
 10
334.7432813421876
 20
247.2324801906049
 30
0.0
 10
334.5251421819265
 20
247.2289270942684
 30
0.0
  0
SPLINE
  5
31E
330
1F
100
AcDbEntity
  8
0
  6
SLD-Сплошная
 62
     7
370
    25
100
AcDbSpline
210
0.0
220
0.0
230
1.0
 70
     8
 71
     3
 72
     8
 73
     4
 74
     0
 42
0.00000001
 43
0.00000001
 40
0.0
 40
0.0
 40
0.0
 40
0.0
 40
1.0
 40
1.0
 40
1.0
 40
1.0
 10
335.9713704807718
 20
247.0903800174229
 30
0.0
 10
337.2102242485576
 20
247.1111747854178
 30
0.0
 10
338.4148180968867
 20
247.1363699647565
 30
0.0
 10
339.5623427231629
 20
247.1654884780655
 30
0.0
  0
LINE
  5
31F
330
1F
100
AcDbEntity
  8
0
  6
SLD-Сплошная
 62
     7
370
    25
100
AcDbLine
 10
336.2678958053
 20
247.0567987816
 30
0.0
 11
335.9713704808
 21
247.0903800174
 31
0.0
  0
LINE
  5
320
330
1F
100
AcDbEntity
  8
0
  6
SLD-Сплошная
 62
     7
370
    25
100
AcDbLine
 10
317.7325771414
 20
247.0567987816
 30
0.0
 11
318.0291024659
 21
247.0903800174
 31
0.0
  0
SPLINE
  5
321
330
1F
100
AcDbEntity
  8
0
  6
SLD-Сплошная
 62
     7
370
    25
100
AcDbSpline
210
0.0
220
0.0
230
1.0
 70
     8
 71
     3
 72
     8
 73
     4
 74
     0
 42
0.00000001
 43
0.00000001
 40
0.0
 40
0.0
 40
0.0
 40
0.0
 40
1.0
 40
1.0
 40
1.0
 40
1.0
 10
318.0291024658634
 20
247.0903800174229
 30
0.0
 10
316.7902486980777
 20
247.1111747854178
 30
0.0
 10
315.5856548497487
 20
247.1363699647565
 30
0.0
 10
314.4381302234725
 20
247.1654884780655
 30
0.0
  0
LINE
  5
322
330
1F
100
AcDbEntity
  8
0
  6
SLD-Сплошная
 62
     7
370
    25
100
AcDbLine
 10
334.5002364733
 20
244.8458143026
 30
0.0
 11
340.041184081
 21
244.8458143026
 31
0.0
  0
LINE
  5
323
330
1F
100
AcDbEntity
  8
0
  6
SLD-Сплошная
 62
     7
370
    25
100
AcDbLine
 10
334.5002364733
 20
240.0458143026
 30
0.0
 11
334.5002364733
 21
244.8458143026
 31
0.0
  0
LINE
  5
324
330
1F
100
AcDbEntity
  8
0
  6
SLD-Сплошная
 62
     7
370
    25
100
AcDbLine
 10
319.5002364733
 20
240.0458143026
 30
0.0
 11
334.5002364733
 21
240.0458143026
 31
0.0
  0
LINE
  5
325
330
1F
100
AcDbEntity
  8
0
  6
SLD-Сплошная
 62
     7
370
    25
100
AcDbLine
 10
319.5002364733
 20
244.8458143026
 30
0.0
 11
319.5002364733
 21
240.0458143026
 31
0.0
  0
LINE
  5
326
330
1F
100
AcDbEntity
  8
0
  6
SLD-Сплошная
 62
     7
370
    25
100
AcDbLine
 10
313.9592888656
 20
244.8458143026
 30
0.0
 11
319.5002364733
 21
244.8458143026
 31
0.0
  0
LINE
  5
327
330
1F
100
AcDbEntity
  8
0
  6
SLD-Сплошная
 62
     7
370
    25
100
AcDbLine
 10
313.9592888656
 20
244.8458143026
 30
0.0
 11
313.9592888656
 21
246.6755740092
 31
0.0
  0
SPLINE
  5
328
330
1F
100
AcDbEntity
  8
0
  6
SLD-Сплошная
 62
     7
370
    25
100
AcDbSpline
210
0.0
220
0.0
230
1.0
 70
     8
 71
     3
 72
    16
 73
    12
 74
     0
 42
0.00000001
 43
0.00000001
 40
0.0
 40
0.0
 40
0.0
 40
0.0
 40
0.0783438972030397
 40
0.1582907044480274
 40
0.2401736516706478
 40
0.3243029567544415
 40
0.4109647091022036
 40
0.5004206960754638
 40
0.6312367075363017
 40
0.7977101405843969
 40
1.0
 40
1.0
 40
1.0
 40
1.0
 10
313.9592888656256
 20
246.6755740092385
 30
0.0
 10
313.9600559773105
 20
246.6971400061154
 30
0.0
 10
313.9616058957258
 20
246.7407132384876
 30
0.0
 10
313.9743049221343
 20
246.8054133579279
 30
0.0
 10
313.9949099090996
 20
246.8687915701627
 30
0.0
 10
314.0242543358908
 20
246.9295453152271
 30
0.0
 10
314.0619907103811
 20
246.9862772113613
 30
0.0
 10
314.1144248906905
 20
247.0450333994355
 30
0.0
 10
314.1903343709522
 20
247.1041071652863
 30
0.0
 10
314.3014601113848
 20
247.1565436139918
 30
0.0
 10
314.3897162051459
 20
247.1623198495587
 30
0.0
 10
314.4381302234725
 20
247.1654884780655
 30
0.0
  0
SPLINE
  5
329
330
1F
100
AcDbEntity
  8
0
  6
SLD-Сплошная
 62
     7
370
    25
100
AcDbSpline
210
0.0
220
0.0
230
1.0
 70
     8
 71
     3
 72
    15
 73
    11
 74
     0
 42
0.00000001
 43
0.00000001
 40
0.0
 40
0.0
 40
0.0
 40
0.0
 40
0.1004584111455271
 40
0.1840068712179631
 40
0.2506431494921372
 40
0.3821902199796015
 40
0.500231100157279
 40
0.6761221300376893
 40
0.8419135447319638
 40
1.0
 40
1.0
 40
1.0
 40
1.0
 10
339.5623427231629
 20
247.1654884780656
 30
0.0
 10
339.5862527410704
 20
247.16502450975
 30
0.0
 10
339.6300480543326
 20
247.1641746719204
 30
0.0
 10
339.6887117628451
 20
247.1519152003204
 30
0.0
 10
339.7528786517627
 20
247.1310081099633
 30
0.0
 10
339.8217594888595
 20
247.0956329856156
 30
0.0
 10
339.9049607953905
 20
247.0293196868041
 30
0.0
 10
339.978456166308
 20
246.9343935482876
 30
0.0
 10
340.0315099087731
 20
246.808510562218
 30
0.0
 10
340.0380109092281
 20
246.7191777934523
 30
0.0
 10
340.0411840810097
 20
246.6755740092386
 30
0.0
  0
LINE
  5
32A
330
1F
100
AcDbEntity
  8
0
  6
SLD-Сплошная
 62
     7
370
    25
100
AcDbLine
 10
340.041184081
 20
244.8458143026
 30
0.0
 11
340.041184081
 21
246.6755740092
 31
0.0
  0
LWPOLYLINE
  5
32B
330
1F
100
AcDbEntity
  8
0
  6
SLD-Сплошная
 62
     7
370
    25
100
AcDbPolyline
 90
        3
 70
   128
 43
0.0
 10
340.9740676695
 20
239.7458143026
 10
340.9737691125
 20
235.2658143027
 10
340.9735344979
 20
231.7458143026
  0
LWPOLYLINE
  5
32C
330
1F
100
AcDbEntity
  8
0
  6
SLD-Сплошная
 62
     7
370
    25
100
AcDbPolyline
 90
        3
 70
   128
 43
0.0
 10
313.0264052771
 20
239.7458143026
 10
313.0267038342
 20
235.2658143027
 10
313.0269384487
 20
231.7458143026
  0
LINE
  5
32D
330
1F
100
AcDbEntity
  8
0
  6
SLD-Сплошная
 62
     7
370
    25
100
AcDbLine
 10
340.9740676695
 20
239.7458143026
 30
0.0
 11
313.0264052771
 21
239.7458143026
 31
0.0
  0
LINE
  5
32E
330
1F
100
AcDbEntity
  8
0
  6
SLD-Сплошная
 62
     7
370
    25
100
AcDbLine
 10
303.5910028108
 20
246.7458143026
 30
0.0
 11
303.5367920287
 21
243.6400806722
 31
0.0
  0
LINE
  5
32F
330
1F
100
AcDbEntity
  8
0
  6
SLD-Сплошная
 62
     7
370
    25
100
AcDbLine
 10
303.5910028108
 20
246.7458143026
 30
0.0
 11
313.9602540308
 21
246.7458143026
 31
0.0
  0
LINE
  5
330
330
1F
100
AcDbEntity
  8
0
  6
SLD-Сплошная
 62
     7
370
    25
100
AcDbLine
 10
319.5002364733
 20
240.0458143026
 30
0.0
 11
309.5741231769
 21
240.0458143026
 31
0.0
  0
LINE
  5
331
330
1F
100
AcDbEntity
  8
0
  6
SLD-Сплошная
 62
     7
370
    25
100
AcDbLine
 10
350.4094701358
 20
246.7458143026
 30
0.0
 11
340.0371420281
 21
246.7458143026
 31
0.0
  0
LINE
  5
332
330
1F
100
AcDbEntity
  8
0
  6
SLD-Сплошная
 62
     7
370
    25
100
AcDbLine
 10
344.4183096342
 20
240.0458143026
 30
0.0
 11
334.5002364733
 21
240.0458143026
 31
0.0
  0
LWPOLYLINE
  5
333
330
1F
100
AcDbEntity
  8
0
  6
SLD-Сплошная
 62
     7
370
    25
100
AcDbPolyline
 90
        3
 70
   128
 43
0.0
 10
342.5860708927
 20
231.7458143026
 10
342.5863684527
 20
236.2258143027
 10
342.5866022192
 20
239.7458143026
  0
SPLINE
  5
334
330
1F
100
AcDbEntity
  8
0
  6
SLD-Сплошная
 62
     7
370
    25
100
AcDbSpline
210
0.0
220
0.0
230
1.0
 70
     8
 71
     3
 72
    21
 73
    17
 74
     0
 42
0.00000001
 43
0.00000001
 40
0.0
 40
0.0
 40
0.0
 40
0.0
 40
0.0549170113574354
 40
0.1099658388133415
 40
0.1651531580368737
 40
0.2204855945699935
 40
0.2759697219663331
 40
0.3316120600159971
 40
0.3874190730575466
 40
0.4433971683781199
 40
0.4995526947024176
 40
0.5944542363811511
 40
0.6919244296175919
 40
0.7919895630932727
 40
0.8946739282324432
 40
1.0
 40
1.0
 40
1.0
 40
1.0
 10
344.0137435497403
 20
239.7458143026467
 30
0.0
 10
344.0871065968148
 20
239.7466060835986
 30
0.0
 10
344.2340087826774
 20
239.748191545997
 30
0.0
 10
344.4518424014225
 20
239.7610580448943
 30
0.0
 10
344.6679390027434
 20
239.7816871433395
 30
0.0
 10
344.8819366776473
 20
239.8108948559319
 30
0.0
 10
345.0937090281749
 20
239.8485349224143
 30
0.0
 10
345.3030627064524
 20
239.8947108395359
 30
0.0
 10
345.5098192718692
 20
239.9494487721948
 30
0.0
 10
345.713792149419
 20
240.0127882848564
 30
0.0
 10
345.9608063010476
 20
240.1012172154639
 30
0.0
 10
346.2497713345703
 20
240.2240111215974
 30
0.0
 10
346.5780143534354
 20
240.3928297893991
 30
0.0
 10
346.9017382265635
 20
240.5918428271965
 30
0.0
 10
347.22085176029
 20
240.8201890646029
 30
0.0
 10
347.4231882552131
 20
240.9963574259901
 30
0.0
 10
347.5256413268108
 20
241.0855602648022
 30
0.0
  0
SPLINE
  5
335
330
1F
100
AcDbEntity
  8
0
  6
SLD-Сплошная
 62
     7
370
    25
100
AcDbSpline
210
0.0
220
0.0
230
1.0
 70
     8
 71
     3
 72
     8
 73
     4
 74
     0
 42
0.00000001
 43
0.00000001
 40
0.0
 40
0.0
 40
0.0
 40
0.0
 40
1.0
 40
1.0
 40
1.0
 40
1.0
 10
347.5256413268108
 20
241.0855602648022
 30
0.0
 10
347.9167545670707
 20
241.4410379903227
 30
0.0
 10
348.2912784681073
 20
241.7954658866478
 30
0.0
 10
348.6478343567038
 20
242.1475392566764
 30
0.0
  0
SPLINE
  5
336
330
1F
100
AcDbEntity
  8
0
  6
SLD-Сплошная
 62
     7
370
    25
100
AcDbSpline
210
0.0
220
0.0
230
1.0
 70
     8
 71
     3
 72
    20
 73
    16
 74
     0
 42
0.00000001
 43
0.00000001
 40
0.0
 40
0.0
 40
0.0
 40
0.0
 40
0.0562632203679784
 40
0.1123137302406561
 40
0.1681585297565599
 40
0.2238046966982248
 40
0.2792593849142319
 40
0.3345298226149821
 40
0.3896233105418002
 40
0.4445472200094042
 40
0.4993089908222295
 40
0.6229369389844271
 40
0.74753971150965
 40
0.8732003958916299
 40
1.0
 40
1.0
 40
1.0
 40
1.0
 10
348.6478343567038
 20
242.1475392566763
 30
0.0
 10
348.6971050468821
 20
242.1954346979152
 30
0.0
 10
348.7954601529225
 20
242.2910445053859
 30
0.0
 10
348.9429802899423
 20
242.4246754600627
 30
0.0
 10
349.089865721984
 20
242.5508073908255
 30
0.0
 10
349.2359488094993
 20
242.6688005023251
 30
0.0
 10
349.3810220170643
 20
242.7788791925119
 30
0.0
 10
349.5248941971711
 20
242.8810486805526
 30
0.0
 10
349.6673742464126
 20
242.9753811678349
 30
0.0
 10
349.8082812673224
 20
243.0619470100795
 30
0.0
 10
350.0058748307
 20
243.1739315025033
 30
0.0
 10
350.2579616574592
 20
243.2972437805313
 30
0.0
 10
350.5590153876813
 20
243.4106959318165
 30
0.0
 10
350.8521426253124
 20
243.4896925197247
 30
0.0
 10
351.0368916969445
 20
243.5108196121631
 30
0.0
 10
351.1296829604038
 20
243.5214308135254
 30
0.0
  0
SPLINE
  5
337
330
1F
100
AcDbEntity
  8
0
  6
SLD-Сплошная
 62
     7
370
    25
100
AcDbSpline
210
0.0
220
0.0
230
1.0
 70
     8
 71
     3
 72
    10
 73
     6
 74
     0
 42
0.00000001
 43
0.00000001
 40
0.0
 40
0.0
 40
0.0
 40
0.0
 40
0.5
 40
0.5
 40
1.0
 40
1.0
 40
1.0
 40
1.0
 10
351.1296829604039
 20
243.5214308135254
 30
0.0
 10
351.8980848575057
 20
243.5806929653828
 30
0.0
 10
352.4941641439406
 20
243.6434928075527
 30
0.0
 10
353.2891910523691
 20
243.7721199132743
 30
0.0
 10
353.4879372118203
 20
243.8379145822768
 30
0.0
 10
353.4879167745037
 20
243.9029685789857
 30
0.0
  0
LINE
  5
338
330
1F
100
AcDbEntity
  8
0
  6
SLD-Сплошная
 62
     7
370
    25
100
AcDbLine
 10
353.4879167745
 20
243.902968579
 30
0.0
 11
353.4917360573
 21
231.7458143026
 31
0.0
  0
LINE
  5
339
330
1F
100
AcDbEntity
  8
0
  6
SLD-Сплошная
 62
     7
370
    25
100
AcDbLine
 10
342.5866022192
 20
239.7458143026
 30
0.0
 11
344.0137435497
 21
239.7458143026
 31
0.0
  0
LWPOLYLINE
  5
33A
330
1F
100
AcDbEntity
  8
0
  6
SLD-Сплошная
 62
     7
370
    25
100
AcDbPolyline
 90
        3
 70
   128
 43
0.0
 10
311.414402054
 20
231.7458143026
 10
311.414104494
 20
236.2258143027
 10
311.4138707275
 20
239.7458143026
  0
LINE
  5
33B
330
1F
100
AcDbEntity
  8
0
  6
SLD-Сплошная
 62
     7
370
    25
100
AcDbLine
 10
311.4138707275
 20
239.7458143026
 30
0.0
 11
313.0264052771
 21
239.7458143026
 31
0.0
  0
SPLINE
  5
33C
330
1F
100
AcDbEntity
  8
0
  6
SLD-Сплошная
 62
     7
370
    25
100
AcDbSpline
210
0.0
220
0.0
230
1.0
 70
     8
 71
     3
 72
    14
 73
    10
 74
     0
 42
0.00000001
 43
0.00000001
 40
0.0
 40
0.0
 40
0.0
 40
0.0
 40
0.25
 40
0.25
 40
0.5
 40
0.5
 40
0.75
 40
0.75
 40
1.0
 40
1.0
 40
1.0
 40
1.0
 10
302.8707899862314
 20
243.5214308135254
 30
0.0
 10
302.1177143663117
 20
243.5795109430983
 30
0.0
 10
301.5212144991449
 20
243.6416688944715
 30
0.0
 10
300.7172017555822
 20
243.770589557962
 30
0.0
 10
300.5102811696958
 20
243.8373245369647
 30
0.0
 10
300.5148693308661
 20
243.9708127551874
 30
0.0
 10
300.7263768474866
 20
244.0375301960238
 30
0.0
 10
301.539249598599
 20
244.1663830887156
 30
0.0
 10
302.1400206378451
 20
244.2284908571872
 30
0.0
 10
302.8970866591816
 20
244.2865076900669
 30
0.0
  0
SPLINE
  5
33D
330
1F
100
AcDbEntity
  8
0
  6
SLD-Сплошная
 62
     7
370
    25
100
AcDbSpline
210
0.0
220
0.0
230
1.0
 70
     8
 71
     3
 72
    19
 73
    15
 74
     0
 42
0.00000001
 43
0.00000001
 40
0.0
 40
0.0
 40
0.0
 40
0.0
 40
0.0622449584615382
 40
0.124452930587828
 40
0.1866874850638914
 40
0.2490121096122244
 40
0.311490017770315
 40
0.3741839598225107
 40
0.4371560406592683
 40
0.5004675470985106
 40
0.623906893627299
 40
0.7480242825575961
 40
0.873249230505287
 40
1.0
 40
1.0
 40
1.0
 40
1.0
 10
305.3526385899304
 20
242.1475392566764
 30
0.0
 10
305.2981230362832
 20
242.2004534676509
 30
0.0
 10
305.1891243224645
 20
242.306250447652
 30
0.0
 10
305.025315153492
 20
242.4533040111813
 30
0.0
 10
304.8616116758759
 20
242.5916860235468
 30
0.0
 10
304.6981217328279
 20
242.7205732475931
 30
0.0
 10
304.5350123144749
 20
242.840186535871
 30
0.0
 10
304.3724405875076
 20
242.9504651540124
 30
0.0
 10
304.210565794834
 20
243.051430123493
 30
0.0
 10
303.9989594367598
 20
243.1718632615925
 30
0.0
 10
303.7403274997728
 20
243.2982581082436
 30
0.0
 10
303.4401739174075
 20
243.4112587308676
 30
0.0
 10
303.1478866318599
 20
243.48984016904
 30
0.0
 10
302.9635276591138
 20
243.5108581743373
 30
0.0
 10
302.87078998623
 20
243.5214308135254
 30
0.0
  0
SPLINE
  5
33E
330
1F
100
AcDbEntity
  8
0
  6
SLD-Сплошная
 62
     7
370
    25
100
AcDbSpline
210
0.0
220
0.0
230
1.0
 70
     8
 71
     3
 72
     8
 73
     4
 74
     0
 42
0.00000001
 43
0.00000001
 40
0.0
 40
0.0
 40
0.0
 40
0.0
 40
1.0
 40
1.0
 40
1.0
 40
1.0
 10
306.4748316198246
 20
241.0855602648022
 30
0.0
 10
306.0837183795647
 20
241.4410379903228
 30
0.0
 10
305.709194478528
 20
241.7954658866478
 30
0.0
 10
305.3526385899315
 20
242.1475392566764
 30
0.0
  0
SPLINE
  5
33F
330
1F
100
AcDbEntity
  8
0
  6
SLD-Сплошная
 62
     7
370
    25
100
AcDbSpline
210
0.0
220
0.0
230
1.0
 70
     8
 71
     3
 72
    21
 73
    17
 74
     0
 42
0.00000001
 43
0.00000001
 40
0.0
 40
0.0
 40
0.0
 40
0.0
 40
0.0558684877771383
 40
0.1115583700765061
 40
0.1671165127765092
 40
0.22259011578452
 40
0.2780265950789577
 40
0.3334734620108659
 40
0.3889782013873215
 40
0.4445881498951569
 40
0.5003503764133048
 40
0.6002721700383689
 40
0.6999272390259622
 40
0.7995866088571008
 40
0.899521272928494
 40
1.0
 40
1.0
 40
1.0
 40
1.0
 10
309.9867293968944
 20
239.7458143026467
 30
0.0
 10
309.9120929348667
 20
239.7466222691132
 30
0.0
 10
309.7630586154611
 20
239.7482356190654
 30
0.0
 10
309.5426419750868
 20
239.7613447004398
 30
0.0
 10
309.3250755055559
 20
239.7822890659717
 30
0.0
 10
309.1105486177918
 20
239.8118289454894
 30
0.0
 10
308.8990111837034
 20
239.849761273277
 30
0.0
 10
308.6904759703362
 20
239.8961404038049
 30
0.0
 10
308.4849383094058
 20
239.9509512084809
 30
0.0
 10
308.2823957724523
 20
240.0141990382786
 30
0.0
 10
308.030426476104
 20
240.1047068699816
 30
0.0
 10
307.7337448282584
 20
240.2314499143542
 30
0.0
 10
307.3985881587114
 20
240.4057893000527
 30
0.0
 10
307.0769424000623
 20
240.6061095938736
 30
0.0
 10
306.7672155351821
 20
240.8303082359725
 30
0.0
 10
306.5724691511944
 20
241.0003224091501
 30
0.0
 10
306.4748316198235
 20
241.0855602648022
 30
0.0
  0
LINE
  5
340
330
1F
100
AcDbEntity
  8
0
  6
SLD-Сплошная
 62
     7
370
    25
100
AcDbLine
 10
302.8970866592
 20
244.2865076901
 30
0.0
 11
303.5492239988
 21
244.3523077619
 31
0.0
  0
LINE
  5
341
330
1F
100
AcDbEntity
  8
0
  6
SLD-Сплошная
 62
     7
370
    25
100
AcDbLine
 10
311.4138707275
 20
239.7458143026
 30
0.0
 11
309.9867293969
 21
239.7458143026
 31
0.0
  0
LINE
  5
342
330
1F
100
AcDbEntity
  8
0
  6
SLD-Сплошная
 62
     7
370
    25
100
AcDbLine
 10
342.5866022192
 20
239.7458143026
 30
0.0
 11
340.9740676695
 21
239.7458143026
 31
0.0
  0
LINE
  5
343
330
1F
100
AcDbEntity
  8
0
  6
SLD-Сплошная
 62
     7
370
    25
100
AcDbLine
 10
348.0002364733
 20
207.5458143026
 30
0.0
 11
348.0002364733
 21
224.7458143026
 31
0.0
  0
LINE
  5
344
330
1F
100
AcDbEntity
  8
0
  6
SLD-Сплошная
 62
     7
370
    25
100
AcDbLine
 10
345.6774953728
 20
207.5458143026
 30
0.0
 11
348.0002364733
 21
207.5458143026
 31
0.0
  0
LINE
  5
345
330
1F
100
AcDbEntity
  8
0
  6
SLD-Сплошная
 62
     7
370
    25
100
AcDbLine
 10
345.6774953728
 20
215.4458143026
 30
0.0
 11
345.6774953728
 21
207.5458143026
 31
0.0
  0
LINE
  5
346
330
1F
100
AcDbEntity
  8
0
  6
SLD-Сплошная
 62
     7
370
    25
100
AcDbLine
 10
308.3229775738
 20
215.4458143026
 30
0.0
 11
345.6774953728
 21
215.4458143026
 31
0.0
  0
LINE
  5
347
330
1F
100
AcDbEntity
  8
0
  6
SLD-Сплошная
 62
     7
370
    25
100
AcDbLine
 10
308.3229775738
 20
207.5458143026
 30
0.0
 11
308.3229775738
 21
215.4458143026
 31
0.0
  0
LINE
  5
348
330
1F
100
AcDbEntity
  8
0
  6
SLD-Сплошная
 62
     7
370
    25
100
AcDbLine
 10
306.0002364733
 20
207.5458143026
 30
0.0
 11
308.3229775738
 21
207.5458143026
 31
0.0
  0
LINE
  5
349
330
1F
100
AcDbEntity
  8
0
  6
SLD-Сплошная
 62
     7
370
    25
100
AcDbLine
 10
306.0002364733
 20
207.5458143026
 30
0.0
 11
306.0002364733
 21
224.7458143026
 31
0.0
  0
LINE
  5
34A
330
1F
100
AcDbEntity
  8
0
  6
SLD-Сплошная
 62
     7
370
    25
100
AcDbLine
 10
324.5002364733
 20
215.4458143026
 30
0.0
 11
324.5002364733
 21
214.6458143026
 31
0.0
  0
LINE
  5
34B
330
1F
100
AcDbEntity
  8
0
  6
SLD-Сплошная
 62
     7
370
    25
100
AcDbLine
 10
324.5002364733
 20
214.6458143026
 30
0.0
 11
329.5002364733
 21
214.6458143026
 31
0.0
  0
LINE
  5
34C
330
1F
100
AcDbEntity
  8
0
  6
SLD-Сплошная
 62
     7
370
    25
100
AcDbLine
 10
329.5002364733
 20
215.4458143026
 30
0.0
 11
329.5002364733
 21
214.6458143026
 31
0.0
  0
LINE
  5
34D
330
1F
100
AcDbEntity
  8
0
  6
SLD-Сплошная
 62
     7
370
    25
100
AcDbLine
 10
335.0002364733
 20
248.0458143026
 30
0.0
 11
335.0002364733
 21
247.2420579232
 31
0.0
  0
SPLINE
  5
34E
330
1F
100
AcDbEntity
  8
0
  6
SLD-Сплошная
 62
     7
370
    25
100
AcDbSpline
210
0.0
220
0.0
230
1.0
 70
     8
 71
     3
 72
    10
 73
     6
 74
     0
 42
0.00000001
 43
0.00000001
 40
0.0
 40
0.0
 40
0.0
 40
0.0
 40
0.5
 40
0.5
 40
1.0
 40
1.0
 40
1.0
 40
1.0
 10
335.0002364733177
 20
248.0458143026466
 30
0.0
 10
335.0002364733177
 20
248.1351160881048
 30
0.0
 10
335.0261801180876
 20
248.2319549311985
 30
0.0
 10
335.1299546971672
 20
248.395484386844
 30
0.0
 10
335.2065283704192
 20
248.4601937895639
 30
0.0
 10
335.2873295932145
 20
248.498219718623
 30
0.0
  0
SPLINE
  5
34F
330
1F
100
AcDbEntity
  8
0
  6
SLD-Сплошная
 62
     7
370
    25
100
AcDbSpline
210
0.0
220
0.0
230
1.0
 70
     8
 71
     3
 72
     8
 73
     4
 74
     0
 42
0.00000001
 43
0.00000001
 40
0.0
 40
0.0
 40
0.0
 40
0.0
 40
1.0
 40
1.0
 40
1.0
 40
1.0
 10
335.5002364733177
 20
248.3554586190182
 30
0.0
 10
335.4275175261391
 20
248.4188983686776
 30
0.0
 10
335.3547571434349
 20
248.4664875844762
 30
0.0
 10
335.2873295932145
 20
248.498219718623
 30
0.0
  0
SPLINE
  5
350
330
1F
100
AcDbEntity
  8
0
  6
SLD-Сплошная
 62
     7
370
    25
100
AcDbSpline
210
0.0
220
0.0
230
1.0
 70
     8
 71
     3
 72
     8
 73
     4
 74
     0
 42
0.00000001
 43
0.00000001
 40
0.0
 40
0.0
 40
0.0
 40
0.0
 40
1.0
 40
1.0
 40
1.0
 40
1.0
 10
318.5002364733177
 20
248.3554586190182
 30
0.0
 10
318.5729554204474
 20
248.4188983686755
 30
0.0
 10
318.6457158031955
 20
248.4664875844729
 30
0.0
 10
318.7131433534163
 20
248.4982197186251
 30
0.0
  0
SPLINE
  5
351
330
1F
100
AcDbEntity
  8
0
  6
SLD-Сплошная
 62
     7
370
    25
100
AcDbSpline
210
0.0
220
0.0
230
1.0
 70
     8
 71
     3
 72
    10
 73
     6
 74
     0
 42
0.00000001
 43
0.00000001
 40
0.0
 40
0.0
 40
0.0
 40
0.0
 40
0.5
 40
0.5
 40
1.0
 40
1.0
 40
1.0
 40
1.0
 10
319.0002364733177
 20
248.0458143026466
 30
0.0
 10
319.0002364733177
 20
248.1351160881058
 30
0.0
 10
318.9742928285472
 20
248.2319549312006
 30
0.0
 10
318.8705182494656
 20
248.3954843868472
 30
0.0
 10
318.7939445762124
 20
248.4601937895669
 30
0.0
 10
318.7131433534163
 20
248.4982197186251
 30
0.0
  0
LINE
  5
352
330
1F
100
AcDbEntity
  8
0
  6
SLD-Сплошная
 62
     7
370
    25
100
AcDbLine
 10
319.0002364733
 20
247.2418690423
 30
0.0
 11
319.0002364733
 21
248.0458143026
 31
0.0
  0
LINE
  5
353
330
1F
100
AcDbEntity
  8
0
  6
SLD-Сплошная
 62
     7
370
    25
100
AcDbLine
 10
315.0323182738
 20
215.0458143026
 30
0.0
 11
315.0324439375
 21
215.4458143026
 31
0.0
  0
LINE
  5
354
330
1F
100
AcDbEntity
  8
0
  6
SLD-Сплошная
 62
     7
370
    25
100
AcDbLine
 10
315.0323182738
 20
215.0458143026
 30
0.0
 11
313.6311494603
 21
215.0458143026
 31
0.0
  0
LINE
  5
355
330
1F
100
AcDbEntity
  8
0
  6
SLD-Сплошная
 62
     7
370
    25
100
AcDbLine
 10
313.6311494603
 20
215.0458143026
 30
0.0
 11
313.6287932657
 21
207.5458143026
 31
0.0
  0
LINE
  5
356
330
1F
100
AcDbEntity
  8
0
  6
SLD-Сплошная
 62
     7
370
    25
100
AcDbLine
 10
311.9466059807
 20
207.5458143026
 30
0.0
 11
313.6287932657
 21
207.5458143026
 31
0.0
  0
LINE
  5
357
330
1F
100
AcDbEntity
  8
0
  6
SLD-Сплошная
 62
     7
370
    25
100
AcDbLine
 10
311.9466059807
 20
207.5458143026
 30
0.0
 11
311.9466059807
 21
215.4458143026
 31
0.0
  0
LINE
  5
358
330
1F
100
AcDbEntity
  8
0
  6
SLD-Сплошная
 62
     7
370
    25
100
AcDbLine
 10
334.0323182738
 20
215.0458143026
 30
0.0
 11
334.0324439375
 21
215.4458143026
 31
0.0
  0
LINE
  5
359
330
1F
100
AcDbEntity
  8
0
  6
SLD-Сплошная
 62
     7
370
    25
100
AcDbLine
 10
334.0323182738
 20
215.0458143026
 30
0.0
 11
332.6311494603
 21
215.0458143026
 31
0.0
  0
LINE
  5
35A
330
1F
100
AcDbEntity
  8
0
  6
SLD-Сплошная
 62
     7
370
    25
100
AcDbLine
 10
330.1002364733
 20
207.5458143026
 30
0.0
 11
330.1002364733
 21
215.4458143026
 31
0.0
  0
LINE
  5
35B
330
1F
100
AcDbEntity
  8
0
  6
SLD-Сплошная
 62
     7
370
    25
100
AcDbLine
 10
332.6287932657
 20
207.5458143026
 30
0.0
 11
330.1002364733
 21
207.5458143026
 31
0.0
  0
LINE
  5
35C
330
1F
100
AcDbEntity
  8
0
  6
SLD-Сплошная
 62
     7
370
    25
100
AcDbLine
 10
332.6311494603
 20
215.0458143026
 30
0.0
 11
332.6287932657
 21
207.5458143026
 31
0.0
  0
LINE
  5
35D
330
1F
100
AcDbEntity
  8
0
  6
SLD-Сплошная
 62
     7
370
    25
100
AcDbLine
 10
323.9002364733
 20
207.5458143026
 30
0.0
 11
323.9002364733
 21
215.4458143026
 31
0.0
  0
LINE
  5
35E
330
1F
100
AcDbEntity
  8
0
  6
SLD-Сплошная
 62
     7
370
    25
100
AcDbLine
 10
321.3693234864
 20
215.0458143026
 30
0.0
 11
319.9681546729
 21
215.0458143026
 31
0.0
  0
LINE
  5
35F
330
1F
100
AcDbEntity
  8
0
  6
SLD-Сплошная
 62
     7
370
    25
100
AcDbLine
 10
319.9681546729
 20
215.0458143026
 30
0.0
 11
319.9680290092
 21
215.4458143026
 31
0.0
  0
LINE
  5
360
330
1F
100
AcDbEntity
  8
0
  6
SLD-Сплошная
 62
     7
370
    25
100
AcDbLine
 10
321.3716796809
 20
207.5458143026
 30
0.0
 11
323.9002364733
 21
207.5458143026
 31
0.0
  0
LINE
  5
361
330
1F
100
AcDbEntity
  8
0
  6
SLD-Сплошная
 62
     7
370
    25
100
AcDbLine
 10
321.3716796809
 20
207.5458143026
 30
0.0
 11
321.3693234864
 21
215.0458143026
 31
0.0
  0
LINE
  5
362
330
1F
100
AcDbEntity
  8
0
  6
SLD-Сплошная
 62
     7
370
    25
100
AcDbLine
 10
342.0538669659
 20
215.4458143026
 30
0.0
 11
342.0538669659
 21
207.5458143026
 31
0.0
  0
LINE
  5
363
330
1F
100
AcDbEntity
  8
0
  6
SLD-Сплошная
 62
     7
370
    25
100
AcDbLine
 10
340.3693234864
 20
215.0458143026
 30
0.0
 11
338.9681546729
 21
215.0458143026
 31
0.0
  0
LINE
  5
364
330
1F
100
AcDbEntity
  8
0
  6
SLD-Сплошная
 62
     7
370
    25
100
AcDbLine
 10
338.9681546729
 20
215.0458143026
 30
0.0
 11
338.9680290092
 21
215.4458143026
 31
0.0
  0
LINE
  5
365
330
1F
100
AcDbEntity
  8
0
  6
SLD-Сплошная
 62
     7
370
    25
100
AcDbLine
 10
340.3716796809
 20
207.5458143026
 30
0.0
 11
342.0538669659
 21
207.5458143026
 31
0.0
  0
LINE
  5
366
330
1F
100
AcDbEntity
  8
0
  6
SLD-Сплошная
 62
     7
370
    25
100
AcDbLine
 10
340.3716796809
 20
207.5458143026
 30
0.0
 11
340.3693234864
 21
215.0458143026
 31
0.0
  0
LINE
  5
367
330
1F
100
AcDbEntity
  8
0
  6
SLD-Сплошная
 62
     7
370
    25
100
AcDbLine
 10
311.1002364733
 20
215.4458143026
 30
0.0
 11
311.1002364733
 21
207.5458143026
 31
0.0
  0
LINE
  5
368
330
1F
100
AcDbEntity
  8
0
  6
SLD-Сплошная
 62
     7
370
    25
100
AcDbLine
 10
311.1002364733
 20
207.5458143026
 30
0.0
 11
311.9466059807
 21
207.5458143026
 31
0.0
  0
LINE
  5
369
330
1F
100
AcDbEntity
  8
0
  6
SLD-Сплошная
 62
     7
370
    25
100
AcDbLine
 10
342.9002364733
 20
215.4458143026
 30
0.0
 11
342.9002364733
 21
207.5458143026
 31
0.0
  0
LINE
  5
36A
330
1F
100
AcDbEntity
  8
0
  6
SLD-Сплошная
 62
     7
370
    25
100
AcDbLine
 10
342.9002364733
 20
207.5458143026
 30
0.0
 11
342.0538669659
 21
207.5458143026
 31
0.0
  0
LINE
  5
36B
330
1F
100
AcDbEntity
  8
0
  6
SLD-Сплошная
 62
     7
370
    25
100
AcDbLine
 10
313.6294215843
 20
209.5458143026
 30
0.0
 11
321.3710513624
 21
209.5458143026
 31
0.0
  0
LINE
  5
36C
330
1F
100
AcDbEntity
  8
0
  6
SLD-Сплошная
 62
     7
370
    25
100
AcDbLine
 10
332.6294215843
 20
209.5458143026
 30
0.0
 11
340.3710513624
 21
209.5458143026
 31
0.0
  0
LINE
  5
36D
330
1F
100
AcDbEntity
  8
0
  6
SLD-Сплошная
 62
     7
370
    25
100
AcDbLine
 10
323.9002364733
 20
209.5458143026
 30
0.0
 11
330.1002364733
 21
209.5458143026
 31
0.0
  0
LINE
  5
36E
330
1F
100
AcDbEntity
  8
0
  6
SLD-Сплошная
 62
     7
370
    25
100
AcDbLine
 10
340.3716796809
 20
207.5458143026
 30
0.0
 11
332.6287932657
 21
207.5458143026
 31
0.0
  0
LINE
  5
36F
330
1F
100
AcDbEntity
  8
0
  6
SLD-Сплошная
 62
     7
370
    25
100
AcDbLine
 10
321.3716796809
 20
207.5458143026
 30
0.0
 11
313.6287932657
 21
207.5458143026
 31
0.0
  0
LINE
  5
370
330
1F
100
AcDbEntity
  8
0
  6
SLD-Сплошная
 62
     7
370
    25
100
AcDbLine
 10
319.7021389414
 20
205.0458143026
 30
0.0
 11
319.7024242755
 21
207.5458143026
 31
0.0
  0
LINE
  5
371
330
1F
100
AcDbEntity
  8
0
  6
SLD-Сплошная
 62
     7
370
    25
100
AcDbLine
 10
319.7021389414
 20
205.0458143026
 30
0.0
 11
315.2983340052
 21
205.0458143026
 31
0.0
  0
LINE
  5
372
330
1F
100
AcDbEntity
  8
0
  6
SLD-Сплошная
 62
     7
370
    25
100
AcDbLine
 10
315.2983340052
 20
205.0458143026
 30
0.0
 11
315.2980486711
 21
207.5458143026
 31
0.0
  0
LINE
  5
373
330
1F
100
AcDbEntity
  8
0
  6
SLD-Сплошная
 62
     7
370
    25
100
AcDbLine
 10
338.7021389414
 20
205.0458143026
 30
0.0
 11
338.7024242755
 21
207.5458143026
 31
0.0
  0
LINE
  5
374
330
1F
100
AcDbEntity
  8
0
  6
SLD-Сплошная
 62
     7
370
    25
100
AcDbLine
 10
334.2983340052
 20
205.0458143026
 30
0.0
 11
338.7021389414
 21
205.0458143026
 31
0.0
  0
LINE
  5
375
330
1F
100
AcDbEntity
  8
0
  6
SLD-Сплошная
 62
     7
370
    25
100
AcDbLine
 10
334.2983340052
 20
205.0458143026
 30
0.0
 11
334.2980486711
 21
207.5458143026
 31
0.0
  0
LINE
  5
376
330
1F
100
AcDbEntity
  8
0
  6
SLD-Сплошная
 62
     7
370
    25
100
AcDbLine
 10
331.5692170251
 20
207.5458143026
 30
0.0
 11
331.5700024233
 21
205.0458143026
 31
0.0
  0
LINE
  5
377
330
1F
100
AcDbEntity
  8
0
  6
SLD-Сплошная
 62
     7
370
    25
100
AcDbLine
 10
334.2983340052
 20
205.0458143026
 30
0.0
 11
331.5700024233
 21
205.0458143026
 31
0.0
  0
LINE
  5
378
330
1F
100
AcDbEntity
  8
0
  6
SLD-Сплошная
 62
     7
370
    25
100
AcDbLine
 10
322.4312559215
 20
207.5458143026
 30
0.0
 11
322.4304705233
 21
205.0458143026
 31
0.0
  0
LINE
  5
379
330
1F
100
AcDbEntity
  8
0
  6
SLD-Сплошная
 62
     7
370
    25
100
AcDbLine
 10
319.7021389414
 20
205.0458143026
 30
0.0
 11
322.4304705233
 21
205.0458143026
 31
0.0
  0
LINE
  5
37A
330
1F
100
AcDbEntity
  8
0
  6
SLD-Сплошная
 62
     7
370
    25
100
AcDbLine
 10
341.4312559215
 20
207.5458143026
 30
0.0
 11
341.4304705233
 21
205.0458143026
 31
0.0
  0
LINE
  5
37B
330
1F
100
AcDbEntity
  8
0
  6
SLD-Сплошная
 62
     7
370
    25
100
AcDbLine
 10
341.4304705233
 20
205.0458143026
 30
0.0
 11
338.7021389414
 21
205.0458143026
 31
0.0
  0
LINE
  5
37C
330
1F
100
AcDbEntity
  8
0
  6
SLD-Сплошная
 62
     7
370
    25
100
AcDbLine
 10
312.5692170251
 20
207.5458143026
 30
0.0
 11
312.5700024233
 21
205.0458143026
 31
0.0
  0
LINE
  5
37D
330
1F
100
AcDbEntity
  8
0
  6
SLD-Сплошная
 62
     7
370
    25
100
AcDbLine
 10
312.5700024233
 20
205.0458143026
 30
0.0
 11
315.2983340052
 21
205.0458143026
 31
0.0
  0
LINE
  5
37E
330
1F
100
AcDbEntity
  8
0
  6
SLD-Сплошная
 62
     7
370
    25
100
AcDbLine
 10
330.1002364733
 20
207.5458143026
 30
0.0
 11
323.9002364733
 21
207.5458143026
 31
0.0
  0
SPLINE
  5
37F
330
1F
100
AcDbEntity
  8
0
  6
SLD-Сплошная
 62
     7
370
    25
100
AcDbSpline
210
0.0
220
0.0
230
1.0
 70
     8
 71
     3
 72
     9
 73
     5
 74
     0
 42
0.00000001
 43
0.00000001
 40
0.0
 40
0.0
 40
0.0
 40
0.0
 40
0.4485198980288538
 40
1.0
 40
1.0
 40
1.0
 40
1.0
 10
351.2969914362565
 20
243.7583359893075
 30
0.0
 10
351.1490473049403
 20
243.7298143732149
 30
0.0
 10
350.8191976550889
 20
243.6662238475371
 30
0.0
 10
350.1568207304504
 20
243.6058345502165
 30
0.0
 10
349.7915330365074
 20
243.5725310543721
 30
0.0
  0
SPLINE
  5
380
330
1F
100
AcDbEntity
  8
0
  6
SLD-Сплошная
 62
     7
370
    25
100
AcDbSpline
210
0.0
220
0.0
230
1.0
 70
     8
 71
     3
 72
    10
 73
     6
 74
     0
 42
0.00000001
 43
0.00000001
 40
0.0
 40
0.0
 40
0.0
 40
0.0
 40
0.5
 40
0.5
 40
1.0
 40
1.0
 40
1.0
 40
1.0
 10
353.4879167745037
 20
243.9029685789857
 30
0.0
 10
353.4878962245963
 20
243.9683809636801
 30
0.0
 10
353.2868869547084
 20
244.0345463667389
 30
0.0
 10
352.4828923945226
 20
244.1638646374016
 30
0.0
 10
351.880115419021
 20
244.2269839986729
 30
0.0
 10
351.1033862874537
 20
244.2865076900669
 30
0.0
  0
SPLINE
  5
381
330
1F
100
AcDbEntity
  8
0
  6
SLD-Сплошная
 62
     7
370
    25
100
AcDbSpline
210
0.0
220
0.0
230
1.0
 70
     8
 71
     3
 72
     9
 73
     5
 74
     0
 42
0.00000001
 43
0.00000001
 40
0.0
 40
0.0
 40
0.0
 40
0.0
 40
0.542611246927175
 40
1.0
 40
1.0
 40
1.0
 40
1.0
 10
304.208939910128
 20
243.5725310543721
 30
0.0
 10
303.8596818403055
 20
243.6043038991508
 30
0.0
 10
303.2160201547058
 20
243.6628593473812
 30
0.0
 10
302.8795852800089
 20
243.7244382545895
 30
0.0
 10
302.7257037521812
 20
243.7526037541731
 30
0.0
  0
LINE
  5
382
330
1F
100
AcDbEntity
  8
0
  6
SLD-Сплошная
 62
     7
370
    25
100
AcDbLine
 10
308.3229775738
 20
207.5458143026
 30
0.0
 11
311.1002364733
 21
207.5458143026
 31
0.0
  0
LINE
  5
383
330
1F
100
AcDbEntity
  8
0
  6
SLD-Сплошная
 62
     7
370
    25
100
AcDbLine
 10
342.9002364733
 20
207.5458143026
 30
0.0
 11
345.6774953728
 21
207.5458143026
 31
0.0
  0
LINE
  5
384
330
1F
100
AcDbEntity
  8
0
  6
SLD-Сплошная
 62
     7
370
    25
100
AcDbLine
 10
323.0002364733
 20
207.5458143026
 30
0.0
 11
323.0002364733
 21
206.5458143026
 31
0.0
  0
LINE
  5
385
330
1F
100
AcDbEntity
  8
0
  6
SLD-Сплошная
 62
     7
370
    25
100
AcDbLine
 10
331.0002364733
 20
207.5458143026
 30
0.0
 11
331.0002364733
 21
206.5458143026
 31
0.0
  0
LINE
  5
386
330
1F
100
AcDbEntity
  8
0
  6
SLD-Сплошная
 62
     7
370
    25
100
AcDbLine
 10
331.0002364733
 20
206.5458143026
 30
0.0
 11
323.0002364733
 21
206.5458143026
 31
0.0
  0
LINE
  5
387
330
1F
100
AcDbEntity
  8
0
  6
SLD-Сплошная
 62
     7
370
    25
100
AcDbLine
 10
351.1033862875
 20
244.2865076901
 30
0.0
 11
350.451085667
 21
244.3616621137
 31
0.0
  0
LINE
  5
388
330
1F
100
AcDbEntity
  8
0
  6
SLD-Сплошная
 62
     7
370
    25
100
AcDbLine
 10
317.0161379193
 20
248.4655371178
 30
0.0
 11
317.0362202892
 21
248.4714776044
 31
0.0
  0
LINE
  5
389
330
1F
100
AcDbEntity
  8
0
  6
SLD-Сплошная
 62
     7
370
    25
100
AcDbLine
 10
336.9843347781
 20
248.4655371973
 30
0.0
 11
336.9642526572
 21
248.4714776044
 31
0.0
  0
SPLINE
  5
38A
330
1F
100
AcDbEntity
  8
0
  6
SLD-Сплошная
 62
     7
370
    25
100
AcDbSpline
210
0.0
220
0.0
230
1.0
 70
     8
 71
     3
 72
     8
 73
     4
 74
     0
 42
0.00000001
 43
0.00000001
 40
0.0
 40
0.0
 40
0.0
 40
0.0
 40
1.0
 40
1.0
 40
1.0
 40
1.0
 10
335.5002364733177
 20
248.5458143026466
 30
0.0
 10
335.4275175261913
 20
248.5458143026466
 30
0.0
 10
335.3547571434349
 20
248.5299518527807
 30
0.0
 10
335.2873295932145
 20
248.498219718623
 30
0.0
  0
LINE
  5
38B
330
1F
100
AcDbEntity
  8
0
  6
SLD-Сплошная
 62
     7
370
    25
100
AcDbLine
 10
336.8002364733
 20
248.5458143026
 30
0.0
 11
335.5002364733
 21
248.5458143026
 31
0.0
  0
LINE
  5
38C
330
1F
100
AcDbEntity
  8
0
  6
SLD-Сплошная
 62
     7
370
    25
100
AcDbLine
 10
318.5002364733
 20
248.5458143026
 30
0.0
 11
317.2002364733
 21
248.5458143026
 31
0.0
  0
SPLINE
  5
38D
330
1F
100
AcDbEntity
  8
0
  6
SLD-Сплошная
 62
     7
370
    25
100
AcDbSpline
210
0.0
220
0.0
230
1.0
 70
     8
 71
     3
 72
     8
 73
     4
 74
     0
 42
0.00000001
 43
0.00000001
 40
0.0
 40
0.0
 40
0.0
 40
0.0
 40
1.0
 40
1.0
 40
1.0
 40
1.0
 10
318.5002364733177
 20
248.5458143026466
 30
0.0
 10
318.5729554204465
 20
248.5458143026466
 30
0.0
 10
318.6457158032055
 20
248.5299518527796
 30
0.0
 10
318.7131433534163
 20
248.4982197186251
 30
0.0
  0
ARC
  5
38E
330
1F
100
AcDbEntity
  8
0
  6
SLD-Сплошная
 62
     7
370
    25
100
AcDbCircle
 10
317.2002364733
 20
248.0458143026
 30
0.0
 40
0.5
100
AcDbArc
 50
90.0
 51
134.8964854158
  0
ARC
  5
38F
330
1F
100
AcDbEntity
  8
0
  6
SLD-Сплошная
 62
     7
370
    25
100
AcDbCircle
 10
336.8002364733
 20
248.0458143026
 30
0.0
 40
0.5000000000000556
100
AcDbArc
 50
45.3290664743
 51
90.0
  0
LINE
  5
390
330
1F
100
AcDbEntity
  8
0
  6
SLD-Сплошная
 62
     7
370
    25
100
AcDbLine
 10
339.7869049498
 20
247.1237076918
 30
0.0
 11
339.7866711499
 21
247.8679156459
 31
0.0
  0
LINE
  5
391
330
1F
100
AcDbEntity
  8
0
  6
SLD-Сплошная
 62
     7
370
    25
100
AcDbLine
 10
314.2135680028
 20
247.123726586
 30
0.0
 11
314.2138017967
 21
247.8679156459
 31
0.0
  0
LINE
  5
392
330
1F
100
AcDbEntity
  8
0
  6
SLD-Сплошная
 62
     7
370
    25
100
AcDbLine
 10
335.5002364733
 20
248.5458143026
 30
0.0
 11
318.5002364733
 21
248.5458143026
 31
0.0
  0
ARC
  5
393
330
1F
100
AcDbEntity
  8
0
  6
SLD-Сплошная
 62
     7
370
    25
100
AcDbCircle
 10
316.0002364733
 20
247.9458143026
 30
0.0
 40
0.5
100
AcDbArc
 50
32.5324173546
 51
90.0
  0
ARC
  5
394
330
1F
100
AcDbEntity
  8
0
  6
SLD-Сплошная
 62
     7
370
    25
100
AcDbCircle
 10
338.0002364733
 20
247.9458143026
 30
0.0
 40
0.5
100
AcDbArc
 50
90.0
 51
147.4675826453
  0
LINE
  5
395
330
1F
100
AcDbEntity
  8
0
  6
SLD-Сплошная
 62
     7
370
    25
100
AcDbLine
 10
314.2139833489
 20
248.4458143026
 30
0.0
 11
316.0002364733
 21
248.4458143026
 31
0.0
  0
SPLINE
  5
396
330
1F
100
AcDbEntity
  8
0
  6
SLD-Сплошная
 62
     7
370
    25
100
AcDbSpline
210
0.0
220
0.0
230
1.0
 70
    24
 71
     3
 72
    10
 73
     6
 74
     0
 42
0.00000001
 43
0.00000001
 40
0.0
 40
0.0
 40
0.0
 40
0.0
 40
0.5
 40
0.5
 40
1.0
 40
1.0
 40
1.0
 40
1.0
 10
314.2138017966971
 20
247.8679156458708
 30
0.0
 10
314.2138612111499
 20
248.0570377170036
 30
0.0
 10
314.2139070064744
 20
248.2028087570878
 30
0.0
 10
314.2139680804313
 20
248.3972131935349
 30
0.0
 10
314.2139833489205
 20
248.4458143026467
 30
0.0
 10
314.2139833489205
 20
248.4458143026467
 30
0.0
  0
LINE
  5
397
330
1F
100
AcDbEntity
  8
0
  6
SLD-Сплошная
 62
     7
370
    25
100
AcDbLine
 10
339.7864895977
 20
248.4458143026
 30
0.0
 11
338.0002364733
 21
248.4458143026
 31
0.0
  0
SPLINE
  5
398
330
1F
100
AcDbEntity
  8
0
  6
SLD-Сплошная
 62
     7
370
    25
100
AcDbSpline
210
0.0
220
0.0
230
1.0
 70
    24
 71
     3
 72
    10
 73
     6
 74
     0
 42
0.00000001
 43
0.00000001
 40
0.0
 40
0.0
 40
0.0
 40
0.0
 40
0.5
 40
0.5
 40
1.0
 40
1.0
 40
1.0
 40
1.0
 10
339.7866711499383
 20
247.8679156458708
 30
0.0
 10
339.7866117354853
 20
248.0570377170035
 30
0.0
 10
339.786565940161
 20
248.2028087570878
 30
0.0
 10
339.786504866204
 20
248.3972131935349
 30
0.0
 10
339.7864895977148
 20
248.4458143026467
 30
0.0
 10
339.7864895977148
 20
248.4458143026467
 30
0.0
  0
LINE
  5
399
330
1F
100
AcDbEntity
  8
0
  6
SLD-Сплошная
 62
     7
370
    25
100
AcDbLine
 10
300.5087368893
 20
64.2322809914
 30
0.0
 11
300.5125561808
 21
52.0750992017
 31
0.0
  0
LINE
  5
39A
330
1F
100
AcDbEntity
  8
0
  6
SLD-Сплошная
 62
     7
370
    25
100
AcDbLine
 10
350.4094701358
 20
49.2322809914
 30
0.0
 11
350.451085667
 21
51.6164331804
 31
0.0
  0
LINE
  5
39B
330
1F
100
AcDbEntity
  8
0
  6
SLD-Сплошная
 62
     7
370
    25
100
AcDbLine
 10
316.5993601179
 20
47.6747719035
 30
0.0
 11
316.8483941744
 21
47.5789266392
 31
0.0
  0
LINE
  5
39C
330
1F
100
AcDbEntity
  8
0
  6
SLD-Сплошная
 62
     7
370
    25
100
AcDbLine
 10
337.1504981256
 20
47.5783182988
 30
0.0
 11
337.4011128286
 21
47.6747719035
 31
0.0
  0
LINE
  5
39D
330
1F
100
AcDbEntity
  8
0
  6
SLD-Сплошная
 62
     7
370
    25
100
AcDbLine
 10
316.4217801295
 20
47.7633926392
 30
0.0
 11
316.5993504006
 21
47.6747767528
 31
0.0
  0
LINE
  5
39E
330
1F
100
AcDbEntity
  8
0
  6
SLD-Сплошная
 62
     7
370
    25
100
AcDbLine
 10
337.401122546
 20
47.6747767528
 30
0.0
 11
337.5786928172
 21
47.7633926392
 31
0.0
  0
ARC
  5
39F
330
1F
100
AcDbEntity
  8
0
  6
SLD-Сплошная
 62
     7
370
    25
100
AcDbCircle
 10
317.2002364733
 20
47.9322809914
 30
0.0
 40
0.5
100
AcDbArc
 50
180.0
 51
270.0
  0
SPLINE
  5
3A0
330
1F
100
AcDbEntity
  8
0
  6
SLD-Сплошная
 62
     7
370
    25
100
AcDbSpline
210
0.0
220
0.0
230
1.0
 70
    24
 71
     3
 72
    35
 73
    31
 74
     0
 42
0.00000001
 43
0.00000001
 40
0.0
 40
0.0
 40
0.0
 40
0.0
 40
0.1250000000000059
 40
0.1562500000000063
 40
0.1562500000000063
 40
0.1875000000000067
 40
0.1875000000000067
 40
0.2500000000000076
 40
0.2500000000000076
 40
0.3750000000000093
 40
0.3750000000000093
 40
0.4375000000000102
 40
0.4687500000000103
 40
0.4687500000000103
 40
0.4843750000000108
 40
0.4843750000000108
 40
0.5000000000000112
 40
0.6250000000000095
 40
0.6250000000000095
 40
0.6875000000000078
 40
0.6875000000000078
 40
0.750000000000006
 40
0.7812500000000053
 40
0.7812500000000053
 40
0.8125000000000046
 40
0.8125000000000046
 40
0.875000000000003
 40
0.9375000000000016
 40
0.9375000000000016
 40
1.0
 40
1.0
 40
1.0
 40
1.0
 10
316.7002364733177
 20
47.93228099141061
 30
0.0
 10
316.7002364733177
 20
47.93228099141061
 30
0.0
 10
316.7002364733177
 20
47.98851203611393
 30
0.0
 10
316.7002364733177
 20
48.11503188669653
 30
0.0
 10
316.7002364733177
 20
48.17126293139987
 30
0.0
 10
316.7002364733177
 20
48.2043912025063
 30
0.0
 10
316.7002364733177
 20
48.30995291242243
 30
0.0
 10
316.7002364733177
 20
48.39159742380016
 30
0.0
 10
316.7002364733177
 20
48.67034107223454
 30
0.0
 10
316.7002364733177
 20
48.90397574469516
 30
0.0
 10
316.7002364733177
 20
49.3060286491461
 30
0.0
 10
316.7002364733177
 20
49.52056243591299
 30
0.0
 10
316.7002364733177
 20
49.75535722449195
 30
0.0
 10
316.7002364733177
 20
49.87613145241677
 30
0.0
 10
316.7002364733177
 20
49.91867475030173
 30
0.0
 10
316.7002364733177
 20
49.99729837947627
 30
0.0
 10
316.7002364733177
 20
50.35413344197323
 30
0.0
 10
316.7002364733177
 20
50.73822708537355
 30
0.0
 10
316.7002364733177
 20
51.28265840949663
 30
0.0
 10
316.7002364733177
 20
51.46912330511417
 30
0.0
 10
316.7002364733177
 20
51.8443002374385
 30
0.0
 10
316.7002364733177
 20
52.12894586199391
 30
0.0
 10
316.7002364733177
 20
52.41848587451756
 30
0.0
 10
316.7002364733177
 20
52.61260019130401
 30
0.0
 10
316.7002364733177
 20
52.70873627439197
 30
0.0
 10
316.7002364733177
 20
53.01646775875136
 30
0.0
 10
316.7002364733177
 20
53.42386933959393
 30
0.0
 10
316.7002364733177
 20
53.82545679049639
 30
0.0
 10
316.7002364733177
 20
54.2241371764289
 30
0.0
 10
316.7002364733177
 20
54.42270148947264
 30
0.0
 10
316.7002364733177
 20
54.61482874982111
 30
0.0
  0
LINE
  5
3A1
330
1F
100
AcDbEntity
  8
0
  6
SLD-Сплошная
 62
     7
370
    25
100
AcDbLine
 10
316.7702941517
 20
55.2322809914
 30
0.0
 11
316.7002364733
 21
54.6148287498
 31
0.0
  0
ARC
  5
3A2
330
1F
100
AcDbEntity
  8
0
  6
SLD-Сплошная
 62
     7
370
    25
100
AcDbCircle
 10
336.8002364733
 20
47.9322809914
 30
0.0
 40
0.5
100
AcDbArc
 50
270.0
 51
0.0
  0
LINE
  5
3A3
330
1F
100
AcDbEntity
  8
0
  6
SLD-Сплошная
 62
     7
370
    25
100
AcDbLine
 10
337.3002364733
 20
54.6148287081
 30
0.0
 11
337.2300276709
 21
55.2322809914
 31
0.0
  0
SPLINE
  5
3A4
330
1F
100
AcDbEntity
  8
0
  6
SLD-Сплошная
 62
     7
370
    25
100
AcDbSpline
210
0.0
220
0.0
230
1.0
 70
    24
 71
     3
 72
    22
 73
    18
 74
     0
 42
0.00000001
 43
0.00000001
 40
0.0
 40
0.0
 40
0.0
 40
0.0
 40
0.125
 40
0.125
 40
0.25
 40
0.25
 40
0.375
 40
0.375
 40
0.5
 40
0.5
 40
0.625
 40
0.625
 40
0.75
 40
0.75
 40
0.875
 40
0.875
 40
1.0
 40
1.0
 40
1.0
 40
1.0
 10
337.3002364733176
 20
47.93228099141061
 30
0.0
 10
337.3002364733176
 20
47.93228099141061
 30
0.0
 10
337.3002364733176
 20
47.96728227476464
 30
0.0
 10
337.3002364733176
 20
48.12745880779783
 30
0.0
 10
337.3002364733176
 20
48.25293155244218
 30
0.0
 10
337.3002364733176
 20
48.60488197162655
 30
0.0
 10
337.3002364733176
 20
48.83156433580668
 30
0.0
 10
337.3002364733176
 20
49.3786919945538
 30
0.0
 10
337.3002364733176
 20
49.69905151241488
 30
0.0
 10
337.3002364733176
 20
50.40576069408153
 30
0.0
 10
337.3002364733176
 20
50.79172378976857
 30
0.0
 10
337.3002364733176
 20
51.58866330299094
 30
0.0
 10
337.3002364733176
 20
51.99919435577922
 30
0.0
 10
337.3002364733176
 20
52.80465201659208
 30
0.0
 10
337.3002364733176
 20
53.1993334427052
 30
0.0
 10
337.3002364733176
 20
53.94404325977918
 30
0.0
 10
337.3002364733176
 20
54.29407853196658
 30
0.0
 10
337.3002364733176
 20
54.61482870813131
 30
0.0
  0
LINE
  5
3A5
330
1F
100
AcDbEntity
  8
0
  6
SLD-Сплошная
 62
     7
370
    25
100
AcDbLine
 10
289.4827814084
 20
71.2322809914
 30
0.0
 11
364.5176915382
 21
71.2322809914
 31
0.0
  0
LINE
  5
3A6
330
1F
100
AcDbEntity
  8
0
  6
SLD-Сплошная
 62
     7
370
    25
100
AcDbLine
 10
289.4805822935
 20
64.2322809914
 30
0.0
 11
364.5198906532
 21
64.2322809914
 31
0.0
  0
LINE
  5
3A7
330
1F
100
AcDbEntity
  8
0
  6
SLD-Сплошная
 62
     7
370
    25
100
AcDbLine
 10
289.4805822935
 20
64.2322809914
 30
0.0
 11
289.4827814084
 21
71.2322809914
 31
0.0
  0
LINE
  5
3A8
330
1F
100
AcDbEntity
  8
0
  6
SLD-Сплошная
 62
     7
370
    25
100
AcDbLine
 10
364.5198906532
 20
64.2322809914
 30
0.0
 11
364.5176915382
 21
71.2322809914
 31
0.0
  0
LINE
  5
3A9
330
1F
100
AcDbEntity
  8
0
  6
SLD-Сплошная
 62
     7
370
    25
100
AcDbLine
 10
316.0002399767
 20
55.2322809914
 30
0.0
 11
338.0002329681
 21
55.2322809914
 31
0.0
  0
LINE
  5
3AA
330
1F
100
AcDbEntity
  8
0
  6
SLD-Сплошная
 62
     7
370
    25
100
AcDbLine
 10
339.7917360576
 20
64.2322809914
 30
0.0
 11
339.7883416564
 21
53.4275665528
 31
0.0
  0
LINE
  5
3AB
330
1F
100
AcDbEntity
  8
0
  6
SLD-Сплошная
 62
     7
370
    25
100
AcDbLine
 10
314.208736889
 20
64.2322809914
 30
0.0
 11
314.2121312903
 21
53.4275665528
 31
0.0
  0
LINE
  5
3AC
330
1F
100
AcDbEntity
  8
0
  6
SLD-Сплошная
 62
     7
370
    25
100
AcDbLine
 10
337.5002364733
 20
55.2322809914
 30
0.0
 11
337.5002364733
 21
53.436292756
 31
0.0
  0
LINE
  5
3AD
330
1F
100
AcDbEntity
  8
0
  6
SLD-Сплошная
 62
     7
370
    25
100
AcDbLine
 10
316.5002364733
 20
53.436292756
 30
0.0
 11
316.5002364733
 21
55.2322809914
 31
0.0
  0
LINE
  5
3AE
330
1F
100
AcDbEntity
  8
0
  6
SLD-Сплошная
 62
     7
370
    25
100
AcDbLine
 10
316.0002364733
 20
47.5322809914
 30
0.0
 11
314.2139833489
 21
47.5322809914
 31
0.0
  0
SPLINE
  5
3AF
330
1F
100
AcDbEntity
  8
0
  6
SLD-Сплошная
 62
     7
370
    25
100
AcDbSpline
210
0.0
220
0.0
230
1.0
 70
    24
 71
     3
 72
    22
 73
    18
 74
     0
 42
0.00000001
 43
0.00000001
 40
0.0
 40
0.0
 40
0.0
 40
0.0
 40
0.125
 40
0.125
 40
0.25
 40
0.25
 40
0.375
 40
0.375
 40
0.5
 40
0.5
 40
0.625
 40
0.625
 40
0.75
 40
0.75
 40
0.875
 40
0.875
 40
1.0
 40
1.0
 40
1.0
 40
1.0
 10
314.2139833489205
 20
47.53228099141061
 30
0.0
 10
314.2139833489205
 20
47.53228099141062
 30
0.0
 10
314.2139736475905
 20
47.56316128298717
 30
0.0
 10
314.213931300046
 20
47.69795769922177
 30
0.0
 10
314.2138986182815
 20
47.8019869830843
 30
0.0
 10
314.2138086785591
 20
48.08827400163166
 30
0.0
 10
314.2137514004124
 20
48.27059599936599
 30
0.0
 10
314.2136135185136
 20
48.70948770002795
 30
0.0
 10
314.2135329237645
 20
48.96602874563971
 30
0.0
 10
314.2133527537022
 20
49.53952784733136
 30
0.0
 10
314.2132532170075
 20
49.85636297629938
 30
0.0
 10
314.2130418727362
 20
50.52909266366822
 30
0.0
 10
314.2129301176688
 20
50.88482007961048
 30
0.0
 10
314.2127019711688
 20
51.6110329202632
 30
0.0
 10
314.2125856245539
 20
51.98137568558657
 30
0.0
 10
314.2123553132637
 20
52.71447926723206
 30
0.0
 10
314.2122413720834
 20
53.07716529657491
 30
0.0
 10
314.2121312902786
 20
53.42756655278691
 30
0.0
  0
SPLINE
  5
3B0
330
1F
100
AcDbEntity
  8
0
  6
SLD-Сплошная
 62
     7
370
    25
100
AcDbSpline
210
0.0
220
0.0
230
1.0
 70
    24
 71
     3
 72
    18
 73
    14
 74
     0
 42
0.00000001
 43
0.00000001
 40
0.0
 40
0.0
 40
0.0
 40
0.0
 40
0.25
 40
0.25
 40
0.375
 40
0.375
 40
0.5
 40
0.5
 40
0.625
 40
0.625
 40
0.75
 40
0.75
 40
1.0
 40
1.0
 40
1.0
 40
1.0
 10
316.5002364733177
 20
48.03228099141061
 30
0.0
 10
316.5002364733177
 20
48.03228099141061
 30
0.0
 10
316.5002364733177
 20
48.14829660027728
 30
0.0
 10
316.5002364733177
 20
48.54194125077989
 30
0.0
 10
316.5002364733177
 20
48.70906974870301
 30
0.0
 10
316.5002364733177
 20
49.11138714097648
 30
0.0
 10
316.5002364733177
 20
49.3465497661206
 30
0.0
 10
316.5002364733177
 20
49.87225727600459
 30
0.0
 10
316.5002364733177
 20
50.16268947755863
 30
0.0
 10
316.5002364733177
 20
50.77935835764671
 30
0.0
 10
316.5002364733177
 20
51.10544182226047
 30
0.0
 10
316.5002364733177
 20
52.10398447815795
 30
0.0
 10
316.5002364733177
 20
52.79389045295021
 30
0.0
 10
316.5002364733177
 20
53.43629275600551
 30
0.0
  0
ARC
  5
3B1
330
1F
100
AcDbEntity
  8
0
  6
SLD-Сплошная
 62
     7
370
    25
100
AcDbCircle
 10
316.0002364733
 20
48.0322809914
 30
0.0
 40
0.5
100
AcDbArc
 50
270.0
 51
0.0
  0
SPLINE
  5
3B2
330
1F
100
AcDbEntity
  8
0
  6
SLD-Сплошная
 62
     7
370
    25
100
AcDbSpline
210
0.0
220
0.0
230
1.0
 70
    24
 71
     3
 72
    18
 73
    14
 74
     0
 42
0.00000001
 43
0.00000001
 40
0.0
 40
0.0
 40
0.0
 40
0.0
 40
0.2500000000000001
 40
0.2500000000000001
 40
0.3749999999999997
 40
0.3749999999999997
 40
0.4999999999999993
 40
0.4999999999999993
 40
0.6249999999999989
 40
0.6249999999999989
 40
0.7499999999999986
 40
0.7499999999999986
 40
1.0
 40
1.0
 40
1.0
 40
1.0
 10
337.5002364733177
 20
53.43629275600551
 30
0.0
 10
337.5002364733177
 20
52.79389045295021
 30
0.0
 10
337.5002364733177
 20
52.10398447815795
 30
0.0
 10
337.5002364733177
 20
51.10544182226047
 30
0.0
 10
337.5002364733177
 20
50.77935835764671
 30
0.0
 10
337.5002364733177
 20
50.16268947755862
 30
0.0
 10
337.5002364733177
 20
49.87225727600458
 30
0.0
 10
337.5002364733177
 20
49.34654976612058
 30
0.0
 10
337.5002364733177
 20
49.11138714097646
 30
0.0
 10
337.5002364733177
 20
48.70906974870301
 30
0.0
 10
337.5002364733177
 20
48.54194125077987
 30
0.0
 10
337.5002364733177
 20
48.14829660027728
 30
0.0
 10
337.5002364733177
 20
48.0322809914106
 30
0.0
 10
337.5002364733177
 20
48.03228099141061
 30
0.0
  0
ARC
  5
3B3
330
1F
100
AcDbEntity
  8
0
  6
SLD-Сплошная
 62
     7
370
    25
100
AcDbCircle
 10
338.0002364733
 20
48.0322809914
 30
0.0
 40
0.5
100
AcDbArc
 50
180.0
 51
270.0
  0
LINE
  5
3B4
330
1F
100
AcDbEntity
  8
0
  6
SLD-Сплошная
 62
     7
370
    25
100
AcDbLine
 10
339.7864895977
 20
47.5322809914
 30
0.0
 11
338.0002364733
 21
47.5322809914
 31
0.0
  0
SPLINE
  5
3B5
330
1F
100
AcDbEntity
  8
0
  6
SLD-Сплошная
 62
     7
370
    25
100
AcDbSpline
210
0.0
220
0.0
230
1.0
 70
    24
 71
     3
 72
    22
 73
    18
 74
     0
 42
0.00000001
 43
0.00000001
 40
0.0
 40
0.0
 40
0.0
 40
0.0
 40
0.125
 40
0.125
 40
0.25
 40
0.25
 40
0.375
 40
0.375
 40
0.5
 40
0.5
 40
0.625
 40
0.625
 40
0.75
 40
0.75
 40
0.875
 40
0.875
 40
1.0
 40
1.0
 40
1.0
 40
1.0
 10
339.7864895977148
 20
47.53228099141061
 30
0.0
 10
339.7864895977148
 20
47.53228099141062
 30
0.0
 10
339.7864992990448
 20
47.56316128298717
 30
0.0
 10
339.7865416465893
 20
47.69795769922177
 30
0.0
 10
339.7865743283538
 20
47.8019869830843
 30
0.0
 10
339.7866642680762
 20
48.08827400163166
 30
0.0
 10
339.7867215462229
 20
48.27059599936599
 30
0.0
 10
339.7868594281217
 20
48.70948770002795
 30
0.0
 10
339.7869400228708
 20
48.96602874563971
 30
0.0
 10
339.7871201929332
 20
49.53952784733136
 30
0.0
 10
339.7872197296279
 20
49.85636297629938
 30
0.0
 10
339.7874310738991
 20
50.52909266366822
 30
0.0
 10
339.7875428289665
 20
50.88482007961048
 30
0.0
 10
339.7877709754665
 20
51.6110329202632
 30
0.0
 10
339.7878873220814
 20
51.98137568558657
 30
0.0
 10
339.7881176333717
 20
52.71447926723206
 30
0.0
 10
339.7882315745519
 20
53.07716529657491
 30
0.0
 10
339.7883416563567
 20
53.42756655278691
 30
0.0
  0
LINE
  5
3B6
330
1F
100
AcDbEntity
  8
0
  6
SLD-Сплошная
 62
     7
370
    25
100
AcDbLine
 10
331.9627152946
 20
47.4322809914
 30
0.0
 11
336.8002364733
 21
47.4322809914
 31
0.0
  0
SPLINE
  5
3B7
330
1F
100
AcDbEntity
  8
0
  6
SLD-Сплошная
 62
     7
370
    25
100
AcDbSpline
210
0.0
220
0.0
230
1.0
 70
     8
 71
     3
 72
    25
 73
    21
 74
     0
 42
0.00000001
 43
0.00000001
 40
0.0
 40
0.0
 40
0.0
 40
0.0
 40
0.0417095406779056
 40
0.0815441224899623
 40
0.1202164510149568
 40
0.1585042016492743
 40
0.1972082464154248
 40
0.2371044003434295
 40
0.2539665695183515
 40
0.302916313433306
 40
0.3358550188913587
 40
0.3690584866111273
 40
0.5013451596437972
 40
0.6336349642602831
 40
0.6665756168987534
 40
0.6997810519172016
 40
0.748316463196165
 40
0.7654779311814659
 40
0.8808270383341922
 40
1.0
 40
1.0
 40
1.0
 40
1.0
 10
330.0377576520567
 20
47.43228099141061
 30
0.0
 10
330.05770288203
 20
47.43234864613292
 30
0.0
 10
330.0966967488912
 20
47.43248091431121
 30
0.0
 10
330.1628010787791
 20
47.43328371841653
 30
0.0
 10
330.2325256412173
 20
47.43416716233283
 30
0.0
 10
330.306404244008
 20
47.43496529132621
 30
0.0
 10
330.3841773207589
 20
47.4355102721335
 30
0.0
 10
330.4489203881348
 20
47.43564657964603
 30
0.0
 10
330.5205170758854
 20
47.43562560258705
 30
0.0
 10
330.5874163725014
 20
47.4356325189322
 30
0.0
 10
330.6653793896123
 20
47.43562855272619
 30
0.0
 10
330.7997970145669
 20
47.43562677081585
 30
0.0
 10
331.0015164049244
 20
47.43562402752769
 30
0.0
 10
331.2030529073709
 20
47.43562716233951
 30
0.0
 10
331.3374801550986
 20
47.43562830200097
 30
0.0
 10
331.4151529338228
 20
47.43563399843993
 30
0.0
 10
331.4822062154048
 20
47.43561991579914
 30
0.0
 10
331.6046333727905
 20
47.43568328047363
 30
0.0
 10
331.7808544211083
 20
47.43403986046903
 30
0.0
 10
331.9014396275917
 20
47.43287361956992
 30
0.0
 10
331.9627152945773
 20
47.43228099141061
 30
0.0
  0
LINE
  5
3B8
330
1F
100
AcDbEntity
  8
0
  6
SLD-Сплошная
 62
     7
370
    25
100
AcDbLine
 10
323.9627152946
 20
47.4322809914
 30
0.0
 11
330.0377576521
 21
47.4322809914
 31
0.0
  0
SPLINE
  5
3B9
330
1F
100
AcDbEntity
  8
0
  6
SLD-Сплошная
 62
     7
370
    25
100
AcDbSpline
210
0.0
220
0.0
230
1.0
 70
     8
 71
     3
 72
    25
 73
    21
 74
     0
 42
0.00000001
 43
0.00000001
 40
0.0
 40
0.0
 40
0.0
 40
0.0
 40
0.0417095406797587
 40
0.0815441224941578
 40
0.1202164510221743
 40
0.1585042016603549
 40
0.197208246431326
 40
0.2371044003651618
 40
0.2539665695634356
 40
0.3029163134574977
 40
0.3358550187061796
 40
0.3690584866352075
 40
0.5013451596677653
 40
0.6336349642842386
 40
0.6665756167109639
 40
0.6997810519411916
 40
0.7483164632814894
 40
0.7654779312029273
 40
0.8808270383449837
 40
1.0
 40
1.0
 40
1.0
 40
1.0
 10
322.0377576520567
 20
47.43228099141061
 30
0.0
 10
322.057702882031
 20
47.43234864613292
 30
0.0
 10
322.0966967488944
 20
47.43248091431123
 30
0.0
 10
322.1628010787875
 20
47.43328371841661
 30
0.0
 10
322.2325256412326
 20
47.43416716233295
 30
0.0
 10
322.306404244032
 20
47.43496529132632
 30
0.0
 10
322.3841773207932
 20
47.43551027213359
 30
0.0
 10
322.4489203881923
 20
47.43564657964603
 30
0.0
 10
322.5205170759484
 20
47.43562560258706
 30
0.0
 10
322.5874163724242
 20
47.43563251893219
 30
0.0
 10
322.6653793895208
 20
47.43562855272619
 30
0.0
 10
322.7997970144752
 20
47.43562677081585
 30
0.0
 10
323.0015164049743
 20
47.43562402752769
 30
0.0
 10
323.2030529072772
 20
47.43562716233949
 30
0.0
 10
323.3374801550048
 20
47.43562830200099
 30
0.0
 10
323.4151529337705
 20
47.43563399843996
 30
0.0
 10
323.4822062154942
 20
47.43561991579912
 30
0.0
 10
323.6046333728718
 20
47.43568328047347
 30
0.0
 10
323.780854421127
 20
47.4340398604685
 30
0.0
 10
323.9014396275979
 20
47.43287361956974
 30
0.0
 10
323.9627152945773
 20
47.43228099141061
 30
0.0
  0
LINE
  5
3BA
330
1F
100
AcDbEntity
  8
0
  6
SLD-Сплошная
 62
     7
370
    25
100
AcDbLine
 10
317.2002364733
 20
47.4322809914
 30
0.0
 11
322.0377576521
 21
47.4322809914
 31
0.0
  0
LINE
  5
3BB
330
1F
100
AcDbEntity
  8
0
  6
SLD-Сплошная
 62
     7
370
    25
100
AcDbLine
 10
316.7002364733
 20
54.6148287498
 30
0.0
 11
316.7002364733
 21
55.2322809914
 31
0.0
  0
LINE
  5
3BC
330
1F
100
AcDbEntity
  8
0
  6
SLD-Сплошная
 62
     7
370
    25
100
AcDbLine
 10
337.3002364733
 20
54.6148287081
 30
0.0
 11
337.3002364733
 21
55.2322809914
 31
0.0
  0
LINE
  5
3BD
330
1F
100
AcDbEntity
  8
0
  6
SLD-Сплошная
 62
     7
370
    25
100
AcDbLine
 10
337.5002364733
 20
50.5322809914
 30
0.0
 11
337.3002364733
 21
50.5322809914
 31
0.0
  0
LINE
  5
3BE
330
1F
100
AcDbEntity
  8
0
  6
SLD-Сплошная
 62
     7
370
    25
100
AcDbLine
 10
316.5002364733
 20
50.5322809914
 30
0.0
 11
316.7002364733
 21
50.5322809914
 31
0.0
  0
SPLINE
  5
3BF
330
1F
100
AcDbEntity
  8
0
  6
SLD-Сплошная
 62
     7
370
    25
100
AcDbSpline
210
0.0
220
0.0
230
1.0
 70
     8
 71
     3
 72
    11
 73
     7
 74
     0
 42
0.00000001
 43
0.00000001
 40
0.0
 40
0.0
 40
0.0
 40
0.0
 40
0.1242660997373
 40
0.4202171544550062
 40
0.7128558209504685
 40
1.0
 40
1.0
 40
1.0
 40
1.0
 10
300.5604278019515
 20
52.07511424104619
 30
0.0
 10
300.5494023698292
 20
52.05873578590178
 30
0.0
 10
300.5121188651335
 20
52.00335054544038
 30
0.0
 10
300.8872422399904
 20
51.90989785786676
 30
0.0
 10
301.6422361718832
 20
51.79726958702169
 30
0.0
 10
302.4814541978753
 20
51.72659166476708
 30
0.0
 10
302.8970866591816
 20
51.69158760399041
 30
0.0
  0
SPLINE
  5
3C0
330
1F
100
AcDbEntity
  8
0
  6
SLD-Сплошная
 62
     7
370
    25
100
AcDbSpline
210
0.0
220
0.0
230
1.0
 70
     8
 71
     3
 72
    25
 73
    21
 74
     0
 42
0.00000001
 43
0.00000001
 40
0.0
 40
0.0
 40
0.0
 40
0.0
 40
0.0297549294460626
 40
0.0599127238356394
 40
0.090475259993189
 40
0.1214443410045776
 40
0.1528216997158365
 40
0.184609002047289
 40
0.2168078501329232
 40
0.2494197852944304
 40
0.3687284586790194
 40
0.4998172345667032
 40
0.5598189794042117
 40
0.6251352260965901
 40
0.749728893415139
 40
0.8120783858205093
 40
0.8744296466359764
 40
0.9161547382301731
 40
0.9580114418349859
 40
1.0
 40
1.0
 40
1.0
 40
1.0
 10
302.8970866591801
 20
51.69158760399041
 30
0.0
 10
302.9680507571125
 20
51.68580998586816
 30
0.0
 10
303.1109397667934
 20
51.67417652393663
 30
0.0
 10
303.337971983509
 20
51.65135788729419
 30
0.0
 10
303.5763974855785
 20
51.62448987536455
 30
0.0
 10
303.8272973824734
 20
51.59317994711217
 30
0.0
 10
304.090699964922
 20
51.55753520065337
 30
0.0
 10
304.3669111120649
 20
51.51752710242069
 30
0.0
 10
304.656156088547
 20
51.47316062559495
 30
0.0
 10
305.2254226132349
 20
51.38148318716072
 30
0.0
 10
306.1644791126317
 20
51.21562196151839
 30
0.0
 10
307.3028835166413
 20
51.00006660308634
 30
0.0
 10
308.3061621583
 20
50.80612856099309
 30
0.0
 10
309.3230434774268
 20
50.60953016594248
 30
0.0
 10
310.4071307995796
 20
50.40174180816953
 30
0.0
 10
311.5292785338489
 20
50.19500752412921
 30
0.0
 10
312.3000751009478
 20
50.05654468131419
 30
0.0
 10
312.9912235002728
 20
49.93605769832277
 30
0.0
 10
313.5954814085875
 20
49.83426392153125
 30
0.0
 10
314.0071390486996
 20
49.76767804401071
 30
0.0
 10
314.2132915539344
 20
49.73433274897289
 30
0.0
  0
LINE
  5
3C1
330
1F
100
AcDbEntity
  8
0
  6
SLD-Сплошная
 62
     7
370
    25
100
AcDbLine
 10
353.4879167745
 20
52.0751267151
 30
0.0
 11
353.4917360573
 21
64.2322809914
 31
0.0
  0
SPLINE
  5
3C2
330
1F
100
AcDbEntity
  8
0
  6
SLD-Сплошная
 62
     7
370
    25
100
AcDbSpline
210
0.0
220
0.0
230
1.0
 70
     8
 71
     3
 72
    10
 73
     6
 74
     0
 42
0.00000001
 43
0.00000001
 40
0.0
 40
0.0
 40
0.0
 40
0.0
 40
0.5
 40
0.5
 40
1.0
 40
1.0
 40
1.0
 40
1.0
 10
353.4879167745037
 20
52.07512671507161
 30
0.0
 10
353.4878962245963
 20
52.00971433037711
 30
0.0
 10
353.2868869547084
 20
51.9435489273184
 30
0.0
 10
352.4828923945226
 20
51.81423065665569
 30
0.0
 10
351.880115419021
 20
51.75111129538438
 30
0.0
 10
351.1033862874537
 20
51.69158760399036
 30
0.0
  0
SPLINE
  5
3C3
330
1F
100
AcDbEntity
  8
0
  6
SLD-Сплошная
 62
     7
370
    25
100
AcDbSpline
210
0.0
220
0.0
230
1.0
 70
     8
 71
     3
 72
    25
 73
    21
 74
     0
 42
0.00000001
 43
0.00000001
 40
0.0
 40
0.0
 40
0.0
 40
0.0
 40
0.0277137913902192
 40
0.0554204615731617
 40
0.0831286288287574
 40
0.1108469100415684
 40
0.1385839126710858
 40
0.1663482267658715
 40
0.1941484170584201
 40
0.2219930151767359
 40
0.2498905120073833
 40
0.3745021179285503
 40
0.4994617273758915
 40
0.6246397975016373
 40
0.7497942425931176
 40
0.800031851756727
 40
0.8501227559525798
 40
0.9001153024437296
 40
0.9500581242983076
 40
1.0
 40
1.0
 40
1.0
 40
1.0
 10
351.1033862874536
 20
51.6915876039904
 30
0.0
 10
351.0373506599232
 20
51.68623852963444
 30
0.0
 10
350.9052963730705
 20
51.67554175539585
 30
0.0
 10
350.6976650337469
 20
51.65505694500007
 30
0.0
 10
350.4831047312651
 20
51.63144782233182
 30
0.0
 10
350.2609257224852
 20
51.60448362318169
 30
0.0
 10
350.0313130486342
 20
51.57434599508618
 30
0.0
 10
349.7942168619176
 20
51.54110509436714
 30
0.0
 10
349.5496518948189
 20
51.50486042204243
 30
0.0
 10
349.2976096431078
 20
51.46570145781164
 30
0.0
 10
348.738455519129
 20
51.37525115130657
 30
0.0
 10
347.8153765087217
 20
51.21216013946687
 30
0.0
 10
346.4383239604851
 20
50.95071350754642
 30
0.0
 10
344.9386276363447
 20
50.6593175542401
 30
0.0
 10
343.646877498525
 20
50.4122293944806
 30
0.0
 10
342.6350490093045
 20
50.22481342588636
 30
0.0
 10
341.9445828724029
 20
50.09984479023913
 30
0.0
 10
341.2398949556951
 20
49.97597909867415
 30
0.0
 10
340.5221817851198
 20
49.85358589257792
 30
0.0
 10
340.0321799763339
 20
49.77408354581387
 30
0.0
 10
339.7871813926999
 20
49.73433274897288
 30
0.0
  0
LINE
  5
3C4
330
1F
100
AcDbEntity
  8
0
  6
SLD-Сплошная
 62
     7
370
    25
100
AcDbLine
 10
316.7002364733
 20
49.2322809914
 30
0.0
 11
316.4925596852
 21
49.2322809914
 31
0.0
  0
LINE
  5
3C5
330
1F
100
AcDbEntity
  8
0
  6
SLD-Сплошная
 62
     7
370
    25
100
AcDbLine
 10
314.1962026576
 20
49.2322809914
 30
0.0
 11
303.5910028108
 21
49.2322809914
 31
0.0
  0
LINE
  5
3C6
330
1F
100
AcDbEntity
  8
0
  6
SLD-Сплошная
 62
     7
370
    25
100
AcDbLine
 10
303.5910028108
 20
49.2322809914
 30
0.0
 11
303.5492239988
 21
51.6257875322
 31
0.0
  0
LINE
  5
3C7
330
1F
100
AcDbEntity
  8
0
  6
SLD-Сплошная
 62
     7
370
    25
100
AcDbLine
 10
337.3002364733
 20
49.2322809914
 30
0.0
 11
337.5079132614
 21
49.2322809914
 31
0.0
  0
LINE
  5
3C8
330
1F
100
AcDbEntity
  8
0
  6
SLD-Сплошная
 62
     7
370
    25
100
AcDbLine
 10
339.8042702891
 20
49.2322809914
 30
0.0
 11
350.4094701358
 21
49.2322809914
 31
0.0
  0
LINE
  5
3C9
330
1F
100
AcDbEntity
  8
0
  6
SLD-Сплошная
 62
     7
370
    25
100
AcDbLine
 10
308.3229775738
 20
80.5322809914
 30
0.0
 11
308.3229775738
 21
88.4322809914
 31
0.0
  0
LINE
  5
3CA
330
1F
100
AcDbEntity
  8
0
  6
SLD-Сплошная
 62
     7
370
    25
100
AcDbLine
 10
345.6774953728
 20
80.5322809914
 30
0.0
 11
308.3229775738
 21
80.5322809914
 31
0.0
  0
LINE
  5
3CB
330
1F
100
AcDbEntity
  8
0
  6
SLD-Сплошная
 62
     7
370
    25
100
AcDbLine
 10
345.6774953728
 20
88.4322809914
 30
0.0
 11
345.6774953728
 21
80.5322809914
 31
0.0
  0
LINE
  5
3CC
330
1F
100
AcDbEntity
  8
0
  6
SLD-Сплошная
 62
     7
370
    25
100
AcDbLine
 10
348.0002364733
 20
88.4322809914
 30
0.0
 11
345.6774953728
 21
88.4322809914
 31
0.0
  0
LINE
  5
3CD
330
1F
100
AcDbEntity
  8
0
  6
SLD-Сплошная
 62
     7
370
    25
100
AcDbLine
 10
348.0002364733
 20
88.4322809914
 30
0.0
 11
348.0002364733
 21
71.2322809914
 31
0.0
  0
LINE
  5
3CE
330
1F
100
AcDbEntity
  8
0
  6
SLD-Сплошная
 62
     7
370
    25
100
AcDbLine
 10
306.0002364733
 20
88.4322809914
 30
0.0
 11
306.0002364733
 21
71.2322809914
 31
0.0
  0
LINE
  5
3CF
330
1F
100
AcDbEntity
  8
0
  6
SLD-Сплошная
 62
     7
370
    25
100
AcDbLine
 10
308.3229775738
 20
88.4322809914
 30
0.0
 11
306.0002364733
 21
88.4322809914
 31
0.0
  0
LINE
  5
3D0
330
1F
100
AcDbEntity
  8
0
  6
SLD-Сплошная
 62
     7
370
    25
100
AcDbLine
 10
324.5002364733
 20
81.3322809914
 30
0.0
 11
324.5002364733
 21
80.5322809914
 31
0.0
  0
LINE
  5
3D1
330
1F
100
AcDbEntity
  8
0
  6
SLD-Сплошная
 62
     7
370
    25
100
AcDbLine
 10
324.5002364733
 20
81.3322809914
 30
0.0
 11
329.5002364733
 21
81.3322809914
 31
0.0
  0
LINE
  5
3D2
330
1F
100
AcDbEntity
  8
0
  6
SLD-Сплошная
 62
     7
370
    25
100
AcDbLine
 10
329.5002364733
 20
81.3322809914
 30
0.0
 11
329.5002364733
 21
80.5322809914
 31
0.0
  0
ARC
  5
3D3
330
1F
100
AcDbEntity
  8
0
  6
SLD-Сплошная
 62
     7
370
    25
100
AcDbCircle
 10
317.1701099646
 20
47.9877939902
 30
0.0
 40
0.5003172861867344
100
AcDbArc
 50
179.8654351519
 51
212.395685063
  0
LINE
  5
3D4
330
1F
100
AcDbEntity
  8
0
  6
SLD-Сплошная
 62
     7
370
    25
100
AcDbLine
 10
316.6697940583
 20
47.9889690342
 30
0.0
 11
316.6723680182
 21
49.2322809914
 31
0.0
  0
LINE
  5
3D5
330
1F
100
AcDbEntity
  8
0
  6
SLD-Сплошная
 62
     7
370
    25
100
AcDbLine
 10
323.9002364733
 20
88.4322809914
 30
0.0
 11
308.3229775738
 21
88.4322809914
 31
0.0
  0
LINE
  5
3D6
330
1F
100
AcDbEntity
  8
0
  6
SLD-Сплошная
 62
     7
370
    25
100
AcDbLine
 10
323.9002364733
 20
86.4322809914
 30
0.0
 11
323.9002364733
 21
88.4322809914
 31
0.0
  0
LINE
  5
3D7
330
1F
100
AcDbEntity
  8
0
  6
SLD-Сплошная
 62
     7
370
    25
100
AcDbLine
 10
330.1002364733
 20
86.4322809914
 30
0.0
 11
323.9002364733
 21
86.4322809914
 31
0.0
  0
LINE
  5
3D8
330
1F
100
AcDbEntity
  8
0
  6
SLD-Сплошная
 62
     7
370
    25
100
AcDbLine
 10
330.1002364733
 20
88.4322809914
 30
0.0
 11
345.6774953728
 21
88.4322809914
 31
0.0
  0
LINE
  5
3D9
330
1F
100
AcDbEntity
  8
0
  6
SLD-Сплошная
 62
     7
370
    25
100
AcDbLine
 10
330.1002364733
 20
88.4322809914
 30
0.0
 11
330.1002364733
 21
86.4322809914
 31
0.0
  0
SPLINE
  5
3DA
330
1F
100
AcDbEntity
  8
0
  6
SLD-Сплошная
 62
     7
370
    25
100
AcDbSpline
210
0.0
220
0.0
230
1.0
 70
     8
 71
     3
 72
    12
 73
     8
 74
     0
 42
0.00000001
 43
0.00000001
 40
0.0
 40
0.0
 40
0.0
 40
0.0
 40
0.1705262742300375
 40
0.3468010459228984
 40
0.530366713927742
 40
0.7225901166038927
 40
1.0
 40
1.0
 40
1.0
 40
1.0
 10
313.9592888656256
 20
49.30252128481876
 30
0.0
 10
313.961042943635
 20
49.27002073190304
 30
0.0
 10
313.9646102302073
 20
49.20392402161524
 30
0.0
 10
313.993768173058
 20
49.10761713057067
 30
0.0
 10
314.0411337118796
 20
49.01783971839902
 30
0.0
 10
314.1153605446302
 20
48.92614971104283
 30
0.0
 10
314.1842674338521
 20
48.88575887769507
 30
0.0
 10
314.224970366696
 20
48.86190022733623
 30
0.0
  0
SPLINE
  5
3DB
330
1F
100
AcDbEntity
  8
0
  6
SLD-Сплошная
 62
     7
370
    25
100
AcDbSpline
210
0.0
220
0.0
230
1.0
 70
     8
 71
     3
 72
    12
 73
     8
 74
     0
 42
0.00000001
 43
0.00000001
 40
0.0
 40
0.0
 40
0.0
 40
0.0
 40
0.2768372905945341
 40
0.4692120650333994
 40
0.6529214469637055
 40
0.8293354448211967
 40
1.0
 40
1.0
 40
1.0
 40
1.0
 10
339.7731512439107
 20
48.86579134420954
 30
0.0
 10
339.8147940198805
 20
48.88788262330139
 30
0.0
 10
339.8853744422815
 20
48.92532517542166
 30
0.0
 10
339.9591145754307
 20
49.01777846624331
 30
0.0
 10
340.0066680983057
 20
49.10741992614806
 30
0.0
 10
340.0358480639802
 20
49.20384756733888
 30
0.0
 10
340.0394251604981
 20
49.26999529686381
 30
0.0
 10
340.0411840810098
 20
49.3025212848187
 30
0.0
  0
LINE
  5
3DC
330
1F
100
AcDbEntity
  8
0
  6
SLD-Сплошная
 62
     7
370
    25
100
AcDbLine
 10
330.1002364733
 20
88.4322809914
 30
0.0
 11
323.9002364733
 21
88.4322809914
 31
0.0
  0
LINE
  5
3DD
330
1F
100
AcDbEntity
  8
0
  6
SLD-Сплошная
 62
     7
370
    25
100
AcDbLine
 10
312.8010218715
 20
90.9322809914
 30
0.0
 11
312.8002364733
 21
88.4322809914
 31
0.0
  0
LINE
  5
3DE
330
1F
100
AcDbEntity
  8
0
  6
SLD-Сплошная
 62
     7
370
    25
100
AcDbLine
 10
322.1994510751
 20
90.9322809914
 30
0.0
 11
312.8010218715
 21
90.9322809914
 31
0.0
  0
LINE
  5
3DF
330
1F
100
AcDbEntity
  8
0
  6
SLD-Сплошная
 62
     7
370
    25
100
AcDbLine
 10
322.1994510751
 20
90.9322809914
 30
0.0
 11
322.2002364733
 21
88.4322809914
 31
0.0
  0
LINE
  5
3E0
330
1F
100
AcDbEntity
  8
0
  6
SLD-Сплошная
 62
     7
370
    25
100
AcDbLine
 10
341.1994510751
 20
90.9322809914
 30
0.0
 11
341.2002364733
 21
88.4322809914
 31
0.0
  0
LINE
  5
3E1
330
1F
100
AcDbEntity
  8
0
  6
SLD-Сплошная
 62
     7
370
    25
100
AcDbLine
 10
331.8010218715
 20
90.9322809914
 30
0.0
 11
331.8002364733
 21
88.4322809914
 31
0.0
  0
LINE
  5
3E2
330
1F
100
AcDbEntity
  8
0
  6
SLD-Сплошная
 62
     7
370
    25
100
AcDbLine
 10
341.1994510751
 20
90.9322809914
 30
0.0
 11
331.8010218715
 21
90.9322809914
 31
0.0
  0
LINE
  5
3E3
330
1F
100
AcDbEntity
  8
0
  6
SLD-Сплошная
 62
     7
370
    25
100
AcDbLine
 10
323.0002364733
 20
88.4322809914
 30
0.0
 11
323.0002364733
 21
89.4322809914
 31
0.0
  0
LINE
  5
3E4
330
1F
100
AcDbEntity
  8
0
  6
SLD-Сплошная
 62
     7
370
    25
100
AcDbLine
 10
323.0002364733
 20
89.4322809914
 30
0.0
 11
331.0002364733
 21
89.4322809914
 31
0.0
  0
LINE
  5
3E5
330
1F
100
AcDbEntity
  8
0
  6
SLD-Сплошная
 62
     7
370
    25
100
AcDbLine
 10
331.0002364733
 20
88.4322809914
 30
0.0
 11
331.0002364733
 21
89.4322809914
 31
0.0
  0
LINE
  5
3E6
330
1F
100
AcDbEntity
  8
0
  6
SLD-Сплошная
 62
     7
370
    25
100
AcDbLine
 10
312.5692170251
 20
88.4322809914
 30
0.0
 11
312.5700024233
 21
90.9322809914
 31
0.0
  0
LINE
  5
3E7
330
1F
100
AcDbEntity
  8
0
  6
SLD-Сплошная
 62
     7
370
    25
100
AcDbLine
 10
312.8010218715
 20
90.9322809914
 30
0.0
 11
312.5700024233
 21
90.9322809914
 31
0.0
  0
LINE
  5
3E8
330
1F
100
AcDbEntity
  8
0
  6
SLD-Сплошная
 62
     7
370
    25
100
AcDbLine
 10
331.5692170251
 20
88.4322809914
 30
0.0
 11
331.5700024233
 21
90.9322809914
 31
0.0
  0
LINE
  5
3E9
330
1F
100
AcDbEntity
  8
0
  6
SLD-Сплошная
 62
     7
370
    25
100
AcDbLine
 10
331.5700024233
 20
90.9322809914
 30
0.0
 11
331.8010218715
 21
90.9322809914
 31
0.0
  0
LINE
  5
3EA
330
1F
100
AcDbEntity
  8
0
  6
SLD-Сплошная
 62
     7
370
    25
100
AcDbLine
 10
322.4312559215
 20
88.4322809914
 30
0.0
 11
322.4304705233
 21
90.9322809914
 31
0.0
  0
LINE
  5
3EB
330
1F
100
AcDbEntity
  8
0
  6
SLD-Сплошная
 62
     7
370
    25
100
AcDbLine
 10
322.4304705233
 20
90.9322809914
 30
0.0
 11
322.1994510751
 21
90.9322809914
 31
0.0
  0
LINE
  5
3EC
330
1F
100
AcDbEntity
  8
0
  6
SLD-Сплошная
 62
     7
370
    25
100
AcDbLine
 10
341.4312559215
 20
88.4322809914
 30
0.0
 11
341.4304705233
 21
90.9322809914
 31
0.0
  0
LINE
  5
3ED
330
1F
100
AcDbEntity
  8
0
  6
SLD-Сплошная
 62
     7
370
    25
100
AcDbLine
 10
341.1994510751
 20
90.9322809914
 30
0.0
 11
341.4304705233
 21
90.9322809914
 31
0.0
  0
ENDSEC
  0
SECTION
  2
OBJECTS
  0
DICTIONARY
  5
C
330
0
100
AcDbDictionary
281
     1
  3
ACAD_GROUP
350
D
  3
ACAD_LAYOUT
350
1A
  3
ACAD_MLINESTYLE
350
17
  3
ACAD_PLOTSETTINGS
350
19
  3
ACAD_PLOTSTYLENAME
350
E
  3
ACAD_SCALELIST
350
47
  3
DWGPROPS
350
3EE
  0
DICTIONARY
  5
D
102
{ACAD_REACTORS
330
C
102
}
330
C
100
AcDbDictionary
281
     1
  0
DICTIONARY
  5
1A
102
{ACAD_REACTORS
330
C
102
}
330
C
100
AcDbDictionary
281
     1
  3
Layout1
350
1E
  3
Layout2
350
26
  3
Model
350
22
  0
DICTIONARY
  5
17
102
{ACAD_REACTORS
330
C
102
}
330
C
100
AcDbDictionary
281
     1
  3
Standard
350
18
  0
DICTIONARY
  5
19
102
{ACAD_REACTORS
330
C
102
}
330
C
100
AcDbDictionary
281
     1
  0
ACDBDICTIONARYWDFLT
  5
E
102
{ACAD_REACTORS
330
C
102
}
330
C
100
AcDbDictionary
281
     1
  3
Normal
350
F
100
AcDbDictionaryWithDefault
340
F
  0
DICTIONARY
  5
47
102
{ACAD_REACTORS
330
C
102
}
330
C
100
AcDbDictionary
281
     1
  3
A0
350
48
  3
A1
350
49
  3
A2
350
4A
  3
A3
350
4B
  3
A4
350
4C
  3
A5
350
4D
  3
A6
350
4E
  3
A7
350
4F
  3
A8
350
50
  3
A9
350
51
  3
B0
350
52
  3
B1
350
53
  3
B2
350
54
  3
B3
350
55
  3
B4
350
56
  3
B5
350
57
  3
B6
350
58
  0
XRECORD
  5
3EE
102
{ACAD_REACTORS
330
C
102
}
330
C
100
AcDbXrecord
280
     1
  1
DWGPROPS COOKIE
  2

  3

  4

  6

  7

  8
inyankin
  9

300
=
301
=
302
=
303
=
304
=
305
=
306
=
307
=
308
=
309
=
 40
0.0
 41
2460928.442974028
 42
2460928.442974722
  1

 90
        0
  0
LAYOUT
  5
1E
102
{ACAD_REACTORS
330
1A
102
}
330
1A
100
AcDbPlotSettings
  1

  2
none_device
  4

  6

 40
0.0
 41
0.0
 42
0.0
 43
0.0
 44
0.0
 45
0.0
 46
0.0
 47
0.0
 48
0.0
 49
0.0
140
0.0
141
0.0
142
1.0
143
1.0
 70
   688
 72
     1
 73
     0
 74
     5
  7

 75
    16
147
1.0
148
0.0
149
0.0
100
AcDbLayout
  1
Layout1
 70
     1
 71
     1
 10
0.0
 20
0.0
 11
420.0
 21
297.0
 12
0.0
 22
0.0
 32
0.0
 14
1.0000000000E+20
 24
1.0000000000E+20
 34
1.0000000000E+20
 15
-1.0000000000E+20
 25
-1.0000000000E+20
 35
-1.0000000000E+20
146
0.0
 13
0.0
 23
0.0
 33
0.0
 16
1.0
 26
0.0
 36
0.0
 17
0.0
 27
1.0
 37
0.0
 76
     0
330
1B
  0
LAYOUT
  5
26
102
{ACAD_REACTORS
330
1A
102
}
330
1A
100
AcDbPlotSettings
  1

  2
none_device
  4

  6

 40
0.0
 41
0.0
 42
0.0
 43
0.0
 44
0.0
 45
0.0
 46
0.0
 47
0.0
 48
0.0
 49
0.0
140
0.0
141
0.0
142
1.0
143
1.0
 70
   688
 72
     1
 73
     0
 74
     5
  7

 75
    16
147
1.0
148
0.0
149
0.0
100
AcDbLayout
  1
Layout2
 70
     1
 71
     2
 10
0.0
 20
0.0
 11
0.0
 21
0.0
 12
0.0
 22
0.0
 32
0.0
 14
0.0
 24
0.0
 34
0.0
 15
0.0
 25
0.0
 35
0.0
146
0.0
 13
0.0
 23
0.0
 33
0.0
 16
1.0
 26
0.0
 36
0.0
 17
0.0
 27
1.0
 37
0.0
 76
     0
330
23
  0
LAYOUT
  5
22
102
{ACAD_REACTORS
330
1A
102
}
330
1A
100
AcDbPlotSettings
  1

  2
none_device
  4
Letter_(8.50_x_11.00_Inches)
  6

 40
6.35
 41
6.35
 42
6.35000508
 43
6.35000508
 44
215.9
 45
279.4
 46
0.0
 47
0.0
 48
0.0
 49
0.0
140
0.0
141
0.0
142
1.0
143
1.0
 70
  1712
 72
     1
 73
     0
 74
     0
  7

 75
     0
147
1.0
148
0.0
149
0.0
100
AcDbLayout
  1
Model
 70
     1
 71
     0
 10
0.0
 20
0.0
 11
431.8
 21
279.4
 12
0.0
 22
0.0
 32
0.0
 14
0.0
 24
0.0
 34
0.0
 15
431.8
 25
279.4
 35
0.0
146
0.0
 13
0.0
 23
0.0
 33
0.0
 16
1.0
 26
0.0
 36
0.0
 17
0.0
 27
1.0
 37
0.0
 76
     0
330
1F
331
29
  0
MLINESTYLE
  5
18
102
{ACAD_REACTORS
330
17
102
}
330
17
100
AcDbMlineStyle
  2
Standard
 70
     0
  3

 62
   256
 51
90.0
 52
90.0
 71
     2
 49
0.5
 62
   256
  6
BYLAYER
 49
-0.5
 62
   256
  6
BYLAYER
  0
ACDBPLACEHOLDER
  5
F
102
{ACAD_REACTORS
330
E
102
}
330
E
  0
SCALE
  5
48
102
{ACAD_REACTORS
330
47
102
}
330
47
100
AcDbScale
 70
     0
300
1:1
140
1.0
141
1.0
290
     1
  0
SCALE
  5
49
102
{ACAD_REACTORS
330
47
102
}
330
47
100
AcDbScale
 70
     0
300
1:2
140
1.0
141
2.0
290
     0
  0
SCALE
  5
4A
102
{ACAD_REACTORS
330
47
102
}
330
47
100
AcDbScale
 70
     0
300
1:4
140
1.0
141
4.0
290
     0
  0
SCALE
  5
4B
102
{ACAD_REACTORS
330
47
102
}
330
47
100
AcDbScale
 70
     0
300
1:5
140
1.0
141
5.0
290
     0
  0
SCALE
  5
4C
102
{ACAD_REACTORS
330
47
102
}
330
47
100
AcDbScale
 70
     0
300
1:8
140
1.0
141
8.0
290
     0
  0
SCALE
  5
4D
102
{ACAD_REACTORS
330
47
102
}
330
47
100
AcDbScale
 70
     0
300
1:10
140
1.0
141
10.0
290
     0
  0
SCALE
  5
4E
102
{ACAD_REACTORS
330
47
102
}
330
47
100
AcDbScale
 70
     0
300
1:16
140
1.0
141
16.0
290
     0
  0
SCALE
  5
4F
102
{ACAD_REACTORS
330
47
102
}
330
47
100
AcDbScale
 70
     0
300
1:20
140
1.0
141
20.0
290
     0
  0
SCALE
  5
50
102
{ACAD_REACTORS
330
47
102
}
330
47
100
AcDbScale
 70
     0
300
1:30
140
1.0
141
30.0
290
     0
  0
SCALE
  5
51
102
{ACAD_REACTORS
330
47
102
}
330
47
100
AcDbScale
 70
     0
300
1:40
140
1.0
141
40.0
290
     0
  0
SCALE
  5
52
102
{ACAD_REACTORS
330
47
102
}
330
47
100
AcDbScale
 70
     0
300
1:50
140
1.0
141
50.0
290
     0
  0
SCALE
  5
53
102
{ACAD_REACTORS
330
47
102
}
330
47
100
AcDbScale
 70
     0
300
1:100
140
1.0
141
100.0
290
     0
  0
SCALE
  5
54
102
{ACAD_REACTORS
330
47
102
}
330
47
100
AcDbScale
 70
     0
300
2:1
140
2.0
141
1.0
290
     0
  0
SCALE
  5
55
102
{ACAD_REACTORS
330
47
102
}
330
47
100
AcDbScale
 70
     0
300
4:1
140
4.0
141
1.0
290
     0
  0
SCALE
  5
56
102
{ACAD_REACTORS
330
47
102
}
330
47
100
AcDbScale
 70
     0
300
8:1
140
8.0
141
1.0
290
     0
  0
SCALE
  5
57
102
{ACAD_REACTORS
330
47
102
}
330
47
100
AcDbScale
 70
     0
300
10:1
140
10.0
141
1.0
290
     0
  0
SCALE
  5
58
102
{ACAD_REACTORS
330
47
102
}
330
47
100
AcDbScale
 70
     0
300
100:1
140
100.0
141
1.0
290
     0
  0
ENDSEC
  0
EOF
