  0
SECTION
  2
HEADER
  9
$ACADVER
  1
AC1015
  9
$ACADMAINTVER
 70
     6
  9
$DWGCODEPAGE
  3
ANSI_1251
  9
$INSBASE
 10
0.0
 20
0.0
 30
0.0
  9
$EXTMIN
 10
0.0
 20
0.0
 30
0.0
  9
$EXTMAX
 10
2000.0
 20
2000.0
 30
0.0
  9
$LIMMIN
 10
0.0
 20
0.0
  9
$LIMMAX
 10
2000.0
 20
2000.0
  9
$ORTHOMODE
 70
     0
  9
$REGENMODE
 70
     1
  9
$FILLMODE
 70
     1
  9
$QTEXTMODE
 70
     0
  9
$MIRRTEXT
 70
     1
  9
$LTSCALE
 40
1.0
  9
$ATTMODE
 70
     1
  9
$TEXTSIZE
 40
5.0
  9
$TRACEWID
 40
1.0
  9
$TEXTSTYLE
  7
Standard
  9
$CLAYER
  8
0
  9
$CELTYPE
  6
ByLayer
  9
$CECOLOR
 62
   256
  9
$CELTSCALE
 40
1.0
  9
$DISPSILH
 70
     0
  9
$DIMSCALE
 40
1.0
  9
$DIMASZ
 40
5.0
  9
$DIMEXO
 40
0.0
  9
$DIMDLI
 40
3.75
  9
$DIMRND
 40
0.0
  9
$DIMDLE
 40
0.0
  9
$DIMEXE
 40
1.0
  9
$DIMTP
 40
0.0
  9
$DIMTM
 40
0.0
  9
$DIMTXT
 40
3.5
  9
$DIMCEN
 40
2.5
  9
$DIMTSZ
 40
0.0
  9
$DIMTOL
 70
     0
  9
$DIMLIM
 70
     0
  9
$DIMTIH
 70
     1
  9
$DIMTOH
 70
     1
  9
$DIMSE1
 70
     0
  9
$DIMSE2
 70
     0
  9
$DIMTAD
 70
     1
  9
$DIMZIN
 70
     0
  9
$DIMBLK
  1

  9
$DIMASO
 70
     1
  9
$DIMSHO
 70
     1
  9
$DIMPOST
  1

  9
$DIMAPOST
  1

  9
$DIMALT
 70
     0
  9
$DIMALTD
 70
     3
  9
$DIMALTF
 40
0.0393700787
  9
$DIMLFAC
 40
1.0
  9
$DIMTOFL
 70
     1
  9
$DIMTVP
 40
0.0
  9
$DIMTIX
 70
     0
  9
$DIMSOXD
 70
     0
  9
$DIMSAH
 70
     0
  9
$DIMBLK1
  1

  9
$DIMBLK2
  1

  9
$DIMSTYLE
  2
ISO-25
  9
$DIMCLRD
 70
     0
  9
$DIMCLRE
 70
     0
  9
$DIMCLRT
 70
     0
  9
$DIMTFAC
 40
1.0
  9
$DIMGAP
 40
1.5
  9
$DIMJUST
 70
     0
  9
$DIMSD1
 70
     0
  9
$DIMSD2
 70
     0
  9
$DIMTOLJ
 70
     0
  9
$DIMTZIN
 70
     0
  9
$DIMALTZ
 70
     0
  9
$DIMALTTZ
 70
     0
  9
$DIMUPT
 70
     0
  9
$DIMDEC
 70
     1
  9
$DIMTDEC
 70
     1
  9
$DIMALTU
 70
     2
  9
$DIMALTTD
 70
     3
  9
$DIMTXSTY
  7
Standard
  9
$DIMAUNIT
 70
     0
  9
$DIMADEC
 70
     2
  9
$DIMALTRND
 40
0.0
  9
$DIMAZIN
 70
     0
  9
$DIMDSEP
 70
    44
  9
$DIMATFIT
 70
     3
  9
$DIMFRAC
 70
     0
  9
$DIMLDRBLK
  1

  9
$DIMLUNIT
 70
     2
  9
$DIMLWD
 70
    -2
  9
$DIMLWE
 70
    -2
  9
$DIMTMOVE
 70
     0
  9
$LUNITS
 70
     2
  9
$LUPREC
 70
     1
  9
$SKETCHINC
 40
1.0
  9
$FILLETRAD
 40
0.0
  9
$AUNITS
 70
     0
  9
$AUPREC
 70
     2
  9
$MENU
  1
.
  9
$ELEVATION
 40
0.0
  9
$PELEVATION
 40
0.0
  9
$THICKNESS
 40
0.0
  9
$LIMCHECK
 70
     0
  9
$CHAMFERA
 40
0.0
  9
$CHAMFERB
 40
0.0
  9
$CHAMFERC
 40
0.0
  9
$CHAMFERD
 40
0.0
  9
$SKPOLY
 70
     0
  9
$TDCREATE
 40
2460213.631790683
  9
$TDUCREATE
 40
2460213.506790683
  9
$TDUPDATE
 40
2460213.631791261
  9
$TDUUPDATE
 40
2460213.506791261
  9
$TDINDWG
 40
0.0000000116
  9
$TDUSRTIMER
 40
0.0000000116
  9
$USRTIMER
 70
     1
  9
$ANGBASE
 50
0.0
  9
$ANGDIR
 70
     0
  9
$PDMODE
 70
     0
  9
$PDSIZE
 40
-1.0
  9
$PLINEWID
 40
0.0
  9
$SPLFRAME
 70
     0
  9
$SPLINETYPE
 70
     6
  9
$SPLINESEGS
 70
     8
  9
$HANDSEED
  5
530
  9
$SURFTAB1
 70
     6
  9
$SURFTAB2
 70
     6
  9
$SURFTYPE
 70
     6
  9
$SURFU
 70
     6
  9
$SURFV
 70
     6
  9
$UCSBASE
  2

  9
$UCSNAME
  2

  9
$UCSORG
 10
0.0
 20
0.0
 30
0.0
  9
$UCSXDIR
 10
1.0
 20
0.0
 30
0.0
  9
$UCSYDIR
 10
0.0
 20
1.0
 30
0.0
  9
$UCSORTHOREF
  2

  9
$UCSORTHOVIEW
 70
     0
  9
$UCSORGTOP
 10
0.0
 20
0.0
 30
0.0
  9
$UCSORGBOTTOM
 10
0.0
 20
0.0
 30
0.0
  9
$UCSORGLEFT
 10
0.0
 20
0.0
 30
0.0
  9
$UCSORGRIGHT
 10
0.0
 20
0.0
 30
0.0
  9
$UCSORGFRONT
 10
0.0
 20
0.0
 30
0.0
  9
$UCSORGBACK
 10
0.0
 20
0.0
 30
0.0
  9
$PUCSBASE
  2

  9
$PUCSNAME
  2

  9
$PUCSORG
 10
0.0
 20
0.0
 30
0.0
  9
$PUCSXDIR
 10
1.0
 20
0.0
 30
0.0
  9
$PUCSYDIR
 10
0.0
 20
1.0
 30
0.0
  9
$PUCSORTHOREF
  2

  9
$PUCSORTHOVIEW
 70
     0
  9
$PUCSORGTOP
 10
0.0
 20
0.0
 30
0.0
  9
$PUCSORGBOTTOM
 10
0.0
 20
0.0
 30
0.0
  9
$PUCSORGLEFT
 10
0.0
 20
0.0
 30
0.0
  9
$PUCSORGRIGHT
 10
0.0
 20
0.0
 30
0.0
  9
$PUCSORGFRONT
 10
0.0
 20
0.0
 30
0.0
  9
$PUCSORGBACK
 10
0.0
 20
0.0
 30
0.0
  9
$USERI1
 70
     0
  9
$USERI2
 70
     0
  9
$USERI3
 70
     0
  9
$USERI4
 70
     0
  9
$USERI5
 70
     0
  9
$USERR1
 40
0.0
  9
$USERR2
 40
0.0
  9
$USERR3
 40
0.0
  9
$USERR4
 40
0.0
  9
$USERR5
 40
0.0
  9
$WORLDVIEW
 70
     1
  9
$SHADEDGE
 70
     3
  9
$SHADEDIF
 70
    70
  9
$TILEMODE
 70
     1
  9
$MAXACTVP
 70
    64
  9
$PINSBASE
 10
0.0
 20
0.0
 30
0.0
  9
$PLIMCHECK
 70
     0
  9
$PEXTMIN
 10
1.0000000000E+20
 20
1.0000000000E+20
 30
1.0000000000E+20
  9
$PEXTMAX
 10
-1.0000000000E+20
 20
-1.0000000000E+20
 30
-1.0000000000E+20
  9
$PLIMMIN
 10
0.0
 20
0.0
  9
$PLIMMAX
 10
420.0
 20
297.0
  9
$UNITMODE
 70
     0
  9
$VISRETAIN
 70
     1
  9
$PLINEGEN
 70
     0
  9
$PSLTSCALE
 70
     1
  9
$TREEDEPTH
 70
  3020
  9
$CMLSTYLE
  2
Standard
  9
$CMLJUST
 70
     0
  9
$CMLSCALE
 40
20.0
  9
$PROXYGRAPHICS
 70
     1
  9
$MEASUREMENT
 70
     1
  9
$CELWEIGHT
370
    -1
  9
$ENDCAPS
280
     0
  9
$JOINSTYLE
280
     0
  9
$LWDISPLAY
290
     1
  9
$INSUNITS
 70
     4
  9
$HYPERLINKBASE
  1

  9
$STYLESHEET
  1

  9
$XEDIT
290
     1
  9
$CEPSNTYPE
380
     0
  9
$PSTYLEMODE
290
     1
  9
$FINGERPRINTGUID
  2
{9c95bdd6-d0c5-429f-b488-7c53cc147d31}
  9
$VERSIONGUID
  2
{FAEB1C32-E019-11D5-929B-00C0DF256EC4}
  9
$EXTNAMES
290
     1
  9
$PSVPSCALE
 40
0.0
  9
$OLESTARTUP
290
     0
  0
ENDSEC
  0
SECTION
  2
CLASSES
  0
CLASS
  1
ACDBDICTIONARYWDFLT
  2
AcDbDictionaryWithDefault
  3
ObjectDBX Classes
 90
        0
280
     0
281
     0
  0
CLASS
  1
VISUALSTYLE
  2
AcDbVisualStyle
  3
ObjectDBX Classes
 90
     4095
280
     0
281
     0
  0
CLASS
  1
MATERIAL
  2
AcDbMaterial
  3
ObjectDBX Classes
 90
     1153
280
     0
281
     0
  0
CLASS
  1
SCALE
  2
AcDbScale
  3
ObjectDBX Classes
 90
     1153
280
     0
281
     0
  0
CLASS
  1
TABLESTYLE
  2
AcDbTableStyle
  3
ObjectDBX Classes
 90
     4095
280
     0
281
     0
  0
CLASS
  1
MLEADERSTYLE
  2
AcDbMLeaderStyle
  3
ACDB_MLEADERSTYLE_CLASS
 90
     4095
280
     0
281
     0
  0
CLASS
  1
SUN
  2
AcDbSun
  3
SCENEOE
 90
     1153
280
     0
281
     0
  0
CLASS
  1
ACDBPLACEHOLDER
  2
AcDbPlaceHolder
  3
ObjectDBX Classes
 90
        0
280
     0
281
     0
  0
CLASS
  1
LAYOUT
  2
AcDbLayout
  3
ObjectDBX Classes
 90
        0
280
     0
281
     0
  0
ENDSEC
  0
SECTION
  2
TABLES
  0
TABLE
  2
VPORT
  5
8
330
0
100
AcDbSymbolTable
 70
     1
  0
VPORT
  5
29
330
8
100
AcDbSymbolTableRecord
100
AcDbViewportTableRecord
  2
*Active
 70
     0
 10
0.0
 20
0.0
 11
1.0
 21
1.0
 12
1000.0
 22
1000.0
 13
0.0
 23
0.0
 14
10.0
 24
10.0
 15
10.0
 25
10.0
 16
0.0
 26
0.0
 36
1.0
 17
0.0
 27
0.0
 37
0.0
 40
2000.0
 41
1.0
 42
50.0
 43
0.0
 44
0.0
 50
0.0
 51
0.0
 71
     0
 72
  2000
 73
     1
 74
     3
 75
     0
 76
     0
 77
     0
 78
     0
281
     0
 65
     1
110
0.0
120
0.0
130
0.0
111
1.0
121
0.0
131
0.0
112
0.0
122
1.0
132
0.0
 79
     0
146
0.0
  0
ENDTAB
  0
TABLE
  2
LTYPE
  5
5
330
0
100
AcDbSymbolTable
 70
     8
  0
LTYPE
  5
14
330
5
100
AcDbSymbolTableRecord
100
AcDbLinetypeTableRecord
  2
ByBlock
 70
     0
  3

 72
    65
 73
     0
 40
0.0
  0
LTYPE
  5
15
330
5
100
AcDbSymbolTableRecord
100
AcDbLinetypeTableRecord
  2
ByLayer
 70
     0
  3

 72
    65
 73
     0
 40
0.0
  0
LTYPE
  5
16
330
5
100
AcDbSymbolTableRecord
100
AcDbLinetypeTableRecord
  2
Continuous
 70
     0
  3
Solid line
 72
    65
 73
     0
 40
0.0
  0
LTYPE
  5
5E
330
5
100
AcDbSymbolTableRecord
100
AcDbLinetypeTableRecord
  2
SLD-Сплошная
 70
     0
  3
SolidWorks Line Style
 72
    65
 73
     0
 40
0.0
  0
LTYPE
  5
5F
330
5
100
AcDbSymbolTableRecord
100
AcDbLinetypeTableRecord
  2
SLD-Штриховая
 70
     0
  3
SolidWorks Line Style
 72
    65
 73
     2
 40
1.905
 49
1.27
 74
     0
 49
-0.635
 74
     0
  0
LTYPE
  5
60
330
5
100
AcDbSymbolTableRecord
100
AcDbLinetypeTableRecord
  2
SLD-Штрихпункт.-с-двумя-точками
 70
     0
  3
SolidWorks Line Style
 72
    65
 73
     6
 40
12.7
 49
6.35
 74
     0
 49
-1.27
 74
     0
 49
1.27
 74
     0
 49
-1.27
 74
     0
 49
1.27
 74
     0
 49
-1.27
 74
     0
  0
LTYPE
  5
61
330
5
100
AcDbSymbolTableRecord
100
AcDbLinetypeTableRecord
  2
SLD-Штрихпункт.-утолщ.
 70
     0
  3
SolidWorks Line Style
 72
    65
 73
     4
 40
10.16
 49
6.35
 74
     0
 49
-1.27
 74
     0
 49
1.27
 74
     0
 49
-1.27
 74
     0
  0
LTYPE
  5
62
330
5
100
AcDbSymbolTableRecord
100
AcDbLinetypeTableRecord
  2
SLD-Осевая
 70
     0
  3
SolidWorks Line Style
 72
    65
 73
     4
 40
19.05
 49
15.24
 74
     0
 49
-1.27
 74
     0
 49
1.27
 74
     0
 49
-1.27
 74
     0
  0
LTYPE
  5
63
330
5
100
AcDbSymbolTableRecord
100
AcDbLinetypeTableRecord
  2
SLD-Сшитая
 70
     0
  3
SolidWorks Line Style
 72
    65
 73
     2
 40
0.635
 49
0.0
 74
     0
 49
-0.635
 74
     0
  0
LTYPE
  5
64
330
5
100
AcDbSymbolTableRecord
100
AcDbLinetypeTableRecord
  2
SLD-Тонкая-Толстая
 70
     0
  3
SolidWorks Line Style
 72
    65
 73
     2
 40
5.080508
 49
0.000508
 74
     0
 49
-5.08
 74
     0
  0
ENDTAB
  0
TABLE
  2
LAYER
  5
2
330
0
100
AcDbSymbolTable
 70
     3
  0
LAYER
  5
10
330
2
100
AcDbSymbolTableRecord
100
AcDbLayerTableRecord
  2
0
 70
     0
 62
     7
  6
Continuous
370
    -3
390
F
  0
LAYER
  5
65
330
2
100
AcDbSymbolTableRecord
100
AcDbLayerTableRecord
  2
1
 70
     0
 62
     7
  6
SLD-Сплошная
370
    -1
390
F
  0
LAYER
  5
66
330
2
100
AcDbSymbolTableRecord
100
AcDbLayerTableRecord
  2
2
 70
     0
 62
     7
  6
SLD-Сплошная
370
    -3
390
F
  0
ENDTAB
  0
TABLE
  2
STYLE
  5
3
330
0
100
AcDbSymbolTable
 70
     1
  0
STYLE
  5
11
330
3
100
AcDbSymbolTableRecord
100
AcDbTextStyleTableRecord
  2
Standard
 70
     0
 40
0.0
 41
1.0
 50
0.0
 71
     0
 42
5.0
  3
txt
  4

  0
ENDTAB
  0
TABLE
  2
VIEW
  5
6
330
0
100
AcDbSymbolTable
 70
     0
  0
ENDTAB
  0
TABLE
  2
UCS
  5
7
330
0
100
AcDbSymbolTable
 70
     0
  0
ENDTAB
  0
TABLE
  2
APPID
  5
9
330
0
100
AcDbSymbolTable
 70
     1
  0
APPID
  5
12
330
9
100
AcDbSymbolTableRecord
100
AcDbRegAppTableRecord
  2
ACAD
 70
     0
  0
ENDTAB
  0
TABLE
  2
DIMSTYLE
  5
A
330
0
100
AcDbSymbolTable
 70
     1
100
AcDbDimStyleTable
  0
DIMSTYLE
105
27
330
A
100
AcDbSymbolTableRecord
100
AcDbDimStyleTableRecord
  2
ISO-25
 70
     0
 41
2.5
 42
0.625
 43
3.75
 44
1.25
 73
     0
 74
     0
 77
     1
 78
     8
140
2.5
141
2.5
143
0.0393700787
147
0.625
171
     3
172
     1
178
     0
271
     2
272
     2
274
     3
278
    44
283
     0
284
     8
340
11
  0
ENDTAB
  0
TABLE
  2
BLOCK_RECORD
  5
1
330
0
100
AcDbSymbolTable
 70
     1
  0
BLOCK_RECORD
  5
1F
330
1
100
AcDbSymbolTableRecord
100
AcDbBlockTableRecord
  2
*Model_Space
340
22
  0
BLOCK_RECORD
  5
1B
330
1
100
AcDbSymbolTableRecord
100
AcDbBlockTableRecord
  2
*Paper_Space
340
1E
  0
BLOCK_RECORD
  5
23
330
1
100
AcDbSymbolTableRecord
100
AcDbBlockTableRecord
  2
*Paper_Space0
340
26
  0
ENDTAB
  0
ENDSEC
  0
SECTION
  2
BLOCKS
  0
BLOCK
  5
20
330
1F
100
AcDbEntity
  8
0
100
AcDbBlockBegin
  2
*Model_Space
 70
     0
 10
0.0
 20
0.0
 30
0.0
  3
*Model_Space
  1

  0
ENDBLK
  5
21
330
1F
100
AcDbEntity
  8
0
100
AcDbBlockEnd
  0
BLOCK
  5
1C
330
1B
100
AcDbEntity
 67
     1
  8
0
100
AcDbBlockBegin
  2
*Paper_Space
 70
     0
 10
0.0
 20
0.0
 30
0.0
  3
*Paper_Space
  1

  0
ENDBLK
  5
1D
330
1B
100
AcDbEntity
 67
     1
  8
0
100
AcDbBlockEnd
  0
BLOCK
  5
24
330
23
100
AcDbEntity
  8
0
100
AcDbBlockBegin
  2
*Paper_Space0
 70
     0
 10
0.0
 20
0.0
 30
0.0
  3
*Paper_Space0
  1

  0
ENDBLK
  5
25
330
23
100
AcDbEntity
  8
0
100
AcDbBlockEnd
  0
ENDSEC
  0
SECTION
  2
ENTITIES
  0
ARC
  5
67
330
1F
100
AcDbEntity
  8
1
  6
SLD-Сплошная
100
AcDbCircle
 10
1010.2002921158
 20
225.3234001288
 30
0.0
 40
1.000000000000087
100
AcDbArc
 50
180.0
 51
257.5813184942
  0
ARC
  5
68
330
1F
100
AcDbEntity
  8
1
  6
SLD-Сплошная
100
AcDbCircle
 10
1024.8002921158
 20
225.3234001288
 30
0.0
 40
1.000000000000038
100
AcDbArc
 50
282.4186815058
 51
0.0
  0
LINE
  5
69
330
1F
100
AcDbEntity
  8
1
  6
SLD-Сплошная
100
AcDbLine
 10
1009.2002921158
 20
226.5291621864
 30
0.0
 11
1009.2002921158
 21
225.3234001288
 31
0.0
  0
LINE
  5
6A
330
1F
100
AcDbEntity
  8
1
  6
SLD-Сплошная
100
AcDbLine
 10
1025.8002921158
 20
225.3234001288
 30
0.0
 11
1025.8002921158
 21
226.5291621864
 31
0.0
  0
ARC
  5
6B
330
1F
100
AcDbEntity
  8
1
  6
SLD-Сплошная
100
AcDbCircle
 10
1017.5002921158
 20
258.4741621864
 30
0.0
 40
34.94500000000004
100
AcDbArc
 50
270.0104111827
 51
282.4186815058
  0
ARC
  5
6C
330
1F
100
AcDbEntity
  8
1
  6
SLD-Сплошная
100
AcDbCircle
 10
1017.5002921158
 20
258.4741621864
 30
0.0
 40
34.94500000000001
100
AcDbArc
 50
257.5813184942
 51
270.0104111827
  0
LINE
  5
6D
330
1F
100
AcDbEntity
  8
1
  6
SLD-Сплошная
100
AcDbLine
 10
1030.5002921158
 20
228.5998728644
 30
0.0
 11
1029.7002921158
 21
229.3998728644
 31
0.0
  0
LINE
  5
6E
330
1F
100
AcDbEntity
  8
1
  6
SLD-Сплошная
100
AcDbLine
 10
1030.5002921158
 20
924.4584515084
 30
0.0
 11
1029.7002921158
 21
923.6584515084
 31
0.0
  0
LINE
  5
6F
330
1F
100
AcDbEntity
  8
1
  6
SLD-Сплошная
100
AcDbLine
 10
535.2124241502
 20
229.312004899
 30
0.0
 11
534.5002921158
 21
228.5998728645
 31
0.0
  0
LINE
  5
70
330
1F
100
AcDbEntity
  8
1
  6
SLD-Сплошная
100
AcDbLine
 10
535.2124241502
 20
923.7463194739
 30
0.0
 11
534.5002921158
 21
924.4584515083
 31
0.0
  0
LINE
  5
71
330
1F
100
AcDbEntity
  8
1
  6
SLD-Сплошная
100
AcDbLine
 10
1029.6467387253
 20
923.7463194739
 30
0.0
 11
1030.4295814378
 21
924.5291621864
 31
0.0
  0
LINE
  5
72
330
1F
100
AcDbEntity
  8
1
  6
SLD-Сплошная
100
AcDbLine
 10
534.5710027939
 20
924.5291621864
 30
0.0
 11
535.3538455064
 21
923.7463194739
 31
0.0
  0
LINE
  5
73
330
1F
100
AcDbEntity
  8
1
  6
SLD-Сплошная
100
AcDbLine
 10
1029.6467387253
 20
229.312004899
 30
0.0
 11
1030.4295814378
 21
228.5291621864
 31
0.0
  0
LINE
  5
74
330
1F
100
AcDbEntity
  8
1
  6
SLD-Сплошная
100
AcDbLine
 10
534.5710027939
 20
228.5291621864
 30
0.0
 11
535.3538455064
 21
229.312004899
 31
0.0
  0
ELLIPSE
  5
75
330
1F
100
AcDbEntity
  8
1
  6
SLD-Сплошная
100
AcDbEllipse
 10
534.5002921158
 20
228.5291621864
 30
0.0
 11
0.0
 21
2.0
 31
0.0
210
0.0
220
0.0
230
1.0
 40
0.035355339
 41
3.14159265354638
 42
4.712388980384633
  0
LINE
  5
76
330
1F
100
AcDbEntity
  8
1
  6
SLD-Сплошная
100
AcDbLine
 10
534.5002921158
 20
226.5291621864
 30
0.0
 11
534.5002921158
 21
226.8588328776
 31
0.0
  0
LINE
  5
77
330
1F
100
AcDbEntity
  8
1
  6
SLD-Сплошная
100
AcDbLine
 10
534.5002921158
 20
226.8588328776
 30
0.0
 11
534.5002921158
 21
227.5291621864
 31
0.0
  0
ELLIPSE
  5
78
330
1F
100
AcDbEntity
  8
1
  6
SLD-Сплошная
100
AcDbEllipse
 10
534.5002921158
 20
228.5291621864
 30
0.0
 11
0.0
 21
1.0
 31
0.0
210
0.0
220
0.0
230
1.0
 40
0.0707106781
 41
3.141592653549597
 42
4.712388980384691
  0
ELLIPSE
  5
79
330
1F
100
AcDbEntity
  8
1
  6
SLD-Сплошная
100
AcDbEllipse
 10
534.5002921158
 20
228.5291621864
 30
0.0
 11
2.0
 21
5.684341886080801E-14
 31
0.0
210
0.0
220
0.0
230
1.0
 40
0.0353553391
 41
1.570796326794896
 42
3.141592653590593
  0
ELLIPSE
  5
7A
330
1F
100
AcDbEntity
  8
1
  6
SLD-Сплошная
100
AcDbEllipse
 10
534.5002921158
 20
228.5291621864
 30
0.0
 11
1.000000000000114
 21
0.0
 31
0.0
210
0.0
220
0.0
230
1.0
 40
0.0707106781
 41
1.570796326794897
 42
3.141592653591198
  0
LINE
  5
7B
330
1F
100
AcDbEntity
  8
1
  6
SLD-Сплошная
100
AcDbLine
 10
533.5002921158
 20
228.5291621864
 30
0.0
 11
532.5002921158
 21
228.5291621864
 31
0.0
  0
ELLIPSE
  5
7C
330
1F
100
AcDbEntity
  8
1
  6
SLD-Сплошная
100
AcDbEllipse
 10
1030.5002921158
 20
228.5291621864
 30
0.0
 11
0.0
 21
2.0
 31
0.0
210
0.0
220
0.0
230
1.0
 40
0.035355339
 41
1.570796326794897
 42
3.141592653693089
  0
LINE
  5
7D
330
1F
100
AcDbEntity
  8
1
  6
SLD-Сплошная
100
AcDbLine
 10
535.6002921158
 20
226.5291621864
 30
0.0
 11
1030.5002921158
 21
226.5291621864
 31
0.0
  0
LINE
  5
7E
330
1F
100
AcDbEntity
  8
1
  6
SLD-Сплошная
100
AcDbLine
 10
534.5002921158
 20
226.5291621864
 30
0.0
 11
535.6002921158
 21
226.5291621864
 31
0.0
  0
ELLIPSE
  5
7F
330
1F
100
AcDbEntity
  8
1
  6
SLD-Сплошная
100
AcDbEllipse
 10
1030.5002921158
 20
924.5291621864
 30
0.0
 11
0.0
 21
1.0
 31
0.0
210
0.0
220
0.0
230
1.0
 40
0.070710678
 41
0.0
 42
1.570796326794897
  0
ELLIPSE
  5
80
330
1F
100
AcDbEntity
  8
1
  6
SLD-Сплошная
100
AcDbEllipse
 10
1030.5002921158
 20
924.5291621864
 30
0.0
 11
0.0
 21
2.0
 31
0.0
210
0.0
220
0.0
230
1.0
 40
0.035355339
 41
0.0
 42
1.57079632679484
  0
LINE
  5
81
330
1F
100
AcDbEntity
  8
1
  6
SLD-Сплошная
100
AcDbLine
 10
1030.5002921158
 20
925.5291621864
 30
0.0
 11
1030.5002921158
 21
926.5291621864
 31
0.0
  0
LINE
  5
82
330
1F
100
AcDbEntity
  8
1
  6
SLD-Сплошная
100
AcDbLine
 10
534.5002921158
 20
926.5291621864
 30
0.0
 11
1030.5002921158
 21
926.5291621864
 31
0.0
  0
ELLIPSE
  5
83
330
1F
100
AcDbEntity
  8
1
  6
SLD-Сплошная
100
AcDbEllipse
 10
534.5002921158
 20
924.5291621864
 30
0.0
 11
0.0
 21
2.0
 31
0.0
210
0.0
220
0.0
230
1.0
 40
0.035355339
 41
4.712388980384747
 42
6.283185307179586
  0
ELLIPSE
  5
84
330
1F
100
AcDbEntity
  8
1
  6
SLD-Сплошная
100
AcDbEllipse
 10
1030.5002921158
 20
228.5291621864
 30
0.0
 11
0.0
 21
1.0
 31
0.0
210
0.0
220
0.0
230
1.0
 40
0.070710678
 41
1.570796326794897
 42
3.14159265369289
  0
LINE
  5
85
330
1F
100
AcDbEntity
  8
1
  6
SLD-Сплошная
100
AcDbLine
 10
1030.5002921158
 20
227.5291621864
 30
0.0
 11
1030.5002921158
 21
226.5291621864
 31
0.0
  0
ELLIPSE
  5
86
330
1F
100
AcDbEntity
  8
1
  6
SLD-Сплошная
100
AcDbEllipse
 10
534.5002921158
 20
924.5291621864
 30
0.0
 11
0.0
 21
1.0
 31
0.0
210
0.0
220
0.0
230
1.0
 40
0.0707106781
 41
4.712388980384691
 42
6.283185307179586
  0
LINE
  5
87
330
1F
100
AcDbEntity
  8
1
  6
SLD-Сплошная
100
AcDbLine
 10
534.5002921158
 20
926.5291621864
 30
0.0
 11
534.5002921158
 21
925.5291621864
 31
0.0
  0
ELLIPSE
  5
88
330
1F
100
AcDbEntity
  8
1
  6
SLD-Сплошная
100
AcDbEllipse
 10
534.5002921158
 20
924.5291621864
 30
0.0
 11
2.0
 21
0.0
 31
0.0
210
0.0
220
0.0
230
1.0
 40
0.0353553391
 41
3.14159265358979
 42
4.71238898038469
  0
LINE
  5
89
330
1F
100
AcDbEntity
  8
1
  6
SLD-Сплошная
100
AcDbLine
 10
532.5002921158
 20
228.5291621864
 30
0.0
 11
532.5002921158
 21
924.5291621864
 31
0.0
  0
ELLIPSE
  5
8A
330
1F
100
AcDbEntity
  8
1
  6
SLD-Сплошная
100
AcDbEllipse
 10
1030.5002921158
 20
924.5291621864
 30
0.0
 11
1.0
 21
0.0
 31
0.0
210
0.0
220
0.0
230
1.0
 40
0.070710678
 41
4.712388980384691
 42
6.283185307179586
  0
LINE
  5
8B
330
1F
100
AcDbEntity
  8
1
  6
SLD-Сплошная
100
AcDbLine
 10
1032.5002921158
 20
924.5291621864
 30
0.0
 11
1031.5002921158
 21
924.5291621864
 31
0.0
  0
ELLIPSE
  5
8C
330
1F
100
AcDbEntity
  8
1
  6
SLD-Сплошная
100
AcDbEllipse
 10
1030.5002921158
 20
924.5291621864
 30
0.0
 11
2.0
 21
0.0
 31
0.0
210
0.0
220
0.0
230
1.0
 40
0.035355339
 41
4.712388980384803
 42
6.283185307179586
  0
ELLIPSE
  5
8D
330
1F
100
AcDbEntity
  8
1
  6
SLD-Сплошная
100
AcDbEllipse
 10
1030.5002921158
 20
228.5291621864
 30
0.0
 11
2.0
 21
0.0
 31
0.0
210
0.0
220
0.0
230
1.0
 40
0.035355339
 41
0.0
 42
1.570796326794783
  0
LINE
  5
8E
330
1F
100
AcDbEntity
  8
1
  6
SLD-Сплошная
100
AcDbLine
 10
1032.5002921158
 20
228.5291621864
 30
0.0
 11
1031.5002921158
 21
228.5291621864
 31
0.0
  0
ELLIPSE
  5
8F
330
1F
100
AcDbEntity
  8
1
  6
SLD-Сплошная
100
AcDbEllipse
 10
1030.5002921158
 20
228.5291621864
 30
0.0
 11
1.0
 21
0.0
 31
0.0
210
0.0
220
0.0
230
1.0
 40
0.070710678
 41
0.0
 42
1.570796326794897
  0
LINE
  5
90
330
1F
100
AcDbEntity
  8
1
  6
SLD-Сплошная
100
AcDbLine
 10
1032.5002921158
 20
924.5291621864
 30
0.0
 11
1032.5002921158
 21
228.5291621864
 31
0.0
  0
ELLIPSE
  5
91
330
1F
100
AcDbEntity
  8
1
  6
SLD-Сплошная
100
AcDbEllipse
 10
534.5002921158
 20
924.5291621864
 30
0.0
 11
1.000000000000114
 21
0.0
 31
0.0
210
0.0
220
0.0
230
1.0
 40
0.0707106781
 41
3.141592653589791
 42
4.712388980384691
  0
LINE
  5
92
330
1F
100
AcDbEntity
  8
1
  6
SLD-Сплошная
100
AcDbLine
 10
533.5002921158
 20
924.5291621864
 30
0.0
 11
532.5002921158
 21
924.5291621864
 31
0.0
  0
LINE
  5
93
330
1F
100
AcDbEntity
  8
1
  6
SLD-Сплошная
100
AcDbLine
 10
534.6002921158
 20
228.5584515083
 30
0.0
 11
534.6002921158
 21
228.6998728645
 31
0.0
  0
LINE
  5
94
330
1F
100
AcDbEntity
  8
1
  6
SLD-Сплошная
100
AcDbLine
 10
533.6002921158
 20
228.5291621864
 30
0.0
 11
533.6002921158
 21
228.5599842564
 31
0.0
  0
ARC
  5
95
330
1F
100
AcDbEntity
  8
1
  6
SLD-Сплошная
100
AcDbCircle
 10
535.6002921158
 20
228.5291621864
 30
0.0
 40
2.000000000000074
100
AcDbArc
 50
180.0
 51
236.6329870308
  0
ARC
  5
96
330
1F
100
AcDbEntity
  8
1
  6
SLD-Сплошная
100
AcDbCircle
 10
534.5002921158
 20
924.5291621864
 30
0.0
 40
1.000000000006821
100
AcDbArc
 50
90.0
 51
180.0
  0
ARC
  5
97
330
1F
100
AcDbEntity
  8
1
  6
SLD-Сплошная
100
AcDbCircle
 10
534.5002921158
 20
924.5291621864
 30
0.0
 40
2.000000000006821
100
AcDbArc
 50
90.0
 51
180.0
  0
ARC
  5
98
330
1F
100
AcDbEntity
  8
1
  6
SLD-Сплошная
100
AcDbCircle
 10
1030.5002921158
 20
924.5291621864
 30
0.0
 40
1.0
100
AcDbArc
 50
0.0
 51
90.0
  0
ARC
  5
99
330
1F
100
AcDbEntity
  8
1
  6
SLD-Сплошная
100
AcDbCircle
 10
1030.5002921158
 20
924.5291621864
 30
0.0
 40
2.0
100
AcDbArc
 50
0.0
 51
90.0
  0
ARC
  5
9A
330
1F
100
AcDbEntity
  8
1
  6
SLD-Сплошная
100
AcDbCircle
 10
1030.5002921158
 20
228.5291621864
 30
0.0
 40
1.0
100
AcDbArc
 50
270.0
 51
0.0
  0
ARC
  5
9B
330
1F
100
AcDbEntity
  8
1
  6
SLD-Сплошная
100
AcDbCircle
 10
1030.5002921158
 20
228.5291621864
 30
0.0
 40
2.0
100
AcDbArc
 50
270.0
 51
0.0
  0
LINE
  5
9C
330
1F
100
AcDbEntity
  8
1
  6
SLD-Сплошная
100
AcDbLine
 10
1030.5002921158
 20
924.5998728644
 30
0.0
 11
1030.5002921158
 21
925.5291621864
 31
0.0
  0
LINE
  5
9D
330
1F
100
AcDbEntity
  8
1
  6
SLD-Сплошная
100
AcDbLine
 10
534.5002921158
 20
925.5291621864
 30
0.0
 11
534.5002921158
 21
924.5998728645
 31
0.0
  0
LINE
  5
9E
330
1F
100
AcDbEntity
  8
1
  6
SLD-Сплошная
100
AcDbLine
 10
1031.5002921158
 20
228.5291621864
 30
0.0
 11
1030.5710027938
 21
228.5291621864
 31
0.0
  0
LINE
  5
9F
330
1F
100
AcDbEntity
  8
1
  6
SLD-Сплошная
100
AcDbLine
 10
1031.5002921158
 20
924.5291621864
 30
0.0
 11
1030.5710027938
 21
924.5291621864
 31
0.0
  0
LINE
  5
A0
330
1F
100
AcDbEntity
  8
1
  6
SLD-Сплошная
100
AcDbLine
 10
1030.5002921158
 20
228.4584515085
 30
0.0
 11
1030.5002921158
 21
227.5291621864
 31
0.0
  0
LINE
  5
A1
330
1F
100
AcDbEntity
  8
1
  6
SLD-Сплошная
100
AcDbLine
 10
534.4295814376
 20
924.5291621864
 30
0.0
 11
533.5002921158
 21
924.5291621864
 31
0.0
  0
LINE
  5
A2
330
1F
100
AcDbEntity
  8
1
  6
SLD-Сплошная
100
AcDbLine
 10
533.6002921158
 20
228.5291621864
 30
0.0
 11
533.5002921158
 21
228.5291621864
 31
0.0
  0
CIRCLE
  5
A3
330
1F
100
AcDbEntity
  8
1
  6
SLD-Сплошная
100
AcDbCircle
 10
969.7002921158
 20
268.0291621864
 30
0.0
 40
0.5
  0
CIRCLE
  5
A4
330
1F
100
AcDbEntity
  8
1
  6
SLD-Сплошная
100
AcDbCircle
 10
969.7002921158
 20
885.0291621864
 30
0.0
 40
0.5
  0
CIRCLE
  5
A5
330
1F
100
AcDbEntity
  8
1
  6
SLD-Сплошная
100
AcDbCircle
 10
589.7002921157
 20
865.0291621864
 30
0.0
 40
0.5
  0
CIRCLE
  5
A6
330
1F
100
AcDbEntity
  8
1
  6
SLD-Сплошная
100
AcDbCircle
 10
589.7002921158
 20
288.0291621864
 30
0.0
 40
0.4999999999998863
  0
LINE
  5
A7
330
1F
100
AcDbEntity
  8
1
  6
SLD-Сплошная
100
AcDbLine
 10
537.4002921157
 20
922.3291621864
 30
0.0
 11
535.9831348283
 21
925.0291621864
 31
0.0
  0
LINE
  5
A8
330
1F
100
AcDbEntity
  8
1
  6
SLD-Сплошная
100
AcDbLine
 10
537.4002921157
 20
922.3291621864
 30
0.0
 11
535.9831348283
 21
924.0291621864
 31
0.0
  0
LINE
  5
A9
330
1F
100
AcDbEntity
  8
1
  6
SLD-Сплошная
100
AcDbLine
 10
535.9831348283
 20
925.0291621864
 30
0.0
 11
535.9831348283
 21
924.0291621864
 31
0.0
  0
LINE
  5
AA
330
1F
100
AcDbEntity
  8
1
  6
SLD-Сплошная
100
AcDbLine
 10
535.9831348283
 20
925.0291621864
 30
0.0
 11
1028.4174494032
 21
925.0291621865
 31
0.0
  0
LINE
  5
AB
330
1F
100
AcDbEntity
  8
1
  6
SLD-Сплошная
100
AcDbLine
 10
1027.0002921158
 20
922.3291621864
 30
0.0
 11
1028.4174494032
 21
925.0291621865
 31
0.0
  0
LINE
  5
AC
330
1F
100
AcDbEntity
  8
1
  6
SLD-Сплошная
100
AcDbLine
 10
534.7002921157
 20
923.7463194739
 30
0.0
 11
537.4002921157
 21
922.3291621864
 31
0.0
  0
LINE
  5
AD
330
1F
100
AcDbEntity
  8
1
  6
SLD-Сплошная
100
AcDbLine
 10
534.7002921157
 20
923.7463194739
 30
0.0
 11
535.7002921157
 21
923.7463194739
 31
0.0
  0
LINE
  5
AE
330
1F
100
AcDbEntity
  8
1
  6
SLD-Сплошная
100
AcDbLine
 10
535.7002921157
 20
923.7463194739
 30
0.0
 11
537.4002921157
 21
922.3291621864
 31
0.0
  0
LINE
  5
AF
330
1F
100
AcDbEntity
  8
1
  6
SLD-Сплошная
100
AcDbLine
 10
534.7002921158
 20
229.312004899
 30
0.0
 11
537.4002921158
 21
230.7291621864
 31
0.0
  0
LINE
  5
B0
330
1F
100
AcDbEntity
  8
1
  6
SLD-Сплошная
100
AcDbLine
 10
534.7002921157
 20
923.7463194739
 30
0.0
 11
534.7002921158
 21
229.312004899
 31
0.0
  0
LINE
  5
B1
330
1F
100
AcDbEntity
  8
1
  6
SLD-Сплошная
100
AcDbLine
 10
535.9831348283
 20
228.0291621864
 30
0.0
 11
1028.4174494032
 21
228.0291621865
 31
0.0
  0
LINE
  5
B2
330
1F
100
AcDbEntity
  8
1
  6
SLD-Сплошная
100
AcDbLine
 10
537.4002921158
 20
230.7291621864
 30
0.0
 11
535.9831348283
 21
228.0291621864
 31
0.0
  0
LINE
  5
B3
330
1F
100
AcDbEntity
  8
1
  6
SLD-Сплошная
100
AcDbLine
 10
1027.0002921158
 20
230.7291621865
 30
0.0
 11
1028.4174494033
 21
228.0291621865
 31
0.0
  0
LINE
  5
B4
330
1F
100
AcDbEntity
  8
1
  6
SLD-Сплошная
100
AcDbLine
 10
535.7002921158
 20
229.312004899
 30
0.0
 11
537.4002921158
 21
230.7291621864
 31
0.0
  0
LINE
  5
B5
330
1F
100
AcDbEntity
  8
1
  6
SLD-Сплошная
100
AcDbLine
 10
534.7002921158
 20
229.312004899
 30
0.0
 11
535.7002921158
 21
229.312004899
 31
0.0
  0
LINE
  5
B6
330
1F
100
AcDbEntity
  8
1
  6
SLD-Сплошная
100
AcDbLine
 10
537.4002921158
 20
230.7291621864
 30
0.0
 11
535.9831348283
 21
229.0291621864
 31
0.0
  0
LINE
  5
B7
330
1F
100
AcDbEntity
  8
1
  6
SLD-Сплошная
100
AcDbLine
 10
535.9831348283
 20
228.0291621864
 30
0.0
 11
535.9831348283
 21
229.0291621864
 31
0.0
  0
LINE
  5
B8
330
1F
100
AcDbEntity
  8
1
  6
SLD-Сплошная
100
AcDbLine
 10
1029.7002921158
 20
923.7463194739
 30
0.0
 11
1027.0002921158
 21
922.3291621864
 31
0.0
  0
LINE
  5
B9
330
1F
100
AcDbEntity
  8
1
  6
SLD-Сплошная
100
AcDbLine
 10
1029.7002921158
 20
923.7463194739
 30
0.0
 11
1029.7002921158
 21
229.312004899
 31
0.0
  0
LINE
  5
BA
330
1F
100
AcDbEntity
  8
1
  6
SLD-Сплошная
100
AcDbLine
 10
1029.7002921158
 20
229.312004899
 30
0.0
 11
1027.0002921158
 21
230.7291621865
 31
0.0
  0
LINE
  5
BB
330
1F
100
AcDbEntity
  8
1
  6
SLD-Сплошная
100
AcDbLine
 10
1027.0002921158
 20
922.3291621864
 30
0.0
 11
1028.4174494032
 21
924.0291621865
 31
0.0
  0
LINE
  5
BC
330
1F
100
AcDbEntity
  8
1
  6
SLD-Сплошная
100
AcDbLine
 10
1028.4174494032
 20
925.0291621865
 30
0.0
 11
1028.4174494032
 21
924.0291621865
 31
0.0
  0
LINE
  5
BD
330
1F
100
AcDbEntity
  8
1
  6
SLD-Сплошная
100
AcDbLine
 10
1028.7002921158
 20
923.7463194739
 30
0.0
 11
1027.0002921158
 21
922.3291621864
 31
0.0
  0
LINE
  5
BE
330
1F
100
AcDbEntity
  8
1
  6
SLD-Сплошная
100
AcDbLine
 10
1029.7002921158
 20
923.7463194739
 30
0.0
 11
1028.7002921158
 21
923.7463194739
 31
0.0
  0
LINE
  5
BF
330
1F
100
AcDbEntity
  8
1
  6
SLD-Сплошная
100
AcDbLine
 10
1029.7002921158
 20
229.312004899
 30
0.0
 11
1028.7002921158
 21
229.312004899
 31
0.0
  0
LINE
  5
C0
330
1F
100
AcDbEntity
  8
1
  6
SLD-Сплошная
100
AcDbLine
 10
1028.7002921158
 20
229.312004899
 30
0.0
 11
1027.0002921158
 21
230.7291621865
 31
0.0
  0
LINE
  5
C1
330
1F
100
AcDbEntity
  8
1
  6
SLD-Сплошная
100
AcDbLine
 10
1027.0002921158
 20
230.7291621865
 30
0.0
 11
1028.4174494033
 21
229.0291621865
 31
0.0
  0
LINE
  5
C2
330
1F
100
AcDbEntity
  8
1
  6
SLD-Сплошная
100
AcDbLine
 10
1028.4174494032
 20
228.0291621865
 30
0.0
 11
1028.4174494033
 21
229.0291621865
 31
0.0
  0
LINE
  5
C3
330
1F
100
AcDbEntity
  8
1
  6
SLD-Сплошная
100
AcDbLine
 10
979.5002921158
 20
226.0291621864
 30
0.0
 11
585.5002921158
 21
226.0291621864
 31
0.0
  0
LINE
  5
C4
330
1F
100
AcDbEntity
  8
1
  6
SLD-Сплошная
100
AcDbLine
 10
989.9919660037
 20
226.0291621864
 30
0.0
 11
979.5002921158
 21
226.0291621864
 31
0.0
  0
ARC
  5
C5
330
1F
100
AcDbEntity
  8
1
  6
SLD-Сплошная
100
AcDbCircle
 10
989.9919660037
 20
228.4291621864
 30
0.0
 40
2.399999999999995
100
AcDbArc
 50
270.0
 51
307.6584620068
  0
LINE
  5
C6
330
1F
100
AcDbEntity
  8
1
  6
SLD-Сплошная
100
AcDbLine
 10
585.5002921158
 20
226.0291621864
 30
0.0
 11
575.0086182279
 21
226.0291621864
 31
0.0
  0
ARC
  5
C7
330
1F
100
AcDbEntity
  8
1
  6
SLD-Сплошная
100
AcDbCircle
 10
575.0086182279
 20
228.4291621864
 30
0.0
 40
2.400000000000016
100
AcDbArc
 50
232.3415379932
 51
270.0
  0
CIRCLE
  5
C8
330
1F
100
AcDbEntity
  8
1
  6
SLD-Сплошная
100
AcDbCircle
 10
589.7002921157
 20
576.5291621864
 30
0.0
 40
14.0
  0
CIRCLE
  5
C9
330
1F
100
AcDbEntity
  8
1
  6
SLD-Сплошная
100
AcDbCircle
 10
589.7002921157
 20
576.5291621864
 30
0.0
 40
11.0
  0
CIRCLE
  5
CA
330
1F
100
AcDbEntity
  8
1
  6
SLD-Сплошная
100
AcDbCircle
 10
589.7002921157
 20
576.5291621864
 30
0.0
 40
8.0
  0
ARC
  5
CB
330
1F
100
AcDbEntity
  8
1
  6
SLD-Сплошная
100
AcDbCircle
 10
591.5870434617
 20
573.261212994
 30
0.0
 40
1.0
100
AcDbArc
 50
240.0
 51
0.0
  0
LINE
  5
CC
330
1F
100
AcDbEntity
  8
1
  6
SLD-Сплошная
100
AcDbLine
 10
585.4267894238
 20
575.6631367826
 30
0.0
 11
591.0870434617
 21
572.3951875902
 31
0.0
  0
ARC
  5
CD
330
1F
100
AcDbEntity
  8
1
  6
SLD-Сплошная
100
AcDbCircle
 10
585.9267894238
 20
576.5291621864
 30
0.0
 40
0.9999999999999836
100
AcDbArc
 50
120.0
 51
240.0
  0
LINE
  5
CE
330
1F
100
AcDbEntity
  8
1
  6
SLD-Сплошная
100
AcDbLine
 10
591.0870434617
 20
580.6631367826
 30
0.0
 11
585.4267894238
 21
577.3951875902
 31
0.0
  0
ARC
  5
CF
330
1F
100
AcDbEntity
  8
1
  6
SLD-Сплошная
100
AcDbCircle
 10
591.5870434617
 20
579.7971113789
 30
0.0
 40
1.0
100
AcDbArc
 50
0.0
 51
120.0
  0
LINE
  5
D0
330
1F
100
AcDbEntity
  8
1
  6
SLD-Сплошная
100
AcDbLine
 10
592.5870434617
 20
573.261212994
 30
0.0
 11
592.5870434617
 21
579.7971113789
 31
0.0
  0
LINE
  5
D1
330
1F
100
AcDbEntity
  8
1
  6
SLD-Сплошная
100
AcDbLine
 10
1823.4681645153
 20
1112.4975922748
 30
0.0
 11
1823.4681645153
 21
1680.8099973473
 31
0.0
  0
LINE
  5
D2
330
1F
100
AcDbEntity
  8
1
  6
SLD-Сплошная
100
AcDbLine
 10
1822.5716163217
 20
1682.3627470693
 30
0.0
 11
1471.8466528532
 21
1884.8319588013
 31
0.0
  0
LINE
  5
D3
330
1F
100
AcDbEntity
  8
1
  6
SLD-Сплошная
100
AcDbLine
 10
1278.0314769076
 20
1773.0232869426
 30
0.0
 11
1278.0314769076
 21
1766.69545235
 31
0.0
  0
LINE
  5
D4
330
1F
100
AcDbEntity
  8
1
  6
SLD-Сплошная
100
AcDbLine
 10
1469.5968357047
 20
1884.8072047761
 30
0.0
 11
1279.0315581749
 21
1774.796211708
 31
0.0
  0
LINE
  5
D5
330
1F
100
AcDbEntity
  8
1
  6
SLD-Сплошная
100
AcDbLine
 10
1631.7563591087
 20
1000.5503994539
 30
0.0
 11
1822.3216366385
 21
1110.5613925221
 31
0.0
  0
LINE
  5
D6
330
1F
100
AcDbEntity
  8
1
  6
SLD-Сплошная
100
AcDbLine
 10
1623.3211590019
 20
1004.2654552297
 30
0.0
 11
1629.7211691777
 21
1000.570807998
 31
0.0
  0
LINE
  5
D7
330
1F
100
AcDbEntity
  8
1
  6
SLD-Сплошная
100
AcDbLine
 10
1623.3211590019
 20
999.5315647732
 30
0.0
 11
1623.3211590019
 21
1566.5696473286
 31
0.0
  0
LINE
  5
D8
330
1F
100
AcDbEntity
  8
1
  6
SLD-Сплошная
100
AcDbLine
 10
1622.6332571201
 20
1567.7610790706
 30
0.0
 11
1274.426043106
 21
1768.7768249804
 31
0.0
  0
LINE
  5
D9
330
1F
100
AcDbEntity
  8
1
  6
SLD-Сплошная
100
AcDbLine
 10
1261.4215743308
 20
1760.5337898792
 30
0.0
 11
1261.4215743309
 21
1194.1776834502
 31
0.0
  0
LINE
  5
DA
330
1F
100
AcDbEntity
  8
1
  6
SLD-Сплошная
100
AcDbLine
 10
1262.0630478185
 20
1193.0666789703
 30
0.0
 11
1609.6798003342
 21
992.3917992279
 31
0.0
  0
LINE
  5
DB
330
1F
100
AcDbEntity
  8
1
  6
SLD-Сплошная
100
AcDbLine
 10
1288.5874689599
 20
1460.2111663164
 30
0.0
 11
1288.5874689599
 21
1457.761941981
 31
0.0
  0
LINE
  5
DC
330
1F
100
AcDbEntity
  8
1
  6
SLD-Сплошная
100
AcDbLine
 10
1296.3643793808
 20
1444.2904783449
 30
0.0
 11
1298.4853549502
 21
1443.0656671432
 31
0.0
  0
LINE
  5
DD
330
1F
100
AcDbEntity
  8
1
  6
SLD-Сплошная
100
AcDbLine
 10
1292.1946395493
 20
1467.0291976629
 30
0.0
 11
1291.4875327681
 21
1466.620993607
 31
0.0
  0
LINE
  5
DE
330
1F
100
AcDbEntity
  8
1
  6
SLD-Сплошная
100
AcDbLine
 10
1305.486395025
 20
1442.3716254603
 30
0.0
 11
1306.1935018062
 21
1442.7798295162
 31
0.0
  0
LINE
  5
DF
330
1F
100
AcDbEntity
  8
1
  6
SLD-Сплошная
100
AcDbLine
 10
1300.321057934
 20
1450.1916672326
 30
0.0
 11
1301.9449043609
 21
1451.1290938212
 31
0.0
  0
LINE
  5
E0
330
1F
100
AcDbEntity
  8
1
  6
SLD-Сплошная
100
AcDbLine
 10
1297.0157914628
 20
1457.8824072341
 30
0.0
 11
1295.3187351879
 21
1456.9027174999
 31
0.0
  0
LINE
  5
E1
330
1F
100
AcDbEntity
  8
1
  6
SLD-Сплошная
100
AcDbLine
 10
1626.0995048592
 20
1049.5428481671
 30
0.0
 11
1627.5137184216
 21
1050.3592562789
 31
0.0
  0
LINE
  5
E2
330
1F
100
AcDbEntity
  8
1
  6
SLD-Сплошная
100
AcDbLine
 10
1623.8638653057
 20
1496.7965063179
 30
0.0
 11
1624.1467080182
 21
1496.9597879402
 31
0.0
  0
LINE
  5
E3
330
1F
100
AcDbEntity
  8
1
  6
SLD-Сплошная
100
AcDbLine
 10
1625.0995861266
 20
1499.06587405
 30
0.0
 11
1625.0995861266
 21
1499.1475148612
 31
0.0
  0
LINE
  5
E4
330
1F
100
AcDbEntity
  8
1
  6
SLD-Сплошная
100
AcDbLine
 10
1623.5103119151
 20
1071.9911821093
 30
0.0
 11
1623.7931546276
 21
1072.1544637317
 31
0.0
  0
LINE
  5
E5
330
1F
100
AcDbEntity
  8
1
  6
SLD-Сплошная
100
AcDbLine
 10
1624.746032736
 20
1074.2605498414
 30
0.0
 11
1624.746032736
 21
1075.5838966163
 31
0.0
  0
LINE
  5
E6
330
1F
100
AcDbEntity
  8
1
  6
SLD-Сплошная
100
AcDbLine
 10
1624.746032736
 20
1075.1293540031
 30
0.0
 11
1624.8010327087
 21
1075.1611048114
 31
0.0
  0
LINE
  5
E7
330
1F
100
AcDbEntity
  8
1
  6
SLD-Сплошная
100
AcDbLine
 10
1626.4530582498
 20
1474.3481723757
 30
0.0
 11
1627.5137184216
 21
1474.9604784595
 31
0.0
  0
ELLIPSE
  5
E8
330
1F
100
AcDbEntity
  8
1
  6
SLD-Сплошная
100
AcDbEllipse
 10
1630.7564403761
 20
1002.2824971787
 30
0.0
 11
1.999729017873051
 21
-0.05915489553115094
 31
0.0
210
0.0
220
0.0
230
1.0
 40
0.5565381198
 41
3.943452537634412
 42
5.514248864427964
  0
ELLIPSE
  5
E9
330
1F
100
AcDbEntity
  8
1
  6
SLD-Сплошная
100
AcDbEllipse
 10
1630.7564403761
 20
1570.5949022512
 30
0.0
 11
1.999640479970367
 21
0.06348472498439151
 31
0.0
210
0.0
220
0.0
230
1.0
 40
0.5973141191
 41
3.908029519521714
 42
5.478825846317579
  0
ELLIPSE
  5
EA
330
1F
100
AcDbEntity
  8
1
  6
SLD-Сплошная
100
AcDbEllipse
 10
1630.7564403761
 20
1570.5949022512
 30
0.0
 11
0.9991743340515314
 21
0.06590621729401391
 31
0.0
210
0.0
220
0.0
230
0.9999999999999999
 40
0.616454653
 41
3.886351437210488
 42
5.457147764005915
  0
LINE
  5
EB
330
1F
100
AcDbEntity
  8
1
  6
SLD-Сплошная
100
AcDbLine
 10
1632.1706539385
 20
1569.7784941394
 30
0.0
 11
1631.4635471573
 21
1570.1866981953
 31
0.0
  0
LINE
  5
EC
330
1F
100
AcDbEntity
  8
1
  6
SLD-Сплошная
100
AcDbLine
 10
1630.0493335949
 20
1570.1289600409
 30
0.0
 11
1629.3422268137
 21
1569.720755985
 31
0.0
  0
ELLIPSE
  5
ED
330
1F
100
AcDbEntity
  8
1
  6
SLD-Сплошная
100
AcDbEllipse
 10
1630.7564403761
 20
1570.5949022512
 30
0.0
 11
1.054720450787954
 21
1.700046099273095
 31
0.0
210
0.0
220
0.0
230
1.0
 40
0.5974079497
 41
0.80428140011928
 42
2.375077726920886
  0
ELLIPSE
  5
EE
330
1F
100
AcDbEntity
  8
1
  6
SLD-Сплошная
100
AcDbEllipse
 10
1280.0314769076
 20
1773.0641139832
 30
0.0
 11
0.9485527510507837
 21
1.761437681469261
 31
0.0
210
0.0
220
0.0
230
0.9999999999999999
 40
0.5566319546
 41
0.7688525864812417
 42
2.339648913273181
  0
ARC
  5
EF
330
1F
100
AcDbEntity
  8
1
  6
SLD-Сплошная
100
AcDbCircle
 10
1819.6654992655
 20
1679.649765503
 30
0.0
 40
3.073609615128474
100
AcDbArc
 50
2.6054784854
 51
57.3945216601
  0
ARC
  5
F0
330
1F
100
AcDbEntity
  8
1
  6
SLD-Сплошная
100
AcDbCircle
 10
1629.1002217357
 20
1569.6387724348
 30
0.0
 40
3.073609615143177
100
AcDbArc
 50
2.6054784856
 51
57.39452166
  0
ELLIPSE
  5
F1
330
1F
100
AcDbEntity
  8
1
  6
SLD-Сплошная
100
AcDbEllipse
 10
1630.7564403761
 20
1570.5949022512
 30
0.0
 11
0.5566258152196042
 21
0.8323823098940011
 31
0.0
210
0.0
220
0.0
230
1.0
 40
0.6165484624
 41
0.8259634569457595
 42
2.396759783753574
  0
LINE
  5
F2
330
1F
100
AcDbEntity
  8
1
  6
SLD-Сплошная
100
AcDbLine
 10
1629.999333595
 20
1570.2155625808
 30
0.0
 11
1629.2922268139
 21
1569.8073585249
 31
0.0
  0
LINE
  5
F3
330
1F
100
AcDbEntity
  8
1
  6
SLD-Сплошная
100
AcDbLine
 10
1630.7564403761
 20
1571.4114430631
 30
0.0
 11
1630.7564403761
 21
1572.227983875
 31
0.0
  0
ARC
  5
F4
330
1F
100
AcDbEntity
  8
1
  6
SLD-Сплошная
100
AcDbCircle
 10
1629.9283310559
 20
1570.116837343
 30
0.0
 40
1.53680480757228
100
AcDbArc
 50
2.6054784857
 51
57.39452166
  0
LWPOLYLINE
  5
F5
330
1F
100
AcDbEntity
  8
1
  6
SLD-Сплошная
100
AcDbPolyline
 90
       17
 70
   128
 43
0.0
 10
1694.3960506829
 20
1068.0083264328
 10
1694.2607516579
 20
1067.9612977023
 10
1694.1460506829
 20
1067.9835841381
 10
1694.0694099417
 20
1068.0717928323
 10
1694.0424972923
 20
1068.2124948108
 10
1694.0694099417
 20
1068.3842694728
 10
1694.1460506829
 20
1068.5609656833
 10
1694.2607516579
 20
1068.7156830459
 10
1694.3960506829
 20
1068.8248672447
 10
1694.5313497079
 20
1068.8718959751
 10
1694.6460506829
 20
1068.8496095394
 10
1694.7226914241
 20
1068.7614008452
 10
1694.7496040735
 20
1068.6206988667
 10
1694.7226914241
 20
1068.4489242046
 10
1694.6460506829
 20
1068.2722279942
 10
1694.5313497079
 20
1068.1175106316
 10
1694.3960506829
 20
1068.0083264328
  0
LWPOLYLINE
  5
F6
330
1F
100
AcDbEntity
  8
1
  6
SLD-Сплошная
100
AcDbPolyline
 90
       17
 70
   128
 43
0.0
 10
1659.0407116236
 20
1055.7635317561
 10
1658.9054125985
 20
1055.7165030256
 10
1658.7907116236
 20
1055.7387894614
 10
1658.7140708824
 20
1055.8269981556
 10
1658.687158233
 20
1055.9677001341
 10
1658.7140708824
 20
1056.1394747961
 10
1658.7907116236
 20
1056.3161710066
 10
1658.9054125985
 20
1056.4708883692
 10
1659.0407116236
 20
1056.580072568
 10
1659.1760106486
 20
1056.6271012984
 10
1659.2907116236
 20
1056.6048148627
 10
1659.3673523648
 20
1056.5166061685
 10
1659.3942650142
 20
1056.37590419
 10
1659.3673523648
 20
1056.2041295279
 10
1659.2907116236
 20
1056.0274333175
 10
1659.1760106486
 20
1055.8727159549
 10
1659.0407116236
 20
1055.7635317561
  0
LWPOLYLINE
  5
F7
330
1F
100
AcDbEntity
  8
1
  6
SLD-Сплошная
100
AcDbPolyline
 90
       17
 70
   128
 43
0.0
 10
1659.0407116236
 20
1546.5045596994
 10
1659.1760106486
 20
1546.5515884299
 10
1659.2907116236
 20
1546.5293019941
 10
1659.3673523648
 20
1546.4410932999
 10
1659.3942650142
 20
1546.3003913214
 10
1659.3673523648
 20
1546.1286166594
 10
1659.2907116236
 20
1545.9519204489
 10
1659.1760106486
 20
1545.7972030863
 10
1659.0407116236
 20
1545.6880188875
 10
1658.9054125985
 20
1545.6409901571
 10
1658.7907116236
 20
1545.6632765929
 10
1658.7140708824
 20
1545.751485287
 10
1658.687158233
 20
1545.8921872655
 10
1658.7140708824
 20
1546.0639619276
 10
1658.7907116236
 20
1546.2406581381
 10
1658.9054125985
 20
1546.3953755007
 10
1659.0407116236
 20
1546.5045596994
  0
LINE
  5
F8
330
1F
100
AcDbEntity
  8
1
  6
SLD-Сплошная
100
AcDbLine
 10
1624.746032736
 20
1075.0395418566
 30
0.0
 11
1624.8249468414
 21
1075.2260691225
 31
0.0
  0
LINE
  5
F9
330
1F
100
AcDbEntity
  8
1
  6
SLD-Сплошная
100
AcDbLine
 10
1629.3422268137
 20
1001.5238272213
 30
0.0
 11
1623.3211590019
 21
1011.9526225566
 31
0.0
  0
LINE
  5
FA
330
1F
100
AcDbEntity
  8
1
  6
SLD-Сплошная
100
AcDbLine
 10
1629.3422268137
 20
1569.720755985
 30
0.0
 11
1623.3211590019
 21
1566.2437375724
 31
0.0
  0
LINE
  5
FB
330
1F
100
AcDbEntity
  8
1
  6
SLD-Сплошная
100
AcDbLine
 10
1623.3211590019
 20
1566.3592138812
 30
0.0
 11
1629.2922268139
 21
1569.8073585249
 31
0.0
  0
LINE
  5
FC
330
1F
100
AcDbEntity
  8
1
  6
SLD-Сплошная
100
AcDbLine
 10
1278.6672633452
 20
1772.2188414858
 30
0.0
 11
1283.7682410979
 21
1763.3836888758
 31
0.0
  0
LINE
  5
FD
330
1F
100
AcDbEntity
  8
1
  6
SLD-Сплошная
100
AcDbLine
 10
1623.3211590019
 20
1566.3590811812
 30
0.0
 11
1629.999333595
 21
1570.2155625808
 31
0.0
  0
LINE
  5
FE
330
1F
100
AcDbEntity
  8
1
  6
SLD-Сплошная
100
AcDbLine
 10
1623.6448459989
 20
1566.5458564822
 30
0.0
 11
1623.644719592
 21
1566.5459294553
 31
0.0
  0
LINE
  5
FF
330
1F
100
AcDbEntity
  8
1
  6
SLD-Сплошная
100
AcDbLine
 10
1622.9377392177
 20
1566.1376524263
 30
0.0
 11
1623.6448459989
 21
1566.5458564822
 31
0.0
  0
LINE
  5
100
330
1F
100
AcDbEntity
  8
1
  6
SLD-Сплошная
100
AcDbLine
 10
1623.3211590019
 20
1566.3589352111
 30
0.0
 11
1623.6448459989
 21
1566.5458564822
 31
0.0
  0
LINE
  5
101
330
1F
100
AcDbEntity
  8
1
  6
SLD-Сплошная
100
AcDbLine
 10
1615.1500911901
 20
1562.4572969174
 30
0.0
 11
1610.6199275685
 21
1559.8420891249
 31
0.0
  0
ELLIPSE
  5
102
330
1F
100
AcDbEntity
  8
1
  6
SLD-Сплошная
100
AcDbEllipse
 10
1616.5643047525
 20
1562.4574296174
 30
0.0
 11
1.580529840018926
 21
0.1927335649925226
 31
0.0
210
0.0
220
0.0
230
0.9999999999999999
 40
0.2276700627
 41
2.329626123325322
 42
2.650189545572763
  0
ELLIPSE
  5
103
330
1F
100
AcDbEntity
  8
1
  6
SLD-Сплошная
100
AcDbEllipse
 10
1820.9681645153
 20
1680.3439887869
 30
0.0
 11
2.4930803407251
 21
0.9065865826364642
 31
0.0
210
0.0
220
0.0
230
1.0
 40
0.2050299685
 41
0.3206699639691238
 42
0.7109785221994639
  0
ARC
  5
104
330
1F
100
AcDbEntity
  8
1
  6
SLD-Сплошная
100
AcDbCircle
 10
1822.2340621803
 20
1112.6101315023
 30
0.0
 40
1.239223002901061
100
AcDbArc
 50
293.8903166261
 51
354.7895424158
  0
LWPOLYLINE
  5
105
330
1F
100
AcDbEntity
  8
1
  6
SLD-Сплошная
100
AcDbPolyline
 90
        9
 70
   128
 43
0.0
 10
1822.7359314683
 20
1679.7894872075
 10
1822.9766282647
 20
1679.9506190524
 10
1823.1736715855
 20
1680.1304292775
 10
1823.3227787415
 20
1680.3250097509
 10
1823.4207089247
 20
1680.5301313128
 10
1823.465333646
 20
1680.7413356955
 10
1823.455682998
 20
1680.9540324227
 10
1823.3919667351
 20
1681.1635985822
 10
1823.2755697149
 20
1681.3654793041
  0
LWPOLYLINE
  5
106
330
1F
100
AcDbEntity
  8
1
  6
SLD-Сплошная
100
AcDbPolyline
 90
        3
 70
   128
 43
0.0
 10
1822.4530057571
 20
1680.9327934956
 10
1822.4224458472
 20
1681.0221580882
 10
1822.3526076351
 20
1681.1432865214
  0
LINE
  5
107
330
1F
100
AcDbEntity
  8
1
  6
SLD-Сплошная
100
AcDbLine
 10
1823.2755697149
 20
1681.3654793041
 30
0.0
 11
1822.3526076351
 21
1681.1432865214
 31
0.0
  0
LINE
  5
108
330
1F
100
AcDbEntity
  8
1
  6
SLD-Сплошная
100
AcDbLine
 10
1822.9565341214
 20
1681.91806516
 30
0.0
 11
1822.3026076352
 21
1681.2298890613
 31
0.0
  0
LWPOLYLINE
  5
109
330
1F
100
AcDbEntity
  8
1
  6
SLD-Сплошная
100
AcDbPolyline
 90
        3
 70
   128
 43
0.0
 10
1822.3026076352
 20
1681.2298890613
 10
1822.2326150736
 20
1681.3509546319
 10
1822.1705775182
 20
1681.4220372238
  0
LWPOLYLINE
  5
10A
330
1F
100
AcDbEntity
  8
1
  6
SLD-Сплошная
100
AcDbPolyline
 90
        9
 70
   128
 43
0.0
 10
1822.9565341214
 20
1681.91806516
 10
1822.8398798521
 20
1682.119841111
 10
1822.6902286987
 20
1682.279838156
 10
1822.510833293
 20
1682.394578798
 10
1822.3055927508
 20
1682.4615691766
 10
1822.0789679259
 20
1682.4793532721
 10
1821.8358844544
 20
1682.4475445515
 10
1821.5816256967
 20
1682.3668343697
 10
1821.3217179059
 20
1682.2389769431
  0
ELLIPSE
  5
10B
330
1F
100
AcDbEntity
  8
1
  6
SLD-Сплошная
100
AcDbEllipse
 10
1820.9181645154
 20
1680.4305913269
 30
0.0
 11
2.031629674499982
 21
1.705837126210326
 31
0.0
210
0.0
220
0.0
230
1.0
 40
0.2051618287
 41
5.57217797526441
 42
5.962486533478287
  0
ARC
  5
10C
330
1F
100
AcDbEntity
  8
1
  6
SLD-Сплошная
100
AcDbCircle
 10
1471.3269888781
 20
1883.7068458844
 30
0.0
 40
1.239326318114488
100
AcDbArc
 50
65.2088626953
 51
126.1015957338
  0
LINE
  5
10D
330
1F
100
AcDbEntity
  8
1
  6
SLD-Сплошная
100
AcDbLine
 10
1822.7359314683
 20
1681.3644989267
 30
0.0
 11
1822.3528326643
 21
1681.1433406946
 31
0.0
  0
LINE
  5
10E
330
1F
100
AcDbEntity
  8
1
  6
SLD-Сплошная
100
AcDbLine
 10
1822.6859314684
 20
1681.4511014666
 30
0.0
 11
1822.2965201534
 21
1681.2262990996
 31
0.0
  0
LINE
  5
10F
330
1F
100
AcDbEntity
  8
1
  6
SLD-Сплошная
100
AcDbLine
 10
1822.2965525832
 20
1681.2262447476
 30
0.0
 11
1822.6859314684
 21
1681.4511014666
 31
0.0
  0
LINE
  5
110
330
1F
100
AcDbEntity
  8
1
  6
SLD-Сплошная
100
AcDbLine
 10
1283.6682410979
 20
1763.441417647
 30
0.0
 11
1278.6172633452
 21
1772.1899677169
 31
0.0
  0
LINE
  5
111
330
1F
100
AcDbEntity
  8
1
  6
SLD-Сплошная
100
AcDbLine
 10
1278.6672674084
 20
1772.2188344481
 30
0.0
 11
1278.6172633452
 21
1772.1899677169
 31
0.0
  0
ELLIPSE
  5
112
330
1F
100
AcDbEntity
  8
1
  6
SLD-Сплошная
100
AcDbEllipse
 10
1280.0314769076
 20
1773.0641139832
 30
0.0
 11
1.999640479968775
 21
0.06348472510717329
 31
0.0
210
0.0
220
0.0
230
1.0
 40
0.5973141192
 41
2.337233192688838
 42
3.908029519483848
  0
LINE
  5
113
330
1F
100
AcDbEntity
  8
1
  6
SLD-Сплошная
100
AcDbLine
 10
1279.0667538589
 20
1773.6210367448
 30
0.0
 11
1278.6172633452
 21
1773.880522095
 31
0.0
  0
ARC
  5
114
330
1F
100
AcDbEntity
  8
1
  6
SLD-Сплошная
100
AcDbCircle
 10
1470.0109143277
 20
1883.8904260169
 30
0.0
 40
1.00595447180476
100
AcDbArc
 50
54.3824225249
 51
114.3071190461
  0
ARC
  5
115
330
1F
100
AcDbEntity
  8
1
  6
SLD-Сплошная
100
AcDbCircle
 10
1279.4794120801
 20
1774.0203764888
 30
0.0
 40
0.8734183948608076
100
AcDbArc
 50
50.7967147648
 51
189.2140369903
  0
LINE
  5
116
330
1F
100
AcDbEntity
  8
1
  6
SLD-Сплошная
100
AcDbLine
 10
1623.3211590019
 20
1011.8371462478
 30
0.0
 11
1629.2922268139
 21
1001.4949534524
 31
0.0
  0
LINE
  5
117
330
1F
100
AcDbEntity
  8
1
  6
SLD-Сплошная
100
AcDbLine
 10
1629.3422349408
 20
1001.5238225296
 30
0.0
 11
1629.2922268139
 21
1001.4949534524
 31
0.0
  0
ARC
  5
118
330
1F
100
AcDbEntity
  8
1
  6
SLD-Сплошная
100
AcDbCircle
 10
1631.3085052036
 20
1001.3262346731
 30
0.0
 40
0.8734183948570841
100
AcDbArc
 50
230.7967147643
 51
9.2140369905
  0
LINE
  5
119
330
1F
100
AcDbEntity
  8
1
  6
SLD-Сплошная
100
AcDbLine
 10
1630.7564403761
 20
1001.1687487951
 30
0.0
 11
1630.7564403761
 21
1000.6494155549
 31
0.0
  0
ARC
  5
11A
330
1F
100
AcDbEntity
  8
1
  6
SLD-Сплошная
100
AcDbCircle
 10
1821.7559276965
 20
1111.3689086454
 30
0.0
 40
0.9859558288416317
100
AcDbArc
 50
305.0133318021
 51
6.2988485912
  0
ELLIPSE
  5
11B
330
1F
100
AcDbEntity
  8
1
  6
SLD-Сплошная
100
AcDbEllipse
 10
1630.7564403761
 20
1002.2824971787
 30
0.0
 11
1.054720450787954
 21
1.700046099273095
 31
0.0
210
0.0
220
0.0
230
1.0
 40
0.5974079497
 41
2.375077726920956
 42
3.945874053715611
  0
ELLIPSE
  5
11C
330
1F
100
AcDbEntity
  8
1
  6
SLD-Сплошная
100
AcDbEllipse
 10
1610.3210543998
 20
1559.8588436406
 30
0.0
 11
2.691140751008788
 21
0.8754882017483397
 31
0.0
210
0.0
220
0.0
230
1.0
 40
0.2496252376
 41
3.845959967500249
 42
5.416756294295443
  0
ELLIPSE
  5
11D
330
1F
100
AcDbEntity
  8
1
  6
SLD-Сплошная
100
AcDbEllipse
 10
1610.3210543998
 20
995.1392181404
 30
0.0
 11
2.346496907418896
 21
-1.88693355148655
 31
0.0
210
0.0
220
0.0
230
0.9999999999999999
 40
0.7078398481
 41
4.444461987435157
 42
6.015258314230026
  0
ELLIPSE
  5
11E
330
1F
100
AcDbEntity
  8
1
  6
SLD-Сплошная
100
AcDbEllipse
 10
1610.3210543998
 20
1559.8588436406
 30
0.0
 11
1.698791117367136
 21
0.8238102184850503
 31
0.0
210
0.0
220
0.0
230
1.0
 40
0.0778085159
 41
3.889276317589395
 42
5.460072644557346
  0
LINE
  5
11F
330
1F
100
AcDbEntity
  8
1
  6
SLD-Сплошная
100
AcDbLine
 10
1608.4118660906
 20
1558.7566926896
 30
0.0
 11
1609.1189728718
 21
1559.1648967456
 31
0.0
  0
ELLIPSE
  5
120
330
1F
100
AcDbEntity
  8
1
  6
SLD-Сплошная
100
AcDbEllipse
 10
1610.3210543998
 20
1559.8588436406
 30
0.0
 11
1.562801634037669
 21
1.059350639198783
 31
0.0
210
0.0
220
0.0
230
0.9999999999999998
 40
0.0779476132
 41
0.8230997739042247
 42
2.393896100608346
  0
ELLIPSE
  5
121
330
1F
100
AcDbEntity
  8
1
  6
SLD-Сплошная
100
AcDbEllipse
 10
1610.3210543998
 20
1559.8588436406
 30
0.0
 11
2.103726216603491
 21
1.892910169518928
 31
0.0
210
0.0
220
0.0
230
1.0
 40
0.2497537726
 41
0.8663954412543236
 42
2.437191768047203
  0
ELLIPSE
  5
122
330
1F
100
AcDbEntity
  8
1
  6
SLD-Сплошная
100
AcDbEllipse
 10
1264.1215743308
 20
1759.7155494148
 30
0.0
 11
-0.4612130826794783
 21
2.975579473084736
 31
0.0
210
0.0
220
0.0
230
1.0
 40
0.7078581484
 41
0.2677802285157435
 42
1.838576555323087
  0
LINE
  5
123
330
1F
100
AcDbEntity
  8
1
  6
SLD-Сплошная
100
AcDbLine
 10
1623.0136211221
 20
999.10501228
 30
0.0
 11
1612.230242709
 21
992.8799004274
 31
0.0
  0
LINE
  5
124
330
1F
100
AcDbEntity
  8
1
  6
SLD-Сплошная
100
AcDbLine
 10
1623.0136211221
 20
1566.1389713044
 30
0.0
 11
1612.230242709
 21
1559.9138594517
 31
0.0
  0
LINE
  5
125
330
1F
100
AcDbEntity
  8
1
  6
SLD-Сплошная
100
AcDbLine
 10
1622.3065143409
 20
1566.5471753603
 30
0.0
 11
1611.5231359278
 21
1560.3220635076
 31
0.0
  0
LINE
  5
126
330
1F
100
AcDbEntity
  8
1
  6
SLD-Сплошная
100
AcDbLine
 10
1623.0136211221
 20
1566.1389713044
 30
0.0
 11
1622.3065143409
 21
1566.5471753603
 31
0.0
  0
LINE
  5
127
330
1F
100
AcDbEntity
  8
1
  6
SLD-Сплошная
100
AcDbLine
 10
1611.3231359278
 20
1560.6684736682
 30
0.0
 11
1622.1065143408
 21
1566.8935855209
 31
0.0
  0
LINE
  5
128
330
1F
100
AcDbEntity
  8
1
  6
SLD-Сплошная
100
AcDbLine
 10
1611.3231359278
 20
1561.4850144801
 30
0.0
 11
1622.1065143408
 21
1567.7101263328
 31
0.0
  0
LINE
  5
129
330
1F
100
AcDbEntity
  8
1
  6
SLD-Сплошная
100
AcDbLine
 10
1622.1065143408
 20
1567.7101263328
 30
0.0
 11
1622.1065143408
 21
1566.8935855209
 31
0.0
  0
LINE
  5
12A
330
1F
100
AcDbEntity
  8
1
  6
SLD-Сплошная
100
AcDbLine
 10
1263.1194928029
 20
1762.4986989595
 30
0.0
 11
1273.902871216
 21
1768.7238108121
 31
0.0
  0
LWPOLYLINE
  5
12B
330
1F
100
AcDbEntity
  8
1
  6
SLD-Сплошная
100
AcDbPolyline
 90
       17
 70
   128
 43
0.0
 10
1567.5410941381
 20
1048.0882339045
 10
1567.5680067874
 20
1048.228935883
 10
1567.6446475287
 20
1048.3171445771
 10
1567.7593485036
 20
1048.3394310129
 10
1567.8946475287
 20
1048.2924022824
 10
1568.0299465537
 20
1048.1832180837
 10
1568.1446475287
 20
1048.0285007211
 10
1568.2212882699
 20
1047.8518045106
 10
1568.2482009192
 20
1047.6800298485
 10
1568.2212882699
 20
1047.53932787
 10
1568.1446475287
 20
1047.4511191759
 10
1568.0299465537
 20
1047.4288327401
 10
1567.8946475287
 20
1047.4758614706
 10
1567.7593485036
 20
1047.5850456693
 10
1567.6446475287
 20
1047.7397630319
 10
1567.5680067874
 20
1047.9164592424
 10
1567.5410941381
 20
1048.0882339045
  0
LWPOLYLINE
  5
12C
330
1F
100
AcDbEntity
  8
1
  6
SLD-Сплошная
100
AcDbPolyline
 90
       17
 70
   128
 43
0.0
 10
1568.2482009192
 20
1551.4857107821
 10
1568.2212882698
 20
1551.3450088036
 10
1568.1446475286
 20
1551.2568001094
 10
1568.0299465537
 20
1551.2345136736
 10
1567.8946475286
 20
1551.2815424041
 10
1567.7593485036
 20
1551.3907266029
 10
1567.6446475286
 20
1551.5454439655
 10
1567.5680067874
 20
1551.7221401759
 10
1567.541094138
 20
1551.893914838
 10
1567.5680067874
 20
1552.0346168165
 10
1567.6446475286
 20
1552.1228255107
 10
1567.7593485036
 20
1552.1451119464
 10
1567.8946475286
 20
1552.098083216
 10
1568.0299465537
 20
1551.9888990172
 10
1568.1446475286
 20
1551.8341816546
 10
1568.2212882698
 20
1551.6574854441
 10
1568.2482009192
 20
1551.4857107821
  0
LWPOLYLINE
  5
12D
330
1F
100
AcDbEntity
  8
1
  6
SLD-Сплошная
100
AcDbPolyline
 90
       17
 70
   128
 43
0.0
 10
1298.8405172871
 20
1690.6806398466
 10
1298.8674299365
 20
1690.8213418251
 10
1298.9440706777
 20
1690.9095505192
 10
1299.0587716527
 20
1690.931836955
 10
1299.1940706777
 20
1690.8848082246
 10
1299.3293697027
 20
1690.7756240258
 10
1299.4440706777
 20
1690.6209066632
 10
1299.5207114189
 20
1690.4442104527
 10
1299.5476240683
 20
1690.2724357907
 10
1299.5207114189
 20
1690.1317338122
 10
1299.4440706777
 20
1690.043525118
 10
1299.3293697027
 20
1690.0212386822
 10
1299.1940706777
 20
1690.0682674127
 10
1299.0587716527
 20
1690.1774516115
 10
1298.9440706777
 20
1690.332168974
 10
1298.8674299365
 20
1690.5088651845
 10
1298.8405172871
 20
1690.6806398466
  0
LWPOLYLINE
  5
12E
330
1F
100
AcDbEntity
  8
1
  6
SLD-Сплошная
100
AcDbPolyline
 90
       17
 70
   128
 43
0.0
 10
1299.5476240683
 20
1219.1283873326
 10
1299.5207114189
 20
1218.9876853541
 10
1299.4440706777
 20
1218.8994766599
 10
1299.3293697028
 20
1218.8771902241
 10
1299.1940706777
 20
1218.9242189546
 10
1299.0587716527
 20
1219.0334031534
 10
1298.9440706777
 20
1219.1881205159
 10
1298.8674299365
 20
1219.3648167264
 10
1298.8405172871
 20
1219.5365913885
 10
1298.8674299365
 20
1219.677293367
 10
1298.9440706777
 20
1219.7655020611
 10
1299.0587716527
 20
1219.7877884969
 10
1299.1940706777
 20
1219.7407597665
 10
1299.3293697028
 20
1219.6315755677
 10
1299.4440706777
 20
1219.4768582051
 10
1299.5207114189
 20
1219.3001619946
 10
1299.5476240683
 20
1219.1283873326
  0
LINE
  5
12F
330
1F
100
AcDbEntity
  8
1
  6
SLD-Сплошная
100
AcDbLine
 10
1611.2797887195
 20
1560.6433038875
 30
0.0
 11
1611.3231991312
 21
1560.6683641847
 31
0.0
  0
SPLINE
  5
130
330
1F
100
AcDbEntity
  8
1
  6
SLD-Сплошная
100
AcDbSpline
210
0.0
220
0.0
230
1.0
 70
     8
 71
     3
 72
     9
 73
     5
 74
     0
 42
0.00000001
 43
0.00000001
 40
0.0
 40
0.0
 40
0.0
 40
0.0
 40
0.5000000000000044
 40
0.9999999999999999
 40
0.9999999999999999
 40
0.9999999999999999
 40
0.9999999999999999
 10
1623.013621122151
 20
999.1050122800252
 30
0.0
 10
1623.10179865995
 20
999.1710216252301
 30
0.0
 10
1623.27815373555
 20
999.3030403156399
 30
0.0
 10
1623.30682391312
 20
999.4703734779015
 30
0.0
 10
1623.321159001905
 20
999.5540400590321
 30
0.0
  0
SPLINE
  5
131
330
1F
100
AcDbEntity
  8
1
  6
SLD-Сплошная
100
AcDbSpline
210
0.0
220
0.0
230
1.0
 70
     8
 71
     3
 72
    11
 73
     7
 74
     0
 42
0.00000001
 43
0.00000001
 40
0.0
 40
0.0
 40
0.0
 40
0.0
 40
0.2499999999999849
 40
0.499999999999992
 40
0.7499999999999969
 40
1.0
 40
1.0
 40
1.0
 40
1.0
 10
1623.013621122103
 20
1566.955372781184
 30
0.0
 10
1623.099750790076
 20
1566.896167942745
 30
0.0
 10
1623.272010126022
 20
1566.777758265867
 30
0.0
 10
1623.345733439775
 20
1566.547172042774
 30
0.0
 10
1623.272010126022
 20
1566.31658581968
 30
0.0
 10
1623.099750790076
 20
1566.198176142803
 30
0.0
 10
1623.013621122103
 20
1566.138971304364
 30
0.0
  0
SPLINE
  5
132
330
1F
100
AcDbEntity
  8
1
  6
SLD-Сплошная
100
AcDbSpline
210
0.0
220
0.0
230
1.0
 70
     8
 71
     3
 72
    12
 73
     8
 74
     0
 42
0.00000001
 43
0.00000001
 40
0.0
 40
0.0
 40
0.0
 40
0.0
 40
0.0768349934712577
 40
0.1653464171644327
 40
0.3824629150525269
 40
0.6595554638245744
 40
1.0
 40
1.0
 40
1.0
 40
1.0
 10
1621.528696881612
 20
1566.098004928703
 30
0.0
 10
1621.565751887407
 20
1566.12320217586
 30
0.0
 10
1621.645493059621
 20
1566.17742583557
 30
0.0
 10
1621.849563158791
 20
1566.319852614564
 30
0.0
 10
1622.177261373878
 20
1566.529885521733
 30
0.0
 10
1622.636067794359
 20
1566.77466825525
 30
0.0
 10
1622.879447391928
 20
1566.891154567431
 30
0.0
 10
1623.013621122103
 20
1566.955372781184
 30
0.0
  0
SPLINE
  5
133
330
1F
100
AcDbEntity
  8
1
  6
SLD-Сплошная
100
AcDbSpline
210
0.0
220
0.0
230
1.0
 70
     8
 71
     3
 72
    11
 73
     7
 74
     0
 42
0.00000001
 43
0.00000001
 40
0.0
 40
0.0
 40
0.0
 40
0.0
 40
0.2499999999997032
 40
0.4999999999998888
 40
0.7499999999999258
 40
1.0
 40
1.0
 40
1.0
 40
1.0
 10
1622.306514340916
 20
1566.547168725272
 30
0.0
 10
1622.310615753677
 20
1566.547589688568
 30
0.0
 10
1622.318818579198
 20
1566.548431615161
 30
0.0
 10
1622.322329213187
 20
1566.547172042774
 30
0.0
 10
1622.318818579198
 20
1566.545912470387
 30
0.0
 10
1622.310615753677
 20
1566.546754396979
 30
0.0
 10
1622.306514340916
 20
1566.547175360275
 30
0.0
  0
LINE
  5
134
330
1F
100
AcDbEntity
  8
1
  6
SLD-Сплошная
100
AcDbLine
 10
1622.3065143409
 20
1566.5471687253
 30
0.0
 11
1623.0136211221
 21
1566.9553727812
 31
0.0
  0
SPLINE
  5
135
330
1F
100
AcDbEntity
  8
1
  6
SLD-Сплошная
100
AcDbSpline
210
0.0
220
0.0
230
1.0
 70
     8
 71
     3
 72
    11
 73
     7
 74
     0
 42
0.00000001
 43
0.00000001
 40
0.0
 40
0.0
 40
0.0
 40
0.0
 40
0.2499999999999989
 40
0.4999999999999986
 40
0.7499999999999878
 40
1.0
 40
1.0
 40
1.0
 40
1.0
 10
1622.106514340812
 20
1567.710126332781
 30
0.0
 10
1622.200858103932
 20
1567.755103941128
 30
0.0
 10
1622.389545630172
 20
1567.845059157822
 30
0.0
 10
1622.626123890241
 20
1567.793572340462
 30
0.0
 10
1622.788978836556
 20
1567.614392998353
 30
0.0
 10
1622.805407026851
 20
1567.405986293987
 30
0.0
 10
1622.813621121998
 20
1567.301782941803
 30
0.0
  0
LINE
  5
136
330
1F
100
AcDbEntity
  8
1
  6
SLD-Сплошная
100
AcDbLine
 10
1622.1065143408
 20
1566.8935788859
 30
0.0
 11
1622.813621122
 21
1567.3017829418
 31
0.0
  0
SPLINE
  5
137
330
1F
100
AcDbEntity
  8
1
  6
SLD-Сплошная
100
AcDbSpline
210
0.0
220
0.0
230
1.0
 70
     8
 71
     3
 72
    11
 73
     7
 74
     0
 42
0.00000001
 43
0.00000001
 40
0.0
 40
0.0
 40
0.0
 40
0.0
 40
0.2500000000000513
 40
0.4999999999999903
 40
0.7500000000001216
 40
1.0
 40
1.0
 40
1.0
 40
1.0
 10
1622.106514340812
 20
1566.893585520895
 30
0.0
 10
1622.10820092167
 20
1566.897347169134
 30
0.0
 10
1622.111574083386
 20
1566.904870465611
 30
0.0
 10
1622.114421776947
 20
1566.907278284497
 30
0.0
 10
1622.113758836519
 20
1566.903605506967
 30
0.0
 10
1622.108929172714
 20
1566.896921092917
 30
0.0
 10
1622.106514340812
 20
1566.893578885892
 30
0.0
  0
SPLINE
  5
138
330
1F
100
AcDbEntity
  8
1
  6
SLD-Сплошная
100
AcDbSpline
210
0.0
220
0.0
230
1.0
 70
     8
 71
     3
 72
    13
 73
     9
 74
     0
 42
0.00000001
 43
0.00000001
 40
0.0
 40
0.0
 40
0.0
 40
0.0
 40
0.3220863390343474
 40
0.4996033953880986
 40
0.6100900277280322
 40
0.7293891021263148
 40
0.858977392593792
 40
1.0
 40
1.0
 40
1.0
 40
1.0
 10
1622.813621121998
 20
1567.301782941803
 30
0.0
 10
1622.695013853762
 20
1567.228411676899
 30
0.0
 10
1622.511036495062
 20
1567.114602028281
 30
0.0
 10
1622.199462662933
 20
1566.951546000302
 30
0.0
 10
1621.983623089913
 20
1566.810362309443
 30
0.0
 10
1621.784785180564
 20
1566.678971474295
 30
0.0
 10
1621.56192434399
 20
1566.543546632483
 30
0.0
 10
1621.408598892557
 20
1566.478376825958
 30
0.0
 10
1621.328696881541
 20
1566.444415089337
 30
0.0
  0
SPLINE
  5
139
330
1F
100
AcDbEntity
  8
1
  6
SLD-Сплошная
100
AcDbSpline
210
0.0
220
0.0
230
1.0
 70
     8
 71
     3
 72
     9
 73
     5
 74
     0
 42
0.00000001
 43
0.00000001
 40
0.0
 40
0.0
 40
0.0
 40
0.0
 40
0.4999489266172458
 40
1.0
 40
1.0
 40
1.0
 40
1.0
 10
1274.445497876442
 20
1768.76557513212
 30
0.0
 10
1274.365881473049
 20
1768.794999390624
 30
0.0
 10
1274.206632399485
 20
1768.853853919433
 30
0.0
 10
1274.004131838767
 20
1768.767161466336
 30
0.0
 10
1273.902871216019
 20
1768.723810812111
 30
0.0
  0
ELLIPSE
  5
13A
330
1F
100
AcDbEntity
  8
1
  6
SLD-Сплошная
100
AcDbEllipse
 10
1264.1215743308
 20
1759.7155494148
 30
0.0
 11
2.346496907418896
 21
-1.886933551486663
 31
0.0
210
0.0
220
0.0
230
1.0
 40
0.7078398481
 41
2.873665660640238
 42
4.444461987435168
  0
ELLIPSE
  5
13B
330
1F
100
AcDbEntity
  8
1
  6
SLD-Сплошная
100
AcDbEllipse
 10
1264.1215743309
 20
1194.9959239146
 30
0.0
 11
2.691140751009016
 21
0.8754882017485672
 31
0.0
210
0.0
220
0.0
230
1.0
 40
0.2496252376
 41
3.060561804102755
 42
3.845959967500174
  0
LINE
  5
13C
330
1F
100
AcDbEntity
  8
1
  6
SLD-Сплошная
100
AcDbLine
 10
1263.1003301135
 20
1762.4874663411
 30
0.0
 11
1262.2123860216
 21
1761.9748671278
 31
0.0
  0
ELLIPSE
  5
13D
330
1F
100
AcDbEntity
  8
1
  6
SLD-Сплошная
100
AcDbEllipse
 10
1264.1215743309
 20
1194.9959239146
 30
0.0
 11
2.103726216603491
 21
1.8929101695187
 31
0.0
210
0.0
220
0.0
230
1.0
 40
0.2497537726
 41
2.437191768022256
 42
3.222671195488919
  0
ELLIPSE
  5
13E
330
1F
100
AcDbEntity
  8
1
  6
SLD-Сплошная
100
AcDbEllipse
 10
1610.3210543998
 20
995.1392181404
 30
0.0
 11
-0.4612130826794783
 21
2.975579473084736
 31
0.0
210
0.0
220
0.0
230
1.0
 40
0.7078581484
 41
1.838576555310766
 42
3.409372882105426
  0
LINE
  5
13F
330
1F
100
AcDbEntity
  8
1
  6
SLD-Сплошная
100
AcDbLine
 10
1611.3231359278
 20
992.3560685957
 30
0.0
 11
1612.2303164182
 21
992.8797727455
 31
0.0
  0
LWPOLYLINE
  5
140
330
1F
100
AcDbEntity
  8
1
  6
SLD-Сплошная
100
AcDbPolyline
 90
       21
 70
   128
 43
0.0
 10
1298.4869638965
 20
1465.9278809001
 10
1300.0749545592
 20
1464.8631175568
 10
1301.6218170977
 20
1463.5298593312
 10
1303.0874885851
 20
1461.9626369109
 10
1304.4340088996
 20
1460.2020405334
 10
1305.6265038723
 20
1458.2936687201
 10
1306.6340885099
 20
1456.2869472986
 10
1307.4306668994
 20
1454.2338492995
 10
1307.9956080791
 20
1452.1875488826
 10
1308.3142803692
 20
1450.2010441538
 10
1308.3784303246
 20
1448.3257845422
 10
1308.1863964954
 20
1446.6103382866
 10
1307.7431524566
 20
1445.0991345441
 10
1307.0601779963
 20
1443.8313126976
 10
1306.155161794
 20
1442.8397086671
 10
1305.0515432941
 20
1442.1500044762
 10
1303.7779056361
 20
1441.780063101
 10
1302.3672353662
 20
1441.7394658289
 10
1300.8560681034
 20
1442.0292641079
 10
1299.2835422861
 20
1442.6419523147
 10
1298.4853549502
 20
1443.0656671432
  0
LWPOLYLINE
  5
141
330
1F
100
AcDbEntity
  8
1
  6
SLD-Сплошная
100
AcDbPolyline
 90
       11
 70
   128
 43
0.0
 10
1288.5874689599
 20
1460.2111663164
 10
1288.6596474239
 20
1461.5474222387
 10
1288.9783197139
 20
1463.165995773
 10
1289.5432608936
 20
1464.5600289877
 10
1290.3398392832
 20
1465.6934171548
 10
1291.3474239208
 20
1466.536806116
 10
1292.5399188935
 20
1467.0683525403
 10
1293.886439208
 20
1467.2742896546
 10
1295.3521106953
 20
1467.1492837957
 10
1296.8989732339
 20
1466.6965725497
 10
1298.4869638965
 20
1465.9278809001
  0
LWPOLYLINE
  5
142
330
1F
100
AcDbEntity
  8
1
  6
SLD-Сплошная
100
AcDbPolyline
 90
       36
 70
   128
 43
0.0
 10
1296.365643553
 20
1462.2536462967
 10
1297.7544902555
 20
1461.3075385468
 10
1299.0986982823
 20
1460.1031522495
 10
1300.3550636813
 20
1458.6791973713
 10
1301.4832058349
 20
1457.0814409936
 10
1302.4468653259
 20
1455.3612363211
 10
1303.2150693456
 20
1453.5738721472
 10
1303.7631271846
 20
1451.7767958273
 10
1304.0734238129
 20
1450.0277668728
 10
1304.1359860418
 20
1448.3830005135
 10
1303.9488030696
 20
1446.8953608934
 10
1303.517891111
 20
1445.612661974
 10
1302.8571000311
 20
1444.5761307541
 10
1301.9876681988
 20
1443.8190821997
 10
1300.9375398685
 20
1443.3658484745
 10
1299.7404670289
 20
1443.2309968831
 10
1298.434924586
 20
1443.4188616668
 10
1297.062873748
 20
1443.9234046968
 10
1295.6684133579
 20
1444.728409545
 10
1294.29636252
 20
1445.8080026932
 10
1292.990820077
 20
1447.1274851294
 10
1291.7937472374
 20
1448.6444476023
 10
1290.7436189072
 20
1450.3101336899
 10
1289.8741870748
 20
1452.0710068708
 10
1289.2133959949
 20
1453.8704712322
 10
1288.7824840364
 20
1455.6506905088
 10
1288.5953010642
 20
1457.3544469884
 10
1288.657863293
 20
1458.9269805359
 10
1288.9681599214
 20
1460.317748629
 10
1289.5162177603
 20
1461.4820508371
 10
1290.28442178
 20
1462.3824655291
 10
1291.2480812711
 20
1462.9900526359
 10
1292.3762234247
 20
1463.2852838081
 10
1293.6325888237
 20
1463.2586700729
 10
1294.9767968504
 20
1462.9110668175
 10
1296.365643553
 20
1462.2536462967
  0
LWPOLYLINE
  5
143
330
1F
100
AcDbEntity
  8
1
  6
SLD-Сплошная
100
AcDbPolyline
 90
       16
 70
   128
 43
0.0
 10
1299.1940706777
 20
1466.336084956
 10
1300.7820613403
 20
1465.2713216127
 10
1302.3289238789
 20
1463.9380633871
 10
1303.7945953663
 20
1462.3708409668
 10
1305.1411156807
 20
1460.6102445893
 10
1306.3336106535
 20
1458.701872776
 10
1307.341195291
 20
1456.6951513545
 10
1308.1377736806
 20
1454.6420533554
 10
1308.7027148603
 20
1452.5957529385
 10
1309.0213871504
 20
1450.6092482097
 10
1309.0855371058
 20
1448.7339885981
 10
1308.8935032765
 20
1447.0185423426
 10
1308.4502592378
 20
1445.5073386
 10
1307.7672847775
 20
1444.2395167535
 10
1306.8622685752
 20
1443.2479127231
 10
1306.1935018062
 20
1442.7798295162
  0
ARC
  5
144
330
1F
100
AcDbEntity
  8
1
  6
SLD-Сплошная
100
AcDbCircle
 10
1295.0841767625
 20
1460.5207266586
 30
0.0
 40
7.121068748507525
100
AcDbArc
 50
54.7499671021
 51
113.9395744688
  0
LWPOLYLINE
  5
145
330
1F
100
AcDbEntity
  8
1
  6
SLD-Сплошная
100
AcDbPolyline
 90
       30
 70
   128
 43
0.0
 10
1296.365643553
 20
1459.804023861
 10
1297.5817000012
 20
1458.9492872529
 10
1298.7408950014
 20
1457.8290728518
 10
1299.7890258839
 20
1456.4957606382
 10
1300.6770832133
 20
1455.0116948093
 10
1301.3635424161
 20
1453.4462686337
 10
1301.8163054227
 20
1451.8726796997
 10
1302.0142015384
 20
1450.3645072769
 10
1301.9479773605
 20
1448.9922718316
 10
1301.6207294581
 20
1447.820137568
 10
1301.0477595794
 20
1446.9029121815
 10
1300.2558591592
 20
1446.2834841119
 10
1299.2820565808
 20
1445.9908171272
 10
1298.1718857706
 20
1446.0385960104
 10
1296.9772570818
 20
1446.4245866739
 10
1295.7540300241
 20
1447.1307406234
 10
1294.5594013353
 20
1448.1240388849
 10
1293.4492305251
 20
1449.3580359359
 10
1292.4754279468
 20
1450.7750314455
 10
1291.6835275265
 20
1452.3087682788
 10
1291.1105576478
 20
1453.887530606
 10
1290.7833097454
 20
1455.4374972553
 10
1290.7170855676
 20
1456.8861935089
 10
1290.9149816832
 20
1458.1658799401
 10
1291.3677446899
 20
1459.2167198336
 10
1292.0542038926
 20
1459.9895770839
 10
1292.9422612221
 20
1460.448313745
 10
1293.9903921045
 20
1460.5714798005
 10
1295.1495871047
 20
1460.3533161424
 10
1296.365643553
 20
1459.804023861
  0
LWPOLYLINE
  5
146
330
1F
100
AcDbEntity
  8
1
  6
SLD-Сплошная
100
AcDbPolyline
 90
       12
 70
   128
 43
0.0
 10
1301.7895984529
 20
1448.2854343126
 10
1300.7956337002
 20
1448.6288885758
 10
1299.5724066425
 20
1449.3350425253
 10
1298.3777779538
 20
1450.3283407869
 10
1297.2676071436
 20
1451.5623378378
 10
1296.2938045652
 20
1452.9793333475
 10
1295.5019041449
 20
1454.5130701807
 10
1294.9289342662
 20
1456.0918325079
 10
1294.6016863638
 20
1457.6417991572
 10
1294.535462186
 20
1459.0904954108
 10
1294.7333583016
 20
1460.370181842
 10
1294.7600652714
 20
1460.4622623212
  0
LINE
  5
147
330
1F
100
AcDbEntity
  8
1
  6
SLD-Сплошная
100
AcDbLine
 10
1297.1621974385
 20
1457.927605486
 30
0.0
 11
1298.5366512032
 21
1458.0505023642
 31
0.0
  0
LINE
  5
148
330
1F
100
AcDbEntity
  8
1
  6
SLD-Сплошная
100
AcDbLine
 10
1297.1621974385
 20
1457.927605486
 30
0.0
 11
1297.0157914628
 21
1457.8824072341
 31
0.0
  0
LWPOLYLINE
  5
149
330
1F
100
AcDbEntity
  8
1
  6
SLD-Сплошная
100
AcDbPolyline
 90
        9
 70
   128
 43
0.0
 10
1299.4675451771
 20
1450.5546730366
 10
1299.6380858658
 20
1450.3746492205
 10
1299.8210985677
 20
1450.2411752831
 10
1300.0041112695
 20
1450.1633472526
 10
1300.1746519582
 20
1450.1464689807
 10
1300.3210985677
 20
1450.1916906937
 10
1300.4334710034
 20
1450.2959306067
 10
1300.5041112695
 20
1450.4520849417
 10
1300.5282053488
 20
1450.6495120391
  0
LINE
  5
14A
330
1F
100
AcDbEntity
  8
1
  6
SLD-Сплошная
100
AcDbLine
 10
1295.4651411637
 20
1455.5336255791
 30
0.0
 11
1299.4675451771
 21
1450.5546730366
 31
0.0
  0
LWPOLYLINE
  5
14B
330
1F
100
AcDbEntity
  8
1
  6
SLD-Сплошная
100
AcDbPolyline
 90
        9
 70
   128
 43
0.0
 10
1295.4651411637
 20
1456.9479157518
 10
1295.3186945543
 20
1456.9026940387
 10
1295.2063221186
 20
1456.7984541258
 10
1295.1356818524
 20
1456.6422997907
 10
1295.1115877731
 20
1456.4448726934
 10
1295.1356818524
 20
1456.2196271643
 10
1295.2063221186
 20
1455.9819133139
 10
1295.3186945543
 20
1455.7479309483
 10
1295.4651411637
 20
1455.5336255791
  0
LINE
  5
14C
330
1F
100
AcDbEntity
  8
1
  6
SLD-Сплошная
100
AcDbLine
 10
1299.205083462
 20
1457.2823229505
 30
0.0
 11
1295.4651411637
 21
1456.9479157518
 31
0.0
  0
LINE
  5
14D
330
1F
100
AcDbEntity
  8
1
  6
SLD-Сплошная
100
AcDbLine
 10
1300.5282053488
 20
1450.6495120391
 30
0.0
 11
1300.5282053488
 21
1455.2920742204
 31
0.0
  0
ARC
  5
14E
330
1F
100
AcDbEntity
  8
1
  6
SLD-Сплошная
100
AcDbCircle
 10
1623.7546570388
 20
1096.4053174853
 30
0.0
 40
2.603316187506474
100
AcDbArc
 50
37.9787348638
 51
58.8941006488
  0
ARC
  5
14F
330
1F
100
AcDbEntity
  8
1
  6
SLD-Сплошная
100
AcDbCircle
 10
1624.8575810486
 20
1096.8615096529
 30
0.0
 40
3.073609615145036
100
AcDbArc
 50
2.6054784857
 51
57.39452166
  0
SPLINE
  5
150
330
1F
100
AcDbEntity
  8
1
  6
SLD-Сплошная
100
AcDbSpline
210
0.0
220
0.0
230
1.0
 70
     8
 71
     3
 72
    12
 73
     8
 74
     0
 42
0.00000001
 43
0.00000001
 40
0.0
 40
0.0
 40
0.0
 40
0.0
 40
0.0038128522418986
 40
0.1589839410707333
 40
0.5234324970000654
 40
0.7821768889117955
 40
1.0
 40
1.0
 40
1.0
 40
1.0
 10
1627.220906470164
 20
1096.593027301528
 30
0.0
 10
1627.219687232049
 20
1096.594313582446
 30
0.0
 10
1627.168848839091
 20
1096.647947449371
 30
0.0
 10
1626.983190111024
 20
1096.834946374978
 30
0.0
 10
1626.62946647696
 20
1097.1665902761
 30
0.0
 10
1626.168462636681
 20
1097.596591040673
 30
0.0
 10
1625.920176307834
 20
1097.878476865244
 30
0.0
 10
1625.806692907791
 20
1098.007317474167
 30
0.0
  0
SPLINE
  5
151
330
1F
100
AcDbEntity
  8
1
  6
SLD-Сплошная
100
AcDbSpline
210
0.0
220
0.0
230
1.0
 70
     8
 71
     3
 72
    12
 73
     8
 74
     0
 42
0.00000001
 43
0.00000001
 40
0.0
 40
0.0
 40
0.0
 40
0.0
 40
0.2178231110882048
 40
0.4765675029999342
 40
0.8410160589292527
 40
0.9961871477581015
 40
1.0
 40
1.0
 40
1.0
 40
1.0
 10
1625.806692907787
 20
1049.452451663288
 30
0.0
 10
1625.92017630783
 20
1049.481867335651
 30
0.0
 10
1626.168462636677
 20
1049.546224847842
 30
0.0
 10
1626.629466476957
 20
1049.92425113428
 30
0.0
 10
1626.98319011102
 20
1050.392839518688
 30
0.0
 10
1627.168848839089
 20
1050.751923625212
 30
0.0
 10
1627.219687232046
 20
1050.864052686693
 30
0.0
 10
1627.220906470161
 20
1050.866741835928
 30
0.0
  0
LWPOLYLINE
  5
152
330
1F
100
AcDbEntity
  8
1
  6
SLD-Сплошная
100
AcDbPolyline
 90
        9
 70
   128
 43
0.0
 10
1623.3211590019
 20
1078.4702458614
 10
1623.6837234042
 20
1077.96409843
 10
1624.3080557397
 20
1076.8317237282
 10
1624.7288778871
 20
1075.6509475705
 10
1624.914979393
 20
1074.5093427227
 10
1624.85255796
 20
1073.4915767939
 10
1624.5462431002
 20
1072.6731328271
 10
1624.0187527855
 20
1072.1147110671
 10
1623.3211590019
 20
1071.8592596397
  0
ARC
  5
153
330
1F
100
AcDbEntity
  8
1
  6
SLD-Сплошная
100
AcDbCircle
 10
1625.7562090269
 20
1050.6785636908
 30
0.0
 40
1.227150897871583
100
AcDbArc
 50
237.6507184098
 51
272.3577620583
  0
LINE
  5
154
330
1F
100
AcDbEntity
  8
1
  6
SLD-Сплошная
100
AcDbLine
 10
1623.3211590019
 20
1050.668528394
 30
0.0
 11
1625.0995861266
 21
1049.6418642681
 31
0.0
  0
LINE
  5
155
330
1F
100
AcDbEntity
  8
1
  6
SLD-Сплошная
100
AcDbLine
 10
1623.3211590019
 20
1099.6609771071
 30
0.0
 11
1625.0995861266
 21
1098.6343129812
 31
0.0
  0
LINE
  5
156
330
1F
100
AcDbEntity
  8
1
  6
SLD-Сплошная
100
AcDbLine
 10
1623.3211590019
 20
1101.2937933308
 30
0.0
 11
1626.513799689
 21
1099.450721093
 31
0.0
  0
LINE
  5
157
330
1F
100
AcDbEntity
  8
1
  6
SLD-Сплошная
100
AcDbLine
 10
1627.9280132513
 20
1051.2749458918
 30
0.0
 11
1627.9280132514
 21
1097.0012313574
 31
0.0
  0
ARC
  5
158
330
1F
100
AcDbEntity
  8
1
  6
SLD-Сплошная
100
AcDbCircle
 10
1626.9766421393
 20
1051.1538178348
 30
0.0
 40
0.9590510930664503
100
AcDbArc
 50
304.0563508403
 51
7.2558295531
  0
LWPOLYLINE
  5
159
330
1F
100
AcDbEntity
  8
1
  6
SLD-Сплошная
100
AcDbPolyline
 90
        9
 70
   128
 43
0.0
 10
1623.2805639859
 20
1496.5989210635
 10
1623.8640522207
 20
1496.7966142391
 10
1624.4188709407
 20
1497.3321780766
 10
1624.7424092263
 20
1498.1470907639
 10
1624.8084559298
 20
1499.1753329215
 10
1624.6116603399
 20
1500.3336024851
 10
1624.167965665
 20
1501.5280633429
 10
1623.513317409
 20
1502.6619473802
 10
1623.3211590019
 20
1502.9268582575
  0
LWPOLYLINE
  5
15A
330
1F
100
AcDbEntity
  8
1
  6
SLD-Сплошная
100
AcDbPolyline
 90
        8
 70
   128
 43
0.0
 10
1624.1468949331
 20
1496.9598958615
 10
1624.7017136532
 20
1497.495459699
 10
1625.0252519388
 20
1498.3103723863
 10
1625.0912986422
 20
1499.3386145439
 10
1624.8945030524
 20
1500.4968841074
 10
1624.4508083775
 20
1501.6913449653
 10
1623.7961601214
 20
1502.8252290025
 10
1623.3211590019
 20
1503.4406632778
  0
LWPOLYLINE
  5
15B
330
1F
100
AcDbEntity
  8
1
  6
SLD-Сплошная
100
AcDbPolyline
 90
        8
 70
   128
 43
0.0
 10
1623.3211590019
 20
1071.8986293415
 10
1623.5104988301
 20
1071.9912900305
 10
1624.0653175501
 20
1072.5268538681
 10
1624.3888558357
 20
1073.3417665553
 10
1624.4549025392
 20
1074.370008713
 10
1624.2581069493
 20
1075.5282782765
 10
1623.8144122744
 20
1076.7227391343
 10
1623.3618487925
 20
1077.5502297065
  0
LWPOLYLINE
  5
15C
330
1F
100
AcDbEntity
  8
1
  6
SLD-Сплошная
100
AcDbPolyline
 90
        8
 70
   128
 43
0.0
 10
1623.7933415426
 20
1072.1545716529
 10
1624.3481602626
 20
1072.6901354904
 10
1624.6716985482
 20
1073.5050481777
 10
1624.7377452516
 20
1074.5332903353
 10
1624.5409496618
 20
1075.6915598988
 10
1624.0972549869
 20
1076.8860207567
 10
1623.4426067308
 20
1078.0199047939
 10
1623.3211590019
 20
1078.1900649296
  0
ARC
  5
15D
330
1F
100
AcDbEntity
  8
1
  6
SLD-Сплошная
100
AcDbCircle
 10
1624.1082104294
 20
1521.2106416939
 30
0.0
 40
2.603316187503531
100
AcDbArc
 50
37.9787348638
 51
58.8941006488
  0
ARC
  5
15E
330
1F
100
AcDbEntity
  8
1
  6
SLD-Сплошная
100
AcDbCircle
 10
1624.8575810486
 20
1521.4627318336
 30
0.0
 40
3.073609615145712
100
AcDbArc
 50
2.6054784857
 51
57.39452166
  0
SPLINE
  5
15F
330
1F
100
AcDbEntity
  8
1
  6
SLD-Сплошная
100
AcDbSpline
210
0.0
220
0.0
230
1.0
 70
     8
 71
     3
 72
    12
 73
     8
 74
     0
 42
0.00000001
 43
0.00000001
 40
0.0
 40
0.0
 40
0.0
 40
0.0
 40
0.0038128522418986
 40
0.1589839410707286
 40
0.5234324970000672
 40
0.7821768889117803
 40
1.0
 40
1.0
 40
1.0
 40
1.0
 10
1627.574459860754
 20
1521.398351510119
 30
0.0
 10
1627.573240622639
 20
1521.399637791038
 30
0.0
 10
1627.522402229682
 20
1521.453271657962
 30
0.0
 10
1627.336743501613
 20
1521.640270583571
 30
0.0
 10
1626.98301986755
 20
1521.971914484691
 30
0.0
 10
1626.522016027271
 20
1522.401915249265
 30
0.0
 10
1626.273729698423
 20
1522.683801073835
 30
0.0
 10
1626.160246298381
 20
1522.812641682759
 30
0.0
  0
SPLINE
  5
160
330
1F
100
AcDbEntity
  8
1
  6
SLD-Сплошная
100
AcDbSpline
210
0.0
220
0.0
230
1.0
 70
     8
 71
     3
 72
    12
 73
     8
 74
     0
 42
0.00000001
 43
0.00000001
 40
0.0
 40
0.0
 40
0.0
 40
0.0
 40
0.2178231110882009
 40
0.4765675029999264
 40
0.8410160589292643
 40
0.9961871477581015
 40
1.0
 40
1.0
 40
1.0
 40
1.0
 10
1626.160246298384
 20
1474.257775871876
 30
0.0
 10
1626.273729698427
 20
1474.287191544239
 30
0.0
 10
1626.522016027274
 20
1474.35154905643
 30
0.0
 10
1626.983019867553
 20
1474.729575342867
 30
0.0
 10
1627.336743501617
 20
1475.198163727277
 30
0.0
 10
1627.522402229685
 20
1475.557247833799
 30
0.0
 10
1627.573240622643
 20
1475.669376895281
 30
0.0
 10
1627.574459860757
 20
1475.672066044515
 30
0.0
  0
ARC
  5
161
330
1F
100
AcDbEntity
  8
1
  6
SLD-Сплошная
100
AcDbCircle
 10
1626.1097624174
 20
1475.4838878993
 30
0.0
 40
1.227150897870257
100
AcDbArc
 50
237.6507184098
 51
272.3577620583
  0
LINE
  5
162
330
1F
100
AcDbEntity
  8
1
  6
SLD-Сплошная
100
AcDbLine
 10
1623.3211590019
 20
1475.6779546306
 30
0.0
 11
1625.4531395172
 21
1474.4471884767
 31
0.0
  0
LINE
  5
163
330
1F
100
AcDbEntity
  8
1
  6
SLD-Сплошная
100
AcDbLine
 10
1623.3211590019
 20
1524.6704033437
 30
0.0
 11
1625.4531395172
 21
1523.4396371898
 31
0.0
  0
LINE
  5
164
330
1F
100
AcDbEntity
  8
1
  6
SLD-Сплошная
100
AcDbLine
 10
1623.3211590019
 20
1525.8950155114
 30
0.0
 11
1626.513799689
 21
1524.0519432737
 31
0.0
  0
LINE
  5
165
330
1F
100
AcDbEntity
  8
1
  6
SLD-Сплошная
100
AcDbLine
 10
1627.9280132514
 20
1475.8761680725
 30
0.0
 11
1627.9280132513
 21
1521.6024535381
 31
0.0
  0
ARC
  5
166
330
1F
100
AcDbEntity
  8
1
  6
SLD-Сплошная
100
AcDbCircle
 10
1626.9766421394
 20
1475.7550400153
 30
0.0
 40
0.959051092929438
100
AcDbArc
 50
304.0563508352
 51
7.2558295582
  0
LINE
  5
167
330
1F
100
AcDbEntity
  8
1
  6
SLD-Сплошная
100
AcDbLine
 10
1568.1647581062
 20
1047.7396675823
 30
0.0
 11
1568.2482024015
 21
1047.6799626428
 31
0.0
  0
ARC
  5
168
330
1F
100
AcDbEntity
  8
1
  6
SLD-Сплошная
100
AcDbCircle
 10
1568.665065837
 20
1048.3265242324
 30
0.0
 40
0.7711734910187608
100
AcDbArc
 50
182.5358551192
 51
229.5517049023
  0
ARC
  5
169
330
1F
100
AcDbEntity
  8
1
  6
SLD-Сплошная
100
AcDbCircle
 10
1693.6645864053
 20
1068.8388621791
 30
0.0
 40
0.7315979105454803
100
AcDbArc
 50
301.100527308
 51
358.9048454892
  0
LINE
  5
16A
330
1F
100
AcDbEntity
  8
0
  6
SLD-Сплошная
 62
     8
370
    18
100
AcDbLine
 10
1632.1706539385
 20
1569.7784941394
 30
0.0
 11
1632.1706539385
 21
1001.4660890669
 31
0.0
  0
LINE
  5
16B
330
1F
100
AcDbEntity
  8
0
  6
SLD-Сплошная
 62
     8
370
    18
100
AcDbLine
 10
1629.3422268137
 20
1001.5238272213
 30
0.0
 11
1629.3422268137
 21
1569.720755985
 31
0.0
  0
LINE
  5
16C
330
1F
100
AcDbEntity
  8
0
  6
SLD-Сплошная
 62
     8
370
    18
100
AcDbLine
 10
1280.0314769076
 20
1774.697195607
 30
0.0
 11
1630.7564403761
 21
1572.227983875
 31
0.0
  0
LINE
  5
16D
330
1F
100
AcDbEntity
  8
0
  6
SLD-Сплошная
 62
     8
370
    18
100
AcDbLine
 10
1629.2922268139
 20
1569.8073585249
 30
0.0
 11
1278.6672633452
 21
1772.2188414858
 31
0.0
  0
LINE
  5
16E
330
1F
100
AcDbEntity
  8
0
  6
SLD-Сплошная
 62
     8
370
    18
100
AcDbLine
 10
1821.3217179059
 20
1682.2389769431
 30
0.0
 11
1630.7564403761
 21
1572.227983875
 31
0.0
  0
LINE
  5
16F
330
1F
100
AcDbEntity
  8
0
  6
SLD-Сплошная
 62
     8
370
    18
100
AcDbLine
 10
1822.7359314683
 20
1679.7894872075
 30
0.0
 11
1632.1706539385
 21
1569.7784941394
 31
0.0
  0
LINE
  5
170
330
1F
100
AcDbEntity
  8
0
  6
SLD-Сплошная
 62
     8
370
    18
100
AcDbLine
 10
1822.7359314683
 20
1679.7894872075
 30
0.0
 11
1822.7359314683
 21
1111.477082135
 31
0.0
  0
LINE
  5
171
330
1F
100
AcDbEntity
  8
0
  6
SLD-Сплошная
 62
     8
370
    18
100
AcDbLine
 10
1822.7359314683
 20
1111.477082135
 30
0.0
 11
1632.1706539385
 21
1001.4660890669
 31
0.0
  0
LINE
  5
172
330
1F
100
AcDbEntity
  8
0
  6
SLD-Сплошная
 62
     8
370
    18
100
AcDbLine
 10
1470.5967544374
 20
1884.7081886751
 30
0.0
 11
1280.0314769076
 21
1774.697195607
 31
0.0
  0
LINE
  5
173
330
1F
100
AcDbEntity
  8
0
  6
SLD-Сплошная
 62
     8
370
    18
100
AcDbLine
 10
1470.5967544374
 20
1884.7081886751
 30
0.0
 11
1821.3217179059
 21
1682.2389769431
 31
0.0
  0
LINE
  5
174
330
1F
100
AcDbEntity
  8
0
  6
SLD-Сплошная
 62
     8
370
    18
100
AcDbLine
 10
1616.600308814
 20
1563.253053027
 30
0.0
 11
1616.2004027331
 21
1563.4839138934
 31
0.0
  0
LINE
  5
175
330
1F
100
AcDbEntity
  8
0
  6
SLD-Сплошная
 62
     8
370
    18
100
AcDbLine
 10
1615.1500911901
 20
1562.4572969174
 30
0.0
 11
1614.7860742367
 21
1562.6674394316
 31
0.0
  0
LINE
  5
176
330
1F
100
AcDbEntity
  8
0
  6
SLD-Сплошная
 62
     8
370
    18
100
AcDbLine
 10
1615.1500911901
 20
1562.4158602128
 30
0.0
 11
1615.1500911901
 21
1562.4572969174
 31
0.0
  0
LINE
  5
177
330
1F
100
AcDbEntity
  8
0
  6
SLD-Сплошная
 62
     8
370
    18
100
AcDbLine
 10
1278.6172633452
 20
1772.1899677169
 30
0.0
 11
1278.6172633452
 21
1766.3572850376
 31
0.0
  0
LINE
  5
178
330
1F
100
AcDbEntity
  8
0
  6
SLD-Сплошная
 62
     8
370
    18
100
AcDbLine
 10
1629.2922268139
 20
1001.4949534524
 30
0.0
 11
1623.3211590019
 21
1004.9419775283
 31
0.0
  0
LINE
  5
179
330
1F
100
AcDbEntity
  8
0
  6
SLD-Сплошная
 62
     8
370
    18
100
AcDbLine
 10
1612.230242709
 20
1559.9138594517
 30
0.0
 11
1612.230242709
 21
992.8799004274
 31
0.0
  0
LINE
  5
17A
330
1F
100
AcDbEntity
  8
0
  6
SLD-Сплошная
 62
     8
370
    18
100
AcDbLine
 10
1608.4118660906
 20
1558.7566926896
 30
0.0
 11
1608.4118660906
 21
994.0370671895
 31
0.0
  0
LINE
  5
17B
330
1F
100
AcDbEntity
  8
0
  6
SLD-Сплошная
 62
     8
370
    18
100
AcDbLine
 10
1612.230242709
 20
1559.9138594517
 30
0.0
 11
1611.5231359278
 21
1560.3220635076
 31
0.0
  0
LINE
  5
17C
330
1F
100
AcDbEntity
  8
0
  6
SLD-Сплошная
 62
     8
370
    18
100
AcDbLine
 10
1611.3231359278
 20
1561.4850144801
 30
0.0
 11
1611.3231359278
 21
1560.6684736682
 31
0.0
  0
LINE
  5
17D
330
1F
100
AcDbEntity
  8
0
  6
SLD-Сплошная
 62
     8
370
    18
100
AcDbLine
 10
1262.2123860216
 20
1758.6133984638
 30
0.0
 11
1608.4118660906
 21
1558.7566926896
 31
0.0
  0
LINE
  5
17E
330
1F
100
AcDbEntity
  8
0
  6
SLD-Сплошная
 62
     8
370
    18
100
AcDbLine
 10
1263.1194928029
 20
1762.4986989595
 30
0.0
 11
1611.3231359278
 21
1561.4850144801
 31
0.0
  0
LINE
  5
17F
330
1F
100
AcDbEntity
  8
0
  6
SLD-Сплошная
 62
     8
370
    18
100
AcDbLine
 10
1623.0136211221
 20
1566.1389713044
 30
0.0
 11
1623.0136211222
 21
999.10501228
 31
0.0
  0
LINE
  5
180
330
1F
100
AcDbEntity
  8
0
  6
SLD-Сплошная
 62
     8
370
    18
100
AcDbLine
 10
1273.902871216
 20
1768.7238108121
 30
0.0
 11
1622.1065143408
 21
1567.7101263328
 31
0.0
  0
LINE
  5
181
330
1F
100
AcDbEntity
  8
0
  6
SLD-Сплошная
 62
     8
370
    18
100
AcDbLine
 10
1262.2123860217
 20
1193.8937729637
 30
0.0
 11
1608.4118660906
 21
994.0370671895
 31
0.0
  0
LINE
  5
182
330
1F
100
AcDbEntity
  8
0
  6
SLD-Сплошная
 62
     8
370
    18
100
AcDbLine
 10
1262.2123860216
 20
1758.6133984638
 30
0.0
 11
1262.2123860217
 21
1193.8937729637
 31
0.0
  0
LINE
  5
183
330
1F
100
AcDbEntity
  8
0
  6
SLD-Сплошная
 62
     8
370
    18
100
AcDbLine
 10
1262.2123860216
 20
1761.9748671278
 30
0.0
 11
1262.4480184177
 21
1761.838839441
 31
0.0
  0
LINE
  5
184
330
1F
100
AcDbEntity
  8
0
  6
SLD-Сплошная
 62
     8
370
    18
100
AcDbLine
 10
1611.3231359278
 20
992.3560685957
 30
0.0
 11
1611.3231359278
 21
992.628386008
 31
0.0
  0
LINE
  5
185
330
1F
100
AcDbEntity
  8
0
  6
SLD-Сплошная
 62
     8
370
    18
100
AcDbLine
 10
1300.5282053488
 20
1450.6495120391
 30
0.0
 11
1301.8980895249
 21
1451.4403293409
 31
0.0
  0
LINE
  5
186
330
1F
100
AcDbEntity
  8
0
  6
SLD-Сплошная
 62
     8
370
    18
100
AcDbLine
 10
1297.1621974385
 20
1457.927605486
 30
0.0
 11
1295.4651411637
 21
1456.9479157518
 31
0.0
  0
LINE
  5
187
330
1F
100
AcDbEntity
  8
0
  6
SLD-Сплошная
 62
     8
370
    18
100
AcDbLine
 10
1625.0995861266
 20
1098.6343129812
 30
0.0
 11
1626.513799689
 21
1099.450721093
 31
0.0
  0
LINE
  5
188
330
1F
100
AcDbEntity
  8
0
  6
SLD-Сплошная
 62
     8
370
    18
100
AcDbLine
 10
1627.9280132514
 20
1097.0012313574
 30
0.0
 11
1627.2209064702
 21
1096.5930273015
 31
0.0
  0
LINE
  5
189
330
1F
100
AcDbEntity
  8
0
  6
SLD-Сплошная
 62
     8
370
    18
100
AcDbLine
 10
1625.8066929078
 20
1098.0073174742
 30
0.0
 11
1625.8066929078
 21
1049.4524516633
 31
0.0
  0
LINE
  5
18A
330
1F
100
AcDbEntity
  8
0
  6
SLD-Сплошная
 62
     8
370
    18
100
AcDbLine
 10
1627.2209064702
 20
1096.5930273015
 30
0.0
 11
1627.2209064702
 21
1050.8667418359
 31
0.0
  0
LINE
  5
18B
330
1F
100
AcDbEntity
  8
0
  6
SLD-Сплошная
 62
     8
370
    18
100
AcDbLine
 10
1627.2209064702
 20
1050.8667418359
 30
0.0
 11
1627.9280132513
 21
1051.2749458918
 31
0.0
  0
LINE
  5
18C
330
1F
100
AcDbEntity
  8
0
  6
SLD-Сплошная
 62
     8
370
    18
100
AcDbLine
 10
1625.4531395172
 20
1523.4396371898
 30
0.0
 11
1626.513799689
 21
1524.0519432737
 31
0.0
  0
LINE
  5
18D
330
1F
100
AcDbEntity
  8
0
  6
SLD-Сплошная
 62
     8
370
    18
100
AcDbLine
 10
1627.9280132513
 20
1521.6024535381
 30
0.0
 11
1627.5744598608
 21
1521.3983515101
 31
0.0
  0
LINE
  5
18E
330
1F
100
AcDbEntity
  8
0
  6
SLD-Сплошная
 62
     8
370
    18
100
AcDbLine
 10
1626.1602462984
 20
1522.8126416828
 30
0.0
 11
1626.1602462984
 21
1474.2577758719
 31
0.0
  0
LINE
  5
18F
330
1F
100
AcDbEntity
  8
0
  6
SLD-Сплошная
 62
     8
370
    18
100
AcDbLine
 10
1627.5744598608
 20
1521.3983515101
 30
0.0
 11
1627.5744598608
 21
1475.6720660445
 31
0.0
  0
LINE
  5
190
330
1F
100
AcDbEntity
  8
0
  6
SLD-Сплошная
 62
     8
370
    18
100
AcDbLine
 10
1627.5744598608
 20
1475.6720660445
 30
0.0
 11
1627.9280132514
 21
1475.8761680725
 31
0.0
  0
LINE
  5
191
330
1F
100
AcDbEntity
  8
1
  6
SLD-Сплошная
100
AcDbLine
 10
535.9806098284
 20
1479.1958155776
 30
0.0
 11
1028.4199744032
 21
1479.1958155776
 31
0.0
  0
LINE
  5
192
330
1F
100
AcDbEntity
  8
1
  6
SLD-Сплошная
100
AcDbLine
 10
548.5502921158
 20
1472.0958155776
 30
0.0
 11
548.5502921158
 21
1473.2611916163
 31
0.0
  0
LINE
  5
193
330
1F
100
AcDbEntity
  8
1
  6
SLD-Сплошная
100
AcDbLine
 10
538.4502921158
 20
1473.2611916163
 30
0.0
 11
538.4502921158
 21
1472.0958155776
 31
0.0
  0
ARC
  5
194
330
1F
100
AcDbEntity
  8
1
  6
SLD-Сплошная
100
AcDbCircle
 10
548.3502921158
 20
1473.2611916163
 30
0.0
 40
0.2000000000000455
100
AcDbArc
 50
0.0
 51
68.1849373759
  0
ARC
  5
195
330
1F
100
AcDbEntity
  8
1
  6
SLD-Сплошная
100
AcDbCircle
 10
538.6502921158
 20
1473.2611916163
 30
0.0
 40
0.2000000000001625
100
AcDbArc
 50
111.8150626241
 51
180.0
  0
ARC
  5
196
330
1F
100
AcDbEntity
  8
1
  6
SLD-Сплошная
100
AcDbCircle
 10
543.5002921158
 20
1461.1445655776
 30
0.0
 40
13.25125000000003
100
AcDbArc
 50
68.1849373759
 51
90.0
  0
ARC
  5
197
330
1F
100
AcDbEntity
  8
1
  6
SLD-Сплошная
100
AcDbCircle
 10
543.5002921158
 20
1461.1445655776
 30
0.0
 40
13.25125000000015
100
AcDbArc
 50
90.0
 51
111.8150626241
  0
LWPOLYLINE
  5
198
330
1F
100
AcDbEntity
  8
1
  6
SLD-Сплошная
100
AcDbPolyline
 90
        3
 70
   128
 43
0.0
 10
1028.6002921158
 20
1489.0557835268
 10
1028.6198781792
 20
1489.1062336932
 10
1028.7002921158
 20
1489.3536341083
  0
LWPOLYLINE
  5
199
330
1F
100
AcDbEntity
  8
1
  6
SLD-Сплошная
100
AcDbPolyline
 90
        3
 70
   128
 43
0.0
 10
1028.7002921158
 20
1490.8379970469
 10
1028.6198781792
 20
1491.0853974619
 10
1028.6002921158
 20
1491.1358476284
  0
LINE
  5
19A
330
1F
100
AcDbEntity
  8
1
  6
SLD-Сплошная
100
AcDbLine
 10
603.7002921157
 20
1498.1958155776
 30
0.0
 11
603.7002921157
 21
1499.1958155776
 31
0.0
  0
LINE
  5
19B
330
1F
100
AcDbEntity
  8
1
  6
SLD-Сплошная
100
AcDbLine
 10
575.7002921157
 20
1499.1958155776
 30
0.0
 11
575.7002921157
 21
1498.1958155776
 31
0.0
  0
LINE
  5
19C
330
1F
100
AcDbEntity
  8
1
  6
SLD-Сплошная
100
AcDbLine
 10
603.7002921157
 20
1499.1958155776
 30
0.0
 11
600.7002921157
 21
1502.1958155776
 31
0.0
  0
LINE
  5
19D
330
1F
100
AcDbEntity
  8
1
  6
SLD-Сплошная
100
AcDbLine
 10
578.7002921157
 20
1502.1958155776
 30
0.0
 11
575.7002921157
 21
1499.1958155776
 31
0.0
  0
LINE
  5
19E
330
1F
100
AcDbEntity
  8
1
  6
SLD-Сплошная
100
AcDbLine
 10
1016.9002921158
 20
1474.5958155776
 30
0.0
 11
1016.9002921158
 21
1474.1958155776
 31
0.0
  0
LINE
  5
19F
330
1F
100
AcDbEntity
  8
1
  6
SLD-Сплошная
100
AcDbLine
 10
1026.1002921158
 20
1474.1958155776
 30
0.0
 11
1026.1002921158
 21
1474.5958155776
 31
0.0
  0
LINE
  5
1A0
330
1F
100
AcDbEntity
  8
1
  6
SLD-Сплошная
100
AcDbLine
 10
1016.9002921158
 20
1474.1958155776
 30
0.0
 11
1017.0002921158
 21
1474.0958155776
 31
0.0
  0
LINE
  5
1A1
330
1F
100
AcDbEntity
  8
1
  6
SLD-Сплошная
100
AcDbLine
 10
1026.0002921158
 20
1474.0958155776
 30
0.0
 11
1026.1002921158
 21
1474.1958155776
 31
0.0
  0
LINE
  5
1A2
330
1F
100
AcDbEntity
  8
1
  6
SLD-Сплошная
100
AcDbLine
 10
533.6002921158
 20
1436.0958155776
 30
0.0
 11
533.5002921158
 21
1436.0958155776
 31
0.0
  0
LINE
  5
1A3
330
1F
100
AcDbEntity
  8
1
  6
SLD-Сплошная
100
AcDbLine
 10
533.5002921158
 20
1428.0958155776
 30
0.0
 11
533.6002921158
 21
1428.0958155776
 31
0.0
  0
LINE
  5
1A4
330
1F
100
AcDbEntity
  8
1
  6
SLD-Сплошная
100
AcDbLine
 10
533.5002921158
 20
1378.5458155776
 30
0.0
 11
533.6002921158
 21
1378.5458155776
 31
0.0
  0
LINE
  5
1A5
330
1F
100
AcDbEntity
  8
1
  6
SLD-Сплошная
100
AcDbLine
 10
533.6002921158
 20
1385.6458155776
 30
0.0
 11
533.5002921158
 21
1385.6458155776
 31
0.0
  0
LINE
  5
1A6
330
1F
100
AcDbEntity
  8
1
  6
SLD-Сплошная
100
AcDbLine
 10
534.5002921158
 20
1200.5958155776
 30
0.0
 11
533.6002921158
 21
1200.5958155776
 31
0.0
  0
LINE
  5
1A7
330
1F
100
AcDbEntity
  8
1
  6
SLD-Сплошная
100
AcDbLine
 10
533.6002921158
 20
1200.5958155776
 30
0.0
 11
533.6002921158
 21
1470.0958155776
 31
0.0
  0
LINE
  5
1A8
330
1F
100
AcDbEntity
  8
1
  6
SLD-Сплошная
100
AcDbLine
 10
533.6002921158
 20
1470.0958155776
 30
0.0
 11
534.5002921158
 21
1470.0958155776
 31
0.0
  0
LINE
  5
1A9
330
1F
100
AcDbEntity
  8
1
  6
SLD-Сплошная
100
AcDbLine
 10
1032.5002921158
 20
1200.5958155776
 30
0.0
 11
1032.5002921158
 21
1470.0958155776
 31
0.0
  0
LINE
  5
1AA
330
1F
100
AcDbEntity
  8
1
  6
SLD-Сплошная
100
AcDbLine
 10
1030.5002921158
 20
1470.0958155776
 30
0.0
 11
1032.5002921158
 21
1470.0958155776
 31
0.0
  0
LINE
  5
1AB
330
1F
100
AcDbEntity
  8
1
  6
SLD-Сплошная
100
AcDbLine
 10
1030.5002921158
 20
1200.5958155776
 30
0.0
 11
1032.5002921158
 21
1200.5958155776
 31
0.0
  0
ELLIPSE
  5
1AC
330
1F
100
AcDbEntity
  8
1
  6
SLD-Сплошная
100
AcDbEllipse
 10
535.0710027938
 20
1200.5958155776
 30
0.0
 11
0.0
 21
2.5
 31
0.0
210
0.0
220
0.0
230
1.0
 40
0.6
 41
2.751284095301495
 42
3.141592653589793
  0
LINE
  5
1AD
330
1F
100
AcDbEntity
  8
1
  6
SLD-Сплошная
100
AcDbLine
 10
534.5002921158
 20
1200.5958155776
 30
0.0
 11
534.5002921158
 21
1198.2838363137
 31
0.0
  0
LINE
  5
1AE
330
1F
100
AcDbEntity
  8
1
  6
SLD-Сплошная
100
AcDbLine
 10
534.5002921158
 20
1200.5958155776
 30
0.0
 11
535.6002921158
 21
1200.5958155776
 31
0.0
  0
ELLIPSE
  5
1AF
330
1F
100
AcDbEntity
  8
1
  6
SLD-Сплошная
100
AcDbEllipse
 10
1029.9295814378
 20
1200.5958155776
 30
0.0
 11
0.0
 21
2.5
 31
0.0
210
0.0
220
0.0
230
1.0
 40
0.6
 41
3.141592653589793
 42
3.531901211803358
  0
LINE
  5
1B0
330
1F
100
AcDbEntity
  8
1
  6
SLD-Сплошная
100
AcDbLine
 10
535.0710027938
 20
1198.0958155776
 30
0.0
 11
1029.9295814378
 21
1198.0958155776
 31
0.0
  0
LINE
  5
1B1
330
1F
100
AcDbEntity
  8
1
  6
SLD-Сплошная
100
AcDbLine
 10
1030.5002921158
 20
1198.2838363137
 30
0.0
 11
1030.5002921158
 21
1200.5958155776
 31
0.0
  0
LINE
  5
1B2
330
1F
100
AcDbEntity
  8
1
  6
SLD-Сплошная
100
AcDbLine
 10
1030.4295814378
 20
1472.0958155776
 30
0.0
 11
534.5710027939
 21
1472.0958155776
 31
0.0
  0
LINE
  5
1B3
330
1F
100
AcDbEntity
  8
1
  6
SLD-Сплошная
100
AcDbLine
 10
1030.4295814378
 20
1472.0958155776
 30
0.0
 11
1030.5002921158
 21
1470.0958155776
 31
0.0
  0
LINE
  5
1B4
330
1F
100
AcDbEntity
  8
1
  6
SLD-Сплошная
100
AcDbLine
 10
534.5002921158
 20
1470.0958155776
 30
0.0
 11
534.5710027939
 21
1472.0958155776
 31
0.0
  0
LINE
  5
1B5
330
1F
100
AcDbEntity
  8
1
  6
SLD-Сплошная
100
AcDbLine
 10
534.5002921158
 20
1470.0958155776
 30
0.0
 11
535.6002921158
 21
1470.0958155776
 31
0.0
  0
ARC
  5
1B6
330
1F
100
AcDbEntity
  8
1
  6
SLD-Сплошная
100
AcDbCircle
 10
535.0002921158
 20
1200.5958155776
 30
0.0
 40
1.500000000000341
100
AcDbArc
 50
180.0
 51
247.6369668994
  0
LINE
  5
1B7
330
1F
100
AcDbEntity
  8
1
  6
SLD-Сплошная
100
AcDbLine
 10
534.0491076522
 20
1198.2838363138
 30
0.0
 11
534.4295814376
 21
1199.2086280193
 31
0.0
  0
ARC
  5
1B8
330
1F
100
AcDbEntity
  8
1
  6
SLD-Сплошная
100
AcDbCircle
 10
535.0002921158
 20
1200.5958155776
 30
0.0
 40
2.5
100
AcDbArc
 50
180.0
 51
247.6369668994
  0
LINE
  5
1B9
330
1F
100
AcDbEntity
  8
1
  6
SLD-Сплошная
100
AcDbLine
 10
533.5002921158
 20
1470.0958155776
 30
0.0
 11
532.5002921158
 21
1470.0958155776
 31
0.0
  0
LINE
  5
1BA
330
1F
100
AcDbEntity
  8
1
  6
SLD-Сплошная
100
AcDbLine
 10
533.5002921158
 20
1200.5958155776
 30
0.0
 11
533.5002921158
 21
1470.0958155776
 31
0.0
  0
LINE
  5
1BB
330
1F
100
AcDbEntity
  8
1
  6
SLD-Сплошная
100
AcDbLine
 10
532.5002921158
 20
1200.5958155776
 30
0.0
 11
532.5002921158
 21
1470.0958155776
 31
0.0
  0
LINE
  5
1BC
330
1F
100
AcDbEntity
  8
1
  6
SLD-Сплошная
100
AcDbLine
 10
1030.9514765791
 20
1198.2838363137
 30
0.0
 11
1030.5710027938
 21
1199.2086280192
 31
0.0
  0
ARC
  5
1BD
330
1F
100
AcDbEntity
  8
1
  6
SLD-Сплошная
100
AcDbCircle
 10
1030.0002921158
 20
1200.5958155776
 30
0.0
 40
1.5
100
AcDbArc
 50
292.3630330944
 51
0.0
  0
ARC
  5
1BE
330
1F
100
AcDbEntity
  8
1
  6
SLD-Сплошная
100
AcDbCircle
 10
1030.0002921158
 20
1200.5958155776
 30
0.0
 40
2.5
100
AcDbArc
 50
292.3630330944
 51
0.0
  0
LINE
  5
1BF
330
1F
100
AcDbEntity
  8
1
  6
SLD-Сплошная
100
AcDbLine
 10
1030.0002921158
 20
1198.0958155776
 30
0.0
 11
1030.0002921158
 21
1198.0985949003
 31
0.0
  0
ARC
  5
1C0
330
1F
100
AcDbEntity
  8
1
  6
SLD-Сплошная
100
AcDbCircle
 10
1030.0002921158
 20
1200.5958155776
 30
0.0
 40
2.5
100
AcDbArc
 50
270.0
 51
292.3630330944
  0
LINE
  5
1C1
330
1F
100
AcDbEntity
  8
1
  6
SLD-Сплошная
100
AcDbLine
 10
535.0002921158
 20
1198.0958155776
 30
0.0
 11
535.0002921158
 21
1198.0985949003
 31
0.0
  0
ARC
  5
1C2
330
1F
100
AcDbEntity
  8
1
  6
SLD-Сплошная
100
AcDbCircle
 10
535.0002921158
 20
1200.5958155776
 30
0.0
 40
2.5
100
AcDbArc
 50
247.6369668994
 51
270.0
  0
LINE
  5
1C3
330
1F
100
AcDbEntity
  8
1
  6
SLD-Сплошная
100
AcDbLine
 10
534.5002921158
 20
1471.0958155776
 30
0.0
 11
534.5002921158
 21
1472.0958155776
 31
0.0
  0
ARC
  5
1C4
330
1F
100
AcDbEntity
  8
1
  6
SLD-Сплошная
100
AcDbCircle
 10
534.5002921158
 20
1470.0958155776
 30
0.0
 40
1.000000000000227
100
AcDbArc
 50
90.0
 51
180.0
  0
ARC
  5
1C5
330
1F
100
AcDbEntity
  8
1
  6
SLD-Сплошная
100
AcDbCircle
 10
534.5002921158
 20
1470.0958155776
 30
0.0
 40
2.0
100
AcDbArc
 50
90.0
 51
180.0
  0
ARC
  5
1C6
330
1F
100
AcDbEntity
  8
1
  6
SLD-Сплошная
100
AcDbCircle
 10
1030.5002921158
 20
1470.0958155776
 30
0.0
 40
2.0
100
AcDbArc
 50
0.0
 51
90.0
  0
ARC
  5
1C7
330
1F
100
AcDbEntity
  8
1
  6
SLD-Сплошная
100
AcDbCircle
 10
1030.5002921158
 20
1470.0958155776
 30
0.0
 40
1.000000000000227
100
AcDbArc
 50
0.0
 51
90.0
  0
LINE
  5
1C8
330
1F
100
AcDbEntity
  8
1
  6
SLD-Сплошная
100
AcDbLine
 10
1030.5002921158
 20
1471.0958155776
 30
0.0
 11
1030.5002921158
 21
1472.0958155776
 31
0.0
  0
LINE
  5
1C9
330
1F
100
AcDbEntity
  8
1
  6
SLD-Сплошная
100
AcDbLine
 10
1030.5002921158
 20
1471.0958155776
 30
0.0
 11
1030.4649367768
 21
1471.0958155776
 31
0.0
  0
LINE
  5
1CA
330
1F
100
AcDbEntity
  8
1
  6
SLD-Сплошная
100
AcDbLine
 10
1030.5002921158
 20
1472.0958155776
 30
0.0
 11
1030.4295814378
 21
1472.0958155776
 31
0.0
  0
LINE
  5
1CB
330
1F
100
AcDbEntity
  8
1
  6
SLD-Сплошная
100
AcDbLine
 10
534.5710027939
 20
1472.0958155776
 30
0.0
 11
534.5002921158
 21
1472.0958155776
 31
0.0
  0
LINE
  5
1CC
330
1F
100
AcDbEntity
  8
1
  6
SLD-Сплошная
100
AcDbLine
 10
534.5356474548
 20
1471.0958155776
 30
0.0
 11
534.5002921158
 21
1471.0958155776
 31
0.0
  0
LINE
  5
1CD
330
1F
100
AcDbEntity
  8
1
  6
SLD-Сплошная
100
AcDbLine
 10
1030.0002921158
 20
1198.0958155776
 30
0.0
 11
1029.9295814378
 21
1198.0958155776
 31
0.0
  0
LINE
  5
1CE
330
1F
100
AcDbEntity
  8
1
  6
SLD-Сплошная
100
AcDbLine
 10
535.0710027938
 20
1198.0958155776
 30
0.0
 11
535.0002921158
 21
1198.0958155776
 31
0.0
  0
ELLIPSE
  5
1CF
330
1F
100
AcDbEntity
  8
1
  6
SLD-Сплошная
100
AcDbEllipse
 10
1013.4295814378
 20
1473.0958155776
 30
0.0
 11
2.0
 21
0.0
 31
0.0
210
0.0
220
0.0
230
1.0
 40
0.5
 41
3.141592653590048
 42
4.712388980384697
  0
ELLIPSE
  5
1D0
330
1F
100
AcDbEntity
  8
1
  6
SLD-Сплошная
100
AcDbEllipse
 10
551.5710027939
 20
1473.0958155776
 30
0.0
 11
2.0
 21
0.0
 31
0.0
210
0.0
220
0.0
230
1.0
 40
0.5
 41
4.71238898038481
 42
6.283185307179586
  0
ARC
  5
1D1
330
1F
100
AcDbEntity
  8
1
  6
SLD-Сплошная
100
AcDbCircle
 10
1013.5002921158
 20
1473.0958155776
 30
0.0
 40
1.000000000000227
100
AcDbArc
 50
180.0
 51
270.0
  0
ARC
  5
1D2
330
1F
100
AcDbEntity
  8
1
  6
SLD-Сплошная
100
AcDbCircle
 10
1013.5002921158
 20
1473.0958155776
 30
0.0
 40
2.0
100
AcDbArc
 50
180.0
 51
188.7004774841
  0
ARC
  5
1D3
330
1F
100
AcDbEntity
  8
1
  6
SLD-Сплошная
100
AcDbCircle
 10
551.5002921158
 20
1473.0958155776
 30
0.0
 40
1.000000000000227
100
AcDbArc
 50
270.0
 51
360.0
  0
ARC
  5
1D4
330
1F
100
AcDbEntity
  8
1
  6
SLD-Сплошная
100
AcDbCircle
 10
551.5002921158
 20
1473.0958155776
 30
0.0
 40
2.0
100
AcDbArc
 50
351.2995225073
 51
360.0
  0
LINE
  5
1D5
330
1F
100
AcDbEntity
  8
1
  6
SLD-Сплошная
100
AcDbLine
 10
1011.4295814378
 20
1473.0958155776
 30
0.0
 11
1011.4295814378
 21
1479.1958155776
 31
0.0
  0
LINE
  5
1D6
330
1F
100
AcDbEntity
  8
1
  6
SLD-Сплошная
100
AcDbLine
 10
553.5710027939
 20
1479.1958155776
 30
0.0
 11
553.5710027939
 21
1473.0958155776
 31
0.0
  0
LINE
  5
1D7
330
1F
100
AcDbEntity
  8
1
  6
SLD-Сплошная
100
AcDbLine
 10
1012.5002921158
 20
1479.1958155776
 30
0.0
 11
1012.5002921158
 21
1473.0958155776
 31
0.0
  0
LINE
  5
1D8
330
1F
100
AcDbEntity
  8
1
  6
SLD-Сплошная
100
AcDbLine
 10
1011.5002921158
 20
1479.1958155776
 30
0.0
 11
1011.5002921158
 21
1473.0958155776
 31
0.0
  0
LINE
  5
1D9
330
1F
100
AcDbEntity
  8
1
  6
SLD-Сплошная
100
AcDbLine
 10
552.5002921158
 20
1473.0958155776
 30
0.0
 11
552.5002921158
 21
1479.1958155776
 31
0.0
  0
LINE
  5
1DA
330
1F
100
AcDbEntity
  8
1
  6
SLD-Сплошная
100
AcDbLine
 10
553.5002921158
 20
1473.0958155776
 30
0.0
 11
553.5002921158
 21
1479.1958155776
 31
0.0
  0
LINE
  5
1DB
330
1F
100
AcDbEntity
  8
1
  6
SLD-Сплошная
100
AcDbLine
 10
533.5002921158
 20
1470.0958155776
 30
0.0
 11
533.6002921158
 21
1470.0958155776
 31
0.0
  0
LINE
  5
1DC
330
1F
100
AcDbEntity
  8
1
  6
SLD-Сплошная
100
AcDbLine
 10
535.9831348283
 20
1495.4958155776
 30
0.0
 11
535.9831348283
 21
1480.2458155776
 31
0.0
  0
LINE
  5
1DD
330
1F
100
AcDbEntity
  8
1
  6
SLD-Сплошная
100
AcDbLine
 10
1028.4174494032
 20
1495.4958155776
 30
0.0
 11
1028.4174494032
 21
1480.2458155776
 31
0.0
  0
SPLINE
  5
1DE
330
1F
100
AcDbEntity
  8
1
  6
SLD-Сплошная
100
AcDbSpline
210
0.0
220
0.0
230
1.0
 70
     8
 71
     3
 72
    11
 73
     7
 74
     0
 42
0.00000001
 43
0.00000001
 40
0.0
 40
0.0
 40
0.0
 40
0.0
 40
0.2499999999999785
 40
0.4999999999999935
 40
0.7499999999999948
 40
1.0
 40
1.0
 40
1.0
 40
1.0
 10
1028.367449403197
 20
1479.195815577579
 30
0.0
 10
1028.371616069863
 20
1479.211598729006
 30
0.0
 10
1028.379949403197
 20
1479.243165031859
 30
0.0
 10
1028.392449403197
 20
1479.485976705637
 30
0.0
 10
1028.404949403197
 20
1479.833048889589
 30
0.0
 10
1028.41328273653
 20
1480.108226681582
 30
0.0
 10
1028.417449403197
 20
1480.245815577579
 30
0.0
  0
SPLINE
  5
1DF
330
1F
100
AcDbEntity
  8
1
  6
SLD-Сплошная
100
AcDbSpline
210
0.0
220
0.0
230
1.0
 70
     8
 71
     3
 72
    11
 73
     7
 74
     0
 42
0.00000001
 43
0.00000001
 40
0.0
 40
0.0
 40
0.0
 40
0.0
 40
0.2500000000000038
 40
0.5000000000000027
 40
0.7499999999999902
 40
1.0
 40
1.0
 40
1.0
 40
1.0
 10
535.9831348283938
 20
1480.245815577579
 30
0.0
 10
535.9873014950605
 20
1480.108226681583
 30
0.0
 10
535.9956348283938
 20
1479.833048889589
 30
0.0
 10
536.0081348283937
 20
1479.485976705638
 30
0.0
 10
536.0206348283938
 20
1479.243165031859
 30
0.0
 10
536.028968161727
 20
1479.211598729006
 30
0.0
 10
536.0331348283936
 20
1479.195815577579
 30
0.0
  0
ELLIPSE
  5
1E0
330
1F
100
AcDbEntity
  8
1
  6
SLD-Сплошная
100
AcDbEllipse
 10
537.4002921158
 20
1495.4958155776
 30
0.0
 11
0.0
 21
2.700000000000045
 31
0.0
210
0.0
220
0.0
230
1.0
 40
0.5248730694
 41
0.0
 42
1.570796326794812
  0
LINE
  5
1E1
330
1F
100
AcDbEntity
  8
1
  6
SLD-Сплошная
100
AcDbLine
 10
537.4002921158
 20
1498.1958155776
 30
0.0
 11
1027.0002921158
 21
1498.1958155776
 31
0.0
  0
ELLIPSE
  5
1E2
330
1F
100
AcDbEntity
  8
1
  6
SLD-Сплошная
100
AcDbEllipse
 10
1027.0002921158
 20
1495.4958155776
 30
0.0
 11
0.0
 21
2.700000000000045
 31
0.0
210
0.0
220
0.0
230
1.0
 40
0.5248730694
 41
4.712388980384697
 42
6.283185307179586
  0
LINE
  5
1E3
330
1F
100
AcDbEntity
  8
1
  6
SLD-Сплошная
100
AcDbLine
 10
535.7002921158
 20
1480.2458155776
 30
0.0
 11
535.7002921158
 21
1495.4958155776
 31
0.0
  0
LINE
  5
1E4
330
1F
100
AcDbEntity
  8
1
  6
SLD-Сплошная
100
AcDbLine
 10
534.7002921158
 20
1480.2458155776
 30
0.0
 11
535.7002921158
 21
1480.2458155776
 31
0.0
  0
LINE
  5
1E5
330
1F
100
AcDbEntity
  8
1
  6
SLD-Сплошная
100
AcDbLine
 10
534.7002921158
 20
1480.2458155776
 30
0.0
 11
534.7002921158
 21
1495.4958155776
 31
0.0
  0
SPLINE
  5
1E6
330
1F
100
AcDbEntity
  8
1
  6
SLD-Сплошная
100
AcDbSpline
210
0.0
220
0.0
230
1.0
 70
     8
 71
     3
 72
    11
 73
     7
 74
     0
 42
0.00000001
 43
0.00000001
 40
0.0
 40
0.0
 40
0.0
 40
0.0
 40
0.2500000000008817
 40
0.5000000000006115
 40
0.7500000000002641
 40
1.0
 40
1.0
 40
1.0
 40
1.0
 10
535.7502921157618
 20
1480.195815577579
 30
0.0
 10
535.7437402635715
 20
1480.196567156218
 30
0.0
 10
535.7306365591908
 20
1480.198070313497
 30
0.0
 10
535.7141093123356
 20
1480.209632774153
 30
0.0
 10
535.7025468516795
 20
1480.226160021008
 30
0.0
 10
535.7010436944007
 20
1480.239263725389
 30
0.0
 10
535.7002921157613
 20
1480.245815577579
 30
0.0
  0
LINE
  5
1E7
330
1F
100
AcDbEntity
  8
1
  6
SLD-Сплошная
100
AcDbLine
 10
535.7502921158
 20
1480.1958155776
 30
0.0
 11
535.7502921158
 21
1479.1958155776
 31
0.0
  0
SPLINE
  5
1E8
330
1F
100
AcDbEntity
  8
1
  6
SLD-Сплошная
100
AcDbSpline
210
0.0
220
0.0
230
1.0
 70
     8
 71
     3
 72
    11
 73
     7
 74
     0
 42
0.00000001
 43
0.00000001
 40
0.0
 40
0.0
 40
0.0
 40
0.0
 40
0.2499999999999873
 40
0.4999999999999911
 40
0.7499999999999957
 40
1.0
 40
1.0
 40
1.0
 40
1.0
 10
535.750292115771
 20
1479.195815577579
 30
0.0
 10
535.6127032197735
 20
1479.211598729005
 30
0.0
 10
535.3375254277784
 20
1479.243165031856
 30
0.0
 10
534.9904532438233
 20
1479.485976705634
 30
0.0
 10
534.747641570042
 20
1479.833048889587
 30
0.0
 10
534.7160752671881
 20
1480.108226681582
 30
0.0
 10
534.7002921157613
 20
1480.245815577579
 30
0.0
  0
LINE
  5
1E9
330
1F
100
AcDbEntity
  8
1
  6
SLD-Сплошная
100
AcDbLine
 10
1028.6502921158
 20
1480.1958155776
 30
0.0
 11
1028.6502921158
 21
1479.1958155776
 31
0.0
  0
SPLINE
  5
1EA
330
1F
100
AcDbEntity
  8
1
  6
SLD-Сплошная
100
AcDbSpline
210
0.0
220
0.0
230
1.0
 70
     8
 71
     3
 72
    11
 73
     7
 74
     0
 42
0.00000001
 43
0.00000001
 40
0.0
 40
0.0
 40
0.0
 40
0.0
 40
0.2499999999996559
 40
0.4999999999995207
 40
0.7499999999994628
 40
1.0
 40
1.0
 40
1.0
 40
1.0
 10
1028.70029211583
 20
1480.245815577579
 30
0.0
 10
1028.69954053719
 20
1480.239263725389
 30
0.0
 10
1028.698037379912
 20
1480.226160021008
 30
0.0
 10
1028.686474919255
 20
1480.209632774153
 30
0.0
 10
1028.6699476724
 20
1480.198070313497
 30
0.0
 10
1028.65684396802
 20
1480.196567156218
 30
0.0
 10
1028.650292115829
 20
1480.195815577579
 30
0.0
  0
LINE
  5
1EB
330
1F
100
AcDbEntity
  8
1
  6
SLD-Сплошная
100
AcDbLine
 10
1029.7002921158
 20
1480.2458155776
 30
0.0
 11
1028.7002921158
 21
1480.2458155776
 31
0.0
  0
SPLINE
  5
1EC
330
1F
100
AcDbEntity
  8
1
  6
SLD-Сплошная
100
AcDbSpline
210
0.0
220
0.0
230
1.0
 70
     8
 71
     3
 72
    11
 73
     7
 74
     0
 42
0.00000001
 43
0.00000001
 40
0.0
 40
0.0
 40
0.0
 40
0.0
 40
0.2499999999999938
 40
0.4999999999999831
 40
0.7499999999999741
 40
1.0
 40
1.0
 40
1.0
 40
1.0
 10
1029.70029211583
 20
1480.245815577579
 30
0.0
 10
1029.684508964403
 20
1480.108226681582
 30
0.0
 10
1029.652942661549
 20
1479.833048889587
 30
0.0
 10
1029.410130987768
 20
1479.485976705634
 30
0.0
 10
1029.063058803812
 20
1479.243165031856
 30
0.0
 10
1028.787881011817
 20
1479.211598729004
 30
0.0
 10
1028.65029211582
 20
1479.195815577579
 30
0.0
  0
LINE
  5
1ED
330
1F
100
AcDbEntity
  8
1
  6
SLD-Сплошная
100
AcDbLine
 10
1029.7002921158
 20
1480.2458155776
 30
0.0
 11
1029.7002921158
 21
1495.4958155776
 31
0.0
  0
LINE
  5
1EE
330
1F
100
AcDbEntity
  8
1
  6
SLD-Сплошная
100
AcDbLine
 10
1028.7002921158
 20
1480.2458155776
 30
0.0
 11
1028.7002921158
 21
1495.4958155776
 31
0.0
  0
ARC
  5
1EF
330
1F
100
AcDbEntity
  8
1
  6
SLD-Сплошная
100
AcDbCircle
 10
537.4002921158
 20
1495.4958155776
 30
0.0
 40
1.699999999999932
100
AcDbArc
 50
139.5408896255
 51
180.0
  0
ARC
  5
1F0
330
1F
100
AcDbEntity
  8
1
  6
SLD-Сплошная
100
AcDbCircle
 10
537.4002921158
 20
1495.4958155776
 30
0.0
 40
2.700000000000045
100
AcDbArc
 50
90.0
 51
180.0
  0
ARC
  5
1F1
330
1F
100
AcDbEntity
  8
1
  6
SLD-Сплошная
100
AcDbCircle
 10
1027.0002921158
 20
1495.4958155776
 30
0.0
 40
2.700000000000045
100
AcDbArc
 50
0.0
 51
90.0
  0
ARC
  5
1F2
330
1F
100
AcDbEntity
  8
1
  6
SLD-Сплошная
100
AcDbCircle
 10
1027.0002921158
 20
1495.4958155776
 30
0.0
 40
1.699999999999971
100
AcDbArc
 50
0.0
 51
40.4591103747
  0
LINE
  5
1F3
330
1F
100
AcDbEntity
  8
1
  6
SLD-Сплошная
100
AcDbLine
 10
535.9831348283
 20
1480.2458155776
 30
0.0
 11
535.8002921158
 21
1480.2458155776
 31
0.0
  0
SPLINE
  5
1F4
330
1F
100
AcDbEntity
  8
1
  6
SLD-Сплошная
100
AcDbSpline
210
0.0
220
0.0
230
1.0
 70
     8
 71
     3
 72
    11
 73
     7
 74
     0
 42
0.00000001
 43
0.00000001
 40
0.0
 40
0.0
 40
0.0
 40
0.0
 40
0.0090245670112488
 40
0.0782108948230567
 40
0.2706367536282562
 40
1.0
 40
1.0
 40
1.0
 40
1.0
 10
535.8002921157612
 20
1480.245815577579
 30
0.0
 10
535.8002549664654
 20
1480.244621993844
 30
0.0
 10
535.7999330142138
 20
1480.234277868539
 30
0.0
 10
535.7965524033951
 20
1480.228708909669
 30
0.0
 10
535.782038085739
 20
1480.196054620276
 30
0.0
 10
535.7643152576602
 20
1480.195921169869
 30
0.0
 10
535.7502921157618
 20
1480.195815577579
 30
0.0
  0
LINE
  5
1F5
330
1F
100
AcDbEntity
  8
1
  6
SLD-Сплошная
100
AcDbLine
 10
536.0331348283
 20
1479.2657751469
 30
0.0
 11
535.7502921158
 21
1479.1958155776
 31
0.0
  0
LINE
  5
1F6
330
1F
100
AcDbEntity
  8
1
  6
SLD-Сплошная
100
AcDbLine
 10
1028.4174494032
 20
1480.2458155776
 30
0.0
 11
1028.6002921158
 21
1480.2458155776
 31
0.0
  0
SPLINE
  5
1F7
330
1F
100
AcDbEntity
  8
1
  6
SLD-Сплошная
100
AcDbSpline
210
0.0
220
0.0
230
1.0
 70
     8
 71
     3
 72
    12
 73
     8
 74
     0
 42
0.00000001
 43
0.00000001
 40
0.0
 40
0.0
 40
0.0
 40
0.0
 40
0.7293340570138572
 40
0.9217522148746388
 40
0.9750066998630494
 40
0.9909757941541051
 40
1.0
 40
1.0
 40
1.0
 40
1.0
 10
1028.650292115829
 20
1480.195815577579
 30
0.0
 10
1028.636434315484
 20
1480.198536859318
 30
0.0
 10
1028.618920450557
 20
1480.201976089182
 30
0.0
 10
1028.60402242928
 20
1480.224344294097
 30
0.0
 10
1028.601128399635
 20
1480.236390950514
 30
0.0
 10
1028.600421737024
 20
1480.241149851152
 30
0.0
 10
1028.6003265019
 20
1480.244577847931
 30
0.0
 10
1028.60029211583
 20
1480.245815577579
 30
0.0
  0
LINE
  5
1F8
330
1F
100
AcDbEntity
  8
1
  6
SLD-Сплошная
100
AcDbLine
 10
1028.6502921158
 20
1479.1958155776
 30
0.0
 11
1028.3674494031
 21
1479.2657751469
 31
0.0
  0
LINE
  5
1F9
330
1F
100
AcDbEntity
  8
1
  6
SLD-Сплошная
100
AcDbLine
 10
535.8002921158
 20
1480.2458155776
 30
0.0
 11
535.8002921158
 21
1495.0858155776
 31
0.0
  0
LINE
  5
1FA
330
1F
100
AcDbEntity
  8
1
  6
SLD-Сплошная
100
AcDbLine
 10
535.9831348283
 20
1495.0858155776
 30
0.0
 11
535.8002921158
 21
1495.0858155776
 31
0.0
  0
LINE
  5
1FB
330
1F
100
AcDbEntity
  8
1
  6
SLD-Сплошная
100
AcDbLine
 10
1028.4174494032
 20
1495.0858155776
 30
0.0
 11
1028.6002921158
 21
1495.0858155776
 31
0.0
  0
LINE
  5
1FC
330
1F
100
AcDbEntity
  8
1
  6
SLD-Сплошная
100
AcDbLine
 10
1028.6002921158
 20
1480.2458155776
 30
0.0
 11
1028.6002921158
 21
1495.0858155776
 31
0.0
  0
ARC
  5
1FD
330
1F
100
AcDbEntity
  8
1
  6
SLD-Сплошная
100
AcDbCircle
 10
537.8102921158
 20
1495.0858155776
 30
0.0
 40
2.010000000000005
100
AcDbArc
 50
153.9069487116
 51
180.0
  0
ARC
  5
1FE
330
1F
100
AcDbEntity
  8
1
  6
SLD-Сплошная
100
AcDbCircle
 10
1026.5902921158
 20
1495.0858155776
 30
0.0
 40
2.010000000000038
100
AcDbArc
 50
0.0
 51
26.0930512928
  0
LINE
  5
1FF
330
1F
100
AcDbEntity
  8
1
  6
SLD-Сплошная
100
AcDbLine
 10
987.5002921158
 20
1394.8458155776
 30
0.0
 11
577.5002921158
 21
1394.8458155776
 31
0.0
  0
ARC
  5
200
330
1F
100
AcDbEntity
  8
1
  6
SLD-Сплошная
100
AcDbCircle
 10
987.5002921158
 20
1377.3458155776
 30
0.0
 40
17.49999999999977
100
AcDbArc
 50
0.0
 51
90.0
  0
LINE
  5
201
330
1F
100
AcDbEntity
  8
1
  6
SLD-Сплошная
100
AcDbLine
 10
1005.0002921158
 20
1242.3458155776
 30
0.0
 11
1005.0002921158
 21
1377.3458155776
 31
0.0
  0
ARC
  5
202
330
1F
100
AcDbEntity
  8
1
  6
SLD-Сплошная
100
AcDbCircle
 10
987.5002921158
 20
1242.3458155776
 30
0.0
 40
17.49999999999977
100
AcDbArc
 50
270.0
 51
0.0
  0
LINE
  5
203
330
1F
100
AcDbEntity
  8
1
  6
SLD-Сплошная
100
AcDbLine
 10
577.5002921158
 20
1224.8458155776
 30
0.0
 11
987.5002921158
 21
1224.8458155776
 31
0.0
  0
ARC
  5
204
330
1F
100
AcDbEntity
  8
1
  6
SLD-Сплошная
100
AcDbCircle
 10
577.5002921158
 20
1242.3458155776
 30
0.0
 40
17.5
100
AcDbArc
 50
180.0
 51
270.0
  0
LINE
  5
205
330
1F
100
AcDbEntity
  8
1
  6
SLD-Сплошная
100
AcDbLine
 10
560.0002921158
 20
1377.3458155776
 30
0.0
 11
560.0002921158
 21
1242.3458155776
 31
0.0
  0
ARC
  5
206
330
1F
100
AcDbEntity
  8
1
  6
SLD-Сплошная
100
AcDbCircle
 10
577.5002921158
 20
1377.3458155776
 30
0.0
 40
17.5
100
AcDbArc
 50
90.0
 51
180.0
  0
ELLIPSE
  5
207
330
1F
100
AcDbEntity
  8
1
  6
SLD-Сплошная
100
AcDbEllipse
 10
882.5002921158
 20
1228.7764287963
 30
0.0
 11
0.0
 21
0.4122489361056978
 31
0.0
210
0.0
220
0.0
230
1.0
 40
0.9702875252
 41
5.512866274278947
 42
7.053504340080444
  0
SPLINE
  5
208
330
1F
100
AcDbEntity
  8
1
  6
SLD-Сплошная
100
AcDbSpline
210
0.0
220
0.0
230
1.0
 70
     8
 71
     3
 72
    12
 73
     8
 74
     0
 42
0.00000001
 43
0.00000001
 40
0.0
 40
0.0
 40
0.0
 40
0.0
 40
0.2187857887072066
 40
0.4375776469534695
 40
0.6562353658863811
 40
0.8748419359490819
 40
1.0
 40
1.0
 40
1.0
 40
1.0
 10
882.778837811912
 20
1228.732705083768
 30
0.0
 10
882.7435124150431
 20
1228.75966850984
 30
0.0
 10
882.6728606413108
 20
1228.813596110001
 30
0.0
 10
882.5388974126697
 20
1228.846191998974
 30
0.0
 10
882.4033547863896
 20
1228.836842867732
 30
0.0
 10
882.2944569820958
 20
1228.79296410965
 30
0.0
 10
882.2411532712898
 20
1228.748788551364
 30
0.0
 10
882.221746419656
 20
1228.732705083768
 30
0.0
  0
ARC
  5
209
330
1F
100
AcDbEntity
  8
1
  6
SLD-Сплошная
100
AcDbCircle
 10
865.2550241348
 20
1247.0910835585
 30
0.0
 40
26.56195549567961
100
AcDbArc
 50
313.8816987744
 51
316.1183012256
  0
ARC
  5
20A
330
1F
100
AcDbEntity
  8
1
  6
SLD-Сплошная
100
AcDbCircle
 10
866.4872691422
 20
1213.6044013417
 30
0.0
 40
23.41191191592916
100
AcDbArc
 50
40.0824770913
 51
42.9865596106
  0
SPLINE
  5
20B
330
1F
100
AcDbEntity
  8
1
  6
SLD-Сплошная
100
AcDbSpline
210
0.0
220
0.0
230
1.0
 70
     8
 71
     3
 72
    12
 73
     8
 74
     0
 42
0.00000001
 43
0.00000001
 40
0.0
 40
0.0
 40
0.0
 40
0.0
 40
0.2187857887072182
 40
0.4375776469534861
 40
0.6562353658863578
 40
0.8748419359490965
 40
1.0
 40
1.0
 40
1.0
 40
1.0
 10
883.6134026095963
 20
1230.124361273708
 30
0.0
 10
883.5864391835242
 20
1230.089035876839
 30
0.0
 10
883.5325115833627
 20
1230.018384103106
 30
0.0
 10
883.4999156943896
 20
1229.884420874465
 30
0.0
 10
883.5092648256317
 20
1229.748878248186
 30
0.0
 10
883.5531435837136
 20
1229.639980443892
 30
0.0
 10
883.5973191420001
 20
1229.586676733086
 30
0.0
 10
883.6134026095963
 20
1229.567269881452
 30
0.0
  0
ARC
  5
20C
330
1F
100
AcDbEntity
  8
1
  6
SLD-Сплошная
100
AcDbCircle
 10
866.4872691422
 20
1246.0872298134
 30
0.0
 40
23.41191191593119
100
AcDbArc
 50
317.0134403894
 51
319.9175229087
  0
ARC
  5
20D
330
1F
100
AcDbEntity
  8
1
  6
SLD-Сплошная
100
AcDbCircle
 10
865.2550241347
 20
1212.6005475965
 30
0.0
 40
26.56195549582822
100
AcDbArc
 50
43.8816987744
 51
46.1183012256
  0
ARC
  5
20E
330
1F
100
AcDbEntity
  8
1
  6
SLD-Сплошная
100
AcDbCircle
 10
898.7417063519
 20
1213.8327926038
 30
0.0
 40
23.41191191627131
100
AcDbArc
 50
130.0824770913
 51
132.9865596106
  0
SPLINE
  5
20F
330
1F
100
AcDbEntity
  8
1
  6
SLD-Сплошная
100
AcDbSpline
210
0.0
220
0.0
230
1.0
 70
     8
 71
     3
 72
    12
 73
     8
 74
     0
 42
0.00000001
 43
0.00000001
 40
0.0
 40
0.0
 40
0.0
 40
0.0
 40
0.2187857887071912
 40
0.4375776469534632
 40
0.656235365886384
 40
0.8748419359490767
 40
1.0
 40
1.0
 40
1.0
 40
1.0
 10
882.221746419656
 20
1230.958926071392
 30
0.0
 10
882.257071816525
 20
1230.93196264532
 30
0.0
 10
882.3277235902574
 20
1230.878035045158
 30
0.0
 10
882.4616868188983
 20
1230.845439156186
 30
0.0
 10
882.5972294451784
 20
1230.854788287428
 30
0.0
 10
882.7061272494723
 20
1230.898667045509
 30
0.0
 10
882.7594309602782
 20
1230.942842603796
 30
0.0
 10
882.778837811912
 20
1230.958926071392
 30
0.0
  0
ARC
  5
210
330
1F
100
AcDbEntity
  8
1
  6
SLD-Сплошная
100
AcDbCircle
 10
866.2588778797
 20
1213.8327926038
 30
0.0
 40
23.41191191620921
100
AcDbArc
 50
47.0134403894
 51
49.9175229087
  0
ARC
  5
211
330
1F
100
AcDbEntity
  8
1
  6
SLD-Сплошная
100
AcDbCircle
 10
899.7455600973
 20
1212.600547596
 30
0.0
 40
26.56195549653261
100
AcDbArc
 50
133.8816987744
 51
136.1183012256
  0
ARC
  5
212
330
1F
100
AcDbEntity
  8
1
  6
SLD-Сплошная
100
AcDbCircle
 10
898.5133150896
 20
1246.0872298137
 30
0.0
 40
23.41191191633192
100
AcDbArc
 50
220.0824770913
 51
222.9865596106
  0
SPLINE
  5
213
330
1F
100
AcDbEntity
  8
1
  6
SLD-Сплошная
100
AcDbSpline
210
0.0
220
0.0
230
1.0
 70
     8
 71
     3
 72
    12
 73
     8
 74
     0
 42
0.00000001
 43
0.00000001
 40
0.0
 40
0.0
 40
0.0
 40
0.0
 40
0.2187857887072142
 40
0.4375776469534839
 40
0.6562353658863967
 40
0.8748419359490988
 40
1.0
 40
1.0
 40
1.0
 40
1.0
 10
881.3871816219718
 20
1229.567269881452
 30
0.0
 10
881.4141450480438
 20
1229.602595278321
 30
0.0
 10
881.4680726482054
 20
1229.673247052053
 30
0.0
 10
881.5006685371784
 20
1229.807210280694
 30
0.0
 10
881.4913194059362
 20
1229.942752906974
 30
0.0
 10
881.4474406478545
 20
1230.051650711268
 30
0.0
 10
881.403265089568
 20
1230.104954422074
 30
0.0
 10
881.3871816219718
 20
1230.124361273708
 30
0.0
  0
ARC
  5
214
330
1F
100
AcDbEntity
  8
1
  6
SLD-Сплошная
100
AcDbCircle
 10
898.5133150896
 20
1213.6044013414
 30
0.0
 40
23.41191191632988
100
AcDbArc
 50
137.0134403894
 51
139.9175229087
  0
ARC
  5
215
330
1F
100
AcDbEntity
  8
1
  6
SLD-Сплошная
100
AcDbCircle
 10
899.7455600972
 20
1247.091083559
 30
0.0
 40
26.56195549638376
100
AcDbArc
 50
223.8816987744
 51
226.1183012256
  0
ARC
  5
216
330
1F
100
AcDbEntity
  8
1
  6
SLD-Сплошная
100
AcDbCircle
 10
866.2588778796
 20
1245.8588385515
 30
0.0
 40
23.41191191635216
100
AcDbArc
 50
310.0824770913
 51
312.9865596106
  0
ARC
  5
217
330
1F
100
AcDbEntity
  8
1
  6
SLD-Сплошная
100
AcDbCircle
 10
898.7417063519
 20
1245.8588385514
 30
0.0
 40
23.41191191630589
100
AcDbArc
 50
227.0134403894
 51
229.9175229087
  0
CIRCLE
  5
218
330
1F
100
AcDbEntity
  8
1
  6
SLD-Сплошная
100
AcDbCircle
 10
882.5002921158
 20
1229.8458155776
 30
0.0
 40
3.499999999999948
  0
ELLIPSE
  5
219
330
1F
100
AcDbEntity
  8
1
  6
SLD-Сплошная
100
AcDbEllipse
 10
881.4309053345
 20
1229.8458155776
 30
0.0
 11
0.4122489361056978
 21
0.0
 31
0.0
210
0.0
220
0.0
230
1.0
 40
0.9702875252
 41
5.512866274278624
 42
7.05350434008097
  0
ELLIPSE
  5
21A
330
1F
100
AcDbEntity
  8
1
  6
SLD-Сплошная
100
AcDbEllipse
 10
882.5002921158
 20
1230.9152023589
 30
0.0
 11
0.0
 21
-0.4122489361059252
 31
0.0
210
0.0
220
0.0
230
1.0
 40
0.9702875252
 41
5.512866274278609
 42
7.053504340080373
  0
ELLIPSE
  5
21B
330
1F
100
AcDbEntity
  8
1
  6
SLD-Сплошная
100
AcDbEllipse
 10
883.5696788971
 20
1229.8458155776
 30
0.0
 11
-0.4122489361055841
 21
0.0
 31
0.0
210
0.0
220
0.0
230
1.0
 40
0.9702875252
 41
5.512866274278923
 42
7.053504340079856
  0
LINE
  5
21C
330
1F
100
AcDbEntity
  8
1
  6
SLD-Сплошная
100
AcDbLine
 10
884.4001527696
 20
1228.6790893886
 30
0.0
 11
884.1619930516
 21
1228.6790893886
 31
0.0
  0
LINE
  5
21D
330
1F
100
AcDbEntity
  8
1
  6
SLD-Сплошная
100
AcDbLine
 10
884.1619930516
 20
1228.6790893886
 30
0.0
 11
883.2738125587
 21
1229.5672698815
 31
0.0
  0
LINE
  5
21E
330
1F
100
AcDbEntity
  8
1
  6
SLD-Сплошная
100
AcDbLine
 10
883.6670183047
 20
1227.9459549238
 30
0.0
 11
883.6670183047
 21
1228.1841146418
 31
0.0
  0
LINE
  5
21F
330
1F
100
AcDbEntity
  8
1
  6
SLD-Сплошная
100
AcDbLine
 10
882.7788378119
 20
1229.0722951346
 30
0.0
 11
883.6670183047
 21
1228.1841146418
 31
0.0
  0
LINE
  5
220
330
1F
100
AcDbEntity
  8
1
  6
SLD-Сплошная
100
AcDbLine
 10
880.600431462
 20
1228.6790893886
 30
0.0
 11
880.83859118
 21
1228.6790893886
 31
0.0
  0
LINE
  5
221
330
1F
100
AcDbEntity
  8
1
  6
SLD-Сплошная
100
AcDbLine
 10
881.7267716728
 20
1229.5672698815
 30
0.0
 11
880.83859118
 21
1228.6790893886
 31
0.0
  0
LINE
  5
222
330
1F
100
AcDbEntity
  8
1
  6
SLD-Сплошная
100
AcDbLine
 10
884.4001527696
 20
1231.0125417665
 30
0.0
 11
884.1619930516
 21
1231.0125417665
 31
0.0
  0
LINE
  5
223
330
1F
100
AcDbEntity
  8
1
  6
SLD-Сплошная
100
AcDbLine
 10
883.2738125587
 20
1230.1243612737
 30
0.0
 11
884.1619930516
 21
1231.0125417665
 31
0.0
  0
LINE
  5
224
330
1F
100
AcDbEntity
  8
1
  6
SLD-Сплошная
100
AcDbLine
 10
880.600431462
 20
1231.0125417665
 30
0.0
 11
880.83859118
 21
1231.0125417665
 31
0.0
  0
LINE
  5
225
330
1F
100
AcDbEntity
  8
1
  6
SLD-Сплошная
100
AcDbLine
 10
880.83859118
 20
1231.0125417665
 30
0.0
 11
881.7267716728
 21
1230.1243612737
 31
0.0
  0
LINE
  5
226
330
1F
100
AcDbEntity
  8
1
  6
SLD-Сплошная
100
AcDbLine
 10
881.3335659268
 20
1227.9459549238
 30
0.0
 11
881.3335659268
 21
1228.1841146418
 31
0.0
  0
LINE
  5
227
330
1F
100
AcDbEntity
  8
1
  6
SLD-Сплошная
100
AcDbLine
 10
881.3335659268
 20
1228.1841146418
 30
0.0
 11
882.2217464197
 21
1229.0722951346
 31
0.0
  0
LINE
  5
228
330
1F
100
AcDbEntity
  8
1
  6
SLD-Сплошная
100
AcDbLine
 10
881.3335659268
 20
1231.7456762314
 30
0.0
 11
881.3335659268
 21
1231.5075165134
 31
0.0
  0
LINE
  5
229
330
1F
100
AcDbEntity
  8
1
  6
SLD-Сплошная
100
AcDbLine
 10
882.2217464197
 20
1230.6193360205
 30
0.0
 11
881.3335659268
 21
1231.5075165134
 31
0.0
  0
LINE
  5
22A
330
1F
100
AcDbEntity
  8
1
  6
SLD-Сплошная
100
AcDbLine
 10
883.6670183047
 20
1231.7456762314
 30
0.0
 11
883.6670183047
 21
1231.5075165134
 31
0.0
  0
LINE
  5
22B
330
1F
100
AcDbEntity
  8
1
  6
SLD-Сплошная
100
AcDbLine
 10
883.6670183047
 20
1231.5075165134
 30
0.0
 11
882.7788378119
 21
1230.6193360205
 31
0.0
  0
LINE
  5
22C
330
1F
100
AcDbEntity
  8
1
  6
SLD-Сплошная
100
AcDbLine
 10
880.83859118
 20
1228.6790893886
 30
0.0
 11
881.3335659268
 21
1228.1841146418
 31
0.0
  0
LINE
  5
22D
330
1F
100
AcDbEntity
  8
1
  6
SLD-Сплошная
100
AcDbLine
 10
884.1619930516
 20
1231.0125417665
 30
0.0
 11
883.6670183047
 21
1231.5075165134
 31
0.0
  0
LINE
  5
22E
330
1F
100
AcDbEntity
  8
1
  6
SLD-Сплошная
100
AcDbLine
 10
883.6670183047
 20
1228.1841146418
 30
0.0
 11
884.1619930516
 21
1228.6790893886
 31
0.0
  0
LINE
  5
22F
330
1F
100
AcDbEntity
  8
1
  6
SLD-Сплошная
100
AcDbLine
 10
881.3335659268
 20
1231.5075165134
 30
0.0
 11
880.83859118
 21
1231.0125417665
 31
0.0
  0
CIRCLE
  5
230
330
1F
100
AcDbEntity
  8
1
  6
SLD-Сплошная
100
AcDbCircle
 10
882.5002921158
 20
1229.8458155776
 30
0.0
 40
4.999999999999879
  0
ELLIPSE
  5
231
330
1F
100
AcDbEntity
  8
1
  6
SLD-Сплошная
100
AcDbEllipse
 10
1000.0002921158
 20
1248.4152023589
 30
0.0
 11
0.0
 21
-0.4122489361054704
 31
0.0
210
0.0
220
0.0
230
1.0
 40
0.9702875252
 41
5.512866274278492
 42
7.053504340080899
  0
SPLINE
  5
232
330
1F
100
AcDbEntity
  8
1
  6
SLD-Сплошная
100
AcDbSpline
210
0.0
220
0.0
230
1.0
 70
     8
 71
     3
 72
    12
 73
     8
 74
     0
 42
0.00000001
 43
0.00000001
 40
0.0
 40
0.0
 40
0.0
 40
0.0
 40
0.2187857887071718
 40
0.4375776469534864
 40
0.6562353658863612
 40
0.8748419359490948
 40
1.0
 40
1.0
 40
1.0
 40
1.0
 10
999.7217464196559
 20
1248.458926071392
 30
0.0
 10
999.757071816525
 20
1248.43196264532
 30
0.0
 10
999.8277235902573
 20
1248.378035045159
 30
0.0
 10
999.9616868188983
 20
1248.345439156186
 30
0.0
 10
1000.097229445178
 20
1248.354788287427
 30
0.0
 10
1000.206127249472
 20
1248.398667045509
 30
0.0
 10
1000.259430960278
 20
1248.442842603796
 30
0.0
 10
1000.278837811912
 20
1248.458926071392
 30
0.0
  0
ELLIPSE
  5
233
330
1F
100
AcDbEntity
  8
1
  6
SLD-Сплошная
100
AcDbEllipse
 10
998.9309053345
 20
1247.3458155776
 30
0.0
 11
0.4122489361056978
 21
0.0
 31
0.0
210
0.0
220
0.0
230
1.0
 40
0.9702875252
 41
5.512866274278409
 42
7.053504340081186
  0
SPLINE
  5
234
330
1F
100
AcDbEntity
  8
1
  6
SLD-Сплошная
100
AcDbSpline
210
0.0
220
0.0
230
1.0
 70
     8
 71
     3
 72
    12
 73
     8
 74
     0
 42
0.00000001
 43
0.00000001
 40
0.0
 40
0.0
 40
0.0
 40
0.0
 40
0.2187857887072096
 40
0.4375776469534813
 40
0.6562353658864019
 40
0.8748419359490944
 40
1.0
 40
1.0
 40
1.0
 40
1.0
 10
998.8871816219718
 20
1247.067269881452
 30
0.0
 10
998.9141450480439
 20
1247.102595278321
 30
0.0
 10
998.9680726482053
 20
1247.173247052053
 30
0.0
 10
999.0006685371784
 20
1247.307210280694
 30
0.0
 10
998.9913194059362
 20
1247.442752906974
 30
0.0
 10
998.9474406478545
 20
1247.551650711268
 30
0.0
 10
998.903265089568
 20
1247.604954422074
 30
0.0
 10
998.8871816219718
 20
1247.624361273708
 30
0.0
  0
ELLIPSE
  5
235
330
1F
100
AcDbEntity
  8
1
  6
SLD-Сплошная
100
AcDbEllipse
 10
1001.0696788971
 20
1247.3458155776
 30
0.0
 11
-0.4122489361055841
 21
0.0
 31
0.0
210
0.0
220
0.0
230
1.0
 40
0.9702875252
 41
5.51286627427823
 42
7.053504340080548
  0
SPLINE
  5
236
330
1F
100
AcDbEntity
  8
1
  6
SLD-Сплошная
100
AcDbSpline
210
0.0
220
0.0
230
1.0
 70
     8
 71
     3
 72
    12
 73
     8
 74
     0
 42
0.00000001
 43
0.00000001
 40
0.0
 40
0.0
 40
0.0
 40
0.0
 40
0.2187857887071872
 40
0.4375776469534928
 40
0.6562353658863584
 40
0.8748419359491
 40
1.0
 40
1.0
 40
1.0
 40
1.0
 10
1001.113402609596
 20
1247.624361273708
 30
0.0
 10
1001.086439183524
 20
1247.589035876839
 30
0.0
 10
1001.032511583363
 20
1247.518384103107
 30
0.0
 10
1000.99991569439
 20
1247.384420874465
 30
0.0
 10
1001.009264825631
 20
1247.248878248186
 30
0.0
 10
1001.053143583714
 20
1247.139980443892
 30
0.0
 10
1001.097319142
 20
1247.086676733086
 30
0.0
 10
1001.113402609596
 20
1247.067269881452
 30
0.0
  0
ARC
  5
237
330
1F
100
AcDbEntity
  8
1
  6
SLD-Сплошная
100
AcDbCircle
 10
982.7550241349
 20
1264.5910835585
 30
0.0
 40
26.56195549561989
100
AcDbArc
 50
313.8816987744
 51
316.1183012256
  0
ARC
  5
238
330
1F
100
AcDbEntity
  8
1
  6
SLD-Сплошная
100
AcDbCircle
 10
983.9872691422
 20
1231.1044013416
 30
0.0
 40
23.41191191602638
100
AcDbArc
 50
40.0824770913
 51
42.9865596106
  0
ARC
  5
239
330
1F
100
AcDbEntity
  8
1
  6
SLD-Сплошная
100
AcDbCircle
 10
983.9872691422
 20
1263.5872298135
 30
0.0
 40
23.41191191602653
100
AcDbArc
 50
317.0134403894
 51
319.9175229087
  0
ARC
  5
23A
330
1F
100
AcDbEntity
  8
1
  6
SLD-Сплошная
100
AcDbCircle
 10
982.7550241345
 20
1230.1005475963
 30
0.0
 40
26.56195549614473
100
AcDbArc
 50
43.8816987744
 51
46.1183012256
  0
ARC
  5
23B
330
1F
100
AcDbEntity
  8
1
  6
SLD-Сплошная
100
AcDbCircle
 10
1016.241706352
 20
1231.3327926037
 30
0.0
 40
23.4119119163775
100
AcDbArc
 50
130.0824770913
 51
132.9865596106
  0
ARC
  5
23C
330
1F
100
AcDbEntity
  8
1
  6
SLD-Сплошная
100
AcDbCircle
 10
983.7588778795
 20
1231.3327926036
 30
0.0
 40
23.4119119164779
100
AcDbArc
 50
47.0134403894
 51
49.9175229087
  0
ARC
  5
23D
330
1F
100
AcDbEntity
  8
1
  6
SLD-Сплошная
100
AcDbCircle
 10
1017.2455600967
 20
1230.1005475966
 30
0.0
 40
26.56195549568942
100
AcDbArc
 50
133.8816987744
 51
136.1183012256
  0
ARC
  5
23E
330
1F
100
AcDbEntity
  8
1
  6
SLD-Сплошная
100
AcDbCircle
 10
1016.0133150894
 20
1263.5872298135
 30
0.0
 40
23.41191191603851
100
AcDbArc
 50
220.0824770913
 51
222.9865596106
  0
ARC
  5
23F
330
1F
100
AcDbEntity
  8
1
  6
SLD-Сплошная
100
AcDbCircle
 10
1016.0133150895
 20
1231.1044013415
 30
0.0
 40
23.41191191620646
100
AcDbArc
 50
137.0134403894
 51
139.9175229087
  0
ARC
  5
240
330
1F
100
AcDbEntity
  8
1
  6
SLD-Сплошная
100
AcDbCircle
 10
1017.245560097
 20
1264.5910835588
 30
0.0
 40
26.561955496082
100
AcDbArc
 50
223.8816987744
 51
226.1183012256
  0
ARC
  5
241
330
1F
100
AcDbEntity
  8
1
  6
SLD-Сплошная
100
AcDbCircle
 10
983.7588778798
 20
1263.3588385513
 30
0.0
 40
23.41191191614413
100
AcDbArc
 50
310.0824770913
 51
312.9865596106
  0
SPLINE
  5
242
330
1F
100
AcDbEntity
  8
1
  6
SLD-Сплошная
100
AcDbSpline
210
0.0
220
0.0
230
1.0
 70
     8
 71
     3
 72
    12
 73
     8
 74
     0
 42
0.00000001
 43
0.00000001
 40
0.0
 40
0.0
 40
0.0
 40
0.0
 40
0.218785788707225
 40
0.4375776469534876
 40
0.656235365886399
 40
0.8748419359490996
 40
1.0
 40
1.0
 40
1.0
 40
1.0
 10
1000.278837811912
 20
1246.232705083768
 30
0.0
 10
1000.243512415043
 20
1246.25966850984
 30
0.0
 10
1000.172860641311
 20
1246.313596110001
 30
0.0
 10
1000.03889741267
 20
1246.346191998974
 30
0.0
 10
999.9033547863896
 20
1246.336842867732
 30
0.0
 10
999.7944569820957
 20
1246.29296410965
 30
0.0
 10
999.7411532712898
 20
1246.248788551364
 30
0.0
 10
999.7217464196559
 20
1246.232705083768
 30
0.0
  0
ARC
  5
243
330
1F
100
AcDbEntity
  8
1
  6
SLD-Сплошная
100
AcDbCircle
 10
1016.2417063517
 20
1263.3588385512
 30
0.0
 40
23.41191191604343
100
AcDbArc
 50
227.0134403894
 51
229.9175229087
  0
CIRCLE
  5
244
330
1F
100
AcDbEntity
  8
1
  6
SLD-Сплошная
100
AcDbCircle
 10
1000.0002921158
 20
1247.3458155776
 30
0.0
 40
3.500000000000028
  0
ELLIPSE
  5
245
330
1F
100
AcDbEntity
  8
1
  6
SLD-Сплошная
100
AcDbEllipse
 10
1000.0002921158
 20
1246.2764287963
 30
0.0
 11
0.0
 21
0.4122489361054704
 31
0.0
210
0.0
220
0.0
230
1.0
 40
0.9702875252
 41
5.51286627427843
 42
7.053504340080551
  0
LINE
  5
246
330
1F
100
AcDbEntity
  8
1
  6
SLD-Сплошная
100
AcDbLine
 10
1001.9001527696
 20
1246.1790893886
 30
0.0
 11
1001.6619930516
 21
1246.1790893886
 31
0.0
  0
LINE
  5
247
330
1F
100
AcDbEntity
  8
1
  6
SLD-Сплошная
100
AcDbLine
 10
1001.6619930516
 20
1246.1790893886
 30
0.0
 11
1000.7738125587
 21
1247.0672698815
 31
0.0
  0
LINE
  5
248
330
1F
100
AcDbEntity
  8
1
  6
SLD-Сплошная
100
AcDbLine
 10
1001.1670183047
 20
1245.4459549238
 30
0.0
 11
1001.1670183047
 21
1245.6841146418
 31
0.0
  0
LINE
  5
249
330
1F
100
AcDbEntity
  8
1
  6
SLD-Сплошная
100
AcDbLine
 10
1000.2788378119
 20
1246.5722951346
 30
0.0
 11
1001.1670183047
 21
1245.6841146418
 31
0.0
  0
LINE
  5
24A
330
1F
100
AcDbEntity
  8
1
  6
SLD-Сплошная
100
AcDbLine
 10
998.100431462
 20
1248.5125417665
 30
0.0
 11
998.33859118
 21
1248.5125417665
 31
0.0
  0
LINE
  5
24B
330
1F
100
AcDbEntity
  8
1
  6
SLD-Сплошная
100
AcDbLine
 10
998.33859118
 20
1248.5125417665
 30
0.0
 11
999.2267716728
 21
1247.6243612737
 31
0.0
  0
LINE
  5
24C
330
1F
100
AcDbEntity
  8
1
  6
SLD-Сплошная
100
AcDbLine
 10
998.8335659268
 20
1249.2456762314
 30
0.0
 11
998.8335659268
 21
1249.0075165134
 31
0.0
  0
LINE
  5
24D
330
1F
100
AcDbEntity
  8
1
  6
SLD-Сплошная
100
AcDbLine
 10
999.7217464197
 20
1248.1193360205
 30
0.0
 11
998.8335659268
 21
1249.0075165134
 31
0.0
  0
LINE
  5
24E
330
1F
100
AcDbEntity
  8
1
  6
SLD-Сплошная
100
AcDbLine
 10
998.100431462
 20
1246.1790893886
 30
0.0
 11
998.33859118
 21
1246.1790893886
 31
0.0
  0
LINE
  5
24F
330
1F
100
AcDbEntity
  8
1
  6
SLD-Сплошная
100
AcDbLine
 10
999.2267716728
 20
1247.0672698815
 30
0.0
 11
998.33859118
 21
1246.1790893886
 31
0.0
  0
LINE
  5
250
330
1F
100
AcDbEntity
  8
1
  6
SLD-Сплошная
100
AcDbLine
 10
1001.1670183047
 20
1249.2456762314
 30
0.0
 11
1001.1670183047
 21
1249.0075165134
 31
0.0
  0
LINE
  5
251
330
1F
100
AcDbEntity
  8
1
  6
SLD-Сплошная
100
AcDbLine
 10
1001.1670183047
 20
1249.0075165134
 30
0.0
 11
1000.2788378119
 21
1248.1193360205
 31
0.0
  0
LINE
  5
252
330
1F
100
AcDbEntity
  8
1
  6
SLD-Сплошная
100
AcDbLine
 10
1001.9001527696
 20
1248.5125417665
 30
0.0
 11
1001.6619930516
 21
1248.5125417665
 31
0.0
  0
LINE
  5
253
330
1F
100
AcDbEntity
  8
1
  6
SLD-Сплошная
100
AcDbLine
 10
1000.7738125587
 20
1247.6243612737
 30
0.0
 11
1001.6619930516
 21
1248.5125417665
 31
0.0
  0
LINE
  5
254
330
1F
100
AcDbEntity
  8
1
  6
SLD-Сплошная
100
AcDbLine
 10
998.8335659268
 20
1245.4459549238
 30
0.0
 11
998.8335659268
 21
1245.6841146418
 31
0.0
  0
LINE
  5
255
330
1F
100
AcDbEntity
  8
1
  6
SLD-Сплошная
100
AcDbLine
 10
998.8335659268
 20
1245.6841146418
 30
0.0
 11
999.7217464197
 21
1246.5722951346
 31
0.0
  0
LINE
  5
256
330
1F
100
AcDbEntity
  8
1
  6
SLD-Сплошная
100
AcDbLine
 10
998.33859118
 20
1246.1790893886
 30
0.0
 11
998.8335659268
 21
1245.6841146418
 31
0.0
  0
LINE
  5
257
330
1F
100
AcDbEntity
  8
1
  6
SLD-Сплошная
100
AcDbLine
 10
1001.1670183047
 20
1245.6841146418
 30
0.0
 11
1001.6619930516
 21
1246.1790893886
 31
0.0
  0
LINE
  5
258
330
1F
100
AcDbEntity
  8
1
  6
SLD-Сплошная
100
AcDbLine
 10
1001.6619930516
 20
1248.5125417665
 30
0.0
 11
1001.1670183047
 21
1249.0075165134
 31
0.0
  0
LINE
  5
259
330
1F
100
AcDbEntity
  8
1
  6
SLD-Сплошная
100
AcDbLine
 10
998.8335659268
 20
1249.0075165134
 30
0.0
 11
998.33859118
 21
1248.5125417665
 31
0.0
  0
CIRCLE
  5
25A
330
1F
100
AcDbEntity
  8
1
  6
SLD-Сплошная
100
AcDbCircle
 10
1000.0002921158
 20
1247.3458155776
 30
0.0
 40
4.999999999999879
  0
ELLIPSE
  5
25B
330
1F
100
AcDbEntity
  8
1
  6
SLD-Сплошная
100
AcDbEllipse
 10
781.5870786618
 20
1229.2893721613
 30
0.0
 11
0.352044069943986
 21
0.2145091096842862
 31
0.0
210
0.0
220
0.0
230
1.0
 40
0.9702875252
 41
5.512866274278478
 42
7.0535043400807
  0
SPLINE
  5
25C
330
1F
100
AcDbEntity
  8
1
  6
SLD-Сплошная
100
AcDbSpline
210
0.0
220
0.0
230
1.0
 70
     8
 71
     3
 72
    12
 73
     8
 74
     0
 42
0.00000001
 43
0.00000001
 40
0.0
 40
0.0
 40
0.0
 40
0.0
 40
0.218785788707163
 40
0.4375776469534812
 40
0.6562353658863812
 40
0.8748419359490849
 40
1.0
 40
1.0
 40
1.0
 40
1.0
 10
781.6946784921477
 20
1229.028754156585
 30
0.0
 10
781.6993230034
 20
1229.0729507461
 30
0.0
 10
781.708612154752
 20
1229.161345151227
 30
0.0
 10
781.6667414742557
 20
1229.292705284908
 30
0.0
 10
781.5882296056593
 20
1229.403588540107
 30
0.0
 10
781.4940951538122
 20
1229.473751081154
 30
0.0
 10
781.4286350094295
 20
1229.496284057722
 30
0.0
 10
781.4048022351113
 20
1229.504487879304
 30
0.0
  0
ELLIPSE
  5
25D
330
1F
100
AcDbEntity
  8
1
  6
SLD-Сплошная
100
AcDbEllipse
 10
781.9438486995
 20
1230.7590290315
 30
0.0
 11
0.2145091096840588
 21
-0.3520440699442134
 31
0.0
210
0.0
220
0.0
230
1.0
 40
0.9702875252
 41
5.512866274279119
 42
7.053504340080546
  0
SPLINE
  5
25E
330
1F
100
AcDbEntity
  8
1
  6
SLD-Сплошная
100
AcDbSpline
210
0.0
220
0.0
230
1.0
 70
     8
 71
     3
 72
    12
 73
     8
 74
     0
 42
0.00000001
 43
0.00000001
 40
0.0
 40
0.0
 40
0.0
 40
0.0
 40
0.2187857887072001
 40
0.4375776469534799
 40
0.656235365886367
 40
0.8748419359490702
 40
1.0
 40
1.0
 40
1.0
 40
1.0
 10
781.6832306947891
 20
1230.651429201216
 30
0.0
 10
781.7274272843038
 20
1230.646784689964
 30
0.0
 10
781.8158216894315
 20
1230.637495538612
 30
0.0
 10
781.9471818231123
 20
1230.679366219108
 30
0.0
 10
782.0580650783106
 20
1230.757878087705
 30
0.0
 10
782.1282276193584
 20
1230.852012539552
 30
0.0
 10
782.1507605959263
 20
1230.917472683934
 30
0.0
 10
782.1589644175084
 20
1230.941305458253
 30
0.0
  0
ELLIPSE
  5
25F
330
1F
100
AcDbEntity
  8
1
  6
SLD-Сплошная
100
AcDbEllipse
 10
783.4135055697
 20
1230.4022589939
 30
0.0
 11
-0.352044069943986
 21
-0.2145091096842862
 31
0.0
210
0.0
220
0.0
230
1.0
 40
0.9702875252
 41
5.512866274278188
 42
7.053504340080384
  0
SPLINE
  5
260
330
1F
100
AcDbEntity
  8
1
  6
SLD-Сплошная
100
AcDbSpline
210
0.0
220
0.0
230
1.0
 70
     8
 71
     3
 72
    12
 73
     8
 74
     0
 42
0.00000001
 43
0.00000001
 40
0.0
 40
0.0
 40
0.0
 40
0.0
 40
0.2187857887071979
 40
0.4375776469535063
 40
0.656235365886396
 40
0.8748419359490901
 40
1.0
 40
1.0
 40
1.0
 40
1.0
 10
783.3059057394203
 20
1230.662876998575
 30
0.0
 10
783.3012612281681
 20
1230.61868040906
 30
0.0
 10
783.291972076816
 20
1230.530286003932
 30
0.0
 10
783.3338427573125
 20
1230.398925870252
 30
0.0
 10
783.4123546259087
 20
1230.288042615053
 30
0.0
 10
783.5064890777559
 20
1230.217880074006
 30
0.0
 10
783.5719492221384
 20
1230.195347097438
 30
0.0
 10
783.5957819964567
 20
1230.187143275855
 30
0.0
  0
ELLIPSE
  5
261
330
1F
100
AcDbEntity
  8
1
  6
SLD-Сплошная
100
AcDbEllipse
 10
783.0567355321
 20
1228.9326021236
 30
0.0
 11
-0.2145091096842862
 21
0.3520440699442133
 31
0.0
210
0.0
220
0.0
230
1.0
 40
0.9702875252
 41
5.512866274278508
 42
7.053504340080561
  0
SPLINE
  5
262
330
1F
100
AcDbEntity
  8
1
  6
SLD-Сплошная
100
AcDbSpline
210
0.0
220
0.0
230
1.0
 70
     8
 71
     3
 72
    12
 73
     8
 74
     0
 42
0.00000001
 43
0.00000001
 40
0.0
 40
0.0
 40
0.0
 40
0.0
 40
0.2187857887071963
 40
0.4375776469534701
 40
0.6562353658863769
 40
0.8748419359490738
 40
1.0
 40
1.0
 40
1.0
 40
1.0
 10
783.3173535367788
 20
1229.040201953944
 30
0.0
 10
783.2731569472642
 20
1229.044846465196
 30
0.0
 10
783.1847625421367
 20
1229.054135616548
 30
0.0
 10
783.0534024084558
 20
1229.012264936051
 30
0.0
 10
782.9425191532574
 20
1228.933753067455
 30
0.0
 10
782.8723566122096
 20
1228.839618615608
 30
0.0
 10
782.8498236356418
 20
1228.774158471226
 30
0.0
 10
782.8416198140595
 20
1228.750325696907
 30
0.0
  0
ARC
  5
263
330
1F
100
AcDbEntity
  8
1
  6
SLD-Сплошная
100
AcDbCircle
 10
758.8001426365
 20
1235.5992015508
 30
0.0
 40
26.56195549623535
100
AcDbArc
 50
345.2366779053
 51
347.4732803565
  0
ARC
  5
264
330
1F
100
AcDbEntity
  8
1
  6
SLD-Сплошная
100
AcDbCircle
 10
777.2768499588
 20
1207.6441018333
 30
0.0
 40
23.41191191629259
100
AcDbArc
 50
71.4374562222
 51
74.3415387414
  0
ARC
  5
265
330
1F
100
AcDbEntity
  8
1
  6
SLD-Сплошная
100
AcDbCircle
 10
760.3747745251
 20
1235.3831355508
 30
0.0
 40
23.41191191608459
100
AcDbArc
 50
348.3684195203
 51
351.2725020396
  0
ARC
  5
266
330
1F
100
AcDbEntity
  8
1
  6
SLD-Сплошная
100
AcDbCircle
 10
776.7469061426
 20
1206.1456660985
 30
0.0
 40
26.56195549604778
100
AcDbArc
 50
75.2366779053
 51
77.4732803565
  0
ARC
  5
267
330
1F
100
AcDbEntity
  8
1
  6
SLD-Сплошная
100
AcDbCircle
 10
804.7020058602
 20
1224.6223734206
 30
0.0
 40
23.41191191643028
100
AcDbArc
 50
161.4374562222
 51
164.3415387414
  0
ARC
  5
268
330
1F
100
AcDbEntity
  8
1
  6
SLD-Сплошная
100
AcDbCircle
 10
776.9629721425
 20
1207.7202979867
 30
0.0
 40
23.4119119162889
100
AcDbArc
 50
78.3684195203
 51
81.2725020395
  0
ARC
  5
269
330
1F
100
AcDbEntity
  8
1
  6
SLD-Сплошная
100
AcDbCircle
 10
806.2004415947
 20
1224.0924296044
 30
0.0
 40
26.56195549591463
100
AcDbArc
 50
165.2366779053
 51
167.4732803565
  0
ARC
  5
26A
330
1F
100
AcDbEntity
  8
1
  6
SLD-Сплошная
100
AcDbCircle
 10
787.7237342728
 20
1252.047529322
 30
0.0
 40
23.4119119164098
100
AcDbArc
 50
251.4374562222
 51
254.3415387414
  0
ARC
  5
26B
330
1F
100
AcDbEntity
  8
1
  6
SLD-Сплошная
100
AcDbCircle
 10
804.6258097066
 20
1224.3084956043
 30
0.0
 40
23.41191191624343
100
AcDbArc
 50
168.3684195203
 51
171.2725020396
  0
ARC
  5
26C
330
1F
100
AcDbEntity
  8
1
  6
SLD-Сплошная
100
AcDbCircle
 10
788.253678089
 20
1253.5459650564
 30
0.0
 40
26.56195549579265
100
AcDbArc
 50
255.2366779053
 51
257.4732803565
  0
ARC
  5
26D
330
1F
100
AcDbEntity
  8
1
  6
SLD-Сплошная
100
AcDbCircle
 10
760.2985783717
 20
1235.0692577345
 30
0.0
 40
23.41191191607596
100
AcDbArc
 50
341.4374562222
 51
344.3415387415
  0
ARC
  5
26E
330
1F
100
AcDbEntity
  8
1
  6
SLD-Сплошная
100
AcDbCircle
 10
788.0376120891
 20
1251.9713331688
 30
0.0
 40
23.41191191665141
100
AcDbArc
 50
258.3684195203
 51
261.2725020395
  0
CIRCLE
  5
26F
330
1F
100
AcDbEntity
  8
1
  6
SLD-Сплошная
100
AcDbCircle
 10
782.5002921158
 20
1229.8458155776
 30
0.0
 40
3.500000000000048
  0
LINE
  5
270
330
1F
100
AcDbEntity
  8
1
  6
SLD-Сплошная
100
AcDbLine
 10
784.7297898596
 20
1229.8380493509
 30
0.0
 11
784.526411005
 21
1229.714125613
 31
0.0
  0
LINE
  5
271
330
1F
100
AcDbEntity
  8
1
  6
SLD-Сплошная
100
AcDbLine
 10
784.526411005
 20
1229.714125613
 30
0.0
 11
783.3057857026
 21
1230.0104414021
 31
0.0
  0
LINE
  5
272
330
1F
100
AcDbEntity
  8
1
  6
SLD-Сплошная
100
AcDbLine
 10
784.4852007032
 20
1228.8305036042
 30
0.0
 11
784.3612769654
 21
1229.0338824588
 31
0.0
  0
LINE
  5
273
330
1F
100
AcDbEntity
  8
1
  6
SLD-Сплошная
100
AcDbLine
 10
783.140651663
 20
1229.3301982478
 30
0.0
 11
784.3612769654
 21
1229.0338824588
 31
0.0
  0
LINE
  5
274
330
1F
100
AcDbEntity
  8
1
  6
SLD-Сплошная
100
AcDbLine
 10
782.4925258891
 20
1227.6163178338
 30
0.0
 11
782.3686021513
 21
1227.8196966884
 31
0.0
  0
LINE
  5
275
330
1F
100
AcDbEntity
  8
1
  6
SLD-Сплошная
100
AcDbLine
 10
782.3686021513
 20
1227.8196966884
 30
0.0
 11
782.6649179403
 21
1229.0403219908
 31
0.0
  0
LINE
  5
276
330
1F
100
AcDbEntity
  8
1
  6
SLD-Сплошная
100
AcDbLine
 10
782.5080583425
 20
1232.0753133214
 30
0.0
 11
782.6319820803
 21
1231.8719344668
 31
0.0
  0
LINE
  5
277
330
1F
100
AcDbEntity
  8
1
  6
SLD-Сплошная
100
AcDbLine
 10
782.6319820803
 20
1231.8719344668
 30
0.0
 11
782.3356662913
 21
1230.6513091644
 31
0.0
  0
LINE
  5
278
330
1F
100
AcDbEntity
  8
1
  6
SLD-Сплошная
100
AcDbLine
 10
780.5153835283
 20
1230.861127551
 30
0.0
 11
780.6393072662
 21
1230.6577486964
 31
0.0
  0
LINE
  5
279
330
1F
100
AcDbEntity
  8
1
  6
SLD-Сплошная
100
AcDbLine
 10
781.8599325686
 20
1230.3614329074
 30
0.0
 11
780.6393072662
 21
1230.6577486964
 31
0.0
  0
LINE
  5
27A
330
1F
100
AcDbEntity
  8
1
  6
SLD-Сплошная
100
AcDbLine
 10
783.5156040892
 20
1231.830724165
 30
0.0
 11
783.3122252346
 21
1231.7068004272
 31
0.0
  0
LINE
  5
27B
330
1F
100
AcDbEntity
  8
1
  6
SLD-Сплошная
100
AcDbLine
 10
783.0159094456
 20
1230.4861751248
 30
0.0
 11
783.3122252346
 21
1231.7068004272
 31
0.0
  0
LINE
  5
27C
330
1F
100
AcDbEntity
  8
1
  6
SLD-Сплошная
100
AcDbLine
 10
780.270794372
 20
1229.8535818043
 30
0.0
 11
780.4741732266
 21
1229.9775055421
 31
0.0
  0
LINE
  5
27D
330
1F
100
AcDbEntity
  8
1
  6
SLD-Сплошная
100
AcDbLine
 10
780.4741732266
 20
1229.9775055421
 30
0.0
 11
781.694798529
 21
1229.6811897531
 31
0.0
  0
LINE
  5
27E
330
1F
100
AcDbEntity
  8
1
  6
SLD-Сплошная
100
AcDbLine
 10
781.4849801424
 20
1227.8609069901
 30
0.0
 11
781.688358997
 21
1227.984830728
 31
0.0
  0
LINE
  5
27F
330
1F
100
AcDbEntity
  8
1
  6
SLD-Сплошная
100
AcDbLine
 10
781.984674786
 20
1229.2054560303
 30
0.0
 11
781.688358997
 21
1227.984830728
 31
0.0
  0
LINE
  5
280
330
1F
100
AcDbEntity
  8
1
  6
SLD-Сплошная
100
AcDbLine
 10
781.688358997
 20
1227.984830728
 30
0.0
 11
782.3686021513
 21
1227.8196966884
 31
0.0
  0
LINE
  5
281
330
1F
100
AcDbEntity
  8
1
  6
SLD-Сплошная
100
AcDbLine
 10
784.3612769654
 20
1229.0338824588
 30
0.0
 11
784.526411005
 21
1229.714125613
 31
0.0
  0
LINE
  5
282
330
1F
100
AcDbEntity
  8
1
  6
SLD-Сплошная
100
AcDbLine
 10
783.3122252346
 20
1231.7068004272
 30
0.0
 11
782.6319820803
 21
1231.8719344668
 31
0.0
  0
LINE
  5
283
330
1F
100
AcDbEntity
  8
1
  6
SLD-Сплошная
100
AcDbLine
 10
780.6393072662
 20
1230.6577486964
 30
0.0
 11
780.4741732266
 21
1229.9775055421
 31
0.0
  0
CIRCLE
  5
284
330
1F
100
AcDbEntity
  8
1
  6
SLD-Сплошная
100
AcDbCircle
 10
782.5002921158
 20
1229.8458155776
 30
0.0
 40
5.000000000000028
  0
ARC
  5
285
330
1F
100
AcDbEntity
  8
1
  6
SLD-Сплошная
100
AcDbCircle
 10
565.2550241345
 20
1247.0910835589
 30
0.0
 40
26.56195549614337
100
AcDbArc
 50
313.8816987744
 51
316.1183012256
  0
ARC
  5
286
330
1F
100
AcDbEntity
  8
1
  6
SLD-Сплошная
100
AcDbCircle
 10
566.4872691419
 20
1213.6044013414
 30
0.0
 40
23.41191191642329
100
AcDbArc
 50
40.0824770913
 51
42.9865596106
  0
SPLINE
  5
287
330
1F
100
AcDbEntity
  8
1
  6
SLD-Сплошная
100
AcDbSpline
210
0.0
220
0.0
230
1.0
 70
     8
 71
     3
 72
    12
 73
     8
 74
     0
 42
0.00000001
 43
0.00000001
 40
0.0
 40
0.0
 40
0.0
 40
0.0
 40
0.2187857887072258
 40
0.4375776469534892
 40
0.6562353658863563
 40
0.8748419359490992
 40
1.0
 40
1.0
 40
1.0
 40
1.0
 10
583.6134026095963
 20
1230.124361273708
 30
0.0
 10
583.5864391835241
 20
1230.089035876839
 30
0.0
 10
583.5325115833627
 20
1230.018384103106
 30
0.0
 10
583.4999156943896
 20
1229.884420874465
 30
0.0
 10
583.5092648256317
 20
1229.748878248185
 30
0.0
 10
583.5531435837136
 20
1229.639980443891
 30
0.0
 10
583.5973191420001
 20
1229.586676733085
 30
0.0
 10
583.6134026095963
 20
1229.567269881452
 30
0.0
  0
ARC
  5
288
330
1F
100
AcDbEntity
  8
1
  6
SLD-Сплошная
100
AcDbCircle
 10
566.4872691417
 20
1246.0872298139
 30
0.0
 40
23.4119119166223
100
AcDbArc
 50
317.0134403895
 51
319.9175229087
  0
ARC
  5
289
330
1F
100
AcDbEntity
  8
1
  6
SLD-Сплошная
100
AcDbCircle
 10
565.255024134
 20
1212.6005475958
 30
0.0
 40
26.56195549691029
100
AcDbArc
 50
43.8816987744
 51
46.1183012255
  0
ARC
  5
28A
330
1F
100
AcDbEntity
  8
1
  6
SLD-Сплошная
100
AcDbCircle
 10
598.7417063519
 20
1213.8327926037
 30
0.0
 40
23.41191191630406
100
AcDbArc
 50
130.0824770913
 51
132.9865596106
  0
SPLINE
  5
28B
330
1F
100
AcDbEntity
  8
1
  6
SLD-Сплошная
100
AcDbSpline
210
0.0
220
0.0
230
1.0
 70
     8
 71
     3
 72
    12
 73
     8
 74
     0
 42
0.00000001
 43
0.00000001
 40
0.0
 40
0.0
 40
0.0
 40
0.0
 40
0.2187857887071718
 40
0.4375776469534864
 40
0.6562353658863612
 40
0.8748419359490948
 40
1.0
 40
1.0
 40
1.0
 40
1.0
 10
582.2217464196559
 20
1230.958926071392
 30
0.0
 10
582.257071816525
 20
1230.93196264532
 30
0.0
 10
582.3277235902573
 20
1230.878035045158
 30
0.0
 10
582.4616868188983
 20
1230.845439156185
 30
0.0
 10
582.5972294451783
 20
1230.854788287427
 30
0.0
 10
582.7061272494724
 20
1230.898667045509
 30
0.0
 10
582.7594309602782
 20
1230.942842603795
 30
0.0
 10
582.7788378119121
 20
1230.958926071392
 30
0.0
  0
ARC
  5
28C
330
1F
100
AcDbEntity
  8
1
  6
SLD-Сплошная
100
AcDbCircle
 10
566.2588778797
 20
1213.8327926037
 30
0.0
 40
23.41191191630294
100
AcDbArc
 50
47.0134403894
 51
49.9175229087
  0
ARC
  5
28D
330
1F
100
AcDbEntity
  8
1
  6
SLD-Сплошная
100
AcDbCircle
 10
599.7455600972
 20
1212.6005475962
 30
0.0
 40
26.56195549626348
100
AcDbArc
 50
133.8816987744
 51
136.1183012256
  0
ARC
  5
28E
330
1F
100
AcDbEntity
  8
1
  6
SLD-Сплошная
100
AcDbCircle
 10
598.5133150897
 20
1246.0872298138
 30
0.0
 40
23.41191191645264
100
AcDbArc
 50
220.0824770913
 51
222.9865596106
  0
SPLINE
  5
28F
330
1F
100
AcDbEntity
  8
1
  6
SLD-Сплошная
100
AcDbSpline
210
0.0
220
0.0
230
1.0
 70
     8
 71
     3
 72
    12
 73
     8
 74
     0
 42
0.00000001
 43
0.00000001
 40
0.0
 40
0.0
 40
0.0
 40
0.0
 40
0.2187857887072096
 40
0.4375776469534813
 40
0.6562353658864019
 40
0.8748419359490944
 40
1.0
 40
1.0
 40
1.0
 40
1.0
 10
581.3871816219718
 20
1229.567269881452
 30
0.0
 10
581.4141450480438
 20
1229.60259527832
 30
0.0
 10
581.4680726482053
 20
1229.673247052053
 30
0.0
 10
581.5006685371784
 20
1229.807210280694
 30
0.0
 10
581.4913194059363
 20
1229.942752906974
 30
0.0
 10
581.4474406478545
 20
1230.051650711268
 30
0.0
 10
581.403265089568
 20
1230.104954422074
 30
0.0
 10
581.3871816219718
 20
1230.124361273708
 30
0.0
  0
ARC
  5
290
330
1F
100
AcDbEntity
  8
1
  6
SLD-Сплошная
100
AcDbCircle
 10
598.5133150896
 20
1213.6044013415
 30
0.0
 40
23.41191191625362
100
AcDbArc
 50
137.0134403894
 51
139.9175229087
  0
ARC
  5
291
330
1F
100
AcDbEntity
  8
1
  6
SLD-Сплошная
100
AcDbCircle
 10
599.7455600966
 20
1247.0910835584
 30
0.0
 40
26.56195549555161
100
AcDbArc
 50
223.8816987744
 51
226.1183012256
  0
ARC
  5
292
330
1F
100
AcDbEntity
  8
1
  6
SLD-Сплошная
100
AcDbCircle
 10
566.2588778799
 20
1245.8588385512
 30
0.0
 40
23.41191191596492
100
AcDbArc
 50
310.0824770913
 51
312.9865596106
  0
SPLINE
  5
293
330
1F
100
AcDbEntity
  8
1
  6
SLD-Сплошная
100
AcDbSpline
210
0.0
220
0.0
230
1.0
 70
     8
 71
     3
 72
    12
 73
     8
 74
     0
 42
0.00000001
 43
0.00000001
 40
0.0
 40
0.0
 40
0.0
 40
0.0
 40
0.218785788707225
 40
0.4375776469534876
 40
0.656235365886399
 40
0.8748419359490996
 40
1.0
 40
1.0
 40
1.0
 40
1.0
 10
582.7788378119121
 20
1228.732705083767
 30
0.0
 10
582.743512415043
 20
1228.759668509839
 30
0.0
 10
582.6728606413108
 20
1228.813596110001
 30
0.0
 10
582.5388974126696
 20
1228.846191998974
 30
0.0
 10
582.4033547863896
 20
1228.836842867732
 30
0.0
 10
582.2944569820957
 20
1228.79296410965
 30
0.0
 10
582.2411532712899
 20
1228.748788551364
 30
0.0
 10
582.2217464196559
 20
1228.732705083767
 30
0.0
  0
ARC
  5
294
330
1F
100
AcDbEntity
  8
1
  6
SLD-Сплошная
100
AcDbCircle
 10
598.7417063516
 20
1245.8588385511
 30
0.0
 40
23.41191191586437
100
AcDbArc
 50
227.0134403894
 51
229.9175229087
  0
CIRCLE
  5
295
330
1F
100
AcDbEntity
  8
1
  6
SLD-Сплошная
100
AcDbCircle
 10
582.5002921158
 20
1229.8458155776
 30
0.0
 40
3.500000000000109
  0
ELLIPSE
  5
296
330
1F
100
AcDbEntity
  8
1
  6
SLD-Сплошная
100
AcDbEllipse
 10
582.5002921158
 20
1228.7764287963
 30
0.0
 11
0.0
 21
0.4122489361059252
 31
0.0
210
0.0
220
0.0
230
1.0
 40
0.9702875252
 41
5.512866274278324
 42
7.053504340081066
  0
ELLIPSE
  5
297
330
1F
100
AcDbEntity
  8
1
  6
SLD-Сплошная
100
AcDbEllipse
 10
581.4309053345
 20
1229.8458155776
 30
0.0
 11
0.4122489361055841
 21
0.0
 31
0.0
210
0.0
220
0.0
230
1.0
 40
0.9702875252
 41
5.512866274278639
 42
7.05350434008014
  0
ELLIPSE
  5
298
330
1F
100
AcDbEntity
  8
1
  6
SLD-Сплошная
100
AcDbEllipse
 10
582.5002921158
 20
1230.9152023589
 30
0.0
 11
0.0
 21
-0.4122489361056978
 31
0.0
210
0.0
220
0.0
230
1.0
 40
0.9702875252
 41
5.512866274278538
 42
7.053504340080444
  0
ELLIPSE
  5
299
330
1F
100
AcDbEntity
  8
1
  6
SLD-Сплошная
100
AcDbEllipse
 10
583.5696788971
 20
1229.8458155776
 30
0.0
 11
-0.4122489361055841
 21
0.0
 31
0.0
210
0.0
220
0.0
230
1.0
 40
0.9702875252
 41
5.512866274279046
 42
7.053504340080548
  0
LINE
  5
29A
330
1F
100
AcDbEntity
  8
1
  6
SLD-Сплошная
100
AcDbLine
 10
584.4001527696
 20
1228.6790893886
 30
0.0
 11
584.1619930516
 21
1228.6790893886
 31
0.0
  0
LINE
  5
29B
330
1F
100
AcDbEntity
  8
1
  6
SLD-Сплошная
100
AcDbLine
 10
584.1619930516
 20
1228.6790893886
 30
0.0
 11
583.2738125587
 21
1229.5672698815
 31
0.0
  0
LINE
  5
29C
330
1F
100
AcDbEntity
  8
1
  6
SLD-Сплошная
100
AcDbLine
 10
583.6670183047
 20
1227.9459549238
 30
0.0
 11
583.6670183047
 21
1228.1841146418
 31
0.0
  0
LINE
  5
29D
330
1F
100
AcDbEntity
  8
1
  6
SLD-Сплошная
100
AcDbLine
 10
582.7788378119
 20
1229.0722951346
 30
0.0
 11
583.6670183047
 21
1228.1841146418
 31
0.0
  0
LINE
  5
29E
330
1F
100
AcDbEntity
  8
1
  6
SLD-Сплошная
100
AcDbLine
 10
580.600431462
 20
1228.6790893886
 30
0.0
 11
580.83859118
 21
1228.6790893886
 31
0.0
  0
LINE
  5
29F
330
1F
100
AcDbEntity
  8
1
  6
SLD-Сплошная
100
AcDbLine
 10
581.7267716728
 20
1229.5672698815
 30
0.0
 11
580.83859118
 21
1228.6790893886
 31
0.0
  0
LINE
  5
2A0
330
1F
100
AcDbEntity
  8
1
  6
SLD-Сплошная
100
AcDbLine
 10
581.3335659268
 20
1227.9459549238
 30
0.0
 11
581.3335659268
 21
1228.1841146418
 31
0.0
  0
LINE
  5
2A1
330
1F
100
AcDbEntity
  8
1
  6
SLD-Сплошная
100
AcDbLine
 10
581.3335659268
 20
1228.1841146418
 30
0.0
 11
582.2217464197
 21
1229.0722951346
 31
0.0
  0
LINE
  5
2A2
330
1F
100
AcDbEntity
  8
1
  6
SLD-Сплошная
100
AcDbLine
 10
580.600431462
 20
1231.0125417665
 30
0.0
 11
580.83859118
 21
1231.0125417665
 31
0.0
  0
LINE
  5
2A3
330
1F
100
AcDbEntity
  8
1
  6
SLD-Сплошная
100
AcDbLine
 10
580.83859118
 20
1231.0125417665
 30
0.0
 11
581.7267716728
 21
1230.1243612737
 31
0.0
  0
LINE
  5
2A4
330
1F
100
AcDbEntity
  8
1
  6
SLD-Сплошная
100
AcDbLine
 10
581.3335659268
 20
1231.7456762314
 30
0.0
 11
581.3335659268
 21
1231.5075165134
 31
0.0
  0
LINE
  5
2A5
330
1F
100
AcDbEntity
  8
1
  6
SLD-Сплошная
100
AcDbLine
 10
582.2217464197
 20
1230.6193360205
 30
0.0
 11
581.3335659268
 21
1231.5075165134
 31
0.0
  0
LINE
  5
2A6
330
1F
100
AcDbEntity
  8
1
  6
SLD-Сплошная
100
AcDbLine
 10
583.6670183047
 20
1231.7456762314
 30
0.0
 11
583.6670183047
 21
1231.5075165134
 31
0.0
  0
LINE
  5
2A7
330
1F
100
AcDbEntity
  8
1
  6
SLD-Сплошная
100
AcDbLine
 10
583.6670183047
 20
1231.5075165134
 30
0.0
 11
582.7788378119
 21
1230.6193360205
 31
0.0
  0
LINE
  5
2A8
330
1F
100
AcDbEntity
  8
1
  6
SLD-Сплошная
100
AcDbLine
 10
584.4001527696
 20
1231.0125417665
 30
0.0
 11
584.1619930516
 21
1231.0125417665
 31
0.0
  0
LINE
  5
2A9
330
1F
100
AcDbEntity
  8
1
  6
SLD-Сплошная
100
AcDbLine
 10
583.2738125587
 20
1230.1243612737
 30
0.0
 11
584.1619930516
 21
1231.0125417665
 31
0.0
  0
LINE
  5
2AA
330
1F
100
AcDbEntity
  8
1
  6
SLD-Сплошная
100
AcDbLine
 10
580.83859118
 20
1228.6790893886
 30
0.0
 11
581.3335659268
 21
1228.1841146418
 31
0.0
  0
LINE
  5
2AB
330
1F
100
AcDbEntity
  8
1
  6
SLD-Сплошная
100
AcDbLine
 10
583.6670183047
 20
1228.1841146418
 30
0.0
 11
584.1619930516
 21
1228.6790893886
 31
0.0
  0
LINE
  5
2AC
330
1F
100
AcDbEntity
  8
1
  6
SLD-Сплошная
100
AcDbLine
 10
584.1619930516
 20
1231.0125417665
 30
0.0
 11
583.6670183047
 21
1231.5075165134
 31
0.0
  0
LINE
  5
2AD
330
1F
100
AcDbEntity
  8
1
  6
SLD-Сплошная
100
AcDbLine
 10
581.3335659268
 20
1231.5075165134
 30
0.0
 11
580.83859118
 21
1231.0125417665
 31
0.0
  0
CIRCLE
  5
2AE
330
1F
100
AcDbEntity
  8
1
  6
SLD-Сплошная
100
AcDbCircle
 10
582.5002921158
 20
1229.8458155776
 30
0.0
 40
5.000000000000041
  0
ELLIPSE
  5
2AF
330
1F
100
AcDbEntity
  8
1
  6
SLD-Сплошная
100
AcDbEllipse
 10
566.0696788971
 20
1247.3458155776
 30
0.0
 11
-0.4122489361055841
 21
0.0
 31
0.0
210
0.0
220
0.0
230
1.0
 40
0.9702875252
 41
5.512866274278514
 42
7.053504340079856
  0
SPLINE
  5
2B0
330
1F
100
AcDbEntity
  8
1
  6
SLD-Сплошная
100
AcDbSpline
210
0.0
220
0.0
230
1.0
 70
     8
 71
     3
 72
    12
 73
     8
 74
     0
 42
0.00000001
 43
0.00000001
 40
0.0
 40
0.0
 40
0.0
 40
0.0
 40
0.2187857887071872
 40
0.4375776469534928
 40
0.6562353658863584
 40
0.8748419359491
 40
1.0
 40
1.0
 40
1.0
 40
1.0
 10
566.1134026095963
 20
1247.624361273708
 30
0.0
 10
566.0864391835242
 20
1247.589035876839
 30
0.0
 10
566.0325115833627
 20
1247.518384103107
 30
0.0
 10
565.9999156943895
 20
1247.384420874465
 30
0.0
 10
566.0092648256318
 20
1247.248878248186
 30
0.0
 10
566.0531435837134
 20
1247.139980443891
 30
0.0
 10
566.0973191420001
 20
1247.086676733086
 30
0.0
 10
566.1134026095963
 20
1247.067269881452
 30
0.0
  0
ARC
  5
2B1
330
1F
100
AcDbEntity
  8
1
  6
SLD-Сплошная
100
AcDbCircle
 10
547.7550241353
 20
1264.5910835581
 30
0.0
 40
26.56195549505829
100
AcDbArc
 50
313.8816987744
 51
316.1183012256
  0
ARC
  5
2B2
330
1F
100
AcDbEntity
  8
1
  6
SLD-Сплошная
100
AcDbCircle
 10
548.9872691421
 20
1231.1044013416
 30
0.0
 40
23.41191191612344
100
AcDbArc
 50
40.0824770913
 51
42.9865596106
  0
ARC
  5
2B3
330
1F
100
AcDbEntity
  8
1
  6
SLD-Сплошная
100
AcDbCircle
 10
548.9872691421
 20
1263.5872298136
 30
0.0
 40
23.41191191612359
100
AcDbArc
 50
317.0134403894
 51
319.9175229087
  0
ARC
  5
2B4
330
1F
100
AcDbEntity
  8
1
  6
SLD-Сплошная
100
AcDbCircle
 10
547.7550241351
 20
1230.1005475969
 30
0.0
 40
26.56195549529667
100
AcDbArc
 50
43.8816987744
 51
46.1183012256
  0
ARC
  5
2B5
330
1F
100
AcDbEntity
  8
1
  6
SLD-Сплошная
100
AcDbCircle
 10
581.241706352
 20
1231.3327926036
 30
0.0
 40
23.41191191650519
100
AcDbArc
 50
130.0824770913
 51
132.9865596106
  0
SPLINE
  5
2B6
330
1F
100
AcDbEntity
  8
1
  6
SLD-Сплошная
100
AcDbSpline
210
0.0
220
0.0
230
1.0
 70
     8
 71
     3
 72
    12
 73
     8
 74
     0
 42
0.00000001
 43
0.00000001
 40
0.0
 40
0.0
 40
0.0
 40
0.0
 40
0.2187857887071718
 40
0.4375776469534864
 40
0.6562353658863612
 40
0.8748419359490948
 40
1.0
 40
1.0
 40
1.0
 40
1.0
 10
564.721746419656
 20
1248.458926071392
 30
0.0
 10
564.7570718165249
 20
1248.43196264532
 30
0.0
 10
564.8277235902574
 20
1248.378035045159
 30
0.0
 10
564.9616868188983
 20
1248.345439156185
 30
0.0
 10
565.0972294451784
 20
1248.354788287427
 30
0.0
 10
565.2061272494724
 20
1248.398667045509
 30
0.0
 10
565.2594309602783
 20
1248.442842603796
 30
0.0
 10
565.278837811912
 20
1248.458926071392
 30
0.0
  0
ARC
  5
2B7
330
1F
100
AcDbEntity
  8
1
  6
SLD-Сплошная
100
AcDbCircle
 10
548.7588778796
 20
1231.3327926036
 30
0.0
 40
23.41191191644952
100
AcDbArc
 50
47.0134403894
 51
49.9175229087
  0
ARC
  5
2B8
330
1F
100
AcDbEntity
  8
1
  6
SLD-Сплошная
100
AcDbCircle
 10
582.2455600967
 20
1230.1005475967
 30
0.0
 40
26.56195549561687
100
AcDbArc
 50
133.8816987744
 51
136.1183012256
  0
ARC
  5
2B9
330
1F
100
AcDbEntity
  8
1
  6
SLD-Сплошная
100
AcDbCircle
 10
581.0133150894
 20
1263.5872298135
 30
0.0
 40
23.41191191607285
100
AcDbArc
 50
220.0824770913
 51
222.9865596106
  0
SPLINE
  5
2BA
330
1F
100
AcDbEntity
  8
1
  6
SLD-Сплошная
100
AcDbSpline
210
0.0
220
0.0
230
1.0
 70
     8
 71
     3
 72
    12
 73
     8
 74
     0
 42
0.00000001
 43
0.00000001
 40
0.0
 40
0.0
 40
0.0
 40
0.0
 40
0.2187857887072096
 40
0.4375776469534813
 40
0.6562353658864019
 40
0.8748419359490944
 40
1.0
 40
1.0
 40
1.0
 40
1.0
 10
563.8871816219718
 20
1247.067269881452
 30
0.0
 10
563.9141450480438
 20
1247.102595278321
 30
0.0
 10
563.9680726482053
 20
1247.173247052053
 30
0.0
 10
564.0006685371783
 20
1247.307210280694
 30
0.0
 10
563.9913194059362
 20
1247.442752906974
 30
0.0
 10
563.9474406478545
 20
1247.551650711268
 30
0.0
 10
563.903265089568
 20
1247.604954422074
 30
0.0
 10
563.8871816219718
 20
1247.624361273708
 30
0.0
  0
ARC
  5
2BB
330
1F
100
AcDbEntity
  8
1
  6
SLD-Сплошная
100
AcDbCircle
 10
581.0133150894
 20
1231.1044013416
 30
0.0
 40
23.41191191607271
100
AcDbArc
 50
137.0134403894
 51
139.9175229087
  0
ARC
  5
2BC
330
1F
100
AcDbEntity
  8
1
  6
SLD-Сплошная
100
AcDbCircle
 10
582.2455600963
 20
1264.5910835581
 30
0.0
 40
26.56195549504695
100
AcDbArc
 50
223.8816987744
 51
226.1183012256
  0
ARC
  5
2BD
330
1F
100
AcDbEntity
  8
1
  6
SLD-Сплошная
100
AcDbCircle
 10
548.7588778795
 20
1263.3588385516
 30
0.0
 40
23.41191191652195
100
AcDbArc
 50
310.0824770913
 51
312.9865596105
  0
SPLINE
  5
2BE
330
1F
100
AcDbEntity
  8
1
  6
SLD-Сплошная
100
AcDbSpline
210
0.0
220
0.0
230
1.0
 70
     8
 71
     3
 72
    12
 73
     8
 74
     0
 42
0.00000001
 43
0.00000001
 40
0.0
 40
0.0
 40
0.0
 40
0.0
 40
0.218785788707225
 40
0.4375776469534876
 40
0.656235365886399
 40
0.8748419359490996
 40
1.0
 40
1.0
 40
1.0
 40
1.0
 10
565.278837811912
 20
1246.232705083767
 30
0.0
 10
565.2435124150431
 20
1246.259668509839
 30
0.0
 10
565.1728606413108
 20
1246.313596110001
 30
0.0
 10
565.0388974126697
 20
1246.346191998974
 30
0.0
 10
564.9033547863896
 20
1246.336842867732
 30
0.0
 10
564.7944569820958
 20
1246.29296410965
 30
0.0
 10
564.7411532712898
 20
1246.248788551364
 30
0.0
 10
564.721746419656
 20
1246.232705083767
 30
0.0
  0
ARC
  5
2BF
330
1F
100
AcDbEntity
  8
1
  6
SLD-Сплошная
100
AcDbCircle
 10
581.241706352
 20
1263.3588385515
 30
0.0
 40
23.4119119164761
100
AcDbArc
 50
227.0134403894
 51
229.9175229087
  0
CIRCLE
  5
2C0
330
1F
100
AcDbEntity
  8
1
  6
SLD-Сплошная
100
AcDbCircle
 10
565.0002921158
 20
1247.3458155776
 30
0.0
 40
3.499999999999948
  0
ELLIPSE
  5
2C1
330
1F
100
AcDbEntity
  8
1
  6
SLD-Сплошная
100
AcDbEllipse
 10
565.0002921158
 20
1246.2764287963
 30
0.0
 11
0.0
 21
0.4122489361054704
 31
0.0
210
0.0
220
0.0
230
1.0
 40
0.9702875252
 41
5.512866274279222
 42
7.053504340080169
  0
ELLIPSE
  5
2C2
330
1F
100
AcDbEntity
  8
1
  6
SLD-Сплошная
100
AcDbEllipse
 10
563.9309053345
 20
1247.3458155776
 30
0.0
 11
0.4122489361056978
 21
0.0
 31
0.0
210
0.0
220
0.0
230
1.0
 40
0.9702875252
 41
5.512866274278816
 42
7.053504340081186
  0
ELLIPSE
  5
2C3
330
1F
100
AcDbEntity
  8
1
  6
SLD-Сплошная
100
AcDbEllipse
 10
565.0002921158
 20
1248.4152023589
 30
0.0
 11
0.0
 21
-0.4122489361056978
 31
0.0
210
0.0
220
0.0
230
1.0
 40
0.9702875252
 41
5.512866274278884
 42
7.053504340080098
  0
LINE
  5
2C4
330
1F
100
AcDbEntity
  8
1
  6
SLD-Сплошная
100
AcDbLine
 10
566.9001527696
 20
1246.1790893886
 30
0.0
 11
566.6619930516
 21
1246.1790893886
 31
0.0
  0
LINE
  5
2C5
330
1F
100
AcDbEntity
  8
1
  6
SLD-Сплошная
100
AcDbLine
 10
566.6619930516
 20
1246.1790893886
 30
0.0
 11
565.7738125587
 21
1247.0672698815
 31
0.0
  0
LINE
  5
2C6
330
1F
100
AcDbEntity
  8
1
  6
SLD-Сплошная
100
AcDbLine
 10
566.1670183047
 20
1245.4459549238
 30
0.0
 11
566.1670183047
 21
1245.6841146418
 31
0.0
  0
LINE
  5
2C7
330
1F
100
AcDbEntity
  8
1
  6
SLD-Сплошная
100
AcDbLine
 10
565.2788378119
 20
1246.5722951346
 30
0.0
 11
566.1670183047
 21
1245.6841146418
 31
0.0
  0
LINE
  5
2C8
330
1F
100
AcDbEntity
  8
1
  6
SLD-Сплошная
100
AcDbLine
 10
566.9001527696
 20
1248.5125417665
 30
0.0
 11
566.6619930516
 21
1248.5125417665
 31
0.0
  0
LINE
  5
2C9
330
1F
100
AcDbEntity
  8
1
  6
SLD-Сплошная
100
AcDbLine
 10
565.7738125587
 20
1247.6243612737
 30
0.0
 11
566.6619930516
 21
1248.5125417665
 31
0.0
  0
LINE
  5
2CA
330
1F
100
AcDbEntity
  8
1
  6
SLD-Сплошная
100
AcDbLine
 10
563.8335659268
 20
1245.4459549238
 30
0.0
 11
563.8335659268
 21
1245.6841146418
 31
0.0
  0
LINE
  5
2CB
330
1F
100
AcDbEntity
  8
1
  6
SLD-Сплошная
100
AcDbLine
 10
563.8335659268
 20
1245.6841146418
 30
0.0
 11
564.7217464197
 21
1246.5722951346
 31
0.0
  0
LINE
  5
2CC
330
1F
100
AcDbEntity
  8
1
  6
SLD-Сплошная
100
AcDbLine
 10
563.100431462
 20
1248.5125417665
 30
0.0
 11
563.33859118
 21
1248.5125417665
 31
0.0
  0
LINE
  5
2CD
330
1F
100
AcDbEntity
  8
1
  6
SLD-Сплошная
100
AcDbLine
 10
563.33859118
 20
1248.5125417665
 30
0.0
 11
564.2267716728
 21
1247.6243612737
 31
0.0
  0
LINE
  5
2CE
330
1F
100
AcDbEntity
  8
1
  6
SLD-Сплошная
100
AcDbLine
 10
563.100431462
 20
1246.1790893886
 30
0.0
 11
563.33859118
 21
1246.1790893886
 31
0.0
  0
LINE
  5
2CF
330
1F
100
AcDbEntity
  8
1
  6
SLD-Сплошная
100
AcDbLine
 10
564.2267716728
 20
1247.0672698815
 30
0.0
 11
563.33859118
 21
1246.1790893886
 31
0.0
  0
LINE
  5
2D0
330
1F
100
AcDbEntity
  8
1
  6
SLD-Сплошная
100
AcDbLine
 10
566.1670183047
 20
1249.2456762314
 30
0.0
 11
566.1670183047
 21
1249.0075165134
 31
0.0
  0
LINE
  5
2D1
330
1F
100
AcDbEntity
  8
1
  6
SLD-Сплошная
100
AcDbLine
 10
566.1670183047
 20
1249.0075165134
 30
0.0
 11
565.2788378119
 21
1248.1193360205
 31
0.0
  0
LINE
  5
2D2
330
1F
100
AcDbEntity
  8
1
  6
SLD-Сплошная
100
AcDbLine
 10
563.8335659268
 20
1249.2456762314
 30
0.0
 11
563.8335659268
 21
1249.0075165134
 31
0.0
  0
LINE
  5
2D3
330
1F
100
AcDbEntity
  8
1
  6
SLD-Сплошная
100
AcDbLine
 10
564.7217464197
 20
1248.1193360205
 30
0.0
 11
563.8335659268
 21
1249.0075165134
 31
0.0
  0
LINE
  5
2D4
330
1F
100
AcDbEntity
  8
1
  6
SLD-Сплошная
100
AcDbLine
 10
563.33859118
 20
1246.1790893886
 30
0.0
 11
563.8335659268
 21
1245.6841146418
 31
0.0
  0
LINE
  5
2D5
330
1F
100
AcDbEntity
  8
1
  6
SLD-Сплошная
100
AcDbLine
 10
566.1670183047
 20
1245.6841146418
 30
0.0
 11
566.6619930516
 21
1246.1790893886
 31
0.0
  0
LINE
  5
2D6
330
1F
100
AcDbEntity
  8
1
  6
SLD-Сплошная
100
AcDbLine
 10
566.6619930516
 20
1248.5125417665
 30
0.0
 11
566.1670183047
 21
1249.0075165134
 31
0.0
  0
LINE
  5
2D7
330
1F
100
AcDbEntity
  8
1
  6
SLD-Сплошная
100
AcDbLine
 10
563.8335659268
 20
1249.0075165134
 30
0.0
 11
563.33859118
 21
1248.5125417665
 31
0.0
  0
CIRCLE
  5
2D8
330
1F
100
AcDbEntity
  8
1
  6
SLD-Сплошная
100
AcDbCircle
 10
565.0002921158
 20
1247.3458155776
 30
0.0
 40
4.999999999999799
  0
ELLIPSE
  5
2D9
330
1F
100
AcDbEntity
  8
1
  6
SLD-Сплошная
100
AcDbEllipse
 10
982.5002921158
 20
1228.7764287963
 30
0.0
 11
0.0
 21
0.4122489361056978
 31
0.0
210
0.0
220
0.0
230
1.0
 40
0.9702875252
 41
5.512866274278884
 42
7.053504340080098
  0
SPLINE
  5
2DA
330
1F
100
AcDbEntity
  8
1
  6
SLD-Сплошная
100
AcDbSpline
210
0.0
220
0.0
230
1.0
 70
     8
 71
     3
 72
    12
 73
     8
 74
     0
 42
0.00000001
 43
0.00000001
 40
0.0
 40
0.0
 40
0.0
 40
0.0
 40
0.218785788707225
 40
0.4375776469534876
 40
0.656235365886399
 40
0.8748419359490996
 40
1.0
 40
1.0
 40
1.0
 40
1.0
 10
982.778837811912
 20
1228.732705083768
 30
0.0
 10
982.7435124150431
 20
1228.75966850984
 30
0.0
 10
982.6728606413106
 20
1228.813596110001
 30
0.0
 10
982.5388974126696
 20
1228.846191998974
 30
0.0
 10
982.4033547863897
 20
1228.836842867732
 30
0.0
 10
982.2944569820958
 20
1228.79296410965
 30
0.0
 10
982.2411532712898
 20
1228.748788551364
 30
0.0
 10
982.221746419656
 20
1228.732705083768
 30
0.0
  0
ELLIPSE
  5
2DB
330
1F
100
AcDbEntity
  8
1
  6
SLD-Сплошная
100
AcDbEllipse
 10
982.5002921158
 20
1230.9152023589
 30
0.0
 11
0.0
 21
-0.4122489361059252
 31
0.0
210
0.0
220
0.0
230
1.0
 40
0.9702875252
 41
5.512866274278671
 42
7.053504340080719
  0
SPLINE
  5
2DC
330
1F
100
AcDbEntity
  8
1
  6
SLD-Сплошная
100
AcDbSpline
210
0.0
220
0.0
230
1.0
 70
     8
 71
     3
 72
    12
 73
     8
 74
     0
 42
0.00000001
 43
0.00000001
 40
0.0
 40
0.0
 40
0.0
 40
0.0
 40
0.2187857887071718
 40
0.4375776469534864
 40
0.6562353658863612
 40
0.8748419359490948
 40
1.0
 40
1.0
 40
1.0
 40
1.0
 10
982.221746419656
 20
1230.958926071392
 30
0.0
 10
982.2570718165249
 20
1230.93196264532
 30
0.0
 10
982.3277235902573
 20
1230.878035045158
 30
0.0
 10
982.4616868188983
 20
1230.845439156185
 30
0.0
 10
982.5972294451783
 20
1230.854788287428
 30
0.0
 10
982.7061272494723
 20
1230.898667045509
 30
0.0
 10
982.7594309602782
 20
1230.942842603796
 30
0.0
 10
982.778837811912
 20
1230.958926071392
 30
0.0
  0
ELLIPSE
  5
2DD
330
1F
100
AcDbEntity
  8
1
  6
SLD-Сплошная
100
AcDbEllipse
 10
983.5696788971
 20
1229.8458155776
 30
0.0
 11
-0.4122489361056978
 21
0.0
 31
0.0
210
0.0
220
0.0
230
1.0
 40
0.9702875252
 41
5.512866274278977
 42
7.053504340079802
  0
SPLINE
  5
2DE
330
1F
100
AcDbEntity
  8
1
  6
SLD-Сплошная
100
AcDbSpline
210
0.0
220
0.0
230
1.0
 70
     8
 71
     3
 72
    12
 73
     8
 74
     0
 42
0.00000001
 43
0.00000001
 40
0.0
 40
0.0
 40
0.0
 40
0.0
 40
0.2187857887071872
 40
0.4375776469534928
 40
0.6562353658863584
 40
0.8748419359491
 40
1.0
 40
1.0
 40
1.0
 40
1.0
 10
983.6134026095963
 20
1230.124361273708
 30
0.0
 10
983.5864391835241
 20
1230.089035876839
 30
0.0
 10
983.5325115833626
 20
1230.018384103107
 30
0.0
 10
983.4999156943898
 20
1229.884420874465
 30
0.0
 10
983.5092648256316
 20
1229.748878248186
 30
0.0
 10
983.5531435837134
 20
1229.639980443892
 30
0.0
 10
983.597319142
 20
1229.586676733086
 30
0.0
 10
983.6134026095963
 20
1229.567269881452
 30
0.0
  0
ELLIPSE
  5
2DF
330
1F
100
AcDbEntity
  8
1
  6
SLD-Сплошная
100
AcDbEllipse
 10
981.4309053345
 20
1229.8458155776
 30
0.0
 11
0.4122489361055841
 21
0.0
 31
0.0
210
0.0
220
0.0
230
1.0
 40
0.9702875252
 41
5.512866274278954
 42
7.053504340080639
  0
SPLINE
  5
2E0
330
1F
100
AcDbEntity
  8
1
  6
SLD-Сплошная
100
AcDbSpline
210
0.0
220
0.0
230
1.0
 70
     8
 71
     3
 72
    12
 73
     8
 74
     0
 42
0.00000001
 43
0.00000001
 40
0.0
 40
0.0
 40
0.0
 40
0.0
 40
0.2187857887072096
 40
0.4375776469534813
 40
0.6562353658864019
 40
0.8748419359490944
 40
1.0
 40
1.0
 40
1.0
 40
1.0
 10
981.3871816219716
 20
1229.567269881452
 30
0.0
 10
981.4141450480438
 20
1229.602595278321
 30
0.0
 10
981.4680726482053
 20
1229.673247052053
 30
0.0
 10
981.5006685371783
 20
1229.807210280694
 30
0.0
 10
981.4913194059362
 20
1229.942752906974
 30
0.0
 10
981.4474406478544
 20
1230.051650711268
 30
0.0
 10
981.403265089568
 20
1230.104954422074
 30
0.0
 10
981.3871816219716
 20
1230.124361273708
 30
0.0
  0
ARC
  5
2E1
330
1F
100
AcDbEntity
  8
1
  6
SLD-Сплошная
100
AcDbCircle
 10
965.2550241345
 20
1247.0910835588
 30
0.0
 40
26.561955496082
100
AcDbArc
 50
313.8816987744
 51
316.1183012256
  0
ARC
  5
2E2
330
1F
100
AcDbEntity
  8
1
  6
SLD-Сплошная
100
AcDbCircle
 10
966.4872691415
 20
1213.6044013411
 30
0.0
 40
23.4119119169077
100
AcDbArc
 50
40.0824770914
 51
42.9865596105
  0
ARC
  5
2E3
330
1F
100
AcDbEntity
  8
1
  6
SLD-Сплошная
100
AcDbCircle
 10
966.4872691418
 20
1246.0872298139
 30
0.0
 40
23.41191191653891
100
AcDbArc
 50
317.0134403894
 51
319.9175229087
  0
ARC
  5
2E4
330
1F
100
AcDbEntity
  8
1
  6
SLD-Сплошная
100
AcDbCircle
 10
965.2550241339
 20
1212.6005475957
 30
0.0
 40
26.5619554969858
100
AcDbArc
 50
43.8816987744
 51
46.1183012256
  0
ARC
  5
2E5
330
1F
100
AcDbEntity
  8
1
  6
SLD-Сплошная
100
AcDbCircle
 10
998.741706352
 20
1213.8327926037
 30
0.0
 40
23.4119119164015
100
AcDbArc
 50
130.0824770913
 51
132.9865596106
  0
ARC
  5
2E6
330
1F
100
AcDbEntity
  8
1
  6
SLD-Сплошная
100
AcDbCircle
 10
966.2588778796
 20
1213.8327926036
 30
0.0
 40
23.4119119164477
100
AcDbArc
 50
47.0134403894
 51
49.9175229087
  0
ARC
  5
2E7
330
1F
100
AcDbEntity
  8
1
  6
SLD-Сплошная
100
AcDbCircle
 10
999.745560097
 20
1212.6005475963
 30
0.0
 40
26.56195549607935
100
AcDbArc
 50
133.8816987744
 51
136.1183012256
  0
ARC
  5
2E8
330
1F
100
AcDbEntity
  8
1
  6
SLD-Сплошная
100
AcDbCircle
 10
998.5133150895
 20
1246.0872298136
 30
0.0
 40
23.41191191620336
100
AcDbArc
 50
220.0824770913
 51
222.9865596106
  0
ARC
  5
2E9
330
1F
100
AcDbEntity
  8
1
  6
SLD-Сплошная
100
AcDbCircle
 10
998.5133150898
 20
1213.6044013413
 30
0.0
 40
23.41191191658211
100
AcDbArc
 50
137.0134403895
 51
139.9175229087
  0
ARC
  5
2EA
330
1F
100
AcDbEntity
  8
1
  6
SLD-Сплошная
100
AcDbCircle
 10
999.7455600968
 20
1247.0910835586
 30
0.0
 40
26.56195549581801
100
AcDbArc
 50
223.8816987744
 51
226.1183012256
  0
ARC
  5
2EB
330
1F
100
AcDbEntity
  8
1
  6
SLD-Сплошная
100
AcDbCircle
 10
966.2588778798
 20
1245.8588385513
 30
0.0
 40
23.41191191611577
100
AcDbArc
 50
310.0824770913
 51
312.9865596106
  0
ARC
  5
2EC
330
1F
100
AcDbEntity
  8
1
  6
SLD-Сплошная
100
AcDbCircle
 10
998.7417063517
 20
1245.8588385512
 30
0.0
 40
23.41191191606959
100
AcDbArc
 50
227.0134403894
 51
229.9175229087
  0
CIRCLE
  5
2ED
330
1F
100
AcDbEntity
  8
1
  6
SLD-Сплошная
100
AcDbCircle
 10
982.5002921158
 20
1229.8458155776
 30
0.0
 40
3.499999999999948
  0
LINE
  5
2EE
330
1F
100
AcDbEntity
  8
1
  6
SLD-Сплошная
100
AcDbLine
 10
984.4001527696
 20
1228.6790893886
 30
0.0
 11
984.1619930516
 21
1228.6790893886
 31
0.0
  0
LINE
  5
2EF
330
1F
100
AcDbEntity
  8
1
  6
SLD-Сплошная
100
AcDbLine
 10
984.1619930516
 20
1228.6790893886
 30
0.0
 11
983.2738125587
 21
1229.5672698815
 31
0.0
  0
LINE
  5
2F0
330
1F
100
AcDbEntity
  8
1
  6
SLD-Сплошная
100
AcDbLine
 10
983.6670183047
 20
1227.9459549238
 30
0.0
 11
983.6670183047
 21
1228.1841146418
 31
0.0
  0
LINE
  5
2F1
330
1F
100
AcDbEntity
  8
1
  6
SLD-Сплошная
100
AcDbLine
 10
982.7788378119
 20
1229.0722951346
 30
0.0
 11
983.6670183047
 21
1228.1841146418
 31
0.0
  0
LINE
  5
2F2
330
1F
100
AcDbEntity
  8
1
  6
SLD-Сплошная
100
AcDbLine
 10
983.6670183047
 20
1231.7456762314
 30
0.0
 11
983.6670183047
 21
1231.5075165134
 31
0.0
  0
LINE
  5
2F3
330
1F
100
AcDbEntity
  8
1
  6
SLD-Сплошная
100
AcDbLine
 10
983.6670183047
 20
1231.5075165134
 30
0.0
 11
982.7788378119
 21
1230.6193360205
 31
0.0
  0
LINE
  5
2F4
330
1F
100
AcDbEntity
  8
1
  6
SLD-Сплошная
100
AcDbLine
 10
981.3335659268
 20
1227.9459549238
 30
0.0
 11
981.3335659268
 21
1228.1841146418
 31
0.0
  0
LINE
  5
2F5
330
1F
100
AcDbEntity
  8
1
  6
SLD-Сплошная
100
AcDbLine
 10
981.3335659268
 20
1228.1841146418
 30
0.0
 11
982.2217464197
 21
1229.0722951346
 31
0.0
  0
LINE
  5
2F6
330
1F
100
AcDbEntity
  8
1
  6
SLD-Сплошная
100
AcDbLine
 10
980.600431462
 20
1228.6790893886
 30
0.0
 11
980.83859118
 21
1228.6790893886
 31
0.0
  0
LINE
  5
2F7
330
1F
100
AcDbEntity
  8
1
  6
SLD-Сплошная
100
AcDbLine
 10
981.7267716728
 20
1229.5672698815
 30
0.0
 11
980.83859118
 21
1228.6790893886
 31
0.0
  0
LINE
  5
2F8
330
1F
100
AcDbEntity
  8
1
  6
SLD-Сплошная
100
AcDbLine
 10
984.4001527696
 20
1231.0125417665
 30
0.0
 11
984.1619930516
 21
1231.0125417665
 31
0.0
  0
LINE
  5
2F9
330
1F
100
AcDbEntity
  8
1
  6
SLD-Сплошная
100
AcDbLine
 10
983.2738125587
 20
1230.1243612737
 30
0.0
 11
984.1619930516
 21
1231.0125417665
 31
0.0
  0
LINE
  5
2FA
330
1F
100
AcDbEntity
  8
1
  6
SLD-Сплошная
100
AcDbLine
 10
980.600431462
 20
1231.0125417665
 30
0.0
 11
980.83859118
 21
1231.0125417665
 31
0.0
  0
LINE
  5
2FB
330
1F
100
AcDbEntity
  8
1
  6
SLD-Сплошная
100
AcDbLine
 10
980.83859118
 20
1231.0125417665
 30
0.0
 11
981.7267716728
 21
1230.1243612737
 31
0.0
  0
LINE
  5
2FC
330
1F
100
AcDbEntity
  8
1
  6
SLD-Сплошная
100
AcDbLine
 10
981.3335659268
 20
1231.7456762314
 30
0.0
 11
981.3335659268
 21
1231.5075165134
 31
0.0
  0
LINE
  5
2FD
330
1F
100
AcDbEntity
  8
1
  6
SLD-Сплошная
100
AcDbLine
 10
982.2217464197
 20
1230.6193360205
 30
0.0
 11
981.3335659268
 21
1231.5075165134
 31
0.0
  0
LINE
  5
2FE
330
1F
100
AcDbEntity
  8
1
  6
SLD-Сплошная
100
AcDbLine
 10
984.1619930516
 20
1231.0125417665
 30
0.0
 11
983.6670183047
 21
1231.5075165134
 31
0.0
  0
LINE
  5
2FF
330
1F
100
AcDbEntity
  8
1
  6
SLD-Сплошная
100
AcDbLine
 10
980.83859118
 20
1228.6790893886
 30
0.0
 11
981.3335659268
 21
1228.1841146418
 31
0.0
  0
LINE
  5
300
330
1F
100
AcDbEntity
  8
1
  6
SLD-Сплошная
100
AcDbLine
 10
983.6670183047
 20
1228.1841146418
 30
0.0
 11
984.1619930516
 21
1228.6790893886
 31
0.0
  0
LINE
  5
301
330
1F
100
AcDbEntity
  8
1
  6
SLD-Сплошная
100
AcDbLine
 10
981.3335659268
 20
1231.5075165134
 30
0.0
 11
980.83859118
 21
1231.0125417665
 31
0.0
  0
CIRCLE
  5
302
330
1F
100
AcDbEntity
  8
1
  6
SLD-Сплошная
100
AcDbCircle
 10
982.5002921158
 20
1229.8458155776
 30
0.0
 40
4.99999999999996
  0
ARC
  5
303
330
1F
100
AcDbEntity
  8
1
  6
SLD-Сплошная
100
AcDbCircle
 10
1017.2455600967
 20
1389.5910835585
 30
0.0
 40
26.56195549562331
100
AcDbArc
 50
223.8816987744
 51
226.1183012256
  0
ARC
  5
304
330
1F
100
AcDbEntity
  8
1
  6
SLD-Сплошная
100
AcDbCircle
 10
983.7588778794
 20
1388.3588385517
 30
0.0
 40
23.41191191671599
100
AcDbArc
 50
310.0824770913
 51
312.9865596105
  0
SPLINE
  5
305
330
1F
100
AcDbEntity
  8
1
  6
SLD-Сплошная
100
AcDbSpline
210
0.0
220
0.0
230
1.0
 70
     8
 71
     3
 72
    12
 73
     8
 74
     0
 42
0.00000001
 43
0.00000001
 40
0.0
 40
0.0
 40
0.0
 40
0.0
 40
0.2187857887072158
 40
0.437577646953487
 40
0.656235365886403
 40
0.874841935949098
 40
1.0
 40
1.0
 40
1.0
 40
1.0
 10
1000.278837811912
 20
1371.232705083768
 30
0.0
 10
1000.243512415043
 20
1371.25966850984
 30
0.0
 10
1000.172860641311
 20
1371.313596110001
 30
0.0
 10
1000.038897412669
 20
1371.346191998975
 30
0.0
 10
999.9033547863896
 20
1371.336842867732
 30
0.0
 10
999.7944569820957
 20
1371.29296410965
 30
0.0
 10
999.7411532712898
 20
1371.248788551364
 30
0.0
 10
999.7217464196559
 20
1371.232705083768
 30
0.0
  0
ARC
  5
306
330
1F
100
AcDbEntity
  8
1
  6
SLD-Сплошная
100
AcDbCircle
 10
1016.241706352
 20
1388.3588385516
 30
0.0
 40
23.41191191651505
100
AcDbArc
 50
227.0134403894
 51
229.9175229087
  0
ARC
  5
307
330
1F
100
AcDbEntity
  8
1
  6
SLD-Сплошная
100
AcDbCircle
 10
982.7550241347
 20
1389.5910835587
 30
0.0
 40
26.56195549586889
100
AcDbArc
 50
313.8816987744
 51
316.1183012256
  0
ARC
  5
308
330
1F
100
AcDbEntity
  8
1
  6
SLD-Сплошная
100
AcDbCircle
 10
983.9872691418
 20
1356.1044013414
 30
0.0
 40
23.41191191646606
100
AcDbArc
 50
40.0824770913
 51
42.9865596106
  0
SPLINE
  5
309
330
1F
100
AcDbEntity
  8
1
  6
SLD-Сплошная
100
AcDbSpline
210
0.0
220
0.0
230
1.0
 70
     8
 71
     3
 72
    12
 73
     8
 74
     0
 42
0.00000001
 43
0.00000001
 40
0.0
 40
0.0
 40
0.0
 40
0.0
 40
0.2187857887072255
 40
0.4375776469534884
 40
0.6562353658863777
 40
0.8748419359490994
 40
1.0
 40
1.0
 40
1.0
 40
1.0
 10
1001.113402609596
 20
1372.624361273708
 30
0.0
 10
1001.086439183524
 20
1372.589035876839
 30
0.0
 10
1001.032511583363
 20
1372.518384103107
 30
0.0
 10
1000.99991569439
 20
1372.384420874466
 30
0.0
 10
1001.009264825631
 20
1372.248878248186
 30
0.0
 10
1001.053143583714
 20
1372.139980443892
 30
0.0
 10
1001.097319142
 20
1372.086676733086
 30
0.0
 10
1001.113402609596
 20
1372.067269881452
 30
0.0
  0
ARC
  5
30A
330
1F
100
AcDbEntity
  8
1
  6
SLD-Сплошная
100
AcDbCircle
 10
983.9872691418
 20
1388.5872298138
 30
0.0
 40
23.41191191646588
100
AcDbArc
 50
317.0134403894
 51
319.9175229087
  0
ARC
  5
30B
330
1F
100
AcDbEntity
  8
1
  6
SLD-Сплошная
100
AcDbCircle
 10
982.755024135
 20
1355.1005475968
 30
0.0
 40
26.56195549549
100
AcDbArc
 50
43.8816987744
 51
46.1183012256
  0
ARC
  5
30C
330
1F
100
AcDbEntity
  8
1
  6
SLD-Сплошная
100
AcDbCircle
 10
1016.2417063517
 20
1356.3327926039
 30
0.0
 40
23.41191191604342
100
AcDbArc
 50
130.0824770913
 51
132.9865596106
  0
SPLINE
  5
30D
330
1F
100
AcDbEntity
  8
1
  6
SLD-Сплошная
100
AcDbSpline
210
0.0
220
0.0
230
1.0
 70
     8
 71
     3
 72
    12
 73
     8
 74
     0
 42
0.00000001
 43
0.00000001
 40
0.0
 40
0.0
 40
0.0
 40
0.0
 40
0.2187857887071779
 40
0.4375776469534922
 40
0.6562353658863623
 40
0.8748419359490983
 40
1.0
 40
1.0
 40
1.0
 40
1.0
 10
999.7217464196559
 20
1373.458926071392
 30
0.0
 10
999.7570718165249
 20
1373.43196264532
 30
0.0
 10
999.8277235902573
 20
1373.378035045159
 30
0.0
 10
999.9616868188983
 20
1373.345439156186
 30
0.0
 10
1000.097229445178
 20
1373.354788287428
 30
0.0
 10
1000.206127249472
 20
1373.398667045509
 30
0.0
 10
1000.259430960278
 20
1373.442842603796
 30
0.0
 10
1000.278837811912
 20
1373.458926071392
 30
0.0
  0
ARC
  5
30E
330
1F
100
AcDbEntity
  8
1
  6
SLD-Сплошная
100
AcDbCircle
 10
983.7588778798
 20
1356.3327926039
 30
0.0
 40
23.41191191614398
100
AcDbArc
 50
47.0134403894
 51
49.9175229087
  0
ARC
  5
30F
330
1F
100
AcDbEntity
  8
1
  6
SLD-Сплошная
100
AcDbCircle
 10
1017.2455600964
 20
1355.1005475969
 30
0.0
 40
26.56195549524427
100
AcDbArc
 50
133.8816987744
 51
136.1183012256
  0
ARC
  5
310
330
1F
100
AcDbEntity
  8
1
  6
SLD-Сплошная
100
AcDbCircle
 10
1016.0133150897
 20
1388.5872298137
 30
0.0
 40
23.41191191635731
100
AcDbArc
 50
220.0824770913
 51
222.9865596106
  0
SPLINE
  5
311
330
1F
100
AcDbEntity
  8
1
  6
SLD-Сплошная
100
AcDbSpline
210
0.0
220
0.0
230
1.0
 70
     8
 71
     3
 72
    12
 73
     8
 74
     0
 42
0.00000001
 43
0.00000001
 40
0.0
 40
0.0
 40
0.0
 40
0.0
 40
0.2187857887072118
 40
0.4375776469534857
 40
0.6562353658864084
 40
0.8748419359491202
 40
1.0
 40
1.0
 40
1.0
 40
1.0
 10
998.8871816219716
 20
1372.067269881452
 30
0.0
 10
998.9141450480438
 20
1372.102595278321
 30
0.0
 10
998.9680726482053
 20
1372.173247052053
 30
0.0
 10
999.0006685371784
 20
1372.307210280694
 30
0.0
 10
998.9913194059362
 20
1372.442752906974
 30
0.0
 10
998.9474406478544
 20
1372.551650711268
 30
0.0
 10
998.903265089568
 20
1372.604954422074
 30
0.0
 10
998.8871816219716
 20
1372.624361273708
 30
0.0
  0
ARC
  5
312
330
1F
100
AcDbEntity
  8
1
  6
SLD-Сплошная
100
AcDbCircle
 10
1016.0133150897
 20
1356.1044013414
 30
0.0
 40
23.41191191644668
100
AcDbArc
 50
137.0134403894
 51
139.9175229087
  0
CIRCLE
  5
313
330
1F
100
AcDbEntity
  8
1
  6
SLD-Сплошная
100
AcDbCircle
 10
1000.0002921158
 20
1372.3458155776
 30
0.0
 40
3.500000000000189
  0
ELLIPSE
  5
314
330
1F
100
AcDbEntity
  8
1
  6
SLD-Сплошная
100
AcDbEllipse
 10
1000.0002921158
 20
1371.2764287963
 30
0.0
 11
0.0
 21
0.4122489361056978
 31
0.0
210
0.0
220
0.0
230
1.0
 40
0.9702875252
 41
5.512866274278538
 42
7.053504340080444
  0
ELLIPSE
  5
315
330
1F
100
AcDbEntity
  8
1
  6
SLD-Сплошная
100
AcDbEllipse
 10
1000.0002921158
 20
1373.4152023589
 30
0.0
 11
0.0
 21
-0.4122489361054704
 31
0.0
210
0.0
220
0.0
230
1.0
 40
0.9702875252
 41
5.51286627427916
 42
7.05350434008023
  0
ELLIPSE
  5
316
330
1F
100
AcDbEntity
  8
1
  6
SLD-Сплошная
100
AcDbEllipse
 10
1001.0696788971
 20
1372.3458155776
 30
0.0
 11
-0.4122489361055841
 21
0.0
 31
0.0
210
0.0
220
0.0
230
1.0
 40
0.9702875252
 41
5.512866274278639
 42
7.053504340080548
  0
ELLIPSE
  5
317
330
1F
100
AcDbEntity
  8
1
  6
SLD-Сплошная
100
AcDbEllipse
 10
998.9309053345
 20
1372.3458155776
 30
0.0
 11
0.4122489361056978
 21
0.0
 31
0.0
210
0.0
220
0.0
230
1.0
 40
0.9702875252
 41
5.512866274278693
 42
7.053504340080494
  0
LINE
  5
318
330
1F
100
AcDbEntity
  8
1
  6
SLD-Сплошная
100
AcDbLine
 10
1001.1670183047
 20
1374.2456762314
 30
0.0
 11
1001.1670183047
 21
1374.0075165134
 31
0.0
  0
LINE
  5
319
330
1F
100
AcDbEntity
  8
1
  6
SLD-Сплошная
100
AcDbLine
 10
1001.1670183047
 20
1374.0075165134
 30
0.0
 11
1000.2788378119
 21
1373.1193360205
 31
0.0
  0
LINE
  5
31A
330
1F
100
AcDbEntity
  8
1
  6
SLD-Сплошная
100
AcDbLine
 10
1001.9001527696
 20
1373.5125417665
 30
0.0
 11
1001.6619930516
 21
1373.5125417665
 31
0.0
  0
LINE
  5
31B
330
1F
100
AcDbEntity
  8
1
  6
SLD-Сплошная
100
AcDbLine
 10
1000.7738125587
 20
1372.6243612737
 30
0.0
 11
1001.6619930516
 21
1373.5125417665
 31
0.0
  0
LINE
  5
31C
330
1F
100
AcDbEntity
  8
1
  6
SLD-Сплошная
100
AcDbLine
 10
1001.1670183047
 20
1370.4459549238
 30
0.0
 11
1001.1670183047
 21
1370.6841146418
 31
0.0
  0
LINE
  5
31D
330
1F
100
AcDbEntity
  8
1
  6
SLD-Сплошная
100
AcDbLine
 10
1000.2788378119
 20
1371.5722951346
 30
0.0
 11
1001.1670183047
 21
1370.6841146418
 31
0.0
  0
LINE
  5
31E
330
1F
100
AcDbEntity
  8
1
  6
SLD-Сплошная
100
AcDbLine
 10
998.8335659268
 20
1370.4459549238
 30
0.0
 11
998.8335659268
 21
1370.6841146418
 31
0.0
  0
LINE
  5
31F
330
1F
100
AcDbEntity
  8
1
  6
SLD-Сплошная
100
AcDbLine
 10
998.8335659268
 20
1370.6841146418
 30
0.0
 11
999.7217464197
 21
1371.5722951346
 31
0.0
  0
LINE
  5
320
330
1F
100
AcDbEntity
  8
1
  6
SLD-Сплошная
100
AcDbLine
 10
998.100431462
 20
1371.1790893886
 30
0.0
 11
998.33859118
 21
1371.1790893886
 31
0.0
  0
LINE
  5
321
330
1F
100
AcDbEntity
  8
1
  6
SLD-Сплошная
100
AcDbLine
 10
999.2267716728
 20
1372.0672698815
 30
0.0
 11
998.33859118
 21
1371.1790893886
 31
0.0
  0
LINE
  5
322
330
1F
100
AcDbEntity
  8
1
  6
SLD-Сплошная
100
AcDbLine
 10
998.100431462
 20
1373.5125417665
 30
0.0
 11
998.33859118
 21
1373.5125417665
 31
0.0
  0
LINE
  5
323
330
1F
100
AcDbEntity
  8
1
  6
SLD-Сплошная
100
AcDbLine
 10
998.33859118
 20
1373.5125417665
 30
0.0
 11
999.2267716728
 21
1372.6243612737
 31
0.0
  0
LINE
  5
324
330
1F
100
AcDbEntity
  8
1
  6
SLD-Сплошная
100
AcDbLine
 10
1001.9001527696
 20
1371.1790893886
 30
0.0
 11
1001.6619930516
 21
1371.1790893886
 31
0.0
  0
LINE
  5
325
330
1F
100
AcDbEntity
  8
1
  6
SLD-Сплошная
100
AcDbLine
 10
1001.6619930516
 20
1371.1790893886
 30
0.0
 11
1000.7738125587
 21
1372.0672698815
 31
0.0
  0
LINE
  5
326
330
1F
100
AcDbEntity
  8
1
  6
SLD-Сплошная
100
AcDbLine
 10
998.8335659268
 20
1374.2456762314
 30
0.0
 11
998.8335659268
 21
1374.0075165134
 31
0.0
  0
LINE
  5
327
330
1F
100
AcDbEntity
  8
1
  6
SLD-Сплошная
100
AcDbLine
 10
999.7217464197
 20
1373.1193360205
 30
0.0
 11
998.8335659268
 21
1374.0075165134
 31
0.0
  0
LINE
  5
328
330
1F
100
AcDbEntity
  8
1
  6
SLD-Сплошная
100
AcDbLine
 10
1001.1670183047
 20
1370.6841146418
 30
0.0
 11
1001.6619930516
 21
1371.1790893886
 31
0.0
  0
LINE
  5
329
330
1F
100
AcDbEntity
  8
1
  6
SLD-Сплошная
100
AcDbLine
 10
998.8335659268
 20
1374.0075165134
 30
0.0
 11
998.33859118
 21
1373.5125417665
 31
0.0
  0
LINE
  5
32A
330
1F
100
AcDbEntity
  8
1
  6
SLD-Сплошная
100
AcDbLine
 10
1001.6619930516
 20
1373.5125417665
 30
0.0
 11
1001.1670183047
 21
1374.0075165134
 31
0.0
  0
LINE
  5
32B
330
1F
100
AcDbEntity
  8
1
  6
SLD-Сплошная
100
AcDbLine
 10
998.33859118
 20
1371.1790893886
 30
0.0
 11
998.8335659268
 21
1370.6841146418
 31
0.0
  0
CIRCLE
  5
32C
330
1F
100
AcDbEntity
  8
1
  6
SLD-Сплошная
100
AcDbCircle
 10
1000.0002921158
 20
1372.3458155776
 30
0.0
 40
5.000000000000121
  0
ARC
  5
32D
330
1F
100
AcDbEntity
  8
1
  6
SLD-Сплошная
100
AcDbCircle
 10
1017.2455600965
 20
1327.0910835583
 30
0.0
 40
26.56195549531094
100
AcDbArc
 50
223.8816987744
 51
226.1183012256
  0
ARC
  5
32E
330
1F
100
AcDbEntity
  8
1
  6
SLD-Сплошная
100
AcDbCircle
 10
983.7588778796
 20
1325.8588385515
 30
0.0
 40
23.41191191637939
100
AcDbArc
 50
310.0824770913
 51
312.9865596106
  0
SPLINE
  5
32F
330
1F
100
AcDbEntity
  8
1
  6
SLD-Сплошная
100
AcDbSpline
210
0.0
220
0.0
230
1.0
 70
     8
 71
     3
 72
    12
 73
     8
 74
     0
 42
0.00000001
 43
0.00000001
 40
0.0
 40
0.0
 40
0.0
 40
0.0
 40
0.2187857887072118
 40
0.4375776469534856
 40
0.6562353658864083
 40
0.8748419359491202
 40
1.0
 40
1.0
 40
1.0
 40
1.0
 10
1000.278837811912
 20
1308.732705083768
 30
0.0
 10
1000.243512415043
 20
1308.75966850984
 30
0.0
 10
1000.172860641311
 20
1308.813596110001
 30
0.0
 10
1000.03889741267
 20
1308.846191998974
 30
0.0
 10
999.9033547863896
 20
1308.836842867732
 30
0.0
 10
999.7944569820957
 20
1308.79296410965
 30
0.0
 10
999.7411532712898
 20
1308.748788551364
 30
0.0
 10
999.7217464196559
 20
1308.732705083768
 30
0.0
  0
ARC
  5
330
330
1F
100
AcDbEntity
  8
1
  6
SLD-Сплошная
100
AcDbCircle
 10
1016.241706352
 20
1325.8588385516
 30
0.0
 40
23.41191191651505
100
AcDbArc
 50
227.0134403894
 51
229.9175229087
  0
ARC
  5
331
330
1F
100
AcDbEntity
  8
1
  6
SLD-Сплошная
100
AcDbCircle
 10
982.7550241352
 20
1327.0910835581
 30
0.0
 40
26.56195549511241
100
AcDbArc
 50
313.8816987744
 51
316.1183012256
  0
ARC
  5
332
330
1F
100
AcDbEntity
  8
1
  6
SLD-Сплошная
100
AcDbCircle
 10
983.9872691417
 20
1293.6044013413
 30
0.0
 40
23.41191191660058
100
AcDbArc
 50
40.0824770913
 51
42.9865596105
  0
SPLINE
  5
333
330
1F
100
AcDbEntity
  8
1
  6
SLD-Сплошная
100
AcDbSpline
210
0.0
220
0.0
230
1.0
 70
     8
 71
     3
 72
    12
 73
     8
 74
     0
 42
0.00000001
 43
0.00000001
 40
0.0
 40
0.0
 40
0.0
 40
0.0
 40
0.218785788707225
 40
0.4375776469534876
 40
0.656235365886399
 40
0.8748419359490996
 40
1.0
 40
1.0
 40
1.0
 40
1.0
 10
1001.113402609596
 20
1310.124361273708
 30
0.0
 10
1001.086439183524
 20
1310.089035876839
 30
0.0
 10
1001.032511583363
 20
1310.018384103107
 30
0.0
 10
1000.99991569439
 20
1309.884420874466
 30
0.0
 10
1001.009264825632
 20
1309.748878248186
 30
0.0
 10
1001.053143583714
 20
1309.639980443892
 30
0.0
 10
1001.097319142
 20
1309.586676733086
 30
0.0
 10
1001.113402609596
 20
1309.567269881452
 30
0.0
  0
ARC
  5
334
330
1F
100
AcDbEntity
  8
1
  6
SLD-Сплошная
100
AcDbCircle
 10
983.987269142
 20
1326.0872298136
 30
0.0
 40
23.41191191622766
100
AcDbArc
 50
317.0134403894
 51
319.9175229087
  0
ARC
  5
335
330
1F
100
AcDbEntity
  8
1
  6
SLD-Сплошная
100
AcDbCircle
 10
982.755024135
 20
1292.6005475968
 30
0.0
 40
26.56195549549145
100
AcDbArc
 50
43.8816987744
 51
46.1183012256
  0
ARC
  5
336
330
1F
100
AcDbEntity
  8
1
  6
SLD-Сплошная
100
AcDbCircle
 10
1016.241706352
 20
1293.8327926036
 30
0.0
 40
23.41191191651505
100
AcDbArc
 50
130.0824770913
 51
132.9865596106
  0
SPLINE
  5
337
330
1F
100
AcDbEntity
  8
1
  6
SLD-Сплошная
100
AcDbSpline
210
0.0
220
0.0
230
1.0
 70
     8
 71
     3
 72
    12
 73
     8
 74
     0
 42
0.00000001
 43
0.00000001
 40
0.0
 40
0.0
 40
0.0
 40
0.0
 40
0.2187857887071872
 40
0.4375776469534928
 40
0.6562353658863584
 40
0.8748419359491
 40
1.0
 40
1.0
 40
1.0
 40
1.0
 10
999.7217464196559
 20
1310.958926071392
 30
0.0
 10
999.757071816525
 20
1310.93196264532
 30
0.0
 10
999.8277235902573
 20
1310.878035045159
 30
0.0
 10
999.9616868188983
 20
1310.845439156185
 30
0.0
 10
1000.097229445178
 20
1310.854788287428
 30
0.0
 10
1000.206127249472
 20
1310.898667045509
 30
0.0
 10
1000.259430960278
 20
1310.942842603796
 30
0.0
 10
1000.278837811912
 20
1310.958926071392
 30
0.0
  0
ARC
  5
338
330
1F
100
AcDbEntity
  8
1
  6
SLD-Сплошная
100
AcDbCircle
 10
983.7588778795
 20
1293.8327926035
 30
0.0
 40
23.41191191661577
100
AcDbArc
 50
47.0134403895
 51
49.9175229087
  0
ARC
  5
339
330
1F
100
AcDbEntity
  8
1
  6
SLD-Сплошная
100
AcDbCircle
 10
1017.2455600969
 20
1292.6005475964
 30
0.0
 40
26.56195549595348
100
AcDbArc
 50
133.8816987744
 51
136.1183012256
  0
ARC
  5
33A
330
1F
100
AcDbEntity
  8
1
  6
SLD-Сплошная
100
AcDbCircle
 10
1016.0133150897
 20
1326.0872298138
 30
0.0
 40
23.41191191640765
100
AcDbArc
 50
220.0824770913
 51
222.9865596106
  0
SPLINE
  5
33B
330
1F
100
AcDbEntity
  8
1
  6
SLD-Сплошная
100
AcDbSpline
210
0.0
220
0.0
230
1.0
 70
     8
 71
     3
 72
    12
 73
     8
 74
     0
 42
0.00000001
 43
0.00000001
 40
0.0
 40
0.0
 40
0.0
 40
0.0
 40
0.2187857887071739
 40
0.4375776469534908
 40
0.6562353658863678
 40
0.8748419359491206
 40
1.0
 40
1.0
 40
1.0
 40
1.0
 10
998.8871816219718
 20
1309.567269881452
 30
0.0
 10
998.9141450480438
 20
1309.602595278321
 30
0.0
 10
998.9680726482053
 20
1309.673247052053
 30
0.0
 10
999.0006685371784
 20
1309.807210280694
 30
0.0
 10
998.9913194059363
 20
1309.942752906974
 30
0.0
 10
998.9474406478545
 20
1310.051650711268
 30
0.0
 10
998.903265089568
 20
1310.104954422074
 30
0.0
 10
998.8871816219718
 20
1310.124361273708
 30
0.0
  0
ARC
  5
33C
330
1F
100
AcDbEntity
  8
1
  6
SLD-Сплошная
100
AcDbCircle
 10
1016.0133150897
 20
1293.6044013414
 30
0.0
 40
23.41191191645618
100
AcDbArc
 50
137.0134403894
 51
139.9175229087
  0
CIRCLE
  5
33D
330
1F
100
AcDbEntity
  8
1
  6
SLD-Сплошная
100
AcDbCircle
 10
1000.0002921158
 20
1309.8458155776
 30
0.0
 40
3.499999999999948
  0
ELLIPSE
  5
33E
330
1F
100
AcDbEntity
  8
1
  6
SLD-Сплошная
100
AcDbEllipse
 10
1000.0002921158
 20
1310.9152023589
 30
0.0
 11
0.0
 21
-0.4122489361056978
 31
0.0
210
0.0
220
0.0
230
1.0
 40
0.9702875252
 41
5.5128662742786
 42
7.05350434008079
  0
ELLIPSE
  5
33F
330
1F
100
AcDbEntity
  8
1
  6
SLD-Сплошная
100
AcDbEllipse
 10
1001.0696788971
 20
1309.8458155776
 30
0.0
 11
-0.4122489361055841
 21
0.0
 31
0.0
210
0.0
220
0.0
230
1.0
 40
0.9702875252
 41
5.512866274278514
 42
7.053504340079856
  0
ELLIPSE
  5
340
330
1F
100
AcDbEntity
  8
1
  6
SLD-Сплошная
100
AcDbEllipse
 10
1000.0002921158
 20
1308.7764287963
 30
0.0
 11
0.0
 21
0.4122489361054704
 31
0.0
210
0.0
220
0.0
230
1.0
 40
0.9702875252
 41
5.512866274278814
 42
7.053504340080169
  0
ELLIPSE
  5
341
330
1F
100
AcDbEntity
  8
1
  6
SLD-Сплошная
100
AcDbEllipse
 10
998.9309053345
 20
1309.8458155776
 30
0.0
 11
0.4122489361056978
 21
0.0
 31
0.0
210
0.0
220
0.0
230
1.0
 40
0.9702875252
 41
5.512866274278816
 42
7.053504340081186
  0
LINE
  5
342
330
1F
100
AcDbEntity
  8
1
  6
SLD-Сплошная
100
AcDbLine
 10
1001.1670183047
 20
1311.7456762314
 30
0.0
 11
1001.1670183047
 21
1311.5075165134
 31
0.0
  0
LINE
  5
343
330
1F
100
AcDbEntity
  8
1
  6
SLD-Сплошная
100
AcDbLine
 10
1001.1670183047
 20
1311.5075165134
 30
0.0
 11
1000.2788378119
 21
1310.6193360205
 31
0.0
  0
LINE
  5
344
330
1F
100
AcDbEntity
  8
1
  6
SLD-Сплошная
100
AcDbLine
 10
1001.9001527696
 20
1311.0125417665
 30
0.0
 11
1001.6619930516
 21
1311.0125417665
 31
0.0
  0
LINE
  5
345
330
1F
100
AcDbEntity
  8
1
  6
SLD-Сплошная
100
AcDbLine
 10
1000.7738125587
 20
1310.1243612737
 30
0.0
 11
1001.6619930516
 21
1311.0125417665
 31
0.0
  0
LINE
  5
346
330
1F
100
AcDbEntity
  8
1
  6
SLD-Сплошная
100
AcDbLine
 10
998.8335659268
 20
1311.7456762314
 30
0.0
 11
998.8335659268
 21
1311.5075165134
 31
0.0
  0
LINE
  5
347
330
1F
100
AcDbEntity
  8
1
  6
SLD-Сплошная
100
AcDbLine
 10
999.7217464197
 20
1310.6193360205
 30
0.0
 11
998.8335659268
 21
1311.5075165134
 31
0.0
  0
LINE
  5
348
330
1F
100
AcDbEntity
  8
1
  6
SLD-Сплошная
100
AcDbLine
 10
1001.1670183047
 20
1307.9459549238
 30
0.0
 11
1001.1670183047
 21
1308.1841146418
 31
0.0
  0
LINE
  5
349
330
1F
100
AcDbEntity
  8
1
  6
SLD-Сплошная
100
AcDbLine
 10
1000.2788378119
 20
1309.0722951346
 30
0.0
 11
1001.1670183047
 21
1308.1841146418
 31
0.0
  0
LINE
  5
34A
330
1F
100
AcDbEntity
  8
1
  6
SLD-Сплошная
100
AcDbLine
 10
998.100431462
 20
1308.6790893886
 30
0.0
 11
998.33859118
 21
1308.6790893886
 31
0.0
  0
LINE
  5
34B
330
1F
100
AcDbEntity
  8
1
  6
SLD-Сплошная
100
AcDbLine
 10
999.2267716728
 20
1309.5672698815
 30
0.0
 11
998.33859118
 21
1308.6790893886
 31
0.0
  0
LINE
  5
34C
330
1F
100
AcDbEntity
  8
1
  6
SLD-Сплошная
100
AcDbLine
 10
1001.9001527696
 20
1308.6790893886
 30
0.0
 11
1001.6619930516
 21
1308.6790893886
 31
0.0
  0
LINE
  5
34D
330
1F
100
AcDbEntity
  8
1
  6
SLD-Сплошная
100
AcDbLine
 10
1001.6619930516
 20
1308.6790893886
 30
0.0
 11
1000.7738125587
 21
1309.5672698815
 31
0.0
  0
LINE
  5
34E
330
1F
100
AcDbEntity
  8
1
  6
SLD-Сплошная
100
AcDbLine
 10
998.8335659268
 20
1307.9459549238
 30
0.0
 11
998.8335659268
 21
1308.1841146418
 31
0.0
  0
LINE
  5
34F
330
1F
100
AcDbEntity
  8
1
  6
SLD-Сплошная
100
AcDbLine
 10
998.8335659268
 20
1308.1841146418
 30
0.0
 11
999.7217464197
 21
1309.0722951346
 31
0.0
  0
LINE
  5
350
330
1F
100
AcDbEntity
  8
1
  6
SLD-Сплошная
100
AcDbLine
 10
998.100431462
 20
1311.0125417665
 30
0.0
 11
998.33859118
 21
1311.0125417665
 31
0.0
  0
LINE
  5
351
330
1F
100
AcDbEntity
  8
1
  6
SLD-Сплошная
100
AcDbLine
 10
998.33859118
 20
1311.0125417665
 30
0.0
 11
999.2267716728
 21
1310.1243612737
 31
0.0
  0
LINE
  5
352
330
1F
100
AcDbEntity
  8
1
  6
SLD-Сплошная
100
AcDbLine
 10
998.8335659268
 20
1311.5075165134
 30
0.0
 11
998.33859118
 21
1311.0125417665
 31
0.0
  0
LINE
  5
353
330
1F
100
AcDbEntity
  8
1
  6
SLD-Сплошная
100
AcDbLine
 10
1001.6619930516
 20
1311.0125417665
 30
0.0
 11
1001.1670183047
 21
1311.5075165134
 31
0.0
  0
LINE
  5
354
330
1F
100
AcDbEntity
  8
1
  6
SLD-Сплошная
100
AcDbLine
 10
1001.1670183047
 20
1308.1841146418
 30
0.0
 11
1001.6619930516
 21
1308.6790893886
 31
0.0
  0
LINE
  5
355
330
1F
100
AcDbEntity
  8
1
  6
SLD-Сплошная
100
AcDbLine
 10
998.33859118
 20
1308.6790893886
 30
0.0
 11
998.8335659268
 21
1308.1841146418
 31
0.0
  0
CIRCLE
  5
356
330
1F
100
AcDbEntity
  8
1
  6
SLD-Сплошная
100
AcDbCircle
 10
1000.0002921158
 20
1309.8458155776
 30
0.0
 40
4.99999999999996
  0
ELLIPSE
  5
357
330
1F
100
AcDbEntity
  8
1
  6
SLD-Сплошная
100
AcDbEllipse
 10
582.5002921158
 20
1390.9152023589
 30
0.0
 11
0.0
 21
-0.4122489361054704
 31
0.0
210
0.0
220
0.0
230
1.0
 40
0.9702875252
 41
5.512866274278572
 42
7.053504340080206
  0
SPLINE
  5
358
330
1F
100
AcDbEntity
  8
1
  6
SLD-Сплошная
100
AcDbSpline
210
0.0
220
0.0
230
1.0
 70
     8
 71
     3
 72
    12
 73
     8
 74
     0
 42
0.00000001
 43
0.00000001
 40
0.0
 40
0.0
 40
0.0
 40
0.0
 40
0.2187857887071779
 40
0.4375776469534922
 40
0.6562353658863623
 40
0.8748419359490983
 40
1.0
 40
1.0
 40
1.0
 40
1.0
 10
582.2217464196559
 20
1390.958926071392
 30
0.0
 10
582.2570718165249
 20
1390.93196264532
 30
0.0
 10
582.3277235902573
 20
1390.878035045159
 30
0.0
 10
582.4616868188983
 20
1390.845439156185
 30
0.0
 10
582.5972294451783
 20
1390.854788287427
 30
0.0
 10
582.7061272494723
 20
1390.898667045509
 30
0.0
 10
582.7594309602781
 20
1390.942842603796
 30
0.0
 10
582.778837811912
 20
1390.958926071392
 30
0.0
  0
ELLIPSE
  5
359
330
1F
100
AcDbEntity
  8
1
  6
SLD-Сплошная
100
AcDbEllipse
 10
583.5696788971
 20
1389.8458155776
 30
0.0
 11
-0.4122489361055841
 21
0.0
 31
0.0
210
0.0
220
0.0
230
1.0
 40
0.9702875252
 41
5.512866274278954
 42
7.053504340080639
  0
SPLINE
  5
35A
330
1F
100
AcDbEntity
  8
1
  6
SLD-Сплошная
100
AcDbSpline
210
0.0
220
0.0
230
1.0
 70
     8
 71
     3
 72
    12
 73
     8
 74
     0
 42
0.00000001
 43
0.00000001
 40
0.0
 40
0.0
 40
0.0
 40
0.0
 40
0.2187857887072255
 40
0.4375776469534884
 40
0.6562353658863777
 40
0.8748419359490994
 40
1.0
 40
1.0
 40
1.0
 40
1.0
 10
583.6134026095963
 20
1390.124361273708
 30
0.0
 10
583.5864391835241
 20
1390.089035876839
 30
0.0
 10
583.5325115833627
 20
1390.018384103107
 30
0.0
 10
583.4999156943894
 20
1389.884420874465
 30
0.0
 10
583.5092648256317
 20
1389.748878248186
 30
0.0
 10
583.5531435837134
 20
1389.639980443892
 30
0.0
 10
583.597319142
 20
1389.586676733086
 30
0.0
 10
583.6134026095963
 20
1389.567269881452
 30
0.0
  0
ELLIPSE
  5
35B
330
1F
100
AcDbEntity
  8
1
  6
SLD-Сплошная
100
AcDbEllipse
 10
582.5002921158
 20
1388.7764287963
 30
0.0
 11
0.0
 21
0.4122489361059252
 31
0.0
210
0.0
220
0.0
230
1.0
 40
0.9702875252
 41
5.512866274278529
 42
7.053504340081066
  0
SPLINE
  5
35C
330
1F
100
AcDbEntity
  8
1
  6
SLD-Сплошная
100
AcDbSpline
210
0.0
220
0.0
230
1.0
 70
     8
 71
     3
 72
    12
 73
     8
 74
     0
 42
0.00000001
 43
0.00000001
 40
0.0
 40
0.0
 40
0.0
 40
0.0
 40
0.2187857887072158
 40
0.437577646953487
 40
0.656235365886403
 40
0.874841935949098
 40
1.0
 40
1.0
 40
1.0
 40
1.0
 10
582.778837811912
 20
1388.732705083768
 30
0.0
 10
582.743512415043
 20
1388.759668509839
 30
0.0
 10
582.6728606413108
 20
1388.813596110001
 30
0.0
 10
582.5388974126696
 20
1388.846191998974
 30
0.0
 10
582.4033547863896
 20
1388.836842867732
 30
0.0
 10
582.2944569820955
 20
1388.79296410965
 30
0.0
 10
582.2411532712898
 20
1388.748788551364
 30
0.0
 10
582.2217464196559
 20
1388.732705083768
 30
0.0
  0
ARC
  5
35D
330
1F
100
AcDbEntity
  8
1
  6
SLD-Сплошная
100
AcDbCircle
 10
599.745560097
 20
1407.0910835588
 30
0.0
 40
26.56195549606853
100
AcDbArc
 50
223.8816987744
 51
226.1183012256
  0
ARC
  5
35E
330
1F
100
AcDbEntity
  8
1
  6
SLD-Сплошная
100
AcDbCircle
 10
566.2588778797
 20
1405.8588385514
 30
0.0
 40
23.41191191630294
100
AcDbArc
 50
310.0824770913
 51
312.9865596106
  0
ARC
  5
35F
330
1F
100
AcDbEntity
  8
1
  6
SLD-Сплошная
100
AcDbCircle
 10
598.7417063519
 20
1405.8588385514
 30
0.0
 40
23.41191191630294
100
AcDbArc
 50
227.0134403894
 51
229.9175229087
  0
ARC
  5
360
330
1F
100
AcDbEntity
  8
1
  6
SLD-Сплошная
100
AcDbCircle
 10
565.2550241347
 20
1407.0910835587
 30
0.0
 40
26.56195549588054
100
AcDbArc
 50
313.8816987744
 51
316.1183012256
  0
ARC
  5
361
330
1F
100
AcDbEntity
  8
1
  6
SLD-Сплошная
100
AcDbCircle
 10
566.4872691417
 20
1373.6044013413
 30
0.0
 40
23.41191191656915
100
AcDbArc
 50
40.0824770913
 51
42.9865596105
  0
ARC
  5
362
330
1F
100
AcDbEntity
  8
1
  6
SLD-Сплошная
100
AcDbCircle
 10
566.4872691416
 20
1406.087229814
 30
0.0
 40
23.41191191670794
100
AcDbArc
 50
317.0134403895
 51
319.9175229087
  0
ARC
  5
363
330
1F
100
AcDbEntity
  8
1
  6
SLD-Сплошная
100
AcDbCircle
 10
565.2550241349
 20
1372.6005475967
 30
0.0
 40
26.56195549562728
100
AcDbArc
 50
43.8816987744
 51
46.1183012256
  0
ARC
  5
364
330
1F
100
AcDbEntity
  8
1
  6
SLD-Сплошная
100
AcDbCircle
 10
598.7417063515
 20
1373.8327926042
 30
0.0
 40
23.41191191573354
100
AcDbArc
 50
130.0824770913
 51
132.9865596106
  0
ARC
  5
365
330
1F
100
AcDbEntity
  8
1
  6
SLD-Сплошная
100
AcDbCircle
 10
566.25887788
 20
1373.8327926042
 30
0.0
 40
23.41191191573362
100
AcDbArc
 50
47.0134403894
 51
49.9175229087
  0
ARC
  5
366
330
1F
100
AcDbEntity
  8
1
  6
SLD-Сплошная
100
AcDbCircle
 10
599.7455600968
 20
1372.6005475965
 30
0.0
 40
26.56195549581543
100
AcDbArc
 50
133.8816987744
 51
136.1183012256
  0
ARC
  5
367
330
1F
100
AcDbEntity
  8
1
  6
SLD-Сплошная
100
AcDbCircle
 10
598.5133150899
 20
1406.087229814
 30
0.0
 40
23.41191191670794
100
AcDbArc
 50
220.0824770913
 51
222.9865596105
  0
SPLINE
  5
368
330
1F
100
AcDbEntity
  8
1
  6
SLD-Сплошная
100
AcDbSpline
210
0.0
220
0.0
230
1.0
 70
     8
 71
     3
 72
    12
 73
     8
 74
     0
 42
0.00000001
 43
0.00000001
 40
0.0
 40
0.0
 40
0.0
 40
0.0
 40
0.2187857887072118
 40
0.4375776469534857
 40
0.6562353658864084
 40
0.8748419359491202
 40
1.0
 40
1.0
 40
1.0
 40
1.0
 10
581.3871816219716
 20
1389.567269881452
 30
0.0
 10
581.4141450480438
 20
1389.602595278321
 30
0.0
 10
581.4680726482052
 20
1389.673247052053
 30
0.0
 10
581.5006685371783
 20
1389.807210280694
 30
0.0
 10
581.4913194059363
 20
1389.942752906974
 30
0.0
 10
581.4474406478545
 20
1390.051650711268
 30
0.0
 10
581.403265089568
 20
1390.104954422074
 30
0.0
 10
581.3871816219716
 20
1390.124361273708
 30
0.0
  0
ARC
  5
369
330
1F
100
AcDbEntity
  8
1
  6
SLD-Сплошная
100
AcDbCircle
 10
598.5133150899
 20
1373.6044013412
 30
0.0
 40
23.4119119166883
100
AcDbArc
 50
137.0134403895
 51
139.9175229087
  0
CIRCLE
  5
36A
330
1F
100
AcDbEntity
  8
1
  6
SLD-Сплошная
100
AcDbCircle
 10
582.5002921158
 20
1389.8458155776
 30
0.0
 40
3.500000000000109
  0
ELLIPSE
  5
36B
330
1F
100
AcDbEntity
  8
1
  6
SLD-Сплошная
100
AcDbEllipse
 10
581.4309053345
 20
1389.8458155776
 30
0.0
 11
0.4122489361056978
 21
0.0
 31
0.0
210
0.0
220
0.0
230
1.0
 40
0.9702875252
 41
5.512866274278693
 42
7.053504340080086
  0
LINE
  5
36C
330
1F
100
AcDbEntity
  8
1
  6
SLD-Сплошная
100
AcDbLine
 10
584.4001527696
 20
1391.0125417665
 30
0.0
 11
584.1619930516
 21
1391.0125417665
 31
0.0
  0
LINE
  5
36D
330
1F
100
AcDbEntity
  8
1
  6
SLD-Сплошная
100
AcDbLine
 10
583.2738125587
 20
1390.1243612737
 30
0.0
 11
584.1619930516
 21
1391.0125417665
 31
0.0
  0
LINE
  5
36E
330
1F
100
AcDbEntity
  8
1
  6
SLD-Сплошная
100
AcDbLine
 10
583.6670183047
 20
1391.7456762314
 30
0.0
 11
583.6670183047
 21
1391.5075165134
 31
0.0
  0
LINE
  5
36F
330
1F
100
AcDbEntity
  8
1
  6
SLD-Сплошная
100
AcDbLine
 10
583.6670183047
 20
1391.5075165134
 30
0.0
 11
582.7788378119
 21
1390.6193360205
 31
0.0
  0
LINE
  5
370
330
1F
100
AcDbEntity
  8
1
  6
SLD-Сплошная
100
AcDbLine
 10
581.3335659268
 20
1387.9459549238
 30
0.0
 11
581.3335659268
 21
1388.1841146418
 31
0.0
  0
LINE
  5
371
330
1F
100
AcDbEntity
  8
1
  6
SLD-Сплошная
100
AcDbLine
 10
581.3335659268
 20
1388.1841146418
 30
0.0
 11
582.2217464197
 21
1389.0722951346
 31
0.0
  0
LINE
  5
372
330
1F
100
AcDbEntity
  8
1
  6
SLD-Сплошная
100
AcDbLine
 10
583.6670183047
 20
1387.9459549238
 30
0.0
 11
583.6670183047
 21
1388.1841146418
 31
0.0
  0
LINE
  5
373
330
1F
100
AcDbEntity
  8
1
  6
SLD-Сплошная
100
AcDbLine
 10
582.7788378119
 20
1389.0722951346
 30
0.0
 11
583.6670183047
 21
1388.1841146418
 31
0.0
  0
LINE
  5
374
330
1F
100
AcDbEntity
  8
1
  6
SLD-Сплошная
100
AcDbLine
 10
584.4001527696
 20
1388.6790893886
 30
0.0
 11
584.1619930516
 21
1388.6790893886
 31
0.0
  0
LINE
  5
375
330
1F
100
AcDbEntity
  8
1
  6
SLD-Сплошная
100
AcDbLine
 10
584.1619930516
 20
1388.6790893886
 30
0.0
 11
583.2738125587
 21
1389.5672698815
 31
0.0
  0
LINE
  5
376
330
1F
100
AcDbEntity
  8
1
  6
SLD-Сплошная
100
AcDbLine
 10
580.600431462
 20
1388.6790893886
 30
0.0
 11
580.83859118
 21
1388.6790893886
 31
0.0
  0
LINE
  5
377
330
1F
100
AcDbEntity
  8
1
  6
SLD-Сплошная
100
AcDbLine
 10
581.7267716728
 20
1389.5672698815
 30
0.0
 11
580.83859118
 21
1388.6790893886
 31
0.0
  0
LINE
  5
378
330
1F
100
AcDbEntity
  8
1
  6
SLD-Сплошная
100
AcDbLine
 10
580.600431462
 20
1391.0125417665
 30
0.0
 11
580.83859118
 21
1391.0125417665
 31
0.0
  0
LINE
  5
379
330
1F
100
AcDbEntity
  8
1
  6
SLD-Сплошная
100
AcDbLine
 10
580.83859118
 20
1391.0125417665
 30
0.0
 11
581.7267716728
 21
1390.1243612737
 31
0.0
  0
LINE
  5
37A
330
1F
100
AcDbEntity
  8
1
  6
SLD-Сплошная
100
AcDbLine
 10
581.3335659268
 20
1391.7456762314
 30
0.0
 11
581.3335659268
 21
1391.5075165134
 31
0.0
  0
LINE
  5
37B
330
1F
100
AcDbEntity
  8
1
  6
SLD-Сплошная
100
AcDbLine
 10
582.2217464197
 20
1390.6193360205
 30
0.0
 11
581.3335659268
 21
1391.5075165134
 31
0.0
  0
LINE
  5
37C
330
1F
100
AcDbEntity
  8
1
  6
SLD-Сплошная
100
AcDbLine
 10
583.6670183047
 20
1388.1841146418
 30
0.0
 11
584.1619930516
 21
1388.6790893886
 31
0.0
  0
LINE
  5
37D
330
1F
100
AcDbEntity
  8
1
  6
SLD-Сплошная
100
AcDbLine
 10
581.3335659268
 20
1391.5075165134
 30
0.0
 11
580.83859118
 21
1391.0125417665
 31
0.0
  0
LINE
  5
37E
330
1F
100
AcDbEntity
  8
1
  6
SLD-Сплошная
100
AcDbLine
 10
584.1619930516
 20
1391.0125417665
 30
0.0
 11
583.6670183047
 21
1391.5075165134
 31
0.0
  0
LINE
  5
37F
330
1F
100
AcDbEntity
  8
1
  6
SLD-Сплошная
100
AcDbLine
 10
580.83859118
 20
1388.6790893886
 30
0.0
 11
581.3335659268
 21
1388.1841146418
 31
0.0
  0
CIRCLE
  5
380
330
1F
100
AcDbEntity
  8
1
  6
SLD-Сплошная
100
AcDbCircle
 10
582.5002921158
 20
1389.8458155776
 30
0.0
 40
5.000000000000121
  0
ELLIPSE
  5
381
330
1F
100
AcDbEntity
  8
1
  6
SLD-Сплошная
100
AcDbEllipse
 10
682.5002921158
 20
1390.9152023589
 30
0.0
 11
0.0
 21
-0.4122489361054704
 31
0.0
210
0.0
220
0.0
230
1.0
 40
0.9702875252
 41
5.512866274278251
 42
7.053504340080733
  0
SPLINE
  5
382
330
1F
100
AcDbEntity
  8
1
  6
SLD-Сплошная
100
AcDbSpline
210
0.0
220
0.0
230
1.0
 70
     8
 71
     3
 72
    12
 73
     8
 74
     0
 42
0.00000001
 43
0.00000001
 40
0.0
 40
0.0
 40
0.0
 40
0.0
 40
0.2187857887072158
 40
0.437577646953487
 40
0.656235365886403
 40
0.874841935949098
 40
1.0
 40
1.0
 40
1.0
 40
1.0
 10
682.2217464196559
 20
1390.958926071392
 30
0.0
 10
682.2570718165248
 20
1390.93196264532
 30
0.0
 10
682.3277235902573
 20
1390.878035045159
 30
0.0
 10
682.4616868188983
 20
1390.845439156185
 30
0.0
 10
682.5972294451783
 20
1390.854788287427
 30
0.0
 10
682.7061272494722
 20
1390.898667045509
 30
0.0
 10
682.7594309602781
 20
1390.942842603796
 30
0.0
 10
682.7788378119119
 20
1390.958926071392
 30
0.0
  0
ELLIPSE
  5
383
330
1F
100
AcDbEntity
  8
1
  6
SLD-Сплошная
100
AcDbEllipse
 10
681.4309053345
 20
1389.8458155776
 30
0.0
 11
0.4122489361056978
 21
0.0
 31
0.0
210
0.0
220
0.0
230
1.0
 40
0.9702875252
 41
5.512866274278693
 42
7.053504340080494
  0
SPLINE
  5
384
330
1F
100
AcDbEntity
  8
1
  6
SLD-Сплошная
100
AcDbSpline
210
0.0
220
0.0
230
1.0
 70
     8
 71
     3
 72
    12
 73
     8
 74
     0
 42
0.00000001
 43
0.00000001
 40
0.0
 40
0.0
 40
0.0
 40
0.0
 40
0.2187857887072158
 40
0.437577646953487
 40
0.656235365886403
 40
0.874841935949098
 40
1.0
 40
1.0
 40
1.0
 40
1.0
 10
681.3871816219716
 20
1389.567269881452
 30
0.0
 10
681.4141450480438
 20
1389.602595278321
 30
0.0
 10
681.4680726482053
 20
1389.673247052053
 30
0.0
 10
681.5006685371783
 20
1389.807210280694
 30
0.0
 10
681.4913194059362
 20
1389.942752906974
 30
0.0
 10
681.4474406478545
 20
1390.051650711268
 30
0.0
 10
681.403265089568
 20
1390.104954422074
 30
0.0
 10
681.3871816219716
 20
1390.124361273708
 30
0.0
  0
ARC
  5
385
330
1F
100
AcDbEntity
  8
1
  6
SLD-Сплошная
100
AcDbCircle
 10
699.7455600969
 20
1407.0910835587
 30
0.0
 40
26.56195549588046
100
AcDbArc
 50
223.8816987744
 51
226.1183012256
  0
ARC
  5
386
330
1F
100
AcDbEntity
  8
1
  6
SLD-Сплошная
100
AcDbCircle
 10
666.2588778799
 20
1405.8588385512
 30
0.0
 40
23.41191191598804
100
AcDbArc
 50
310.0824770913
 51
312.9865596106
  0
SPLINE
  5
387
330
1F
100
AcDbEntity
  8
1
  6
SLD-Сплошная
100
AcDbSpline
210
0.0
220
0.0
230
1.0
 70
     8
 71
     3
 72
    12
 73
     8
 74
     0
 42
0.00000001
 43
0.00000001
 40
0.0
 40
0.0
 40
0.0
 40
0.0
 40
0.2187857887072162
 40
0.4375776469534877
 40
0.6562353658863814
 40
0.8748419359490976
 40
1.0
 40
1.0
 40
1.0
 40
1.0
 10
682.7788378119119
 20
1388.732705083768
 30
0.0
 10
682.743512415043
 20
1388.759668509839
 30
0.0
 10
682.6728606413106
 20
1388.813596110001
 30
0.0
 10
682.5388974126696
 20
1388.846191998974
 30
0.0
 10
682.4033547863896
 20
1388.836842867732
 30
0.0
 10
682.2944569820957
 20
1388.79296410965
 30
0.0
 10
682.2411532712897
 20
1388.748788551364
 30
0.0
 10
682.2217464196559
 20
1388.732705083768
 30
0.0
  0
ARC
  5
388
330
1F
100
AcDbEntity
  8
1
  6
SLD-Сплошная
100
AcDbCircle
 10
698.7417063518
 20
1405.8588385513
 30
0.0
 40
23.41191191613476
100
AcDbArc
 50
227.0134403894
 51
229.9175229087
  0
ARC
  5
389
330
1F
100
AcDbEntity
  8
1
  6
SLD-Сплошная
100
AcDbCircle
 10
665.2550241347
 20
1407.0910835587
 30
0.0
 40
26.56195549588046
100
AcDbArc
 50
313.8816987744
 51
316.1183012256
  0
ARC
  5
38A
330
1F
100
AcDbEntity
  8
1
  6
SLD-Сплошная
100
AcDbCircle
 10
666.4872691417
 20
1373.6044013413
 30
0.0
 40
23.41191191656898
100
AcDbArc
 50
40.0824770913
 51
42.9865596105
  0
SPLINE
  5
38B
330
1F
100
AcDbEntity
  8
1
  6
SLD-Сплошная
100
AcDbSpline
210
0.0
220
0.0
230
1.0
 70
     8
 71
     3
 72
    12
 73
     8
 74
     0
 42
0.00000001
 43
0.00000001
 40
0.0
 40
0.0
 40
0.0
 40
0.0
 40
0.2187857887072162
 40
0.4375776469534877
 40
0.6562353658863814
 40
0.8748419359490976
 40
1.0
 40
1.0
 40
1.0
 40
1.0
 10
683.6134026095963
 20
1390.124361273708
 30
0.0
 10
683.5864391835241
 20
1390.089035876839
 30
0.0
 10
683.5325115833627
 20
1390.018384103107
 30
0.0
 10
683.4999156943895
 20
1389.884420874465
 30
0.0
 10
683.5092648256317
 20
1389.748878248186
 30
0.0
 10
683.5531435837136
 20
1389.639980443892
 30
0.0
 10
683.597319142
 20
1389.586676733086
 30
0.0
 10
683.6134026095963
 20
1389.567269881452
 30
0.0
  0
ARC
  5
38C
330
1F
100
AcDbEntity
  8
1
  6
SLD-Сплошная
100
AcDbCircle
 10
666.4872691422
 20
1406.0872298135
 30
0.0
 40
23.41191191601475
100
AcDbArc
 50
317.0134403894
 51
319.9175229087
  0
ARC
  5
38D
330
1F
100
AcDbEntity
  8
1
  6
SLD-Сплошная
100
AcDbCircle
 10
665.2550241345
 20
1372.6005475963
 30
0.0
 40
26.5619554961289
100
AcDbArc
 50
43.8816987744
 51
46.1183012256
  0
ARC
  5
38E
330
1F
100
AcDbEntity
  8
1
  6
SLD-Сплошная
100
AcDbCircle
 10
698.7417063516
 20
1373.8327926041
 30
0.0
 40
23.41191191588043
100
AcDbArc
 50
130.0824770913
 51
132.9865596106
  0
ARC
  5
38F
330
1F
100
AcDbEntity
  8
1
  6
SLD-Сплошная
100
AcDbCircle
 10
666.25887788
 20
1373.8327926042
 30
0.0
 40
23.41191191573362
100
AcDbArc
 50
47.0134403894
 51
49.9175229087
  0
ARC
  5
390
330
1F
100
AcDbEntity
  8
1
  6
SLD-Сплошная
100
AcDbCircle
 10
699.7455600972
 20
1372.6005475962
 30
0.0
 40
26.56195549631713
100
AcDbArc
 50
133.8816987744
 51
136.1183012256
  0
ARC
  5
391
330
1F
100
AcDbEntity
  8
1
  6
SLD-Сплошная
100
AcDbCircle
 10
698.5133150896
 20
1406.0872298137
 30
0.0
 40
23.4119119163105
100
AcDbArc
 50
220.0824770913
 51
222.9865596106
  0
ARC
  5
392
330
1F
100
AcDbEntity
  8
1
  6
SLD-Сплошная
100
AcDbCircle
 10
698.5133150898
 20
1373.6044013413
 30
0.0
 40
23.41191191656915
100
AcDbArc
 50
137.0134403895
 51
139.9175229087
  0
CIRCLE
  5
393
330
1F
100
AcDbEntity
  8
1
  6
SLD-Сплошная
100
AcDbCircle
 10
682.5002921158
 20
1389.8458155776
 30
0.0
 40
3.500000000000028
  0
ELLIPSE
  5
394
330
1F
100
AcDbEntity
  8
1
  6
SLD-Сплошная
100
AcDbEllipse
 10
683.5696788971
 20
1389.8458155776
 30
0.0
 11
-0.4122489361056978
 21
0.0
 31
0.0
210
0.0
220
0.0
230
1.0
 40
0.9702875252
 41
5.512866274278409
 42
7.053504340080777
  0
ELLIPSE
  5
395
330
1F
100
AcDbEntity
  8
1
  6
SLD-Сплошная
100
AcDbEllipse
 10
682.5002921158
 20
1388.7764287963
 30
0.0
 11
0.0
 21
0.4122489361059252
 31
0.0
210
0.0
220
0.0
230
1.0
 40
0.9702875252
 41
5.512866274278671
 42
7.053504340080719
  0
LINE
  5
396
330
1F
100
AcDbEntity
  8
1
  6
SLD-Сплошная
100
AcDbLine
 10
683.6670183047
 20
1391.7456762314
 30
0.0
 11
683.6670183047
 21
1391.5075165134
 31
0.0
  0
LINE
  5
397
330
1F
100
AcDbEntity
  8
1
  6
SLD-Сплошная
100
AcDbLine
 10
683.6670183047
 20
1391.5075165134
 30
0.0
 11
682.7788378119
 21
1390.6193360205
 31
0.0
  0
LINE
  5
398
330
1F
100
AcDbEntity
  8
1
  6
SLD-Сплошная
100
AcDbLine
 10
684.4001527696
 20
1391.0125417665
 30
0.0
 11
684.1619930516
 21
1391.0125417665
 31
0.0
  0
LINE
  5
399
330
1F
100
AcDbEntity
  8
1
  6
SLD-Сплошная
100
AcDbLine
 10
683.2738125587
 20
1390.1243612737
 30
0.0
 11
684.1619930516
 21
1391.0125417665
 31
0.0
  0
LINE
  5
39A
330
1F
100
AcDbEntity
  8
1
  6
SLD-Сплошная
100
AcDbLine
 10
681.3335659268
 20
1387.9459549238
 30
0.0
 11
681.3335659268
 21
1388.1841146418
 31
0.0
  0
LINE
  5
39B
330
1F
100
AcDbEntity
  8
1
  6
SLD-Сплошная
100
AcDbLine
 10
681.3335659268
 20
1388.1841146418
 30
0.0
 11
682.2217464197
 21
1389.0722951346
 31
0.0
  0
LINE
  5
39C
330
1F
100
AcDbEntity
  8
1
  6
SLD-Сплошная
100
AcDbLine
 10
680.600431462
 20
1388.6790893886
 30
0.0
 11
680.83859118
 21
1388.6790893886
 31
0.0
  0
LINE
  5
39D
330
1F
100
AcDbEntity
  8
1
  6
SLD-Сплошная
100
AcDbLine
 10
681.7267716728
 20
1389.5672698815
 30
0.0
 11
680.83859118
 21
1388.6790893886
 31
0.0
  0
LINE
  5
39E
330
1F
100
AcDbEntity
  8
1
  6
SLD-Сплошная
100
AcDbLine
 10
681.3335659268
 20
1391.7456762314
 30
0.0
 11
681.3335659268
 21
1391.5075165134
 31
0.0
  0
LINE
  5
39F
330
1F
100
AcDbEntity
  8
1
  6
SLD-Сплошная
100
AcDbLine
 10
682.2217464197
 20
1390.6193360205
 30
0.0
 11
681.3335659268
 21
1391.5075165134
 31
0.0
  0
LINE
  5
3A0
330
1F
100
AcDbEntity
  8
1
  6
SLD-Сплошная
100
AcDbLine
 10
680.600431462
 20
1391.0125417665
 30
0.0
 11
680.83859118
 21
1391.0125417665
 31
0.0
  0
LINE
  5
3A1
330
1F
100
AcDbEntity
  8
1
  6
SLD-Сплошная
100
AcDbLine
 10
680.83859118
 20
1391.0125417665
 30
0.0
 11
681.7267716728
 21
1390.1243612737
 31
0.0
  0
LINE
  5
3A2
330
1F
100
AcDbEntity
  8
1
  6
SLD-Сплошная
100
AcDbLine
 10
683.6670183047
 20
1387.9459549238
 30
0.0
 11
683.6670183047
 21
1388.1841146418
 31
0.0
  0
LINE
  5
3A3
330
1F
100
AcDbEntity
  8
1
  6
SLD-Сплошная
100
AcDbLine
 10
682.7788378119
 20
1389.0722951346
 30
0.0
 11
683.6670183047
 21
1388.1841146418
 31
0.0
  0
LINE
  5
3A4
330
1F
100
AcDbEntity
  8
1
  6
SLD-Сплошная
100
AcDbLine
 10
684.4001527696
 20
1388.6790893886
 30
0.0
 11
684.1619930516
 21
1388.6790893886
 31
0.0
  0
LINE
  5
3A5
330
1F
100
AcDbEntity
  8
1
  6
SLD-Сплошная
100
AcDbLine
 10
684.1619930516
 20
1388.6790893886
 30
0.0
 11
683.2738125587
 21
1389.5672698815
 31
0.0
  0
LINE
  5
3A6
330
1F
100
AcDbEntity
  8
1
  6
SLD-Сплошная
100
AcDbLine
 10
681.3335659268
 20
1391.5075165134
 30
0.0
 11
680.83859118
 21
1391.0125417665
 31
0.0
  0
LINE
  5
3A7
330
1F
100
AcDbEntity
  8
1
  6
SLD-Сплошная
100
AcDbLine
 10
683.6670183047
 20
1388.1841146418
 30
0.0
 11
684.1619930516
 21
1388.6790893886
 31
0.0
  0
LINE
  5
3A8
330
1F
100
AcDbEntity
  8
1
  6
SLD-Сплошная
100
AcDbLine
 10
684.1619930516
 20
1391.0125417665
 30
0.0
 11
683.6670183047
 21
1391.5075165134
 31
0.0
  0
LINE
  5
3A9
330
1F
100
AcDbEntity
  8
1
  6
SLD-Сплошная
100
AcDbLine
 10
680.83859118
 20
1388.6790893886
 30
0.0
 11
681.3335659268
 21
1388.1841146418
 31
0.0
  0
CIRCLE
  5
3AA
330
1F
100
AcDbEntity
  8
1
  6
SLD-Сплошная
100
AcDbCircle
 10
682.5002921158
 20
1389.8458155776
 30
0.0
 40
5.000000000000121
  0
ELLIPSE
  5
3AB
330
1F
100
AcDbEntity
  8
1
  6
SLD-Сплошная
100
AcDbEllipse
 10
682.5002921158
 20
1228.7764287963
 30
0.0
 11
0.0
 21
0.4122489361056978
 31
0.0
210
0.0
220
0.0
230
1.0
 40
0.9702875252
 41
5.512866274278501
 42
7.053504340080481
  0
SPLINE
  5
3AC
330
1F
100
AcDbEntity
  8
1
  6
SLD-Сплошная
100
AcDbSpline
210
0.0
220
0.0
230
1.0
 70
     8
 71
     3
 72
    12
 73
     8
 74
     0
 42
0.00000001
 43
0.00000001
 40
0.0
 40
0.0
 40
0.0
 40
0.0
 40
0.2187857887072066
 40
0.4375776469534695
 40
0.6562353658863811
 40
0.8748419359490819
 40
1.0
 40
1.0
 40
1.0
 40
1.0
 10
682.7788378119119
 20
1228.732705083768
 30
0.0
 10
682.743512415043
 20
1228.75966850984
 30
0.0
 10
682.6728606413106
 20
1228.813596110001
 30
0.0
 10
682.5388974126697
 20
1228.846191998974
 30
0.0
 10
682.4033547863897
 20
1228.836842867732
 30
0.0
 10
682.2944569820957
 20
1228.79296410965
 30
0.0
 10
682.2411532712897
 20
1228.748788551364
 30
0.0
 10
682.221746419656
 20
1228.732705083768
 30
0.0
  0
ARC
  5
3AD
330
1F
100
AcDbEntity
  8
1
  6
SLD-Сплошная
100
AcDbCircle
 10
665.2550241346
 20
1247.0910835588
 30
0.0
 40
26.56195549606712
100
AcDbArc
 50
313.8816987744
 51
316.1183012256
  0
ARC
  5
3AE
330
1F
100
AcDbEntity
  8
1
  6
SLD-Сплошная
100
AcDbCircle
 10
666.4872691422
 20
1213.6044013417
 30
0.0
 40
23.41191191596275
100
AcDbArc
 50
40.0824770913
 51
42.9865596106
  0
SPLINE
  5
3AF
330
1F
100
AcDbEntity
  8
1
  6
SLD-Сплошная
100
AcDbSpline
210
0.0
220
0.0
230
1.0
 70
     8
 71
     3
 72
    12
 73
     8
 74
     0
 42
0.00000001
 43
0.00000001
 40
0.0
 40
0.0
 40
0.0
 40
0.0
 40
0.2187857887072182
 40
0.4375776469534861
 40
0.6562353658863578
 40
0.8748419359490965
 40
1.0
 40
1.0
 40
1.0
 40
1.0
 10
683.6134026095963
 20
1230.124361273708
 30
0.0
 10
683.5864391835242
 20
1230.089035876839
 30
0.0
 10
683.5325115833627
 20
1230.018384103106
 30
0.0
 10
683.4999156943896
 20
1229.884420874465
 30
0.0
 10
683.5092648256318
 20
1229.748878248185
 30
0.0
 10
683.5531435837136
 20
1229.639980443892
 30
0.0
 10
683.5973191420001
 20
1229.586676733086
 30
0.0
 10
683.6134026095963
 20
1229.567269881452
 30
0.0
  0
ARC
  5
3B0
330
1F
100
AcDbEntity
  8
1
  6
SLD-Сплошная
100
AcDbCircle
 10
666.487269142
 20
1246.0872298136
 30
0.0
 40
23.4119119161661
100
AcDbArc
 50
317.0134403894
 51
319.9175229087
  0
ARC
  5
3B1
330
1F
100
AcDbEntity
  8
1
  6
SLD-Сплошная
100
AcDbCircle
 10
665.2550241342
 20
1212.600547596
 30
0.0
 40
26.56195549659188
100
AcDbArc
 50
43.8816987744
 51
46.1183012256
  0
ARC
  5
3B2
330
1F
100
AcDbEntity
  8
1
  6
SLD-Сплошная
100
AcDbCircle
 10
698.7417063517
 20
1213.832792604
 30
0.0
 40
23.41191191597797
100
AcDbArc
 50
130.0824770913
 51
132.9865596106
  0
SPLINE
  5
3B3
330
1F
100
AcDbEntity
  8
1
  6
SLD-Сплошная
100
AcDbSpline
210
0.0
220
0.0
230
1.0
 70
     8
 71
     3
 72
    12
 73
     8
 74
     0
 42
0.00000001
 43
0.00000001
 40
0.0
 40
0.0
 40
0.0
 40
0.0
 40
0.2187857887071912
 40
0.4375776469534632
 40
0.656235365886384
 40
0.8748419359490767
 40
1.0
 40
1.0
 40
1.0
 40
1.0
 10
682.221746419656
 20
1230.958926071392
 30
0.0
 10
682.2570718165249
 20
1230.93196264532
 30
0.0
 10
682.3277235902573
 20
1230.878035045158
 30
0.0
 10
682.4616868188984
 20
1230.845439156185
 30
0.0
 10
682.5972294451783
 20
1230.854788287427
 30
0.0
 10
682.7061272494723
 20
1230.898667045509
 30
0.0
 10
682.7594309602782
 20
1230.942842603796
 30
0.0
 10
682.778837811912
 20
1230.958926071392
 30
0.0
  0
ARC
  5
3B4
330
1F
100
AcDbEntity
  8
1
  6
SLD-Сплошная
100
AcDbCircle
 10
666.2588778797
 20
1213.8327926038
 30
0.0
 40
23.4119119162667
100
AcDbArc
 50
47.0134403894
 51
49.9175229087
  0
ARC
  5
3B5
330
1F
100
AcDbEntity
  8
1
  6
SLD-Сплошная
100
AcDbCircle
 10
699.7455600976
 20
1212.6005475958
 30
0.0
 40
26.56195549684121
100
AcDbArc
 50
133.8816987744
 51
136.1183012256
  0
ARC
  5
3B6
330
1F
100
AcDbEntity
  8
1
  6
SLD-Сплошная
100
AcDbCircle
 10
698.5133150896
 20
1246.0872298137
 30
0.0
 40
23.41191191633192
100
AcDbArc
 50
220.0824770913
 51
222.9865596106
  0
SPLINE
  5
3B7
330
1F
100
AcDbEntity
  8
1
  6
SLD-Сплошная
100
AcDbSpline
210
0.0
220
0.0
230
1.0
 70
     8
 71
     3
 72
    12
 73
     8
 74
     0
 42
0.00000001
 43
0.00000001
 40
0.0
 40
0.0
 40
0.0
 40
0.0
 40
0.2187857887072142
 40
0.4375776469534839
 40
0.6562353658863967
 40
0.8748419359490988
 40
1.0
 40
1.0
 40
1.0
 40
1.0
 10
681.3871816219718
 20
1229.567269881452
 30
0.0
 10
681.4141450480438
 20
1229.602595278321
 30
0.0
 10
681.4680726482053
 20
1229.673247052053
 30
0.0
 10
681.5006685371784
 20
1229.807210280694
 30
0.0
 10
681.4913194059363
 20
1229.942752906974
 30
0.0
 10
681.4474406478545
 20
1230.051650711268
 30
0.0
 10
681.403265089568
 20
1230.104954422074
 30
0.0
 10
681.3871816219718
 20
1230.124361273708
 30
0.0
  0
ARC
  5
3B8
330
1F
100
AcDbEntity
  8
1
  6
SLD-Сплошная
100
AcDbCircle
 10
698.5133150895
 20
1213.6044013416
 30
0.0
 40
23.41191191612869
100
AcDbArc
 50
137.0134403894
 51
139.9175229087
  0
ARC
  5
3B9
330
1F
100
AcDbEntity
  8
1
  6
SLD-Сплошная
100
AcDbCircle
 10
699.745560097
 20
1247.0910835588
 30
0.0
 40
26.56195549607589
100
AcDbArc
 50
223.8816987744
 51
226.1183012256
  0
ARC
  5
3BA
330
1F
100
AcDbEntity
  8
1
  6
SLD-Сплошная
100
AcDbCircle
 10
666.2588778799
 20
1245.8588385512
 30
0.0
 40
23.41191191602193
100
AcDbArc
 50
310.0824770913
 51
312.9865596106
  0
ARC
  5
3BB
330
1F
100
AcDbEntity
  8
1
  6
SLD-Сплошная
100
AcDbCircle
 10
698.7417063517
 20
1245.8588385512
 30
0.0
 40
23.41191191594796
100
AcDbArc
 50
227.0134403894
 51
229.9175229087
  0
CIRCLE
  5
3BC
330
1F
100
AcDbEntity
  8
1
  6
SLD-Сплошная
100
AcDbCircle
 10
682.5002921158
 20
1229.8458155776
 30
0.0
 40
3.499999999999948
  0
ELLIPSE
  5
3BD
330
1F
100
AcDbEntity
  8
1
  6
SLD-Сплошная
100
AcDbEllipse
 10
683.5696788971
 20
1229.8458155776
 30
0.0
 11
-0.4122489361056978
 21
0.0
 31
0.0
210
0.0
220
0.0
230
1.0
 40
0.9702875252
 41
5.512866274278693
 42
7.053504340080494
  0
ELLIPSE
  5
3BE
330
1F
100
AcDbEntity
  8
1
  6
SLD-Сплошная
100
AcDbEllipse
 10
682.5002921158
 20
1230.9152023589
 30
0.0
 11
0.0
 21
-0.4122489361056978
 31
0.0
210
0.0
220
0.0
230
1.0
 40
0.9702875252
 41
5.51286627427842
 42
7.05350434008097
  0
ELLIPSE
  5
3BF
330
1F
100
AcDbEntity
  8
1
  6
SLD-Сплошная
100
AcDbEllipse
 10
681.4309053345
 20
1229.8458155776
 30
0.0
 11
0.4122489361055841
 21
0.0
 31
0.0
210
0.0
220
0.0
230
1.0
 40
0.9702875252
 41
5.512866274278546
 42
7.053504340080639
  0
LINE
  5
3C0
330
1F
100
AcDbEntity
  8
1
  6
SLD-Сплошная
100
AcDbLine
 10
683.6670183047
 20
1227.9459549238
 30
0.0
 11
683.6670183047
 21
1228.1841146418
 31
0.0
  0
LINE
  5
3C1
330
1F
100
AcDbEntity
  8
1
  6
SLD-Сплошная
100
AcDbLine
 10
682.7788378119
 20
1229.0722951346
 30
0.0
 11
683.6670183047
 21
1228.1841146418
 31
0.0
  0
LINE
  5
3C2
330
1F
100
AcDbEntity
  8
1
  6
SLD-Сплошная
100
AcDbLine
 10
684.4001527696
 20
1228.6790893886
 30
0.0
 11
684.1619930516
 21
1228.6790893886
 31
0.0
  0
LINE
  5
3C3
330
1F
100
AcDbEntity
  8
1
  6
SLD-Сплошная
100
AcDbLine
 10
684.1619930516
 20
1228.6790893886
 30
0.0
 11
683.2738125587
 21
1229.5672698815
 31
0.0
  0
LINE
  5
3C4
330
1F
100
AcDbEntity
  8
1
  6
SLD-Сплошная
100
AcDbLine
 10
680.600431462
 20
1231.0125417665
 30
0.0
 11
680.83859118
 21
1231.0125417665
 31
0.0
  0
LINE
  5
3C5
330
1F
100
AcDbEntity
  8
1
  6
SLD-Сплошная
100
AcDbLine
 10
680.83859118
 20
1231.0125417665
 30
0.0
 11
681.7267716728
 21
1230.1243612737
 31
0.0
  0
LINE
  5
3C6
330
1F
100
AcDbEntity
  8
1
  6
SLD-Сплошная
100
AcDbLine
 10
684.4001527696
 20
1231.0125417665
 30
0.0
 11
684.1619930516
 21
1231.0125417665
 31
0.0
  0
LINE
  5
3C7
330
1F
100
AcDbEntity
  8
1
  6
SLD-Сплошная
100
AcDbLine
 10
683.2738125587
 20
1230.1243612737
 30
0.0
 11
684.1619930516
 21
1231.0125417665
 31
0.0
  0
LINE
  5
3C8
330
1F
100
AcDbEntity
  8
1
  6
SLD-Сплошная
100
AcDbLine
 10
681.3335659268
 20
1227.9459549238
 30
0.0
 11
681.3335659268
 21
1228.1841146418
 31
0.0
  0
LINE
  5
3C9
330
1F
100
AcDbEntity
  8
1
  6
SLD-Сплошная
100
AcDbLine
 10
681.3335659268
 20
1228.1841146418
 30
0.0
 11
682.2217464197
 21
1229.0722951346
 31
0.0
  0
LINE
  5
3CA
330
1F
100
AcDbEntity
  8
1
  6
SLD-Сплошная
100
AcDbLine
 10
681.3335659268
 20
1231.7456762314
 30
0.0
 11
681.3335659268
 21
1231.5075165134
 31
0.0
  0
LINE
  5
3CB
330
1F
100
AcDbEntity
  8
1
  6
SLD-Сплошная
100
AcDbLine
 10
682.2217464197
 20
1230.6193360205
 30
0.0
 11
681.3335659268
 21
1231.5075165134
 31
0.0
  0
LINE
  5
3CC
330
1F
100
AcDbEntity
  8
1
  6
SLD-Сплошная
100
AcDbLine
 10
680.600431462
 20
1228.6790893886
 30
0.0
 11
680.83859118
 21
1228.6790893886
 31
0.0
  0
LINE
  5
3CD
330
1F
100
AcDbEntity
  8
1
  6
SLD-Сплошная
100
AcDbLine
 10
681.7267716728
 20
1229.5672698815
 30
0.0
 11
680.83859118
 21
1228.6790893886
 31
0.0
  0
LINE
  5
3CE
330
1F
100
AcDbEntity
  8
1
  6
SLD-Сплошная
100
AcDbLine
 10
683.6670183047
 20
1231.7456762314
 30
0.0
 11
683.6670183047
 21
1231.5075165134
 31
0.0
  0
LINE
  5
3CF
330
1F
100
AcDbEntity
  8
1
  6
SLD-Сплошная
100
AcDbLine
 10
683.6670183047
 20
1231.5075165134
 30
0.0
 11
682.7788378119
 21
1230.6193360205
 31
0.0
  0
LINE
  5
3D0
330
1F
100
AcDbEntity
  8
1
  6
SLD-Сплошная
100
AcDbLine
 10
684.1619930516
 20
1231.0125417665
 30
0.0
 11
683.6670183047
 21
1231.5075165134
 31
0.0
  0
LINE
  5
3D1
330
1F
100
AcDbEntity
  8
1
  6
SLD-Сплошная
100
AcDbLine
 10
683.6670183047
 20
1228.1841146418
 30
0.0
 11
684.1619930516
 21
1228.6790893886
 31
0.0
  0
LINE
  5
3D2
330
1F
100
AcDbEntity
  8
1
  6
SLD-Сплошная
100
AcDbLine
 10
680.83859118
 20
1228.6790893886
 30
0.0
 11
681.3335659268
 21
1228.1841146418
 31
0.0
  0
LINE
  5
3D3
330
1F
100
AcDbEntity
  8
1
  6
SLD-Сплошная
100
AcDbLine
 10
681.3335659268
 20
1231.5075165134
 30
0.0
 11
680.83859118
 21
1231.0125417665
 31
0.0
  0
CIRCLE
  5
3D4
330
1F
100
AcDbEntity
  8
1
  6
SLD-Сплошная
100
AcDbCircle
 10
682.5002921158
 20
1229.8458155776
 30
0.0
 40
4.99999999999996
  0
ELLIPSE
  5
3D5
330
1F
100
AcDbEntity
  8
1
  6
SLD-Сплошная
100
AcDbEllipse
 10
566.0696788971
 20
1372.3458155776
 30
0.0
 11
-0.4122489361056978
 21
0.0
 31
0.0
210
0.0
220
0.0
230
1.0
 40
0.9702875252
 41
5.512866274278093
 42
7.053504340080686
  0
SPLINE
  5
3D6
330
1F
100
AcDbEntity
  8
1
  6
SLD-Сплошная
100
AcDbSpline
210
0.0
220
0.0
230
1.0
 70
     8
 71
     3
 72
    12
 73
     8
 74
     0
 42
0.00000001
 43
0.00000001
 40
0.0
 40
0.0
 40
0.0
 40
0.0
 40
0.2187857887072255
 40
0.4375776469534884
 40
0.6562353658863777
 40
0.8748419359490994
 40
1.0
 40
1.0
 40
1.0
 40
1.0
 10
566.1134026095962
 20
1372.624361273708
 30
0.0
 10
566.0864391835242
 20
1372.589035876839
 30
0.0
 10
566.0325115833626
 20
1372.518384103107
 30
0.0
 10
565.9999156943895
 20
1372.384420874465
 30
0.0
 10
566.0092648256317
 20
1372.248878248186
 30
0.0
 10
566.0531435837134
 20
1372.139980443892
 30
0.0
 10
566.0973191420001
 20
1372.086676733086
 30
0.0
 10
566.1134026095962
 20
1372.067269881452
 30
0.0
  0
ELLIPSE
  5
3D7
330
1F
100
AcDbEntity
  8
1
  6
SLD-Сплошная
100
AcDbEllipse
 10
563.9309053345
 20
1372.3458155776
 30
0.0
 11
0.4122489361055841
 21
0.0
 31
0.0
210
0.0
220
0.0
230
1.0
 40
0.9702875252
 41
5.512866274278546
 42
7.053504340081048
  0
SPLINE
  5
3D8
330
1F
100
AcDbEntity
  8
1
  6
SLD-Сплошная
100
AcDbSpline
210
0.0
220
0.0
230
1.0
 70
     8
 71
     3
 72
    12
 73
     8
 74
     0
 42
0.00000001
 43
0.00000001
 40
0.0
 40
0.0
 40
0.0
 40
0.0
 40
0.2187857887072118
 40
0.4375776469534857
 40
0.6562353658864084
 40
0.8748419359491202
 40
1.0
 40
1.0
 40
1.0
 40
1.0
 10
563.8871816219718
 20
1372.067269881452
 30
0.0
 10
563.9141450480438
 20
1372.102595278321
 30
0.0
 10
563.9680726482053
 20
1372.173247052053
 30
0.0
 10
564.0006685371783
 20
1372.307210280694
 30
0.0
 10
563.9913194059362
 20
1372.442752906974
 30
0.0
 10
563.9474406478544
 20
1372.551650711268
 30
0.0
 10
563.9032650895679
 20
1372.604954422074
 30
0.0
 10
563.8871816219718
 20
1372.624361273708
 30
0.0
  0
ARC
  5
3D9
330
1F
100
AcDbEntity
  8
1
  6
SLD-Сплошная
100
AcDbCircle
 10
582.2455600967
 20
1389.5910835585
 30
0.0
 40
26.56195549568973
100
AcDbArc
 50
223.8816987744
 51
226.1183012256
  0
ARC
  5
3DA
330
1F
100
AcDbEntity
  8
1
  6
SLD-Сплошная
100
AcDbCircle
 10
548.7588778793
 20
1388.3588385518
 30
0.0
 40
23.41191191681303
100
AcDbArc
 50
310.0824770914
 51
312.9865596105
  0
SPLINE
  5
3DB
330
1F
100
AcDbEntity
  8
1
  6
SLD-Сплошная
100
AcDbSpline
210
0.0
220
0.0
230
1.0
 70
     8
 71
     3
 72
    12
 73
     8
 74
     0
 42
0.00000001
 43
0.00000001
 40
0.0
 40
0.0
 40
0.0
 40
0.0
 40
0.2187857887072158
 40
0.437577646953487
 40
0.656235365886403
 40
0.874841935949098
 40
1.0
 40
1.0
 40
1.0
 40
1.0
 10
565.278837811912
 20
1371.232705083768
 30
0.0
 10
565.243512415043
 20
1371.25966850984
 30
0.0
 10
565.1728606413106
 20
1371.313596110001
 30
0.0
 10
565.0388974126697
 20
1371.346191998974
 30
0.0
 10
564.9033547863896
 20
1371.336842867732
 30
0.0
 10
564.7944569820957
 20
1371.29296410965
 30
0.0
 10
564.7411532712898
 20
1371.248788551364
 30
0.0
 10
564.721746419656
 20
1371.232705083768
 30
0.0
  0
ARC
  5
3DC
330
1F
100
AcDbEntity
  8
1
  6
SLD-Сплошная
100
AcDbCircle
 10
581.2417063521
 20
1388.3588385516
 30
0.0
 40
23.41191191658029
100
AcDbArc
 50
227.0134403894
 51
229.9175229087
  0
ARC
  5
3DD
330
1F
100
AcDbEntity
  8
1
  6
SLD-Сплошная
100
AcDbCircle
 10
547.7550241346
 20
1389.5910835588
 30
0.0
 40
26.56195549601621
100
AcDbArc
 50
313.8816987744
 51
316.1183012256
  0
ARC
  5
3DE
330
1F
100
AcDbEntity
  8
1
  6
SLD-Сплошная
100
AcDbCircle
 10
548.9872691424
 20
1356.1044013418
 30
0.0
 40
23.41191191571508
100
AcDbArc
 50
40.0824770913
 51
42.9865596106
  0
ARC
  5
3DF
330
1F
100
AcDbEntity
  8
1
  6
SLD-Сплошная
100
AcDbCircle
 10
548.9872691424
 20
1388.5872298133
 30
0.0
 40
23.41191191571508
100
AcDbArc
 50
317.0134403894
 51
319.9175229087
  0
ARC
  5
3E0
330
1F
100
AcDbEntity
  8
1
  6
SLD-Сплошная
100
AcDbCircle
 10
547.755024135
 20
1355.1005475968
 30
0.0
 40
26.56195549548872
100
AcDbArc
 50
43.8816987744
 51
46.1183012256
  0
ARC
  5
3E1
330
1F
100
AcDbEntity
  8
1
  6
SLD-Сплошная
100
AcDbCircle
 10
581.2417063519
 20
1356.3327926038
 30
0.0
 40
23.41191191624478
100
AcDbArc
 50
130.0824770913
 51
132.9865596106
  0
SPLINE
  5
3E2
330
1F
100
AcDbEntity
  8
1
  6
SLD-Сплошная
100
AcDbSpline
210
0.0
220
0.0
230
1.0
 70
     8
 71
     3
 72
    12
 73
     8
 74
     0
 42
0.00000001
 43
0.00000001
 40
0.0
 40
0.0
 40
0.0
 40
0.0
 40
0.2187857887071779
 40
0.4375776469534922
 40
0.6562353658863623
 40
0.8748419359490983
 40
1.0
 40
1.0
 40
1.0
 40
1.0
 10
564.721746419656
 20
1373.458926071392
 30
0.0
 10
564.7570718165249
 20
1373.43196264532
 30
0.0
 10
564.8277235902573
 20
1373.378035045159
 30
0.0
 10
564.9616868188983
 20
1373.345439156185
 30
0.0
 10
565.0972294451784
 20
1373.354788287427
 30
0.0
 10
565.2061272494723
 20
1373.398667045509
 30
0.0
 10
565.2594309602782
 20
1373.442842603796
 30
0.0
 10
565.278837811912
 20
1373.458926071392
 30
0.0
  0
ARC
  5
3E3
330
1F
100
AcDbEntity
  8
1
  6
SLD-Сплошная
100
AcDbCircle
 10
548.7588778796
 20
1356.3327926037
 30
0.0
 40
23.41191191640014
100
AcDbArc
 50
47.0134403894
 51
49.9175229087
  0
ARC
  5
3E4
330
1F
100
AcDbEntity
  8
1
  6
SLD-Сплошная
100
AcDbCircle
 10
582.2455600968
 20
1355.1005475965
 30
0.0
 40
26.56195549581552
100
AcDbArc
 50
133.8816987744
 51
136.1183012256
  0
ARC
  5
3E5
330
1F
100
AcDbEntity
  8
1
  6
SLD-Сплошная
100
AcDbCircle
 10
581.0133150892
 20
1388.5872298134
 30
0.0
 40
23.41191191580261
100
AcDbArc
 50
220.0824770913
 51
222.9865596106
  0
ARC
  5
3E6
330
1F
100
AcDbEntity
  8
1
  6
SLD-Сплошная
100
AcDbCircle
 10
581.0133150892
 20
1356.1044013418
 30
0.0
 40
23.41191191580275
100
AcDbArc
 50
137.0134403894
 51
139.9175229087
  0
CIRCLE
  5
3E7
330
1F
100
AcDbEntity
  8
1
  6
SLD-Сплошная
100
AcDbCircle
 10
565.0002921158
 20
1372.3458155776
 30
0.0
 40
3.499999999999948
  0
ELLIPSE
  5
3E8
330
1F
100
AcDbEntity
  8
1
  6
SLD-Сплошная
100
AcDbEllipse
 10
565.0002921158
 20
1371.2764287963
 30
0.0
 11
0.0
 21
0.4122489361054704
 31
0.0
210
0.0
220
0.0
230
1.0
 40
0.9702875252
 41
5.512866274278776
 42
7.053504340080206
  0
ELLIPSE
  5
3E9
330
1F
100
AcDbEntity
  8
1
  6
SLD-Сплошная
100
AcDbEllipse
 10
565.0002921158
 20
1373.4152023589
 30
0.0
 11
0.0
 21
-0.4122489361054704
 31
0.0
210
0.0
220
0.0
230
1.0
 40
0.9702875252
 41
5.512866274278838
 42
7.053504340080551
  0
LINE
  5
3EA
330
1F
100
AcDbEntity
  8
1
  6
SLD-Сплошная
100
AcDbLine
 10
566.9001527696
 20
1373.5125417665
 30
0.0
 11
566.6619930516
 21
1373.5125417665
 31
0.0
  0
LINE
  5
3EB
330
1F
100
AcDbEntity
  8
1
  6
SLD-Сплошная
100
AcDbLine
 10
565.7738125587
 20
1372.6243612737
 30
0.0
 11
566.6619930516
 21
1373.5125417665
 31
0.0
  0
LINE
  5
3EC
330
1F
100
AcDbEntity
  8
1
  6
SLD-Сплошная
100
AcDbLine
 10
566.1670183047
 20
1374.2456762314
 30
0.0
 11
566.1670183047
 21
1374.0075165134
 31
0.0
  0
LINE
  5
3ED
330
1F
100
AcDbEntity
  8
1
  6
SLD-Сплошная
100
AcDbLine
 10
566.1670183047
 20
1374.0075165134
 30
0.0
 11
565.2788378119
 21
1373.1193360205
 31
0.0
  0
LINE
  5
3EE
330
1F
100
AcDbEntity
  8
1
  6
SLD-Сплошная
100
AcDbLine
 10
563.100431462
 20
1373.5125417665
 30
0.0
 11
563.33859118
 21
1373.5125417665
 31
0.0
  0
LINE
  5
3EF
330
1F
100
AcDbEntity
  8
1
  6
SLD-Сплошная
100
AcDbLine
 10
563.33859118
 20
1373.5125417665
 30
0.0
 11
564.2267716728
 21
1372.6243612737
 31
0.0
  0
LINE
  5
3F0
330
1F
100
AcDbEntity
  8
1
  6
SLD-Сплошная
100
AcDbLine
 10
563.100431462
 20
1371.1790893886
 30
0.0
 11
563.33859118
 21
1371.1790893886
 31
0.0
  0
LINE
  5
3F1
330
1F
100
AcDbEntity
  8
1
  6
SLD-Сплошная
100
AcDbLine
 10
564.2267716728
 20
1372.0672698815
 30
0.0
 11
563.33859118
 21
1371.1790893886
 31
0.0
  0
LINE
  5
3F2
330
1F
100
AcDbEntity
  8
1
  6
SLD-Сплошная
100
AcDbLine
 10
566.1670183047
 20
1370.4459549238
 30
0.0
 11
566.1670183047
 21
1370.6841146418
 31
0.0
  0
LINE
  5
3F3
330
1F
100
AcDbEntity
  8
1
  6
SLD-Сплошная
100
AcDbLine
 10
565.2788378119
 20
1371.5722951346
 30
0.0
 11
566.1670183047
 21
1370.6841146418
 31
0.0
  0
LINE
  5
3F4
330
1F
100
AcDbEntity
  8
1
  6
SLD-Сплошная
100
AcDbLine
 10
566.9001527696
 20
1371.1790893886
 30
0.0
 11
566.6619930516
 21
1371.1790893886
 31
0.0
  0
LINE
  5
3F5
330
1F
100
AcDbEntity
  8
1
  6
SLD-Сплошная
100
AcDbLine
 10
566.6619930516
 20
1371.1790893886
 30
0.0
 11
565.7738125587
 21
1372.0672698815
 31
0.0
  0
LINE
  5
3F6
330
1F
100
AcDbEntity
  8
1
  6
SLD-Сплошная
100
AcDbLine
 10
563.8335659268
 20
1370.4459549238
 30
0.0
 11
563.8335659268
 21
1370.6841146418
 31
0.0
  0
LINE
  5
3F7
330
1F
100
AcDbEntity
  8
1
  6
SLD-Сплошная
100
AcDbLine
 10
563.8335659268
 20
1370.6841146418
 30
0.0
 11
564.7217464197
 21
1371.5722951346
 31
0.0
  0
LINE
  5
3F8
330
1F
100
AcDbEntity
  8
1
  6
SLD-Сплошная
100
AcDbLine
 10
563.8335659268
 20
1374.2456762314
 30
0.0
 11
563.8335659268
 21
1374.0075165134
 31
0.0
  0
LINE
  5
3F9
330
1F
100
AcDbEntity
  8
1
  6
SLD-Сплошная
100
AcDbLine
 10
564.7217464197
 20
1373.1193360205
 30
0.0
 11
563.8335659268
 21
1374.0075165134
 31
0.0
  0
LINE
  5
3FA
330
1F
100
AcDbEntity
  8
1
  6
SLD-Сплошная
100
AcDbLine
 10
563.8335659268
 20
1374.0075165134
 30
0.0
 11
563.33859118
 21
1373.5125417665
 31
0.0
  0
LINE
  5
3FB
330
1F
100
AcDbEntity
  8
1
  6
SLD-Сплошная
100
AcDbLine
 10
566.6619930516
 20
1373.5125417665
 30
0.0
 11
566.1670183047
 21
1374.0075165134
 31
0.0
  0
LINE
  5
3FC
330
1F
100
AcDbEntity
  8
1
  6
SLD-Сплошная
100
AcDbLine
 10
566.1670183047
 20
1370.6841146418
 30
0.0
 11
566.6619930516
 21
1371.1790893886
 31
0.0
  0
LINE
  5
3FD
330
1F
100
AcDbEntity
  8
1
  6
SLD-Сплошная
100
AcDbLine
 10
563.33859118
 20
1371.1790893886
 30
0.0
 11
563.8335659268
 21
1370.6841146418
 31
0.0
  0
CIRCLE
  5
3FE
330
1F
100
AcDbEntity
  8
1
  6
SLD-Сплошная
100
AcDbCircle
 10
565.0002921158
 20
1372.3458155776
 30
0.0
 40
4.999999999999879
  0
ELLIPSE
  5
3FF
330
1F
100
AcDbEntity
  8
1
  6
SLD-Сплошная
100
AcDbEllipse
 10
781.5870786618
 20
1390.4022589938
 30
0.0
 11
0.3520440699438723
 21
-0.2145091096840588
 31
0.0
210
0.0
220
0.0
230
1.0
 40
0.9702875252
 41
5.512866274278494
 42
7.053504340080651
  0
SPLINE
  5
400
330
1F
100
AcDbEntity
  8
1
  6
SLD-Сплошная
100
AcDbSpline
210
0.0
220
0.0
230
1.0
 70
     8
 71
     3
 72
    12
 73
     8
 74
     0
 42
0.00000001
 43
0.00000001
 40
0.0
 40
0.0
 40
0.0
 40
0.0
 40
0.2187857887072095
 40
0.4375776469534748
 40
0.6562353658863855
 40
0.8748419359491063
 40
1.0
 40
1.0
 40
1.0
 40
1.0
 10
781.4048022351112
 20
1390.187143275856
 30
0.0
 10
781.4462090943912
 20
1390.203279632757
 30
0.0
 10
781.5290239616571
 20
1390.235552794214
 30
0.0
 10
781.6265658078621
 20
1390.3329911175
 30
0.0
 10
781.6891101096575
 20
1390.453603803843
 30
0.0
 10
781.7083031597141
 20
1390.569429984046
 30
0.0
 10
781.698314991346
 20
1390.637935473083
 30
0.0
 10
781.6946784921477
 20
1390.662876998575
 30
0.0
  0
ELLIPSE
  5
401
330
1F
100
AcDbEntity
  8
1
  6
SLD-Сплошная
100
AcDbEllipse
 10
781.9438486995
 20
1388.9326021236
 30
0.0
 11
0.2145091096840588
 21
0.3520440699439859
 31
0.0
210
0.0
220
0.0
230
1.0
 40
0.9702875252
 41
5.512866274278354
 42
7.053504340080388
  0
SPLINE
  5
402
330
1F
100
AcDbEntity
  8
1
  6
SLD-Сплошная
100
AcDbSpline
210
0.0
220
0.0
230
1.0
 70
     8
 71
     3
 72
    12
 73
     8
 74
     0
 42
0.00000001
 43
0.00000001
 40
0.0
 40
0.0
 40
0.0
 40
0.0
 40
0.2187857887072159
 40
0.4375776469534865
 40
0.6562353658863898
 40
0.8748419359490979
 40
0.9999999999999999
 40
0.9999999999999999
 40
0.9999999999999999
 40
0.9999999999999999
 10
782.1589644175084
 20
1388.750325696907
 30
0.0
 10
782.1428280606067
 20
1388.791732556187
 30
0.0
 10
782.1105548991495
 20
1388.874547423453
 30
0.0
 10
782.0131165758634
 20
1388.972089269658
 30
0.0
 10
781.8925038895206
 20
1389.034633571453
 30
0.0
 10
781.776677709318
 20
1389.05382662151
 30
0.0
 10
781.7081722202805
 20
1389.043838453142
 30
0.0
 10
781.6832306947891
 20
1389.040201953944
 30
0.0
  0
ELLIPSE
  5
403
330
1F
100
AcDbEntity
  8
1
  6
SLD-Сплошная
100
AcDbEllipse
 10
783.0567355321
 20
1390.7590290315
 30
0.0
 11
-0.2145091096841724
 21
-0.352044069943986
 31
0.0
210
0.0
220
0.0
230
1.0
 40
0.9702875252
 41
5.512866274278713
 42
7.053504340080268
  0
SPLINE
  5
404
330
1F
100
AcDbEntity
  8
1
  6
SLD-Сплошная
100
AcDbSpline
210
0.0
220
0.0
230
1.0
 70
     8
 71
     3
 72
    12
 73
     8
 74
     0
 42
0.00000001
 43
0.00000001
 40
0.0
 40
0.0
 40
0.0
 40
0.0
 40
0.2187857887072005
 40
0.437577646953476
 40
0.6562353658863848
 40
0.8748419359490978
 40
1.0
 40
1.0
 40
1.0
 40
1.0
 10
782.8416198140595
 20
1390.941305458252
 30
0.0
 10
782.8577561709614
 20
1390.899898598973
 30
0.0
 10
782.8900293324185
 20
1390.817083731707
 30
0.0
 10
782.9874676557046
 20
1390.719541885502
 30
0.0
 10
783.1080803420472
 20
1390.656997583706
 30
0.0
 10
783.22390652225
 20
1390.63780453365
 30
0.0
 10
783.2924120112874
 20
1390.647792702018
 30
0.0
 10
783.3173535367788
 20
1390.651429201216
 30
0.0
  0
ARC
  5
405
330
1F
100
AcDbEntity
  8
1
  6
SLD-Сплошная
100
AcDbCircle
 10
806.2004415949
 20
1395.5992015508
 30
0.0
 40
26.56195549609157
100
AcDbArc
 50
192.5267196435
 51
194.7633220947
  0
ARC
  5
406
330
1F
100
AcDbEntity
  8
1
  6
SLD-Сплошная
100
AcDbCircle
 10
776.9629721425
 20
1411.9713331684
 30
0.0
 40
23.41191191627265
100
AcDbArc
 50
278.7274979605
 51
281.6315804797
  0
ARC
  5
407
330
1F
100
AcDbEntity
  8
1
  6
SLD-Сплошная
100
AcDbCircle
 10
804.70200586
 20
1395.0692577345
 30
0.0
 40
23.41191191627531
100
AcDbArc
 50
195.6584612586
 51
198.5625437778
  0
ARC
  5
408
330
1F
100
AcDbEntity
  8
1
  6
SLD-Сплошная
100
AcDbCircle
 10
776.7469061425
 20
1413.5459650567
 30
0.0
 40
26.56195549612721
100
AcDbArc
 50
282.5267196435
 51
284.7633220947
  0
ARC
  5
409
330
1F
100
AcDbEntity
  8
1
  6
SLD-Сплошная
100
AcDbCircle
 10
760.3747745251
 20
1384.3084956043
 30
0.0
 40
23.41191191608097
100
AcDbArc
 50
8.7274979604
 51
11.6315804797
  0
SPLINE
  5
40A
330
1F
100
AcDbEntity
  8
1
  6
SLD-Сплошная
100
AcDbSpline
210
0.0
220
0.0
230
1.0
 70
     8
 71
     3
 72
    12
 73
     8
 74
     0
 42
0.00000001
 43
0.00000001
 40
0.0
 40
0.0
 40
0.0
 40
0.0
 40
0.2187857887072034
 40
0.4375776469534873
 40
0.656235365886381
 40
0.8748419359491046
 40
1.0
 40
1.0
 40
1.0
 40
1.0
 10
783.5957819964567
 20
1389.504487879304
 30
0.0
 10
783.5543751371767
 20
1389.488351522403
 30
0.0
 10
783.4715602699108
 20
1389.456078360945
 30
0.0
 10
783.3740184237059
 20
1389.358640037659
 30
0.0
 10
783.3114741219105
 20
1389.238027351317
 30
0.0
 10
783.2922810718538
 20
1389.122201171114
 30
0.0
 10
783.3022692402219
 20
1389.053695682077
 30
0.0
 10
783.3059057394203
 20
1389.028754156585
 30
0.0
  0
ARC
  5
40B
330
1F
100
AcDbEntity
  8
1
  6
SLD-Сплошная
100
AcDbCircle
 10
777.276849959
 20
1412.0475293212
 30
0.0
 40
23.41191191559414
100
AcDbArc
 50
285.6584612585
 51
288.5625437778
  0
ARC
  5
40C
330
1F
100
AcDbEntity
  8
1
  6
SLD-Сплошная
100
AcDbCircle
 10
758.8001426367
 20
1384.0924296044
 30
0.0
 40
26.56195549600862
100
AcDbArc
 50
12.5267196435
 51
14.7633220947
  0
ARC
  5
40D
330
1F
100
AcDbEntity
  8
1
  6
SLD-Сплошная
100
AcDbCircle
 10
788.037612089
 20
1367.720297987
 30
0.0
 40
23.41191191599033
100
AcDbArc
 50
98.7274979604
 51
101.6315804797
  0
ARC
  5
40E
330
1F
100
AcDbEntity
  8
1
  6
SLD-Сплошная
100
AcDbCircle
 10
760.2985783717
 20
1384.6223734207
 30
0.0
 40
23.41191191610818
100
AcDbArc
 50
15.6584612585
 51
18.5625437778
  0
ARC
  5
40F
330
1F
100
AcDbEntity
  8
1
  6
SLD-Сплошная
100
AcDbCircle
 10
788.2536780891
 20
1366.1456660982
 30
0.0
 40
26.56195549638607
100
AcDbArc
 50
102.5267196436
 51
104.7633220947
  0
ARC
  5
410
330
1F
100
AcDbEntity
  8
1
  6
SLD-Сплошная
100
AcDbCircle
 10
804.6258097064
 20
1395.3831355508
 30
0.0
 40
23.41191191605975
100
AcDbArc
 50
188.7274979604
 51
191.6315804797
  0
ARC
  5
411
330
1F
100
AcDbEntity
  8
1
  6
SLD-Сплошная
100
AcDbCircle
 10
787.7237342729
 20
1367.6441018328
 30
0.0
 40
23.41191191680035
100
AcDbArc
 50
105.6584612586
 51
108.5625437778
  0
CIRCLE
  5
412
330
1F
100
AcDbEntity
  8
1
  6
SLD-Сплошная
100
AcDbCircle
 10
782.5002921158
 20
1389.8458155776
 30
0.0
 40
3.499999999999991
  0
ELLIPSE
  5
413
330
1F
100
AcDbEntity
  8
1
  6
SLD-Сплошная
100
AcDbEllipse
 10
783.4135055697
 20
1389.2893721613
 30
0.0
 11
-0.352044069943986
 21
0.2145091096842862
 31
0.0
210
0.0
220
0.0
230
1.0
 40
0.9702875252
 41
5.512866274279046
 42
7.053504340080814
  0
LINE
  5
414
330
1F
100
AcDbEntity
  8
1
  6
SLD-Сплошная
100
AcDbLine
 10
784.4852007032
 20
1390.861127551
 30
0.0
 11
784.3612769654
 21
1390.6577486964
 31
0.0
  0
LINE
  5
415
330
1F
100
AcDbEntity
  8
1
  6
SLD-Сплошная
100
AcDbLine
 10
784.3612769654
 20
1390.6577486964
 30
0.0
 11
783.140651663
 21
1390.3614329074
 31
0.0
  0
LINE
  5
416
330
1F
100
AcDbEntity
  8
1
  6
SLD-Сплошная
100
AcDbLine
 10
784.7297898596
 20
1389.8535818043
 30
0.0
 11
784.526411005
 21
1389.9775055421
 31
0.0
  0
LINE
  5
417
330
1F
100
AcDbEntity
  8
1
  6
SLD-Сплошная
100
AcDbLine
 10
783.3057857026
 20
1389.6811897531
 30
0.0
 11
784.526411005
 21
1389.9775055421
 31
0.0
  0
LINE
  5
418
330
1F
100
AcDbEntity
  8
1
  6
SLD-Сплошная
100
AcDbLine
 10
782.5080583425
 20
1387.6163178338
 30
0.0
 11
782.6319820803
 21
1387.8196966884
 31
0.0
  0
LINE
  5
419
330
1F
100
AcDbEntity
  8
1
  6
SLD-Сплошная
100
AcDbLine
 10
782.3356662913
 20
1389.0403219908
 30
0.0
 11
782.6319820803
 21
1387.8196966884
 31
0.0
  0
LINE
  5
41A
330
1F
100
AcDbEntity
  8
1
  6
SLD-Сплошная
100
AcDbLine
 10
783.5156040892
 20
1387.8609069901
 30
0.0
 11
783.3122252346
 21
1387.984830728
 31
0.0
  0
LINE
  5
41B
330
1F
100
AcDbEntity
  8
1
  6
SLD-Сплошная
100
AcDbLine
 10
783.3122252346
 20
1387.984830728
 30
0.0
 11
783.0159094456
 21
1389.2054560303
 31
0.0
  0
LINE
  5
41C
330
1F
100
AcDbEntity
  8
1
  6
SLD-Сплошная
100
AcDbLine
 10
780.270794372
 20
1389.8380493509
 30
0.0
 11
780.4741732266
 21
1389.714125613
 31
0.0
  0
LINE
  5
41D
330
1F
100
AcDbEntity
  8
1
  6
SLD-Сплошная
100
AcDbLine
 10
781.694798529
 20
1390.0104414021
 30
0.0
 11
780.4741732266
 21
1389.714125613
 31
0.0
  0
LINE
  5
41E
330
1F
100
AcDbEntity
  8
1
  6
SLD-Сплошная
100
AcDbLine
 10
780.5153835283
 20
1388.8305036042
 30
0.0
 11
780.6393072662
 21
1389.0338824588
 31
0.0
  0
LINE
  5
41F
330
1F
100
AcDbEntity
  8
1
  6
SLD-Сплошная
100
AcDbLine
 10
780.6393072662
 20
1389.0338824588
 30
0.0
 11
781.8599325686
 21
1389.3301982478
 31
0.0
  0
LINE
  5
420
330
1F
100
AcDbEntity
  8
1
  6
SLD-Сплошная
100
AcDbLine
 10
781.4849801424
 20
1391.830724165
 30
0.0
 11
781.688358997
 21
1391.7068004272
 31
0.0
  0
LINE
  5
421
330
1F
100
AcDbEntity
  8
1
  6
SLD-Сплошная
100
AcDbLine
 10
781.688358997
 20
1391.7068004272
 30
0.0
 11
781.984674786
 21
1390.4861751248
 31
0.0
  0
LINE
  5
422
330
1F
100
AcDbEntity
  8
1
  6
SLD-Сплошная
100
AcDbLine
 10
782.4925258891
 20
1392.0753133214
 30
0.0
 11
782.3686021513
 21
1391.8719344668
 31
0.0
  0
LINE
  5
423
330
1F
100
AcDbEntity
  8
1
  6
SLD-Сплошная
100
AcDbLine
 10
782.6649179403
 20
1390.6513091644
 30
0.0
 11
782.3686021513
 21
1391.8719344668
 31
0.0
  0
LINE
  5
424
330
1F
100
AcDbEntity
  8
1
  6
SLD-Сплошная
100
AcDbLine
 10
782.3686021513
 20
1391.8719344668
 30
0.0
 11
781.688358997
 21
1391.7068004272
 31
0.0
  0
LINE
  5
425
330
1F
100
AcDbEntity
  8
1
  6
SLD-Сплошная
100
AcDbLine
 10
782.6319820803
 20
1387.8196966884
 30
0.0
 11
783.3122252346
 21
1387.984830728
 31
0.0
  0
LINE
  5
426
330
1F
100
AcDbEntity
  8
1
  6
SLD-Сплошная
100
AcDbLine
 10
784.526411005
 20
1389.9775055421
 30
0.0
 11
784.3612769654
 21
1390.6577486964
 31
0.0
  0
LINE
  5
427
330
1F
100
AcDbEntity
  8
1
  6
SLD-Сплошная
100
AcDbLine
 10
780.4741732266
 20
1389.714125613
 30
0.0
 11
780.6393072662
 21
1389.0338824588
 31
0.0
  0
CIRCLE
  5
428
330
1F
100
AcDbEntity
  8
1
  6
SLD-Сплошная
100
AcDbCircle
 10
782.5002921158
 20
1389.8458155776
 30
0.0
 40
4.999999999999972
  0
ELLIPSE
  5
429
330
1F
100
AcDbEntity
  8
1
  6
SLD-Сплошная
100
AcDbEllipse
 10
983.5696788971
 20
1389.8458155776
 30
0.0
 11
-0.4122489361055841
 21
0.0
 31
0.0
210
0.0
220
0.0
230
1.0
 40
0.9702875252
 41
5.512866274278355
 42
7.053504340080424
  0
SPLINE
  5
42A
330
1F
100
AcDbEntity
  8
1
  6
SLD-Сплошная
100
AcDbSpline
210
0.0
220
0.0
230
1.0
 70
     8
 71
     3
 72
    12
 73
     8
 74
     0
 42
0.00000001
 43
0.00000001
 40
0.0
 40
0.0
 40
0.0
 40
0.0
 40
0.2187857887072255
 40
0.4375776469534884
 40
0.6562353658863777
 40
0.8748419359490994
 40
1.0
 40
1.0
 40
1.0
 40
1.0
 10
983.6134026095962
 20
1390.124361273708
 30
0.0
 10
983.586439183524
 20
1390.089035876839
 30
0.0
 10
983.5325115833626
 20
1390.018384103107
 30
0.0
 10
983.4999156943895
 20
1389.884420874466
 30
0.0
 10
983.5092648256316
 20
1389.748878248186
 30
0.0
 10
983.5531435837134
 20
1389.639980443892
 30
0.0
 10
983.5973191419998
 20
1389.586676733086
 30
0.0
 10
983.6134026095962
 20
1389.567269881452
 30
0.0
  0
ELLIPSE
  5
42B
330
1F
100
AcDbEntity
  8
1
  6
SLD-Сплошная
100
AcDbEllipse
 10
982.5002921158
 20
1388.7764287963
 30
0.0
 11
0.0
 21
0.4122489361056978
 31
0.0
210
0.0
220
0.0
230
1.0
 40
0.9702875252
 41
5.512866274278359
 42
7.053504340080828
  0
SPLINE
  5
42C
330
1F
100
AcDbEntity
  8
1
  6
SLD-Сплошная
100
AcDbSpline
210
0.0
220
0.0
230
1.0
 70
     8
 71
     3
 72
    12
 73
     8
 74
     0
 42
0.00000001
 43
0.00000001
 40
0.0
 40
0.0
 40
0.0
 40
0.0
 40
0.2187857887072158
 40
0.437577646953487
 40
0.656235365886403
 40
0.874841935949098
 40
1.0
 40
1.0
 40
1.0
 40
1.0
 10
982.778837811912
 20
1388.732705083768
 30
0.0
 10
982.743512415043
 20
1388.75966850984
 30
0.0
 10
982.6728606413105
 20
1388.813596110001
 30
0.0
 10
982.5388974126695
 20
1388.846191998974
 30
0.0
 10
982.4033547863896
 20
1388.836842867732
 30
0.0
 10
982.2944569820957
 20
1388.79296410965
 30
0.0
 10
982.2411532712898
 20
1388.748788551364
 30
0.0
 10
982.2217464196559
 20
1388.732705083768
 30
0.0
  0
ELLIPSE
  5
42D
330
1F
100
AcDbEntity
  8
1
  6
SLD-Сплошная
100
AcDbEllipse
 10
982.5002921158
 20
1390.9152023589
 30
0.0
 11
0.0
 21
-0.4122489361056978
 31
0.0
210
0.0
220
0.0
230
1.0
 40
0.9702875252
 41
5.512866274278359
 42
7.053504340080828
  0
SPLINE
  5
42E
330
1F
100
AcDbEntity
  8
1
  6
SLD-Сплошная
100
AcDbSpline
210
0.0
220
0.0
230
1.0
 70
     8
 71
     3
 72
    12
 73
     8
 74
     0
 42
0.00000001
 43
0.00000001
 40
0.0
 40
0.0
 40
0.0
 40
0.0
 40
0.2187857887071779
 40
0.4375776469534922
 40
0.6562353658863623
 40
0.8748419359490983
 40
1.0
 40
1.0
 40
1.0
 40
1.0
 10
982.2217464196559
 20
1390.958926071392
 30
0.0
 10
982.2570718165249
 20
1390.93196264532
 30
0.0
 10
982.3277235902573
 20
1390.878035045159
 30
0.0
 10
982.4616868188982
 20
1390.845439156185
 30
0.0
 10
982.5972294451783
 20
1390.854788287428
 30
0.0
 10
982.7061272494723
 20
1390.898667045509
 30
0.0
 10
982.7594309602781
 20
1390.942842603796
 30
0.0
 10
982.778837811912
 20
1390.958926071392
 30
0.0
  0
ELLIPSE
  5
42F
330
1F
100
AcDbEntity
  8
1
  6
SLD-Сплошная
100
AcDbEllipse
 10
981.4309053345
 20
1389.8458155776
 30
0.0
 11
0.4122489361055841
 21
0.0
 31
0.0
210
0.0
220
0.0
230
1.0
 40
0.9702875252
 41
5.512866274279046
 42
7.053504340080548
  0
SPLINE
  5
430
330
1F
100
AcDbEntity
  8
1
  6
SLD-Сплошная
100
AcDbSpline
210
0.0
220
0.0
230
1.0
 70
     8
 71
     3
 72
    12
 73
     8
 74
     0
 42
0.00000001
 43
0.00000001
 40
0.0
 40
0.0
 40
0.0
 40
0.0
 40
0.2187857887072118
 40
0.4375776469534857
 40
0.6562353658864084
 40
0.8748419359491202
 40
1.0
 40
1.0
 40
1.0
 40
1.0
 10
981.3871816219716
 20
1389.567269881452
 30
0.0
 10
981.4141450480437
 20
1389.602595278321
 30
0.0
 10
981.4680726482052
 20
1389.673247052053
 30
0.0
 10
981.5006685371783
 20
1389.807210280694
 30
0.0
 10
981.4913194059361
 20
1389.942752906974
 30
0.0
 10
981.4474406478544
 20
1390.051650711268
 30
0.0
 10
981.403265089568
 20
1390.104954422074
 30
0.0
 10
981.3871816219716
 20
1390.124361273708
 30
0.0
  0
ARC
  5
431
330
1F
100
AcDbEntity
  8
1
  6
SLD-Сплошная
100
AcDbCircle
 10
999.7455600972
 20
1407.091083559
 30
0.0
 40
26.56195549630857
100
AcDbArc
 50
223.8816987744
 51
226.1183012256
  0
ARC
  5
432
330
1F
100
AcDbEntity
  8
1
  6
SLD-Сплошная
100
AcDbCircle
 10
966.2588778799
 20
1405.8588385512
 30
0.0
 40
23.4119119159758
100
AcDbArc
 50
310.0824770913
 51
312.9865596106
  0
ARC
  5
433
330
1F
100
AcDbEntity
  8
1
  6
SLD-Сплошная
100
AcDbCircle
 10
998.7417063517
 20
1405.8588385511
 30
0.0
 40
23.4119119159297
100
AcDbArc
 50
227.0134403894
 51
229.9175229087
  0
ARC
  5
434
330
1F
100
AcDbEntity
  8
1
  6
SLD-Сплошная
100
AcDbCircle
 10
965.2550241346
 20
1407.0910835588
 30
0.0
 40
26.5619554960163
100
AcDbArc
 50
313.8816987744
 51
316.1183012256
  0
ARC
  5
435
330
1F
100
AcDbEntity
  8
1
  6
SLD-Сплошная
100
AcDbCircle
 10
966.4872691415
 20
1373.6044013411
 30
0.0
 40
23.4119119168759
100
AcDbArc
 50
40.0824770914
 51
42.9865596105
  0
ARC
  5
436
330
1F
100
AcDbEntity
  8
1
  6
SLD-Сплошная
100
AcDbCircle
 10
966.4872691421
 20
1406.0872298136
 30
0.0
 40
23.41191191614293
100
AcDbArc
 50
317.0134403894
 51
319.9175229087
  0
ARC
  5
437
330
1F
100
AcDbEntity
  8
1
  6
SLD-Сплошная
100
AcDbCircle
 10
965.2550241343
 20
1372.6005475961
 30
0.0
 40
26.56195549637854
100
AcDbArc
 50
43.8816987744
 51
46.1183012256
  0
ARC
  5
438
330
1F
100
AcDbEntity
  8
1
  6
SLD-Сплошная
100
AcDbCircle
 10
998.7417063517
 20
1373.832792604
 30
0.0
 40
23.41191191599281
100
AcDbArc
 50
130.0824770913
 51
132.9865596106
  0
ARC
  5
439
330
1F
100
AcDbEntity
  8
1
  6
SLD-Сплошная
100
AcDbCircle
 10
966.2588778799
 20
1373.832792604
 30
0.0
 40
23.41191191593773
100
AcDbArc
 50
47.0134403894
 51
49.9175229087
  0
ARC
  5
43A
330
1F
100
AcDbEntity
  8
1
  6
SLD-Сплошная
100
AcDbCircle
 10
999.7455600972
 20
1372.6005475962
 30
0.0
 40
26.56195549630841
100
AcDbArc
 50
133.8816987744
 51
136.1183012256
  0
ARC
  5
43B
330
1F
100
AcDbEntity
  8
1
  6
SLD-Сплошная
100
AcDbCircle
 10
998.5133150894
 20
1406.0872298135
 30
0.0
 40
23.4119119160096
100
AcDbArc
 50
220.0824770913
 51
222.9865596106
  0
ARC
  5
43C
330
1F
100
AcDbEntity
  8
1
  6
SLD-Сплошная
100
AcDbCircle
 10
998.5133150896
 20
1373.6044013415
 30
0.0
 40
23.41191191625257
100
AcDbArc
 50
137.0134403894
 51
139.9175229087
  0
CIRCLE
  5
43D
330
1F
100
AcDbEntity
  8
1
  6
SLD-Сплошная
100
AcDbCircle
 10
982.5002921158
 20
1389.8458155776
 30
0.0
 40
3.499999999999948
  0
LINE
  5
43E
330
1F
100
AcDbEntity
  8
1
  6
SLD-Сплошная
100
AcDbLine
 10
984.4001527696
 20
1391.0125417665
 30
0.0
 11
984.1619930516
 21
1391.0125417665
 31
0.0
  0
LINE
  5
43F
330
1F
100
AcDbEntity
  8
1
  6
SLD-Сплошная
100
AcDbLine
 10
983.2738125587
 20
1390.1243612737
 30
0.0
 11
984.1619930516
 21
1391.0125417665
 31
0.0
  0
LINE
  5
440
330
1F
100
AcDbEntity
  8
1
  6
SLD-Сплошная
100
AcDbLine
 10
983.6670183047
 20
1391.7456762314
 30
0.0
 11
983.6670183047
 21
1391.5075165134
 31
0.0
  0
LINE
  5
441
330
1F
100
AcDbEntity
  8
1
  6
SLD-Сплошная
100
AcDbLine
 10
983.6670183047
 20
1391.5075165134
 30
0.0
 11
982.7788378119
 21
1390.6193360205
 31
0.0
  0
LINE
  5
442
330
1F
100
AcDbEntity
  8
1
  6
SLD-Сплошная
100
AcDbLine
 10
983.6670183047
 20
1387.9459549238
 30
0.0
 11
983.6670183047
 21
1388.1841146418
 31
0.0
  0
LINE
  5
443
330
1F
100
AcDbEntity
  8
1
  6
SLD-Сплошная
100
AcDbLine
 10
982.7788378119
 20
1389.0722951346
 30
0.0
 11
983.6670183047
 21
1388.1841146418
 31
0.0
  0
LINE
  5
444
330
1F
100
AcDbEntity
  8
1
  6
SLD-Сплошная
100
AcDbLine
 10
984.4001527696
 20
1388.6790893886
 30
0.0
 11
984.1619930516
 21
1388.6790893886
 31
0.0
  0
LINE
  5
445
330
1F
100
AcDbEntity
  8
1
  6
SLD-Сплошная
100
AcDbLine
 10
984.1619930516
 20
1388.6790893886
 30
0.0
 11
983.2738125587
 21
1389.5672698815
 31
0.0
  0
LINE
  5
446
330
1F
100
AcDbEntity
  8
1
  6
SLD-Сплошная
100
AcDbLine
 10
980.600431462
 20
1388.6790893886
 30
0.0
 11
980.83859118
 21
1388.6790893886
 31
0.0
  0
LINE
  5
447
330
1F
100
AcDbEntity
  8
1
  6
SLD-Сплошная
100
AcDbLine
 10
981.7267716728
 20
1389.5672698815
 30
0.0
 11
980.83859118
 21
1388.6790893886
 31
0.0
  0
LINE
  5
448
330
1F
100
AcDbEntity
  8
1
  6
SLD-Сплошная
100
AcDbLine
 10
981.3335659268
 20
1387.9459549238
 30
0.0
 11
981.3335659268
 21
1388.1841146418
 31
0.0
  0
LINE
  5
449
330
1F
100
AcDbEntity
  8
1
  6
SLD-Сплошная
100
AcDbLine
 10
981.3335659268
 20
1388.1841146418
 30
0.0
 11
982.2217464197
 21
1389.0722951346
 31
0.0
  0
LINE
  5
44A
330
1F
100
AcDbEntity
  8
1
  6
SLD-Сплошная
100
AcDbLine
 10
981.3335659268
 20
1391.7456762314
 30
0.0
 11
981.3335659268
 21
1391.5075165134
 31
0.0
  0
LINE
  5
44B
330
1F
100
AcDbEntity
  8
1
  6
SLD-Сплошная
100
AcDbLine
 10
982.2217464197
 20
1390.6193360205
 30
0.0
 11
981.3335659268
 21
1391.5075165134
 31
0.0
  0
LINE
  5
44C
330
1F
100
AcDbEntity
  8
1
  6
SLD-Сплошная
100
AcDbLine
 10
980.600431462
 20
1391.0125417665
 30
0.0
 11
980.83859118
 21
1391.0125417665
 31
0.0
  0
LINE
  5
44D
330
1F
100
AcDbEntity
  8
1
  6
SLD-Сплошная
100
AcDbLine
 10
980.83859118
 20
1391.0125417665
 30
0.0
 11
981.7267716728
 21
1390.1243612737
 31
0.0
  0
LINE
  5
44E
330
1F
100
AcDbEntity
  8
1
  6
SLD-Сплошная
100
AcDbLine
 10
981.3335659268
 20
1391.5075165134
 30
0.0
 11
980.83859118
 21
1391.0125417665
 31
0.0
  0
LINE
  5
44F
330
1F
100
AcDbEntity
  8
1
  6
SLD-Сплошная
100
AcDbLine
 10
983.6670183047
 20
1388.1841146418
 30
0.0
 11
984.1619930516
 21
1388.6790893886
 31
0.0
  0
LINE
  5
450
330
1F
100
AcDbEntity
  8
1
  6
SLD-Сплошная
100
AcDbLine
 10
984.1619930516
 20
1391.0125417665
 30
0.0
 11
983.6670183047
 21
1391.5075165134
 31
0.0
  0
LINE
  5
451
330
1F
100
AcDbEntity
  8
1
  6
SLD-Сплошная
100
AcDbLine
 10
980.83859118
 20
1388.6790893886
 30
0.0
 11
981.3335659268
 21
1388.1841146418
 31
0.0
  0
CIRCLE
  5
452
330
1F
100
AcDbEntity
  8
1
  6
SLD-Сплошная
100
AcDbCircle
 10
982.5002921158
 20
1389.8458155776
 30
0.0
 40
4.99999999999996
  0
ELLIPSE
  5
453
330
1F
100
AcDbEntity
  8
1
  6
SLD-Сплошная
100
AcDbEllipse
 10
883.5696788971
 20
1389.8458155776
 30
0.0
 11
-0.4122489361056978
 21
0.0
 31
0.0
210
0.0
220
0.0
230
1.0
 40
0.9702875252
 41
5.512866274278409
 42
7.053504340080777
  0
SPLINE
  5
454
330
1F
100
AcDbEntity
  8
1
  6
SLD-Сплошная
100
AcDbSpline
210
0.0
220
0.0
230
1.0
 70
     8
 71
     3
 72
    12
 73
     8
 74
     0
 42
0.00000001
 43
0.00000001
 40
0.0
 40
0.0
 40
0.0
 40
0.0
 40
0.2187857887072162
 40
0.4375776469534877
 40
0.6562353658863814
 40
0.8748419359490976
 40
1.0
 40
1.0
 40
1.0
 40
1.0
 10
883.6134026095963
 20
1390.124361273708
 30
0.0
 10
883.5864391835242
 20
1390.089035876839
 30
0.0
 10
883.5325115833626
 20
1390.018384103107
 30
0.0
 10
883.4999156943895
 20
1389.884420874465
 30
0.0
 10
883.5092648256317
 20
1389.748878248186
 30
0.0
 10
883.5531435837134
 20
1389.639980443892
 30
0.0
 10
883.5973191420001
 20
1389.586676733086
 30
0.0
 10
883.6134026095963
 20
1389.567269881452
 30
0.0
  0
ELLIPSE
  5
455
330
1F
100
AcDbEntity
  8
1
  6
SLD-Сплошная
100
AcDbEllipse
 10
882.5002921158
 20
1388.7764287963
 30
0.0
 11
0.0
 21
0.4122489361059252
 31
0.0
210
0.0
220
0.0
230
1.0
 40
0.9702875252
 41
5.512866274278813
 42
7.053504340080373
  0
SPLINE
  5
456
330
1F
100
AcDbEntity
  8
1
  6
SLD-Сплошная
100
AcDbSpline
210
0.0
220
0.0
230
1.0
 70
     8
 71
     3
 72
    12
 73
     8
 74
     0
 42
0.00000001
 43
0.00000001
 40
0.0
 40
0.0
 40
0.0
 40
0.0
 40
0.2187857887072162
 40
0.4375776469534877
 40
0.6562353658863814
 40
0.8748419359490976
 40
1.0
 40
1.0
 40
1.0
 40
1.0
 10
882.7788378119119
 20
1388.732705083768
 30
0.0
 10
882.743512415043
 20
1388.759668509839
 30
0.0
 10
882.6728606413106
 20
1388.813596110001
 30
0.0
 10
882.5388974126696
 20
1388.846191998974
 30
0.0
 10
882.4033547863896
 20
1388.836842867732
 30
0.0
 10
882.2944569820957
 20
1388.79296410965
 30
0.0
 10
882.2411532712897
 20
1388.748788551364
 30
0.0
 10
882.221746419656
 20
1388.732705083768
 30
0.0
  0
ELLIPSE
  5
457
330
1F
100
AcDbEntity
  8
1
  6
SLD-Сплошная
100
AcDbEllipse
 10
882.5002921158
 20
1390.9152023589
 30
0.0
 11
0.0
 21
-0.4122489361054704
 31
0.0
210
0.0
220
0.0
230
1.0
 40
0.9702875252
 41
5.512866274278596
 42
7.053504340080591
  0
SPLINE
  5
458
330
1F
100
AcDbEntity
  8
1
  6
SLD-Сплошная
100
AcDbSpline
210
0.0
220
0.0
230
1.0
 70
     8
 71
     3
 72
    12
 73
     8
 74
     0
 42
0.00000001
 43
0.00000001
 40
0.0
 40
0.0
 40
0.0
 40
0.0
 40
0.2187857887072158
 40
0.437577646953487
 40
0.656235365886403
 40
0.874841935949098
 40
1.0
 40
1.0
 40
1.0
 40
1.0
 10
882.221746419656
 20
1390.958926071392
 30
0.0
 10
882.2570718165249
 20
1390.93196264532
 30
0.0
 10
882.3277235902574
 20
1390.878035045159
 30
0.0
 10
882.4616868188983
 20
1390.845439156185
 30
0.0
 10
882.5972294451783
 20
1390.854788287427
 30
0.0
 10
882.7061272494723
 20
1390.898667045509
 30
0.0
 10
882.7594309602782
 20
1390.942842603796
 30
0.0
 10
882.7788378119119
 20
1390.958926071392
 30
0.0
  0
ELLIPSE
  5
459
330
1F
100
AcDbEntity
  8
1
  6
SLD-Сплошная
100
AcDbEllipse
 10
881.4309053345
 20
1389.8458155776
 30
0.0
 11
0.4122489361056978
 21
0.0
 31
0.0
210
0.0
220
0.0
230
1.0
 40
0.9702875252
 41
5.512866274278693
 42
7.053504340080494
  0
SPLINE
  5
45A
330
1F
100
AcDbEntity
  8
1
  6
SLD-Сплошная
100
AcDbSpline
210
0.0
220
0.0
230
1.0
 70
     8
 71
     3
 72
    12
 73
     8
 74
     0
 42
0.00000001
 43
0.00000001
 40
0.0
 40
0.0
 40
0.0
 40
0.0
 40
0.2187857887072158
 40
0.437577646953487
 40
0.656235365886403
 40
0.874841935949098
 40
1.0
 40
1.0
 40
1.0
 40
1.0
 10
881.3871816219718
 20
1389.567269881452
 30
0.0
 10
881.4141450480437
 20
1389.602595278321
 30
0.0
 10
881.4680726482053
 20
1389.673247052053
 30
0.0
 10
881.5006685371784
 20
1389.807210280694
 30
0.0
 10
881.4913194059362
 20
1389.942752906974
 30
0.0
 10
881.4474406478545
 20
1390.051650711268
 30
0.0
 10
881.403265089568
 20
1390.104954422074
 30
0.0
 10
881.3871816219718
 20
1390.124361273708
 30
0.0
  0
ARC
  5
45B
330
1F
100
AcDbEntity
  8
1
  6
SLD-Сплошная
100
AcDbCircle
 10
899.7455600968
 20
1407.0910835586
 30
0.0
 40
26.5619554957419
100
AcDbArc
 50
223.8816987744
 51
226.1183012256
  0
ARC
  5
45C
330
1F
100
AcDbEntity
  8
1
  6
SLD-Сплошная
100
AcDbCircle
 10
866.2588778797
 20
1405.8588385514
 30
0.0
 40
23.41191191623421
100
AcDbArc
 50
310.0824770913
 51
312.9865596106
  0
ARC
  5
45D
330
1F
100
AcDbEntity
  8
1
  6
SLD-Сплошная
100
AcDbCircle
 10
898.7417063518
 20
1405.8588385513
 30
0.0
 40
23.41191191615691
100
AcDbArc
 50
227.0134403894
 51
229.9175229087
  0
ARC
  5
45E
330
1F
100
AcDbEntity
  8
1
  6
SLD-Сплошная
100
AcDbCircle
 10
865.2550241348
 20
1407.0910835586
 30
0.0
 40
26.56195549574222
100
AcDbArc
 50
313.8816987744
 51
316.1183012256
  0
ARC
  5
45F
330
1F
100
AcDbEntity
  8
1
  6
SLD-Сплошная
100
AcDbCircle
 10
866.4872691419
 20
1373.6044013414
 30
0.0
 40
23.41191191636505
100
AcDbArc
 50
40.0824770913
 51
42.9865596106
  0
ARC
  5
460
330
1F
100
AcDbEntity
  8
1
  6
SLD-Сплошная
100
AcDbCircle
 10
866.4872691423
 20
1406.0872298134
 30
0.0
 40
23.41191191581073
100
AcDbArc
 50
317.0134403894
 51
319.9175229087
  0
ARC
  5
461
330
1F
100
AcDbEntity
  8
1
  6
SLD-Сплошная
100
AcDbCircle
 10
865.2550241346
 20
1372.6005475964
 30
0.0
 40
26.5619554959905
100
AcDbArc
 50
43.8816987744
 51
46.1183012256
  0
ARC
  5
462
330
1F
100
AcDbEntity
  8
1
  6
SLD-Сплошная
100
AcDbCircle
 10
898.7417063516
 20
1373.832792604
 30
0.0
 40
23.41191191590275
100
AcDbArc
 50
130.0824770913
 51
132.9865596106
  0
ARC
  5
463
330
1F
100
AcDbEntity
  8
1
  6
SLD-Сплошная
100
AcDbCircle
 10
866.2588778799
 20
1373.832792604
 30
0.0
 40
23.4119119159797
100
AcDbArc
 50
47.0134403894
 51
49.9175229087
  0
ARC
  5
464
330
1F
100
AcDbEntity
  8
1
  6
SLD-Сплошная
100
AcDbCircle
 10
899.745560097
 20
1372.6005475964
 30
0.0
 40
26.56195549599049
100
AcDbArc
 50
133.8816987744
 51
136.1183012256
  0
ARC
  5
465
330
1F
100
AcDbEntity
  8
1
  6
SLD-Сплошная
100
AcDbCircle
 10
898.5133150894
 20
1406.0872298135
 30
0.0
 40
23.41191191594909
100
AcDbArc
 50
220.0824770913
 51
222.9865596106
  0
ARC
  5
466
330
1F
100
AcDbEntity
  8
1
  6
SLD-Сплошная
100
AcDbCircle
 10
898.5133150895
 20
1373.6044013415
 30
0.0
 40
23.41191191620774
100
AcDbArc
 50
137.0134403894
 51
139.9175229087
  0
CIRCLE
  5
467
330
1F
100
AcDbEntity
  8
1
  6
SLD-Сплошная
100
AcDbCircle
 10
882.5002921158
 20
1389.8458155776
 30
0.0
 40
3.499999999999948
  0
LINE
  5
468
330
1F
100
AcDbEntity
  8
1
  6
SLD-Сплошная
100
AcDbLine
 10
883.6670183047
 20
1391.7456762314
 30
0.0
 11
883.6670183047
 21
1391.5075165134
 31
0.0
  0
LINE
  5
469
330
1F
100
AcDbEntity
  8
1
  6
SLD-Сплошная
100
AcDbLine
 10
883.6670183047
 20
1391.5075165134
 30
0.0
 11
882.7788378119
 21
1390.6193360205
 31
0.0
  0
LINE
  5
46A
330
1F
100
AcDbEntity
  8
1
  6
SLD-Сплошная
100
AcDbLine
 10
884.4001527696
 20
1391.0125417665
 30
0.0
 11
884.1619930516
 21
1391.0125417665
 31
0.0
  0
LINE
  5
46B
330
1F
100
AcDbEntity
  8
1
  6
SLD-Сплошная
100
AcDbLine
 10
883.2738125587
 20
1390.1243612737
 30
0.0
 11
884.1619930516
 21
1391.0125417665
 31
0.0
  0
LINE
  5
46C
330
1F
100
AcDbEntity
  8
1
  6
SLD-Сплошная
100
AcDbLine
 10
881.3335659268
 20
1391.7456762314
 30
0.0
 11
881.3335659268
 21
1391.5075165134
 31
0.0
  0
LINE
  5
46D
330
1F
100
AcDbEntity
  8
1
  6
SLD-Сплошная
100
AcDbLine
 10
882.2217464197
 20
1390.6193360205
 30
0.0
 11
881.3335659268
 21
1391.5075165134
 31
0.0
  0
LINE
  5
46E
330
1F
100
AcDbEntity
  8
1
  6
SLD-Сплошная
100
AcDbLine
 10
881.3335659268
 20
1387.9459549238
 30
0.0
 11
881.3335659268
 21
1388.1841146418
 31
0.0
  0
LINE
  5
46F
330
1F
100
AcDbEntity
  8
1
  6
SLD-Сплошная
100
AcDbLine
 10
881.3335659268
 20
1388.1841146418
 30
0.0
 11
882.2217464197
 21
1389.0722951346
 31
0.0
  0
LINE
  5
470
330
1F
100
AcDbEntity
  8
1
  6
SLD-Сплошная
100
AcDbLine
 10
880.600431462
 20
1391.0125417665
 30
0.0
 11
880.83859118
 21
1391.0125417665
 31
0.0
  0
LINE
  5
471
330
1F
100
AcDbEntity
  8
1
  6
SLD-Сплошная
100
AcDbLine
 10
880.83859118
 20
1391.0125417665
 30
0.0
 11
881.7267716728
 21
1390.1243612737
 31
0.0
  0
LINE
  5
472
330
1F
100
AcDbEntity
  8
1
  6
SLD-Сплошная
100
AcDbLine
 10
883.6670183047
 20
1387.9459549238
 30
0.0
 11
883.6670183047
 21
1388.1841146418
 31
0.0
  0
LINE
  5
473
330
1F
100
AcDbEntity
  8
1
  6
SLD-Сплошная
100
AcDbLine
 10
882.7788378119
 20
1389.0722951346
 30
0.0
 11
883.6670183047
 21
1388.1841146418
 31
0.0
  0
LINE
  5
474
330
1F
100
AcDbEntity
  8
1
  6
SLD-Сплошная
100
AcDbLine
 10
884.4001527696
 20
1388.6790893886
 30
0.0
 11
884.1619930516
 21
1388.6790893886
 31
0.0
  0
LINE
  5
475
330
1F
100
AcDbEntity
  8
1
  6
SLD-Сплошная
100
AcDbLine
 10
884.1619930516
 20
1388.6790893886
 30
0.0
 11
883.2738125587
 21
1389.5672698815
 31
0.0
  0
LINE
  5
476
330
1F
100
AcDbEntity
  8
1
  6
SLD-Сплошная
100
AcDbLine
 10
880.600431462
 20
1388.6790893886
 30
0.0
 11
880.83859118
 21
1388.6790893886
 31
0.0
  0
LINE
  5
477
330
1F
100
AcDbEntity
  8
1
  6
SLD-Сплошная
100
AcDbLine
 10
881.7267716728
 20
1389.5672698815
 30
0.0
 11
880.83859118
 21
1388.6790893886
 31
0.0
  0
LINE
  5
478
330
1F
100
AcDbEntity
  8
1
  6
SLD-Сплошная
100
AcDbLine
 10
884.1619930516
 20
1391.0125417665
 30
0.0
 11
883.6670183047
 21
1391.5075165134
 31
0.0
  0
LINE
  5
479
330
1F
100
AcDbEntity
  8
1
  6
SLD-Сплошная
100
AcDbLine
 10
881.3335659268
 20
1391.5075165134
 30
0.0
 11
880.83859118
 21
1391.0125417665
 31
0.0
  0
LINE
  5
47A
330
1F
100
AcDbEntity
  8
1
  6
SLD-Сплошная
100
AcDbLine
 10
883.6670183047
 20
1388.1841146418
 30
0.0
 11
884.1619930516
 21
1388.6790893886
 31
0.0
  0
LINE
  5
47B
330
1F
100
AcDbEntity
  8
1
  6
SLD-Сплошная
100
AcDbLine
 10
880.83859118
 20
1388.6790893886
 30
0.0
 11
881.3335659268
 21
1388.1841146418
 31
0.0
  0
CIRCLE
  5
47C
330
1F
100
AcDbEntity
  8
1
  6
SLD-Сплошная
100
AcDbCircle
 10
882.5002921158
 20
1389.8458155776
 30
0.0
 40
5.000000000000121
  0
ARC
  5
47D
330
1F
100
AcDbEntity
  8
1
  6
SLD-Сплошная
100
AcDbCircle
 10
568.8783344075
 20
1333.9240074426
 30
0.0
 40
26.56195549640685
100
AcDbArc
 50
259.7321939069
 51
261.9687963581
  0
ARC
  5
47E
330
1F
100
AcDbEntity
  8
1
  6
SLD-Сплошная
100
AcDbCircle
 10
542.4574635715
 20
1313.3129934461
 30
0.0
 40
23.4119119163191
100
AcDbArc
 50
345.9329722238
 51
348.8370547431
  0
SPLINE
  5
47F
330
1F
100
AcDbEntity
  8
1
  6
SLD-Сплошная
100
AcDbSpline
210
0.0
220
0.0
230
1.0
 70
     8
 71
     3
 72
    12
 73
     8
 74
     0
 42
0.00000001
 43
0.00000001
 40
0.0
 40
0.0
 40
0.0
 40
0.0
 40
0.2187857887071989
 40
0.4375776469534885
 40
0.6562353658863966
 40
0.8748419359491308
 40
1.0
 40
1.0
 40
1.0
 40
1.0
 10
565.8779846863911
 20
1309.106722601177
 30
0.0
 10
565.8335600271785
 20
1309.107888647205
 30
0.0
 10
565.7447094763277
 20
1309.110220771609
 30
0.0
 10
565.6170353449155
 20
1309.058182758829
 30
0.0
 10
565.5126470700303
 20
1308.971221285404
 30
0.0
 10
565.4500787457232
 20
1308.871877025458
 30
0.0
 10
565.432745929078
 20
1308.804852112159
 30
0.0
 10
565.4264353852914
 20
1308.780449635699
 30
0.0
  0
ARC
  5
480
330
1F
100
AcDbEntity
  8
1
  6
SLD-Сплошная
100
AcDbCircle
 10
568.7863544829
 20
1332.3372844694
 30
0.0
 40
23.41191191650864
100
AcDbArc
 50
262.863935522
 51
265.7680180412
  0
ARC
  5
481
330
1F
100
AcDbEntity
  8
1
  6
SLD-Сплошная
100
AcDbCircle
 10
540.922100251
 20
1313.7238578693
 30
0.0
 40
26.56195549616602
100
AcDbArc
 50
349.7321939069
 51
351.9687963581
  0
ARC
  5
482
330
1F
100
AcDbEntity
  8
1
  6
SLD-Сплошная
100
AcDbCircle
 10
561.5331142474
 20
1287.3029870336
 30
0.0
 40
23.41191191599124
100
AcDbArc
 50
75.9329722238
 51
78.8370547431
  0
SPLINE
  5
483
330
1F
100
AcDbEntity
  8
1
  6
SLD-Сплошная
100
AcDbSpline
210
0.0
220
0.0
230
1.0
 70
     8
 71
     3
 72
    12
 73
     8
 74
     0
 42
0.00000001
 43
0.00000001
 40
0.0
 40
0.0
 40
0.0
 40
0.0
 40
0.2187857887071898
 40
0.4375776469534868
 40
0.6562353658863918
 40
0.8748419359490933
 40
1.0
 40
1.0
 40
1.0
 40
1.0
 10
565.7393850921866
 20
1310.723508148187
 30
0.0
 10
565.738219046159
 20
1310.679083488974
 30
0.0
 10
565.7358869217553
 20
1310.590232938124
 30
0.0
 10
565.7879249345343
 20
1310.462558806711
 30
0.0
 10
565.87488640796
 20
1310.358170531826
 30
0.0
 10
565.9742306679062
 20
1310.295602207519
 30
0.0
 10
566.0412555812052
 20
1310.278269390874
 30
0.0
 10
566.065658057665
 20
1310.271958847087
 30
0.0
  0
ARC
  5
484
330
1F
100
AcDbEntity
  8
1
  6
SLD-Сплошная
100
AcDbCircle
 10
542.5088232246
 20
1313.6318779446
 30
0.0
 40
23.41191191586644
100
AcDbArc
 50
352.8639355219
 51
355.7680180412
  0
ARC
  5
485
330
1F
100
AcDbEntity
  8
1
  6
SLD-Сплошная
100
AcDbCircle
 10
561.1222498242
 20
1285.7676237134
 30
0.0
 40
26.56195549558088
100
AcDbArc
 50
79.7321939069
 51
81.9687963581
  0
ARC
  5
486
330
1F
100
AcDbEntity
  8
1
  6
SLD-Сплошная
100
AcDbCircle
 10
587.5431206599
 20
1306.3786377091
 30
0.0
 40
23.41191191610069
100
AcDbArc
 50
165.9329722238
 51
168.8370547431
  0
SPLINE
  5
487
330
1F
100
AcDbEntity
  8
1
  6
SLD-Сплошная
100
AcDbSpline
210
0.0
220
0.0
230
1.0
 70
     8
 71
     3
 72
    12
 73
     8
 74
     0
 42
0.00000001
 43
0.00000001
 40
0.0
 40
0.0
 40
0.0
 40
0.0
 40
0.2187857887071923
 40
0.4375776469534917
 40
0.6562353658863643
 40
0.874841935949092
 40
1.0
 40
1.0
 40
1.0
 40
1.0
 10
564.122599545177
 20
1310.584908553982
 30
0.0
 10
564.1670242043896
 20
1310.583742507955
 30
0.0
 10
564.2558747552403
 20
1310.581410383551
 30
0.0
 10
564.3835488866525
 20
1310.63344839633
 30
0.0
 10
564.4879371615377
 20
1310.720409869756
 30
0.0
 10
564.5505054858448
 20
1310.819754129702
 30
0.0
 10
564.5678383024901
 20
1310.886779043001
 30
0.0
 10
564.5741488462768
 20
1310.911181519461
 30
0.0
  0
ARC
  5
488
330
1F
100
AcDbEntity
  8
1
  6
SLD-Сплошная
100
AcDbCircle
 10
561.2142297488
 20
1287.3543466865
 30
0.0
 40
23.41191191577644
100
AcDbArc
 50
82.8639355219
 51
85.7680180412
  0
ARC
  5
489
330
1F
100
AcDbEntity
  8
1
  6
SLD-Сплошная
100
AcDbCircle
 10
589.07848398
 20
1305.967773286
 30
0.0
 40
26.56195549556423
100
AcDbArc
 50
169.7321939069
 51
171.9687963581
  0
ARC
  5
48A
330
1F
100
AcDbEntity
  8
1
  6
SLD-Сплошная
100
AcDbCircle
 10
568.4674699843
 20
1332.3886441219
 30
0.0
 40
23.41191191635817
100
AcDbArc
 50
255.9329722239
 51
258.8370547431
  0
SPLINE
  5
48B
330
1F
100
AcDbEntity
  8
1
  6
SLD-Сплошная
100
AcDbSpline
210
0.0
220
0.0
230
1.0
 70
     8
 71
     3
 72
    12
 73
     8
 74
     0
 42
0.00000001
 43
0.00000001
 40
0.0
 40
0.0
 40
0.0
 40
0.0
 40
0.2187857887072338
 40
0.4375776469534699
 40
0.6562353658863723
 40
0.8748419359490949
 40
1.0
 40
1.0
 40
1.0
 40
1.0
 10
564.2611991393815
 20
1308.968123006973
 30
0.0
 10
564.2623651854091
 20
1309.012547666185
 30
0.0
 10
564.2646973098126
 20
1309.101398217036
 30
0.0
 10
564.2126592970338
 20
1309.229072348449
 30
0.0
 10
564.125697823608
 20
1309.333460623334
 30
0.0
 10
564.0263535636619
 20
1309.396028947641
 30
0.0
 10
563.9593286503627
 20
1309.413361764286
 30
0.0
 10
563.934926173903
 20
1309.419672308072
 30
0.0
  0
ARC
  5
48C
330
1F
100
AcDbEntity
  8
1
  6
SLD-Сплошная
100
AcDbCircle
 10
587.4917610071
 20
1306.0597532105
 30
0.0
 40
23.4119119159777
100
AcDbArc
 50
172.8639355219
 51
175.7680180412
  0
CIRCLE
  5
48D
330
1F
100
AcDbEntity
  8
1
  6
SLD-Сплошная
100
AcDbCircle
 10
565.0002921158
 20
1309.8458155776
 30
0.0
 40
3.500000000000013
  0
ELLIPSE
  5
48E
330
1F
100
AcDbEntity
  8
1
  6
SLD-Сплошная
100
AcDbEllipse
 10
565.8670814082
 20
1310.4721257328
 30
0.0
 11
-0.3341475412566979
 21
-0.2414427592461834
 31
0.0
210
0.0
220
0.0
230
0.9999999999999999
 40
0.9702875252
 41
5.512866274278284
 42
7.053504340080821
  0
ELLIPSE
  5
48F
330
1F
100
AcDbEntity
  8
1
  6
SLD-Сплошная
100
AcDbEllipse
 10
565.626602271
 20
1308.9790262852
 30
0.0
 11
-0.241442759245956
 21
0.3341475412566979
 31
0.0
210
0.0
220
0.0
230
1.0
 40
0.9702875252
 41
5.512866274278871
 42
7.053504340080815
  0
ELLIPSE
  5
490
330
1F
100
AcDbEntity
  8
1
  6
SLD-Сплошная
100
AcDbEllipse
 10
564.1335028234
 20
1309.2195054223
 30
0.0
 11
0.3341475412566979
 21
0.2414427592461834
 31
0.0
210
0.0
220
0.0
230
0.9999999999999999
 40
0.9702875252
 41
5.512866274278226
 42
7.053504340080254
  0
ELLIPSE
  5
491
330
1F
100
AcDbEntity
  8
1
  6
SLD-Сплошная
100
AcDbEllipse
 10
564.3739819605
 20
1310.71260487
 30
0.0
 11
0.2414427592460697
 21
-0.3341475412566979
 31
0.0
210
0.0
220
0.0
230
1.0
 40
0.9702875252
 41
5.512866274278729
 42
7.053504340080839
  0
LINE
  5
492
330
1F
100
AcDbEntity
  8
1
  6
SLD-Сплошная
100
AcDbLine
 10
565.8569011811
 20
1311.9041987812
 30
0.0
 11
565.6638613035
 21
1311.7647152449
 31
0.0
  0
LINE
  5
493
330
1F
100
AcDbEntity
  8
1
  6
SLD-Сплошная
100
AcDbLine
 10
565.4641310634
 20
1310.5246196813
 30
0.0
 11
565.6638613035
 21
1311.7647152449
 31
0.0
  0
LINE
  5
494
330
1F
100
AcDbEntity
  8
1
  6
SLD-Сплошная
100
AcDbLine
 10
564.8332840169
 20
1312.069062932
 30
0.0
 11
564.9727675533
 21
1311.8760230543
 31
0.0
  0
LINE
  5
495
330
1F
100
AcDbEntity
  8
1
  6
SLD-Сплошная
100
AcDbLine
 10
564.9727675533
 20
1311.8760230543
 30
0.0
 11
564.7730373132
 21
1310.6359274907
 31
0.0
  0
LINE
  5
496
330
1F
100
AcDbEntity
  8
1
  6
SLD-Сплошная
100
AcDbLine
 10
562.9419089121
 20
1310.7024246429
 30
0.0
 11
563.0813924485
 21
1310.5093847653
 31
0.0
  0
LINE
  5
497
330
1F
100
AcDbEntity
  8
1
  6
SLD-Сплошная
100
AcDbLine
 10
564.3214880121
 20
1310.3096545252
 30
0.0
 11
563.0813924485
 21
1310.5093847653
 31
0.0
  0
LINE
  5
498
330
1F
100
AcDbEntity
  8
1
  6
SLD-Сплошная
100
AcDbLine
 10
567.2235394702
 20
1310.0128236764
 30
0.0
 11
567.0304995925
 21
1309.8733401401
 31
0.0
  0
LINE
  5
499
330
1F
100
AcDbEntity
  8
1
  6
SLD-Сплошная
100
AcDbLine
 10
567.0304995925
 20
1309.8733401401
 30
0.0
 11
565.7904040289
 21
1310.0730703802
 31
0.0
  0
LINE
  5
49A
330
1F
100
AcDbEntity
  8
1
  6
SLD-Сплошная
100
AcDbLine
 10
565.1673002146
 20
1307.6225682232
 30
0.0
 11
565.0278166783
 21
1307.8156081009
 31
0.0
  0
LINE
  5
49B
330
1F
100
AcDbEntity
  8
1
  6
SLD-Сплошная
100
AcDbLine
 10
565.0278166783
 20
1307.8156081009
 30
0.0
 11
565.2275469184
 21
1309.0557036645
 31
0.0
  0
LINE
  5
49C
330
1F
100
AcDbEntity
  8
1
  6
SLD-Сплошная
100
AcDbLine
 10
564.1436830504
 20
1307.7874323739
 30
0.0
 11
564.3367229281
 21
1307.9269159103
 31
0.0
  0
LINE
  5
49D
330
1F
100
AcDbEntity
  8
1
  6
SLD-Сплошная
100
AcDbLine
 10
564.5364531682
 20
1309.1670114739
 30
0.0
 11
564.3367229281
 21
1307.9269159103
 31
0.0
  0
LINE
  5
49E
330
1F
100
AcDbEntity
  8
1
  6
SLD-Сплошная
100
AcDbLine
 10
567.0586753194
 20
1308.9892065122
 30
0.0
 11
566.9191917831
 21
1309.1822463899
 31
0.0
  0
LINE
  5
49F
330
1F
100
AcDbEntity
  8
1
  6
SLD-Сплошная
100
AcDbLine
 10
565.6790962195
 20
1309.38197663
 30
0.0
 11
566.9191917831
 21
1309.1822463899
 31
0.0
  0
LINE
  5
4A0
330
1F
100
AcDbEntity
  8
1
  6
SLD-Сплошная
100
AcDbLine
 10
562.7770447614
 20
1309.6788074787
 30
0.0
 11
562.9700846391
 21
1309.8182910151
 31
0.0
  0
LINE
  5
4A1
330
1F
100
AcDbEntity
  8
1
  6
SLD-Сплошная
100
AcDbLine
 10
562.9700846391
 20
1309.8182910151
 30
0.0
 11
564.2101802027
 21
1309.618560775
 31
0.0
  0
LINE
  5
4A2
330
1F
100
AcDbEntity
  8
1
  6
SLD-Сплошная
100
AcDbLine
 10
566.9191917831
 20
1309.1822463899
 30
0.0
 11
567.0304995925
 21
1309.8733401401
 31
0.0
  0
LINE
  5
4A3
330
1F
100
AcDbEntity
  8
1
  6
SLD-Сплошная
100
AcDbLine
 10
563.0813924485
 20
1310.5093847653
 30
0.0
 11
562.9700846391
 21
1309.8182910151
 31
0.0
  0
LINE
  5
4A4
330
1F
100
AcDbEntity
  8
1
  6
SLD-Сплошная
100
AcDbLine
 10
565.6638613035
 20
1311.7647152449
 30
0.0
 11
564.9727675533
 21
1311.8760230543
 31
0.0
  0
LINE
  5
4A5
330
1F
100
AcDbEntity
  8
1
  6
SLD-Сплошная
100
AcDbLine
 10
564.3367229281
 20
1307.9269159103
 30
0.0
 11
565.0278166783
 21
1307.8156081009
 31
0.0
  0
CIRCLE
  5
4A6
330
1F
100
AcDbEntity
  8
1
  6
SLD-Сплошная
100
AcDbCircle
 10
565.0002921158
 20
1309.8458155776
 30
0.0
 40
4.999999999999991
  0
CIRCLE
  5
4A7
330
1F
100
AcDbEntity
  8
1
  6
SLD-Сплошная
100
AcDbCircle
 10
1017.5002921158
 20
1457.0958155776
 30
0.0
 40
8.299999999999955
  0
LINE
  5
4A8
330
1F
100
AcDbEntity
  8
1
  6
SLD-Сплошная
100
AcDbLine
 10
603.7002921157
 20
1499.1958155776
 30
0.0
 11
575.7002921157
 21
1499.1958155776
 31
0.0
  0
LINE
  5
4A9
330
1F
100
AcDbEntity
  8
1
  6
SLD-Сплошная
100
AcDbLine
 10
600.7002921157
 20
1502.1958155776
 30
0.0
 11
578.7002921157
 21
1502.1958155776
 31
0.0
  0
LINE
  5
4AA
330
1F
100
AcDbEntity
  8
1
  6
SLD-Сплошная
100
AcDbLine
 10
1028.5002921158
 20
1473.0958155776
 30
0.0
 11
1028.5002921158
 21
1472.0958155776
 31
0.0
  0
LINE
  5
4AB
330
1F
100
AcDbEntity
  8
1
  6
SLD-Сплошная
100
AcDbLine
 10
1026.5002921158
 20
1474.0958155776
 30
0.0
 11
1027.5002921158
 21
1474.0958155776
 31
0.0
  0
SPLINE
  5
4AC
330
1F
100
AcDbEntity
  8
1
  6
SLD-Сплошная
100
AcDbSpline
210
0.0
220
0.0
230
1.0
 70
     8
 71
     3
 72
    12
 73
     8
 74
     0
 42
0.00000001
 43
0.00000001
 40
0.0
 40
0.0
 40
0.0
 40
0.0
 40
0.2178231110882048
 40
0.4765675029999342
 40
0.8410160589292527
 40
0.9961871477581015
 40
1.0
 40
1.0
 40
1.0
 40
1.0
 10
1027.50029211576
 20
1474.09581557758
 30
0.0
 10
1027.641428685793
 20
1474.076462384169
 30
0.0
 10
1027.950216410048
 20
1474.034120214815
 30
0.0
 10
1028.308026538408
 20
1473.739972459946
 30
0.0
 10
1028.474276804431
 20
1473.405981965346
 30
0.0
 10
1028.500165709249
 20
1473.169309778955
 30
0.0
 10
1028.500289155202
 20
1473.097536880099
 30
0.0
 10
1028.50029211576
 20
1473.09581557758
 30
0.0
  0
LINE
  5
4AD
330
1F
100
AcDbEntity
  8
1
  6
SLD-Сплошная
100
AcDbLine
 10
1016.0002921158
 20
1474.0958155776
 30
0.0
 11
1026.5002921158
 21
1474.0958155776
 31
0.0
  0
ARC
  5
4AE
330
1F
100
AcDbEntity
  8
1
  6
SLD-Сплошная
100
AcDbCircle
 10
1016.0002921158
 20
1475.0958155776
 30
0.0
 40
1.0
100
AcDbArc
 50
180.0
 51
270.0
  0
ARC
  5
4AF
330
1F
100
AcDbEntity
  8
1
  6
SLD-Сплошная
100
AcDbCircle
 10
1016.0002921158
 20
1475.0958155776
 30
0.0
 40
3.000000000000114
100
AcDbArc
 50
180.0
 51
270.0
  0
LINE
  5
4B0
330
1F
100
AcDbEntity
  8
1
  6
SLD-Сплошная
100
AcDbLine
 10
1013.0002921158
 20
1479.1958155776
 30
0.0
 11
1013.0002921158
 21
1475.0958155776
 31
0.0
  0
LINE
  5
4B1
330
1F
100
AcDbEntity
  8
1
  6
SLD-Сплошная
100
AcDbLine
 10
1015.0002921158
 20
1479.1958155776
 30
0.0
 11
1015.0002921158
 21
1475.0958155776
 31
0.0
  0
LINE
  5
4B2
330
1F
100
AcDbEntity
  8
1
  6
SLD-Сплошная
100
AcDbLine
 10
1024.7529833092
 20
1474.5958155776
 30
0.0
 11
1026.1002921158
 21
1474.5958155776
 31
0.0
  0
LINE
  5
4B3
330
1F
100
AcDbEntity
  8
1
  6
SLD-Сплошная
100
AcDbLine
 10
1016.9002921158
 20
1474.5958155776
 30
0.0
 11
1024.7529833092
 21
1474.5958155776
 31
0.0
  0
LINE
  5
4B4
330
1F
100
AcDbEntity
  8
1
  6
SLD-Сплошная
100
AcDbLine
 10
1024.7529833092
 20
1474.1958155776
 30
0.0
 11
1026.1002921158
 21
1474.1958155776
 31
0.0
  0
LINE
  5
4B5
330
1F
100
AcDbEntity
  8
1
  6
SLD-Сплошная
100
AcDbLine
 10
1016.9002921158
 20
1474.1958155776
 30
0.0
 11
1024.7529833092
 21
1474.1958155776
 31
0.0
  0
ARC
  5
4B6
330
1F
100
AcDbEntity
  8
1
  6
SLD-Сплошная
100
AcDbCircle
 10
1015.5002921158
 20
1474.5958155776
 30
0.0
 40
2.500000000000114
100
AcDbArc
 50
180.0
 51
270.0
  0
LINE
  5
4B7
330
1F
100
AcDbEntity
  8
1
  6
SLD-Сплошная
100
AcDbLine
 10
1013.0002921158
 20
1475.0958155776
 30
0.0
 11
1013.0002921158
 21
1474.5958155776
 31
0.0
  0
LINE
  5
4B8
330
1F
100
AcDbEntity
  8
1
  6
SLD-Сплошная
100
AcDbLine
 10
1637.4568051668
 20
923.7488444739
 30
0.0
 11
1637.4568051668
 21
229.309479899
 31
0.0
  0
ARC
  5
4B9
330
1F
100
AcDbEntity
  8
1
  6
SLD-Сплошная
100
AcDbCircle
 10
1631.5221812055
 20
831.6791621864
 30
0.0
 40
0.1999999999999514
100
AcDbArc
 50
270.0
 51
338.1849373759
  0
ARC
  5
4BA
330
1F
100
AcDbEntity
  8
1
  6
SLD-Сплошная
100
AcDbCircle
 10
1631.5221812055
 20
841.3791621864
 30
0.0
 40
0.2000000000000455
100
AcDbArc
 50
21.8150626241
 51
90.0
  0
LINE
  5
4BB
330
1F
100
AcDbEntity
  8
1
  6
SLD-Сплошная
100
AcDbLine
 10
1630.3568051667
 20
831.4791621864
 30
0.0
 11
1631.5221812055
 21
831.4791621864
 31
0.0
  0
LINE
  5
4BC
330
1F
100
AcDbEntity
  8
1
  6
SLD-Сплошная
100
AcDbLine
 10
1631.5221812055
 20
841.5791621864
 30
0.0
 11
1630.3568051667
 21
841.5791621864
 31
0.0
  0
ARC
  5
4BD
330
1F
100
AcDbEntity
  8
1
  6
SLD-Сплошная
100
AcDbCircle
 10
1619.4055551667
 20
836.5291621864
 30
0.0
 40
13.25125000000003
100
AcDbArc
 50
338.1849373759
 51
0.0
  0
ARC
  5
4BE
330
1F
100
AcDbEntity
  8
1
  6
SLD-Сплошная
100
AcDbCircle
 10
1619.4055551667
 20
836.5291621864
 30
0.0
 40
13.25125000000003
100
AcDbArc
 50
0.0
 51
21.8150626241
  0
LINE
  5
4BF
330
1F
100
AcDbEntity
  8
1
  6
SLD-Сплошная
100
AcDbLine
 10
1630.3568051667
 20
311.4791621864
 30
0.0
 11
1631.5221812055
 21
311.4791621864
 31
0.0
  0
LINE
  5
4C0
330
1F
100
AcDbEntity
  8
1
  6
SLD-Сплошная
100
AcDbLine
 10
1631.5221812055
 20
321.5791621864
 30
0.0
 11
1630.3568051667
 21
321.5791621864
 31
0.0
  0
ARC
  5
4C1
330
1F
100
AcDbEntity
  8
1
  6
SLD-Сплошная
100
AcDbCircle
 10
1631.5221812055
 20
311.6791621864
 30
0.0
 40
0.1999999999999886
100
AcDbArc
 50
270.0
 51
338.1849373759
  0
ARC
  5
4C2
330
1F
100
AcDbEntity
  8
1
  6
SLD-Сплошная
100
AcDbCircle
 10
1631.5221812055
 20
321.3791621864
 30
0.0
 40
0.1999999999999886
100
AcDbArc
 50
21.8150626241
 51
90.0
  0
ARC
  5
4C3
330
1F
100
AcDbEntity
  8
1
  6
SLD-Сплошная
100
AcDbCircle
 10
1619.4055551667
 20
316.5291621864
 30
0.0
 40
13.25125000000003
100
AcDbArc
 50
338.1849373759
 51
0.0
  0
ARC
  5
4C4
330
1F
100
AcDbEntity
  8
1
  6
SLD-Сплошная
100
AcDbCircle
 10
1619.4055551667
 20
316.5291621864
 30
0.0
 40
13.25125000000003
100
AcDbArc
 50
0.0
 51
21.8150626241
  0
LINE
  5
4C5
330
1F
100
AcDbEntity
  8
1
  6
SLD-Сплошная
100
AcDbLine
 10
1607.0568051668
 20
226.5291621864
 30
0.0
 11
1607.0568051668
 21
225.3234001288
 31
0.0
  0
LINE
  5
4C6
330
1F
100
AcDbEntity
  8
1
  6
SLD-Сплошная
100
AcDbLine
 10
1623.6568051668
 20
225.3234001288
 30
0.0
 11
1623.6568051668
 21
226.5291621864
 31
0.0
  0
ARC
  5
4C7
330
1F
100
AcDbEntity
  8
1
  6
SLD-Сплошная
100
AcDbCircle
 10
1608.0568051668
 20
225.3234001288
 30
0.0
 40
1.000000000000227
100
AcDbArc
 50
180.0
 51
257.5813184942
  0
ARC
  5
4C8
330
1F
100
AcDbEntity
  8
1
  6
SLD-Сплошная
100
AcDbCircle
 10
1622.6568051668
 20
225.3234001288
 30
0.0
 40
1.000000000000227
100
AcDbArc
 50
282.4186815058
 51
0.0
  0
ARC
  5
4C9
330
1F
100
AcDbEntity
  8
1
  6
SLD-Сплошная
100
AcDbCircle
 10
1615.3568051668
 20
258.4741621864
 30
0.0
 40
34.94500000000004
100
AcDbArc
 50
270.0104111827
 51
282.4186815058
  0
ARC
  5
4CA
330
1F
100
AcDbEntity
  8
1
  6
SLD-Сплошная
100
AcDbCircle
 10
1615.3568051668
 20
258.4741621864
 30
0.0
 40
34.94500000000004
100
AcDbArc
 50
257.5813184942
 51
270.0104111827
  0
LINE
  5
4CB
330
1F
100
AcDbEntity
  8
1
  6
SLD-Сплошная
100
AcDbLine
 10
1657.4568051668
 20
562.5291621864
 30
0.0
 11
1660.4568051668
 21
565.5291621864
 31
0.0
  0
LINE
  5
4CC
330
1F
100
AcDbEntity
  8
1
  6
SLD-Сплошная
100
AcDbLine
 10
1660.4568051667
 20
587.5291621864
 30
0.0
 11
1657.4568051667
 21
590.5291621864
 31
0.0
  0
LINE
  5
4CD
330
1F
100
AcDbEntity
  8
1
  6
SLD-Сплошная
100
AcDbLine
 10
1656.4568051668
 20
562.5291621864
 30
0.0
 11
1657.4568051668
 21
562.5291621864
 31
0.0
  0
LINE
  5
4CE
330
1F
100
AcDbEntity
  8
1
  6
SLD-Сплошная
100
AcDbLine
 10
1657.4568051667
 20
590.5291621864
 30
0.0
 11
1656.4568051667
 21
590.5291621864
 31
0.0
  0
LINE
  5
4CF
330
1F
100
AcDbEntity
  8
1
  6
SLD-Сплошная
100
AcDbLine
 10
1358.8568051668
 20
228.5291621864
 30
0.0
 11
1628.3568051668
 21
228.5291621864
 31
0.0
  0
CIRCLE
  5
4D0
330
1F
100
AcDbEntity
  8
1
  6
SLD-Сплошная
100
AcDbCircle
 10
1590.3568051668
 20
276.5291621864
 30
0.0
 40
0.5
  0
CIRCLE
  5
4D1
330
1F
100
AcDbEntity
  8
1
  6
SLD-Сплошная
100
AcDbCircle
 10
1590.3568051668
 20
876.5291621864
 30
0.0
 40
0.5
  0
CIRCLE
  5
4D2
330
1F
100
AcDbEntity
  8
1
  6
SLD-Сплошная
100
AcDbCircle
 10
1540.3568051668
 20
886.5291621864
 30
0.0
 40
0.5
  0
LINE
  5
4D3
330
1F
100
AcDbEntity
  8
1
  6
SLD-Сплошная
100
AcDbLine
 10
1358.8568051668
 20
924.5291621864
 30
0.0
 11
1358.8568051668
 21
926.5291621864
 31
0.0
  0
LINE
  5
4D4
330
1F
100
AcDbEntity
  8
1
  6
SLD-Сплошная
100
AcDbLine
 10
1358.8568051668
 20
926.5291621864
 30
0.0
 11
1628.3568051668
 21
926.5291621864
 31
0.0
  0
LINE
  5
4D5
330
1F
100
AcDbEntity
  8
1
  6
SLD-Сплошная
100
AcDbLine
 10
1628.3568051668
 20
924.5291621864
 30
0.0
 11
1628.3568051668
 21
926.5291621864
 31
0.0
  0
ELLIPSE
  5
4D6
330
1F
100
AcDbEntity
  8
1
  6
SLD-Сплошная
100
AcDbEllipse
 10
1358.8568051668
 20
923.9584515083
 30
0.0
 11
2.499999999999773
 21
0.0
 31
0.0
210
0.0
220
0.0
230
1.0
 40
0.6
 41
2.751284095251539
 42
3.141592653589968
  0
ELLIPSE
  5
4D7
330
1F
100
AcDbEntity
  8
1
  6
SLD-Сплошная
100
AcDbEllipse
 10
1358.8568051668
 20
229.0998728646
 30
0.0
 11
2.499999999999773
 21
0.0
 31
0.0
210
0.0
220
0.0
230
1.0
 40
0.6
 41
3.141592653589641
 42
3.531901211928134
  0
LINE
  5
4D8
330
1F
100
AcDbEntity
  8
1
  6
SLD-Сплошная
100
AcDbLine
 10
1356.3568051668
 20
229.0998728646
 30
0.0
 11
1356.3568051668
 21
923.9584515083
 31
0.0
  0
LINE
  5
4D9
330
1F
100
AcDbEntity
  8
1
  6
SLD-Сплошная
100
AcDbLine
 10
1356.5448259029
 20
228.5291621864
 30
0.0
 11
1358.8568051668
 21
228.5291621864
 31
0.0
  0
LINE
  5
4DA
330
1F
100
AcDbEntity
  8
1
  6
SLD-Сплошная
100
AcDbLine
 10
1356.5448259029
 20
924.5291621864
 30
0.0
 11
1358.8568051668
 21
924.5291621864
 31
0.0
  0
LINE
  5
4DB
330
1F
100
AcDbEntity
  8
1
  6
SLD-Сплошная
100
AcDbLine
 10
1630.3568051668
 20
924.4584515083
 30
0.0
 11
1628.3568051668
 21
924.5291621864
 31
0.0
  0
LINE
  5
4DC
330
1F
100
AcDbEntity
  8
1
  6
SLD-Сплошная
100
AcDbLine
 10
1630.3568051668
 20
924.4584515083
 30
0.0
 11
1630.3568051668
 21
228.5998728645
 31
0.0
  0
LINE
  5
4DD
330
1F
100
AcDbEntity
  8
1
  6
SLD-Сплошная
100
AcDbLine
 10
1630.3568051668
 20
228.5998728645
 30
0.0
 11
1628.3568051668
 21
228.5291621864
 31
0.0
  0
LINE
  5
4DE
330
1F
100
AcDbEntity
  8
1
  6
SLD-Сплошная
100
AcDbLine
 10
1358.8568051668
 20
226.8588328776
 30
0.0
 11
1358.8568051668
 21
228.5291621864
 31
0.0
  0
LINE
  5
4DF
330
1F
100
AcDbEntity
  8
1
  6
SLD-Сплошная
100
AcDbLine
 10
1628.3568051668
 20
228.5291621864
 30
0.0
 11
1628.3568051668
 21
226.8588328776
 31
0.0
  0
LINE
  5
4E0
330
1F
100
AcDbEntity
  8
1
  6
SLD-Сплошная
100
AcDbLine
 10
1628.3568051668
 20
226.5291621864
 30
0.0
 11
1358.8568051668
 21
226.5291621864
 31
0.0
  0
LINE
  5
4E1
330
1F
100
AcDbEntity
  8
1
  6
SLD-Сплошная
100
AcDbLine
 10
1356.5448259029
 20
228.077977723
 30
0.0
 11
1357.4696176084
 21
228.4584515084
 31
0.0
  0
ARC
  5
4E2
330
1F
100
AcDbEntity
  8
1
  6
SLD-Сплошная
100
AcDbCircle
 10
1358.8568051668
 20
229.0291621864
 30
0.0
 40
2.500000000000116
100
AcDbArc
 50
202.3630330978
 51
270.0
  0
LINE
  5
4E3
330
1F
100
AcDbEntity
  8
1
  6
SLD-Сплошная
100
AcDbLine
 10
1358.8568051668
 20
226.8588328776
 30
0.0
 11
1358.8568051668
 21
226.5291621864
 31
0.0
  0
ARC
  5
4E4
330
1F
100
AcDbEntity
  8
1
  6
SLD-Сплошная
100
AcDbCircle
 10
1358.8568051668
 20
229.0291621864
 30
0.0
 40
1.500000000000068
100
AcDbArc
 50
202.3630330978
 51
270.0
  0
LINE
  5
4E5
330
1F
100
AcDbEntity
  8
1
  6
SLD-Сплошная
100
AcDbLine
 10
1356.5448259029
 20
924.9803466499
 30
0.0
 11
1357.4696176084
 21
924.5998728645
 31
0.0
  0
ARC
  5
4E6
330
1F
100
AcDbEntity
  8
1
  6
SLD-Сплошная
100
AcDbCircle
 10
1358.8568051668
 20
924.0291621864
 30
0.0
 40
1.500000000000024
100
AcDbArc
 50
90.0
 51
157.6369669023
  0
ARC
  5
4E7
330
1F
100
AcDbEntity
  8
1
  6
SLD-Сплошная
100
AcDbCircle
 10
1358.8568051668
 20
924.0291621864
 30
0.0
 40
2.500000000000083
100
AcDbArc
 50
90.0
 51
157.6369669022
  0
LINE
  5
4E8
330
1F
100
AcDbEntity
  8
1
  6
SLD-Сплошная
100
AcDbLine
 10
1356.3568051668
 20
229.0291621864
 30
0.0
 11
1356.3595844895
 21
229.0291621864
 31
0.0
  0
ARC
  5
4E9
330
1F
100
AcDbEntity
  8
1
  6
SLD-Сплошная
100
AcDbCircle
 10
1358.8568051668
 20
229.0291621864
 30
0.0
 40
2.500000000000116
100
AcDbArc
 50
180.0
 51
202.3630330978
  0
LINE
  5
4EA
330
1F
100
AcDbEntity
  8
1
  6
SLD-Сплошная
100
AcDbLine
 10
1356.3568051668
 20
924.0291621864
 30
0.0
 11
1356.3595844895
 21
924.0291621864
 31
0.0
  0
ARC
  5
4EB
330
1F
100
AcDbEntity
  8
1
  6
SLD-Сплошная
100
AcDbCircle
 10
1358.8568051668
 20
924.0291621864
 30
0.0
 40
2.500000000000083
100
AcDbArc
 50
157.6369669022
 51
180.0
  0
ARC
  5
4EC
330
1F
100
AcDbEntity
  8
1
  6
SLD-Сплошная
100
AcDbCircle
 10
1628.3568051668
 20
228.5291621864
 30
0.0
 40
2.0
100
AcDbArc
 50
270.0
 51
360.0
  0
ARC
  5
4ED
330
1F
100
AcDbEntity
  8
1
  6
SLD-Сплошная
100
AcDbCircle
 10
1628.3568051668
 20
228.5291621864
 30
0.0
 40
1.0
100
AcDbArc
 50
270.0
 51
0.0
  0
LINE
  5
4EE
330
1F
100
AcDbEntity
  8
1
  6
SLD-Сплошная
100
AcDbLine
 10
1629.3568051668
 20
228.5291621864
 30
0.0
 11
1630.3568051668
 21
228.5291621864
 31
0.0
  0
LINE
  5
4EF
330
1F
100
AcDbEntity
  8
1
  6
SLD-Сплошная
100
AcDbLine
 10
1628.3568051668
 20
226.5291621864
 30
0.0
 11
1628.3568051668
 21
226.8588328776
 31
0.0
  0
ARC
  5
4F0
330
1F
100
AcDbEntity
  8
1
  6
SLD-Сплошная
100
AcDbCircle
 10
1628.3568051668
 20
924.5291621864
 30
0.0
 40
2.0
100
AcDbArc
 50
0.0
 51
90.0
  0
LINE
  5
4F1
330
1F
100
AcDbEntity
  8
1
  6
SLD-Сплошная
100
AcDbLine
 10
1629.3568051668
 20
924.5291621864
 30
0.0
 11
1630.3568051668
 21
924.5291621864
 31
0.0
  0
ARC
  5
4F2
330
1F
100
AcDbEntity
  8
1
  6
SLD-Сплошная
100
AcDbCircle
 10
1628.3568051668
 20
924.5291621864
 30
0.0
 40
1.000000000000114
100
AcDbArc
 50
0.0
 51
90.0
  0
LINE
  5
4F3
330
1F
100
AcDbEntity
  8
1
  6
SLD-Сплошная
100
AcDbLine
 10
1629.3568051668
 20
228.5291621864
 30
0.0
 11
1629.3568051668
 21
228.5645175254
 31
0.0
  0
LINE
  5
4F4
330
1F
100
AcDbEntity
  8
1
  6
SLD-Сплошная
100
AcDbLine
 10
1630.3568051668
 20
228.5291621864
 30
0.0
 11
1630.3568051668
 21
228.5998728644
 31
0.0
  0
LINE
  5
4F5
330
1F
100
AcDbEntity
  8
1
  6
SLD-Сплошная
100
AcDbLine
 10
1629.3568051668
 20
924.5291621864
 30
0.0
 11
1629.3568051668
 21
924.4938068474
 31
0.0
  0
LINE
  5
4F6
330
1F
100
AcDbEntity
  8
1
  6
SLD-Сплошная
100
AcDbLine
 10
1630.3568051668
 20
924.5291621864
 30
0.0
 11
1630.3568051668
 21
924.4584515084
 31
0.0
  0
LINE
  5
4F7
330
1F
100
AcDbEntity
  8
1
  6
SLD-Сплошная
100
AcDbLine
 10
1356.3568051668
 20
924.0291621864
 30
0.0
 11
1356.3568051668
 21
923.9584515084
 31
0.0
  0
LINE
  5
4F8
330
1F
100
AcDbEntity
  8
1
  6
SLD-Сплошная
100
AcDbLine
 10
1356.3568051668
 20
229.0291621864
 30
0.0
 11
1356.3568051668
 21
229.0998728644
 31
0.0
  0
ELLIPSE
  5
4F9
330
1F
100
AcDbEntity
  8
1
  6
SLD-Сплошная
100
AcDbEllipse
 10
1631.3568051668
 20
907.4584515083
 30
0.0
 11
0.0
 21
1.999999999999886
 31
0.0
210
0.0
220
0.0
230
1.0
 40
0.5
 41
1.570796326794897
 42
3.141592653589793
  0
ELLIPSE
  5
4FA
330
1F
100
AcDbEntity
  8
1
  6
SLD-Сплошная
100
AcDbEllipse
 10
1631.3568051668
 20
245.5998728645
 30
0.0
 11
0.0
 21
1.999999999999829
 31
0.0
210
0.0
220
0.0
230
1.0
 40
0.5
 41
0.0
 42
1.570796326794897
  0
ARC
  5
4FB
330
1F
100
AcDbEntity
  8
1
  6
SLD-Сплошная
100
AcDbCircle
 10
1631.3568051668
 20
907.5291621864
 30
0.0
 40
0.9999999999998863
100
AcDbArc
 50
180.0
 51
270.0
  0
ARC
  5
4FC
330
1F
100
AcDbEntity
  8
1
  6
SLD-Сплошная
100
AcDbCircle
 10
1631.3568051668
 20
907.5291621864
 30
0.0
 40
1.999999999999886
100
AcDbArc
 50
261.2995225168
 51
270.0
  0
ARC
  5
4FD
330
1F
100
AcDbEntity
  8
1
  6
SLD-Сплошная
100
AcDbCircle
 10
1631.3568051668
 20
245.5291621864
 30
0.0
 40
1.0
100
AcDbArc
 50
90.0
 51
180.0
  0
ARC
  5
4FE
330
1F
100
AcDbEntity
  8
1
  6
SLD-Сплошная
100
AcDbCircle
 10
1631.3568051668
 20
245.5291621864
 30
0.0
 40
1.999999999999943
100
AcDbArc
 50
90.0
 51
98.7004774832
  0
LINE
  5
4FF
330
1F
100
AcDbEntity
  8
1
  6
SLD-Сплошная
100
AcDbLine
 10
1631.3568051668
 20
905.4584515083
 30
0.0
 11
1637.4568051667
 21
905.4584515083
 31
0.0
  0
LINE
  5
500
330
1F
100
AcDbEntity
  8
1
  6
SLD-Сплошная
100
AcDbLine
 10
1631.3568051668
 20
247.5998728646
 30
0.0
 11
1637.4568051667
 21
247.5998728645
 31
0.0
  0
LINE
  5
501
330
1F
100
AcDbEntity
  8
1
  6
SLD-Сплошная
100
AcDbLine
 10
1637.4568051667
 20
246.5291621864
 30
0.0
 11
1631.3568051668
 21
246.5291621864
 31
0.0
  0
LINE
  5
502
330
1F
100
AcDbEntity
  8
1
  6
SLD-Сплошная
100
AcDbLine
 10
1637.4568051667
 20
247.5291621864
 30
0.0
 11
1631.3568051668
 21
247.5291621864
 31
0.0
  0
LINE
  5
503
330
1F
100
AcDbEntity
  8
1
  6
SLD-Сплошная
100
AcDbLine
 10
1637.4568051667
 20
906.5291621864
 30
0.0
 11
1631.3568051668
 21
906.5291621864
 31
0.0
  0
LINE
  5
504
330
1F
100
AcDbEntity
  8
1
  6
SLD-Сплошная
100
AcDbLine
 10
1637.4568051667
 20
905.5291621864
 30
0.0
 11
1631.3568051668
 21
905.5291621864
 31
0.0
  0
SPLINE
  5
505
330
1F
100
AcDbEntity
  8
1
  6
SLD-Сплошная
100
AcDbSpline
210
0.0
220
0.0
230
1.0
 70
     8
 71
     3
 72
    11
 73
     7
 74
     0
 42
0.00000001
 43
0.00000001
 40
0.0
 40
0.0
 40
0.0
 40
0.0
 40
0.2499999999999961
 40
0.4999999999999913
 40
0.7499999999999972
 40
1.0
 40
1.0
 40
1.0
 40
1.0
 10
1638.50680516675
 20
923.7463194738613
 30
0.0
 10
1638.369216270754
 20
923.7421528071945
 30
0.0
 10
1638.09403847876
 20
923.7338194738611
 30
0.0
 10
1637.746966294809
 20
923.7213194738613
 30
0.0
 10
1637.50415462103
 20
923.7088194738612
 30
0.0
 10
1637.472588318177
 20
923.700486140528
 30
0.0
 10
1637.45680516675
 20
923.6963194738614
 30
0.0
  0
SPLINE
  5
506
330
1F
100
AcDbEntity
  8
1
  6
SLD-Сплошная
100
AcDbSpline
210
0.0
220
0.0
230
1.0
 70
     8
 71
     3
 72
    11
 73
     7
 74
     0
 42
0.00000001
 43
0.00000001
 40
0.0
 40
0.0
 40
0.0
 40
0.0
 40
0.2499999999999873
 40
0.4999999999999911
 40
0.7499999999999957
 40
1.0
 40
1.0
 40
1.0
 40
1.0
 10
1637.45680516675
 20
229.3620048989635
 30
0.0
 10
1637.472588318176
 20
229.3578382322967
 30
0.0
 10
1637.504154621027
 20
229.3495048989632
 30
0.0
 10
1637.746966294805
 20
229.3370048989632
 30
0.0
 10
1638.094038478758
 20
229.3245048989633
 30
0.0
 10
1638.369216270753
 20
229.31617156563
 30
0.0
 10
1638.50680516675
 20
229.3120048989633
 30
0.0
  0
LINE
  5
507
330
1F
100
AcDbEntity
  8
1
  6
SLD-Сплошная
100
AcDbLine
 10
1638.5068051668
 20
229.312004899
 30
0.0
 11
1653.7568051668
 21
229.312004899
 31
0.0
  0
LINE
  5
508
330
1F
100
AcDbEntity
  8
1
  6
SLD-Сплошная
100
AcDbLine
 10
1638.5068051668
 20
923.7463194739
 30
0.0
 11
1653.7568051668
 21
923.7463194739
 31
0.0
  0
ELLIPSE
  5
509
330
1F
100
AcDbEntity
  8
1
  6
SLD-Сплошная
100
AcDbEllipse
 10
1653.7568051668
 20
922.3291621864
 30
0.0
 11
2.699999999999818
 21
0.0
 31
0.0
210
0.0
220
0.0
230
1.0
 40
0.5248730694
 41
0.0
 42
1.570796326794897
  0
LINE
  5
50A
330
1F
100
AcDbEntity
  8
1
  6
SLD-Сплошная
100
AcDbLine
 10
1656.4568051668
 20
922.3291621864
 30
0.0
 11
1656.4568051668
 21
230.7291621864
 31
0.0
  0
ELLIPSE
  5
50B
330
1F
100
AcDbEntity
  8
1
  6
SLD-Сплошная
100
AcDbEllipse
 10
1653.7568051668
 20
230.7291621864
 30
0.0
 11
2.700000000000045
 21
0.0
 31
0.0
210
0.0
220
0.0
230
1.0
 40
0.5248730694
 41
4.712388980384697
 42
6.283185307179586
  0
LINE
  5
50C
330
1F
100
AcDbEntity
  8
1
  6
SLD-Сплошная
100
AcDbLine
 10
1653.7568051668
 20
925.0291621864
 30
0.0
 11
1638.5068051668
 21
925.0291621864
 31
0.0
  0
LINE
  5
50D
330
1F
100
AcDbEntity
  8
1
  6
SLD-Сплошная
100
AcDbLine
 10
1653.7568051668
 20
924.0291621864
 30
0.0
 11
1638.5068051668
 21
924.0291621864
 31
0.0
  0
LINE
  5
50E
330
1F
100
AcDbEntity
  8
1
  6
SLD-Сплошная
100
AcDbLine
 10
1638.5068051668
 20
925.0291621864
 30
0.0
 11
1638.5068051668
 21
924.0291621864
 31
0.0
  0
LINE
  5
50F
330
1F
100
AcDbEntity
  8
1
  6
SLD-Сплошная
100
AcDbLine
 10
1638.4568051668
 20
923.9791621864
 30
0.0
 11
1637.4568051668
 21
923.9791621864
 31
0.0
  0
SPLINE
  5
510
330
1F
100
AcDbEntity
  8
1
  6
SLD-Сплошная
100
AcDbSpline
210
0.0
220
0.0
230
1.0
 70
     8
 71
     3
 72
    11
 73
     7
 74
     0
 42
0.00000001
 43
0.00000001
 40
0.0
 40
0.0
 40
0.0
 40
0.0
 40
0.250000000000013
 40
0.500000000000002
 40
0.7500000000000003
 40
1.0
 40
1.0
 40
1.0
 40
1.0
 10
1637.45680516675
 20
923.9791621864124
 30
0.0
 10
1637.472588318177
 20
924.1167510824089
 30
0.0
 10
1637.50415462103
 20
924.391928874402
 30
0.0
 10
1637.746966294809
 20
924.7390010583537
 30
0.0
 10
1638.09403847876
 20
924.9818127321325
 30
0.0
 10
1638.369216270754
 20
925.0133790349857
 30
0.0
 10
1638.50680516675
 20
925.0291621864123
 30
0.0
  0
SPLINE
  5
511
330
1F
100
AcDbEntity
  8
1
  6
SLD-Сплошная
100
AcDbSpline
210
0.0
220
0.0
230
1.0
 70
     8
 71
     3
 72
    11
 73
     7
 74
     0
 42
0.00000001
 43
0.00000001
 40
0.0
 40
0.0
 40
0.0
 40
0.0
 40
0.249999999999717
 40
0.4999999999996866
 40
0.7499999999994639
 40
1.0
 40
1.0
 40
1.0
 40
1.0
 10
1638.45680516675
 20
923.9791621864124
 30
0.0
 10
1638.45755674539
 20
923.9857140386027
 30
0.0
 10
1638.459059902669
 20
923.9988177429834
 30
0.0
 10
1638.470622363325
 20
924.0153449898382
 30
0.0
 10
1638.487149610179
 20
924.0269074504943
 30
0.0
 10
1638.50025331456
 20
924.028410607773
 30
0.0
 10
1638.50680516675
 20
924.0291621864125
 30
0.0
  0
LINE
  5
512
330
1F
100
AcDbEntity
  8
1
  6
SLD-Сплошная
100
AcDbLine
 10
1638.5068051668
 20
228.0291621864
 30
0.0
 11
1638.5068051668
 21
229.0291621864
 31
0.0
  0
SPLINE
  5
513
330
1F
100
AcDbEntity
  8
1
  6
SLD-Сплошная
100
AcDbSpline
210
0.0
220
0.0
230
1.0
 70
     8
 71
     3
 72
    11
 73
     7
 74
     0
 42
0.00000001
 43
0.00000001
 40
0.0
 40
0.0
 40
0.0
 40
0.0
 40
0.2500000000000038
 40
0.5000000000000027
 40
0.7499999999999902
 40
1.0
 40
1.0
 40
1.0
 40
1.0
 10
1638.50680516675
 20
228.0291621864123
 30
0.0
 10
1638.369216270754
 20
228.0449453378392
 30
0.0
 10
1638.09403847876
 20
228.0765116406925
 30
0.0
 10
1637.746966294809
 20
228.319323314471
 30
0.0
 10
1637.50415462103
 20
228.6663954984228
 30
0.0
 10
1637.472588318177
 20
228.9415732904158
 30
0.0
 10
1637.45680516675
 20
229.0791621864124
 30
0.0
  0
LINE
  5
514
330
1F
100
AcDbEntity
  8
1
  6
SLD-Сплошная
100
AcDbLine
 10
1638.4568051668
 20
229.0791621864
 30
0.0
 11
1637.4568051668
 21
229.0791621864
 31
0.0
  0
SPLINE
  5
515
330
1F
100
AcDbEntity
  8
1
  6
SLD-Сплошная
100
AcDbSpline
210
0.0
220
0.0
230
1.0
 70
     8
 71
     3
 72
    11
 73
     7
 74
     0
 42
0.00000001
 43
0.00000001
 40
0.0
 40
0.0
 40
0.0
 40
0.0
 40
0.2500000000001725
 40
0.4999999999999095
 40
0.7500000000001619
 40
1.0
 40
1.0
 40
1.0
 40
1.0
 10
1638.50680516675
 20
229.0291621864123
 30
0.0
 10
1638.50025331456
 20
229.0299137650517
 30
0.0
 10
1638.487149610179
 20
229.0314169223305
 30
0.0
 10
1638.470622363324
 20
229.0429793829866
 30
0.0
 10
1638.459059902668
 20
229.0595066298414
 30
0.0
 10
1638.45755674539
 20
229.072610334222
 30
0.0
 10
1638.45680516675
 20
229.0791621864124
 30
0.0
  0
LINE
  5
516
330
1F
100
AcDbEntity
  8
1
  6
SLD-Сплошная
100
AcDbLine
 10
1653.7568051668
 20
229.0291621864
 30
0.0
 11
1638.5068051668
 21
229.0291621864
 31
0.0
  0
LINE
  5
517
330
1F
100
AcDbEntity
  8
1
  6
SLD-Сплошная
100
AcDbLine
 10
1653.7568051668
 20
228.0291621864
 30
0.0
 11
1638.5068051668
 21
228.0291621864
 31
0.0
  0
ARC
  5
518
330
1F
100
AcDbEntity
  8
1
  6
SLD-Сплошная
100
AcDbCircle
 10
1653.7568051668
 20
922.3291621864
 30
0.0
 40
1.699999999999951
100
AcDbArc
 50
49.5408896259
 51
90.0
  0
ARC
  5
519
330
1F
100
AcDbEntity
  8
1
  6
SLD-Сплошная
100
AcDbCircle
 10
1653.7568051668
 20
922.3291621864
 30
0.0
 40
2.699999999999818
100
AcDbArc
 50
359.9999999995
 51
90.0
  0
ARC
  5
51A
330
1F
100
AcDbEntity
  8
1
  6
SLD-Сплошная
100
AcDbCircle
 10
1653.7568051668
 20
230.7291621864
 30
0.0
 40
1.700000000000074
100
AcDbArc
 50
270.0
 51
310.4591103738
  0
ARC
  5
51B
330
1F
100
AcDbEntity
  8
1
  6
SLD-Сплошная
100
AcDbCircle
 10
1653.7568051668
 20
230.7291621864
 30
0.0
 40
2.700000000000074
100
AcDbArc
 50
270.0
 51
0.0000000005
  0
LINE
  5
51C
330
1F
100
AcDbEntity
  8
1
  6
SLD-Сплошная
100
AcDbLine
 10
1638.5068051668
 20
923.7463194739
 30
0.0
 11
1638.5068051668
 21
923.9291621864
 31
0.0
  0
LINE
  5
51D
330
1F
100
AcDbEntity
  8
1
  6
SLD-Сплошная
100
AcDbLine
 10
1637.5162905235
 20
923.6963194739
 30
0.0
 11
1637.4568051668
 21
923.9791621864
 31
0.0
  0
SPLINE
  5
51E
330
1F
100
AcDbEntity
  8
1
  6
SLD-Сплошная
100
AcDbSpline
210
0.0
220
0.0
230
1.0
 70
     8
 71
     3
 72
    10
 73
     6
 74
     0
 42
0.00000001
 43
0.00000001
 40
0.0
 40
0.0
 40
0.0
 40
0.0
 40
0.3585486611002292
 40
0.5969690046708005
 40
0.9999999999999999
 40
0.9999999999999999
 40
0.9999999999999999
 40
0.9999999999999999
 10
1638.506805166748
 20
923.9291621864124
 30
0.0
 10
1638.491378974218
 20
923.9350792294049
 30
0.0
 10
1638.465694988193
 20
923.9449308664323
 30
0.0
 10
1638.459803414307
 20
923.9618308886402
 30
0.0
 10
1638.457962090766
 20
923.9724746150073
 30
0.0
 10
1638.45680516675
 20
923.9791621864124
 30
0.0
  0
LINE
  5
51F
330
1F
100
AcDbEntity
  8
1
  6
SLD-Сплошная
100
AcDbLine
 10
1638.5068051668
 20
229.312004899
 30
0.0
 11
1638.5068051668
 21
229.1291621864
 31
0.0
  0
SPLINE
  5
520
330
1F
100
AcDbEntity
  8
1
  6
SLD-Сплошная
100
AcDbSpline
210
0.0
220
0.0
230
1.0
 70
     8
 71
     3
 72
    10
 73
     6
 74
     0
 42
0.00000001
 43
0.00000001
 40
0.0
 40
0.0
 40
0.0
 40
0.0
 40
0.4215647022343874
 40
0.6406677011936975
 40
1.0
 40
1.0
 40
1.0
 40
1.0
 10
1638.45680516675
 20
229.0791621864124
 30
0.0
 10
1638.458145206678
 20
229.086416935425
 30
0.0
 10
1638.460181715653
 20
229.0974422498025
 30
0.0
 10
1638.466303720694
 20
229.1135320674297
 30
0.0
 10
1638.491285886952
 20
229.1231730622358
 30
0.0
 10
1638.50680516675
 20
229.1291621864125
 30
0.0
  0
LINE
  5
521
330
1F
100
AcDbEntity
  8
1
  6
SLD-Сплошная
100
AcDbLine
 10
1637.4568051668
 20
229.0791621864
 30
0.0
 11
1637.5205695874
 21
229.362004899
 31
0.0
  0
LINE
  5
522
330
1F
100
AcDbEntity
  8
1
  6
SLD-Сплошная
100
AcDbLine
 10
1653.3468051668
 20
923.9291621864
 30
0.0
 11
1638.5068051668
 21
923.9291621864
 31
0.0
  0
LINE
  5
523
330
1F
100
AcDbEntity
  8
1
  6
SLD-Сплошная
100
AcDbLine
 10
1653.3468051668
 20
923.7463194739
 30
0.0
 11
1653.3468051668
 21
923.9291621864
 31
0.0
  0
LINE
  5
524
330
1F
100
AcDbEntity
  8
1
  6
SLD-Сплошная
100
AcDbLine
 10
1653.3468051668
 20
229.1291621864
 30
0.0
 11
1638.5068051668
 21
229.1291621864
 31
0.0
  0
LINE
  5
525
330
1F
100
AcDbEntity
  8
1
  6
SLD-Сплошная
100
AcDbLine
 10
1653.3468051668
 20
229.312004899
 30
0.0
 11
1653.3468051668
 21
229.1291621864
 31
0.0
  0
ARC
  5
526
330
1F
100
AcDbEntity
  8
1
  6
SLD-Сплошная
100
AcDbCircle
 10
1653.3468051668
 20
921.9191621864
 30
0.0
 40
2.009999999999991
100
AcDbArc
 50
63.9069487105
 51
90.0
  0
ARC
  5
527
330
1F
100
AcDbEntity
  8
1
  6
SLD-Сплошная
100
AcDbCircle
 10
1653.3468051668
 20
231.1391621864
 30
0.0
 40
2.010000000000019
100
AcDbArc
 50
270.0
 51
296.0930512913
  0
LINE
  5
528
330
1F
100
AcDbEntity
  8
1
  6
SLD-Сплошная
100
AcDbLine
 10
1408.6068051668
 20
226.0291621864
 30
0.0
 11
1398.1151312788
 21
226.0291621864
 31
0.0
  0
ARC
  5
529
330
1F
100
AcDbEntity
  8
1
  6
SLD-Сплошная
100
AcDbCircle
 10
1398.1151312788
 20
228.4291621864
 30
0.0
 40
2.400000000000006
100
AcDbArc
 50
232.3415379932
 51
270.0
  0
LINE
  5
52A
330
1F
100
AcDbEntity
  8
1
  6
SLD-Сплошная
100
AcDbLine
 10
1527.6068051668
 20
226.0291621864
 30
0.0
 11
1408.6068051668
 21
226.0291621864
 31
0.0
  0
LINE
  5
52B
330
1F
100
AcDbEntity
  8
1
  6
SLD-Сплошная
100
AcDbLine
 10
1538.0984790547
 20
226.0291621864
 30
0.0
 11
1527.6068051668
 21
226.0291621864
 31
0.0
  0
ARC
  5
52C
330
1F
100
AcDbEntity
  8
1
  6
SLD-Сплошная
100
AcDbCircle
 10
1538.0984790547
 20
228.4291621864
 30
0.0
 40
2.400000000000025
100
AcDbArc
 50
270.0
 51
307.6584620066
  0
LINE
  5
52D
330
1F
100
AcDbEntity
  8
1
  6
SLD-Сплошная
100
AcDbLine
 10
1657.4568051668
 20
562.5291621864
 30
0.0
 11
1657.4568051667
 21
590.5291621864
 31
0.0
  0
LINE
  5
52E
330
1F
100
AcDbEntity
  8
1
  6
SLD-Сплошная
100
AcDbLine
 10
1660.4568051668
 20
565.5291621864
 30
0.0
 11
1660.4568051667
 21
587.5291621864
 31
0.0
  0
ENDSEC
  0
SECTION
  2
OBJECTS
  0
DICTIONARY
  5
C
330
0
100
AcDbDictionary
281
     1
  3
ACAD_GROUP
350
D
  3
ACAD_LAYOUT
350
1A
  3
ACAD_MLINESTYLE
350
17
  3
ACAD_PLOTSETTINGS
350
19
  3
ACAD_PLOTSTYLENAME
350
E
  3
ACAD_SCALELIST
350
47
  3
DWGPROPS
350
52F
  0
DICTIONARY
  5
D
102
{ACAD_REACTORS
330
C
102
}
330
C
100
AcDbDictionary
281
     1
  0
DICTIONARY
  5
1A
102
{ACAD_REACTORS
330
C
102
}
330
C
100
AcDbDictionary
281
     1
  3
Layout1
350
1E
  3
Layout2
350
26
  3
Model
350
22
  0
DICTIONARY
  5
17
102
{ACAD_REACTORS
330
C
102
}
330
C
100
AcDbDictionary
281
     1
  3
Standard
350
18
  0
DICTIONARY
  5
19
102
{ACAD_REACTORS
330
C
102
}
330
C
100
AcDbDictionary
281
     1
  0
ACDBDICTIONARYWDFLT
  5
E
102
{ACAD_REACTORS
330
C
102
}
330
C
100
AcDbDictionary
281
     1
  3
Normal
350
F
100
AcDbDictionaryWithDefault
340
F
  0
DICTIONARY
  5
47
102
{ACAD_REACTORS
330
C
102
}
330
C
100
AcDbDictionary
281
     1
  3
A0
350
48
  3
A1
350
49
  3
A2
350
4A
  3
A3
350
4B
  3
A4
350
4C
  3
A5
350
4D
  3
A6
350
4E
  3
A7
350
4F
  3
A8
350
50
  3
A9
350
51
  3
B0
350
52
  3
B1
350
53
  3
B2
350
54
  3
B3
350
55
  3
B4
350
56
  3
B5
350
57
  3
B6
350
58
  0
XRECORD
  5
52F
102
{ACAD_REACTORS
330
C
102
}
330
C
100
AcDbXrecord
280
     1
  1
DWGPROPS COOKIE
  2

  3

  4

  6

  7

  8
ignatieved
  9

300
=
301
=
302
=
303
=
304
=
305
=
306
=
307
=
308
=
309
=
 40
0.0
 41
2460213.506790683
 42
2460213.506791261
  1

 90
        0
  0
LAYOUT
  5
1E
102
{ACAD_REACTORS
330
1A
102
}
330
1A
100
AcDbPlotSettings
  1

  2
none_device
  4

  6

 40
0.0
 41
0.0
 42
0.0
 43
0.0
 44
0.0
 45
0.0
 46
0.0
 47
0.0
 48
0.0
 49
0.0
140
0.0
141
0.0
142
1.0
143
1.0
 70
   688
 72
     1
 73
     0
 74
     5
  7

 75
    16
147
1.0
148
0.0
149
0.0
100
AcDbLayout
  1
Layout1
 70
     1
 71
     1
 10
0.0
 20
0.0
 11
420.0
 21
297.0
 12
0.0
 22
0.0
 32
0.0
 14
1.0000000000E+20
 24
1.0000000000E+20
 34
1.0000000000E+20
 15
-1.0000000000E+20
 25
-1.0000000000E+20
 35
-1.0000000000E+20
146
0.0
 13
0.0
 23
0.0
 33
0.0
 16
1.0
 26
0.0
 36
0.0
 17
0.0
 27
1.0
 37
0.0
 76
     0
330
1B
  0
LAYOUT
  5
26
102
{ACAD_REACTORS
330
1A
102
}
330
1A
100
AcDbPlotSettings
  1

  2
none_device
  4

  6

 40
0.0
 41
0.0
 42
0.0
 43
0.0
 44
0.0
 45
0.0
 46
0.0
 47
0.0
 48
0.0
 49
0.0
140
0.0
141
0.0
142
1.0
143
1.0
 70
   688
 72
     1
 73
     0
 74
     5
  7

 75
    16
147
1.0
148
0.0
149
0.0
100
AcDbLayout
  1
Layout2
 70
     1
 71
     2
 10
0.0
 20
0.0
 11
0.0
 21
0.0
 12
0.0
 22
0.0
 32
0.0
 14
0.0
 24
0.0
 34
0.0
 15
0.0
 25
0.0
 35
0.0
146
0.0
 13
0.0
 23
0.0
 33
0.0
 16
1.0
 26
0.0
 36
0.0
 17
0.0
 27
1.0
 37
0.0
 76
     0
330
23
  0
LAYOUT
  5
22
102
{ACAD_REACTORS
330
1A
102
}
330
1A
100
AcDbPlotSettings
  1

  2
none_device
  4
Letter_(8.50_x_11.00_Inches)
  6

 40
6.35
 41
6.35
 42
6.35000508
 43
6.35000508
 44
215.9
 45
279.4
 46
0.0
 47
0.0
 48
0.0
 49
0.0
140
0.0
141
0.0
142
1.0
143
1.0
 70
  1712
 72
     1
 73
     0
 74
     0
  7

 75
     0
147
1.0
148
0.0
149
0.0
100
AcDbLayout
  1
Model
 70
     1
 71
     0
 10
0.0
 20
0.0
 11
2000.0
 21
2000.0
 12
0.0
 22
0.0
 32
0.0
 14
0.0
 24
0.0
 34
0.0
 15
2000.0
 25
2000.0
 35
0.0
146
0.0
 13
0.0
 23
0.0
 33
0.0
 16
1.0
 26
0.0
 36
0.0
 17
0.0
 27
1.0
 37
0.0
 76
     0
330
1F
331
29
  0
MLINESTYLE
  5
18
102
{ACAD_REACTORS
330
17
102
}
330
17
100
AcDbMlineStyle
  2
Standard
 70
     0
  3

 62
   256
 51
90.0
 52
90.0
 71
     2
 49
0.5
 62
   256
  6
BYLAYER
 49
-0.5
 62
   256
  6
BYLAYER
  0
ACDBPLACEHOLDER
  5
F
102
{ACAD_REACTORS
330
E
102
}
330
E
  0
SCALE
  5
48
102
{ACAD_REACTORS
330
47
102
}
330
47
100
AcDbScale
 70
     0
300
1:1
140
1.0
141
1.0
290
     1
  0
SCALE
  5
49
102
{ACAD_REACTORS
330
47
102
}
330
47
100
AcDbScale
 70
     0
300
1:2
140
1.0
141
2.0
290
     0
  0
SCALE
  5
4A
102
{ACAD_REACTORS
330
47
102
}
330
47
100
AcDbScale
 70
     0
300
1:4
140
1.0
141
4.0
290
     0
  0
SCALE
  5
4B
102
{ACAD_REACTORS
330
47
102
}
330
47
100
AcDbScale
 70
     0
300
1:5
140
1.0
141
5.0
290
     0
  0
SCALE
  5
4C
102
{ACAD_REACTORS
330
47
102
}
330
47
100
AcDbScale
 70
     0
300
1:8
140
1.0
141
8.0
290
     0
  0
SCALE
  5
4D
102
{ACAD_REACTORS
330
47
102
}
330
47
100
AcDbScale
 70
     0
300
1:10
140
1.0
141
10.0
290
     0
  0
SCALE
  5
4E
102
{ACAD_REACTORS
330
47
102
}
330
47
100
AcDbScale
 70
     0
300
1:16
140
1.0
141
16.0
290
     0
  0
SCALE
  5
4F
102
{ACAD_REACTORS
330
47
102
}
330
47
100
AcDbScale
 70
     0
300
1:20
140
1.0
141
20.0
290
     0
  0
SCALE
  5
50
102
{ACAD_REACTORS
330
47
102
}
330
47
100
AcDbScale
 70
     0
300
1:30
140
1.0
141
30.0
290
     0
  0
SCALE
  5
51
102
{ACAD_REACTORS
330
47
102
}
330
47
100
AcDbScale
 70
     0
300
1:40
140
1.0
141
40.0
290
     0
  0
SCALE
  5
52
102
{ACAD_REACTORS
330
47
102
}
330
47
100
AcDbScale
 70
     0
300
1:50
140
1.0
141
50.0
290
     0
  0
SCALE
  5
53
102
{ACAD_REACTORS
330
47
102
}
330
47
100
AcDbScale
 70
     0
300
1:100
140
1.0
141
100.0
290
     0
  0
SCALE
  5
54
102
{ACAD_REACTORS
330
47
102
}
330
47
100
AcDbScale
 70
     0
300
2:1
140
2.0
141
1.0
290
     0
  0
SCALE
  5
55
102
{ACAD_REACTORS
330
47
102
}
330
47
100
AcDbScale
 70
     0
300
4:1
140
4.0
141
1.0
290
     0
  0
SCALE
  5
56
102
{ACAD_REACTORS
330
47
102
}
330
47
100
AcDbScale
 70
     0
300
8:1
140
8.0
141
1.0
290
     0
  0
SCALE
  5
57
102
{ACAD_REACTORS
330
47
102
}
330
47
100
AcDbScale
 70
     0
300
10:1
140
10.0
141
1.0
290
     0
  0
SCALE
  5
58
102
{ACAD_REACTORS
330
47
102
}
330
47
100
AcDbScale
 70
     0
300
100:1
140
100.0
141
1.0
290
     0
  0
ENDSEC
  0
EOF
