ISO-10303-21;
HEADER;
FILE_DESCRIPTION (( 'STEP AP203' ),
    '1' );
FILE_NAME ('CLP1K-400-3-M-HDZ Êðûøêà íà ëîòîê îñí. 400 IEK HDZ.STEP',
    '2016-02-05T12:07:53',
    ( '' ),
    ( '' ),
    'SwSTEP 2.0',
    'SolidWorks 2014',
    '' );
FILE_SCHEMA (( 'CONFIG_CONTROL_DESIGN' ));
ENDSEC;

DATA;
#1 = FACE_OUTER_BOUND ( 'NONE', #162, .T. ) ;
#2 = DIRECTION ( 'NONE',  ( 0.0000000000000000000, -1.000000000000000000, -3.491481338843133000E-015 ) ) ;
#3 = CARTESIAN_POINT ( 'NONE',  ( 1492.500000000000000, 0.0000000000000000000, -1.000000000000000000 ) ) ;
#4 = CLOSED_SHELL ( 'NONE', ( #234, #258, #14, #41, #206, #340, #131, #85, #364, #116 ) ) ;
#5 = DIRECTION ( 'NONE',  ( 0.0000000000000000000, -3.491481338843133400E-015, 1.000000000000000000 ) ) ;
#6 = EDGE_CURVE ( 'NONE', #322, #250, #7, .T. ) ;
#7 = LINE ( 'NONE', #140, #301 ) ;
#8 = CARTESIAN_POINT ( 'NONE',  ( 0.0000000000000000000, -15.85000000000000000, 399.0000000000000600 ) ) ;
#9 = ORIENTED_EDGE ( 'NONE', *, *, #266, .T. ) ;
#10 = CC_DESIGN_DATE_AND_TIME_ASSIGNMENT ( #274, #51, ( #305 ) ) ;
#11 = FACE_OUTER_BOUND ( 'NONE', #39, .T. ) ;
#12 = EDGE_LOOP ( 'NONE', ( #293, #9, #104, #81 ) ) ;
#13 = ORIENTED_EDGE ( 'NONE', *, *, #142, .F. ) ;
#14 = ADVANCED_FACE ( 'NONE', ( #236 ), #338, .T. ) ;
#15 = LOCAL_TIME ( 15, 7, 53.00000000000000000, #96 ) ;
#16 = DIRECTION ( 'NONE',  ( -0.0000000000000000000, -0.0000000000000000000, -1.000000000000000000 ) ) ;
#17 = LINE ( 'NONE', #52, #167 ) ;
#18 = DIRECTION ( 'NONE',  ( 0.0000000000000000000, 1.000000000000000000, 3.491481338843133000E-015 ) ) ;
#19 =( LENGTH_UNIT ( ) NAMED_UNIT ( * ) SI_UNIT ( .MILLI., .METRE. ) );
#20 = APPROVAL_ROLE ( '' ) ;
#21 = VERTEX_POINT ( 'NONE', #314 ) ;
#22 = ORIENTED_EDGE ( 'NONE', *, *, #113, .F. ) ;
#23 = DIRECTION ( 'NONE',  ( 0.0000000000000000000, -1.000000000000000000, -3.491481338843133400E-015 ) ) ;
#24 = ORIENTED_EDGE ( 'NONE', *, *, #124, .F. ) ;
#25 = EDGE_CURVE ( 'NONE', #68, #322, #74, .T. ) ;
#26 = VERTEX_POINT ( 'NONE', #60 ) ;
#27 = CALENDAR_DATE ( 2016, 5, 2 ) ;
#28 = DIRECTION ( 'NONE',  ( -0.0000000000000000000, -0.0000000000000000000, -1.000000000000000000 ) ) ;
#29 = VECTOR ( 'NONE', #217, 1000.000000000000000 ) ;
#30 = PRODUCT_DEFINITION_FORMATION_WITH_SPECIFIED_SOURCE ( 'ANY', '', #53, .NOT_KNOWN. ) ;
#31 = ORIENTED_EDGE ( 'NONE', *, *, #40, .F. ) ;
#32 = DIRECTION ( 'NONE',  ( 1.000000000000000000, 0.0000000000000000000, 0.0000000000000000000 ) ) ;
#33 = ORIENTED_EDGE ( 'NONE', *, *, #64, .F. ) ;
#34 = CARTESIAN_POINT ( 'NONE',  ( 1492.500000000000000, -15.84999999999999600, 400.0000000000000600 ) ) ;
#35 = DIRECTION ( 'NONE',  ( 0.0000000000000000000, -1.000000000000000000, 3.502280834779673500E-015 ) ) ;
#36 = PERSON_AND_ORGANIZATION ( #56, #154 ) ;
#37 = AXIS2_PLACEMENT_3D ( 'NONE', #95, #23, #204 ) ;
#38 = VECTOR ( 'NONE', #185, 1000.000000000000000 ) ;
#39 = EDGE_LOOP ( 'NONE', ( #271, #112, #152, #273 ) ) ;
#40 = EDGE_CURVE ( 'NONE', #220, #68, #83, .T. ) ;
#41 = ADVANCED_FACE ( 'NONE', ( #296 ), #345, .T. ) ;
#42 = COORDINATED_UNIVERSAL_TIME_OFFSET ( 3, 0, .AHEAD. ) ;
#43 = CARTESIAN_POINT ( 'NONE',  ( -1492.500000000000000, 0.0000000000000000000, -1.000000000000000000 ) ) ;
#44 = FACE_OUTER_BOUND ( 'NONE', #186, .T. ) ;
#45 = CARTESIAN_POINT ( 'NONE',  ( -1492.500000000000000, 1.393907772242310100E-012, 399.0000000000000000 ) ) ;
#46 = CARTESIAN_POINT ( 'NONE',  ( -1492.500000000000000, -15.84999999999999600, 400.0000000000000600 ) ) ;
#47 = APPROVAL ( #256, 'UNSPECIFIED' ) ;
#48 = EDGE_LOOP ( 'NONE', ( #329, #279, #330, #49 ) ) ;
#49 = ORIENTED_EDGE ( 'NONE', *, *, #173, .F. ) ;
#50 =( NAMED_UNIT ( * ) SI_UNIT ( $, .STERADIAN. ) SOLID_ANGLE_UNIT ( ) );
#51 = DATE_TIME_ROLE ( 'creation_date' ) ;
#52 = CARTESIAN_POINT ( 'NONE',  ( 1492.500000000000000, -15.84999999999999600, 400.0000000000000600 ) ) ;
#53 = PRODUCT ( 'CLP1K-400-3-M-HDZ Êðûøêà íà ëîòîê îñí. 400 IEK HDZ', 'CLP1K-400-3-M-HDZ Êðûøêà íà ëîòîê îñí. 400 IEK HDZ', '', ( #138 ) ) ;
#54 = CARTESIAN_POINT ( 'NONE',  ( 1492.500000000000000, -15.84999999999999600, 400.0000000000000600 ) ) ;
#55 = LOCAL_TIME ( 15, 7, 53.00000000000000000, #130 ) ;
#56 = PERSON ( 'UNSPECIFIED', 'UNSPECIFIED', 'UNSPECIFIED', ('UNSPECIFIED'), ('UNSPECIFIED'), ('UNSPECIFIED') ) ;
#57 = VECTOR ( 'NONE', #58, 1000.000000000000000 ) ;
#58 = DIRECTION ( 'NONE',  ( -0.0000000000000000000, -0.0000000000000000000, -1.000000000000000000 ) ) ;
#59 = DIRECTION ( 'NONE',  ( 0.0000000000000000000, -3.502280834779673500E-015, -1.000000000000000000 ) ) ;
#60 = CARTESIAN_POINT ( 'NONE',  ( -1492.500000000000000, 0.9999999999999488200, 400.0000000000000000 ) ) ;
#61 = VECTOR ( 'NONE', #278, 1000.000000000000000 ) ;
#62 = DIRECTION ( 'NONE',  ( 0.0000000000000000000, 3.491481338843133000E-015, -1.000000000000000000 ) ) ;
#63 = CARTESIAN_POINT ( 'NONE',  ( -1492.500000000000000, 1.000000000000000000, 398.0000000000000000 ) ) ;
#64 = EDGE_CURVE ( 'NONE', #98, #322, #67, .T. ) ;
#65 = CALENDAR_DATE ( 2016, 5, 2 ) ;
#66 = CARTESIAN_POINT ( 'NONE',  ( -1492.500000000000000, -15.84999999999999600, -2.000000000000055500 ) ) ;
#67 = LINE ( 'NONE', #3, #143 ) ;
#68 = VERTEX_POINT ( 'NONE', #90 ) ;
#69 = CC_DESIGN_APPROVAL ( #47, ( #30 ) ) ;
#70 = EDGE_LOOP ( 'NONE', ( #125, #33, #210, #362, #22, #324, #161, #205 ) ) ;
#71 = VECTOR ( 'NONE', #277, 1000.000000000000000 ) ;
#72 = ORIENTED_EDGE ( 'NONE', *, *, #249, .T. ) ;
#73 = PERSON_AND_ORGANIZATION ( #56, #154 ) ;
#74 = LINE ( 'NONE', #121, #156 ) ;
#75 = AXIS2_PLACEMENT_3D ( 'NONE', #63, #289, #148 ) ;
#76 = UNCERTAINTY_MEASURE_WITH_UNIT (LENGTH_MEASURE( 1.000000000000000100E-005 ), #19, 'distance_accuracy_value', 'NONE');
#77 = DIRECTION ( 'NONE',  ( 0.0000000000000000000, -3.491481338843133400E-015, -1.000000000000000000 ) ) ;
#78 = LINE ( 'NONE', #43, #298 ) ;
#79 = APPLICATION_PROTOCOL_DEFINITION ( 'international standard', 'config_control_design', 1994, #111 ) ;
#80 = APPROVAL_ROLE ( '' ) ;
#81 = ORIENTED_EDGE ( 'NONE', *, *, #64, .T. ) ;
#82 = EDGE_CURVE ( 'NONE', #157, #98, #355, .T. ) ;
#83 = LINE ( 'NONE', #319, #223 ) ;
#84 = ORIENTED_EDGE ( 'NONE', *, *, #266, .F. ) ;
#85 = ADVANCED_FACE ( 'NONE', ( #218 ), #87, .T. ) ;
#86 = CARTESIAN_POINT ( 'NONE',  ( 1492.500000000000000, -15.85000000000000000, -1.000000000000055300 ) ) ;
#87 = PLANE ( 'NONE',  #297 ) ;
#88 = LINE ( 'NONE', #145, #160 ) ;
#89 = CC_DESIGN_PERSON_AND_ORGANIZATION_ASSIGNMENT ( #36, #281, ( #30 ) ) ;
#90 = CARTESIAN_POINT ( 'NONE',  ( 1492.500000000000000, 0.0000000000000000000, 399.0000000000000600 ) ) ;
#91 = EDGE_CURVE ( 'NONE', #26, #102, #351, .T. ) ;
#92 = ORIENTED_EDGE ( 'NONE', *, *, #214, .T. ) ;
#93 = CARTESIAN_POINT ( 'NONE',  ( -1493.914213562372700, 1.000000000000000200, -2.000000000000000000 ) ) ;
#94 = ORIENTED_EDGE ( 'NONE', *, *, #129, .F. ) ;
#95 = CARTESIAN_POINT ( 'NONE',  ( 1492.500000000000000, -15.84999999999999600, -2.000000000000055500 ) ) ;
#96 = COORDINATED_UNIVERSAL_TIME_OFFSET ( 3, 0, .AHEAD. ) ;
#97 = LINE ( 'NONE', #133, #71 ) ;
#98 = VERTEX_POINT ( 'NONE', #86 ) ;
#99 = VECTOR ( 'NONE', #280, 1000.000000000000000 ) ;
#100 = ORIENTED_EDGE ( 'NONE', *, *, #321, .T. ) ;
#101 = ORIENTED_EDGE ( 'NONE', *, *, #82, .T. ) ;
#102 = VERTEX_POINT ( 'NONE', #235 ) ;
#103 = EDGE_CURVE ( 'NONE', #157, #318, #208, .T. ) ;
#104 = ORIENTED_EDGE ( 'NONE', *, *, #129, .T. ) ;
#105 = LOCAL_TIME ( 15, 7, 53.00000000000000000, #192 ) ;
#106 = DIRECTION ( 'NONE',  ( -0.0000000000000000000, -1.000000000000000000, -3.491481338843133000E-015 ) ) ;
#107 = VECTOR ( 'NONE', #292, 1000.000000000000000 ) ;
#108 = PLANE ( 'NONE',  #158 ) ;
#109 = CARTESIAN_POINT ( 'NONE',  ( 0.0000000000000000000, 1.397399253581153300E-012, 400.0000000000000000 ) ) ;
#110 = CC_DESIGN_PERSON_AND_ORGANIZATION_ASSIGNMENT ( #332, #114, ( #30 ) ) ;
#111 = APPLICATION_CONTEXT ( 'configuration controlled 3d designs of mechanical parts and assemblies' ) ;
#112 = ORIENTED_EDGE ( 'NONE', *, *, #150, .F. ) ;
#113 = EDGE_CURVE ( 'NONE', #102, #318, #132, .T. ) ;
#114 = PERSON_AND_ORGANIZATION_ROLE ( 'design_supplier' ) ;
#115 = ORIENTED_EDGE ( 'NONE', *, *, #282, .T. ) ;
#116 = ADVANCED_FACE ( 'NONE', ( #44 ), #176, .T. ) ;
#117 = APPROVAL_DATE_TIME ( #197, #47 ) ;
#118 = CARTESIAN_POINT ( 'NONE',  ( -1492.500000000000000, 0.0000000000000000000, 398.0000000000000000 ) ) ;
#119 = AXIS2_PLACEMENT_3D ( 'NONE', #224, #275, #225 ) ;
#120 = VECTOR ( 'NONE', #153, 1000.000000000000000 ) ;
#121 = CARTESIAN_POINT ( 'NONE',  ( 1492.500000000000000, 0.0000000000000000000, 398.0000000000000000 ) ) ;
#122 = DIRECTION ( 'NONE',  ( -0.0000000000000000000, 1.000000000000000000, 3.491481338843133000E-015 ) ) ;
#123 = CARTESIAN_POINT ( 'NONE',  ( 1492.500000000000000, 1.000000000000000000, 398.0000000000000000 ) ) ;
#124 = EDGE_CURVE ( 'NONE', #102, #191, #198, .T. ) ;
#125 = ORIENTED_EDGE ( 'NONE', *, *, #25, .T. ) ;
#126 = APPROVAL_PERSON_ORGANIZATION ( #207, #47, #80 ) ;
#127 = VECTOR ( 'NONE', #122, 1000.000000000000000 ) ;
#128 = SECURITY_CLASSIFICATION ( '', '', #309 ) ;
#129 = EDGE_CURVE ( 'NONE', #302, #98, #344, .T. ) ;
#130 = COORDINATED_UNIVERSAL_TIME_OFFSET ( 3, 0, .AHEAD. ) ;
#131 = ADVANCED_FACE ( 'NONE', ( #261 ), #180, .F. ) ;
#132 = LINE ( 'NONE', #262, #57 ) ;
#133 = CARTESIAN_POINT ( 'NONE',  ( -1492.500000000000000, 1.000000000000000000, 398.0000000000000000 ) ) ;
#134 = CARTESIAN_POINT ( 'NONE',  ( -1492.500000000000000, -15.84999999999999600, 400.0000000000000600 ) ) ;
#135 = VERTEX_POINT ( 'NONE', #313 ) ;
#136 = DIRECTION ( 'NONE',  ( 0.0000000000000000000, -3.502280834779673500E-015, -1.000000000000000000 ) ) ;
#137 = FACE_OUTER_BOUND ( 'NONE', #242, .T. ) ;
#138 = MECHANICAL_CONTEXT ( 'NONE', #111, 'mechanical' ) ;
#139 = PERSON_AND_ORGANIZATION_ROLE ( 'classification_officer' ) ;
#140 = CARTESIAN_POINT ( 'NONE',  ( 0.0000000000000000000, 0.0000000000000000000, -1.000000000000000000 ) ) ;
#141 = LOCAL_TIME ( 15, 7, 53.00000000000000000, #221 ) ;
#142 = EDGE_CURVE ( 'NONE', #191, #347, #269, .T. ) ;
#143 = VECTOR ( 'NONE', #149, 1000.000000000000000 ) ;
#144 = CARTESIAN_POINT ( 'NONE',  ( 1492.500000000000000, -15.84999999999999600, 400.0000000000000600 ) ) ;
#145 = CARTESIAN_POINT ( 'NONE',  ( -1492.500000000000000, -15.84999999999999600, -2.000000000000055500 ) ) ;
#146 = CC_DESIGN_PERSON_AND_ORGANIZATION_ASSIGNMENT ( #260, #139, ( #128 ) ) ;
#147 = LINE ( 'NONE', #45, #61 ) ;
#148 = DIRECTION ( 'NONE',  ( 0.0000000000000000000, 0.0000000000000000000, -1.000000000000000000 ) ) ;
#149 = DIRECTION ( 'NONE',  ( -0.0000000000000000000, 1.000000000000000000, 3.491481338843133000E-015 ) ) ;
#150 = EDGE_CURVE ( 'NONE', #288, #318, #193, .T. ) ;
#151 = PRODUCT_DEFINITION_SHAPE ( 'NONE', 'NONE',  #305 ) ;
#152 = ORIENTED_EDGE ( 'NONE', *, *, #282, .F. ) ;
#153 = DIRECTION ( 'NONE',  ( 1.000000000000000000, 0.0000000000000000000, 0.0000000000000000000 ) ) ;
#154 = ORGANIZATION ( 'UNSPECIFIED', 'UNSPECIFIED', '' ) ;
#155 = PLANE ( 'NONE',  #75 ) ;
#156 = VECTOR ( 'NONE', #28, 1000.000000000000000 ) ;
#157 = VERTEX_POINT ( 'NONE', #190 ) ;
#158 = AXIS2_PLACEMENT_3D ( 'NONE', #356, #201, #18 ) ;
#159 = FACE_OUTER_BOUND ( 'NONE', #48, .T. ) ;
#160 = VECTOR ( 'NONE', #5, 1000.000000000000000 ) ;
#161 = ORIENTED_EDGE ( 'NONE', *, *, #142, .T. ) ;
#162 = EDGE_LOOP ( 'NONE', ( #115, #352, #72, #84, #341, #240, #272, #177 ) ) ;
#163 = EDGE_CURVE ( 'NONE', #68, #347, #254, .T. ) ;
#164 = CARTESIAN_POINT ( 'NONE',  ( 1492.500000000000000, 0.0000000000000000000, -1.000000000000000000 ) ) ;
#165 = APPROVAL_DATE_TIME ( #245, #194 ) ;
#166 = CARTESIAN_POINT ( 'NONE',  ( 1492.500000000000000, -15.85000000000000000, 399.0000000000000600 ) ) ;
#167 = VECTOR ( 'NONE', #241, 1000.000000000000000 ) ;
#168 = CARTESIAN_POINT ( 'NONE',  ( 0.0000000000000000000, 0.0000000000000000000, 0.0000000000000000000 ) ) ;
#169 = CC_DESIGN_DATE_AND_TIME_ASSIGNMENT ( #325, #337, ( #128 ) ) ;
#170 = APPLICATION_CONTEXT ( 'configuration controlled 3d designs of mechanical parts and assemblies' ) ;
#171 = ORIENTED_EDGE ( 'NONE', *, *, #249, .F. ) ;
#172 = CARTESIAN_POINT ( 'NONE',  ( 0.0000000000000000000, -15.85000000000000000, -1.000000000000055300 ) ) ;
#173 = EDGE_CURVE ( 'NONE', #135, #157, #326, .T. ) ;
#174 = APPROVAL_STATUS ( 'not_yet_approved' ) ;
#175 = SHAPE_DEFINITION_REPRESENTATION ( #151, #359 ) ;
#176 = PLANE ( 'NONE',  #331 ) ;
#177 = ORIENTED_EDGE ( 'NONE', *, *, #353, .T. ) ;
#178 = DIRECTION ( 'NONE',  ( 0.0000000000000000000, -1.000000000000000000, 0.0000000000000000000 ) ) ;
#179 = ORIENTED_EDGE ( 'NONE', *, *, #195, .T. ) ;
#180 = PLANE ( 'NONE',  #367 ) ;
#181 = APPROVAL_PERSON_ORGANIZATION ( #252, #194, #361 ) ;
#182 =( GEOMETRIC_REPRESENTATION_CONTEXT ( 3 ) GLOBAL_UNCERTAINTY_ASSIGNED_CONTEXT ( ( #76 ) ) GLOBAL_UNIT_ASSIGNED_CONTEXT ( ( #19, #228, #50 ) ) REPRESENTATION_CONTEXT ( 'NONE', 'WORKASPACE' ) );
#183 = DIRECTION ( 'NONE',  ( 0.0000000000000000000, -1.000000000000000000, 3.491481338843133400E-015 ) ) ;
#184 = VECTOR ( 'NONE', #35, 1000.000000000000000 ) ;
#185 = DIRECTION ( 'NONE',  ( 1.000000000000000000, -0.0000000000000000000, -0.0000000000000000000 ) ) ;
#186 = EDGE_LOOP ( 'NONE', ( #196, #179, #100, #244 ) ) ;
#187 = LINE ( 'NONE', #46, #99 ) ;
#188 = DIRECTION ( 'NONE',  ( -0.0000000000000000000, 0.0000000000000000000, -1.000000000000000000 ) ) ;
#189 = ORIENTED_EDGE ( 'NONE', *, *, #25, .F. ) ;
#190 = CARTESIAN_POINT ( 'NONE',  ( 1492.500000000000000, -15.84999999999999600, -2.000000000000055500 ) ) ;
#191 = VERTEX_POINT ( 'NONE', #34 ) ;
#192 = COORDINATED_UNIVERSAL_TIME_OFFSET ( 3, 0, .AHEAD. ) ;
#193 = LINE ( 'NONE', #93, #120 ) ;
#194 = APPROVAL ( #174, 'UNSPECIFIED' ) ;
#195 = EDGE_CURVE ( 'NONE', #347, #21, #316, .T. ) ;
#196 = ORIENTED_EDGE ( 'NONE', *, *, #163, .T. ) ;
#197 = DATE_AND_TIME ( #268, #343 ) ;
#198 = LINE ( 'NONE', #237, #276 ) ;
#199 = CARTESIAN_POINT ( 'NONE',  ( -1492.500000000000000, -15.85000000000000000, -1.000000000000055300 ) ) ;
#200 = AXIS2_PLACEMENT_3D ( 'NONE', #109, #136, #335 ) ;
#201 = DIRECTION ( 'NONE',  ( 0.0000000000000000000, 3.491481338843133000E-015, -1.000000000000000000 ) ) ;
#202 = PLANE ( 'NONE',  #119 ) ;
#203 = APPROVAL_STATUS ( 'not_yet_approved' ) ;
#204 = DIRECTION ( 'NONE',  ( 0.0000000000000000000, 3.491481338843133400E-015, -1.000000000000000000 ) ) ;
#205 = ORIENTED_EDGE ( 'NONE', *, *, #163, .F. ) ;
#206 = ADVANCED_FACE ( 'NONE', ( #333 ), #295, .T. ) ;
#207 = PERSON_AND_ORGANIZATION ( #56, #154 ) ;
#208 = LINE ( 'NONE', #211, #127 ) ;
#209 = DIRECTION ( 'NONE',  ( -1.000000000000000000, -0.0000000000000000000, -0.0000000000000000000 ) ) ;
#210 = ORIENTED_EDGE ( 'NONE', *, *, #82, .F. ) ;
#211 = CARTESIAN_POINT ( 'NONE',  ( 1492.500000000000000, 3.491481338843133400E-015, -2.000000000000000000 ) ) ;
#212 = CC_DESIGN_APPROVAL ( #194, ( #128 ) ) ;
#213 = DIRECTION ( 'NONE',  ( 0.0000000000000000000, -3.491481338843133400E-015, -1.000000000000000000 ) ) ;
#214 = EDGE_CURVE ( 'NONE', #191, #299, #17, .T. ) ;
#215 = CARTESIAN_POINT ( 'NONE',  ( -1492.500000000000000, -15.84999999999999600, 400.0000000000000600 ) ) ;
#216 = PERSON_AND_ORGANIZATION ( #56, #154 ) ;
#217 = DIRECTION ( 'NONE',  ( 1.000000000000000000, 0.0000000000000000000, 0.0000000000000000000 ) ) ;
#218 = FACE_OUTER_BOUND ( 'NONE', #310, .T. ) ;
#219 = VECTOR ( 'NONE', #16, 1000.000000000000000 ) ;
#220 = VERTEX_POINT ( 'NONE', #233 ) ;
#221 = COORDINATED_UNIVERSAL_TIME_OFFSET ( 3, 0, .AHEAD. ) ;
#222 = AXIS2_PLACEMENT_3D ( 'NONE', #118, #178, #286 ) ;
#223 = VECTOR ( 'NONE', #291, 1000.000000000000000 ) ;
#224 = CARTESIAN_POINT ( 'NONE',  ( -1492.500000000000000, 0.0000000000000000000, 398.0000000000000000 ) ) ;
#225 = DIRECTION ( 'NONE',  ( 0.0000000000000000000, 0.0000000000000000000, 1.000000000000000000 ) ) ;
#226 = CARTESIAN_POINT ( 'NONE',  ( 1492.500000000000000, 1.000000000000000200, -2.000000000000000000 ) ) ;
#227 = VECTOR ( 'NONE', #77, 1000.000000000000000 ) ;
#228 =( NAMED_UNIT ( * ) PLANE_ANGLE_UNIT ( ) SI_UNIT ( $, .RADIAN. ) );
#229 = CC_DESIGN_SECURITY_CLASSIFICATION ( #128, ( #30 ) ) ;
#230 = PERSON_AND_ORGANIZATION_ROLE ( 'creator' ) ;
#231 = EDGE_CURVE ( 'NONE', #288, #135, #306, .T. ) ;
#232 = EDGE_LOOP ( 'NONE', ( #248, #368, #189, #31 ) ) ;
#233 = CARTESIAN_POINT ( 'NONE',  ( -1492.500000000000000, -1.101719344477813400E-017, 399.0000000000000000 ) ) ;
#234 = ADVANCED_FACE ( 'NONE', ( #11 ), #155, .F. ) ;
#235 = CARTESIAN_POINT ( 'NONE',  ( 1492.500000000000000, 0.9999999999999488200, 400.0000000000000000 ) ) ;
#236 = FACE_OUTER_BOUND ( 'NONE', #232, .T. ) ;
#237 = CARTESIAN_POINT ( 'NONE',  ( 1492.500000000000000, 3.491481338843133400E-015, 400.0000000000000000 ) ) ;
#238 = VECTOR ( 'NONE', #2, 1000.000000000000000 ) ;
#239 = CARTESIAN_POINT ( 'NONE',  ( 0.0000000000000000000, 0.0000000000000000000, -1.000000000000000000 ) ) ;
#240 = ORIENTED_EDGE ( 'NONE', *, *, #321, .F. ) ;
#241 = DIRECTION ( 'NONE',  ( -1.000000000000000000, -0.0000000000000000000, -0.0000000000000000000 ) ) ;
#242 = EDGE_LOOP ( 'NONE', ( #24, #255, #328, #257 ) ) ;
#243 = CARTESIAN_POINT ( 'NONE',  ( 1492.500000000000000, -15.84999999999999600, -2.000000000000055500 ) ) ;
#244 = ORIENTED_EDGE ( 'NONE', *, *, #40, .T. ) ;
#245 = DATE_AND_TIME ( #315, #15 ) ;
#246 = VECTOR ( 'NONE', #267, 1000.000000000000000 ) ;
#247 = PRODUCT_RELATED_PRODUCT_CATEGORY ( 'detail', '', ( #53 ) ) ;
#248 = ORIENTED_EDGE ( 'NONE', *, *, #300, .T. ) ;
#249 = EDGE_CURVE ( 'NONE', #135, #302, #88, .T. ) ;
#250 = VERTEX_POINT ( 'NONE', #323 ) ;
#251 = CARTESIAN_POINT ( 'NONE',  ( -1492.500000000000000, 1.000000000000000200, -2.000000000000000000 ) ) ;
#252 = PERSON_AND_ORGANIZATION ( #56, #154 ) ;
#253 = MANIFOLD_SOLID_BREP ( 'Áîáûøêà-Âûòÿíóòü1', #4 ) ;
#254 = LINE ( 'NONE', #320, #184 ) ;
#255 = ORIENTED_EDGE ( 'NONE', *, *, #91, .F. ) ;
#256 = APPROVAL_STATUS ( 'not_yet_approved' ) ;
#257 = ORIENTED_EDGE ( 'NONE', *, *, #214, .F. ) ;
#258 = ADVANCED_FACE ( 'NONE', ( #1 ), #202, .T. ) ;
#259 = AXIS2_PLACEMENT_3D ( 'NONE', #123, #349, #188 ) ;
#260 = PERSON_AND_ORGANIZATION ( #56, #154 ) ;
#261 = FACE_OUTER_BOUND ( 'NONE', #12, .T. ) ;
#262 = CARTESIAN_POINT ( 'NONE',  ( 1492.500000000000000, 1.000000000000000000, 398.0000000000000000 ) ) ;
#263 = DIRECTION ( 'NONE',  ( -0.0000000000000000000, -1.000000000000000000, 3.502280834779673500E-015 ) ) ;
#264 = DIRECTION ( 'NONE',  ( 0.0000000000000000000, 1.000000000000000000, 3.491481338843133000E-015 ) ) ;
#265 = ORIENTED_EDGE ( 'NONE', *, *, #195, .F. ) ;
#266 = EDGE_CURVE ( 'NONE', #250, #302, #78, .T. ) ;
#267 = DIRECTION ( 'NONE',  ( -1.000000000000000000, 0.0000000000000000000, 0.0000000000000000000 ) ) ;
#268 = CALENDAR_DATE ( 2016, 5, 2 ) ;
#269 = LINE ( 'NONE', #54, #107 ) ;
#270 = AXIS2_PLACEMENT_3D ( 'NONE', #168, #307, #308 ) ;
#271 = ORIENTED_EDGE ( 'NONE', *, *, #113, .T. ) ;
#272 = ORIENTED_EDGE ( 'NONE', *, *, #339, .F. ) ;
#273 = ORIENTED_EDGE ( 'NONE', *, *, #91, .T. ) ;
#274 = DATE_AND_TIME ( #350, #55 ) ;
#275 = DIRECTION ( 'NONE',  ( -1.000000000000000000, 0.0000000000000000000, 0.0000000000000000000 ) ) ;
#276 = VECTOR ( 'NONE', #263, 1000.000000000000000 ) ;
#277 = DIRECTION ( 'NONE',  ( -0.0000000000000000000, -0.0000000000000000000, -1.000000000000000000 ) ) ;
#278 = DIRECTION ( 'NONE',  ( 0.0000000000000000000, 1.000000000000000000, -3.502280834779673500E-015 ) ) ;
#279 = ORIENTED_EDGE ( 'NONE', *, *, #150, .T. ) ;
#280 = DIRECTION ( 'NONE',  ( -0.0000000000000000000, 1.000000000000000000, -3.502280834779673500E-015 ) ) ;
#281 = PERSON_AND_ORGANIZATION_ROLE ( 'creator' ) ;
#282 = EDGE_CURVE ( 'NONE', #26, #288, #97, .T. ) ;
#283 = APPROVAL_DATE_TIME ( #354, #327 ) ;
#284 = DIRECTION ( 'NONE',  ( 0.0000000000000000000, -3.491481338843133400E-015, 1.000000000000000000 ) ) ;
#285 = VECTOR ( 'NONE', #32, 1000.000000000000000 ) ;
#286 = DIRECTION ( 'NONE',  ( 0.0000000000000000000, -0.0000000000000000000, -1.000000000000000000 ) ) ;
#287 = CC_DESIGN_PERSON_AND_ORGANIZATION_ASSIGNMENT ( #73, #336, ( #53 ) ) ;
#288 = VERTEX_POINT ( 'NONE', #251 ) ;
#289 = DIRECTION ( 'NONE',  ( 0.0000000000000000000, -1.000000000000000000, 0.0000000000000000000 ) ) ;
#290 = LINE ( 'NONE', #303, #219 ) ;
#291 = DIRECTION ( 'NONE',  ( 1.000000000000000000, 0.0000000000000000000, 0.0000000000000000000 ) ) ;
#292 = DIRECTION ( 'NONE',  ( 0.0000000000000000000, -3.491481338843133400E-015, -1.000000000000000000 ) ) ;
#293 = ORIENTED_EDGE ( 'NONE', *, *, #6, .T. ) ;
#294 = APPROVAL_PERSON_ORGANIZATION ( #363, #327, #20 ) ;
#295 = PLANE ( 'NONE',  #37 ) ;
#296 = FACE_OUTER_BOUND ( 'NONE', #70, .T. ) ;
#297 = AXIS2_PLACEMENT_3D ( 'NONE', #144, #183, #213 ) ;
#298 = VECTOR ( 'NONE', #106, 1000.000000000000000 ) ;
#299 = VERTEX_POINT ( 'NONE', #215 ) ;
#300 = EDGE_CURVE ( 'NONE', #220, #250, #290, .T. ) ;
#301 = VECTOR ( 'NONE', #209, 1000.000000000000000 ) ;
#302 = VERTEX_POINT ( 'NONE', #199 ) ;
#303 = CARTESIAN_POINT ( 'NONE',  ( -1492.500000000000000, 0.0000000000000000000, 398.0000000000000000 ) ) ;
#304 = ORIENTED_EDGE ( 'NONE', *, *, #339, .T. ) ;
#305 = PRODUCT_DEFINITION ( 'UNKNOWN', '', #30, #311 ) ;
#306 = LINE ( 'NONE', #66, #238 ) ;
#307 = DIRECTION ( 'NONE',  ( 0.0000000000000000000, 0.0000000000000000000, 1.000000000000000000 ) ) ;
#308 = DIRECTION ( 'NONE',  ( 1.000000000000000000, 0.0000000000000000000, 0.0000000000000000000 ) ) ;
#309 = SECURITY_CLASSIFICATION_LEVEL ( 'unclassified' ) ;
#310 = EDGE_LOOP ( 'NONE', ( #265, #13, #92, #304 ) ) ;
#311 = DESIGN_CONTEXT ( 'detailed design', #170, 'design' ) ;
#312 = EDGE_LOOP ( 'NONE', ( #94, #171, #317, #101 ) ) ;
#313 = CARTESIAN_POINT ( 'NONE',  ( -1492.500000000000000, -15.84999999999999600, -2.000000000000055500 ) ) ;
#314 = CARTESIAN_POINT ( 'NONE',  ( -1492.500000000000000, -15.85000000000000000, 399.0000000000000600 ) ) ;
#315 = CALENDAR_DATE ( 2016, 5, 2 ) ;
#316 = LINE ( 'NONE', #8, #246 ) ;
#317 = ORIENTED_EDGE ( 'NONE', *, *, #173, .T. ) ;
#318 = VERTEX_POINT ( 'NONE', #226 ) ;
#319 = CARTESIAN_POINT ( 'NONE',  ( 0.0000000000000000000, 0.0000000000000000000, 399.0000000000000000 ) ) ;
#320 = CARTESIAN_POINT ( 'NONE',  ( 1492.500000000000000, 1.393907772242310100E-012, 399.0000000000000000 ) ) ;
#321 = EDGE_CURVE ( 'NONE', #21, #220, #147, .T. ) ;
#322 = VERTEX_POINT ( 'NONE', #164 ) ;
#323 = CARTESIAN_POINT ( 'NONE',  ( -1492.500000000000000, 0.0000000000000000000, -1.000000000000000000 ) ) ;
#324 = ORIENTED_EDGE ( 'NONE', *, *, #124, .T. ) ;
#325 = DATE_AND_TIME ( #27, #105 ) ;
#326 = LINE ( 'NONE', #243, #29 ) ;
#327 = APPROVAL ( #203, 'UNSPECIFIED' ) ;
#328 = ORIENTED_EDGE ( 'NONE', *, *, #353, .F. ) ;
#329 = ORIENTED_EDGE ( 'NONE', *, *, #231, .F. ) ;
#330 = ORIENTED_EDGE ( 'NONE', *, *, #103, .F. ) ;
#331 = AXIS2_PLACEMENT_3D ( 'NONE', #348, #59, #365 ) ;
#332 = PERSON_AND_ORGANIZATION ( #56, #154 ) ;
#333 = FACE_OUTER_BOUND ( 'NONE', #312, .T. ) ;
#334 = PLANE ( 'NONE',  #200 ) ;
#335 = DIRECTION ( 'NONE',  ( 0.0000000000000000000, 1.000000000000000000, -3.502280834779673500E-015 ) ) ;
#336 = PERSON_AND_ORGANIZATION_ROLE ( 'design_owner' ) ;
#337 = DATE_TIME_ROLE ( 'classification_date' ) ;
#338 = PLANE ( 'NONE',  #222 ) ;
#339 = EDGE_CURVE ( 'NONE', #299, #21, #358, .T. ) ;
#340 = ADVANCED_FACE ( 'NONE', ( #159 ), #108, .T. ) ;
#341 = ORIENTED_EDGE ( 'NONE', *, *, #300, .F. ) ;
#342 = CARTESIAN_POINT ( 'NONE',  ( 1492.500000000000000, -15.84999999999999600, -2.000000000000055500 ) ) ;
#343 = LOCAL_TIME ( 15, 7, 53.00000000000000000, #42 ) ;
#344 = LINE ( 'NONE', #172, #38 ) ;
#345 = PLANE ( 'NONE',  #259 ) ;
#346 = CC_DESIGN_APPROVAL ( #327, ( #305 ) ) ;
#347 = VERTEX_POINT ( 'NONE', #166 ) ;
#348 = CARTESIAN_POINT ( 'NONE',  ( 0.0000000000000000000, 1.393907772242310100E-012, 399.0000000000000000 ) ) ;
#349 = DIRECTION ( 'NONE',  ( 1.000000000000000000, 0.0000000000000000000, -0.0000000000000000000 ) ) ;
#350 = CALENDAR_DATE ( 2016, 5, 2 ) ;
#351 = LINE ( 'NONE', #369, #285 ) ;
#352 = ORIENTED_EDGE ( 'NONE', *, *, #231, .T. ) ;
#353 = EDGE_CURVE ( 'NONE', #299, #26, #187, .T. ) ;
#354 = DATE_AND_TIME ( #65, #141 ) ;
#355 = LINE ( 'NONE', #342, #366 ) ;
#356 = CARTESIAN_POINT ( 'NONE',  ( 0.0000000000000000000, 3.491481338843133400E-015, -2.000000000000000000 ) ) ;
#357 = CC_DESIGN_PERSON_AND_ORGANIZATION_ASSIGNMENT ( #216, #230, ( #305 ) ) ;
#358 = LINE ( 'NONE', #134, #227 ) ;
#359 = ADVANCED_BREP_SHAPE_REPRESENTATION ( 'CLP1K-400-3-M-HDZ ¦¨v°úð ýð ûþªþú þ¸ý. 400 IEK HDZ', ( #253, #270 ), #182 ) ;
#360 = APPLICATION_PROTOCOL_DEFINITION ( 'international standard', 'config_control_design', 1994, #170 ) ;
#361 = APPROVAL_ROLE ( '' ) ;
#362 = ORIENTED_EDGE ( 'NONE', *, *, #103, .T. ) ;
#363 = PERSON_AND_ORGANIZATION ( #56, #154 ) ;
#364 = ADVANCED_FACE ( 'NONE', ( #137 ), #334, .F. ) ;
#365 = DIRECTION ( 'NONE',  ( 0.0000000000000000000, 1.000000000000000000, -3.502280834779673500E-015 ) ) ;
#366 = VECTOR ( 'NONE', #284, 1000.000000000000000 ) ;
#367 = AXIS2_PLACEMENT_3D ( 'NONE', #239, #62, #264 ) ;
#368 = ORIENTED_EDGE ( 'NONE', *, *, #6, .F. ) ;
#369 = CARTESIAN_POINT ( 'NONE',  ( -1493.914213562372700, 0.9999999999999488200, 400.0000000000000000 ) ) ;
ENDSEC;
END-ISO-10303-21;
