  0
SECTION
  2
HEADER
  9
$ACADVER
  1
AC1015
  9
$ACADMAINTVER
 70
     6
  9
$DWGCODEPAGE
  3
ANSI_1251
  9
$INSBASE
 10
0.0
 20
0.0
 30
0.0
  9
$EXTMIN
 10
0.0
 20
0.0
 30
0.0
  9
$EXTMAX
 10
841.0
 20
594.0
 30
0.0
  9
$LIMMIN
 10
0.0
 20
0.0
  9
$LIMMAX
 10
841.0
 20
594.0
  9
$ORTHOMODE
 70
     0
  9
$REGENMODE
 70
     1
  9
$FILLMODE
 70
     1
  9
$QTEXTMODE
 70
     0
  9
$MIRRTEXT
 70
     1
  9
$LTSCALE
 40
1.0
  9
$ATTMODE
 70
     1
  9
$TEXTSIZE
 40
3.5
  9
$TRACEWID
 40
1.0
  9
$TEXTSTYLE
  7
Standard
  9
$CLAYER
  8
0
  9
$CELTYPE
  6
ByLayer
  9
$CECOLOR
 62
   256
  9
$CELTSCALE
 40
1.0
  9
$DISPSILH
 70
     0
  9
$DIMSCALE
 40
1.0
  9
$DIMASZ
 40
3.5
  9
$DIMEXO
 40
0.01
  9
$DIMDLI
 40
3.75
  9
$DIMRND
 40
0.0
  9
$DIMDLE
 40
0.0
  9
$DIMEXE
 40
1.0
  9
$DIMTP
 40
0.0
  9
$DIMTM
 40
0.0
  9
$DIMTXT
 40
3.5
  9
$DIMCEN
 40
2.5
  9
$DIMTSZ
 40
0.0
  9
$DIMTOL
 70
     0
  9
$DIMLIM
 70
     0
  9
$DIMTIH
 70
     1
  9
$DIMTOH
 70
     1
  9
$DIMSE1
 70
     0
  9
$DIMSE2
 70
     0
  9
$DIMTAD
 70
     1
  9
$DIMZIN
 70
     0
  9
$DIMBLK
  1

  9
$DIMASO
 70
     1
  9
$DIMSHO
 70
     1
  9
$DIMPOST
  1

  9
$DIMAPOST
  1

  9
$DIMALT
 70
     0
  9
$DIMALTD
 70
     3
  9
$DIMALTF
 40
0.0393700787
  9
$DIMLFAC
 40
1.0
  9
$DIMTOFL
 70
     1
  9
$DIMTVP
 40
0.0
  9
$DIMTIX
 70
     0
  9
$DIMSOXD
 70
     0
  9
$DIMSAH
 70
     0
  9
$DIMBLK1
  1

  9
$DIMBLK2
  1

  9
$DIMSTYLE
  2
ISO-25
  9
$DIMCLRD
 70
     0
  9
$DIMCLRE
 70
     0
  9
$DIMCLRT
 70
     0
  9
$DIMTFAC
 40
1.0
  9
$DIMGAP
 40
3.0
  9
$DIMJUST
 70
     0
  9
$DIMSD1
 70
     0
  9
$DIMSD2
 70
     0
  9
$DIMTOLJ
 70
     0
  9
$DIMTZIN
 70
     0
  9
$DIMALTZ
 70
     0
  9
$DIMALTTZ
 70
     0
  9
$DIMUPT
 70
     0
  9
$DIMDEC
 70
     2
  9
$DIMTDEC
 70
     3
  9
$DIMALTU
 70
     2
  9
$DIMALTTD
 70
     3
  9
$DIMTXSTY
  7
Standard
  9
$DIMAUNIT
 70
     0
  9
$DIMADEC
 70
     2
  9
$DIMALTRND
 40
0.0
  9
$DIMAZIN
 70
     0
  9
$DIMDSEP
 70
    44
  9
$DIMATFIT
 70
     3
  9
$DIMFRAC
 70
     0
  9
$DIMLDRBLK
  1

  9
$DIMLUNIT
 70
     2
  9
$DIMLWD
 70
    -2
  9
$DIMLWE
 70
    -2
  9
$DIMTMOVE
 70
     0
  9
$LUNITS
 70
     2
  9
$LUPREC
 70
     2
  9
$SKETCHINC
 40
1.0
  9
$FILLETRAD
 40
10.0
  9
$AUNITS
 70
     0
  9
$AUPREC
 70
     2
  9
$MENU
  1
.
  9
$ELEVATION
 40
0.0
  9
$PELEVATION
 40
0.0
  9
$THICKNESS
 40
0.0
  9
$LIMCHECK
 70
     0
  9
$CHAMFERA
 40
0.0
  9
$CHAMFERB
 40
0.0
  9
$CHAMFERC
 40
0.0
  9
$CHAMFERD
 40
0.0
  9
$SKPOLY
 70
     0
  9
$TDCREATE
 40
2459732.613453692
  9
$TDUCREATE
 40
2459732.488453692
  9
$TDUPDATE
 40
2459732.613455266
  9
$TDUUPDATE
 40
2459732.488455266
  9
$TDINDWG
 40
0.0000000116
  9
$TDUSRTIMER
 40
0.0000000116
  9
$USRTIMER
 70
     1
  9
$ANGBASE
 50
0.0
  9
$ANGDIR
 70
     0
  9
$PDMODE
 70
     0
  9
$PDSIZE
 40
-1.0
  9
$PLINEWID
 40
0.0
  9
$SPLFRAME
 70
     0
  9
$SPLINETYPE
 70
     6
  9
$SPLINESEGS
 70
     8
  9
$HANDSEED
  5
517
  9
$SURFTAB1
 70
     6
  9
$SURFTAB2
 70
     6
  9
$SURFTYPE
 70
     6
  9
$SURFU
 70
     6
  9
$SURFV
 70
     6
  9
$UCSBASE
  2

  9
$UCSNAME
  2

  9
$UCSORG
 10
0.0
 20
0.0
 30
0.0
  9
$UCSXDIR
 10
1.0
 20
0.0
 30
0.0
  9
$UCSYDIR
 10
0.0
 20
1.0
 30
0.0
  9
$UCSORTHOREF
  2

  9
$UCSORTHOVIEW
 70
     0
  9
$UCSORGTOP
 10
0.0
 20
0.0
 30
0.0
  9
$UCSORGBOTTOM
 10
0.0
 20
0.0
 30
0.0
  9
$UCSORGLEFT
 10
0.0
 20
0.0
 30
0.0
  9
$UCSORGRIGHT
 10
0.0
 20
0.0
 30
0.0
  9
$UCSORGFRONT
 10
0.0
 20
0.0
 30
0.0
  9
$UCSORGBACK
 10
0.0
 20
0.0
 30
0.0
  9
$PUCSBASE
  2

  9
$PUCSNAME
  2

  9
$PUCSORG
 10
0.0
 20
0.0
 30
0.0
  9
$PUCSXDIR
 10
1.0
 20
0.0
 30
0.0
  9
$PUCSYDIR
 10
0.0
 20
1.0
 30
0.0
  9
$PUCSORTHOREF
  2

  9
$PUCSORTHOVIEW
 70
     0
  9
$PUCSORGTOP
 10
0.0
 20
0.0
 30
0.0
  9
$PUCSORGBOTTOM
 10
0.0
 20
0.0
 30
0.0
  9
$PUCSORGLEFT
 10
0.0
 20
0.0
 30
0.0
  9
$PUCSORGRIGHT
 10
0.0
 20
0.0
 30
0.0
  9
$PUCSORGFRONT
 10
0.0
 20
0.0
 30
0.0
  9
$PUCSORGBACK
 10
0.0
 20
0.0
 30
0.0
  9
$USERI1
 70
     0
  9
$USERI2
 70
     0
  9
$USERI3
 70
     0
  9
$USERI4
 70
     0
  9
$USERI5
 70
     0
  9
$USERR1
 40
0.0
  9
$USERR2
 40
0.0
  9
$USERR3
 40
0.0
  9
$USERR4
 40
0.0
  9
$USERR5
 40
0.0
  9
$WORLDVIEW
 70
     1
  9
$SHADEDGE
 70
     3
  9
$SHADEDIF
 70
    70
  9
$TILEMODE
 70
     1
  9
$MAXACTVP
 70
    64
  9
$PINSBASE
 10
0.0
 20
0.0
 30
0.0
  9
$PLIMCHECK
 70
     0
  9
$PEXTMIN
 10
1.0000000000E+20
 20
1.0000000000E+20
 30
1.0000000000E+20
  9
$PEXTMAX
 10
-1.0000000000E+20
 20
-1.0000000000E+20
 30
-1.0000000000E+20
  9
$PLIMMIN
 10
0.0
 20
0.0
  9
$PLIMMAX
 10
420.0
 20
297.0
  9
$UNITMODE
 70
     0
  9
$VISRETAIN
 70
     1
  9
$PLINEGEN
 70
     0
  9
$PSLTSCALE
 70
     1
  9
$TREEDEPTH
 70
  3020
  9
$CMLSTYLE
  2
Standard
  9
$CMLJUST
 70
     0
  9
$CMLSCALE
 40
20.0
  9
$PROXYGRAPHICS
 70
     1
  9
$MEASUREMENT
 70
     1
  9
$CELWEIGHT
370
    -1
  9
$ENDCAPS
280
     0
  9
$JOINSTYLE
280
     0
  9
$LWDISPLAY
290
     1
  9
$INSUNITS
 70
     4
  9
$HYPERLINKBASE
  1

  9
$STYLESHEET
  1

  9
$XEDIT
290
     1
  9
$CEPSNTYPE
380
     0
  9
$PSTYLEMODE
290
     1
  9
$FINGERPRINTGUID
  2
{839B66D0-08AD-41B5-B997-F4A1C67F77CA}
  9
$VERSIONGUID
  2
{FAEB1C32-E019-11D5-929B-00C0DF256EC4}
  9
$EXTNAMES
290
     1
  9
$PSVPSCALE
 40
0.0
  9
$OLESTARTUP
290
     0
  0
ENDSEC
  0
SECTION
  2
CLASSES
  0
CLASS
  1
ACDBDICTIONARYWDFLT
  2
AcDbDictionaryWithDefault
  3
ObjectDBX Classes
 90
        0
280
     0
281
     0
  0
CLASS
  1
VISUALSTYLE
  2
AcDbVisualStyle
  3
ObjectDBX Classes
 90
     4095
280
     0
281
     0
  0
CLASS
  1
MATERIAL
  2
AcDbMaterial
  3
ObjectDBX Classes
 90
     1153
280
     0
281
     0
  0
CLASS
  1
SCALE
  2
AcDbScale
  3
ObjectDBX Classes
 90
     1153
280
     0
281
     0
  0
CLASS
  1
TABLESTYLE
  2
AcDbTableStyle
  3
ObjectDBX Classes
 90
     4095
280
     0
281
     0
  0
CLASS
  1
MLEADERSTYLE
  2
AcDbMLeaderStyle
  3
ACDB_MLEADERSTYLE_CLASS
 90
     4095
280
     0
281
     0
  0
CLASS
  1
SUN
  2
AcDbSun
  3
SCENEOE
 90
     1153
280
     0
281
     0
  0
CLASS
  1
ACDBPLACEHOLDER
  2
AcDbPlaceHolder
  3
ObjectDBX Classes
 90
        0
280
     0
281
     0
  0
CLASS
  1
LAYOUT
  2
AcDbLayout
  3
ObjectDBX Classes
 90
        0
280
     0
281
     0
  0
ENDSEC
  0
SECTION
  2
TABLES
  0
TABLE
  2
VPORT
  5
8
330
0
100
AcDbSymbolTable
 70
     1
  0
VPORT
  5
29
330
8
100
AcDbSymbolTableRecord
100
AcDbViewportTableRecord
  2
*Active
 70
     0
 10
0.0
 20
0.0
 11
1.0
 21
1.0
 12
420.5
 22
297.0
 13
0.0
 23
0.0
 14
10.0
 24
10.0
 15
10.0
 25
10.0
 16
0.0
 26
0.0
 36
1.0
 17
0.0
 27
0.0
 37
0.0
 40
594.0
 41
1.4158249158
 42
50.0
 43
0.0
 44
0.0
 50
0.0
 51
0.0
 71
     0
 72
  2000
 73
     1
 74
     3
 75
     0
 76
     0
 77
     0
 78
     0
281
     0
 65
     1
110
0.0
120
0.0
130
0.0
111
1.0
121
0.0
131
0.0
112
0.0
122
1.0
132
0.0
 79
     0
146
0.0
  0
ENDTAB
  0
TABLE
  2
LTYPE
  5
5
330
0
100
AcDbSymbolTable
 70
     6
  0
LTYPE
  5
14
330
5
100
AcDbSymbolTableRecord
100
AcDbLinetypeTableRecord
  2
ByBlock
 70
     0
  3

 72
    65
 73
     0
 40
0.0
  0
LTYPE
  5
15
330
5
100
AcDbSymbolTableRecord
100
AcDbLinetypeTableRecord
  2
ByLayer
 70
     0
  3

 72
    65
 73
     0
 40
0.0
  0
LTYPE
  5
16
330
5
100
AcDbSymbolTableRecord
100
AcDbLinetypeTableRecord
  2
Continuous
 70
     0
  3
Solid line
 72
    65
 73
     0
 40
0.0
  0
LTYPE
  5
6E
330
5
100
AcDbSymbolTableRecord
100
AcDbLinetypeTableRecord
  2
HIDDEN
 70
     0
  3
Hidden __ __ __ __ __ __ __ __ __ __ __ __ __ __
 72
    65
 73
     2
 40
1.905
 49
1.27
 74
     0
 49
-0.635
 74
     0
  0
LTYPE
  5
6F
330
5
100
AcDbSymbolTableRecord
100
AcDbLinetypeTableRecord
  2
PHANTOM
 70
     0
  3
Phantom ______  __  __  ______  __  __  ______
 72
    65
 73
     6
 40
12.7
 49
6.35
 74
     0
 49
-1.27
 74
     0
 49
1.27
 74
     0
 49
-1.27
 74
     0
 49
1.27
 74
     0
 49
-1.27
 74
     0
  0
LTYPE
  5
70
330
5
100
AcDbSymbolTableRecord
100
AcDbLinetypeTableRecord
  2
CENTER
 70
     0
  3
Center ____ _ ____ _ ____ _ ____ _ ____ _ ____
 72
    65
 73
     4
 40
10.16
 49
6.35
 74
     0
 49
-1.27
 74
     0
 49
1.27
 74
     0
 49
-1.27
 74
     0
  0
LTYPE
  5
71
330
5
100
AcDbSymbolTableRecord
100
AcDbLinetypeTableRecord
  2
CENTERX2
 70
     0
  3
Center (2x) ________  __  ________  __  _____
 72
    65
 73
     4
 40
20.32
 49
12.7
 74
     0
 49
-2.54
 74
     0
 49
2.54
 74
     0
 49
-2.54
 74
     0
  0
LTYPE
  5
72
330
5
100
AcDbSymbolTableRecord
100
AcDbLinetypeTableRecord
  2
DOT2
 70
     0
  3
Dot (.5x) ........................................
 72
    65
 73
     2
 40
0.635
 49
0.0
 74
     0
 49
-0.635
 74
     0
  0
ENDTAB
  0
TABLE
  2
LAYER
  5
2
330
0
100
AcDbSymbolTable
 70
     1
  0
LAYER
  5
10
330
2
100
AcDbSymbolTableRecord
100
AcDbLayerTableRecord
  2
0
 70
     0
 62
     7
  6
Continuous
370
    -3
390
F
  0
ENDTAB
  0
TABLE
  2
STYLE
  5
3
330
0
100
AcDbSymbolTable
 70
     1
  0
STYLE
  5
11
330
3
100
AcDbSymbolTableRecord
100
AcDbTextStyleTableRecord
  2
Standard
 70
     0
 40
0.0
 41
1.0
 50
0.0
 71
     0
 42
3.5
  3
txt
  4

  0
ENDTAB
  0
TABLE
  2
VIEW
  5
6
330
0
100
AcDbSymbolTable
 70
     0
  0
ENDTAB
  0
TABLE
  2
UCS
  5
7
330
0
100
AcDbSymbolTable
 70
     0
  0
ENDTAB
  0
TABLE
  2
APPID
  5
9
330
0
100
AcDbSymbolTable
 70
     1
  0
APPID
  5
12
330
9
100
AcDbSymbolTableRecord
100
AcDbRegAppTableRecord
  2
ACAD
 70
     0
  0
ENDTAB
  0
TABLE
  2
DIMSTYLE
  5
A
330
0
100
AcDbSymbolTable
 70
     1
100
AcDbDimStyleTable
  0
DIMSTYLE
105
27
330
A
100
AcDbSymbolTableRecord
100
AcDbDimStyleTableRecord
  2
ISO-25
 70
     0
 41
2.5
 42
0.625
 43
3.75
 44
1.25
 73
     0
 74
     0
 77
     1
 78
     8
140
2.5
141
2.5
143
0.0393700787
147
0.625
171
     3
172
     1
178
     0
271
     2
272
     2
274
     3
278
    44
283
     0
284
     8
340
11
  0
ENDTAB
  0
TABLE
  2
BLOCK_RECORD
  5
1
330
0
100
AcDbSymbolTable
 70
     1
  0
BLOCK_RECORD
  5
1F
330
1
100
AcDbSymbolTableRecord
100
AcDbBlockTableRecord
  2
*Model_Space
340
22
  0
BLOCK_RECORD
  5
1B
330
1
100
AcDbSymbolTableRecord
100
AcDbBlockTableRecord
  2
*Paper_Space
340
1E
  0
BLOCK_RECORD
  5
23
330
1
100
AcDbSymbolTableRecord
100
AcDbBlockTableRecord
  2
*Paper_Space0
340
26
  0
ENDTAB
  0
ENDSEC
  0
SECTION
  2
BLOCKS
  0
BLOCK
  5
20
330
1F
100
AcDbEntity
  8
0
100
AcDbBlockBegin
  2
*Model_Space
 70
     0
 10
0.0
 20
0.0
 30
0.0
  3
*Model_Space
  1

  0
ENDBLK
  5
21
330
1F
100
AcDbEntity
  8
0
100
AcDbBlockEnd
  0
BLOCK
  5
1C
330
1B
100
AcDbEntity
 67
     1
  8
0
100
AcDbBlockBegin
  2
*Paper_Space
 70
     0
 10
0.0
 20
0.0
 30
0.0
  3
*Paper_Space
  1

  0
ENDBLK
  5
1D
330
1B
100
AcDbEntity
 67
     1
  8
0
100
AcDbBlockEnd
  0
BLOCK
  5
24
330
23
100
AcDbEntity
  8
0
100
AcDbBlockBegin
  2
*Paper_Space0
 70
     0
 10
0.0
 20
0.0
 30
0.0
  3
*Paper_Space0
  1

  0
ENDBLK
  5
25
330
23
100
AcDbEntity
  8
0
100
AcDbBlockEnd
  0
ENDSEC
  0
SECTION
  2
ENTITIES
  0
ARC
  5
73
330
1F
100
AcDbEntity
  8
0
  6
Continuous
 62
     7
370
    25
100
AcDbCircle
 10
863.2128208011
 20
611.9578644957
 30
0.0
 40
0.5000000000001137
100
AcDbArc
 50
180.0
 51
0.0
  0
ARC
  5
74
330
1F
100
AcDbEntity
  8
0
  6
Continuous
 62
     7
370
    25
100
AcDbCircle
 10
863.2128208011
 20
623.5578644959
 30
0.0
 40
0.5
100
AcDbArc
 50
0.0
 51
180.0
  0
LINE
  5
75
330
1F
100
AcDbEntity
  8
0
  6
Continuous
 62
     7
370
    25
100
AcDbLine
 10
858.7128208011
 20
612.7578644958
 30
0.0
 11
858.923399856
 21
612.3931308735
 31
0.0
  0
LINE
  5
76
330
1F
100
AcDbEntity
  8
0
  6
Continuous
 62
     7
370
    25
100
AcDbLine
 10
873.1715708011
 20
620.7578644958
 30
0.0
 11
864.5128208011
 21
620.7578644958
 31
0.0
  0
LINE
  5
77
330
1F
100
AcDbEntity
  8
0
  6
Continuous
 62
     7
370
    25
100
AcDbLine
 10
864.5128208011
 20
614.7578644958
 30
0.0
 11
873.1715708011
 21
614.7578644958
 31
0.0
  0
LINE
  5
78
330
1F
100
AcDbEntity
  8
0
  6
Continuous
 62
     7
370
    25
100
AcDbLine
 10
873.1715708011
 20
614.7578644958
 30
0.0
 11
873.7128208011
 21
615.2991144957
 31
0.0
  0
LINE
  5
79
330
1F
100
AcDbEntity
  8
0
  6
Continuous
 62
     7
370
    25
100
AcDbLine
 10
873.7128208011
 20
620.2166144958
 30
0.0
 11
873.1715708011
 21
620.7578644958
 31
0.0
  0
LINE
  5
7A
330
1F
100
AcDbEntity
  8
0
  6
Continuous
 62
     7
370
    25
100
AcDbLine
 10
858.923399856
 20
623.122598118
 30
0.0
 11
858.7128208011
 21
622.7578644958
 31
0.0
  0
ARC
  5
7B
330
1F
100
AcDbEntity
  8
0
  6
Continuous
 62
     7
370
    25
100
AcDbCircle
 10
863.2128208011
 20
598.5578644959
 30
0.0
 40
0.5000000000001137
100
AcDbArc
 50
0.0
 51
113.5781784781
  0
LINE
  5
7C
330
1F
100
AcDbEntity
  8
0
  6
Continuous
 62
     7
370
    25
100
AcDbLine
 10
873.1715708011
 20
595.7578644958
 30
0.0
 11
864.5128208011
 21
595.7578644958
 31
0.0
  0
LINE
  5
7D
330
1F
100
AcDbEntity
  8
0
  6
Continuous
 62
     7
370
    25
100
AcDbLine
 10
873.1715708011
 20
589.7578644958
 30
0.0
 11
873.7128208011
 21
590.2991144957
 31
0.0
  0
LINE
  5
7E
330
1F
100
AcDbEntity
  8
0
  6
Continuous
 62
     7
370
    25
100
AcDbLine
 10
873.7128208011
 20
595.2166144958
 30
0.0
 11
873.1715708011
 21
595.7578644958
 31
0.0
  0
ARC
  5
7F
330
1F
100
AcDbEntity
  8
0
  6
Continuous
 62
     7
370
    25
100
AcDbCircle
 10
-40.1871791989
 20
598.5578644959
 30
0.0
 40
0.5
100
AcDbArc
 50
66.4218215218
 51
180.0
  0
LINE
  5
80
330
1F
100
AcDbEntity
  8
0
  6
Continuous
 62
     7
370
    25
100
AcDbLine
 10
-50.1459291989
 20
595.7578644958
 30
0.0
 11
-50.6871791989
 21
595.2166144958
 31
0.0
  0
LINE
  5
81
330
1F
100
AcDbEntity
  8
0
  6
Continuous
 62
     7
370
    25
100
AcDbLine
 10
-50.6871791989
 20
590.2991144957
 30
0.0
 11
-50.1459291989
 21
589.7578644958
 31
0.0
  0
LINE
  5
82
330
1F
100
AcDbEntity
  8
0
  6
Continuous
 62
     7
370
    25
100
AcDbLine
 10
-41.4871791989
 20
595.7578644958
 30
0.0
 11
-50.1459291989
 21
595.7578644958
 31
0.0
  0
ARC
  5
83
330
1F
100
AcDbEntity
  8
0
  6
Continuous
 62
     7
370
    25
100
AcDbCircle
 10
-40.1871791989
 20
623.5578644959
 30
0.0
 40
0.5
100
AcDbArc
 50
360.0
 51
180.0
  0
ARC
  5
84
330
1F
100
AcDbEntity
  8
0
  6
Continuous
 62
     7
370
    25
100
AcDbCircle
 10
-40.1871791989
 20
611.9578644957
 30
0.0
 40
0.5000000000000071
100
AcDbArc
 50
180.0
 51
360.0
  0
LINE
  5
85
330
1F
100
AcDbEntity
  8
0
  6
Continuous
 62
     7
370
    25
100
AcDbLine
 10
-50.1459291989
 20
614.7578644958
 30
0.0
 11
-41.4871791989
 21
614.7578644958
 31
0.0
  0
LINE
  5
86
330
1F
100
AcDbEntity
  8
0
  6
Continuous
 62
     7
370
    25
100
AcDbLine
 10
-41.4871791989
 20
620.7578644958
 30
0.0
 11
-50.1459291989
 21
620.7578644958
 31
0.0
  0
LINE
  5
87
330
1F
100
AcDbEntity
  8
0
  6
Continuous
 62
     7
370
    25
100
AcDbLine
 10
-50.1459291989
 20
620.7578644958
 30
0.0
 11
-50.6871791989
 21
620.2166144958
 31
0.0
  0
LINE
  5
88
330
1F
100
AcDbEntity
  8
0
  6
Continuous
 62
     7
370
    25
100
AcDbLine
 10
-50.6871791989
 20
615.2991144957
 30
0.0
 11
-50.1459291989
 21
614.7578644958
 31
0.0
  0
SPLINE
  5
89
330
1F
100
AcDbEntity
  8
0
  6
Continuous
 62
     7
370
    25
100
AcDbSpline
210
0.0
220
0.0
230
1.0
 70
    24
 71
     3
 72
    16
 73
    12
 74
     0
 42
0.000000001
 43
0.00000001
 40
0.0
 40
0.0
 40
0.0
 40
0.0
 40
0.1658292928977469
 40
0.2550981074401225
 40
0.3462613343064166
 40
0.4374245611727114
 40
0.5266933757150813
 40
0.6925226686128336
 40
0.858351961510584
 40
0.9476207760529564
 40
1.0
 40
1.0
 40
1.0
 40
1.0
 10
862.7128208010604
 20
621.4835541203953
 30
0.0
 10
862.7128208010604
 20
620.8746463227203
 30
0.0
 10
862.7128208010605
 20
619.9379527863847
 30
0.0
 10
862.7128208010602
 20
618.4381540951487
 30
0.0
 10
862.7128208010604
 20
617.2461970153337
 30
0.0
 10
862.7128208010603
 20
616.0717687411272
 30
0.0
 10
862.7128208010605
 20
614.66815544784
 30
0.0
 10
862.7128208010603
 20
613.2008123670578
 30
0.0
 10
862.7128208010603
 20
612.301625016237
 30
0.0
 10
862.7128208010604
 20
611.9737936891228
 30
0.0
 10
862.7128208010604
 20
611.9841841045632
 30
0.0
 10
862.7128208010604
 20
611.9880263172972
 30
0.0
  0
SPLINE
  5
8A
330
1F
100
AcDbEntity
  8
0
  6
Continuous
 62
     7
370
    25
100
AcDbSpline
210
0.0
220
0.0
230
1.0
 70
     8
 71
     3
 72
     8
 73
     4
 74
     0
 42
0.000000001
 43
0.00000001
 40
0.0
 40
0.0
 40
0.0
 40
0.0
 40
1.0
 40
1.0
 40
1.0
 40
1.0
 10
858.7128208010674
 20
618.6233590663785
 30
0.0
 10
858.7128208010674
 20
617.6529531304884
 30
0.0
 10
858.8871361014469
 20
616.7091067885573
 30
0.0
 10
859.1594027884588
 20
615.7801848339305
 30
0.0
  0
SPLINE
  5
8B
330
1F
100
AcDbEntity
  8
0
  6
Continuous
 62
     7
370
    25
100
AcDbSpline
210
0.0
220
0.0
230
1.0
 70
     8
 71
     3
 72
     8
 73
     4
 74
     0
 42
0.000000001
 43
0.00000001
 40
0.0
 40
0.0
 40
0.0
 40
0.0
 40
1.0
 40
1.0
 40
1.0
 40
1.0
 10
859.1594027884588
 20
621.4665332988266
 30
0.0
 10
858.8871361014474
 20
620.5376113442017
 30
0.0
 10
858.7128208010674
 20
619.593765002267
 30
0.0
 10
858.7128208010674
 20
618.6233590663785
 30
0.0
  0
LINE
  5
8C
330
1F
100
AcDbEntity
  8
0
  6
Continuous
 62
     7
370
    25
100
AcDbLine
 10
862.7128208011
 20
621.4665332988
 30
0.0
 11
859.1594027885
 21
621.4665332988
 31
0.0
  0
LINE
  5
8D
330
1F
100
AcDbEntity
  8
0
  6
Continuous
 62
     7
370
    25
100
AcDbLine
 10
862.7128208011
 20
615.7801848339
 30
0.0
 11
859.1594027885
 21
615.7801848339
 31
0.0
  0
LINE
  5
8E
330
1F
100
AcDbEntity
  8
0
  6
Continuous
 62
     7
370
    25
100
AcDbLine
 10
858.7128208011
 20
618.6233590664
 30
0.0
 11
858.7128208011
 21
613.9258504324
 31
0.0
  0
SPLINE
  5
8F
330
1F
100
AcDbEntity
  8
0
  6
Continuous
 62
     7
370
    25
100
AcDbSpline
210
0.0
220
0.0
230
1.0
 70
     8
 71
     3
 72
     8
 73
     4
 74
     0
 42
0.000000001
 43
0.00000001
 40
0.0
 40
0.0
 40
0.0
 40
0.0
 40
1.0
 40
1.0
 40
1.0
 40
1.0
 10
859.1594027884588
 20
615.7801848339243
 30
0.0
 10
858.8871361014474
 20
615.1743366529931
 30
0.0
 10
858.7128208010674
 20
614.5587547017941
 30
0.0
 10
858.7128208010674
 20
613.9258504323927
 30
0.0
  0
SPLINE
  5
90
330
1F
100
AcDbEntity
  8
0
  6
Continuous
 62
     7
370
    25
100
AcDbSpline
210
0.0
220
0.0
230
1.0
 70
     8
 71
     3
 72
     8
 73
     4
 74
     0
 42
0.000000001
 43
0.00000001
 40
0.0
 40
0.0
 40
0.0
 40
0.0
 40
1.0
 40
1.0
 40
1.0
 40
1.0
 10
858.7128208010674
 20
613.9258504323927
 30
0.0
 10
858.7128208010674
 20
613.2929461629903
 30
0.0
 10
858.8871361014469
 20
612.6773642117936
 30
0.0
 10
859.1594027884588
 20
612.0715160308614
 30
0.0
  0
LINE
  5
91
330
1F
100
AcDbEntity
  8
0
  6
Continuous
 62
     7
370
    25
100
AcDbLine
 10
862.7128208011
 20
612.0715160309
 30
0.0
 11
859.1594027885
 21
612.0715160309
 31
0.0
  0
LINE
  5
92
330
1F
100
AcDbEntity
  8
0
  6
Continuous
 62
     7
370
    25
100
AcDbLine
 10
858.7128208011
 20
622.4553731297
 30
0.0
 11
858.7128208011
 21
618.6233590664
 31
0.0
  0
SPLINE
  5
93
330
1F
100
AcDbEntity
  8
0
  6
Continuous
 62
     7
370
    25
100
AcDbSpline
210
0.0
220
0.0
230
1.0
 70
     8
 71
     3
 72
     8
 73
     4
 74
     0
 42
0.000000001
 43
0.00000001
 40
0.0
 40
0.0
 40
0.0
 40
0.0
 40
1.0
 40
1.0
 40
1.0
 40
1.0
 10
858.7128208010672
 20
622.455373129748
 30
0.0
 10
858.7128208010672
 20
622.1178714632604
 30
0.0
 10
858.8871361014467
 20
621.789607072526
 30
0.0
 10
859.1594027884587
 20
621.4665332988316
 30
0.0
  0
SPLINE
  5
94
330
1F
100
AcDbEntity
  8
0
  6
Continuous
 62
     7
370
    25
100
AcDbSpline
210
0.0
220
0.0
230
1.0
 70
     8
 71
     3
 72
     8
 73
     4
 74
     0
 42
0.000000001
 43
0.00000001
 40
0.0
 40
0.0
 40
0.0
 40
0.0
 40
1.0
 40
1.0
 40
1.0
 40
1.0
 10
859.1594027884586
 20
623.4442129606645
 30
0.0
 10
858.8871361014471
 20
623.1211391869706
 30
0.0
 10
858.7128208010672
 20
622.792874796235
 30
0.0
 10
858.7128208010672
 20
622.455373129748
 30
0.0
  0
LINE
  5
95
330
1F
100
AcDbEntity
  8
0
  6
Continuous
 62
     7
370
    25
100
AcDbLine
 10
862.7128208011
 20
623.4442129607
 30
0.0
 11
859.1594027885
 21
623.4442129607
 31
0.0
  0
LINE
  5
96
330
1F
100
AcDbEntity
  8
0
  6
Continuous
 62
     7
370
    25
100
AcDbLine
 10
859.1594027885
 20
612.0715160309
 30
0.0
 11
858.9953847532
 21
612.4346913733
 31
0.0
  0
LINE
  5
97
330
1F
100
AcDbEntity
  8
0
  6
Continuous
 62
     7
370
    25
100
AcDbLine
 10
858.7128208011
 20
613.9258504324
 30
0.0
 11
858.7128208011
 21
612.7578644958
 31
0.0
  0
LINE
  5
98
330
1F
100
AcDbEntity
  8
0
  6
Continuous
 62
     7
370
    25
100
AcDbLine
 10
873.1715708011
 20
614.7578644958
 30
0.0
 11
873.1715708011
 21
620.7578644958
 31
0.0
  0
LINE
  5
99
330
1F
100
AcDbEntity
  8
0
  6
Continuous
 62
     7
370
    25
100
AcDbLine
 10
873.7128208011
 20
615.8734715801
 30
0.0
 11
873.7128208011
 21
620.2166144958
 31
0.0
  0
LINE
  5
9A
330
1F
100
AcDbEntity
  8
0
  6
Continuous
 62
     7
370
    25
100
AcDbLine
 10
873.7128208011
 20
615.2991144957
 30
0.0
 11
873.7128208011
 21
615.8734715801
 31
0.0
  0
LINE
  5
9B
330
1F
100
AcDbEntity
  8
0
  6
Continuous
 62
     7
370
    25
100
AcDbLine
 10
858.7128208011
 20
622.7578644958
 30
0.0
 11
858.7128208011
 21
622.4553731297
 31
0.0
  0
CIRCLE
  5
9C
330
1F
100
AcDbEntity
  8
0
  6
Continuous
 62
     7
370
    25
100
AcDbCircle
 10
14.0128208011
 20
564.7578644958
 30
0.0
 40
0.5000000000000018
  0
SPLINE
  5
9D
330
1F
100
AcDbEntity
  8
0
  6
Continuous
 62
     7
370
    25
100
AcDbSpline
210
0.0
220
0.0
230
1.0
 70
     8
 71
     3
 72
    20
 73
    16
 74
     0
 42
0.000000001
 43
0.00000001
 40
0.0
 40
0.0
 40
0.0
 40
0.0
 40
0.1250000000000067
 40
0.1250000000000067
 40
0.2500000000000134
 40
0.2500000000000134
 40
0.3750000000000201
 40
0.3750000000000201
 40
0.5000000000000268
 40
0.5000000000000268
 40
0.7500000000000105
 40
0.7500000000000105
 40
0.8750000000000053
 40
0.8750000000000053
 40
1.0
 40
1.0
 40
1.0
 40
1.0
 10
906.6128208010614
 20
587.3578644957569
 30
0.0
 10
906.7711999887122
 20
587.3969052266115
 30
0.0
 10
906.9274457134039
 20
587.4354239308111
 30
0.0
 10
907.2354375628204
 20
587.5128306821191
 30
0.0
 10
907.3880816702916
 20
587.5519751001057
 30
0.0
 10
907.6771659594787
 20
587.629125854021
 30
0.0
 10
907.8149704976626
 20
587.667453435762
 30
0.0
 10
908.0765891733016
 20
587.7449997562385
 30
0.0
 10
908.1993354799844
 20
587.7839759639073
 30
0.0
 10
908.5306598569321
 20
587.8994708203526
 30
0.0
 10
908.7096709809601
 20
587.9773832640225
 30
0.0
 10
908.8892860803408
 20
588.0928631894234
 30
0.0
 10
908.9355304292086
 20
588.1317289852883
 30
0.0
 10
908.9972837352199
 20
588.209503318957
 30
0.0
 10
909.0128208010615
 20
588.2481130859117
 30
0.0
 10
909.0128208010615
 20
588.2871538176385
 30
0.0
  0
SPLINE
  5
9E
330
1F
100
AcDbEntity
  8
0
  6
Continuous
 62
     7
370
    25
100
AcDbSpline
210
0.0
220
0.0
230
1.0
 70
     8
 71
     3
 72
    14
 73
    10
 74
     0
 42
0.000000001
 43
0.00000001
 40
0.0
 40
0.0
 40
0.0
 40
0.0
 40
0.2500000000000001
 40
0.2500000000000001
 40
0.5000000000000001
 40
0.5000000000000001
 40
0.7500000000000002
 40
0.7500000000000002
 40
1.0
 40
1.0
 40
1.0
 40
1.0
 10
906.6128208010614
 20
587.3578644957569
 30
0.0
 10
906.7450062169205
 20
587.4360659107784
 30
0.0
 10
906.8729882354538
 20
587.5117758580755
 30
0.0
 10
907.1156122604013
 20
587.6670562697221
 30
0.0
 10
907.2260545248112
 20
587.7440661193057
 30
0.0
 10
907.4120514220048
 20
587.8994896053331
 30
0.0
 10
907.4858524008429
 20
587.9764393222515
 30
0.0
 10
907.586670985238
 20
588.1318693015007
 30
0.0
 10
907.6128208010614
 20
588.2089524100733
 30
0.0
 10
907.6128208010614
 20
588.2871538176385
 30
0.0
  0
LINE
  5
9F
330
1F
100
AcDbEntity
  8
0
  6
Continuous
 62
     7
370
    25
100
AcDbLine
 10
909.0128208011
 20
588.2871538176
 30
0.0
 11
907.6128208011
 21
588.2871538176
 31
0.0
  0
LINE
  5
A0
330
1F
100
AcDbEntity
  8
0
  6
Continuous
 62
     7
370
    25
100
AcDbLine
 10
909.0128208011
 20
-4.7714248261
 30
0.0
 11
909.0128208011
 21
588.2871538176
 31
0.0
  0
SPLINE
  5
A1
330
1F
100
AcDbEntity
  8
0
  6
Continuous
 62
     7
370
    25
100
AcDbSpline
210
0.0
220
0.0
230
1.0
 70
     8
 71
     3
 72
    20
 73
    16
 74
     0
 42
0.000000001
 43
0.00000001
 40
0.0
 40
0.0
 40
0.0
 40
0.0
 40
0.1249999999999913
 40
0.1249999999999913
 40
0.2499999999999826
 40
0.2499999999999826
 40
0.3749999999999739
 40
0.3749999999999739
 40
0.4999999999999651
 40
0.4999999999999651
 40
0.749999999999958
 40
0.749999999999958
 40
0.8749999999999789
 40
0.8749999999999789
 40
1.0
 40
1.0
 40
1.0
 40
1.0
 10
909.0128208010615
 20
-4.771424826124415
 30
0.0
 10
909.0128208010615
 20
-4.732384095269937
 30
0.0
 10
908.9972842405866
 20
-4.693865391070084
 30
0.0
 10
908.935965888626
 20
-4.616458639762233
 30
0.0
 10
908.889542143039
 20
-4.577314221775541
 30
0.0
 10
908.7695912728849
 20
-4.500163467860252
 30
0.0
 10
908.6959866286015
 20
-4.46183588611937
 30
0.0
 10
908.5212562625059
 20
-4.384289565642685
 30
0.0
 10
908.4204056336043
 20
-4.345313357974002
 30
0.0
 10
908.0891203536205
 20
-4.229818501528815
 30
0.0
 10
907.8214401922365
 20
-4.151906057858923
 30
0.0
 10
907.388766166181
 20
-4.036426132458026
 30
0.0
 10
907.23724807933
 20
-3.997560336592987
 30
0.0
 10
906.927822321944
 20
-3.919786002924475
 30
0.0
 10
906.7711999922501
 20
-3.881176235969674
 30
0.0
 10
906.6128208010614
 20
-3.84213550424306
 30
0.0
  0
SPLINE
  5
A2
330
1F
100
AcDbEntity
  8
0
  6
Continuous
 62
     7
370
    25
100
AcDbSpline
210
0.0
220
0.0
230
1.0
 70
     8
 71
     3
 72
    20
 73
    16
 74
     0
 42
0.000000001
 43
0.00000001
 40
0.0
 40
0.0
 40
0.0
 40
0.0
 40
0.1250000000000107
 40
0.1250000000000107
 40
0.2500000000000214
 40
0.2500000000000214
 40
0.3750000000000321
 40
0.3750000000000321
 40
0.5000000000000429
 40
0.5000000000000429
 40
0.7500000000000346
 40
0.7500000000000346
 40
0.8750000000000173
 40
0.8750000000000173
 40
1.0
 40
1.0
 40
1.0
 40
1.0
 10
906.6128208010614
 20
-3.842135504243005
 30
0.0
 10
906.651861531916
 20
-4.000514691893775
 30
0.0
 10
906.6903802361157
 20
-4.156760416585525
 30
0.0
 10
906.7677869874235
 20
-4.46475226600207
 30
0.0
 10
906.8069314054104
 20
-4.617396373473137
 30
0.0
 10
906.8840821593254
 20
-4.90648066266025
 30
0.0
 10
906.9224097410665
 20
-5.044285200844212
 30
0.0
 10
906.9999560615431
 20
-5.305903876483164
 30
0.0
 10
907.0389322692118
 20
-5.428650183165851
 30
0.0
 10
907.1544271256568
 20
-5.759974560113679
 30
0.0
 10
907.2323395693269
 20
-5.938985684141807
 30
0.0
 10
907.3478194947278
 20
-6.118600783522609
 30
0.0
 10
907.3866852905927
 20
-6.16484513239024
 30
0.0
 10
907.4644596242613
 20
-6.226598438401454
 30
0.0
 10
907.5030693912161
 20
-6.242135504243073
 30
0.0
 10
907.5421101229427
 20
-6.242135504243073
 30
0.0
  0
SPLINE
  5
A3
330
1F
100
AcDbEntity
  8
0
  6
Continuous
 62
     7
370
    25
100
AcDbSpline
210
0.0
220
0.0
230
1.0
 70
     8
 71
     3
 72
    14
 73
    10
 74
     0
 42
0.000000001
 43
0.00000001
 40
0.0
 40
0.0
 40
0.0
 40
0.0
 40
0.25
 40
0.25
 40
0.5
 40
0.5
 40
0.75
 40
0.75
 40
1.0
 40
1.0
 40
1.0
 40
1.0
 10
906.6128208010614
 20
-3.84213550424306
 30
0.0
 10
906.6910222160831
 20
-3.97432092010197
 30
0.0
 10
906.7667321633801
 20
-4.102302938635615
 30
0.0
 10
906.922012575027
 20
-4.344926963582907
 30
0.0
 10
906.9990224246101
 20
-4.455369227992945
 30
0.0
 10
907.1544459106375
 20
-4.641366125186397
 30
0.0
 10
907.2313956275559
 20
-4.715167104024587
 30
0.0
 10
907.3868256068051
 20
-4.815985688419566
 30
0.0
 10
907.4639087153778
 20
-4.842135504243061
 30
0.0
 10
907.5421101229427
 20
-4.842135504243061
 30
0.0
  0
LINE
  5
A4
330
1F
100
AcDbEntity
  8
0
  6
Continuous
 62
     7
370
    25
100
AcDbLine
 10
907.5421101229
 20
-6.2421355042
 30
0.0
 11
907.5421101229
 21
-4.8421355042
 31
0.0
  0
LINE
  5
A5
330
1F
100
AcDbEntity
  8
0
  6
Continuous
 62
     7
370
    25
100
AcDbLine
 10
909.0128208011
 20
-4.7714248261
 30
0.0
 11
907.6128208011
 21
-4.7714248261
 31
0.0
  0
SPLINE
  5
A6
330
1F
100
AcDbEntity
  8
0
  6
Continuous
 62
     7
370
    25
100
AcDbSpline
210
0.0
220
0.0
230
1.0
 70
     8
 71
     3
 72
    14
 73
    10
 74
     0
 42
0.000000001
 43
0.00000001
 40
0.0
 40
0.0
 40
0.0
 40
0.0
 40
0.2499999999999998
 40
0.2499999999999998
 40
0.4999999999999999
 40
0.4999999999999999
 40
0.7499999999999999
 40
0.7499999999999999
 40
1.0
 40
1.0
 40
1.0
 40
1.0
 10
907.6128208010614
 20
-4.771424826124415
 30
0.0
 10
907.6128208010614
 20
-4.693223411102787
 30
0.0
 10
907.5872621363812
 20
-4.617513463805789
 30
0.0
 10
907.4871341077842
 20
-4.462233052158815
 30
0.0
 10
907.4135699284799
 20
-4.385223202575894
 30
0.0
 10
907.2280322927882
 20
-4.229799716548466
 30
0.0
 10
907.1178673718288
 20
-4.152849999630003
 30
0.0
 10
906.8752556151394
 20
-3.997420020380837
 30
0.0
 10
906.7450062043165
 20
-3.920336911808153
 30
0.0
 10
906.6128208010614
 20
-3.84213550424306
 30
0.0
  0
LINE
  5
A7
330
1F
100
AcDbEntity
  8
0
  6
Continuous
 62
     7
370
    25
100
AcDbLine
 10
-84.5164685208
 20
-6.2421355042
 30
0.0
 11
907.5421101229
 21
-6.2421355042
 31
0.0
  0
SPLINE
  5
A8
330
1F
100
AcDbEntity
  8
0
  6
Continuous
 62
     7
370
    25
100
AcDbSpline
210
0.0
220
0.0
230
1.0
 70
     8
 71
     3
 72
    20
 73
    16
 74
     0
 42
0.000000001
 43
0.00000001
 40
0.0
 40
0.0
 40
0.0
 40
0.0
 40
0.1249999999999999
 40
0.1249999999999999
 40
0.2499999999999999
 40
0.2499999999999999
 40
0.3749999999999999
 40
0.3749999999999999
 40
0.4999999999999999
 40
0.4999999999999999
 40
0.7499999999999999
 40
0.7499999999999999
 40
0.8749999999999999
 40
0.8749999999999999
 40
1.0
 40
1.0
 40
1.0
 40
1.0
 10
-84.51646852081984
 20
-6.242135504243073
 30
0.0
 10
-84.47742778996515
 20
-6.242135504243018
 30
0.0
 10
-84.43890908576552
 20
-6.226598943768313
 30
0.0
 10
-84.36150233445765
 20
-6.165280591807598
 30
0.0
 10
-84.32235791647086
 20
-6.118856846220877
 30
0.0
 10
-84.24520716255569
 20
-5.998905976066615
 30
0.0
 10
-84.20687958081469
 20
-5.925301331783094
 30
0.0
 10
-84.12933326033806
 20
-5.750570965687429
 30
0.0
 10
-84.09035705266949
 20
-5.649720336786235
 30
0.0
 10
-83.97486219622458
 20
-5.318435056802295
 30
0.0
 10
-83.89694975255446
 20
-5.050754895418342
 30
0.0
 10
-83.78146982715351
 20
-4.61808086936294
 30
0.0
 10
-83.74260403128852
 20
-4.466562782511896
 30
0.0
 10
-83.66482969762006
 20
-4.157137025125657
 30
0.0
 10
-83.62621993066527
 20
-4.000514695432056
 30
0.0
 10
-83.5871791989386
 20
-3.842135504243227
 30
0.0
  0
SPLINE
  5
A9
330
1F
100
AcDbEntity
  8
0
  6
Continuous
 62
     7
370
    25
100
AcDbSpline
210
0.0
220
0.0
230
1.0
 70
     8
 71
     3
 72
    20
 73
    16
 74
     0
 42
0.000000001
 43
0.00000001
 40
0.0
 40
0.0
 40
0.0
 40
0.0
 40
0.1250000000000108
 40
0.1250000000000108
 40
0.2500000000000215
 40
0.2500000000000215
 40
0.3750000000000323
 40
0.3750000000000323
 40
0.5000000000000431
 40
0.5000000000000431
 40
0.7500000000000245
 40
0.7500000000000245
 40
0.8750000000000123
 40
0.8750000000000123
 40
1.0
 40
1.0
 40
1.0
 40
1.0
 10
-83.58717919893854
 20
587.3578644957566
 30
0.0
 10
-83.62621992979325
 20
587.5162436834075
 30
0.0
 10
-83.66473863399293
 20
587.6724894080993
 30
0.0
 10
-83.74214538530089
 20
587.9804812575159
 30
0.0
 10
-83.78128980328736
 20
588.1331253649869
 30
0.0
 10
-83.85844055720266
 20
588.4222096541738
 30
0.0
 10
-83.89676813894376
 20
588.560014192358
 30
0.0
 10
-83.97431445942033
 20
588.821632867997
 30
0.0
 10
-84.01329066708895
 20
588.9443791746795
 30
0.0
 10
-84.1287855235343
 20
589.2757035516274
 30
0.0
 10
-84.2066979672042
 20
589.4547146756555
 30
0.0
 10
-84.32217789260493
 20
589.6343297750363
 30
0.0
 10
-84.36104368847013
 20
589.6805741239043
 30
0.0
 10
-84.43881802213859
 20
589.7423274299153
 30
0.0
 10
-84.47742778909328
 20
589.7578644957568
 30
0.0
 10
-84.51646852081996
 20
589.7578644957568
 30
0.0
  0
SPLINE
  5
AA
330
1F
100
AcDbEntity
  8
0
  6
Continuous
 62
     7
370
    25
100
AcDbSpline
210
0.0
220
0.0
230
1.0
 70
     8
 71
     3
 72
    14
 73
    10
 74
     0
 42
0.000000001
 43
0.00000001
 40
0.0
 40
0.0
 40
0.0
 40
0.0
 40
0.2499999999999999
 40
0.2499999999999999
 40
0.4999999999999999
 40
0.4999999999999999
 40
0.7499999999999998
 40
0.7499999999999998
 40
1.0
 40
1.0
 40
1.0
 40
1.0
 10
-83.58717919893854
 20
587.3578644957568
 30
0.0
 10
-83.6653806139604
 20
587.4900499116158
 30
0.0
 10
-83.74109056125717
 20
587.6180319301492
 30
0.0
 10
-83.89637097290415
 20
587.8606559550967
 30
0.0
 10
-83.97338082248712
 20
587.9710982195065
 30
0.0
 10
-84.12880430851466
 20
588.1570951166997
 30
0.0
 10
-84.20575402543307
 20
588.2308960955386
 30
0.0
 10
-84.36118400468234
 20
588.3317146799336
 30
0.0
 10
-84.43826711325481
 20
588.3578644957568
 30
0.0
 10
-84.51646852081996
 20
588.3578644957568
 30
0.0
  0
LINE
  5
AB
330
1F
100
AcDbEntity
  8
0
  6
Continuous
 62
     7
370
    25
100
AcDbLine
 10
-84.5164685208
 20
589.7578644958
 30
0.0
 11
-84.5164685208
 21
588.3578644958
 31
0.0
  0
LINE
  5
AC
330
1F
100
AcDbEntity
  8
0
  6
Continuous
 62
     7
370
    25
100
AcDbLine
 10
907.5421101229
 20
589.7578644958
 30
0.0
 11
-84.5164685208
 21
589.7578644958
 31
0.0
  0
SPLINE
  5
AD
330
1F
100
AcDbEntity
  8
0
  6
Continuous
 62
     7
370
    25
100
AcDbSpline
210
0.0
220
0.0
230
1.0
 70
     8
 71
     3
 72
    20
 73
    16
 74
     0
 42
0.000000001
 43
0.00000001
 40
0.0
 40
0.0
 40
0.0
 40
0.0
 40
0.1249999999999987
 40
0.1249999999999987
 40
0.2499999999999973
 40
0.2499999999999973
 40
0.374999999999996
 40
0.374999999999996
 40
0.4999999999999947
 40
0.4999999999999947
 40
0.7499999999999921
 40
0.7499999999999921
 40
0.874999999999996
 40
0.874999999999996
 40
1.0
 40
1.0
 40
1.0
 40
1.0
 10
907.5421101229429
 20
589.7578644957568
 30
0.0
 10
907.5030693920884
 20
589.7578644957568
 30
0.0
 10
907.4645506878885
 20
589.742327935282
 30
0.0
 10
907.3871439365809
 20
589.6810095833214
 30
0.0
 10
907.3479995185941
 20
589.6345858377347
 30
0.0
 10
907.2708487646788
 20
589.5146349675804
 30
0.0
 10
907.2325211829378
 20
589.4410303232969
 30
0.0
 10
907.1549748624612
 20
589.2662999572012
 30
0.0
 10
907.1159986547926
 20
589.1654493282998
 30
0.0
 10
907.0005037983475
 20
588.834164048316
 30
0.0
 10
906.9225913546775
 20
588.5664838869321
 30
0.0
 10
906.8071114292763
 20
588.1338098608766
 30
0.0
 10
906.7682456334114
 20
587.9822917740256
 30
0.0
 10
906.6904712997427
 20
587.6728660166394
 30
0.0
 10
906.6518615327881
 20
587.5162436869457
 30
0.0
 10
906.6128208010614
 20
587.3578644957569
 30
0.0
  0
SPLINE
  5
AE
330
1F
100
AcDbEntity
  8
0
  6
Continuous
 62
     7
370
    25
100
AcDbSpline
210
0.0
220
0.0
230
1.0
 70
     8
 71
     3
 72
    20
 73
    16
 74
     0
 42
0.000000001
 43
0.00000001
 40
0.0
 40
0.0
 40
0.0
 40
0.0
 40
0.1250000000000094
 40
0.1250000000000094
 40
0.2500000000000188
 40
0.2500000000000188
 40
0.3750000000000282
 40
0.3750000000000282
 40
0.5000000000000376
 40
0.5000000000000376
 40
0.7500000000000269
 40
0.7500000000000269
 40
0.8750000000000134
 40
0.8750000000000134
 40
1.0
 40
1.0
 40
1.0
 40
1.0
 10
-83.58717919893854
 20
-3.842135504243227
 30
0.0
 10
-83.74555838658921
 20
-3.881176235097705
 30
0.0
 10
-83.9018041112809
 20
-3.919694939297669
 30
0.0
 10
-84.20979596069745
 20
-3.997101690605465
 30
0.0
 10
-84.36244006816868
 20
-4.036246108592156
 30
0.0
 10
-84.65152435735595
 20
-4.11339686250739
 30
0.0
 10
-84.78932889553991
 20
-4.151724444248384
 30
0.0
 10
-85.05094757117865
 20
-4.229270764724902
 30
0.0
 10
-85.17369387786134
 20
-4.268246972393586
 30
0.0
 10
-85.505018254809
 20
-4.383741828838272
 30
0.0
 10
-85.68402937883724
 20
-4.461654272508664
 30
0.0
 10
-85.86364447821815
 20
-4.577134197909672
 30
0.0
 10
-85.90988882708595
 20
-4.615999993774711
 30
0.0
 10
-85.97164213309728
 20
-4.693774327443389
 30
0.0
 10
-85.98717919893866
 20
-4.732384094397968
 30
0.0
 10
-85.98717919893856
 20
-4.771424826124527
 30
0.0
  0
LINE
  5
AF
330
1F
100
AcDbEntity
  8
0
  6
Continuous
 62
     7
370
    25
100
AcDbLine
 10
-85.9871791989
 20
588.2871538176
 30
0.0
 11
-85.9871791989
 21
-4.7714248261
 31
0.0
  0
SPLINE
  5
B0
330
1F
100
AcDbEntity
  8
0
  6
Continuous
 62
     7
370
    25
100
AcDbSpline
210
0.0
220
0.0
230
1.0
 70
     8
 71
     3
 72
    20
 73
    16
 74
     0
 42
0.000000001
 43
0.00000001
 40
0.0
 40
0.0
 40
0.0
 40
0.0
 40
0.125
 40
0.125
 40
0.25
 40
0.25
 40
0.375
 40
0.375
 40
0.5
 40
0.5
 40
0.75
 40
0.75
 40
0.875
 40
0.875
 40
1.0
 40
1.0
 40
1.0
 40
1.0
 10
-85.98717919893856
 20
588.2871538176382
 30
0.0
 10
-85.98717919893856
 20
588.2481130867839
 30
0.0
 10
-85.97164263846379
 20
588.209594382584
 30
0.0
 10
-85.91032428650297
 20
588.132187631276
 30
0.0
 10
-85.8639005409163
 20
588.0930432132893
 30
0.0
 10
-85.74394967076215
 20
588.0158924593742
 30
0.0
 10
-85.6703450264788
 20
587.9775648776331
 30
0.0
 10
-85.49561466038314
 20
587.9000185571566
 30
0.0
 10
-85.39476403148139
 20
587.8610423494879
 30
0.0
 10
-85.0634787514975
 20
587.7455474930431
 30
0.0
 10
-84.79579859011372
 20
587.6676350493727
 30
0.0
 10
-84.36312456405825
 20
587.5521551239718
 30
0.0
 10
-84.21160647720727
 20
587.5132893281068
 30
0.0
 10
-83.90218071982119
 20
587.4355149944382
 30
0.0
 10
-83.74555839012737
 20
587.3969052274834
 30
0.0
 10
-83.58717919893854
 20
587.3578644957568
 30
0.0
  0
LINE
  5
B1
330
1F
100
AcDbEntity
  8
0
  6
Continuous
 62
     7
370
    25
100
AcDbLine
 10
-85.9871791989
 20
588.2871538176
 30
0.0
 11
-84.5871791989
 21
588.2871538176
 31
0.0
  0
SPLINE
  5
B2
330
1F
100
AcDbEntity
  8
0
  6
Continuous
 62
     7
370
    25
100
AcDbSpline
210
0.0
220
0.0
230
1.0
 70
     8
 71
     3
 72
    14
 73
    10
 74
     0
 42
0.000000001
 43
0.00000001
 40
0.0
 40
0.0
 40
0.0
 40
0.0
 40
0.25
 40
0.25
 40
0.5
 40
0.5
 40
0.75
 40
0.75
 40
1.0
 40
1.0
 40
1.0
 40
1.0
 10
-84.58717919893854
 20
588.2871538176382
 30
0.0
 10
-84.58717919893849
 20
588.2089524026165
 30
0.0
 10
-84.56162053425831
 20
588.1332424553196
 30
0.0
 10
-84.46149250566154
 20
587.9779620436724
 30
0.0
 10
-84.38792832635723
 20
587.9009521940897
 30
0.0
 10
-84.20239069066554
 20
587.745528708062
 30
0.0
 10
-84.09222576970588
 20
587.6685789911438
 30
0.0
 10
-83.84961401301655
 20
587.5131490118946
 30
0.0
 10
-83.71936460219348
 20
587.4360659033218
 30
0.0
 10
-83.58717919893854
 20
587.3578644957568
 30
0.0
  0
SPLINE
  5
B3
330
1F
100
AcDbEntity
  8
0
  6
Continuous
 62
     7
370
    25
100
AcDbSpline
210
0.0
220
0.0
230
1.0
 70
     8
 71
     3
 72
    14
 73
    10
 74
     0
 42
0.000000001
 43
0.00000001
 40
0.0
 40
0.0
 40
0.0
 40
0.0
 40
0.25
 40
0.25
 40
0.5
 40
0.5
 40
0.75
 40
0.75
 40
1.0
 40
1.0
 40
1.0
 40
1.0
 10
-83.58717919893854
 20
-3.842135504243227
 30
0.0
 10
-83.71936461479746
 20
-3.920336919264911
 30
0.0
 10
-83.8473466333311
 20
-3.996046866561964
 30
0.0
 10
-84.08997065827828
 20
-4.151327278208772
 30
0.0
 10
-84.20041292268809
 20
-4.228337127791637
 30
0.0
 10
-84.38640981988144
 20
-4.383760613819343
 30
0.0
 10
-84.46021079872001
 20
-4.460710330737639
 30
0.0
 10
-84.56102938311516
 20
-4.616140309986694
 30
0.0
 10
-84.5871791989386
 20
-4.693223418559544
 30
0.0
 10
-84.58717919893854
 20
-4.771424826124527
 30
0.0
  0
LINE
  5
B4
330
1F
100
AcDbEntity
  8
0
  6
Continuous
 62
     7
370
    25
100
AcDbLine
 10
-85.9871791989
 20
-4.7714248261
 30
0.0
 11
-84.5871791989
 21
-4.7714248261
 31
0.0
  0
LINE
  5
B5
330
1F
100
AcDbEntity
  8
0
  6
Continuous
 62
     7
370
    25
100
AcDbLine
 10
-84.5164685208
 20
-6.2421355042
 30
0.0
 11
-84.5164685208
 21
-4.8421355042
 31
0.0
  0
SPLINE
  5
B6
330
1F
100
AcDbEntity
  8
0
  6
Continuous
 62
     7
370
    25
100
AcDbSpline
210
0.0
220
0.0
230
1.0
 70
     8
 71
     3
 72
    14
 73
    10
 74
     0
 42
0.000000001
 43
0.00000001
 40
0.0
 40
0.0
 40
0.0
 40
0.0
 40
0.25
 40
0.25
 40
0.5
 40
0.5
 40
0.75
 40
0.75
 40
1.0
 40
1.0
 40
1.0
 40
1.0
 10
-84.51646852081984
 20
-4.842135504243061
 30
0.0
 10
-84.4382671057981
 20
-4.842135504243061
 30
0.0
 10
-84.36255715850116
 20
-4.816576839562825
 30
0.0
 10
-84.2072767468543
 20
-4.716448810966001
 30
0.0
 10
-84.13026689727138
 20
-4.642884631661682
 30
0.0
 10
-83.9748434112439
 20
-4.45734699596978
 30
0.0
 10
-83.89789369432555
 20
-4.347182075010503
 30
0.0
 10
-83.74246371507633
 20
-4.104570318321066
 30
0.0
 10
-83.66538060650369
 20
-3.974320907498163
 30
0.0
 10
-83.5871791989386
 20
-3.842135504243172
 30
0.0
  0
LINE
  5
B7
330
1F
100
AcDbEntity
  8
0
  6
Continuous
 62
     7
370
    25
100
AcDbLine
 10
907.5421101229
 20
589.7578644958
 30
0.0
 11
907.5421101229
 21
588.3578644958
 31
0.0
  0
SPLINE
  5
B8
330
1F
100
AcDbEntity
  8
0
  6
Continuous
 62
     7
370
    25
100
AcDbSpline
210
0.0
220
0.0
230
1.0
 70
     8
 71
     3
 72
    14
 73
    10
 74
     0
 42
0.000000001
 43
0.00000001
 40
0.0
 40
0.0
 40
0.0
 40
0.0
 40
0.25
 40
0.25
 40
0.5
 40
0.5
 40
0.75
 40
0.75
 40
1.0
 40
1.0
 40
1.0
 40
1.0
 10
907.5421101229429
 20
588.3578644957568
 30
0.0
 10
907.4639087079212
 20
588.3578644957568
 30
0.0
 10
907.3881987606243
 20
588.3323058310765
 30
0.0
 10
907.2329183489771
 20
588.2321778024796
 30
0.0
 10
907.1559084993943
 20
588.1586136231756
 30
0.0
 10
907.0004850133669
 20
587.9730759874839
 30
0.0
 10
906.9235352964484
 20
587.8629110665241
 30
0.0
 10
906.7681053171992
 20
587.6202993098348
 30
0.0
 10
906.6910222086265
 20
587.4900498990119
 30
0.0
 10
906.6128208010614
 20
587.3578644957569
 30
0.0
  0
ARC
  5
B9
330
1F
100
AcDbEntity
  8
0
  6
Continuous
 62
     7
370
    25
100
AcDbCircle
 10
-27.8071692973
 20
542.8148006106
 30
0.0
 40
0.5050994627334822
100
AcDbArc
 50
298.8005827702
 51
112.9304972368
  0
ARC
  5
BA
330
1F
100
AcDbEntity
  8
0
  6
Continuous
 62
     7
370
    25
100
AcDbCircle
 10
-29.9871791989
 20
541.7578644958
 30
0.0
 40
2.499999999999946
100
AcDbArc
 50
37.506301084
 51
74.2247789229
  0
ARC
  5
BB
330
1F
100
AcDbEntity
  8
0
  6
Continuous
 62
     7
370
    25
100
AcDbCircle
 10
-29.8125077738
 20
544.1742765084
 30
0.0
 40
0.5050994627349554
100
AcDbArc
 50
358.800582771
 51
172.930497236
  0
ARC
  5
BC
330
1F
100
AcDbEntity
  8
0
  6
Continuous
 62
     7
370
    25
100
AcDbCircle
 10
-29.9871791989
 20
541.7578644958
 30
0.0
 40
2.499999999999938
100
AcDbArc
 50
97.5063010841
 51
134.2247789229
  0
ARC
  5
BD
330
1F
100
AcDbEntity
  8
0
  6
Continuous
 62
     7
370
    25
100
AcDbCircle
 10
-31.9925176753
 20
543.1173403936
 30
0.0
 40
0.5050994627351607
100
AcDbArc
 50
58.8005827697
 51
232.9304972372
  0
ARC
  5
BE
330
1F
100
AcDbEntity
  8
0
  6
Continuous
 62
     7
370
    25
100
AcDbCircle
 10
-29.9871791989
 20
541.7578644958
 30
0.0
 40
2.499999999999952
100
AcDbArc
 50
157.5063010841
 51
194.2247789229
  0
ARC
  5
BF
330
1F
100
AcDbEntity
  8
0
  6
Continuous
 62
     7
370
    25
100
AcDbCircle
 10
-32.1671891005
 20
540.7009283809
 30
0.0
 40
0.5050994627332339
100
AcDbArc
 50
118.8005827707
 51
292.9304972361
  0
ARC
  5
C0
330
1F
100
AcDbEntity
  8
0
  6
Continuous
 62
     7
370
    25
100
AcDbCircle
 10
-29.9871791989
 20
541.7578644958
 30
0.0
 40
2.500000000000006
100
AcDbArc
 50
217.506301084
 51
254.2247789229
  0
ARC
  5
C1
330
1F
100
AcDbEntity
  8
0
  6
Continuous
 62
     7
370
    25
100
AcDbCircle
 10
-30.1618506241
 20
539.3414524831
 30
0.0
 40
0.5050994627366148
100
AcDbArc
 50
178.8005827716
 51
352.9304972354
  0
ARC
  5
C2
330
1F
100
AcDbEntity
  8
0
  6
Continuous
 62
     7
370
    25
100
AcDbCircle
 10
-29.9871791989
 20
541.7578644958
 30
0.0
 40
2.500000000000054
100
AcDbArc
 50
277.5063010841
 51
314.2247789229
  0
ARC
  5
C3
330
1F
100
AcDbEntity
  8
0
  6
Continuous
 62
     7
370
    25
100
AcDbCircle
 10
-27.9818407225
 20
540.3983885979
 30
0.0
 40
0.5050994627354738
100
AcDbArc
 50
238.8005827701
 51
52.9304972368
  0
ARC
  5
C4
330
1F
100
AcDbEntity
  8
0
  6
Continuous
 62
     7
370
    25
100
AcDbCircle
 10
-29.9871791989
 20
541.7578644958
 30
0.0
 40
2.499999999999961
100
AcDbArc
 50
337.5063010841
 51
14.2247789229
  0
CIRCLE
  5
C5
330
1F
100
AcDbEntity
  8
0
  6
Continuous
 62
     7
370
    25
100
AcDbCircle
 10
-29.9871791989
 20
541.7578644958
 30
0.0
 40
5.50000000000025
  0
CIRCLE
  5
C6
330
1F
100
AcDbEntity
  8
0
  6
Continuous
 62
     7
370
    25
100
AcDbCircle
 10
853.0128208011
 20
541.7578644958
 30
0.0
 40
5.50000000000018
  0
ARC
  5
C7
330
1F
100
AcDbEntity
  8
0
  6
Continuous
 62
     7
370
    25
100
AcDbCircle
 10
850.8985437366
 20
540.5749065014
 30
0.0
 40
0.5050994627352405
100
AcDbArc
 50
122.1624680624
 51
296.2923825299
  0
ARC
  5
C8
330
1F
100
AcDbEntity
  8
0
  6
Continuous
 62
     7
370
    25
100
AcDbCircle
 10
853.0128208011
 20
541.7578644958
 30
0.0
 40
2.499999999999875
100
AcDbArc
 50
220.8681863768
 51
257.5866642156
  0
ARC
  5
C9
330
1F
100
AcDbEntity
  8
0
  6
Continuous
 62
     7
370
    25
100
AcDbCircle
 10
852.9801539436
 20
539.3353678501
 30
0.0
 40
0.5050994627332728
100
AcDbArc
 50
182.1624680634
 51
356.2923825288
  0
ARC
  5
CA
330
1F
100
AcDbEntity
  8
0
  6
Continuous
 62
     7
370
    25
100
AcDbCircle
 10
853.0128208011
 20
541.7578644958
 30
0.0
 40
2.500000000000013
100
AcDbArc
 50
280.8681863767
 51
317.5866642156
  0
ARC
  5
CB
330
1F
100
AcDbEntity
  8
0
  6
Continuous
 62
     7
370
    25
100
AcDbCircle
 10
855.094431008
 20
540.5183258445
 30
0.0
 40
0.5050994627365469
100
AcDbArc
 50
242.1624680643
 51
56.2923825281
  0
ARC
  5
CC
330
1F
100
AcDbEntity
  8
0
  6
Continuous
 62
     7
370
    25
100
AcDbCircle
 10
853.0128208011
 20
541.7578644958
 30
0.0
 40
2.499999999999982
100
AcDbArc
 50
340.8681863768
 51
17.5866642156
  0
ARC
  5
CD
330
1F
100
AcDbEntity
  8
0
  6
Continuous
 62
     7
370
    25
100
AcDbCircle
 10
853.0128208011
 20
541.7578644958
 30
0.0
 40
2.500000000000012
100
AcDbArc
 50
40.8681863768
 51
77.5866642156
  0
ARC
  5
CE
330
1F
100
AcDbEntity
  8
0
  6
Continuous
 62
     7
370
    25
100
AcDbCircle
 10
855.1270978655
 20
542.9408224901
 30
0.0
 40
0.5050994627355608
100
AcDbArc
 50
302.1624680628
 51
116.2923825295
  0
ARC
  5
CF
330
1F
100
AcDbEntity
  8
0
  6
Continuous
 62
     7
370
    25
100
AcDbCircle
 10
853.0128208011
 20
541.7578644958
 30
0.0
 40
2.500000000000102
100
AcDbArc
 50
100.8681863767
 51
137.5866642156
  0
ARC
  5
D0
330
1F
100
AcDbEntity
  8
0
  6
Continuous
 62
     7
370
    25
100
AcDbCircle
 10
850.9312105941
 20
542.997403147
 30
0.0
 40
0.5050994627350847
100
AcDbArc
 50
62.1624680637
 51
236.2923825287
  0
ARC
  5
D1
330
1F
100
AcDbEntity
  8
0
  6
Continuous
 62
     7
370
    25
100
AcDbCircle
 10
853.0128208011
 20
541.7578644958
 30
0.0
 40
2.499999999999959
100
AcDbArc
 50
160.8681863768
 51
197.5866642156
  0
ARC
  5
D2
330
1F
100
AcDbEntity
  8
0
  6
Continuous
 62
     7
370
    25
100
AcDbCircle
 10
853.0454876586
 20
544.1803611414
 30
0.0
 40
0.5050994627335914
100
AcDbArc
 50
2.1624680628
 51
176.2923825295
  0
CIRCLE
  5
D3
330
1F
100
AcDbEntity
  8
0
  6
Continuous
 62
     7
370
    25
100
AcDbCircle
 10
853.0128208011
 20
291.7578644958
 30
0.0
 40
5.500000000000069
  0
ARC
  5
D4
330
1F
100
AcDbEntity
  8
0
  6
Continuous
 62
     7
370
    25
100
AcDbCircle
 10
854.9540513956
 20
290.308319429
 30
0.0
 40
0.5050994627352124
100
AcDbArc
 50
236.1858115763
 51
50.3157260438
  0
ARC
  5
D5
330
1F
100
AcDbEntity
  8
0
  6
Continuous
 62
     7
370
    25
100
AcDbCircle
 10
853.0128208011
 20
291.7578644958
 30
0.0
 40
2.499999999999993
100
AcDbArc
 50
334.8915298906
 51
11.6100077295
  0
ARC
  5
D6
330
1F
100
AcDbEntity
  8
0
  6
Continuous
 62
     7
370
    25
100
AcDbCircle
 10
855.2387789501
 20
292.7142469718
 30
0.0
 40
0.5050994627332216
100
AcDbArc
 50
296.1858115773
 51
110.3157260427
  0
ARC
  5
D7
330
1F
100
AcDbEntity
  8
0
  6
Continuous
 62
     7
370
    25
100
AcDbCircle
 10
853.0128208011
 20
291.7578644958
 30
0.0
 40
2.499999999999994
100
AcDbArc
 50
274.8915298907
 51
311.6100077294
  0
ARC
  5
D8
330
1F
100
AcDbEntity
  8
0
  6
Continuous
 62
     7
370
    25
100
AcDbCircle
 10
853.2975483556
 20
294.1637920386
 30
0.0
 40
0.5050994627366275
100
AcDbArc
 50
356.1858115782
 51
170.315726042
  0
ARC
  5
D9
330
1F
100
AcDbEntity
  8
0
  6
Continuous
 62
     7
370
    25
100
AcDbCircle
 10
850.786862652
 20
290.8014820197
 30
0.0
 40
0.5050994627335128
100
AcDbArc
 50
116.1858115767
 51
290.3157260434
  0
ARC
  5
DA
330
1F
100
AcDbEntity
  8
0
  6
Continuous
 62
     7
370
    25
100
AcDbCircle
 10
851.0715902065
 20
293.2074095626
 30
0.0
 40
0.505099462735553
100
AcDbArc
 50
56.1858115767
 51
230.3157260434
  0
ARC
  5
DB
330
1F
100
AcDbEntity
  8
0
  6
Continuous
 62
     7
370
    25
100
AcDbCircle
 10
853.0128208011
 20
291.7578644958
 30
0.0
 40
2.499999999999897
100
AcDbArc
 50
154.8915298906
 51
191.6100077295
  0
ARC
  5
DC
330
1F
100
AcDbEntity
  8
0
  6
Continuous
 62
     7
370
    25
100
AcDbCircle
 10
853.0128208011
 20
291.7578644958
 30
0.0
 40
2.500000000000096
100
AcDbArc
 50
34.8915298906
 51
71.6100077295
  0
ARC
  5
DD
330
1F
100
AcDbEntity
  8
0
  6
Continuous
 62
     7
370
    25
100
AcDbCircle
 10
853.0128208011
 20
291.7578644958
 30
0.0
 40
2.499999999999927
100
AcDbArc
 50
214.8915298906
 51
251.6100077295
  0
ARC
  5
DE
330
1F
100
AcDbEntity
  8
0
  6
Continuous
 62
     7
370
    25
100
AcDbCircle
 10
852.7280932466
 20
289.3519369529
 30
0.0
 40
0.5050994627349271
100
AcDbArc
 50
176.1858115776
 51
350.3157260426
  0
ARC
  5
DF
330
1F
100
AcDbEntity
  8
0
  6
Continuous
 62
     7
370
    25
100
AcDbCircle
 10
853.0128208011
 20
291.7578644958
 30
0.0
 40
2.499999999999971
100
AcDbArc
 50
94.8915298907
 51
131.6100077294
  0
CIRCLE
  5
E0
330
1F
100
AcDbEntity
  8
0
  6
Continuous
 62
     7
370
    25
100
AcDbCircle
 10
-29.9871791989
 20
291.7578644958
 30
0.0
 40
5.50000000000006
  0
ARC
  5
E1
330
1F
100
AcDbEntity
  8
0
  6
Continuous
 62
     7
370
    25
100
AcDbCircle
 10
-27.8071692973
 20
292.8148006106
 30
0.0
 40
0.5050994627335346
100
AcDbArc
 50
298.8005827702
 51
112.9304972368
  0
ARC
  5
E2
330
1F
100
AcDbEntity
  8
0
  6
Continuous
 62
     7
370
    25
100
AcDbCircle
 10
-29.9871791989
 20
291.7578644958
 30
0.0
 40
2.499999999999948
100
AcDbArc
 50
37.506301084
 51
74.2247789229
  0
ARC
  5
E3
330
1F
100
AcDbEntity
  8
0
  6
Continuous
 62
     7
370
    25
100
AcDbCircle
 10
-29.8125077738
 20
294.1742765084
 30
0.0
 40
0.5050994627349565
100
AcDbArc
 50
358.800582771
 51
172.930497236
  0
ARC
  5
E4
330
1F
100
AcDbEntity
  8
0
  6
Continuous
 62
     7
370
    25
100
AcDbCircle
 10
-29.9871791989
 20
291.7578644958
 30
0.0
 40
2.499999999999945
100
AcDbArc
 50
97.5063010841
 51
134.2247789229
  0
ARC
  5
E5
330
1F
100
AcDbEntity
  8
0
  6
Continuous
 62
     7
370
    25
100
AcDbCircle
 10
-31.9925176753
 20
293.1173403936
 30
0.0
 40
0.5050994627351938
100
AcDbArc
 50
58.8005827697
 51
232.9304972372
  0
ARC
  5
E6
330
1F
100
AcDbEntity
  8
0
  6
Continuous
 62
     7
370
    25
100
AcDbCircle
 10
-29.9871791989
 20
291.7578644958
 30
0.0
 40
2.499999999999952
100
AcDbArc
 50
157.5063010841
 51
194.2247789229
  0
ARC
  5
E7
330
1F
100
AcDbEntity
  8
0
  6
Continuous
 62
     7
370
    25
100
AcDbCircle
 10
-32.1671891005
 20
290.7009283809
 30
0.0
 40
0.5050994627332838
100
AcDbArc
 50
118.8005827707
 51
292.9304972361
  0
ARC
  5
E8
330
1F
100
AcDbEntity
  8
0
  6
Continuous
 62
     7
370
    25
100
AcDbCircle
 10
-29.9871791989
 20
291.7578644958
 30
0.0
 40
2.499999999999979
100
AcDbArc
 50
217.506301084
 51
254.2247789229
  0
ARC
  5
E9
330
1F
100
AcDbEntity
  8
0
  6
Continuous
 62
     7
370
    25
100
AcDbCircle
 10
-30.1618506241
 20
289.3414524831
 30
0.0
 40
0.5050994627366148
100
AcDbArc
 50
178.8005827716
 51
352.9304972354
  0
ARC
  5
EA
330
1F
100
AcDbEntity
  8
0
  6
Continuous
 62
     7
370
    25
100
AcDbCircle
 10
-29.9871791989
 20
291.7578644958
 30
0.0
 40
2.499999999999984
100
AcDbArc
 50
277.5063010841
 51
314.2247789229
  0
ARC
  5
EB
330
1F
100
AcDbEntity
  8
0
  6
Continuous
 62
     7
370
    25
100
AcDbCircle
 10
-27.9818407225
 20
290.3983885979
 30
0.0
 40
0.5050994627355224
100
AcDbArc
 50
238.8005827701
 51
52.9304972368
  0
ARC
  5
EC
330
1F
100
AcDbEntity
  8
0
  6
Continuous
 62
     7
370
    25
100
AcDbCircle
 10
-29.9871791989
 20
291.7578644958
 30
0.0
 40
2.499999999999964
100
AcDbArc
 50
337.5063010841
 51
14.2247789229
  0
CIRCLE
  5
ED
330
1F
100
AcDbEntity
  8
0
  6
Continuous
 62
     7
370
    25
100
AcDbCircle
 10
-29.9871791989
 20
41.7578644958
 30
0.0
 40
5.50000000000013
  0
ARC
  5
EE
330
1F
100
AcDbEntity
  8
0
  6
Continuous
 62
     7
370
    25
100
AcDbCircle
 10
-32.322492694
 20
41.1129862114
 30
0.0
 40
0.505099462733484
100
AcDbArc
 50
108.3721109518
 51
282.5020254184
  0
ARC
  5
EF
330
1F
100
AcDbEntity
  8
0
  6
Continuous
 62
     7
370
    25
100
AcDbCircle
 10
-29.9871791989
 20
41.7578644958
 30
0.0
 40
2.499999999999971
100
AcDbArc
 50
207.0778292656
 51
243.7963071045
  0
ARC
  5
F0
330
1F
100
AcDbEntity
  8
0
  6
Continuous
 62
     7
370
    25
100
AcDbCircle
 10
-30.5963549699
 20
39.4129845411
 30
0.0
 40
0.5050994627349545
100
AcDbArc
 50
168.3721109526
 51
342.5020254176
  0
ARC
  5
F1
330
1F
100
AcDbEntity
  8
0
  6
Continuous
 62
     7
370
    25
100
AcDbCircle
 10
-29.9871791989
 20
41.7578644958
 30
0.0
 40
2.499999999999945
100
AcDbArc
 50
267.0778292657
 51
303.7963071045
  0
ARC
  5
F2
330
1F
100
AcDbEntity
  8
0
  6
Continuous
 62
     7
370
    25
100
AcDbCircle
 10
-28.2610414748
 20
40.0578628254
 30
0.0
 40
0.5050994627351387
100
AcDbArc
 50
228.3721109513
 51
42.5020254188
  0
ARC
  5
F3
330
1F
100
AcDbEntity
  8
0
  6
Continuous
 62
     7
370
    25
100
AcDbCircle
 10
-29.9871791989
 20
41.7578644958
 30
0.0
 40
2.499999999999933
100
AcDbArc
 50
327.0778292657
 51
3.7963071045
  0
ARC
  5
F4
330
1F
100
AcDbEntity
  8
0
  6
Continuous
 62
     7
370
    25
100
AcDbCircle
 10
-27.6518657039
 20
42.4027427801
 30
0.0
 40
0.505099462733277
100
AcDbArc
 50
288.3721109524
 51
102.5020254178
  0
ARC
  5
F5
330
1F
100
AcDbEntity
  8
0
  6
Continuous
 62
     7
370
    25
100
AcDbCircle
 10
-29.9871791989
 20
41.7578644958
 30
0.0
 40
2.499999999999949
100
AcDbArc
 50
27.0778292656
 51
63.7963071045
  0
ARC
  5
F6
330
1F
100
AcDbEntity
  8
0
  6
Continuous
 62
     7
370
    25
100
AcDbCircle
 10
-29.378003428
 20
44.1027444504
 30
0.0
 40
0.5050994627365849
100
AcDbArc
 50
348.3721109532
 51
162.5020254171
  0
ARC
  5
F7
330
1F
100
AcDbEntity
  8
0
  6
Continuous
 62
     7
370
    25
100
AcDbCircle
 10
-29.9871791989
 20
41.7578644958
 30
0.0
 40
2.499999999999946
100
AcDbArc
 50
87.0778292658
 51
123.7963071045
  0
ARC
  5
F8
330
1F
100
AcDbEntity
  8
0
  6
Continuous
 62
     7
370
    25
100
AcDbCircle
 10
-31.7133169231
 20
43.4578661661
 30
0.0
 40
0.5050994627355383
100
AcDbArc
 50
48.3721109517
 51
222.5020254184
  0
ARC
  5
F9
330
1F
100
AcDbEntity
  8
0
  6
Continuous
 62
     7
370
    25
100
AcDbCircle
 10
-29.9871791989
 20
41.7578644958
 30
0.0
 40
2.499999999999981
100
AcDbArc
 50
147.0778292657
 51
183.7963071045
  0
CIRCLE
  5
FA
330
1F
100
AcDbEntity
  8
0
  6
Continuous
 62
     7
370
    25
100
AcDbCircle
 10
853.0128208011
 20
41.7578644958
 30
0.0
 40
5.500000000000122
  0
ARC
  5
FB
330
1F
100
AcDbEntity
  8
0
  6
Continuous
 62
     7
370
    25
100
AcDbCircle
 10
853.576478183
 20
39.4016286252
 30
0.0
 40
0.5050994627336071
100
AcDbArc
 50
196.3884805024
 51
10.518394969
  0
ARC
  5
FC
330
1F
100
AcDbEntity
  8
0
  6
Continuous
 62
     7
370
    25
100
AcDbCircle
 10
853.0128208011
 20
41.7578644958
 30
0.0
 40
2.499999999999992
100
AcDbArc
 50
295.0941988163
 51
331.8126766552
  0
ARC
  5
FD
330
1F
100
AcDbEntity
  8
0
  6
Continuous
 62
     7
370
    25
100
AcDbCircle
 10
854.7715522313
 20
43.4241240428
 30
0.0
 40
0.5050994627353161
100
AcDbArc
 50
316.3884805019
 51
130.5183949695
  0
ARC
  5
FE
330
1F
100
AcDbEntity
  8
0
  6
Continuous
 62
     7
370
    25
100
AcDbCircle
 10
853.0128208011
 20
41.7578644958
 30
0.0
 40
2.499999999999975
100
AcDbArc
 50
55.0941988163
 51
91.8126766551
  0
ARC
  5
FF
330
1F
100
AcDbEntity
  8
0
  6
Continuous
 62
     7
370
    25
100
AcDbCircle
 10
852.4491634192
 20
44.1141003663
 30
0.0
 40
0.5050994627332945
100
AcDbArc
 50
16.388480503
 51
190.5183949684
  0
ARC
  5
100
330
1F
100
AcDbEntity
  8
0
  6
Continuous
 62
     7
370
    25
100
AcDbCircle
 10
853.0128208011
 20
41.7578644958
 30
0.0
 40
2.499999999999998
100
AcDbArc
 50
175.0941988164
 51
211.8126766551
  0
ARC
  5
101
330
1F
100
AcDbEntity
  8
0
  6
Continuous
 62
     7
370
    25
100
AcDbCircle
 10
853.0128208011
 20
41.7578644958
 30
0.0
 40
2.49999999999997
100
AcDbArc
 50
115.0941988162
 51
151.8126766551
  0
ARC
  5
102
330
1F
100
AcDbEntity
  8
0
  6
Continuous
 62
     7
370
    25
100
AcDbCircle
 10
850.6904319889
 20
42.4478408193
 30
0.0
 40
0.5050994627366185
100
AcDbArc
 50
76.3884805039
 51
250.5183949677
  0
ARC
  5
103
330
1F
100
AcDbEntity
  8
0
  6
Continuous
 62
     7
370
    25
100
AcDbCircle
 10
855.3352096132
 20
41.0678881722
 30
0.0
 40
0.5050994627349902
100
AcDbArc
 50
256.3884805032
 51
70.5183949683
  0
ARC
  5
104
330
1F
100
AcDbEntity
  8
0
  6
Continuous
 62
     7
370
    25
100
AcDbCircle
 10
851.2540893708
 20
40.0916049487
 30
0.0
 40
0.5050994627355417
100
AcDbArc
 50
136.3884805023
 51
310.5183949691
  0
ARC
  5
105
330
1F
100
AcDbEntity
  8
0
  6
Continuous
 62
     7
370
    25
100
AcDbCircle
 10
853.0128208011
 20
41.7578644958
 30
0.0
 40
2.499999999999994
100
AcDbArc
 50
355.0941988163
 51
31.8126766551
  0
ARC
  5
106
330
1F
100
AcDbEntity
  8
0
  6
Continuous
 62
     7
370
    25
100
AcDbCircle
 10
853.0128208011
 20
41.7578644958
 30
0.0
 40
2.49999999999994
100
AcDbArc
 50
235.0941988163
 51
271.8126766551
  0
LINE
  5
107
330
1F
100
AcDbEntity
  8
0
  6
Continuous
 62
     7
370
    25
100
AcDbLine
 10
-41.4871791989
 20
624.2578644958
 30
0.0
 11
-40.6871791989
 21
624.2578644958
 31
0.0
  0
LINE
  5
108
330
1F
100
AcDbEntity
  8
0
  6
Continuous
 62
     7
370
    25
100
AcDbLine
 10
-40.6871791989
 20
624.2578644958
 30
0.0
 11
-40.6871791989
 21
621.2578644958
 31
0.0
  0
LINE
  5
109
330
1F
100
AcDbEntity
  8
0
  6
Continuous
 62
     7
370
    25
100
AcDbLine
 10
-41.4871791989
 20
621.2578644958
 30
0.0
 11
-41.4871791989
 21
624.2578644958
 31
0.0
  0
LINE
  5
10A
330
1F
100
AcDbEntity
  8
0
  6
Continuous
 62
     7
370
    25
100
AcDbLine
 10
-41.4871791989
 20
604.2578644958
 30
0.0
 11
-40.6871791989
 21
604.2578644958
 31
0.0
  0
LINE
  5
10B
330
1F
100
AcDbEntity
  8
0
  6
Continuous
 62
     7
370
    25
100
AcDbLine
 10
-41.4871791989
 20
604.2578644958
 30
0.0
 11
-41.4871791989
 21
621.2578644958
 31
0.0
  0
LINE
  5
10C
330
1F
100
AcDbEntity
  8
0
  6
Continuous
 62
     7
370
    25
100
AcDbLine
 10
-40.6871791989
 20
604.2578644958
 30
0.0
 11
-40.6871791989
 21
621.2578644958
 31
0.0
  0
LINE
  5
10D
330
1F
100
AcDbEntity
  8
0
  6
Continuous
 62
     7
370
    25
100
AcDbLine
 10
863.7128208011
 20
621.2578644958
 30
0.0
 11
863.7128208011
 21
624.2578644958
 31
0.0
  0
LINE
  5
10E
330
1F
100
AcDbEntity
  8
0
  6
Continuous
 62
     7
370
    25
100
AcDbLine
 10
863.7128208011
 20
624.2578644958
 30
0.0
 11
864.5128208011
 21
624.2578644958
 31
0.0
  0
LINE
  5
10F
330
1F
100
AcDbEntity
  8
0
  6
Continuous
 62
     7
370
    25
100
AcDbLine
 10
864.5128208011
 20
624.2578644958
 30
0.0
 11
864.5128208011
 21
621.2578644958
 31
0.0
  0
LINE
  5
110
330
1F
100
AcDbEntity
  8
0
  6
Continuous
 62
     7
370
    25
100
AcDbLine
 10
864.5128208011
 20
604.2578644958
 30
0.0
 11
863.7128208011
 21
604.2578644958
 31
0.0
  0
LINE
  5
111
330
1F
100
AcDbEntity
  8
0
  6
Continuous
 62
     7
370
    25
100
AcDbLine
 10
863.7128208011
 20
621.2578644958
 30
0.0
 11
863.7128208011
 21
604.2578644958
 31
0.0
  0
LINE
  5
112
330
1F
100
AcDbEntity
  8
0
  6
Continuous
 62
     7
370
    25
100
AcDbLine
 10
864.5128208011
 20
621.2578644958
 30
0.0
 11
864.5128208011
 21
604.2578644958
 31
0.0
  0
LINE
  5
113
330
1F
100
AcDbEntity
  8
0
  6
Continuous
 62
     7
370
    25
100
AcDbLine
 10
-41.4871791989
 20
589.7578644958
 30
0.0
 11
-41.4871791989
 21
604.2578644958
 31
0.0
  0
LINE
  5
114
330
1F
100
AcDbEntity
  8
0
  6
Continuous
 62
     7
370
    25
100
AcDbLine
 10
-40.6871791989
 20
589.7578644958
 30
0.0
 11
-40.6871791989
 21
601.0578644958
 31
0.0
  0
LINE
  5
115
330
1F
100
AcDbEntity
  8
0
  6
Continuous
 62
     7
370
    25
100
AcDbLine
 10
-40.6871791989
 20
602.7578644958
 30
0.0
 11
-40.6871791989
 21
604.2578644958
 31
0.0
  0
LINE
  5
116
330
1F
100
AcDbEntity
  8
0
  6
Continuous
 62
     7
370
    25
100
AcDbLine
 10
863.7128208011
 20
604.2578644958
 30
0.0
 11
863.7128208011
 21
602.7578644958
 31
0.0
  0
LINE
  5
117
330
1F
100
AcDbEntity
  8
0
  6
Continuous
 62
     7
370
    25
100
AcDbLine
 10
863.7128208011
 20
601.0578644958
 30
0.0
 11
863.7128208011
 21
589.7578644958
 31
0.0
  0
LINE
  5
118
330
1F
100
AcDbEntity
  8
0
  6
Continuous
 62
     7
370
    25
100
AcDbLine
 10
864.5128208011
 20
604.2578644958
 30
0.0
 11
864.5128208011
 21
589.7578644958
 31
0.0
  0
LINE
  5
119
330
1F
100
AcDbEntity
  8
0
  6
Continuous
 62
     7
370
    25
100
AcDbLine
 10
873.1715708011
 20
589.7578644958
 30
0.0
 11
873.1715708011
 21
595.7578644958
 31
0.0
  0
LINE
  5
11A
330
1F
100
AcDbEntity
  8
0
  6
Continuous
 62
     7
370
    25
100
AcDbLine
 10
873.7128208011
 20
590.8734715801
 30
0.0
 11
873.7128208011
 21
595.2166144958
 31
0.0
  0
LINE
  5
11B
330
1F
100
AcDbEntity
  8
0
  6
Continuous
 62
     7
370
    25
100
AcDbLine
 10
873.7128208011
 20
590.2991144957
 30
0.0
 11
873.7128208011
 21
590.8734715801
 31
0.0
  0
LINE
  5
11C
330
1F
100
AcDbEntity
  8
0
  6
Continuous
 62
     7
370
    25
100
AcDbLine
 10
-40.9081094315
 20
602.7578644958
 30
0.0
 11
863.9337510336
 21
602.7578644958
 31
0.0
  0
LINE
  5
11D
330
1F
100
AcDbEntity
  8
0
  6
Continuous
 62
     7
370
    25
100
AcDbLine
 10
-40.9081094315
 20
601.0578644958
 30
0.0
 11
863.9337510336
 21
601.0578644958
 31
0.0
  0
ELLIPSE
  5
11E
330
1F
100
AcDbEntity
  8
0
  6
Continuous
 62
     7
370
    25
100
AcDbEllipse
 10
863.9337510336
 20
601.9078644958
 30
0.0
 11
0.0
 21
0.8500000000000227
 31
0.0
210
0.0
220
0.0
230
1.0
 40
0.0930232558
 41
3.141592653589792
 42
6.283185307179586
  0
ELLIPSE
  5
11F
330
1F
100
AcDbEntity
  8
0
  6
Continuous
 62
     7
370
    25
100
AcDbEllipse
 10
-40.9081094315
 20
601.9078644958
 30
0.0
 11
0.0
 21
0.8500000000000227
 31
0.0
210
0.0
220
0.0
230
1.0
 40
0.0930232558
 41
0.0
 42
3.14159265359066
  0
LINE
  5
120
330
1F
100
AcDbEntity
  8
0
  6
Continuous
 62
     7
370
    25
100
AcDbLine
 10
-39.9871791989
 20
601.0578644958
 30
0.0
 11
-39.9871791989
 21
600.9578644958
 31
0.0
  0
LINE
  5
121
330
1F
100
AcDbEntity
  8
0
  6
Continuous
 62
     7
370
    25
100
AcDbLine
 10
863.0128208011
 20
600.9578644958
 30
0.0
 11
863.0128208011
 21
601.0578644958
 31
0.0
  0
LINE
  5
122
330
1F
100
AcDbEntity
  8
0
  6
Continuous
 62
     7
370
    25
100
AcDbLine
 10
-39.9871791989
 20
600.9578644958
 30
0.0
 11
-39.9871791989
 21
589.7578644958
 31
0.0
  0
LINE
  5
123
330
1F
100
AcDbEntity
  8
0
  6
Continuous
 62
     7
370
    25
100
AcDbLine
 10
863.0128208011
 20
589.7578644958
 30
0.0
 11
863.0128208011
 21
600.9578644958
 31
0.0
  0
LINE
  5
124
330
1F
100
AcDbEntity
  8
0
  6
Continuous
 62
     7
370
    25
100
AcDbLine
 10
-50.6871791989
 20
595.2166144958
 30
0.0
 11
-50.6871791989
 21
590.2991144957
 31
0.0
  0
LINE
  5
125
330
1F
100
AcDbEntity
  8
0
  6
Continuous
 62
     7
370
    25
100
AcDbLine
 10
-50.1459291989
 20
594.054230342
 30
0.0
 11
-50.1459291989
 21
589.7578644958
 31
0.0
  0
LINE
  5
126
330
1F
100
AcDbEntity
  8
0
  6
Continuous
 62
     7
370
    25
100
AcDbLine
 10
-50.1459291989
 20
595.7578644958
 30
0.0
 11
-50.1459291989
 21
594.054230342
 31
0.0
  0
ARC
  5
127
330
1F
100
AcDbEntity
  8
0
  6
Continuous
 62
     7
370
    25
100
AcDbCircle
 10
852.838287116
 20
594.3340785064
 30
0.0
 40
12.03669752926025
100
AcDbArc
 50
186.2565722693
 51
191.9710500657
  0
LINE
  5
128
330
1F
100
AcDbEntity
  8
0
  6
Continuous
 62
     7
370
    25
100
AcDbLine
 10
841.0633573322
 20
591.8374575907
 30
0.0
 11
842.5154330561
 21
592.0704014559
 31
0.0
  0
LINE
  5
129
330
1F
100
AcDbEntity
  8
0
  6
Continuous
 62
     7
370
    25
100
AcDbLine
 10
842.5154330561
 20
592.0704014559
 30
0.0
 11
842.7483769213
 21
590.618325732
 31
0.0
  0
ARC
  5
12A
330
1F
100
AcDbEntity
  8
0
  6
Continuous
 62
     7
370
    25
100
AcDbCircle
 10
841.4366067904
 20
602.5833308108
 30
0.0
 40
12.03669752929883
100
AcDbArc
 50
276.2565722693
 51
281.9710500657
  0
LINE
  5
12B
330
1F
100
AcDbEntity
  8
0
  6
Continuous
 62
     7
370
    25
100
AcDbLine
 10
843.7002838409
 20
592.2604767508
 30
0.0
 11
843.9332277061
 21
590.8084010269
 31
0.0
  0
ARC
  5
12C
330
1F
100
AcDbEntity
  8
0
  6
Continuous
 62
     7
370
    25
100
AcDbCircle
 10
833.187354486
 20
591.1816504851
 30
0.0
 40
12.03669752939717
100
AcDbArc
 50
6.2565722694
 51
11.9710500657
  0
LINE
  5
12D
330
1F
100
AcDbEntity
  8
0
  6
Continuous
 62
     7
370
    25
100
AcDbLine
 10
843.510208546
 20
593.4453275356
 30
0.0
 11
844.9622842699
 21
593.6782714008
 31
0.0
  0
ARC
  5
12E
330
1F
100
AcDbEntity
  8
0
  6
Continuous
 62
     7
370
    25
100
AcDbCircle
 10
844.5890348117
 20
582.9323981807
 30
0.0
 40
12.03669752937479
100
AcDbArc
 50
96.2565722694
 51
101.9710500657
  0
ARC
  5
12F
330
1F
100
AcDbEntity
  8
0
  6
Continuous
 62
     7
370
    25
100
AcDbCircle
 10
843.0128208011
 20
592.7578644958
 30
0.0
 40
4.000000000000017
100
AcDbArc
 50
311.4096221093
 51
99.1138111675
  0
ARC
  5
130
330
1F
100
AcDbEntity
  8
0
  6
Continuous
 62
     7
370
    25
100
AcDbCircle
 10
843.0128208011
 20
592.7578644958
 30
0.0
 40
4.000000000000167
100
AcDbArc
 50
99.1138111675
 51
228.5903778907
  0
LINE
  5
131
330
1F
100
AcDbEntity
  8
0
  6
Continuous
 62
     7
370
    25
100
AcDbLine
 10
840.8732820373
 20
593.0223083755
 30
0.0
 11
842.3253577612
 21
593.2552522407
 31
0.0
  0
LINE
  5
132
330
1F
100
AcDbEntity
  8
0
  6
Continuous
 62
     7
370
    25
100
AcDbLine
 10
843.7002838409
 20
592.2604767508
 30
0.0
 11
845.1523595649
 21
592.493420616
 31
0.0
  0
LINE
  5
133
330
1F
100
AcDbEntity
  8
0
  6
Continuous
 62
     7
370
    25
100
AcDbLine
 10
843.2772646808
 20
594.8974032596
 30
0.0
 11
843.510208546
 21
593.4453275356
 31
0.0
  0
LINE
  5
134
330
1F
100
AcDbEntity
  8
0
  6
Continuous
 62
     7
370
    25
100
AcDbLine
 10
842.092413896
 20
594.7073279646
 30
0.0
 11
842.3253577612
 21
593.2552522407
 31
0.0
  0
LINE
  5
135
330
1F
100
AcDbEntity
  8
0
  6
Continuous
 62
     7
370
    25
100
AcDbLine
 10
843.6583148941
 20
593.4690869475
 30
0.0
 11
843.848390189
 21
592.2842361627
 31
0.0
  0
LINE
  5
136
330
1F
100
AcDbEntity
  8
0
  6
Continuous
 62
     7
370
    25
100
AcDbLine
 10
843.4864491341
 20
593.5934338837
 30
0.0
 11
842.3015983493
 21
593.4033585888
 31
0.0
  0
LINE
  5
137
330
1F
100
AcDbEntity
  8
0
  6
Continuous
 62
     7
370
    25
100
AcDbLine
 10
843.7240432528
 20
592.1123704027
 30
0.0
 11
842.539192468
 21
591.9222951078
 31
0.0
  0
LINE
  5
138
330
1F
100
AcDbEntity
  8
0
  6
Continuous
 62
     7
370
    25
100
AcDbLine
 10
842.1772514131
 20
593.2314928288
 30
0.0
 11
842.367326708
 21
592.046642044
 31
0.0
  0
LINE
  5
139
330
1F
100
AcDbEntity
  8
0
  6
Continuous
 62
     7
370
    25
100
AcDbLine
 10
259.092413896
 20
594.7073279646
 30
0.0
 11
259.3253577612
 21
593.2552522407
 31
0.0
  0
LINE
  5
13A
330
1F
100
AcDbEntity
  8
0
  6
Continuous
 62
     7
370
    25
100
AcDbLine
 10
257.8732820373
 20
593.0223083755
 30
0.0
 11
259.3253577612
 21
593.2552522407
 31
0.0
  0
ARC
  5
13B
330
1F
100
AcDbEntity
  8
0
  6
Continuous
 62
     7
370
    25
100
AcDbCircle
 10
269.8382871161
 20
594.3340785064
 30
0.0
 40
12.03669752935084
100
AcDbArc
 50
186.2565722694
 51
191.9710500657
  0
LINE
  5
13C
330
1F
100
AcDbEntity
  8
0
  6
Continuous
 62
     7
370
    25
100
AcDbLine
 10
259.5154330561
 20
592.0704014559
 30
0.0
 11
259.7483769213
 21
590.618325732
 31
0.0
  0
ARC
  5
13D
330
1F
100
AcDbEntity
  8
0
  6
Continuous
 62
     7
370
    25
100
AcDbCircle
 10
258.4366067904
 20
602.5833308108
 30
0.0
 40
12.03669752929303
100
AcDbArc
 50
276.2565722693
 51
281.9710500657
  0
LINE
  5
13E
330
1F
100
AcDbEntity
  8
0
  6
Continuous
 62
     7
370
    25
100
AcDbLine
 10
260.7002838409
 20
592.2604767508
 30
0.0
 11
260.9332277061
 21
590.8084010269
 31
0.0
  0
LINE
  5
13F
330
1F
100
AcDbEntity
  8
0
  6
Continuous
 62
     7
370
    25
100
AcDbLine
 10
260.7002838409
 20
592.2604767508
 30
0.0
 11
262.1523595649
 21
592.493420616
 31
0.0
  0
ARC
  5
140
330
1F
100
AcDbEntity
  8
0
  6
Continuous
 62
     7
370
    25
100
AcDbCircle
 10
250.187354486
 20
591.1816504851
 30
0.0
 40
12.03669752936258
100
AcDbArc
 50
6.2565722694
 51
11.9710500657
  0
LINE
  5
141
330
1F
100
AcDbEntity
  8
0
  6
Continuous
 62
     7
370
    25
100
AcDbLine
 10
260.510208546
 20
593.4453275356
 30
0.0
 11
261.9622842699
 21
593.6782714008
 31
0.0
  0
LINE
  5
142
330
1F
100
AcDbEntity
  8
0
  6
Continuous
 62
     7
370
    25
100
AcDbLine
 10
260.2772646808
 20
594.8974032596
 30
0.0
 11
260.510208546
 21
593.4453275356
 31
0.0
  0
ARC
  5
143
330
1F
100
AcDbEntity
  8
0
  6
Continuous
 62
     7
370
    25
100
AcDbCircle
 10
261.5890348117
 20
582.9323981807
 30
0.0
 40
12.03669752938195
100
AcDbArc
 50
96.2565722694
 51
101.9710500657
  0
ARC
  5
144
330
1F
100
AcDbEntity
  8
0
  6
Continuous
 62
     7
370
    25
100
AcDbCircle
 10
260.0128208011
 20
592.7578644958
 30
0.0
 40
4.000000000000017
100
AcDbArc
 50
311.4096221093
 51
99.1138111675
  0
ARC
  5
145
330
1F
100
AcDbEntity
  8
0
  6
Continuous
 62
     7
370
    25
100
AcDbCircle
 10
260.0128208011
 20
592.7578644958
 30
0.0
 40
4.000000000000054
100
AcDbArc
 50
99.1138111675
 51
228.5903778907
  0
LINE
  5
146
330
1F
100
AcDbEntity
  8
0
  6
Continuous
 62
     7
370
    25
100
AcDbLine
 10
258.0633573322
 20
591.8374575907
 30
0.0
 11
259.5154330561
 21
592.0704014559
 31
0.0
  0
LINE
  5
147
330
1F
100
AcDbEntity
  8
0
  6
Continuous
 62
     7
370
    25
100
AcDbLine
 10
260.6583148941
 20
593.4690869475
 30
0.0
 11
260.848390189
 21
592.2842361627
 31
0.0
  0
LINE
  5
148
330
1F
100
AcDbEntity
  8
0
  6
Continuous
 62
     7
370
    25
100
AcDbLine
 10
260.4864491341
 20
593.5934338837
 30
0.0
 11
259.3015983493
 21
593.4033585888
 31
0.0
  0
LINE
  5
149
330
1F
100
AcDbEntity
  8
0
  6
Continuous
 62
     7
370
    25
100
AcDbLine
 10
260.7240432528
 20
592.1123704027
 30
0.0
 11
259.539192468
 21
591.9222951078
 31
0.0
  0
LINE
  5
14A
330
1F
100
AcDbEntity
  8
0
  6
Continuous
 62
     7
370
    25
100
AcDbLine
 10
259.1772514131
 20
593.2314928288
 30
0.0
 11
259.367326708
 21
592.046642044
 31
0.0
  0
LINE
  5
14B
330
1F
100
AcDbEntity
  8
0
  6
Continuous
 62
     7
370
    25
100
AcDbLine
 10
560.8732820373
 20
593.0223083755
 30
0.0
 11
562.3253577612
 21
593.2552522407
 31
0.0
  0
ARC
  5
14C
330
1F
100
AcDbEntity
  8
0
  6
Continuous
 62
     7
370
    25
100
AcDbCircle
 10
572.8382871161
 20
594.3340785064
 30
0.0
 40
12.03669752933065
100
AcDbArc
 50
186.2565722693
 51
191.9710500657
  0
LINE
  5
14D
330
1F
100
AcDbEntity
  8
0
  6
Continuous
 62
     7
370
    25
100
AcDbLine
 10
561.0633573322
 20
591.8374575907
 30
0.0
 11
562.5154330561
 21
592.0704014559
 31
0.0
  0
LINE
  5
14E
330
1F
100
AcDbEntity
  8
0
  6
Continuous
 62
     7
370
    25
100
AcDbLine
 10
562.5154330561
 20
592.0704014559
 30
0.0
 11
562.7483769213
 21
590.618325732
 31
0.0
  0
ARC
  5
14F
330
1F
100
AcDbEntity
  8
0
  6
Continuous
 62
     7
370
    25
100
AcDbCircle
 10
561.4366067904
 20
602.5833308107
 30
0.0
 40
12.03669752928843
100
AcDbArc
 50
276.2565722693
 51
281.9710500657
  0
LINE
  5
150
330
1F
100
AcDbEntity
  8
0
  6
Continuous
 62
     7
370
    25
100
AcDbLine
 10
563.7002838409
 20
592.2604767508
 30
0.0
 11
563.9332277061
 21
590.8084010269
 31
0.0
  0
LINE
  5
151
330
1F
100
AcDbEntity
  8
0
  6
Continuous
 62
     7
370
    25
100
AcDbLine
 10
563.7002838409
 20
592.2604767508
 30
0.0
 11
565.1523595649
 21
592.493420616
 31
0.0
  0
ARC
  5
152
330
1F
100
AcDbEntity
  8
0
  6
Continuous
 62
     7
370
    25
100
AcDbCircle
 10
553.187354486
 20
591.1816504851
 30
0.0
 40
12.03669752932699
100
AcDbArc
 50
6.2565722693
 51
11.9710500657
  0
LINE
  5
153
330
1F
100
AcDbEntity
  8
0
  6
Continuous
 62
     7
370
    25
100
AcDbLine
 10
563.510208546
 20
593.4453275356
 30
0.0
 11
564.9622842699
 21
593.6782714008
 31
0.0
  0
LINE
  5
154
330
1F
100
AcDbEntity
  8
0
  6
Continuous
 62
     7
370
    25
100
AcDbLine
 10
563.2772646808
 20
594.8974032596
 30
0.0
 11
563.510208546
 21
593.4453275356
 31
0.0
  0
ARC
  5
155
330
1F
100
AcDbEntity
  8
0
  6
Continuous
 62
     7
370
    25
100
AcDbCircle
 10
564.5890348117
 20
582.9323981807
 30
0.0
 40
12.03669752938432
100
AcDbArc
 50
96.2565722694
 51
101.9710500657
  0
ARC
  5
156
330
1F
100
AcDbEntity
  8
0
  6
Continuous
 62
     7
370
    25
100
AcDbCircle
 10
563.0128208011
 20
592.7578644958
 30
0.0
 40
4.000000000000017
100
AcDbArc
 50
311.4096221093
 51
99.1138111675
  0
ARC
  5
157
330
1F
100
AcDbEntity
  8
0
  6
Continuous
 62
     7
370
    25
100
AcDbCircle
 10
563.0128208011
 20
592.7578644958
 30
0.0
 40
4.000000000000091
100
AcDbArc
 50
99.1138111675
 51
228.5903778907
  0
LINE
  5
158
330
1F
100
AcDbEntity
  8
0
  6
Continuous
 62
     7
370
    25
100
AcDbLine
 10
562.092413896
 20
594.7073279646
 30
0.0
 11
562.3253577612
 21
593.2552522407
 31
0.0
  0
LINE
  5
159
330
1F
100
AcDbEntity
  8
0
  6
Continuous
 62
     7
370
    25
100
AcDbLine
 10
563.6583148941
 20
593.4690869475
 30
0.0
 11
563.848390189
 21
592.2842361627
 31
0.0
  0
LINE
  5
15A
330
1F
100
AcDbEntity
  8
0
  6
Continuous
 62
     7
370
    25
100
AcDbLine
 10
563.7240432528
 20
592.1123704027
 30
0.0
 11
562.539192468
 21
591.9222951078
 31
0.0
  0
LINE
  5
15B
330
1F
100
AcDbEntity
  8
0
  6
Continuous
 62
     7
370
    25
100
AcDbLine
 10
563.4864491341
 20
593.5934338837
 30
0.0
 11
562.3015983493
 21
593.4033585888
 31
0.0
  0
LINE
  5
15C
330
1F
100
AcDbEntity
  8
0
  6
Continuous
 62
     7
370
    25
100
AcDbLine
 10
562.1772514131
 20
593.2314928288
 30
0.0
 11
562.367326708
 21
592.046642044
 31
0.0
  0
LINE
  5
15D
330
1F
100
AcDbEntity
  8
0
  6
Continuous
 62
     7
370
    25
100
AcDbLine
 10
-20.907586104
 20
594.7073279646
 30
0.0
 11
-20.6746422388
 21
593.2552522407
 31
0.0
  0
LINE
  5
15E
330
1F
100
AcDbEntity
  8
0
  6
Continuous
 62
     7
370
    25
100
AcDbLine
 10
-22.1267179627
 20
593.0223083755
 30
0.0
 11
-20.6746422388
 21
593.2552522407
 31
0.0
  0
ARC
  5
15F
330
1F
100
AcDbEntity
  8
0
  6
Continuous
 62
     7
370
    25
100
AcDbCircle
 10
-10.1617128839
 20
594.3340785064
 30
0.0
 40
12.03669752934185
100
AcDbArc
 50
186.2565722693
 51
191.9710500657
  0
LINE
  5
160
330
1F
100
AcDbEntity
  8
0
  6
Continuous
 62
     7
370
    25
100
AcDbLine
 10
-21.9366426678
 20
591.8374575907
 30
0.0
 11
-20.4845669439
 21
592.0704014559
 31
0.0
  0
LINE
  5
161
330
1F
100
AcDbEntity
  8
0
  6
Continuous
 62
     7
370
    25
100
AcDbLine
 10
-20.4845669439
 20
592.0704014559
 30
0.0
 11
-20.2516230787
 21
590.618325732
 31
0.0
  0
ARC
  5
162
330
1F
100
AcDbEntity
  8
0
  6
Continuous
 62
     7
370
    25
100
AcDbCircle
 10
-21.5633932096
 20
602.5833308108
 30
0.0
 40
12.03669752929649
100
AcDbArc
 50
276.2565722693
 51
281.9710500657
  0
LINE
  5
163
330
1F
100
AcDbEntity
  8
0
  6
Continuous
 62
     7
370
    25
100
AcDbLine
 10
-19.2997161591
 20
592.2604767508
 30
0.0
 11
-19.0667722939
 21
590.8084010269
 31
0.0
  0
LINE
  5
164
330
1F
100
AcDbEntity
  8
0
  6
Continuous
 62
     7
370
    25
100
AcDbLine
 10
-19.2997161591
 20
592.2604767508
 30
0.0
 11
-17.8476404351
 21
592.493420616
 31
0.0
  0
ARC
  5
165
330
1F
100
AcDbEntity
  8
0
  6
Continuous
 62
     7
370
    25
100
AcDbCircle
 10
-29.812645514
 20
591.1816504851
 30
0.0
 40
12.03669752933796
100
AcDbArc
 50
6.2565722693
 51
11.9710500657
  0
LINE
  5
166
330
1F
100
AcDbEntity
  8
0
  6
Continuous
 62
     7
370
    25
100
AcDbLine
 10
-19.489791454
 20
593.4453275356
 30
0.0
 11
-18.0377157301
 21
593.6782714008
 31
0.0
  0
LINE
  5
167
330
1F
100
AcDbEntity
  8
0
  6
Continuous
 62
     7
370
    25
100
AcDbLine
 10
-19.7227353192
 20
594.8974032596
 30
0.0
 11
-19.489791454
 21
593.4453275356
 31
0.0
  0
ARC
  5
168
330
1F
100
AcDbEntity
  8
0
  6
Continuous
 62
     7
370
    25
100
AcDbCircle
 10
-18.4109651883
 20
582.9323981807
 30
0.0
 40
12.03669752938252
100
AcDbArc
 50
96.2565722694
 51
101.9710500657
  0
ARC
  5
169
330
1F
100
AcDbEntity
  8
0
  6
Continuous
 62
     7
370
    25
100
AcDbCircle
 10
-19.9871791989
 20
592.7578644958
 30
0.0
 40
4.000000000000012
100
AcDbArc
 50
311.4096221093
 51
99.1138111675
  0
ARC
  5
16A
330
1F
100
AcDbEntity
  8
0
  6
Continuous
 62
     7
370
    25
100
AcDbCircle
 10
-19.9871791989
 20
592.7578644958
 30
0.0
 40
3.999999999999976
100
AcDbArc
 50
99.1138111675
 51
228.5903778907
  0
LINE
  5
16B
330
1F
100
AcDbEntity
  8
0
  6
Continuous
 62
     7
370
    25
100
AcDbLine
 10
-19.3416851059
 20
593.4690869475
 30
0.0
 11
-19.151609811
 21
592.2842361627
 31
0.0
  0
LINE
  5
16C
330
1F
100
AcDbEntity
  8
0
  6
Continuous
 62
     7
370
    25
100
AcDbLine
 10
-19.5135508659
 20
593.5934338837
 30
0.0
 11
-20.6984016507
 21
593.4033585888
 31
0.0
  0
LINE
  5
16D
330
1F
100
AcDbEntity
  8
0
  6
Continuous
 62
     7
370
    25
100
AcDbLine
 10
-19.2759567472
 20
592.1123704027
 30
0.0
 11
-20.460807532
 21
591.9222951078
 31
0.0
  0
LINE
  5
16E
330
1F
100
AcDbEntity
  8
0
  6
Continuous
 62
     7
370
    25
100
AcDbLine
 10
-20.8227485869
 20
593.2314928288
 30
0.0
 11
-20.632673292
 21
592.046642044
 31
0.0
  0
SPLINE
  5
16F
330
1F
100
AcDbEntity
  8
0
  6
Continuous
 62
     7
370
    25
100
AcDbSpline
210
0.0
220
0.0
230
1.0
 70
    24
 71
     3
 72
    18
 73
    14
 74
     0
 42
0.000000001
 43
0.00000001
 40
0.0
 40
0.0
 40
0.0
 40
0.0
 40
0.1395442450004743
 40
0.2146633576115595
 40
0.2913766055701581
 40
0.3680898535287547
 40
0.4432089661398437
 40
0.5827532111403165
 40
0.722297456140793
 40
0.797416568751879
 40
0.8741298167104774
 40
0.9508430646690752
 40
1.0
 40
1.0
 40
1.0
 40
1.0
 10
-39.68717919893827
 20
612.5273364389911
 30
0.0
 10
-39.68717919893822
 20
612.9124673309168
 30
0.0
 10
-39.68717919893822
 20
613.5049209314247
 30
0.0
 10
-39.68717919893827
 20
614.7408351128097
 30
0.0
 10
-39.68717919893816
 20
615.8168647251645
 30
0.0
 10
-39.68717919893838
 20
616.9803928457136
 30
0.0
 10
-39.68717919893827
 20
618.5008400367316
 30
0.0
 10
-39.68717919893849
 20
620.3250300347385
 30
0.0
 10
-39.68717919893822
 20
621.8402649893306
 30
0.0
 10
-39.68717919893838
 20
622.7580122877608
 30
0.0
 10
-39.68717919893827
 20
623.2616291061145
 30
0.0
 10
-39.68717919893816
 20
623.5337662308542
 30
0.0
 10
-39.68717919893838
 20
623.5318583879686
 30
0.0
 10
-39.68717919893832
 20
623.5311133051624
 30
0.0
  0
SPLINE
  5
170
330
1F
100
AcDbEntity
  8
0
  6
Continuous
 62
     7
370
    25
100
AcDbSpline
210
0.0
220
0.0
230
1.0
 70
     8
 71
     3
 72
     8
 73
     4
 74
     0
 42
0.000000001
 43
0.00000001
 40
0.0
 40
0.0
 40
0.0
 40
0.0
 40
1.0
 40
1.0
 40
1.0
 40
1.0
 10
-35.68717919894537
 20
614.9331950846253
 30
0.0
 10
-35.68717919894537
 20
615.7461846563303
 30
0.0
 10
-35.86149449932463
 20
616.536923052398
 30
0.0
 10
-36.13376118633671
 20
617.3151580508749
 30
0.0
  0
SPLINE
  5
171
330
1F
100
AcDbEntity
  8
0
  6
Continuous
 62
     7
370
    25
100
AcDbSpline
210
0.0
220
0.0
230
1.0
 70
     8
 71
     3
 72
     8
 73
     4
 74
     0
 42
0.000000001
 43
0.00000001
 40
0.0
 40
0.0
 40
0.0
 40
0.0
 40
1.0
 40
1.0
 40
1.0
 40
1.0
 10
-36.13376118633671
 20
612.5512321183754
 30
0.0
 10
-35.8614944993253
 20
613.3294671168503
 30
0.0
 10
-35.68717919894537
 20
614.1202055129222
 30
0.0
 10
-35.68717919894537
 20
614.9331950846253
 30
0.0
  0
LINE
  5
172
330
1F
100
AcDbEntity
  8
0
  6
Continuous
 62
     7
370
    25
100
AcDbLine
 10
-39.6871791989
 20
612.5512321184
 30
0.0
 11
-36.1337611863
 21
612.5512321184
 31
0.0
  0
LINE
  5
173
330
1F
100
AcDbEntity
  8
0
  6
Continuous
 62
     7
370
    25
100
AcDbLine
 10
-36.1337611863
 20
617.3151580509
 30
0.0
 11
-39.6871791989
 21
617.3151580509
 31
0.0
  0
SPLINE
  5
174
330
1F
100
AcDbEntity
  8
0
  6
Continuous
 62
     7
370
    25
100
AcDbSpline
210
0.0
220
0.0
230
1.0
 70
     8
 71
     3
 72
     8
 73
     4
 74
     0
 42
0.000000001
 43
0.00000001
 40
0.0
 40
0.0
 40
0.0
 40
0.0
 40
1.0
 40
1.0
 40
1.0
 40
1.0
 10
-35.68717919894543
 20
619.9184742395718
 30
0.0
 10
-35.68717919894543
 20
620.8070140461275
 30
0.0
 10
-35.86149449932486
 20
621.6712348995466
 30
0.0
 10
-36.13376118633671
 20
622.5217904282616
 30
0.0
  0
SPLINE
  5
175
330
1F
100
AcDbEntity
  8
0
  6
Continuous
 62
     7
370
    25
100
AcDbSpline
210
0.0
220
0.0
230
1.0
 70
     8
 71
     3
 72
     8
 73
     4
 74
     0
 42
0.000000001
 43
0.00000001
 40
0.0
 40
0.0
 40
0.0
 40
0.0
 40
1.0
 40
1.0
 40
1.0
 40
1.0
 10
-36.13376118633671
 20
617.3151580508817
 30
0.0
 10
-35.86149449932524
 20
618.1657135795955
 30
0.0
 10
-35.68717919894543
 20
619.0299344330173
 30
0.0
 10
-35.68717919894543
 20
619.9184742395718
 30
0.0
  0
LINE
  5
176
330
1F
100
AcDbEntity
  8
0
  6
Continuous
 62
     7
370
    25
100
AcDbLine
 10
-39.6871791989
 20
622.5217904283
 30
0.0
 11
-36.1337611863
 21
622.5217904283
 31
0.0
  0
LINE
  5
177
330
1F
100
AcDbEntity
  8
0
  6
Continuous
 62
     7
370
    25
100
AcDbLine
 10
-35.6871791989
 20
614.9331950846
 30
0.0
 11
-35.6871791989
 21
619.9184742396
 31
0.0
  0
SPLINE
  5
178
330
1F
100
AcDbEntity
  8
0
  6
Continuous
 62
     7
370
    25
100
AcDbSpline
210
0.0
220
0.0
230
1.0
 70
     8
 71
     3
 72
     8
 73
     4
 74
     0
 42
0.000000001
 43
0.00000001
 40
0.0
 40
0.0
 40
0.0
 40
0.0
 40
1.0
 40
1.0
 40
1.0
 40
1.0
 10
-36.1337611863366
 20
622.5217904282654
 30
0.0
 10
-35.86149449932519
 20
622.5941109585042
 30
0.0
 10
-35.68717919894526
 20
622.6675934158546
 30
0.0
 10
-35.68717919894526
 20
622.7431436507059
 30
0.0
  0
LINE
  5
179
330
1F
100
AcDbEntity
  8
0
  6
Continuous
 62
     7
370
    25
100
AcDbLine
 10
-35.6871791989
 20
619.9184742396
 30
0.0
 11
-35.6871791989
 21
622.7431436507
 31
0.0
  0
SPLINE
  5
17A
330
1F
100
AcDbEntity
  8
0
  6
Continuous
 62
     7
370
    25
100
AcDbSpline
210
0.0
220
0.0
230
1.0
 70
     8
 71
     3
 72
     8
 73
     4
 74
     0
 42
0.000000001
 43
0.00000001
 40
0.0
 40
0.0
 40
0.0
 40
0.0
 40
1.0
 40
1.0
 40
1.0
 40
1.0
 10
-35.68717919894526
 20
612.7725853408132
 30
0.0
 10
-35.68717919894526
 20
612.6970351059617
 30
0.0
 10
-35.86149449932469
 20
612.6235526486116
 30
0.0
 10
-36.13376118633666
 20
612.5512321183726
 30
0.0
  0
LINE
  5
17B
330
1F
100
AcDbEntity
  8
0
  6
Continuous
 62
     7
370
    25
100
AcDbLine
 10
-35.6871791989
 20
614.9331950846
 30
0.0
 11
-35.6871791989
 21
612.765192002
 31
0.0
  0
SPLINE
  5
17C
330
1F
100
AcDbEntity
  8
0
  6
Continuous
 62
     7
370
    25
100
AcDbSpline
210
0.0
220
0.0
230
1.0
 70
     8
 71
     3
 72
     8
 73
     4
 74
     0
 42
0.000000001
 43
0.00000001
 40
0.0
 40
0.0
 40
0.0
 40
0.0
 40
1.0
 40
1.0
 40
1.0
 40
1.0
 10
-35.68717919894526
 20
622.7431436507059
 30
0.0
 10
-35.68717919894526
 20
622.8186938855571
 30
0.0
 10
-35.86149449932469
 20
622.8921763429074
 30
0.0
 10
-36.13376118633666
 20
622.9644968731462
 30
0.0
  0
LINE
  5
17D
330
1F
100
AcDbEntity
  8
0
  6
Continuous
 62
     7
370
    25
100
AcDbLine
 10
-39.6871791989
 20
622.9644968731
 30
0.0
 11
-36.1337611863
 21
622.9644968731
 31
0.0
  0
LINE
  5
17E
330
1F
100
AcDbEntity
  8
0
  6
Continuous
 62
     7
370
    25
100
AcDbLine
 10
-50.1459291989
 20
619.054230342
 30
0.0
 11
-50.1459291989
 21
614.7578644958
 31
0.0
  0
LINE
  5
17F
330
1F
100
AcDbEntity
  8
0
  6
Continuous
 62
     7
370
    25
100
AcDbLine
 10
-50.1459291989
 20
620.7578644958
 30
0.0
 11
-50.1459291989
 21
619.054230342
 31
0.0
  0
LINE
  5
180
330
1F
100
AcDbEntity
  8
0
  6
Continuous
 62
     7
370
    25
100
AcDbLine
 10
-50.6871791989
 20
620.2166144958
 30
0.0
 11
-50.6871791989
 21
615.2991144957
 31
0.0
  0
LINE
  5
181
330
1F
100
AcDbEntity
  8
0
  6
Continuous
 62
     7
370
    25
100
AcDbLine
 10
1018.1977755991
 20
588.9792378237
 30
0.0
 11
1018.5607133775
 21
589.6078644958
 31
0.0
  0
LINE
  5
182
330
1F
100
AcDbEntity
  8
0
  6
Continuous
 62
     7
370
    25
100
AcDbLine
 10
1018.5607133775
 20
595.9078644958
 30
0.0
 11
1018.1977755991
 21
596.5364911679
 31
0.0
  0
ARC
  5
183
330
1F
100
AcDbEntity
  8
0
  6
Continuous
 62
     7
370
    25
100
AcDbCircle
 10
1015.3325101472
 20
592.7578644958
 30
0.0
 40
8.00000000000009
100
AcDbArc
 50
330.0
 51
344.7252520003
  0
ARC
  5
184
330
1F
100
AcDbEntity
  8
0
  6
Continuous
 62
     7
370
    25
100
AcDbCircle
 10
1015.3325101472
 20
592.7578644958
 30
0.0
 40
8.000000000000066
100
AcDbArc
 50
15.2747479997
 51
30.0
  0
LINE
  5
185
330
1F
100
AcDbEntity
  8
0
  6
Continuous
 62
     7
370
    25
100
AcDbLine
 10
1020.2607133775
 20
588.7578644958
 30
0.0
 11
1022.2607133775
 21
588.7578644958
 31
0.0
  0
LINE
  5
186
330
1F
100
AcDbEntity
  8
0
  6
Continuous
 62
     7
370
    25
100
AcDbLine
 10
1022.2607133775
 20
596.7578644958
 30
0.0
 11
1020.2607133775
 21
596.7578644958
 31
0.0
  0
LINE
  5
187
330
1F
100
AcDbEntity
  8
0
  6
Continuous
 62
     7
370
    25
100
AcDbLine
 10
1018.5607133775
 20
590.7578644958
 30
0.0
 11
1018.6607133775
 21
590.7578644958
 31
0.0
  0
LINE
  5
188
330
1F
100
AcDbEntity
  8
0
  6
Continuous
 62
     7
370
    25
100
AcDbLine
 10
1018.6607133775
 20
594.7578644958
 30
0.0
 11
1018.5607133775
 21
594.7578644958
 31
0.0
  0
LINE
  5
189
330
1F
100
AcDbEntity
  8
0
  6
Continuous
 62
     7
370
    25
100
AcDbLine
 10
1025.5607133775
 20
588.2871538176
 30
0.0
 11
1025.5607133775
 21
-4.7714248261
 31
0.0
  0
LINE
  5
18A
330
1F
100
AcDbEntity
  8
0
  6
Continuous
 62
     7
370
    25
100
AcDbLine
 10
1035.1607133775
 20
588.2871538176
 30
0.0
 11
1025.5607133775
 21
588.2871538176
 31
0.0
  0
LINE
  5
18B
330
1F
100
AcDbEntity
  8
0
  6
Continuous
 62
     7
370
    25
100
AcDbLine
 10
1035.1607133775
 20
-4.7714248261
 30
0.0
 11
1025.5607133775
 21
-4.7714248261
 31
0.0
  0
SPLINE
  5
18C
330
1F
100
AcDbEntity
  8
0
  6
Continuous
 62
     7
370
    25
100
AcDbSpline
210
0.0
220
0.0
230
1.0
 70
     8
 71
     3
 72
    20
 73
    16
 74
     0
 42
0.000000001
 43
0.00000001
 40
0.0
 40
0.0
 40
0.0
 40
0.0
 40
0.1250000000000094
 40
0.1250000000000094
 40
0.2500000000000188
 40
0.2500000000000188
 40
0.3750000000000282
 40
0.3750000000000282
 40
0.5000000000000376
 40
0.5000000000000376
 40
0.7500000000000269
 40
0.7500000000000269
 40
0.8750000000000134
 40
0.8750000000000134
 40
1.0
 40
1.0
 40
1.0
 40
1.0
 10
1037.560713377479
 20
-3.842135504243227
 30
0.0
 10
1037.560713377479
 20
-3.881176235097705
 30
0.0
 10
1037.545176817004
 20
-3.919694939297669
 30
0.0
 10
1037.483858465044
 20
-3.997101690605465
 30
0.0
 10
1037.437434719457
 20
-4.036246108592156
 30
0.0
 10
1037.317483849303
 20
-4.11339686250739
 30
0.0
 10
1037.243879205019
 20
-4.151724444248384
 30
0.0
 10
1037.069148838924
 20
-4.229270764724902
 30
0.0
 10
1036.968298210022
 20
-4.268246972393586
 30
0.0
 10
1036.637012930038
 20
-4.383741828838272
 30
0.0
 10
1036.369332768654
 20
-4.461654272508664
 30
0.0
 10
1035.936658742599
 20
-4.577134197909672
 30
0.0
 10
1035.785140655748
 20
-4.615999993774711
 30
0.0
 10
1035.475714898362
 20
-4.693774327443389
 30
0.0
 10
1035.319092568668
 20
-4.732384094397968
 30
0.0
 10
1035.160713377479
 20
-4.771424826124527
 30
0.0
  0
SPLINE
  5
18D
330
1F
100
AcDbEntity
  8
0
  6
Continuous
 62
     7
370
    25
100
AcDbSpline
210
0.0
220
0.0
230
1.0
 70
     8
 71
     3
 72
    20
 73
    16
 74
     0
 42
0.000000001
 43
0.00000001
 40
0.0
 40
0.0
 40
0.0
 40
0.0
 40
0.125
 40
0.125
 40
0.25
 40
0.25
 40
0.375
 40
0.375
 40
0.5
 40
0.5
 40
0.75
 40
0.75
 40
0.875
 40
0.875
 40
1.0
 40
1.0
 40
1.0
 40
1.0
 10
1035.160713377479
 20
588.2871538176382
 30
0.0
 10
1035.31909256513
 20
588.2481130867839
 30
0.0
 10
1035.475338289822
 20
588.209594382584
 30
0.0
 10
1035.783330139238
 20
588.132187631276
 30
0.0
 10
1035.935974246709
 20
588.0930432132893
 30
0.0
 10
1036.225058535896
 20
588.0158924593742
 30
0.0
 10
1036.36286307408
 20
587.9775648776331
 30
0.0
 10
1036.624481749719
 20
587.9000185571566
 30
0.0
 10
1036.747228056402
 20
587.8610423494879
 30
0.0
 10
1037.07855243335
 20
587.7455474930431
 30
0.0
 10
1037.257563557378
 20
587.6676350493727
 30
0.0
 10
1037.437178656759
 20
587.5521551239718
 30
0.0
 10
1037.483423005626
 20
587.5132893281068
 30
0.0
 10
1037.545176311638
 20
587.4355149944382
 30
0.0
 10
1037.560713377479
 20
587.3969052274834
 30
0.0
 10
1037.560713377479
 20
587.3578644957568
 30
0.0
  0
LINE
  5
18E
330
1F
100
AcDbEntity
  8
0
  6
Continuous
 62
     7
370
    25
100
AcDbLine
 10
1037.5607133775
 20
587.3578644958
 30
0.0
 11
1037.5607133775
 21
-3.8421355042
 31
0.0
  0
SPLINE
  5
18F
330
1F
100
AcDbEntity
  8
0
  6
Continuous
 62
     7
370
    25
100
AcDbSpline
210
0.0
220
0.0
230
1.0
 70
     8
 71
     3
 72
    20
 73
    16
 74
     0
 42
0.000000001
 43
0.00000001
 40
0.0
 40
0.0
 40
0.0
 40
0.0
 40
0.1250000000000108
 40
0.1250000000000108
 40
0.2500000000000215
 40
0.2500000000000215
 40
0.3750000000000323
 40
0.3750000000000323
 40
0.5000000000000431
 40
0.5000000000000431
 40
0.7500000000000245
 40
0.7500000000000245
 40
0.8750000000000123
 40
0.8750000000000123
 40
1.0
 40
1.0
 40
1.0
 40
1.0
 10
1037.560713377479
 20
587.3578644957566
 30
0.0
 10
1037.560713377479
 20
587.5162436834075
 30
0.0
 10
1037.545176817004
 20
587.6724894080993
 30
0.0
 10
1037.483858465044
 20
587.9804812575159
 30
0.0
 10
1037.437434719457
 20
588.1331253649869
 30
0.0
 10
1037.317483849303
 20
588.4222096541738
 30
0.0
 10
1037.243879205019
 20
588.560014192358
 30
0.0
 10
1037.069148838924
 20
588.821632867997
 30
0.0
 10
1036.968298210022
 20
588.9443791746795
 30
0.0
 10
1036.637012930038
 20
589.2757035516274
 30
0.0
 10
1036.369332768654
 20
589.4547146756555
 30
0.0
 10
1035.936658742599
 20
589.6343297750363
 30
0.0
 10
1035.785140655748
 20
589.6805741239043
 30
0.0
 10
1035.475714898362
 20
589.7423274299153
 30
0.0
 10
1035.319092568668
 20
589.7578644957568
 30
0.0
 10
1035.160713377479
 20
589.7578644957568
 30
0.0
  0
SPLINE
  5
190
330
1F
100
AcDbEntity
  8
0
  6
Continuous
 62
     7
370
    25
100
AcDbSpline
210
0.0
220
0.0
230
1.0
 70
     8
 71
     3
 72
     9
 73
     5
 74
     0
 42
0.000000001
 43
0.00000001
 40
0.0
 40
0.0
 40
0.0
 40
0.0
 40
0.4825784287292791
 40
1.0
 40
1.0
 40
1.0
 40
1.0
 10
1035.773253116657
 20
588.1340347277034
 30
0.0
 10
1035.685118775341
 20
588.1978429207647
 30
0.0
 10
1035.502486614288
 20
588.330066388004
 30
0.0
 10
1035.277253730243
 20
588.3483856924604
 30
0.0
 10
1035.160713377479
 20
588.3578644957568
 30
0.0
  0
LINE
  5
191
330
1F
100
AcDbEntity
  8
0
  6
Continuous
 62
     7
370
    25
100
AcDbLine
 10
1035.1607133775
 20
589.7578644958
 30
0.0
 11
1035.1607133775
 21
588.3578644958
 31
0.0
  0
LINE
  5
192
330
1F
100
AcDbEntity
  8
0
  6
Continuous
 62
     7
370
    25
100
AcDbLine
 10
1035.1607133775
 20
-6.2421355042
 30
0.0
 11
1035.1607133775
 21
-4.8421355042
 31
0.0
  0
SPLINE
  5
193
330
1F
100
AcDbEntity
  8
0
  6
Continuous
 62
     7
370
    25
100
AcDbSpline
210
0.0
220
0.0
230
1.0
 70
     8
 71
     3
 72
     9
 73
     5
 74
     0
 42
0.000000001
 43
0.00000001
 40
0.0
 40
0.0
 40
0.0
 40
0.0
 40
0.7329379507275696
 40
1.0
 40
1.0
 40
1.0
 40
1.0
 10
1035.160713377479
 20
-4.842135504243061
 30
0.0
 10
1035.312102019135
 20
-4.830380854725314
 30
0.0
 10
1035.51865243927
 20
-4.814343140337519
 30
0.0
 10
1035.674012781389
 20
-4.686005833843765
 30
0.0
 10
1035.715503632731
 20
-4.651731809773462
 30
0.0
  0
SPLINE
  5
194
330
1F
100
AcDbEntity
  8
0
  6
Continuous
 62
     7
370
    25
100
AcDbSpline
210
0.0
220
0.0
230
1.0
 70
     8
 71
     3
 72
    20
 73
    16
 74
     0
 42
0.000000001
 43
0.00000001
 40
0.0
 40
0.0
 40
0.0
 40
0.0
 40
0.1249999999999999
 40
0.1249999999999999
 40
0.2499999999999999
 40
0.2499999999999999
 40
0.3749999999999999
 40
0.3749999999999999
 40
0.4999999999999999
 40
0.4999999999999999
 40
0.7499999999999999
 40
0.7499999999999999
 40
0.8749999999999999
 40
0.8749999999999999
 40
1.0
 40
1.0
 40
1.0
 40
1.0
 10
1035.160713377479
 20
-6.242135504243073
 30
0.0
 10
1035.31909256513
 20
-6.242135504243018
 30
0.0
 10
1035.475338289822
 20
-6.226598943768313
 30
0.0
 10
1035.783330139238
 20
-6.165280591807598
 30
0.0
 10
1035.935974246709
 20
-6.118856846220877
 30
0.0
 10
1036.225058535897
 20
-5.998905976066615
 30
0.0
 10
1036.36286307408
 20
-5.925301331783094
 30
0.0
 10
1036.62448174972
 20
-5.750570965687429
 30
0.0
 10
1036.747228056402
 20
-5.649720336786235
 30
0.0
 10
1037.07855243335
 20
-5.318435056802295
 30
0.0
 10
1037.257563557378
 20
-5.050754895418342
 30
0.0
 10
1037.437178656759
 20
-4.61808086936294
 30
0.0
 10
1037.483423005626
 20
-4.466562782511896
 30
0.0
 10
1037.545176311638
 20
-4.157137025125657
 30
0.0
 10
1037.560713377479
 20
-4.000514695432056
 30
0.0
 10
1037.560713377479
 20
-3.842135504243227
 30
0.0
  0
LINE
  5
195
330
1F
100
AcDbEntity
  8
0
  6
Continuous
 62
     7
370
    25
100
AcDbLine
 10
1035.1607133775
 20
588.3578644958
 30
0.0
 11
1025.5607133775
 21
588.3578644958
 31
0.0
  0
LINE
  5
196
330
1F
100
AcDbEntity
  8
0
  6
Continuous
 62
     7
370
    25
100
AcDbLine
 10
1025.5607133775
 20
589.7578644958
 30
0.0
 11
1025.5607133775
 21
588.3578644958
 31
0.0
  0
LINE
  5
197
330
1F
100
AcDbEntity
  8
0
  6
Continuous
 62
     7
370
    25
100
AcDbLine
 10
1035.1607133775
 20
589.7578644958
 30
0.0
 11
1025.5607133775
 21
589.7578644958
 31
0.0
  0
LINE
  5
198
330
1F
100
AcDbEntity
  8
0
  6
Continuous
 62
     7
370
    25
100
AcDbLine
 10
1035.1607133775
 20
-6.2421355042
 30
0.0
 11
1025.5607133775
 21
-6.2421355042
 31
0.0
  0
LINE
  5
199
330
1F
100
AcDbEntity
  8
0
  6
Continuous
 62
     7
370
    25
100
AcDbLine
 10
1035.1607133775
 20
-4.8421355042
 30
0.0
 11
1025.5607133775
 21
-4.8421355042
 31
0.0
  0
LINE
  5
19A
330
1F
100
AcDbEntity
  8
0
  6
Continuous
 62
     7
370
    25
100
AcDbLine
 10
1025.5607133775
 20
-6.2421355042
 30
0.0
 11
1025.5607133775
 21
-4.8421355042
 31
0.0
  0
LINE
  5
19B
330
1F
100
AcDbEntity
  8
0
  6
Continuous
 62
     7
370
    25
100
AcDbLine
 10
1017.4607133775
 20
604.2578644958
 30
0.0
 11
1021.4607133775
 21
604.2578644958
 31
0.0
  0
LINE
  5
19C
330
1F
100
AcDbEntity
  8
0
  6
Continuous
 62
     7
370
    25
100
AcDbLine
 10
1017.4607133775
 20
587.0578644958
 30
0.0
 11
1017.4607133775
 21
604.2578644958
 31
0.0
  0
LINE
  5
19D
330
1F
100
AcDbEntity
  8
0
  6
Continuous
 62
     7
370
    25
100
AcDbLine
 10
998.4607133775
 20
621.2578644958
 30
0.0
 11
998.4607133775
 21
587.0578644958
 31
0.0
  0
ARC
  5
19E
330
1F
100
AcDbEntity
  8
0
  6
Continuous
 62
     7
370
    25
100
AcDbCircle
 10
1001.4607133775
 20
621.2578644958
 30
0.0
 40
3.000000000000114
100
AcDbArc
 50
90.0
 51
180.0
  0
LINE
  5
19F
330
1F
100
AcDbEntity
  8
0
  6
Continuous
 62
     7
370
    25
100
AcDbLine
 10
1018.4607133775
 20
624.2578644958
 30
0.0
 11
1001.4607133775
 21
624.2578644958
 31
0.0
  0
ARC
  5
1A0
330
1F
100
AcDbEntity
  8
0
  6
Continuous
 62
     7
370
    25
100
AcDbCircle
 10
1018.4607133775
 20
621.2578644958
 30
0.0
 40
3.0
100
AcDbArc
 50
0.0
 51
90.0
  0
LINE
  5
1A1
330
1F
100
AcDbEntity
  8
0
  6
Continuous
 62
     7
370
    25
100
AcDbLine
 10
1021.4607133775
 20
604.2578644958
 30
0.0
 11
1021.4607133775
 21
621.2578644958
 31
0.0
  0
CIRCLE
  5
1A2
330
1F
100
AcDbEntity
  8
0
  6
Continuous
 62
     7
370
    25
100
AcDbCircle
 10
1006.9607133775
 20
617.7578644958
 30
0.0
 40
3.249999999999773
  0
CIRCLE
  5
1A3
330
1F
100
AcDbEntity
  8
0
  6
Continuous
 62
     7
370
    25
100
AcDbCircle
 10
1006.9607133775
 20
592.7578644958
 30
0.0
 40
3.249999999999886
  0
LINE
  5
1A4
330
1F
100
AcDbEntity
  8
0
  6
Continuous
 62
     7
370
    25
100
AcDbLine
 10
998.4607133775
 20
585.2578644958
 30
0.0
 11
998.4607133775
 21
587.0578644958
 31
0.0
  0
LINE
  5
1A5
330
1F
100
AcDbEntity
  8
0
  6
Continuous
 62
     7
370
    25
100
AcDbLine
 10
1017.4607133775
 20
587.0578644958
 30
0.0
 11
1017.4607133775
 21
585.2578644958
 31
0.0
  0
LINE
  5
1A6
330
1F
100
AcDbEntity
  8
0
  6
Continuous
 62
     7
370
    25
100
AcDbLine
 10
1017.4607133775
 20
585.2578644958
 30
0.0
 11
998.4607133775
 21
585.2578644958
 31
0.0
  0
LINE
  5
1A7
330
1F
100
AcDbEntity
  8
0
  6
Continuous
 62
     7
370
    25
100
AcDbLine
 10
1018.6607133775
 20
597.2578644958
 30
0.0
 11
1018.6607133775
 21
587.0578644958
 31
0.0
  0
LINE
  5
1A8
330
1F
100
AcDbEntity
  8
0
  6
Continuous
 62
     7
370
    25
100
AcDbLine
 10
1019.4607133775
 20
597.2578644958
 30
0.0
 11
1018.6607133775
 21
597.2578644958
 31
0.0
  0
LINE
  5
1A9
330
1F
100
AcDbEntity
  8
0
  6
Continuous
 62
     7
370
    25
100
AcDbLine
 10
1017.4607133775
 20
585.2578644958
 30
0.0
 11
1017.6607133775
 21
585.2578644958
 31
0.0
  0
LINE
  5
1AA
330
1F
100
AcDbEntity
  8
0
  6
Continuous
 62
     7
370
    25
100
AcDbLine
 10
1017.4607133775
 20
586.0578644958
 30
0.0
 11
1017.6607133775
 21
586.0578644958
 31
0.0
  0
ARC
  5
1AB
330
1F
100
AcDbEntity
  8
0
  6
Continuous
 62
     7
370
    25
100
AcDbCircle
 10
1017.6607133775
 20
587.0578644958
 30
0.0
 40
1.800000000000068
100
AcDbArc
 50
270.0
 51
0.0
  0
ARC
  5
1AC
330
1F
100
AcDbEntity
  8
0
  6
Continuous
 62
     7
370
    25
100
AcDbCircle
 10
1017.6607133775
 20
587.0578644958
 30
0.0
 40
1.000000000000114
100
AcDbArc
 50
270.0
 51
0.0
  0
LINE
  5
1AD
330
1F
100
AcDbEntity
  8
0
  6
Continuous
 62
     7
370
    25
100
AcDbLine
 10
977.4607133775
 20
585.2578644958
 30
0.0
 11
998.4607133775
 21
585.2578644958
 31
0.0
  0
LINE
  5
1AE
330
1F
100
AcDbEntity
  8
0
  6
Continuous
 62
     7
370
    25
100
AcDbLine
 10
977.4607133775
 20
586.0578644958
 30
0.0
 11
998.4607133775
 21
586.0578644958
 31
0.0
  0
LINE
  5
1AF
330
1F
100
AcDbEntity
  8
0
  6
Continuous
 62
     7
370
    25
100
AcDbLine
 10
974.4607133775
 20
585.2578644958
 30
0.0
 11
974.4607133775
 21
586.0578644958
 31
0.0
  0
LINE
  5
1B0
330
1F
100
AcDbEntity
  8
0
  6
Continuous
 62
     7
370
    25
100
AcDbLine
 10
977.4607133775
 20
585.2578644958
 30
0.0
 11
974.4607133775
 21
585.2578644958
 31
0.0
  0
LINE
  5
1B1
330
1F
100
AcDbEntity
  8
0
  6
Continuous
 62
     7
370
    25
100
AcDbLine
 10
974.4607133775
 20
586.0578644958
 30
0.0
 11
977.4607133775
 21
586.0578644958
 31
0.0
  0
ARC
  5
1B2
330
1F
100
AcDbEntity
  8
0
  6
Continuous
 62
     7
370
    25
100
AcDbCircle
 10
993.0986625699
 20
587.0578644958
 30
0.0
 40
0.9999999999999267
100
AcDbArc
 50
240.0
 51
270.0
  0
ARC
  5
1B3
330
1F
100
AcDbEntity
  8
0
  6
Continuous
 62
     7
370
    25
100
AcDbCircle
 10
985.0737914393
 20
588.4578644958
 30
0.0
 40
1.799999999999955
100
AcDbArc
 50
60.0
 51
90.0
  0
ARC
  5
1B4
330
1F
100
AcDbEntity
  8
0
  6
Continuous
 62
     7
370
    25
100
AcDbCircle
 10
985.0737914393
 20
588.4578644958
 30
0.0
 40
1.00000000000004
100
AcDbArc
 50
60.0
 51
90.0
  0
LINE
  5
1B5
330
1F
100
AcDbEntity
  8
0
  6
Continuous
 62
     7
370
    25
100
AcDbLine
 10
992.5986625699
 20
586.191839092
 30
0.0
 11
985.9737914393
 21
590.0167102226
 31
0.0
  0
LINE
  5
1B6
330
1F
100
AcDbEntity
  8
0
  6
Continuous
 62
     7
370
    25
100
AcDbLine
 10
991.2307133775
 20
586.0578644958
 30
0.0
 11
985.5737914393
 21
589.3238898995
 31
0.0
  0
LINE
  5
1B7
330
1F
100
AcDbEntity
  8
0
  6
Continuous
 62
     7
370
    25
100
AcDbLine
 10
978.5560999857
 20
589.4578644958
 30
0.0
 11
985.0737914393
 21
589.4578644958
 31
0.0
  0
LINE
  5
1B8
330
1F
100
AcDbEntity
  8
0
  6
Continuous
 62
     7
370
    25
100
AcDbLine
 10
978.5560999857
 20
590.2578644958
 30
0.0
 11
985.0737914393
 21
590.2578644958
 31
0.0
  0
LINE
  5
1B9
330
1F
100
AcDbEntity
  8
0
  6
Continuous
 62
     7
370
    25
100
AcDbLine
 10
978.5560999857
 20
589.4578644958
 30
0.0
 11
975.5560999857
 21
589.4578644958
 31
0.0
  0
LINE
  5
1BA
330
1F
100
AcDbEntity
  8
0
  6
Continuous
 62
     7
370
    25
100
AcDbLine
 10
975.5560999857
 20
589.4578644958
 30
0.0
 11
975.5560999857
 21
590.2578644958
 31
0.0
  0
LINE
  5
1BB
330
1F
100
AcDbEntity
  8
0
  6
Continuous
 62
     7
370
    25
100
AcDbLine
 10
975.5560999857
 20
590.2578644958
 30
0.0
 11
978.5560999857
 21
590.2578644958
 31
0.0
  0
SPLINE
  5
1BC
330
1F
100
AcDbEntity
  8
0
  6
Continuous
 62
     7
370
    25
100
AcDbSpline
210
0.0
220
0.0
230
1.0
 70
     8
 71
     3
 72
    12
 73
     8
 74
     0
 42
0.000000001
 43
0.00000001
 40
0.0
 40
0.0
 40
0.0
 40
0.0
 40
0.4999999999999811
 40
0.4999999999999811
 40
0.7499999999999906
 40
0.7499999999999906
 40
1.0
 40
1.0
 40
1.0
 40
1.0
 10
1018.046033392094
 20
588.7674332983299
 30
0.0
 10
1018.236527681518
 20
589.002693090773
 30
0.0
 10
1018.35820209458
 20
589.2414777836236
 30
0.0
 10
1018.358858285111
 20
589.6089693161806
 30
0.0
 10
1018.329024283317
 20
589.73134151083
 30
0.0
 10
1018.220094413209
 20
589.9717251959895
 30
0.0
 10
1018.141399226146
 20
590.0904861430512
 30
0.0
 10
1018.046033392094
 20
590.2082626202006
 30
0.0
  0
SPLINE
  5
1BD
330
1F
100
AcDbEntity
  8
0
  6
Continuous
 62
     7
370
    25
100
AcDbSpline
210
0.0
220
0.0
230
1.0
 70
     8
 71
     3
 72
    14
 73
    10
 74
     0
 42
0.000000001
 43
0.00000001
 40
0.0
 40
0.0
 40
0.0
 40
0.0
 40
0.25
 40
0.25
 40
0.5
 40
0.5
 40
0.75
 40
0.75
 40
1.0
 40
1.0
 40
1.0
 40
1.0
 10
1018.046033392093
 20
594.1986938176274
 30
0.0
 10
1018.140908001404
 20
593.8741875883386
 30
0.0
 10
1018.22051292628
 20
593.5417283659443
 30
0.0
 10
1018.329349541174
 20
592.875158451036
 30
0.0
 10
1018.358673146864
 20
592.540082193761
 30
0.0
 10
1018.358608365119
 20
591.8657387235334
 30
0.0
 10
1018.328452171792
 20
591.5239593028543
 30
0.0
 10
1018.218866970426
 20
590.8575453832497
 30
0.0
 10
1018.140323996624
 20
590.5307713372969
 30
0.0
 10
1018.046033392093
 20
590.2082626202006
 30
0.0
  0
SPLINE
  5
1BE
330
1F
100
AcDbEntity
  8
0
  6
Continuous
 62
     7
370
    25
100
AcDbSpline
210
0.0
220
0.0
230
1.0
 70
     8
 71
     3
 72
    12
 73
     8
 74
     0
 42
0.000000001
 43
0.00000001
 40
0.0
 40
0.0
 40
0.0
 40
0.0
 40
0.5
 40
0.5
 40
0.75
 40
0.75
 40
1.0
 40
1.0
 40
1.0
 40
1.0
 10
1018.046033392094
 20
594.1986938176274
 30
0.0
 10
1018.236527681517
 20
594.6149949012818
 30
0.0
 10
1018.35820209458
 20
595.0375334292701
 30
0.0
 10
1018.358858285111
 20
595.6878235687312
 30
0.0
 10
1018.329024283317
 20
595.9043657866455
 30
0.0
 10
1018.220094413209
 20
596.3297337918858
 30
0.0
 10
1018.141399226146
 20
596.539885770871
 30
0.0
 10
1018.046033392094
 20
596.7482956931838
 30
0.0
  0
LINE
  5
1BF
330
1F
100
AcDbEntity
  8
0
  6
Continuous
 62
     7
370
    25
100
AcDbLine
 10
1018.0460333921
 20
596.7482956932
 30
0.0
 11
1018.1439084293
 21
596.5053909429
 31
0.0
  0
LINE
  5
1C0
330
1F
100
AcDbEntity
  8
0
  6
Continuous
 62
     7
370
    25
100
AcDbLine
 10
1018.5607133775
 20
592.2589168466
 30
0.0
 11
1018.5607133775
 21
589.6078644958
 31
0.0
  0
LINE
  5
1C1
330
1F
100
AcDbEntity
  8
0
  6
Continuous
 62
     7
370
    25
100
AcDbLine
 10
1018.5607133775
 20
595.9078644958
 30
0.0
 11
1018.5607133775
 21
592.2589168466
 31
0.0
  0
LINE
  5
1C2
330
1F
100
AcDbEntity
  8
0
  6
Continuous
 62
     7
370
    25
100
AcDbLine
 10
1017.4607133775
 20
594.1986938176
 30
0.0
 11
1018.0460333921
 21
594.1986938176
 31
0.0
  0
LINE
  5
1C3
330
1F
100
AcDbEntity
  8
0
  6
Continuous
 62
     7
370
    25
100
AcDbLine
 10
1017.4607133775
 20
590.2082626202
 30
0.0
 11
1018.0460333921
 21
590.2082626202
 31
0.0
  0
LINE
  5
1C4
330
1F
100
AcDbEntity
  8
0
  6
Continuous
 62
     7
370
    25
100
AcDbLine
 10
1017.4607133775
 20
596.7482956932
 30
0.0
 11
1018.0460333921
 21
596.7482956932
 31
0.0
  0
LINE
  5
1C5
330
1F
100
AcDbEntity
  8
0
  6
Continuous
 62
     7
370
    25
100
AcDbLine
 10
1017.4607133775
 20
588.7674332983
 30
0.0
 11
1018.0460333921
 21
588.7674332983
 31
0.0
  0
LINE
  5
1C6
330
1F
100
AcDbEntity
  8
0
  6
Continuous
 62
     7
370
    25
100
AcDbLine
 10
1021.2607133775
 20
582.7578644958
 30
0.0
 11
1021.2607133775
 21
583.5578644958
 31
0.0
  0
LINE
  5
1C7
330
1F
100
AcDbEntity
  8
0
  6
Continuous
 62
     7
370
    25
100
AcDbLine
 10
1025.5607133775
 20
583.5578644958
 30
0.0
 11
1021.2607133775
 21
583.5578644958
 31
0.0
  0
LINE
  5
1C8
330
1F
100
AcDbEntity
  8
0
  6
Continuous
 62
     7
370
    25
100
AcDbLine
 10
1025.5607133775
 20
582.7578644958
 30
0.0
 11
1021.2607133775
 21
582.7578644958
 31
0.0
  0
LINE
  5
1C9
330
1F
100
AcDbEntity
  8
0
  6
Continuous
 62
     7
370
    25
100
AcDbLine
 10
1026.0107133775
 20
601.0578644958
 30
0.0
 11
1031.1607133775
 21
601.0578644958
 31
0.0
  0
LINE
  5
1CA
330
1F
100
AcDbEntity
  8
0
  6
Continuous
 62
     7
370
    25
100
AcDbLine
 10
1026.0107133775
 20
601.8578644958
 30
0.0
 11
1026.0107133775
 21
601.0578644958
 31
0.0
  0
LINE
  5
1CB
330
1F
100
AcDbEntity
  8
0
  6
Continuous
 62
     7
370
    25
100
AcDbLine
 10
1026.0107133775
 20
601.8578644958
 30
0.0
 11
1031.1607133775
 21
601.8578644958
 31
0.0
  0
LINE
  5
1CC
330
1F
100
AcDbEntity
  8
0
  6
Continuous
 62
     7
370
    25
100
AcDbLine
 10
1031.1607133775
 20
601.8578644958
 30
0.0
 11
1031.1607133775
 21
601.9578644958
 31
0.0
  0
LINE
  5
1CD
330
1F
100
AcDbEntity
  8
0
  6
Continuous
 62
     7
370
    25
100
AcDbLine
 10
1021.2607133775
 20
601.9578644958
 30
0.0
 11
1031.1607133775
 21
601.9578644958
 31
0.0
  0
LINE
  5
1CE
330
1F
100
AcDbEntity
  8
0
  6
Continuous
 62
     7
370
    25
100
AcDbLine
 10
1021.2607133775
 20
601.9578644958
 30
0.0
 11
1021.2607133775
 21
602.7578644958
 31
0.0
  0
LINE
  5
1CF
330
1F
100
AcDbEntity
  8
0
  6
Continuous
 62
     7
370
    25
100
AcDbLine
 10
1031.1607133775
 20
602.7578644958
 30
0.0
 11
1021.2607133775
 21
602.7578644958
 31
0.0
  0
ARC
  5
1D0
330
1F
100
AcDbEntity
  8
0
  6
Continuous
 62
     7
370
    25
100
AcDbCircle
 10
1031.1607133775
 20
601.9078644958
 30
0.0
 40
0.8500000000000227
100
AcDbArc
 50
270.0
 51
90.0
  0
LINE
  5
1D1
330
1F
100
AcDbEntity
  8
0
  6
Continuous
 62
     7
370
    25
100
AcDbLine
 10
1019.4607133775
 20
584.5578644958
 30
0.0
 11
1019.4607133775
 21
600.9578644958
 31
0.0
  0
ARC
  5
1D2
330
1F
100
AcDbEntity
  8
0
  6
Continuous
 62
     7
370
    25
100
AcDbCircle
 10
1021.2607133775
 20
600.9578644958
 30
0.0
 40
1.800000000000068
100
AcDbArc
 50
90.0
 51
180.0
  0
ARC
  5
1D3
330
1F
100
AcDbEntity
  8
0
  6
Continuous
 62
     7
370
    25
100
AcDbCircle
 10
1021.2607133775
 20
600.9578644958
 30
0.0
 40
0.9999999999998863
100
AcDbArc
 50
90.0
 51
180.0
  0
LINE
  5
1D4
330
1F
100
AcDbEntity
  8
0
  6
Continuous
 62
     7
370
    25
100
AcDbLine
 10
1020.2607133775
 20
600.9578644958
 30
0.0
 11
1020.2607133775
 21
584.5578644958
 31
0.0
  0
ARC
  5
1D5
330
1F
100
AcDbEntity
  8
0
  6
Continuous
 62
     7
370
    25
100
AcDbCircle
 10
1021.2607133775
 20
584.5578644958
 30
0.0
 40
1.000000000000114
100
AcDbArc
 50
180.0
 51
270.0
  0
ARC
  5
1D6
330
1F
100
AcDbEntity
  8
0
  6
Continuous
 62
     7
370
    25
100
AcDbCircle
 10
1021.2607133775
 20
584.5578644958
 30
0.0
 40
1.800000000000296
100
AcDbArc
 50
180.0
 51
270.0
  0
CIRCLE
  5
1D7
330
1F
100
AcDbEntity
  8
0
  6
Continuous
 62
     7
370
    25
100
AcDbCircle
 10
1006.9607133775
 20
592.7578644958
 30
0.0
 40
2.458750000016599
  0
CIRCLE
  5
1D8
330
1F
100
AcDbEntity
  8
0
  6
Continuous
 62
     7
370
    25
100
AcDbCircle
 10
1006.9607133775
 20
592.7578644958
 30
0.0
 40
3.000000000000064
  0
ARC
  5
1D9
330
1F
100
AcDbEntity
  8
0
  6
Continuous
 62
     7
370
    25
100
AcDbCircle
 10
1015.5237334797
 20
592.6619264759
 30
0.0
 40
7.786288415096602
100
AcDbArc
 50
4.3702527064
 51
15.2299003794
  0
ARC
  5
1DA
330
1F
100
AcDbEntity
  8
0
  6
Continuous
 62
     7
370
    25
100
AcDbCircle
 10
1022.7629899433
 20
593.5683800782
 30
0.0
 40
0.6107675350078635
100
AcDbArc
 50
296.6101963367
 51
329.1575418587
  0
ARC
  5
1DB
330
1F
100
AcDbEntity
  8
0
  6
Continuous
 62
     7
370
    25
100
AcDbCircle
 10
1013.9569278018
 20
592.4298829831
 30
0.0
 40
9.098942710268561
100
AcDbArc
 50
356.2668736478
 51
3.7331263522
  0
ARC
  5
1DC
330
1F
100
AcDbEntity
  8
0
  6
Continuous
 62
     7
370
    25
100
AcDbCircle
 10
1022.7629899433
 20
592.3835292934
 30
0.0
 40
0.6107675350085212
100
AcDbArc
 50
296.6101963367
 51
329.1575418587
  0
ARC
  5
1DD
330
1F
100
AcDbEntity
  8
0
  6
Continuous
 62
     7
370
    25
100
AcDbCircle
 10
1015.5237334797
 20
592.6637272207
 30
0.0
 40
7.7862884150988
100
AcDbArc
 50
344.7700996206
 51
355.6297472936
  0
ARC
  5
1DE
330
1F
100
AcDbEntity
  8
0
  6
Continuous
 62
     7
370
    25
100
AcDbCircle
 10
1022.9034795989
 20
590.6922621189
 30
0.0
 40
0.1522432420599939
100
AcDbArc
 50
330.9451665855
 51
359.1449116549
  0
LWPOLYLINE
  5
1DF
330
1F
100
AcDbEntity
  8
0
  6
Continuous
 62
     7
370
    25
100
AcDbPolyline
 90
        3
 70
   128
 43
0.0
 10
1023.2873828677
 20
592.2604767508
 10
1023.2711580191
 20
592.076778422
 10
1023.270515876
 20
592.0704014559
  0
ARC
  5
1E0
330
1F
100
AcDbEntity
  8
0
  6
Continuous
 62
     7
370
    25
100
AcDbCircle
 10
1022.7629899433
 20
591.9473489133
 30
0.0
 40
0.6107675350097924
100
AcDbArc
 50
30.8424581414
 51
63.3898036633
  0
ARC
  5
1E1
330
1F
100
AcDbEntity
  8
0
  6
Continuous
 62
     7
370
    25
100
AcDbCircle
 10
1013.8800560221
 20
593.0888618646
 30
0.0
 40
9.175815043419316
100
AcDbArc
 50
357.9327321271
 51
359.6562101109
  0
ARC
  5
1E2
330
1F
100
AcDbEntity
  8
0
  6
Continuous
 62
     7
370
    25
100
AcDbCircle
 10
1015.5237334797
 20
592.8520017708
 30
0.0
 40
7.786288415102574
100
AcDbArc
 50
4.3702527064
 51
15.2299003794
  0
ARC
  5
1E3
330
1F
100
AcDbEntity
  8
0
  6
Continuous
 62
     7
370
    25
100
AcDbCircle
 10
1022.8154418125
 20
594.8023656121
 30
0.0
 40
0.2406805056728504
100
AcDbArc
 50
336.7420981705
 51
23.2579018295
  0
LINE
  5
1E4
330
1F
100
AcDbEntity
  8
0
  6
Continuous
 62
     7
370
    25
100
AcDbLine
 10
1022.2607133775
 20
596.7073671118
 30
0.0
 11
1022.2607133775
 21
596.7578644958
 31
0.0
  0
LINE
  5
1E5
330
1F
100
AcDbEntity
  8
0
  6
Continuous
 62
     7
370
    25
100
AcDbLine
 10
1022.2607133775
 20
588.7578644958
 30
0.0
 11
1022.2607133775
 21
596.7073671118
 31
0.0
  0
LINE
  5
1E6
330
1F
100
AcDbEntity
  8
0
  6
Continuous
 62
     7
370
    25
100
AcDbLine
 10
1023.2873828677
 20
592.0704014559
 30
0.0
 11
1023.0488272099
 21
592.0704014559
 31
0.0
  0
LINE
  5
1E7
330
1F
100
AcDbEntity
  8
0
  6
Continuous
 62
     7
370
    25
100
AcDbLine
 10
1023.2873828677
 20
593.4453275356
 30
0.0
 11
1023.270515876
 21
593.4453275356
 31
0.0
  0
LINE
  5
1E8
330
1F
100
AcDbEntity
  8
0
  6
Continuous
 62
     7
370
    25
100
AcDbLine
 10
1023.2873828677
 20
592.2604767508
 30
0.0
 11
1023.0543325514
 21
592.2604767508
 31
0.0
  0
ARC
  5
1E9
330
1F
100
AcDbEntity
  8
0
  6
Continuous
 62
     7
370
    25
100
AcDbCircle
 10
1001.0022244883
 20
529.0133376721
 30
0.0
 40
1.94250856665536
100
AcDbArc
 50
181.8362067977
 51
271.7254354149
  0
LINE
  5
1EA
330
1F
100
AcDbEntity
  8
0
  6
Continuous
 62
     7
370
    25
100
AcDbLine
 10
999.0607133775
 20
528.9510950963
 30
0.0
 11
999.0607133775
 21
534.0921713331
 31
0.0
  0
LINE
  5
1EB
330
1F
100
AcDbEntity
  8
0
  6
Continuous
 62
     7
370
    25
100
AcDbLine
 10
1015.0607133775
 20
534.0921713331
 30
0.0
 11
1015.0607133775
 21
528.9510950963
 31
0.0
  0
ARC
  5
1EC
330
1F
100
AcDbEntity
  8
0
  6
Continuous
 62
     7
370
    25
100
AcDbCircle
 10
1013.1192022667
 20
529.0133376721
 30
0.0
 40
1.942508566655356
100
AcDbArc
 50
268.2745645851
 51
358.1637932023
  0
LINE
  5
1ED
330
1F
100
AcDbEntity
  8
0
  6
Continuous
 62
     7
370
    25
100
AcDbLine
 10
1013.0607133775
 20
527.0717098547
 30
0.0
 11
1001.0607133775
 21
527.0717098547
 31
0.0
  0
LINE
  5
1EE
330
1F
100
AcDbEntity
  8
0
  6
Continuous
 62
     7
370
    25
100
AcDbLine
 10
999.0607133775
 20
528.2670548096
 30
0.0
 11
999.0607133775
 21
528.9510950963
 31
0.0
  0
ARC
  5
1EF
330
1F
100
AcDbEntity
  8
0
  6
Continuous
 62
     7
370
    25
100
AcDbCircle
 10
1001.0022244883
 20
528.3292973855
 30
0.0
 40
1.942508566655356
100
AcDbArc
 50
181.8362067977
 51
271.7254354149
  0
LINE
  5
1F0
330
1F
100
AcDbEntity
  8
0
  6
Continuous
 62
     7
370
    25
100
AcDbLine
 10
1013.0607133775
 20
526.3876695681
 30
0.0
 11
1001.0607133775
 21
526.3876695681
 31
0.0
  0
LINE
  5
1F1
330
1F
100
AcDbEntity
  8
0
  6
Continuous
 62
     7
370
    25
100
AcDbLine
 10
1015.0607133775
 20
528.9510950963
 30
0.0
 11
1015.0607133775
 21
528.2670548096
 31
0.0
  0
ARC
  5
1F2
330
1F
100
AcDbEntity
  8
0
  6
Continuous
 62
     7
370
    25
100
AcDbCircle
 10
1013.1192022667
 20
528.3292973855
 30
0.0
 40
1.942508566655356
100
AcDbArc
 50
268.2745645851
 51
358.1637932023
  0
LINE
  5
1F3
330
1F
100
AcDbEntity
  8
0
  6
Continuous
 62
     7
370
    25
100
AcDbLine
 10
1015.0607133775
 20
534.0921713331
 30
0.0
 11
1015.0607133775
 21
534.4341914765
 31
0.0
  0
LINE
  5
1F4
330
1F
100
AcDbEntity
  8
0
  6
Continuous
 62
     7
370
    25
100
AcDbLine
 10
999.0607133775
 20
534.4341914765
 30
0.0
 11
999.0607133775
 21
534.0921713331
 31
0.0
  0
LINE
  5
1F5
330
1F
100
AcDbEntity
  8
0
  6
Continuous
 62
     7
370
    25
100
AcDbLine
 10
1015.0607133775
 20
534.2578644958
 30
0.0
 11
1025.5607133775
 21
534.2578644958
 31
0.0
  0
LINE
  5
1F6
330
1F
100
AcDbEntity
  8
0
  6
Continuous
 62
     7
370
    25
100
AcDbLine
 10
999.0607133775
 20
547.2578644958
 30
0.0
 11
999.0607133775
 21
534.4341914765
 31
0.0
  0
ARC
  5
1F7
330
1F
100
AcDbEntity
  8
0
  6
Continuous
 62
     7
370
    25
100
AcDbCircle
 10
1001.0607133775
 20
547.2578644958
 30
0.0
 40
2.0
100
AcDbArc
 50
90.0
 51
180.0
  0
LINE
  5
1F8
330
1F
100
AcDbEntity
  8
0
  6
Continuous
 62
     7
370
    25
100
AcDbLine
 10
1025.5607133775
 20
549.2578644958
 30
0.0
 11
1001.0607133775
 21
549.2578644958
 31
0.0
  0
CIRCLE
  5
1F9
330
1F
100
AcDbEntity
  8
0
  6
Continuous
 62
     7
370
    25
100
AcDbCircle
 10
1006.9607133775
 20
541.7578644958
 30
0.0
 40
3.5
  0
CIRCLE
  5
1FA
330
1F
100
AcDbEntity
  8
0
  6
Continuous
 62
     7
370
    25
100
AcDbCircle
 10
1006.9607133775
 20
291.7578644958
 30
0.0
 40
2.458750000016497
  0
CIRCLE
  5
1FB
330
1F
100
AcDbEntity
  8
0
  6
Continuous
 62
     7
370
    25
100
AcDbCircle
 10
1006.9607133775
 20
291.7578644958
 30
0.0
 40
3.000000000000039
  0
ARC
  5
1FC
330
1F
100
AcDbEntity
  8
0
  6
Continuous
 62
     7
370
    25
100
AcDbCircle
 10
1001.0022244883
 20
279.0133376721
 30
0.0
 40
1.942508566655246
100
AcDbArc
 50
181.8362067977
 51
271.7254354149
  0
LINE
  5
1FD
330
1F
100
AcDbEntity
  8
0
  6
Continuous
 62
     7
370
    25
100
AcDbLine
 10
999.0607133775
 20
278.9510950963
 30
0.0
 11
999.0607133775
 21
284.0921713331
 31
0.0
  0
LINE
  5
1FE
330
1F
100
AcDbEntity
  8
0
  6
Continuous
 62
     7
370
    25
100
AcDbLine
 10
1015.0607133775
 20
284.0921713331
 30
0.0
 11
1015.0607133775
 21
278.9510950963
 31
0.0
  0
ARC
  5
1FF
330
1F
100
AcDbEntity
  8
0
  6
Continuous
 62
     7
370
    25
100
AcDbCircle
 10
1013.1192022667
 20
279.0133376721
 30
0.0
 40
1.94250856665519
100
AcDbArc
 50
268.2745645851
 51
358.1637932023
  0
LINE
  5
200
330
1F
100
AcDbEntity
  8
0
  6
Continuous
 62
     7
370
    25
100
AcDbLine
 10
1013.0607133775
 20
277.0717098547
 30
0.0
 11
1001.0607133775
 21
277.0717098547
 31
0.0
  0
LINE
  5
201
330
1F
100
AcDbEntity
  8
0
  6
Continuous
 62
     7
370
    25
100
AcDbLine
 10
999.0607133775
 20
278.2670548096
 30
0.0
 11
999.0607133775
 21
278.9510950963
 31
0.0
  0
ARC
  5
202
330
1F
100
AcDbEntity
  8
0
  6
Continuous
 62
     7
370
    25
100
AcDbCircle
 10
1001.0022244883
 20
278.3292973855
 30
0.0
 40
1.942508566655362
100
AcDbArc
 50
181.8362067977
 51
271.7254354149
  0
LINE
  5
203
330
1F
100
AcDbEntity
  8
0
  6
Continuous
 62
     7
370
    25
100
AcDbLine
 10
1013.0607133775
 20
276.3876695681
 30
0.0
 11
1001.0607133775
 21
276.3876695681
 31
0.0
  0
LINE
  5
204
330
1F
100
AcDbEntity
  8
0
  6
Continuous
 62
     7
370
    25
100
AcDbLine
 10
1015.0607133775
 20
278.9510950963
 30
0.0
 11
1015.0607133775
 21
278.2670548096
 31
0.0
  0
ARC
  5
205
330
1F
100
AcDbEntity
  8
0
  6
Continuous
 62
     7
370
    25
100
AcDbCircle
 10
1013.1192022667
 20
278.3292973855
 30
0.0
 40
1.942508566655362
100
AcDbArc
 50
268.2745645851
 51
358.1637932023
  0
LINE
  5
206
330
1F
100
AcDbEntity
  8
0
  6
Continuous
 62
     7
370
    25
100
AcDbLine
 10
1015.0607133775
 20
284.0921713331
 30
0.0
 11
1015.0607133775
 21
284.4341914765
 31
0.0
  0
LINE
  5
207
330
1F
100
AcDbEntity
  8
0
  6
Continuous
 62
     7
370
    25
100
AcDbLine
 10
999.0607133775
 20
284.4341914765
 30
0.0
 11
999.0607133775
 21
284.0921713331
 31
0.0
  0
LINE
  5
208
330
1F
100
AcDbEntity
  8
0
  6
Continuous
 62
     7
370
    25
100
AcDbLine
 10
1015.0607133775
 20
284.2578644958
 30
0.0
 11
1025.5607133775
 21
284.2578644958
 31
0.0
  0
LINE
  5
209
330
1F
100
AcDbEntity
  8
0
  6
Continuous
 62
     7
370
    25
100
AcDbLine
 10
1025.5607133775
 20
299.2578644958
 30
0.0
 11
1001.0607133775
 21
299.2578644958
 31
0.0
  0
CIRCLE
  5
20A
330
1F
100
AcDbEntity
  8
0
  6
Continuous
 62
     7
370
    25
100
AcDbCircle
 10
1006.9607133775
 20
291.7578644958
 30
0.0
 40
3.5
  0
ARC
  5
20B
330
1F
100
AcDbEntity
  8
0
  6
Continuous
 62
     7
370
    25
100
AcDbCircle
 10
1001.0607133775
 20
297.2578644958
 30
0.0
 40
2.0
100
AcDbArc
 50
90.0
 51
180.0
  0
LINE
  5
20C
330
1F
100
AcDbEntity
  8
0
  6
Continuous
 62
     7
370
    25
100
AcDbLine
 10
999.0607133775
 20
297.2578644958
 30
0.0
 11
999.0607133775
 21
284.4341914765
 31
0.0
  0
LINE
  5
20D
330
1F
100
AcDbEntity
  8
0
  6
Continuous
 62
     7
370
    25
100
AcDbLine
 10
999.0607133775
 20
49.4235576584
 30
0.0
 11
999.0607133775
 21
54.5646338952
 31
0.0
  0
ARC
  5
20E
330
1F
100
AcDbEntity
  8
0
  6
Continuous
 62
     7
370
    25
100
AcDbCircle
 10
1001.0022244883
 20
54.5023913194
 30
0.0
 40
1.94250856665541
100
AcDbArc
 50
88.2745645851
 51
178.1637932023
  0
LINE
  5
20F
330
1F
100
AcDbEntity
  8
0
  6
Continuous
 62
     7
370
    25
100
AcDbLine
 10
1001.0607133775
 20
56.4440191368
 30
0.0
 11
1013.0607133775
 21
56.4440191368
 31
0.0
  0
ARC
  5
210
330
1F
100
AcDbEntity
  8
0
  6
Continuous
 62
     7
370
    25
100
AcDbCircle
 10
1013.1192022667
 20
54.5023913194
 30
0.0
 40
1.942508566655359
100
AcDbArc
 50
1.8362067977
 51
91.7254354149
  0
LINE
  5
211
330
1F
100
AcDbEntity
  8
0
  6
Continuous
 62
     7
370
    25
100
AcDbLine
 10
1015.0607133775
 20
54.5646338952
 30
0.0
 11
1015.0607133775
 21
49.4235576584
 31
0.0
  0
LINE
  5
212
330
1F
100
AcDbEntity
  8
0
  6
Continuous
 62
     7
370
    25
100
AcDbLine
 10
999.0607133775
 20
54.5646338952
 30
0.0
 11
999.0607133775
 21
55.2486741819
 31
0.0
  0
ARC
  5
213
330
1F
100
AcDbEntity
  8
0
  6
Continuous
 62
     7
370
    25
100
AcDbCircle
 10
1001.0022244883
 20
55.186431606
 30
0.0
 40
1.942508566655359
100
AcDbArc
 50
88.2745645851
 51
178.1637932023
  0
LINE
  5
214
330
1F
100
AcDbEntity
  8
0
  6
Continuous
 62
     7
370
    25
100
AcDbLine
 10
1001.0607133775
 20
57.1280594235
 30
0.0
 11
1013.0607133775
 21
57.1280594235
 31
0.0
  0
LINE
  5
215
330
1F
100
AcDbEntity
  8
0
  6
Continuous
 62
     7
370
    25
100
AcDbLine
 10
1015.0607133775
 20
55.2486741819
 30
0.0
 11
1015.0607133775
 21
54.5646338952
 31
0.0
  0
ARC
  5
216
330
1F
100
AcDbEntity
  8
0
  6
Continuous
 62
     7
370
    25
100
AcDbCircle
 10
1013.1192022667
 20
55.186431606
 30
0.0
 40
1.942508566655275
100
AcDbArc
 50
1.8362067977
 51
91.7254354149
  0
LINE
  5
217
330
1F
100
AcDbEntity
  8
0
  6
Continuous
 62
     7
370
    25
100
AcDbLine
 10
999.0607133775
 20
49.4235576584
 30
0.0
 11
999.0607133775
 21
49.081537515
 31
0.0
  0
LINE
  5
218
330
1F
100
AcDbEntity
  8
0
  6
Continuous
 62
     7
370
    25
100
AcDbLine
 10
1015.0607133775
 20
49.081537515
 30
0.0
 11
1015.0607133775
 21
49.4235576584
 31
0.0
  0
LINE
  5
219
330
1F
100
AcDbEntity
  8
0
  6
Continuous
 62
     7
370
    25
100
AcDbLine
 10
1025.5607133775
 20
49.2578644958
 30
0.0
 11
1015.0607133775
 21
49.2578644958
 31
0.0
  0
CIRCLE
  5
21A
330
1F
100
AcDbEntity
  8
0
  6
Continuous
 62
     7
370
    25
100
AcDbCircle
 10
1006.9607133775
 20
41.7578644958
 30
0.0
 40
3.5
  0
LINE
  5
21B
330
1F
100
AcDbEntity
  8
0
  6
Continuous
 62
     7
370
    25
100
AcDbLine
 10
999.0607133775
 20
49.081537515
 30
0.0
 11
999.0607133775
 21
36.2578644958
 31
0.0
  0
ARC
  5
21C
330
1F
100
AcDbEntity
  8
0
  6
Continuous
 62
     7
370
    25
100
AcDbCircle
 10
1001.0607133775
 20
36.2578644958
 30
0.0
 40
2.0
100
AcDbArc
 50
180.0
 51
270.0
  0
LINE
  5
21D
330
1F
100
AcDbEntity
  8
0
  6
Continuous
 62
     7
370
    25
100
AcDbLine
 10
1001.0607133775
 20
34.2578644958
 30
0.0
 11
1025.5607133775
 21
34.2578644958
 31
0.0
  0
CIRCLE
  5
21E
330
1F
100
AcDbEntity
  8
0
  6
Continuous
 62
     7
370
    25
100
AcDbCircle
 10
1006.9607133775
 20
617.7578644958
 30
0.0
 40
2.458750000016599
  0
CIRCLE
  5
21F
330
1F
100
AcDbEntity
  8
0
  6
Continuous
 62
     7
370
    25
100
AcDbCircle
 10
1006.9607133775
 20
617.7578644958
 30
0.0
 40
2.999999999999916
  0
CIRCLE
  5
220
330
1F
100
AcDbEntity
  8
0
  6
Continuous
 62
     7
370
    25
100
AcDbCircle
 10
1006.9607133775
 20
41.7578644958
 30
0.0
 40
2.458750000016594
  0
CIRCLE
  5
221
330
1F
100
AcDbEntity
  8
0
  6
Continuous
 62
     7
370
    25
100
AcDbCircle
 10
1006.9607133775
 20
41.7578644958
 30
0.0
 40
3.000000000000024
  0
CIRCLE
  5
222
330
1F
100
AcDbEntity
  8
0
  6
Continuous
 62
     7
370
    25
100
AcDbCircle
 10
1006.9607133775
 20
541.7578644958
 30
0.0
 40
2.458750000016497
  0
CIRCLE
  5
223
330
1F
100
AcDbEntity
  8
0
  6
Continuous
 62
     7
370
    25
100
AcDbCircle
 10
1006.9607133775
 20
541.7578644958
 30
0.0
 40
2.999999999999916
  0
LINE
  5
224
330
1F
100
AcDbEntity
  8
0
  6
Continuous
 62
     7
370
    25
100
AcDbLine
 10
850.1443680867
 20
729.1998727312
 30
0.0
 11
850.1443680867
 21
725.1998727312
 31
0.0
  0
LINE
  5
225
330
1F
100
AcDbEntity
  8
0
  6
Continuous
 62
     7
370
    25
100
AcDbLine
 10
850.1443680867
 20
725.1998727312
 30
0.0
 11
850.6443680867
 21
724.6998727312
 31
0.0
  0
LINE
  5
226
330
1F
100
AcDbEntity
  8
0
  6
Continuous
 62
     7
370
    25
100
AcDbLine
 10
850.2007100485
 20
725.1998727312
 30
0.0
 11
850.7007100485
 21
724.6998727312
 31
0.0
  0
LINE
  5
227
330
1F
100
AcDbEntity
  8
0
  6
Continuous
 62
     7
370
    25
100
AcDbLine
 10
850.2007100485
 20
729.1998727312
 30
0.0
 11
850.2007100485
 21
725.1998727312
 31
0.0
  0
LINE
  5
228
330
1F
100
AcDbEntity
  8
0
  6
Continuous
 62
     7
370
    25
100
AcDbLine
 10
-32.8788389374
 20
725.1998727312
 30
0.0
 11
-32.3788389374
 21
724.6998727312
 31
0.0
  0
LINE
  5
229
330
1F
100
AcDbEntity
  8
0
  6
Continuous
 62
     7
370
    25
100
AcDbLine
 10
-32.8788389374
 20
729.1998727312
 30
0.0
 11
-32.8788389374
 21
725.1998727312
 31
0.0
  0
LINE
  5
22A
330
1F
100
AcDbEntity
  8
0
  6
Continuous
 62
     7
370
    25
100
AcDbLine
 10
-27.0283048192
 20
725.1998727312
 30
0.0
 11
-27.0283048192
 21
729.1998727312
 31
0.0
  0
LINE
  5
22B
330
1F
100
AcDbEntity
  8
0
  6
Continuous
 62
     7
370
    25
100
AcDbLine
 10
-27.5283048192
 20
724.6998727312
 30
0.0
 11
-27.0283048192
 21
725.1998727312
 31
0.0
  0
LINE
  5
22C
330
1F
100
AcDbEntity
  8
0
  6
Continuous
 62
     7
370
    25
100
AcDbLine
 10
-32.7124210733
 20
729.1998727312
 30
0.0
 11
-32.7124210733
 21
725.1998727312
 31
0.0
  0
LINE
  5
22D
330
1F
100
AcDbEntity
  8
0
  6
Continuous
 62
     7
370
    25
100
AcDbLine
 10
-32.7124210733
 20
725.1998727312
 30
0.0
 11
-32.2124210733
 21
724.6998727312
 31
0.0
  0
LINE
  5
22E
330
1F
100
AcDbEntity
  8
0
  6
Continuous
 62
     7
370
    25
100
AcDbLine
 10
850.2996357071
 20
725.1998727312
 30
0.0
 11
850.7996357071
 21
724.6998727312
 31
0.0
  0
LINE
  5
22F
330
1F
100
AcDbEntity
  8
0
  6
Continuous
 62
     7
370
    25
100
AcDbLine
 10
850.2996357071
 20
729.1998727312
 30
0.0
 11
850.2996357071
 21
725.1998727312
 31
0.0
  0
LINE
  5
230
330
1F
100
AcDbEntity
  8
0
  6
Continuous
 62
     7
370
    25
100
AcDbLine
 10
855.9764761671
 20
725.1998727312
 30
0.0
 11
855.9764761671
 21
729.1998727312
 31
0.0
  0
LINE
  5
231
330
1F
100
AcDbEntity
  8
0
  6
Continuous
 62
     7
370
    25
100
AcDbLine
 10
855.4764761671
 20
724.6998727312
 30
0.0
 11
855.9764761671
 21
725.1998727312
 31
0.0
  0
ARC
  5
232
330
1F
100
AcDbEntity
  8
0
  6
Continuous
 62
     7
370
    25
100
AcDbCircle
 10
863.0128208011
 20
705.2998727311
 30
0.0
 40
0.5
100
AcDbArc
 50
180.0
 51
0.0
  0
ARC
  5
233
330
1F
100
AcDbEntity
  8
0
  6
Continuous
 62
     7
370
    25
100
AcDbCircle
 10
863.0128208011
 20
716.8998727313
 30
0.0
 40
0.5000000000001137
100
AcDbArc
 50
0.0
 51
180.0
  0
LINE
  5
234
330
1F
100
AcDbEntity
  8
0
  6
Continuous
 62
     7
370
    25
100
AcDbLine
 10
858.7404022383
 20
716.4940553432
 30
0.0
 11
858.5128208011
 21
716.0998727312
 31
0.0
  0
LINE
  5
235
330
1F
100
AcDbEntity
  8
0
  6
Continuous
 62
     7
370
    25
100
AcDbLine
 10
872.9715708011
 20
708.0998727312
 30
0.0
 11
873.5128208011
 21
708.6411227312
 31
0.0
  0
LINE
  5
236
330
1F
100
AcDbEntity
  8
0
  6
Continuous
 62
     7
370
    25
100
AcDbLine
 10
873.5128208011
 20
713.5586227312
 30
0.0
 11
872.9715708011
 21
714.0998727312
 31
0.0
  0
LINE
  5
237
330
1F
100
AcDbEntity
  8
0
  6
Continuous
 62
     7
370
    25
100
AcDbLine
 10
872.9715708011
 20
714.0998727312
 30
0.0
 11
865.5128208011
 21
714.0998727312
 31
0.0
  0
LINE
  5
238
330
1F
100
AcDbEntity
  8
0
  6
Continuous
 62
     7
370
    25
100
AcDbLine
 10
865.5128208011
 20
708.0998727312
 30
0.0
 11
872.9715708011
 21
708.0998727312
 31
0.0
  0
LINE
  5
239
330
1F
100
AcDbEntity
  8
0
  6
Continuous
 62
     7
370
    25
100
AcDbLine
 10
858.5128208011
 20
706.0998727312
 30
0.0
 11
858.7404022383
 21
705.7056901191
 31
0.0
  0
LINE
  5
23A
330
1F
100
AcDbEntity
  8
0
  6
Continuous
 62
     7
370
    25
100
AcDbLine
 10
873.1715708011
 20
714.0998727312
 30
0.0
 11
872.9715708011
 21
714.0998727312
 31
0.0
  0
LINE
  5
23B
330
1F
100
AcDbEntity
  8
0
  6
Continuous
 62
     7
370
    25
100
AcDbLine
 10
872.9715708011
 20
708.0998727312
 30
0.0
 11
873.1715708011
 21
708.0998727312
 31
0.0
  0
LINE
  5
23C
330
1F
100
AcDbEntity
  8
0
  6
Continuous
 62
     7
370
    25
100
AcDbLine
 10
873.1715708011
 20
708.0998727312
 30
0.0
 11
873.7128208011
 21
708.6411227312
 31
0.0
  0
LINE
  5
23D
330
1F
100
AcDbEntity
  8
0
  6
Continuous
 62
     7
370
    25
100
AcDbLine
 10
873.7128208011
 20
713.5586227312
 30
0.0
 11
873.1715708011
 21
714.0998727312
 31
0.0
  0
LINE
  5
23E
330
1F
100
AcDbEntity
  8
0
  6
Continuous
 62
     7
370
    25
100
AcDbLine
 10
-50.1459291989
 20
714.0998727312
 30
0.0
 11
-50.6871791989
 21
713.5586227312
 31
0.0
  0
LINE
  5
23F
330
1F
100
AcDbEntity
  8
0
  6
Continuous
 62
     7
370
    25
100
AcDbLine
 10
-50.6871791989
 20
708.6411227312
 30
0.0
 11
-50.1459291989
 21
708.0998727312
 31
0.0
  0
LINE
  5
240
330
1F
100
AcDbEntity
  8
0
  6
Continuous
 62
     7
370
    25
100
AcDbLine
 10
-50.1459291989
 20
708.0998727312
 30
0.0
 11
-49.9459291989
 21
708.0998727312
 31
0.0
  0
LINE
  5
241
330
1F
100
AcDbEntity
  8
0
  6
Continuous
 62
     7
370
    25
100
AcDbLine
 10
-49.9459291989
 20
714.0998727312
 30
0.0
 11
-50.1459291989
 21
714.0998727312
 31
0.0
  0
LINE
  5
242
330
1F
100
AcDbEntity
  8
0
  6
Continuous
 62
     7
370
    25
100
AcDbLine
 10
-35.8166622947
 20
705.5291912691
 30
0.0
 11
-35.4871791989
 21
706.0998727312
 31
0.0
  0
LINE
  5
243
330
1F
100
AcDbEntity
  8
0
  6
Continuous
 62
     7
370
    25
100
AcDbLine
 10
-42.9871791989
 20
734.2998727312
 30
0.0
 11
-40.0477915076
 21
734.2998727312
 31
0.0
  0
LINE
  5
244
330
1F
100
AcDbEntity
  8
0
  6
Continuous
 62
     7
370
    25
100
AcDbLine
 10
863.0734331097
 20
734.2998727312
 30
0.0
 11
866.0128208011
 21
734.2998727312
 31
0.0
  0
LINE
  5
245
330
1F
100
AcDbEntity
  8
0
  6
Continuous
 62
     7
370
    25
100
AcDbLine
 10
-48.9871791989
 20
734.2998727312
 30
0.0
 11
-42.9871791989
 21
734.2998727312
 31
0.0
  0
LINE
  5
246
330
1F
100
AcDbEntity
  8
0
  6
Continuous
 62
     7
370
    25
100
AcDbLine
 10
866.0128208011
 20
734.2998727312
 30
0.0
 11
872.0128208011
 21
734.2998727312
 31
0.0
  0
ARC
  5
247
330
1F
100
AcDbEntity
  8
0
  6
Continuous
 62
     7
370
    25
100
AcDbCircle
 10
-39.9871791989
 20
716.8998727313
 30
0.0
 40
0.5
100
AcDbArc
 50
0.0
 51
180.0
  0
ARC
  5
248
330
1F
100
AcDbEntity
  8
0
  6
Continuous
 62
     7
370
    25
100
AcDbCircle
 10
-39.9871791989
 20
705.2998727311
 30
0.0
 40
0.5
100
AcDbArc
 50
180.0
 51
0.0
  0
LINE
  5
249
330
1F
100
AcDbEntity
  8
0
  6
Continuous
 62
     7
370
    25
100
AcDbLine
 10
-49.9459291989
 20
714.0998727312
 30
0.0
 11
-50.4871791989
 21
713.5586227312
 31
0.0
  0
LINE
  5
24A
330
1F
100
AcDbEntity
  8
0
  6
Continuous
 62
     7
370
    25
100
AcDbLine
 10
-50.4871791989
 20
708.6411227312
 30
0.0
 11
-49.9459291989
 21
708.0998727312
 31
0.0
  0
LINE
  5
24B
330
1F
100
AcDbEntity
  8
0
  6
Continuous
 62
     7
370
    25
100
AcDbLine
 10
-49.9459291989
 20
708.0998727312
 30
0.0
 11
-42.4871791989
 21
708.0998727312
 31
0.0
  0
LINE
  5
24C
330
1F
100
AcDbEntity
  8
0
  6
Continuous
 62
     7
370
    25
100
AcDbLine
 10
-42.4871791989
 20
714.0998727312
 30
0.0
 11
-49.9459291989
 21
714.0998727312
 31
0.0
  0
LINE
  5
24D
330
1F
100
AcDbEntity
  8
0
  6
Continuous
 62
     7
370
    25
100
AcDbLine
 10
-54.9871791989
 20
736.6998727312
 30
0.0
 11
-42.9871791989
 21
736.6998727312
 31
0.0
  0
LINE
  5
24E
330
1F
100
AcDbEntity
  8
0
  6
Continuous
 62
     7
370
    25
100
AcDbLine
 10
-84.5164685208
 20
729.6998727312
 30
0.0
 11
-60.9871791989
 21
729.6998727312
 31
0.0
  0
LINE
  5
24F
330
1F
100
AcDbEntity
  8
0
  6
Continuous
 62
     7
370
    25
100
AcDbLine
 10
-84.5164685208
 20
739.2998727312
 30
0.0
 11
-84.5164685208
 21
729.6998727312
 31
0.0
  0
LINE
  5
250
330
1F
100
AcDbEntity
  8
0
  6
Continuous
 62
     7
370
    25
100
AcDbLine
 10
907.5421101229
 20
739.2998727312
 30
0.0
 11
907.5421101229
 21
729.6998727312
 31
0.0
  0
LINE
  5
251
330
1F
100
AcDbEntity
  8
0
  6
Continuous
 62
     7
370
    25
100
AcDbLine
 10
884.0128208011
 20
729.6998727312
 30
0.0
 11
907.5421101229
 21
729.6998727312
 31
0.0
  0
ARC
  5
252
330
1F
100
AcDbEntity
  8
0
  6
Continuous
 62
     7
370
    25
100
AcDbCircle
 10
884.0128208011
 20
732.6998727312
 30
0.0
 40
3.000000000000114
100
AcDbArc
 50
180.0
 51
270.0
  0
LINE
  5
253
330
1F
100
AcDbEntity
  8
0
  6
Continuous
 62
     7
370
    25
100
AcDbLine
 10
881.0128208011
 20
732.6998727312
 30
0.0
 11
881.0128208011
 21
733.6998727312
 31
0.0
  0
ARC
  5
254
330
1F
100
AcDbEntity
  8
0
  6
Continuous
 62
     7
370
    25
100
AcDbCircle
 10
878.0128208011
 20
733.6998727312
 30
0.0
 40
3.000000000000114
100
AcDbArc
 50
0.0
 51
90.0
  0
LINE
  5
255
330
1F
100
AcDbEntity
  8
0
  6
Continuous
 62
     7
370
    25
100
AcDbLine
 10
878.0128208011
 20
736.6998727312
 30
0.0
 11
866.0128208011
 21
736.6998727312
 31
0.0
  0
ARC
  5
256
330
1F
100
AcDbEntity
  8
0
  6
Continuous
 62
     7
370
    25
100
AcDbCircle
 10
866.0128208011
 20
733.6998727312
 30
0.0
 40
3.000000000000114
100
AcDbArc
 50
90.0
 51
180.0
  0
LINE
  5
257
330
1F
100
AcDbEntity
  8
0
  6
Continuous
 62
     7
370
    25
100
AcDbLine
 10
863.0128208011
 20
732.6998727312
 30
0.0
 11
863.0128208011
 21
733.6998727312
 31
0.0
  0
ARC
  5
258
330
1F
100
AcDbEntity
  8
0
  6
Continuous
 62
     7
370
    25
100
AcDbCircle
 10
860.0128208011
 20
732.6998727312
 30
0.0
 40
3.000000000000114
100
AcDbArc
 50
270.0
 51
0.0
  0
LINE
  5
259
330
1F
100
AcDbEntity
  8
0
  6
Continuous
 62
     7
370
    25
100
AcDbLine
 10
-36.9871791989
 20
729.6998727312
 30
0.0
 11
860.0128208011
 21
729.6998727312
 31
0.0
  0
LINE
  5
25A
330
1F
100
AcDbEntity
  8
0
  6
Continuous
 62
     7
370
    25
100
AcDbLine
 10
-57.9871791989
 20
732.6998727312
 30
0.0
 11
-57.9871791989
 21
733.6998727312
 31
0.0
  0
ARC
  5
25B
330
1F
100
AcDbEntity
  8
0
  6
Continuous
 62
     7
370
    25
100
AcDbCircle
 10
-54.9871791989
 20
733.6998727312
 30
0.0
 40
3.000000000000057
100
AcDbArc
 50
90.0
 51
180.0
  0
LINE
  5
25C
330
1F
100
AcDbEntity
  8
0
  6
Continuous
 62
     7
370
    25
100
AcDbLine
 10
-39.9871791989
 20
732.6998727312
 30
0.0
 11
-39.9871791989
 21
733.6998727312
 31
0.0
  0
ARC
  5
25D
330
1F
100
AcDbEntity
  8
0
  6
Continuous
 62
     7
370
    25
100
AcDbCircle
 10
-42.9871791989
 20
733.6998727312
 30
0.0
 40
3.000000000000064
100
AcDbArc
 50
0.0
 51
90.0
  0
ARC
  5
25E
330
1F
100
AcDbEntity
  8
0
  6
Continuous
 62
     7
370
    25
100
AcDbCircle
 10
-60.9871791989
 20
732.6998727312
 30
0.0
 40
3.000000000000057
100
AcDbArc
 50
270.0
 51
0.0
  0
ARC
  5
25F
330
1F
100
AcDbEntity
  8
0
  6
Continuous
 62
     7
370
    25
100
AcDbCircle
 10
-36.9871791989
 20
732.6998727312
 30
0.0
 40
3.000000000000057
100
AcDbArc
 50
180.0
 51
270.0
  0
SPLINE
  5
260
330
1F
100
AcDbEntity
  8
0
  6
Continuous
 62
     7
370
    25
100
AcDbSpline
210
0.0
220
0.0
230
1.0
 70
     8
 71
     3
 72
    20
 73
    16
 74
     0
 42
0.000000001
 43
0.00000001
 40
0.0
 40
0.0
 40
0.0
 40
0.0
 40
0.1250000000000107
 40
0.1250000000000107
 40
0.2500000000000214
 40
0.2500000000000214
 40
0.3750000000000321
 40
0.3750000000000321
 40
0.5000000000000429
 40
0.5000000000000429
 40
0.7500000000000346
 40
0.7500000000000346
 40
0.8750000000000173
 40
0.8750000000000173
 40
1.0
 40
1.0
 40
1.0
 40
1.0
 10
906.6128208010614
 20
741.6998727311828
 30
0.0
 10
906.651861531916
 20
741.6998727311828
 30
0.0
 10
906.6903802361157
 20
741.6843361707081
 30
0.0
 10
906.7677869874235
 20
741.6230178187474
 30
0.0
 10
906.8069314054104
 20
741.5765940731605
 30
0.0
 10
906.8840821593254
 20
741.4566432030065
 30
0.0
 10
906.9224097410665
 20
741.383038558723
 30
0.0
 10
906.9999560615431
 20
741.2083081926274
 30
0.0
 10
907.0389322692118
 20
741.1074575637259
 30
0.0
 10
907.1544271256568
 20
740.776172283742
 30
0.0
 10
907.2323395693269
 20
740.508492122358
 30
0.0
 10
907.3478194947278
 20
740.0758180963027
 30
0.0
 10
907.3866852905927
 20
739.9243000094515
 30
0.0
 10
907.4644596242613
 20
739.6148742520654
 30
0.0
 10
907.5030693912161
 20
739.4582519223716
 30
0.0
 10
907.5421101229427
 20
739.2998727311829
 30
0.0
  0
LINE
  5
261
330
1F
100
AcDbEntity
  8
0
  6
Continuous
 62
     7
370
    25
100
AcDbLine
 10
-83.5871791989
 20
741.6998727312
 30
0.0
 11
906.6128208011
 21
741.6998727312
 31
0.0
  0
SPLINE
  5
262
330
1F
100
AcDbEntity
  8
0
  6
Continuous
 62
     7
370
    25
100
AcDbSpline
210
0.0
220
0.0
230
1.0
 70
     8
 71
     3
 72
    20
 73
    16
 74
     0
 42
0.000000001
 43
0.00000001
 40
0.0
 40
0.0
 40
0.0
 40
0.0
 40
0.1249999999999999
 40
0.1249999999999999
 40
0.2499999999999999
 40
0.2499999999999999
 40
0.3749999999999999
 40
0.3749999999999999
 40
0.4999999999999999
 40
0.4999999999999999
 40
0.7499999999999999
 40
0.7499999999999999
 40
0.8749999999999999
 40
0.8749999999999999
 40
1.0
 40
1.0
 40
1.0
 40
1.0
 10
-84.51646852081984
 20
739.299872731183
 30
0.0
 10
-84.47742778996515
 20
739.4582519188336
 30
0.0
 10
-84.43890908576552
 20
739.6144976435254
 30
0.0
 10
-84.36150233445765
 20
739.922489492942
 30
0.0
 10
-84.32235791647086
 20
740.0751336004131
 30
0.0
 10
-84.24520716255569
 20
740.3642178896001
 30
0.0
 10
-84.20687958081469
 20
740.5020224277841
 30
0.0
 10
-84.12933326033806
 20
740.7636411034231
 30
0.0
 10
-84.09035705266949
 20
740.8863874101057
 30
0.0
 10
-83.97486219622458
 20
741.2177117870534
 30
0.0
 10
-83.89694975255446
 20
741.3967229110816
 30
0.0
 10
-83.78146982715351
 20
741.5763380104625
 30
0.0
 10
-83.74260403128852
 20
741.6225823593302
 30
0.0
 10
-83.66482969762006
 20
741.6843356653415
 30
0.0
 10
-83.62621993066527
 20
741.6998727311828
 30
0.0
 10
-83.5871791989386
 20
741.6998727311828
 30
0.0
  0
SPLINE
  5
263
330
1F
100
AcDbEntity
  8
0
  6
Continuous
 62
     7
370
    25
100
AcDbSpline
210
0.0
220
0.0
230
1.0
 70
     8
 71
     3
 72
    20
 73
    16
 74
     0
 42
0.000000001
 43
0.00000001
 40
0.0
 40
0.0
 40
0.0
 40
0.0
 40
0.1250000000000094
 40
0.1250000000000094
 40
0.2500000000000188
 40
0.2500000000000188
 40
0.3750000000000282
 40
0.3750000000000282
 40
0.5000000000000376
 40
0.5000000000000376
 40
0.7500000000000269
 40
0.7500000000000269
 40
0.8750000000000134
 40
0.8750000000000134
 40
1.0
 40
1.0
 40
1.0
 40
1.0
 10
-83.58717919893854
 20
741.6998727311828
 30
0.0
 10
-83.74555838658921
 20
741.6998727311828
 30
0.0
 10
-83.9018041112809
 20
741.6843361707081
 30
0.0
 10
-84.20979596069745
 20
741.6230178187474
 30
0.0
 10
-84.36244006816868
 20
741.5765940731605
 30
0.0
 10
-84.65152435735595
 20
741.4566432030064
 30
0.0
 10
-84.78932889553991
 20
741.3830385587231
 30
0.0
 10
-85.05094757117865
 20
741.2083081926274
 30
0.0
 10
-85.17369387786134
 20
741.1074575637259
 30
0.0
 10
-85.505018254809
 20
740.776172283742
 30
0.0
 10
-85.68402937883724
 20
740.508492122358
 30
0.0
 10
-85.86364447821815
 20
740.0758180963027
 30
0.0
 10
-85.90988882708595
 20
739.9243000094515
 30
0.0
 10
-85.97164213309728
 20
739.6148742520654
 30
0.0
 10
-85.98717919893866
 20
739.4582519223716
 30
0.0
 10
-85.98717919893856
 20
739.299872731183
 30
0.0
  0
SPLINE
  5
264
330
1F
100
AcDbEntity
  8
0
  6
Continuous
 62
     7
370
    25
100
AcDbSpline
210
0.0
220
0.0
230
1.0
 70
     8
 71
     3
 72
     9
 73
     5
 74
     0
 42
0.000000001
 43
0.00000001
 40
0.0
 40
0.0
 40
0.0
 40
0.0
 40
0.482578428729793
 40
1.0
 40
1.0
 40
1.0
 40
1.0
 10
-84.36334943088475
 20
739.9124124703615
 30
0.0
 10
-84.4271576239462
 20
739.8242781290448
 30
0.0
 10
-84.55938109118554
 20
739.6416459679917
 30
0.0
 10
-84.57770039564205
 20
739.416413083947
 30
0.0
 10
-84.58717919893854
 20
739.299872731183
 30
0.0
  0
LINE
  5
265
330
1F
100
AcDbEntity
  8
0
  6
Continuous
 62
     7
370
    25
100
AcDbLine
 10
-85.9871791989
 20
739.2998727312
 30
0.0
 11
-84.5871791989
 21
739.2998727312
 31
0.0
  0
SPLINE
  5
266
330
1F
100
AcDbEntity
  8
0
  6
Continuous
 62
     7
370
    25
100
AcDbSpline
210
0.0
220
0.0
230
1.0
 70
     8
 71
     3
 72
    20
 73
    16
 74
     0
 42
0.000000001
 43
0.00000001
 40
0.0
 40
0.0
 40
0.0
 40
0.0
 40
0.1249999999999913
 40
0.1249999999999913
 40
0.2499999999999826
 40
0.2499999999999826
 40
0.3749999999999739
 40
0.3749999999999739
 40
0.4999999999999651
 40
0.4999999999999651
 40
0.749999999999958
 40
0.749999999999958
 40
0.8749999999999789
 40
0.8749999999999789
 40
1.0
 40
1.0
 40
1.0
 40
1.0
 10
909.0128208010615
 20
739.299872731183
 30
0.0
 10
909.0128208010615
 20
739.4582519188336
 30
0.0
 10
908.9972842405866
 20
739.6144976435253
 30
0.0
 10
908.935965888626
 20
739.922489492942
 30
0.0
 10
908.889542143039
 20
740.075133600413
 30
0.0
 10
908.7695912728849
 20
740.3642178896
 30
0.0
 10
908.6959866286015
 20
740.5020224277841
 30
0.0
 10
908.5212562625059
 20
740.7636411034231
 30
0.0
 10
908.4204056336043
 20
740.8863874101057
 30
0.0
 10
908.0891203536205
 20
741.2177117870534
 30
0.0
 10
907.8214401922365
 20
741.3967229110816
 30
0.0
 10
907.388766166181
 20
741.5763380104626
 30
0.0
 10
907.23724807933
 20
741.6225823593302
 30
0.0
 10
906.927822321944
 20
741.6843356653415
 30
0.0
 10
906.7711999922501
 20
741.6998727311828
 30
0.0
 10
906.6128208010614
 20
741.6998727311828
 30
0.0
  0
LINE
  5
267
330
1F
100
AcDbEntity
  8
0
  6
Continuous
 62
     7
370
    25
100
AcDbLine
 10
909.0128208011
 20
739.2998727312
 30
0.0
 11
907.6128208011
 21
739.2998727312
 31
0.0
  0
SPLINE
  5
268
330
1F
100
AcDbEntity
  8
0
  6
Continuous
 62
     7
370
    25
100
AcDbSpline
210
0.0
220
0.0
230
1.0
 70
     8
 71
     3
 72
     9
 73
     5
 74
     0
 42
0.000000001
 43
0.00000001
 40
0.0
 40
0.0
 40
0.0
 40
0.0
 40
0.6784508005727304
 40
1.0
 40
1.0
 40
1.0
 40
1.0
 10
907.6128208010614
 20
739.299872731183
 30
0.0
 10
907.599571230597
 20
739.4505799356361
 30
0.0
 10
907.5800420761567
 20
739.6727142515307
 30
0.0
 10
907.439194422518
 20
739.8395473564199
 30
0.0
 10
907.3939049722491
 20
739.893192407735
 30
0.0
  0
LINE
  5
269
330
1F
100
AcDbEntity
  8
0
  6
Continuous
 62
     7
370
    25
100
AcDbLine
 10
-84.5871791989
 20
739.2998727312
 30
0.0
 11
-84.5871791989
 21
729.6998727312
 31
0.0
  0
LINE
  5
26A
330
1F
100
AcDbEntity
  8
0
  6
Continuous
 62
     7
370
    25
100
AcDbLine
 10
-85.9871791989
 20
729.6998727312
 30
0.0
 11
-84.5871791989
 21
729.6998727312
 31
0.0
  0
LINE
  5
26B
330
1F
100
AcDbEntity
  8
0
  6
Continuous
 62
     7
370
    25
100
AcDbLine
 10
-85.9871791989
 20
739.2998727312
 30
0.0
 11
-85.9871791989
 21
729.6998727312
 31
0.0
  0
LINE
  5
26C
330
1F
100
AcDbEntity
  8
0
  6
Continuous
 62
     7
370
    25
100
AcDbLine
 10
907.6128208011
 20
739.2998727312
 30
0.0
 11
907.6128208011
 21
729.6998727312
 31
0.0
  0
LINE
  5
26D
330
1F
100
AcDbEntity
  8
0
  6
Continuous
 62
     7
370
    25
100
AcDbLine
 10
909.0128208011
 20
729.6998727312
 30
0.0
 11
907.6128208011
 21
729.6998727312
 31
0.0
  0
LINE
  5
26E
330
1F
100
AcDbEntity
  8
0
  6
Continuous
 62
     7
370
    25
100
AcDbLine
 10
909.0128208011
 20
739.2998727312
 30
0.0
 11
909.0128208011
 21
729.6998727312
 31
0.0
  0
LINE
  5
26F
330
1F
100
AcDbEntity
  8
0
  6
Continuous
 62
     7
370
    25
100
AcDbLine
 10
850.1443680867
 20
725.1998727312
 30
0.0
 11
850.2007100485
 21
725.1998727312
 31
0.0
  0
LINE
  5
270
330
1F
100
AcDbEntity
  8
0
  6
Continuous
 62
     7
370
    25
100
AcDbLine
 10
850.7007100485
 20
724.6998727312
 30
0.0
 11
850.6443680867
 21
724.6998727312
 31
0.0
  0
LINE
  5
271
330
1F
100
AcDbEntity
  8
0
  6
Continuous
 62
     7
370
    25
100
AcDbLine
 10
850.2007100485
 20
725.1998727312
 30
0.0
 11
850.2996357071
 21
725.1998727312
 31
0.0
  0
LINE
  5
272
330
1F
100
AcDbEntity
  8
0
  6
Continuous
 62
     7
370
    25
100
AcDbLine
 10
850.7996357071
 20
724.6998727312
 30
0.0
 11
850.7007100485
 21
724.6998727312
 31
0.0
  0
LINE
  5
273
330
1F
100
AcDbEntity
  8
0
  6
Continuous
 62
     7
370
    25
100
AcDbLine
 10
-32.2124210733
 20
724.6998727312
 30
0.0
 11
-32.3788389374
 21
724.6998727312
 31
0.0
  0
LINE
  5
274
330
1F
100
AcDbEntity
  8
0
  6
Continuous
 62
     7
370
    25
100
AcDbLine
 10
-32.8788389374
 20
725.1998727312
 30
0.0
 11
-32.7124210733
 21
725.1998727312
 31
0.0
  0
LINE
  5
275
330
1F
100
AcDbEntity
  8
0
  6
Continuous
 62
     7
370
    25
100
AcDbLine
 10
-32.1385604637
 20
725.1998727312
 30
0.0
 11
-28.7703279555
 21
725.1998727312
 31
0.0
  0
LINE
  5
276
330
1F
100
AcDbEntity
  8
0
  6
Continuous
 62
     7
370
    25
100
AcDbLine
 10
-29.1329488927
 20
724.6998727312
 30
0.0
 11
-31.6591232738
 21
724.6998727312
 31
0.0
  0
LINE
  5
277
330
1F
100
AcDbEntity
  8
0
  6
Continuous
 62
     7
370
    25
100
AcDbLine
 10
-28.7703279555
 20
725.1998727312
 30
0.0
 11
-27.5778210704
 21
725.1998727312
 31
0.0
  0
LINE
  5
278
330
1F
100
AcDbEntity
  8
0
  6
Continuous
 62
     7
370
    25
100
AcDbLine
 10
-27.9404420076
 20
724.6998727312
 30
0.0
 11
-29.1329488927
 21
724.6998727312
 31
0.0
  0
LINE
  5
279
330
1F
100
AcDbEntity
  8
0
  6
Continuous
 62
     7
370
    25
100
AcDbLine
 10
-32.6301698328
 20
725.1998727312
 30
0.0
 11
-32.1385604637
 21
725.1998727312
 31
0.0
  0
LINE
  5
27A
330
1F
100
AcDbEntity
  8
0
  6
Continuous
 62
     7
370
    25
100
AcDbLine
 10
-31.6591232738
 20
724.6998727312
 30
0.0
 11
-32.1507326429
 21
724.6998727312
 31
0.0
  0
LINE
  5
27B
330
1F
100
AcDbEntity
  8
0
  6
Continuous
 62
     7
370
    25
100
AcDbLine
 10
-27.5778210704
 20
725.1998727312
 30
0.0
 11
-27.0283048192
 21
725.1998727312
 31
0.0
  0
LINE
  5
27C
330
1F
100
AcDbEntity
  8
0
  6
Continuous
 62
     7
370
    25
100
AcDbLine
 10
-27.5283048192
 20
724.6998727312
 30
0.0
 11
-27.9404420076
 21
724.6998727312
 31
0.0
  0
LINE
  5
27D
330
1F
100
AcDbEntity
  8
0
  6
Continuous
 62
     7
370
    25
100
AcDbLine
 10
-32.7124210733
 20
725.1998727312
 30
0.0
 11
-32.6301698328
 21
725.1998727312
 31
0.0
  0
LINE
  5
27E
330
1F
100
AcDbEntity
  8
0
  6
Continuous
 62
     7
370
    25
100
AcDbLine
 10
-32.1507326429
 20
724.6998727312
 30
0.0
 11
-32.2124210733
 21
724.6998727312
 31
0.0
  0
LINE
  5
27F
330
1F
100
AcDbEntity
  8
0
  6
Continuous
 62
     7
370
    25
100
AcDbLine
 10
852.6753411152
 20
724.6998727312
 30
0.0
 11
850.7996357071
 21
724.6998727312
 31
0.0
  0
LINE
  5
280
330
1F
100
AcDbEntity
  8
0
  6
Continuous
 62
     7
370
    25
100
AcDbLine
 10
850.2996357071
 20
725.1998727312
 30
0.0
 11
852.8005762512
 21
725.1998727312
 31
0.0
  0
LINE
  5
281
330
1F
100
AcDbEntity
  8
0
  6
Continuous
 62
     7
370
    25
100
AcDbLine
 10
852.8005762512
 20
725.1998727312
 30
0.0
 11
854.4774167112
 21
725.1998727312
 31
0.0
  0
LINE
  5
282
330
1F
100
AcDbEntity
  8
0
  6
Continuous
 62
     7
370
    25
100
AcDbLine
 10
854.3521815752
 20
724.6998727312
 30
0.0
 11
852.6753411152
 21
724.6998727312
 31
0.0
  0
LINE
  5
283
330
1F
100
AcDbEntity
  8
0
  6
Continuous
 62
     7
370
    25
100
AcDbLine
 10
854.4774167112
 20
725.1998727312
 30
0.0
 11
855.9764761671
 21
725.1998727312
 31
0.0
  0
LINE
  5
284
330
1F
100
AcDbEntity
  8
0
  6
Continuous
 62
     7
370
    25
100
AcDbLine
 10
855.4764761671
 20
724.6998727312
 30
0.0
 11
854.3521815752
 21
724.6998727312
 31
0.0
  0
LINE
  5
285
330
1F
100
AcDbEntity
  8
0
  6
Continuous
 62
     7
370
    25
100
AcDbLine
 10
861.5128208011
 20
721.5998727312
 30
0.0
 11
862.7128208011
 21
721.5998727312
 31
0.0
  0
LINE
  5
286
330
1F
100
AcDbEntity
  8
0
  6
Continuous
 62
     7
370
    25
100
AcDbLine
 10
862.7128208011
 20
702.5998727312
 30
0.0
 11
859.5128208011
 21
702.5998727312
 31
0.0
  0
LINE
  5
287
330
1F
100
AcDbEntity
  8
0
  6
Continuous
 62
     7
370
    25
100
AcDbLine
 10
859.5128208011
 20
702.5998727312
 30
0.0
 11
859.5128208011
 21
681.5998727312
 31
0.0
  0
ARC
  5
288
330
1F
100
AcDbEntity
  8
0
  6
Continuous
 62
     7
370
    25
100
AcDbCircle
 10
812.5128208011
 20
681.5998727312
 30
0.0
 40
3.0
100
AcDbArc
 50
180.0
 51
270.0
  0
LINE
  5
289
330
1F
100
AcDbEntity
  8
0
  6
Continuous
 62
     7
370
    25
100
AcDbLine
 10
809.5128208011
 20
697.7298727312
 30
0.0
 11
807.0128208011
 21
697.7298727312
 31
0.0
  0
LINE
  5
28A
330
1F
100
AcDbEntity
  8
0
  6
Continuous
 62
     7
370
    25
100
AcDbLine
 10
807.0128208011
 20
697.2378219236
 30
0.0
 11
807.0128208011
 21
697.7298727312
 31
0.0
  0
LINE
  5
28B
330
1F
100
AcDbEntity
  8
0
  6
Continuous
 62
     7
370
    25
100
AcDbLine
 10
607.0128208011
 20
697.2378219236
 30
0.0
 11
607.0128208011
 21
697.7298727312
 31
0.0
  0
LINE
  5
28C
330
1F
100
AcDbEntity
  8
0
  6
Continuous
 62
     7
370
    25
100
AcDbLine
 10
607.0128208011
 20
697.7298727312
 30
0.0
 11
604.5128208011
 21
697.7298727312
 31
0.0
  0
LINE
  5
28D
330
1F
100
AcDbEntity
  8
0
  6
Continuous
 62
     7
370
    25
100
AcDbLine
 10
514.0128208011
 20
697.7298727312
 30
0.0
 11
511.5128208011
 21
697.7298727312
 31
0.0
  0
LINE
  5
28E
330
1F
100
AcDbEntity
  8
0
  6
Continuous
 62
     7
370
    25
100
AcDbLine
 10
511.5128208011
 20
697.2378219236
 30
0.0
 11
511.5128208011
 21
697.7298727312
 31
0.0
  0
LINE
  5
28F
330
1F
100
AcDbEntity
  8
0
  6
Continuous
 62
     7
370
    25
100
AcDbLine
 10
311.5128208011
 20
697.2378219236
 30
0.0
 11
311.5128208011
 21
697.7298727312
 31
0.0
  0
LINE
  5
290
330
1F
100
AcDbEntity
  8
0
  6
Continuous
 62
     7
370
    25
100
AcDbLine
 10
311.5128208011
 20
697.7298727312
 30
0.0
 11
309.0128208011
 21
697.7298727312
 31
0.0
  0
ARC
  5
291
330
1F
100
AcDbEntity
  8
0
  6
Continuous
 62
     7
370
    25
100
AcDbCircle
 10
306.0128208011
 20
681.5998727312
 30
0.0
 40
3.0
100
AcDbArc
 50
270.0
 51
0.0
  0
ARC
  5
292
330
1F
100
AcDbEntity
  8
0
  6
Continuous
 62
     7
370
    25
100
AcDbCircle
 10
221.5128208011
 20
681.5998727312
 30
0.0
 40
3.0
100
AcDbArc
 50
180.0
 51
270.0
  0
LINE
  5
293
330
1F
100
AcDbEntity
  8
0
  6
Continuous
 62
     7
370
    25
100
AcDbLine
 10
218.5128208011
 20
697.7298727312
 30
0.0
 11
216.0128208011
 21
697.7298727312
 31
0.0
  0
LINE
  5
294
330
1F
100
AcDbEntity
  8
0
  6
Continuous
 62
     7
370
    25
100
AcDbLine
 10
216.0128208011
 20
697.2378219236
 30
0.0
 11
216.0128208011
 21
697.7298727312
 31
0.0
  0
LINE
  5
295
330
1F
100
AcDbEntity
  8
0
  6
Continuous
 62
     7
370
    25
100
AcDbLine
 10
16.0128208011
 20
697.2378219236
 30
0.0
 11
16.0128208011
 21
697.7298727312
 31
0.0
  0
LINE
  5
296
330
1F
100
AcDbEntity
  8
0
  6
Continuous
 62
     7
370
    25
100
AcDbLine
 10
16.0128208011
 20
697.7298727312
 30
0.0
 11
13.5128208011
 21
697.7298727312
 31
0.0
  0
LINE
  5
297
330
1F
100
AcDbEntity
  8
0
  6
Continuous
 62
     7
370
    25
100
AcDbLine
 10
13.5128208011
 20
697.7298727312
 30
0.0
 11
13.5128208011
 21
681.5998727312
 31
0.0
  0
LINE
  5
298
330
1F
100
AcDbEntity
  8
0
  6
Continuous
 62
     7
370
    25
100
AcDbLine
 10
10.5128208011
 20
678.5998727312
 30
0.0
 11
-33.4871791989
 21
678.5998727312
 31
0.0
  0
LINE
  5
299
330
1F
100
AcDbEntity
  8
0
  6
Continuous
 62
     7
370
    25
100
AcDbLine
 10
-36.4871791989
 20
702.5998727312
 30
0.0
 11
-39.6871791989
 21
702.5998727312
 31
0.0
  0
LINE
  5
29A
330
1F
100
AcDbEntity
  8
0
  6
Continuous
 62
     7
370
    25
100
AcDbLine
 10
-39.6871791989
 20
721.5998727312
 30
0.0
 11
-38.4871791989
 21
721.5998727312
 31
0.0
  0
LINE
  5
29B
330
1F
100
AcDbEntity
  8
0
  6
Continuous
 62
     7
370
    25
100
AcDbLine
 10
-38.4871791989
 20
721.5998727312
 30
0.0
 11
-38.4871791989
 21
721.7998727312
 31
0.0
  0
LINE
  5
29C
330
1F
100
AcDbEntity
  8
0
  6
Continuous
 62
     7
370
    25
100
AcDbLine
 10
861.5128208011
 20
721.7998727312
 30
0.0
 11
861.5128208011
 21
721.5998727312
 31
0.0
  0
ARC
  5
29D
330
1F
100
AcDbEntity
  8
0
  6
Continuous
 62
     7
370
    25
100
AcDbCircle
 10
-33.4871791989
 20
681.5998727312
 30
0.0
 40
3.000000000000007
100
AcDbArc
 50
180.0
 51
270.0
  0
ARC
  5
29E
330
1F
100
AcDbEntity
  8
0
  6
Continuous
 62
     7
370
    25
100
AcDbCircle
 10
10.5128208011
 20
681.5998727312
 30
0.0
 40
3.000000000000002
100
AcDbArc
 50
270.0
 51
0.0
  0
LINE
  5
29F
330
1F
100
AcDbEntity
  8
0
  6
Continuous
 62
     7
370
    25
100
AcDbLine
 10
514.0128208011
 20
681.5998727312
 30
0.0
 11
514.0128208011
 21
697.7298727312
 31
0.0
  0
LINE
  5
2A0
330
1F
100
AcDbEntity
  8
0
  6
Continuous
 62
     7
370
    25
100
AcDbLine
 10
856.5128208011
 20
678.5998727312
 30
0.0
 11
812.5128208011
 21
678.5998727312
 31
0.0
  0
LINE
  5
2A1
330
1F
100
AcDbEntity
  8
0
  6
Continuous
 62
     7
370
    25
100
AcDbLine
 10
-36.4871791989
 20
681.5998727312
 30
0.0
 11
-36.4871791989
 21
702.5998727312
 31
0.0
  0
LINE
  5
2A2
330
1F
100
AcDbEntity
  8
0
  6
Continuous
 62
     7
370
    25
100
AcDbLine
 10
809.5128208011
 20
681.5998727312
 30
0.0
 11
809.5128208011
 21
697.7298727312
 31
0.0
  0
ARC
  5
2A3
330
1F
100
AcDbEntity
  8
0
  6
Continuous
 62
     7
370
    25
100
AcDbCircle
 10
601.5128208011
 20
681.5998727312
 30
0.0
 40
3.0
100
AcDbArc
 50
270.0
 51
0.0
  0
ARC
  5
2A4
330
1F
100
AcDbEntity
  8
0
  6
Continuous
 62
     7
370
    25
100
AcDbCircle
 10
517.0128208011
 20
681.5998727312
 30
0.0
 40
3.0
100
AcDbArc
 50
180.0
 51
270.0
  0
ARC
  5
2A5
330
1F
100
AcDbEntity
  8
0
  6
Continuous
 62
     7
370
    25
100
AcDbCircle
 10
856.5128208011
 20
681.5998727312
 30
0.0
 40
3.0
100
AcDbArc
 50
270.0
 51
0.0
  0
LINE
  5
2A6
330
1F
100
AcDbEntity
  8
0
  6
Continuous
 62
     7
370
    25
100
AcDbLine
 10
218.5128208011
 20
681.5998727312
 30
0.0
 11
218.5128208011
 21
697.7298727312
 31
0.0
  0
LINE
  5
2A7
330
1F
100
AcDbEntity
  8
0
  6
Continuous
 62
     7
370
    25
100
AcDbLine
 10
309.0128208011
 20
697.7298727312
 30
0.0
 11
309.0128208011
 21
681.5998727312
 31
0.0
  0
LINE
  5
2A8
330
1F
100
AcDbEntity
  8
0
  6
Continuous
 62
     7
370
    25
100
AcDbLine
 10
306.0128208011
 20
678.5998727312
 30
0.0
 11
221.5128208011
 21
678.5998727312
 31
0.0
  0
LINE
  5
2A9
330
1F
100
AcDbEntity
  8
0
  6
Continuous
 62
     7
370
    25
100
AcDbLine
 10
604.5128208011
 20
697.7298727312
 30
0.0
 11
604.5128208011
 21
681.5998727312
 31
0.0
  0
LINE
  5
2AA
330
1F
100
AcDbEntity
  8
0
  6
Continuous
 62
     7
370
    25
100
AcDbLine
 10
601.5128208011
 20
678.5998727312
 30
0.0
 11
517.0128208011
 21
678.5998727312
 31
0.0
  0
LINE
  5
2AB
330
1F
100
AcDbEntity
  8
0
  6
Continuous
 62
     7
370
    25
100
AcDbLine
 10
807.0128208011
 20
697.2378219236
 30
0.0
 11
807.0128208011
 21
696.3378219236
 31
0.0
  0
LINE
  5
2AC
330
1F
100
AcDbEntity
  8
0
  6
Continuous
 62
     7
370
    25
100
AcDbLine
 10
607.0128208011
 20
696.3378219236
 30
0.0
 11
607.0128208011
 21
697.2378219236
 31
0.0
  0
LINE
  5
2AD
330
1F
100
AcDbEntity
  8
0
  6
Continuous
 62
     7
370
    25
100
AcDbLine
 10
16.0128208011
 20
696.3378219236
 30
0.0
 11
16.0128208011
 21
697.2378219236
 31
0.0
  0
LINE
  5
2AE
330
1F
100
AcDbEntity
  8
0
  6
Continuous
 62
     7
370
    25
100
AcDbLine
 10
216.0128208011
 20
697.2378219236
 30
0.0
 11
216.0128208011
 21
696.3378219236
 31
0.0
  0
LINE
  5
2AF
330
1F
100
AcDbEntity
  8
0
  6
Continuous
 62
     7
370
    25
100
AcDbLine
 10
311.5128208011
 20
696.3378219236
 30
0.0
 11
311.5128208011
 21
697.2378219236
 31
0.0
  0
LINE
  5
2B0
330
1F
100
AcDbEntity
  8
0
  6
Continuous
 62
     7
370
    25
100
AcDbLine
 10
511.5128208011
 20
697.2378219236
 30
0.0
 11
511.5128208011
 21
696.3378219236
 31
0.0
  0
LINE
  5
2B1
330
1F
100
AcDbEntity
  8
0
  6
Continuous
 62
     7
370
    25
100
AcDbLine
 10
-39.6871791989
 20
702.5998727312
 30
0.0
 11
-41.4871791989
 21
702.5998727312
 31
0.0
  0
LINE
  5
2B2
330
1F
100
AcDbEntity
  8
0
  6
Continuous
 62
     7
370
    25
100
AcDbLine
 10
-41.4871791989
 20
702.5998727312
 30
0.0
 11
-41.4871791989
 21
703.1998727312
 31
0.0
  0
LINE
  5
2B3
330
1F
100
AcDbEntity
  8
0
  6
Continuous
 62
     7
370
    25
100
AcDbLine
 10
-40.4871791989
 20
721.5998727312
 30
0.0
 11
-39.6871791989
 21
721.5998727312
 31
0.0
  0
LINE
  5
2B4
330
1F
100
AcDbEntity
  8
0
  6
Continuous
 62
     7
370
    25
100
AcDbLine
 10
862.7128208011
 20
721.5998727312
 30
0.0
 11
863.5128208011
 21
721.5998727312
 31
0.0
  0
LINE
  5
2B5
330
1F
100
AcDbEntity
  8
0
  6
Continuous
 62
     7
370
    25
100
AcDbLine
 10
864.5128208011
 20
702.5998727312
 30
0.0
 11
864.5128208011
 21
703.1998727312
 31
0.0
  0
LINE
  5
2B6
330
1F
100
AcDbEntity
  8
0
  6
Continuous
 62
     7
370
    25
100
AcDbLine
 10
864.5128208011
 20
702.5998727312
 30
0.0
 11
862.7128208011
 21
702.5998727312
 31
0.0
  0
LINE
  5
2B7
330
1F
100
AcDbEntity
  8
0
  6
Continuous
 62
     7
370
    25
100
AcDbLine
 10
861.5128208011
 20
723.5998727312
 30
0.0
 11
861.5128208011
 21
721.7998727312
 31
0.0
  0
LINE
  5
2B8
330
1F
100
AcDbEntity
  8
0
  6
Continuous
 62
     7
370
    25
100
AcDbLine
 10
-38.4871791989
 20
721.7998727312
 30
0.0
 11
-38.4871791989
 21
723.5998727312
 31
0.0
  0
LINE
  5
2B9
330
1F
100
AcDbEntity
  8
0
  6
Continuous
 62
     7
370
    25
100
AcDbLine
 10
311.5128208011
 20
696.3378219236
 30
0.0
 11
311.5128208011
 21
689.712950793
 31
0.0
  0
LINE
  5
2BA
330
1F
100
AcDbEntity
  8
0
  6
Continuous
 62
     7
370
    25
100
AcDbLine
 10
511.5128208011
 20
689.712950793
 30
0.0
 11
511.5128208011
 21
696.3378219236
 31
0.0
  0
LINE
  5
2BB
330
1F
100
AcDbEntity
  8
0
  6
Continuous
 62
     7
370
    25
100
AcDbLine
 10
16.0128208011
 20
696.3378219236
 30
0.0
 11
16.0128208011
 21
689.712950793
 31
0.0
  0
LINE
  5
2BC
330
1F
100
AcDbEntity
  8
0
  6
Continuous
 62
     7
370
    25
100
AcDbLine
 10
216.0128208011
 20
689.712950793
 30
0.0
 11
216.0128208011
 21
696.3378219236
 31
0.0
  0
LINE
  5
2BD
330
1F
100
AcDbEntity
  8
0
  6
Continuous
 62
     7
370
    25
100
AcDbLine
 10
607.0128208011
 20
696.3378219236
 30
0.0
 11
607.0128208011
 21
689.712950793
 31
0.0
  0
LINE
  5
2BE
330
1F
100
AcDbEntity
  8
0
  6
Continuous
 62
     7
370
    25
100
AcDbLine
 10
807.0128208011
 20
689.712950793
 30
0.0
 11
807.0128208011
 21
696.3378219236
 31
0.0
  0
LINE
  5
2BF
330
1F
100
AcDbEntity
  8
0
  6
Continuous
 62
     7
370
    25
100
AcDbLine
 10
807.0128208011
 20
689.212950793
 30
0.0
 11
807.0128208011
 21
689.712950793
 31
0.0
  0
LINE
  5
2C0
330
1F
100
AcDbEntity
  8
0
  6
Continuous
 62
     7
370
    25
100
AcDbLine
 10
607.0128208011
 20
689.712950793
 30
0.0
 11
607.0128208011
 21
689.212950793
 31
0.0
  0
LINE
  5
2C1
330
1F
100
AcDbEntity
  8
0
  6
Continuous
 62
     7
370
    25
100
AcDbLine
 10
311.5128208011
 20
689.712950793
 30
0.0
 11
311.5128208011
 21
689.212950793
 31
0.0
  0
LINE
  5
2C2
330
1F
100
AcDbEntity
  8
0
  6
Continuous
 62
     7
370
    25
100
AcDbLine
 10
511.5128208011
 20
689.212950793
 30
0.0
 11
511.5128208011
 21
689.712950793
 31
0.0
  0
LINE
  5
2C3
330
1F
100
AcDbEntity
  8
0
  6
Continuous
 62
     7
370
    25
100
AcDbLine
 10
216.0128208011
 20
689.212950793
 30
0.0
 11
216.0128208011
 21
689.712950793
 31
0.0
  0
LINE
  5
2C4
330
1F
100
AcDbEntity
  8
0
  6
Continuous
 62
     7
370
    25
100
AcDbLine
 10
16.0128208011
 20
689.712950793
 30
0.0
 11
16.0128208011
 21
689.212950793
 31
0.0
  0
ARC
  5
2C5
330
1F
100
AcDbEntity
  8
0
  6
Continuous
 62
     7
370
    25
100
AcDbCircle
 10
314.5128208011
 20
682.6952593394
 30
0.0
 40
3.0
100
AcDbArc
 50
180.0
 51
270.0
  0
LINE
  5
2C6
330
1F
100
AcDbEntity
  8
0
  6
Continuous
 62
     7
370
    25
100
AcDbLine
 10
311.5128208011
 20
682.6952593394
 30
0.0
 11
311.5128208011
 21
689.212950793
 31
0.0
  0
ARC
  5
2C7
330
1F
100
AcDbEntity
  8
0
  6
Continuous
 62
     7
370
    25
100
AcDbCircle
 10
508.5128208011
 20
682.6952593394
 30
0.0
 40
3.0
100
AcDbArc
 50
270.0
 51
0.0
  0
LINE
  5
2C8
330
1F
100
AcDbEntity
  8
0
  6
Continuous
 62
     7
370
    25
100
AcDbLine
 10
508.5128208011
 20
679.6952593394
 30
0.0
 11
314.5128208011
 21
679.6952593394
 31
0.0
  0
LINE
  5
2C9
330
1F
100
AcDbEntity
  8
0
  6
Continuous
 62
     7
370
    25
100
AcDbLine
 10
511.5128208011
 20
689.212950793
 30
0.0
 11
511.5128208011
 21
682.6952593394
 31
0.0
  0
ARC
  5
2CA
330
1F
100
AcDbEntity
  8
0
  6
Continuous
 62
     7
370
    25
100
AcDbCircle
 10
610.0128208011
 20
682.6952593394
 30
0.0
 40
3.0
100
AcDbArc
 50
180.0
 51
270.0
  0
LINE
  5
2CB
330
1F
100
AcDbEntity
  8
0
  6
Continuous
 62
     7
370
    25
100
AcDbLine
 10
607.0128208011
 20
682.6952593394
 30
0.0
 11
607.0128208011
 21
689.212950793
 31
0.0
  0
ARC
  5
2CC
330
1F
100
AcDbEntity
  8
0
  6
Continuous
 62
     7
370
    25
100
AcDbCircle
 10
804.0128208011
 20
682.6952593394
 30
0.0
 40
3.0
100
AcDbArc
 50
270.0
 51
0.0
  0
LINE
  5
2CD
330
1F
100
AcDbEntity
  8
0
  6
Continuous
 62
     7
370
    25
100
AcDbLine
 10
804.0128208011
 20
679.6952593394
 30
0.0
 11
610.0128208011
 21
679.6952593394
 31
0.0
  0
LINE
  5
2CE
330
1F
100
AcDbEntity
  8
0
  6
Continuous
 62
     7
370
    25
100
AcDbLine
 10
807.0128208011
 20
689.212950793
 30
0.0
 11
807.0128208011
 21
682.6952593394
 31
0.0
  0
ARC
  5
2CF
330
1F
100
AcDbEntity
  8
0
  6
Continuous
 62
     7
370
    25
100
AcDbCircle
 10
213.0128208011
 20
682.6952593394
 30
0.0
 40
3.0
100
AcDbArc
 50
270.0
 51
0.0
  0
LINE
  5
2D0
330
1F
100
AcDbEntity
  8
0
  6
Continuous
 62
     7
370
    25
100
AcDbLine
 10
213.0128208011
 20
679.6952593394
 30
0.0
 11
19.0128208011
 21
679.6952593394
 31
0.0
  0
ARC
  5
2D1
330
1F
100
AcDbEntity
  8
0
  6
Continuous
 62
     7
370
    25
100
AcDbCircle
 10
19.0128208011
 20
682.6952593394
 30
0.0
 40
3.000000000000004
100
AcDbArc
 50
180.0
 51
270.0
  0
LINE
  5
2D2
330
1F
100
AcDbEntity
  8
0
  6
Continuous
 62
     7
370
    25
100
AcDbLine
 10
16.0128208011
 20
682.6952593394
 30
0.0
 11
16.0128208011
 21
689.212950793
 31
0.0
  0
LINE
  5
2D3
330
1F
100
AcDbEntity
  8
0
  6
Continuous
 62
     7
370
    25
100
AcDbLine
 10
216.0128208011
 20
689.212950793
 30
0.0
 11
216.0128208011
 21
682.6952593394
 31
0.0
  0
SPLINE
  5
2D4
330
1F
100
AcDbEntity
  8
0
  6
Continuous
 62
     7
370
    25
100
AcDbSpline
210
0.0
220
0.0
230
1.0
 70
    24
 71
     3
 72
    19
 73
    15
 74
     0
 42
0.000000001
 43
0.00000001
 40
0.0
 40
0.0
 40
0.0
 40
0.0
 40
0.1260638187928839
 40
0.1939261817305621
 40
0.2632286813759849
 40
0.3325311810214079
 40
0.4003935439590843
 40
0.5264573627519694
 40
0.6525211815448548
 40
0.7203835444825296
 40
0.7896860441279532
 40
0.8589885437733787
 40
0.9268509067110525
 40
1.0
 40
1.0
 40
1.0
 40
1.0
 10
862.5128208010614
 20
716.8272610865622
 30
0.0
 10
862.5128208010615
 20
716.6356731756259
 30
0.0
 10
862.5128208010615
 20
716.3409501346346
 30
0.0
 10
862.5128208010614
 20
715.4136956117941
 30
0.0
 10
862.5128208010613
 20
714.5281395712616
 30
0.0
 10
862.5128208010615
 20
713.4917383617263
 30
0.0
 10
862.5128208010615
 20
712.047784989077
 30
0.0
 10
862.5128208010613
 20
710.1629574063683
 30
0.0
 10
862.5128208010615
 20
708.3899472045417
 30
0.0
 10
862.5128208010615
 20
707.1676435828015
 30
0.0
 10
862.5128208010613
 20
706.3669568675833
 30
0.0
 10
862.5128208010615
 20
705.7814662848103
 30
0.0
 10
862.5128208010615
 20
705.3535801462574
 30
0.0
 10
862.5128208010614
 20
705.3840923981601
 30
0.0
 10
862.5128208010614
 20
705.3999204990861
 30
0.0
  0
LINE
  5
2D5
330
1F
100
AcDbEntity
  8
0
  6
Continuous
 62
     7
370
    25
100
AcDbLine
 10
858.5128208011
 20
714.9814409116
 30
0.0
 11
858.5128208011
 21
710.3111749391
 31
0.0
  0
SPLINE
  5
2D6
330
1F
100
AcDbEntity
  8
0
  6
Continuous
 62
     7
370
    25
100
AcDbSpline
210
0.0
220
0.0
230
1.0
 70
     8
 71
     3
 72
     8
 73
     4
 74
     0
 42
0.000000001
 43
0.00000001
 40
0.0
 40
0.0
 40
0.0
 40
0.0
 40
1.0
 40
1.0
 40
1.0
 40
1.0
 10
858.5128208010685
 20
714.9814409115959
 30
0.0
 10
858.5128208010685
 20
714.3603732353768
 30
0.0
 10
858.6871361014479
 20
713.7563039148881
 30
0.0
 10
858.9594027884598
 20
713.1617863234229
 30
0.0
  0
SPLINE
  5
2D7
330
1F
100
AcDbEntity
  8
0
  6
Continuous
 62
     7
370
    25
100
AcDbSpline
210
0.0
220
0.0
230
1.0
 70
     8
 71
     3
 72
     8
 73
     4
 74
     0
 42
0.000000001
 43
0.00000001
 40
0.0
 40
0.0
 40
0.0
 40
0.0
 40
1.0
 40
1.0
 40
1.0
 40
1.0
 10
858.9594027884598
 20
713.1617863234165
 30
0.0
 10
858.6871361014485
 20
712.2304345023601
 30
0.0
 10
858.5128208010686
 20
711.2841192549041
 30
0.0
 10
858.5128208010686
 20
710.3111749391262
 30
0.0
  0
SPLINE
  5
2D8
330
1F
100
AcDbEntity
  8
0
  6
Continuous
 62
     7
370
    25
100
AcDbSpline
210
0.0
220
0.0
230
1.0
 70
     8
 71
     3
 72
     8
 73
     4
 74
     0
 42
0.000000001
 43
0.00000001
 40
0.0
 40
0.0
 40
0.0
 40
0.0
 40
1.0
 40
1.0
 40
1.0
 40
1.0
 10
858.5128208010686
 20
710.3111749391262
 30
0.0
 10
858.5128208010686
 20
709.3382306233467
 30
0.0
 10
858.687136101448
 20
708.3919153758941
 30
0.0
 10
858.9594027884598
 20
707.460563554836
 30
0.0
  0
LINE
  5
2D9
330
1F
100
AcDbEntity
  8
0
  6
Continuous
 62
     7
370
    25
100
AcDbLine
 10
862.5128208011
 20
713.1617863234
 30
0.0
 11
858.9594027885
 21
713.1617863234
 31
0.0
  0
LINE
  5
2DA
330
1F
100
AcDbEntity
  8
0
  6
Continuous
 62
     7
370
    25
100
AcDbLine
 10
862.5128208011
 20
707.4605635548
 30
0.0
 11
858.9594027885
 21
707.4605635548
 31
0.0
  0
SPLINE
  5
2DB
330
1F
100
AcDbEntity
  8
0
  6
Continuous
 62
     7
370
    25
100
AcDbSpline
210
0.0
220
0.0
230
1.0
 70
     8
 71
     3
 72
     8
 73
     4
 74
     0
 42
0.000000001
 43
0.00000001
 40
0.0
 40
0.0
 40
0.0
 40
0.0
 40
1.0
 40
1.0
 40
1.0
 40
1.0
 10
858.9594027884598
 20
716.801095499769
 30
0.0
 10
858.6871361014485
 20
716.2065779083048
 30
0.0
 10
858.5128208010685
 20
715.6025085878141
 30
0.0
 10
858.5128208010685
 20
714.9814409115959
 30
0.0
  0
LINE
  5
2DC
330
1F
100
AcDbEntity
  8
0
  6
Continuous
 62
     7
370
    25
100
AcDbLine
 10
862.5128208011
 20
716.8010954998
 30
0.0
 11
858.9594027885
 21
716.8010954998
 31
0.0
  0
LINE
  5
2DD
330
1F
100
AcDbEntity
  8
0
  6
Continuous
 62
     7
370
    25
100
AcDbLine
 10
858.5128208011
 20
710.3111749391
 30
0.0
 11
858.5128208011
 21
706.4296067587
 31
0.0
  0
SPLINE
  5
2DE
330
1F
100
AcDbEntity
  8
0
  6
Continuous
 62
     7
370
    25
100
AcDbSpline
210
0.0
220
0.0
230
1.0
 70
     8
 71
     3
 72
     8
 73
     4
 74
     0
 42
0.000000001
 43
0.00000001
 40
0.0
 40
0.0
 40
0.0
 40
0.0
 40
1.0
 40
1.0
 40
1.0
 40
1.0
 10
858.9594027884597
 20
707.4605635548309
 30
0.0
 10
858.6871361014483
 20
707.1237293252386
 30
0.0
 10
858.5128208010684
 20
706.7814833982733
 30
0.0
 10
858.5128208010684
 20
706.4296067587134
 30
0.0
  0
SPLINE
  5
2DF
330
1F
100
AcDbEntity
  8
0
  6
Continuous
 62
     7
370
    25
100
AcDbSpline
210
0.0
220
0.0
230
1.0
 70
     8
 71
     3
 72
     8
 73
     4
 74
     0
 42
0.000000001
 43
0.00000001
 40
0.0
 40
0.0
 40
0.0
 40
0.0
 40
1.0
 40
1.0
 40
1.0
 40
1.0
 10
858.5128208010684
 20
706.4296067587134
 30
0.0
 10
858.5128208010684
 20
706.0777301191529
 30
0.0
 10
858.6871361014479
 20
705.7354841921888
 30
0.0
 10
858.9594027884598
 20
705.398649962596
 30
0.0
  0
LINE
  5
2E0
330
1F
100
AcDbEntity
  8
0
  6
Continuous
 62
     7
370
    25
100
AcDbLine
 10
862.5128208011
 20
705.3986499626
 30
0.0
 11
858.9594027885
 21
705.3986499626
 31
0.0
  0
LINE
  5
2E1
330
1F
100
AcDbEntity
  8
0
  6
Continuous
 62
     7
370
    25
100
AcDbLine
 10
858.8091965582
 20
716.4543369241
 30
0.0
 11
858.9594027885
 21
716.8010954998
 31
0.0
  0
LINE
  5
2E2
330
1F
100
AcDbEntity
  8
0
  6
Continuous
 62
     7
370
    25
100
AcDbLine
 10
858.5128208011
 20
716.0998727312
 30
0.0
 11
858.5128208011
 21
714.9814409116
 31
0.0
  0
LINE
  5
2E3
330
1F
100
AcDbEntity
  8
0
  6
Continuous
 62
     7
370
    25
100
AcDbLine
 10
873.5128208011
 20
710.7120305919
 30
0.0
 11
873.5128208011
 21
713.5586227312
 31
0.0
  0
LINE
  5
2E4
330
1F
100
AcDbEntity
  8
0
  6
Continuous
 62
     7
370
    25
100
AcDbLine
 10
873.5128208011
 20
708.6411227312
 30
0.0
 11
873.5128208011
 21
710.7120305919
 31
0.0
  0
LINE
  5
2E5
330
1F
100
AcDbEntity
  8
0
  6
Continuous
 62
     7
370
    25
100
AcDbLine
 10
872.9715708011
 20
708.0998727312
 30
0.0
 11
872.9715708011
 21
714.0998727312
 31
0.0
  0
LINE
  5
2E6
330
1F
100
AcDbEntity
  8
0
  6
Continuous
 62
     7
370
    25
100
AcDbLine
 10
858.5128208011
 20
706.4296067587
 30
0.0
 11
858.5128208011
 21
706.0998727312
 31
0.0
  0
LINE
  5
2E7
330
1F
100
AcDbEntity
  8
0
  6
Continuous
 62
     7
370
    25
100
AcDbLine
 10
873.1715708011
 20
708.0998727312
 30
0.0
 11
873.1715708011
 21
708.2998727312
 31
0.0
  0
LINE
  5
2E8
330
1F
100
AcDbEntity
  8
0
  6
Continuous
 62
     7
370
    25
100
AcDbLine
 10
873.1715708011
 20
713.8998727312
 30
0.0
 11
873.1715708011
 21
714.0998727312
 31
0.0
  0
LINE
  5
2E9
330
1F
100
AcDbEntity
  8
0
  6
Continuous
 62
     7
370
    25
100
AcDbLine
 10
873.7128208011
 20
712.6792760685
 30
0.0
 11
873.7128208011
 21
713.5586227312
 31
0.0
  0
LINE
  5
2EA
330
1F
100
AcDbEntity
  8
0
  6
Continuous
 62
     7
370
    25
100
AcDbLine
 10
873.7128208011
 20
708.6411227312
 30
0.0
 11
873.7128208011
 21
712.6792760685
 31
0.0
  0
LINE
  5
2EB
330
1F
100
AcDbEntity
  8
0
  6
Continuous
 62
     7
370
    25
100
AcDbLine
 10
-25.2371791989
 20
729.6998727312
 30
0.0
 11
-25.2371791989
 21
729.1998727312
 31
0.0
  0
LINE
  5
2EC
330
1F
100
AcDbEntity
  8
0
  6
Continuous
 62
     7
370
    25
100
AcDbLine
 10
-25.2371791989
 20
729.1998727312
 30
0.0
 11
-34.7371791989
 21
729.1998727312
 31
0.0
  0
LINE
  5
2ED
330
1F
100
AcDbEntity
  8
0
  6
Continuous
 62
     7
370
    25
100
AcDbLine
 10
-34.7371791989
 20
729.1998727312
 30
0.0
 11
-34.7371791989
 21
729.6998727312
 31
0.0
  0
LINE
  5
2EE
330
1F
100
AcDbEntity
  8
0
  6
Continuous
 62
     7
370
    25
100
AcDbLine
 10
-24.4737791989
 20
729.1998727312
 30
0.0
 11
-25.2371791989
 21
729.1998727312
 31
0.0
  0
ARC
  5
2EF
330
1F
100
AcDbEntity
  8
0
  6
Continuous
 62
     7
370
    25
100
AcDbCircle
 10
-35.5005791989
 20
730.4364727312
 30
0.0
 40
1.236599999999929
100
AcDbArc
 50
216.5600911005
 51
270.0
  0
LINE
  5
2F0
330
1F
100
AcDbEntity
  8
0
  6
Continuous
 62
     7
370
    25
100
AcDbLine
 10
-34.7371791989
 20
729.1998727312
 30
0.0
 11
-35.5005791989
 21
729.1998727312
 31
0.0
  0
ARC
  5
2F1
330
1F
100
AcDbEntity
  8
0
  6
Continuous
 62
     7
370
    25
100
AcDbCircle
 10
-24.4737791989
 20
730.4364727312
 30
0.0
 40
1.236599999999953
100
AcDbArc
 50
270.0
 51
323.4399088995
  0
LINE
  5
2F2
330
1F
100
AcDbEntity
  8
0
  6
Continuous
 62
     7
370
    25
100
AcDbLine
 10
863.0128208011
 20
725.3998727312
 30
0.0
 11
863.0128208011
 21
723.5998727312
 31
0.0
  0
LINE
  5
2F3
330
1F
100
AcDbEntity
  8
0
  6
Continuous
 62
     7
370
    25
100
AcDbLine
 10
863.0128208011
 20
723.5998727312
 30
0.0
 11
-39.9871791989
 21
723.5998727312
 31
0.0
  0
LINE
  5
2F4
330
1F
100
AcDbEntity
  8
0
  6
Continuous
 62
     7
370
    25
100
AcDbLine
 10
-39.9871791989
 20
723.5998727312
 30
0.0
 11
-39.9871791989
 21
725.3998727312
 31
0.0
  0
LINE
  5
2F5
330
1F
100
AcDbEntity
  8
0
  6
Continuous
 62
     7
370
    25
100
AcDbLine
 10
863.0128208011
 20
725.3998727312
 30
0.0
 11
863.5128208011
 21
730.7748727312
 31
0.0
  0
LINE
  5
2F6
330
1F
100
AcDbEntity
  8
0
  6
Continuous
 62
     7
370
    25
100
AcDbLine
 10
-40.4871791989
 20
730.7748727312
 30
0.0
 11
-39.9871791989
 21
725.3998727312
 31
0.0
  0
LINE
  5
2F7
330
1F
100
AcDbEntity
  8
0
  6
Continuous
 62
     7
370
    25
100
AcDbLine
 10
-50.6871791989
 20
708.8825346539
 30
0.0
 11
-50.6871791989
 21
708.6411227312
 31
0.0
  0
LINE
  5
2F8
330
1F
100
AcDbEntity
  8
0
  6
Continuous
 62
     7
370
    25
100
AcDbLine
 10
-50.6871791989
 20
713.5586227312
 30
0.0
 11
-50.6871791989
 21
708.8825346539
 31
0.0
  0
LINE
  5
2F9
330
1F
100
AcDbEntity
  8
0
  6
Continuous
 62
     7
370
    25
100
AcDbLine
 10
-50.1459291989
 20
714.0998727312
 30
0.0
 11
-50.1459291989
 21
713.8998727312
 31
0.0
  0
LINE
  5
2FA
330
1F
100
AcDbEntity
  8
0
  6
Continuous
 62
     7
370
    25
100
AcDbLine
 10
-50.1459291989
 20
708.2998727312
 30
0.0
 11
-50.1459291989
 21
708.0998727312
 31
0.0
  0
LINE
  5
2FB
330
1F
100
AcDbEntity
  8
0
  6
Continuous
 62
     7
370
    25
100
AcDbLine
 10
-35.8010348008
 20
716.3716883653
 30
0.0
 11
-35.9337611863
 21
716.8563772554
 31
0.0
  0
LINE
  5
2FC
330
1F
100
AcDbEntity
  8
0
  6
Continuous
 62
     7
370
    25
100
AcDbLine
 10
-35.9337611863
 20
716.8563772554
 30
0.0
 11
-39.4871791989
 21
716.8563772554
 31
0.0
  0
LINE
  5
2FD
330
1F
100
AcDbEntity
  8
0
  6
Continuous
 62
     7
370
    25
100
AcDbLine
 10
-35.9337611863
 20
705.343368207
 30
0.0
 11
-35.7338508413
 21
705.901773813
 31
0.0
  0
LINE
  5
2FE
330
1F
100
AcDbEntity
  8
0
  6
Continuous
 62
     7
370
    25
100
AcDbLine
 10
-39.4871791989
 20
705.343368207
 30
0.0
 11
-35.9337611863
 21
705.343368207
 31
0.0
  0
LINE
  5
2FF
330
1F
100
AcDbEntity
  8
0
  6
Continuous
 62
     7
370
    25
100
AcDbLine
 10
-35.9337611863
 20
716.8563772554
 30
0.0
 11
-35.8585734308
 21
716.6463567876
 31
0.0
  0
LINE
  5
300
330
1F
100
AcDbEntity
  8
0
  6
Continuous
 62
     7
370
    25
100
AcDbLine
 10
865.5128208011
 20
734.1998727312
 30
0.0
 11
865.5128208011
 21
705.1998727312
 31
0.0
  0
LINE
  5
301
330
1F
100
AcDbEntity
  8
0
  6
Continuous
 62
     7
370
    25
100
AcDbLine
 10
863.5128208011
 20
734.1998727312
 30
0.0
 11
863.5128208011
 21
705.1998727312
 31
0.0
  0
LINE
  5
302
330
1F
100
AcDbEntity
  8
0
  6
Continuous
 62
     7
370
    25
100
AcDbLine
 10
865.5128208011
 20
703.1998727312
 30
0.0
 11
863.5128208011
 21
703.1998727312
 31
0.0
  0
LINE
  5
303
330
1F
100
AcDbEntity
  8
0
  6
Continuous
 62
     7
370
    25
100
AcDbLine
 10
863.5128208011
 20
703.1998727312
 30
0.0
 11
863.5128208011
 21
705.1998727312
 31
0.0
  0
LINE
  5
304
330
1F
100
AcDbEntity
  8
0
  6
Continuous
 62
     7
370
    25
100
AcDbLine
 10
865.5128208011
 20
705.1998727312
 30
0.0
 11
865.5128208011
 21
703.1998727312
 31
0.0
  0
LINE
  5
305
330
1F
100
AcDbEntity
  8
0
  6
Continuous
 62
     7
370
    25
100
AcDbLine
 10
865.5128208011
 20
734.1998727312
 30
0.0
 11
865.5111536712
 21
734.2998727312
 31
0.0
  0
LINE
  5
306
330
1F
100
AcDbEntity
  8
0
  6
Continuous
 62
     7
370
    25
100
AcDbLine
 10
863.5128208011
 20
734.1998727312
 30
0.0
 11
863.5078082382
 21
734.2998727312
 31
0.0
  0
LINE
  5
307
330
1F
100
AcDbEntity
  8
0
  6
Continuous
 62
     7
370
    25
100
AcDbLine
 10
865.5731281803
 20
719.1998727312
 30
0.0
 11
865.5128208011
 21
719.1998727312
 31
0.0
  0
LINE
  5
308
330
1F
100
AcDbEntity
  8
0
  6
Continuous
 62
     7
370
    25
100
AcDbLine
 10
865.5128208011
 20
703.1998727312
 30
0.0
 11
865.5731281803
 21
703.1998727312
 31
0.0
  0
LWPOLYLINE
  5
309
330
1F
100
AcDbEntity
  8
0
  6
Continuous
 62
     7
370
    25
100
AcDbPolyline
 90
        9
 70
   128
 43
0.0
 10
867.4443269026
 20
703.1998727312
 10
867.5777765424
 20
703.2383021704
 10
867.7060977874
 20
703.3521136662
 10
867.824359324
 20
703.5369335066
 10
867.9280164279
 20
703.7856591688
 10
868.0130856145
 20
704.0887322651
 10
868.0762977228
 20
704.4345058665
 10
868.1152235469
 20
704.8096920872
 10
868.1283671892
 20
705.1998727312
  0
LINE
  5
30A
330
1F
100
AcDbEntity
  8
0
  6
Continuous
 62
     7
370
    25
100
AcDbLine
 10
867.4443269026
 20
703.1998727312
 30
0.0
 11
865.5731281803
 21
703.1998727312
 31
0.0
  0
LINE
  5
30B
330
1F
100
AcDbEntity
  8
0
  6
Continuous
 62
     7
370
    25
100
AcDbLine
 10
865.5731281803
 20
719.1998727312
 30
0.0
 11
867.4443269026
 21
719.1998727312
 31
0.0
  0
LWPOLYLINE
  5
30C
330
1F
100
AcDbEntity
  8
0
  6
Continuous
 62
     7
370
    25
100
AcDbPolyline
 90
        9
 70
   128
 43
0.0
 10
868.1283671892
 20
717.1998727312
 10
868.1152235469
 20
717.5900533752
 10
868.0762977228
 20
717.9652395959
 10
868.0130856145
 20
718.3110131972
 10
867.9280164279
 20
718.6140862936
 10
867.824359324
 20
718.8628119558
 10
867.7060977874
 20
719.0476317962
 10
867.5777765424
 20
719.161443292
 10
867.4443269026
 20
719.1998727312
  0
LINE
  5
30D
330
1F
100
AcDbEntity
  8
0
  6
Continuous
 62
     7
370
    25
100
AcDbLine
 10
868.1283671892
 20
717.1998727312
 30
0.0
 11
868.1283671892
 21
714.0998727312
 31
0.0
  0
LINE
  5
30E
330
1F
100
AcDbEntity
  8
0
  6
Continuous
 62
     7
370
    25
100
AcDbLine
 10
868.1283671892
 20
708.0998727312
 30
0.0
 11
868.1283671892
 21
705.1998727312
 31
0.0
  0
LINE
  5
30F
330
1F
100
AcDbEntity
  8
0
  6
Continuous
 62
     7
370
    25
100
AcDbLine
 10
-40.4871791989
 20
705.1998727312
 30
0.0
 11
-40.4871791989
 21
734.1998727312
 31
0.0
  0
LINE
  5
310
330
1F
100
AcDbEntity
  8
0
  6
Continuous
 62
     7
370
    25
100
AcDbLine
 10
-42.4871791989
 20
705.1998727312
 30
0.0
 11
-42.4871791989
 21
734.1998727312
 31
0.0
  0
LINE
  5
311
330
1F
100
AcDbEntity
  8
0
  6
Continuous
 62
     7
370
    25
100
AcDbLine
 10
-40.4871791989
 20
703.1998727312
 30
0.0
 11
-42.4871791989
 21
703.1998727312
 31
0.0
  0
LINE
  5
312
330
1F
100
AcDbEntity
  8
0
  6
Continuous
 62
     7
370
    25
100
AcDbLine
 10
-40.4871791989
 20
705.1998727312
 30
0.0
 11
-40.4871791989
 21
703.1998727312
 31
0.0
  0
LINE
  5
313
330
1F
100
AcDbEntity
  8
0
  6
Continuous
 62
     7
370
    25
100
AcDbLine
 10
-42.4871791989
 20
703.1998727312
 30
0.0
 11
-42.4871791989
 21
705.1998727312
 31
0.0
  0
LINE
  5
314
330
1F
100
AcDbEntity
  8
0
  6
Continuous
 62
     7
370
    25
100
AcDbLine
 10
-42.4855120691
 20
734.2998727312
 30
0.0
 11
-42.4871791989
 21
734.1998727312
 31
0.0
  0
LINE
  5
315
330
1F
100
AcDbEntity
  8
0
  6
Continuous
 62
     7
370
    25
100
AcDbLine
 10
-40.482166636
 20
734.2998727312
 30
0.0
 11
-40.4871791989
 21
734.1998727312
 31
0.0
  0
LINE
  5
316
330
1F
100
AcDbEntity
  8
0
  6
Continuous
 62
     7
370
    25
100
AcDbLine
 10
-42.5474865782
 20
703.1998727312
 30
0.0
 11
-42.4871791989
 21
703.1998727312
 31
0.0
  0
LINE
  5
317
330
1F
100
AcDbEntity
  8
0
  6
Continuous
 62
     7
370
    25
100
AcDbLine
 10
-42.4871791989
 20
719.1998727312
 30
0.0
 11
-42.5474865782
 21
719.1998727312
 31
0.0
  0
LINE
  5
318
330
1F
100
AcDbEntity
  8
0
  6
Continuous
 62
     7
370
    25
100
AcDbLine
 10
-42.5474865782
 20
703.1998727312
 30
0.0
 11
-44.4186853005
 21
703.1998727312
 31
0.0
  0
LWPOLYLINE
  5
319
330
1F
100
AcDbEntity
  8
0
  6
Continuous
 62
     7
370
    25
100
AcDbPolyline
 90
        9
 70
   128
 43
0.0
 10
-45.1027255871
 20
705.1998727312
 10
-45.0895819448
 20
704.8096920872
 10
-45.0506561207
 20
704.4345058665
 10
-44.9874440124
 20
704.0887322651
 10
-44.9023748258
 20
703.7856591688
 10
-44.7987177219
 20
703.5369335066
 10
-44.6804561852
 20
703.3521136662
 10
-44.5521349403
 20
703.2383021704
 10
-44.4186853005
 20
703.1998727312
  0
LINE
  5
31A
330
1F
100
AcDbEntity
  8
0
  6
Continuous
 62
     7
370
    25
100
AcDbLine
 10
-45.1027255871
 20
705.1998727312
 30
0.0
 11
-45.1027255871
 21
708.0998727312
 31
0.0
  0
LINE
  5
31B
330
1F
100
AcDbEntity
  8
0
  6
Continuous
 62
     7
370
    25
100
AcDbLine
 10
-45.1027255871
 20
714.0998727312
 30
0.0
 11
-45.1027255871
 21
717.1998727312
 31
0.0
  0
LWPOLYLINE
  5
31C
330
1F
100
AcDbEntity
  8
0
  6
Continuous
 62
     7
370
    25
100
AcDbPolyline
 90
        9
 70
   128
 43
0.0
 10
-44.4186853005
 20
719.1998727312
 10
-44.5521349403
 20
719.161443292
 10
-44.6804561852
 20
719.0476317962
 10
-44.7987177219
 20
718.8628119558
 10
-44.9023748258
 20
718.6140862936
 10
-44.9874440124
 20
718.3110131972
 10
-45.0506561207
 20
717.9652395959
 10
-45.0895819448
 20
717.5900533752
 10
-45.1027255871
 20
717.1998727312
  0
LINE
  5
31D
330
1F
100
AcDbEntity
  8
0
  6
Continuous
 62
     7
370
    25
100
AcDbLine
 10
-44.4186853005
 20
719.1998727312
 30
0.0
 11
-42.5474865782
 21
719.1998727312
 31
0.0
  0
ARC
  5
31E
330
1F
100
AcDbEntity
  8
0
  6
Continuous
 62
     7
370
    25
100
AcDbCircle
 10
-48.9871791989
 20
740.2998727312
 30
0.0
 40
6.000000000000114
100
AcDbArc
 50
216.8698976459
 51
270.0
  0
ARC
  5
31F
330
1F
100
AcDbEntity
  8
0
  6
Continuous
 62
     7
370
    25
100
AcDbCircle
 10
872.0128208011
 20
740.2998727312
 30
0.0
 40
6.000000000000114
100
AcDbArc
 50
270.0
 51
323.1301023541
  0
SPLINE
  5
320
330
1F
100
AcDbEntity
  8
0
  6
Continuous
 62
     7
370
    25
100
AcDbSpline
210
0.0
220
0.0
230
1.0
 70
    24
 71
     3
 72
    19
 73
    15
 74
     0
 42
0.000000001
 43
0.00000001
 40
0.0
 40
0.0
 40
0.0
 40
0.0
 40
0.1348599644641575
 40
0.2074574467700402
 40
0.2815955518104268
 40
0.3557336568508132
 40
0.4283311391566973
 40
0.563191103620854
 40
0.6980510680850108
 40
0.7706485503908947
 40
0.8447866554312816
 40
0.9189247604716664
 40
0.9915222427775493
 40
1.0
 40
1.0
 40
1.0
 40
1.0
 10
-39.48717919893841
 20
705.657561605448
 30
0.0
 10
-39.48717919893846
 20
705.9825020451342
 30
0.0
 10
-39.48717919893851
 20
706.4823636181185
 30
0.0
 10
-39.48717919893851
 20
707.6280094770484
 30
0.0
 10
-39.48717919893841
 20
708.651225328076
 30
0.0
 10
-39.48717919893846
 20
709.7835838982577
 30
0.0
 10
-39.48717919893829
 20
711.2929230176163
 30
0.0
 10
-39.48717919893851
 20
713.1532935924336
 30
0.0
 10
-39.48717919893851
 20
714.7693994333333
 30
0.0
 10
-39.48717919893851
 20
715.7915087796378
 30
0.0
 10
-39.48717919893841
 20
716.4116425316666
 30
0.0
 10
-39.48717919893841
 20
716.760609716055
 30
0.0
 10
-39.48717919893879
 20
716.961672838134
 30
0.0
 10
-39.48717919893841
 20
716.8839575123689
 30
0.0
 10
-39.48717919893846
 20
716.8758310897011
 30
0.0
  0
SPLINE
  5
321
330
1F
100
AcDbEntity
  8
0
  6
Continuous
 62
     7
370
    25
100
AcDbSpline
210
0.0
220
0.0
230
1.0
 70
     8
 71
     3
 72
     8
 73
     4
 74
     0
 42
0.000000001
 43
0.00000001
 40
0.0
 40
0.0
 40
0.0
 40
0.0
 40
1.0
 40
1.0
 40
1.0
 40
1.0
 10
-35.48717919894556
 20
707.9011425618592
 30
0.0
 10
-35.48717919894556
 20
708.6584147845095
 30
0.0
 10
-35.66149449932499
 20
709.3949607914534
 30
0.0
 10
-35.9337611863369
 20
710.1198603074516
 30
0.0
  0
SPLINE
  5
322
330
1F
100
AcDbEntity
  8
0
  6
Continuous
 62
     7
370
    25
100
AcDbSpline
210
0.0
220
0.0
230
1.0
 70
     8
 71
     3
 72
     8
 73
     4
 74
     0
 42
0.000000001
 43
0.00000001
 40
0.0
 40
0.0
 40
0.0
 40
0.0
 40
1.0
 40
1.0
 40
1.0
 40
1.0
 10
-35.9337611863369
 20
705.6824248162667
 30
0.0
 10
-35.66149449932549
 20
706.4073243322637
 30
0.0
 10
-35.48717919894556
 20
707.1438703392104
 30
0.0
 10
-35.48717919894556
 20
707.9011425618592
 30
0.0
  0
LINE
  5
323
330
1F
100
AcDbEntity
  8
0
  6
Continuous
 62
     7
370
    25
100
AcDbLine
 10
-39.4871791989
 20
705.6824248163
 30
0.0
 11
-35.9337611863
 21
705.6824248163
 31
0.0
  0
LINE
  5
324
330
1F
100
AcDbEntity
  8
0
  6
Continuous
 62
     7
370
    25
100
AcDbLine
 10
-39.4871791989
 20
710.1198603075
 30
0.0
 11
-35.9337611863
 21
710.1198603075
 31
0.0
  0
SPLINE
  5
325
330
1F
100
AcDbEntity
  8
0
  6
Continuous
 62
     7
370
    25
100
AcDbSpline
210
0.0
220
0.0
230
1.0
 70
     8
 71
     3
 72
     8
 73
     4
 74
     0
 42
0.000000001
 43
0.00000001
 40
0.0
 40
0.0
 40
0.0
 40
0.0
 40
1.0
 40
1.0
 40
1.0
 40
1.0
 10
-35.48717919894562
 20
712.8285842649141
 30
0.0
 10
-35.48717919894562
 20
713.7531008763141
 30
0.0
 10
-35.66149449932504
 20
714.6523138648703
 30
0.0
 10
-35.9337611863369
 20
715.5373082223695
 30
0.0
  0
SPLINE
  5
326
330
1F
100
AcDbEntity
  8
0
  6
Continuous
 62
     7
370
    25
100
AcDbSpline
210
0.0
220
0.0
230
1.0
 70
     8
 71
     3
 72
     8
 73
     4
 74
     0
 42
0.000000001
 43
0.00000001
 40
0.0
 40
0.0
 40
0.0
 40
0.0
 40
1.0
 40
1.0
 40
1.0
 40
1.0
 10
-35.9337611863369
 20
710.1198603074583
 30
0.0
 10
-35.66149449932549
 20
711.004854664956
 30
0.0
 10
-35.48717919894562
 20
711.9040676535155
 30
0.0
 10
-35.48717919894562
 20
712.8285842649141
 30
0.0
  0
LINE
  5
327
330
1F
100
AcDbEntity
  8
0
  6
Continuous
 62
     7
370
    25
100
AcDbLine
 10
-39.4871791989
 20
715.5373082224
 30
0.0
 11
-35.9337611863
 21
715.5373082224
 31
0.0
  0
LINE
  5
328
330
1F
100
AcDbEntity
  8
0
  6
Continuous
 62
     7
370
    25
100
AcDbLine
 10
-35.4871791989
 20
707.9011425619
 30
0.0
 11
-35.4871791989
 21
712.8285842649
 31
0.0
  0
SPLINE
  5
329
330
1F
100
AcDbEntity
  8
0
  6
Continuous
 62
     7
370
    25
100
AcDbSpline
210
0.0
220
0.0
230
1.0
 70
     8
 71
     3
 72
     8
 73
     4
 74
     0
 42
0.000000001
 43
0.00000001
 40
0.0
 40
0.0
 40
0.0
 40
0.0
 40
1.0
 40
1.0
 40
1.0
 40
1.0
 10
-35.93376118633685
 20
715.5373082223737
 30
0.0
 10
-35.66149449932543
 20
715.6974030638743
 30
0.0
 10
-35.4871791989455
 20
715.8600700454873
 30
0.0
 10
-35.4871791989455
 20
716.0273144342369
 30
0.0
  0
LINE
  5
32A
330
1F
100
AcDbEntity
  8
0
  6
Continuous
 62
     7
370
    25
100
AcDbLine
 10
-35.4871791989
 20
712.8285842649
 30
0.0
 11
-35.4871791989
 21
716.0273144342
 31
0.0
  0
SPLINE
  5
32B
330
1F
100
AcDbEntity
  8
0
  6
Continuous
 62
     7
370
    25
100
AcDbSpline
210
0.0
220
0.0
230
1.0
 70
     8
 71
     3
 72
     8
 73
     4
 74
     0
 42
0.000000001
 43
0.00000001
 40
0.0
 40
0.0
 40
0.0
 40
0.0
 40
1.0
 40
1.0
 40
1.0
 40
1.0
 10
-35.48717919894545
 20
706.1724310281278
 30
0.0
 10
-35.48717919894545
 20
706.0051866393779
 30
0.0
 10
-35.66149449932487
 20
705.8425196577655
 30
0.0
 10
-35.93376118633685
 20
705.6824248162645
 30
0.0
  0
LINE
  5
32C
330
1F
100
AcDbEntity
  8
0
  6
Continuous
 62
     7
370
    25
100
AcDbLine
 10
-35.4871791989
 20
707.9011425619
 30
0.0
 11
-35.4871791989
 21
706.1038063523
 31
0.0
  0
SPLINE
  5
32D
330
1F
100
AcDbEntity
  8
0
  6
Continuous
 62
     7
370
    25
100
AcDbSpline
210
0.0
220
0.0
230
1.0
 70
     8
 71
     3
 72
     8
 73
     4
 74
     0
 42
0.000000001
 43
0.00000001
 40
0.0
 40
0.0
 40
0.0
 40
0.0
 40
1.0
 40
1.0
 40
1.0
 40
1.0
 10
-35.4871791989455
 20
716.0273144342369
 30
0.0
 10
-35.4871791989455
 20
716.1945588229869
 30
0.0
 10
-35.66149449932493
 20
716.3572258045994
 30
0.0
 10
-35.9337611863369
 20
716.5173206461003
 30
0.0
  0
LINE
  5
32E
330
1F
100
AcDbEntity
  8
0
  6
Continuous
 62
     7
370
    25
100
AcDbLine
 10
-39.4871791989
 20
716.5173206461
 30
0.0
 11
-35.9337611863
 21
716.5173206461
 31
0.0
  0
LINE
  5
32F
330
1F
100
AcDbEntity
  8
0
  6
Continuous
 62
     7
370
    25
100
AcDbLine
 10
-50.4871791989
 20
711.9499666279
 30
0.0
 11
-50.4871791989
 21
708.6411227312
 31
0.0
  0
LINE
  5
330
330
1F
100
AcDbEntity
  8
0
  6
Continuous
 62
     7
370
    25
100
AcDbLine
 10
-50.4871791989
 20
713.5586227312
 30
0.0
 11
-50.4871791989
 21
711.9499666279
 31
0.0
  0
LINE
  5
331
330
1F
100
AcDbEntity
  8
0
  6
Continuous
 62
     7
370
    25
100
AcDbLine
 10
-49.9459291989
 20
714.0998727312
 30
0.0
 11
-49.9459291989
 21
708.0998727312
 31
0.0
  0
LINE
  5
332
330
1F
100
AcDbEntity
  8
0
  6
Continuous
 62
     7
370
    25
100
AcDbLine
 10
848.2628208011
 20
729.1998727312
 30
0.0
 11
848.2628208011
 21
729.6998727312
 31
0.0
  0
LINE
  5
333
330
1F
100
AcDbEntity
  8
0
  6
Continuous
 62
     7
370
    25
100
AcDbLine
 10
857.7628208011
 20
729.6998727312
 30
0.0
 11
857.7628208011
 21
729.1998727312
 31
0.0
  0
LINE
  5
334
330
1F
100
AcDbEntity
  8
0
  6
Continuous
 62
     7
370
    25
100
AcDbLine
 10
857.7628208011
 20
729.1998727312
 30
0.0
 11
848.2628208011
 21
729.1998727312
 31
0.0
  0
LINE
  5
335
330
1F
100
AcDbEntity
  8
0
  6
Continuous
 62
     7
370
    25
100
AcDbLine
 10
848.2628208011
 20
729.1998727312
 30
0.0
 11
847.4994208011
 21
729.1998727312
 31
0.0
  0
LINE
  5
336
330
1F
100
AcDbEntity
  8
0
  6
Continuous
 62
     7
370
    25
100
AcDbLine
 10
858.5262208011
 20
729.1998727312
 30
0.0
 11
857.7628208011
 21
729.1998727312
 31
0.0
  0
ARC
  5
337
330
1F
100
AcDbEntity
  8
0
  6
Continuous
 62
     7
370
    25
100
AcDbCircle
 10
858.5262208011
 20
730.4364727312
 30
0.0
 40
1.236600000000037
100
AcDbArc
 50
270.0
 51
323.439908899
  0
ARC
  5
338
330
1F
100
AcDbEntity
  8
0
  6
Continuous
 62
     7
370
    25
100
AcDbCircle
 10
847.4994208011
 20
730.4364727312
 30
0.0
 40
1.236599999999953
100
AcDbArc
 50
216.560091101
 51
270.0
  0
ARC
  5
339
330
1F
100
AcDbEntity
  8
0
  6
Continuous
 62
     7
370
    25
100
AcDbCircle
 10
863.2128208011
 20
-78.9919056406
 30
0.0
 40
0.5
100
AcDbArc
 50
180.0
 51
0.0
  0
ARC
  5
33A
330
1F
100
AcDbEntity
  8
0
  6
Continuous
 62
     7
370
    25
100
AcDbCircle
 10
863.2128208011
 20
-67.3919056404
 30
0.0
 40
0.5
100
AcDbArc
 50
360.0
 51
180.0
  0
LINE
  5
33B
330
1F
100
AcDbEntity
  8
0
  6
Continuous
 62
     7
370
    25
100
AcDbLine
 10
873.1715708011
 20
-76.1919056405
 30
0.0
 11
873.7128208011
 21
-75.6506556405
 31
0.0
  0
LINE
  5
33C
330
1F
100
AcDbEntity
  8
0
  6
Continuous
 62
     7
370
    25
100
AcDbLine
 10
873.7128208011
 20
-70.7331556405
 30
0.0
 11
873.1715708011
 21
-70.1919056405
 31
0.0
  0
LINE
  5
33D
330
1F
100
AcDbEntity
  8
0
  6
Continuous
 62
     7
370
    25
100
AcDbLine
 10
873.1715708011
 20
-70.1919056405
 30
0.0
 11
864.5128208011
 21
-70.1919056405
 31
0.0
  0
LINE
  5
33E
330
1F
100
AcDbEntity
  8
0
  6
Continuous
 62
     7
370
    25
100
AcDbLine
 10
864.5128208011
 20
-76.1919056405
 30
0.0
 11
873.1715708011
 21
-76.1919056405
 31
0.0
  0
LINE
  5
33F
330
1F
100
AcDbEntity
  8
0
  6
Continuous
 62
     7
370
    25
100
AcDbLine
 10
846.5580353867
 20
-81.8200828879
 30
0.0
 11
846.1628208011
 21
-81.5919056405
 31
0.0
  0
LINE
  5
340
330
1F
100
AcDbEntity
  8
0
  6
Continuous
 62
     7
370
    25
100
AcDbLine
 10
839.8628208011
 20
-81.5919056405
 30
0.0
 11
839.4322825061
 21
-81.840477041
 31
0.0
  0
LINE
  5
341
330
1F
100
AcDbEntity
  8
0
  6
Continuous
 62
     7
370
    25
100
AcDbLine
 10
839.4322825061
 20
-84.54333424
 30
0.0
 11
839.8628208011
 21
-84.7919056405
 31
0.0
  0
LINE
  5
342
330
1F
100
AcDbEntity
  8
0
  6
Continuous
 62
     7
370
    25
100
AcDbLine
 10
846.1628208011
 20
-84.7919056405
 30
0.0
 11
846.5580353867
 21
-84.5637283931
 31
0.0
  0
LINE
  5
343
330
1F
100
AcDbEntity
  8
0
  6
Continuous
 62
     7
370
    25
100
AcDbLine
 10
263.5580353867
 20
-81.8200828879
 30
0.0
 11
263.1628208011
 21
-81.5919056405
 31
0.0
  0
LINE
  5
344
330
1F
100
AcDbEntity
  8
0
  6
Continuous
 62
     7
370
    25
100
AcDbLine
 10
256.8628208011
 20
-81.5919056405
 30
0.0
 11
256.4322825061
 21
-81.840477041
 31
0.0
  0
LINE
  5
345
330
1F
100
AcDbEntity
  8
0
  6
Continuous
 62
     7
370
    25
100
AcDbLine
 10
256.4322825061
 20
-84.54333424
 30
0.0
 11
256.8628208011
 21
-84.7919056405
 31
0.0
  0
LINE
  5
346
330
1F
100
AcDbEntity
  8
0
  6
Continuous
 62
     7
370
    25
100
AcDbLine
 10
263.1628208011
 20
-84.7919056405
 30
0.0
 11
263.5580353867
 21
-84.5637283931
 31
0.0
  0
LINE
  5
347
330
1F
100
AcDbEntity
  8
0
  6
Continuous
 62
     7
370
    25
100
AcDbLine
 10
566.5580353867
 20
-81.8200828879
 30
0.0
 11
566.1628208011
 21
-81.5919056405
 31
0.0
  0
LINE
  5
348
330
1F
100
AcDbEntity
  8
0
  6
Continuous
 62
     7
370
    25
100
AcDbLine
 10
559.8628208011
 20
-81.5919056405
 30
0.0
 11
559.4322825061
 21
-81.840477041
 31
0.0
  0
LINE
  5
349
330
1F
100
AcDbEntity
  8
0
  6
Continuous
 62
     7
370
    25
100
AcDbLine
 10
559.4322825061
 20
-84.54333424
 30
0.0
 11
559.8628208011
 21
-84.7919056405
 31
0.0
  0
LINE
  5
34A
330
1F
100
AcDbEntity
  8
0
  6
Continuous
 62
     7
370
    25
100
AcDbLine
 10
566.1628208011
 20
-84.7919056405
 30
0.0
 11
566.5580353867
 21
-84.5637283931
 31
0.0
  0
LINE
  5
34B
330
1F
100
AcDbEntity
  8
0
  6
Continuous
 62
     7
370
    25
100
AcDbLine
 10
-16.4419646133
 20
-81.8200828879
 30
0.0
 11
-16.8371791989
 21
-81.5919056405
 31
0.0
  0
LINE
  5
34C
330
1F
100
AcDbEntity
  8
0
  6
Continuous
 62
     7
370
    25
100
AcDbLine
 10
-23.1371791989
 20
-81.5919056405
 30
0.0
 11
-23.5677174939
 21
-81.840477041
 31
0.0
  0
LINE
  5
34D
330
1F
100
AcDbEntity
  8
0
  6
Continuous
 62
     7
370
    25
100
AcDbLine
 10
-23.5677174939
 20
-84.54333424
 30
0.0
 11
-23.1371791989
 21
-84.7919056405
 31
0.0
  0
LINE
  5
34E
330
1F
100
AcDbEntity
  8
0
  6
Continuous
 62
     7
370
    25
100
AcDbLine
 10
-16.8371791989
 20
-84.7919056405
 30
0.0
 11
-16.4419646133
 21
-84.5637283931
 31
0.0
  0
LINE
  5
34F
330
1F
100
AcDbEntity
  8
0
  6
Continuous
 62
     7
370
    25
100
AcDbLine
 10
-40.9871791989
 20
-98.2419056405
 30
0.0
 11
864.0128208011
 21
-98.2419056405
 31
0.0
  0
LINE
  5
350
330
1F
100
AcDbEntity
  8
0
  6
Continuous
 62
     7
370
    25
100
AcDbLine
 10
841.0128208011
 20
-76.4919056405
 30
0.0
 11
841.0128208011
 21
-81.5919056405
 31
0.0
  0
LINE
  5
351
330
1F
100
AcDbEntity
  8
0
  6
Continuous
 62
     7
370
    25
100
AcDbLine
 10
841.0128208011
 20
-84.7919056405
 30
0.0
 11
841.0128208011
 21
-84.8919056405
 31
0.0
  0
LINE
  5
352
330
1F
100
AcDbEntity
  8
0
  6
Continuous
 62
     7
370
    25
100
AcDbLine
 10
845.0128208011
 20
-84.8919056405
 30
0.0
 11
845.0128208011
 21
-84.7919056405
 31
0.0
  0
LINE
  5
353
330
1F
100
AcDbEntity
  8
0
  6
Continuous
 62
     7
370
    25
100
AcDbLine
 10
845.0128208011
 20
-81.5919056405
 30
0.0
 11
845.0128208011
 21
-76.4919056405
 31
0.0
  0
LINE
  5
354
330
1F
100
AcDbEntity
  8
0
  6
Continuous
 62
     7
370
    25
100
AcDbLine
 10
258.0128208011
 20
-76.4919056405
 30
0.0
 11
258.0128208011
 21
-81.5919056405
 31
0.0
  0
LINE
  5
355
330
1F
100
AcDbEntity
  8
0
  6
Continuous
 62
     7
370
    25
100
AcDbLine
 10
258.0128208011
 20
-84.7919056405
 30
0.0
 11
258.0128208011
 21
-84.8919056405
 31
0.0
  0
LINE
  5
356
330
1F
100
AcDbEntity
  8
0
  6
Continuous
 62
     7
370
    25
100
AcDbLine
 10
262.0128208011
 20
-84.8919056405
 30
0.0
 11
262.0128208011
 21
-84.7919056405
 31
0.0
  0
LINE
  5
357
330
1F
100
AcDbEntity
  8
0
  6
Continuous
 62
     7
370
    25
100
AcDbLine
 10
262.0128208011
 20
-81.5919056405
 30
0.0
 11
262.0128208011
 21
-76.4919056405
 31
0.0
  0
LINE
  5
358
330
1F
100
AcDbEntity
  8
0
  6
Continuous
 62
     7
370
    25
100
AcDbLine
 10
561.0128208011
 20
-76.4919056405
 30
0.0
 11
561.0128208011
 21
-81.5919056405
 31
0.0
  0
LINE
  5
359
330
1F
100
AcDbEntity
  8
0
  6
Continuous
 62
     7
370
    25
100
AcDbLine
 10
561.0128208011
 20
-84.7919056405
 30
0.0
 11
561.0128208011
 21
-84.8919056405
 31
0.0
  0
LINE
  5
35A
330
1F
100
AcDbEntity
  8
0
  6
Continuous
 62
     7
370
    25
100
AcDbLine
 10
565.0128208011
 20
-84.8919056405
 30
0.0
 11
565.0128208011
 21
-84.7919056405
 31
0.0
  0
LINE
  5
35B
330
1F
100
AcDbEntity
  8
0
  6
Continuous
 62
     7
370
    25
100
AcDbLine
 10
565.0128208011
 20
-81.5919056405
 30
0.0
 11
565.0128208011
 21
-76.4919056405
 31
0.0
  0
LINE
  5
35C
330
1F
100
AcDbEntity
  8
0
  6
Continuous
 62
     7
370
    25
100
AcDbLine
 10
-21.9871791989
 20
-76.4919056405
 30
0.0
 11
-21.9871791989
 21
-81.5919056405
 31
0.0
  0
LINE
  5
35D
330
1F
100
AcDbEntity
  8
0
  6
Continuous
 62
     7
370
    25
100
AcDbLine
 10
-21.9871791989
 20
-84.7919056405
 30
0.0
 11
-21.9871791989
 21
-84.8919056405
 31
0.0
  0
LINE
  5
35E
330
1F
100
AcDbEntity
  8
0
  6
Continuous
 62
     7
370
    25
100
AcDbLine
 10
-17.9871791989
 20
-84.8919056405
 30
0.0
 11
-17.9871791989
 21
-84.7919056405
 31
0.0
  0
LINE
  5
35F
330
1F
100
AcDbEntity
  8
0
  6
Continuous
 62
     7
370
    25
100
AcDbLine
 10
-17.9871791989
 20
-81.5919056405
 30
0.0
 11
-17.9871791989
 21
-76.4919056405
 31
0.0
  0
ARC
  5
360
330
1F
100
AcDbEntity
  8
0
  6
Continuous
 62
     7
370
    25
100
AcDbCircle
 10
-40.1871791989
 20
-67.3919056404
 30
0.0
 40
0.5000000000000071
100
AcDbArc
 50
360.0
 51
180.0
  0
ARC
  5
361
330
1F
100
AcDbEntity
  8
0
  6
Continuous
 62
     7
370
    25
100
AcDbCircle
 10
-40.1871791989
 20
-78.9919056406
 30
0.0
 40
0.5
100
AcDbArc
 50
180.0
 51
0.0
  0
LINE
  5
362
330
1F
100
AcDbEntity
  8
0
  6
Continuous
 62
     7
370
    25
100
AcDbLine
 10
-50.1459291989
 20
-70.1919056405
 30
0.0
 11
-50.6871791989
 21
-70.7331556405
 31
0.0
  0
LINE
  5
363
330
1F
100
AcDbEntity
  8
0
  6
Continuous
 62
     7
370
    25
100
AcDbLine
 10
-50.6871791989
 20
-75.6506556405
 30
0.0
 11
-50.1459291989
 21
-76.1919056405
 31
0.0
  0
LINE
  5
364
330
1F
100
AcDbEntity
  8
0
  6
Continuous
 62
     7
370
    25
100
AcDbLine
 10
-50.1459291989
 20
-76.1919056405
 30
0.0
 11
-41.4871791989
 21
-76.1919056405
 31
0.0
  0
LINE
  5
365
330
1F
100
AcDbEntity
  8
0
  6
Continuous
 62
     7
370
    25
100
AcDbLine
 10
-41.4871791989
 20
-70.1919056405
 30
0.0
 11
-50.1459291989
 21
-70.1919056405
 31
0.0
  0
LINE
  5
366
330
1F
100
AcDbEntity
  8
0
  6
Continuous
 62
     7
370
    25
100
AcDbLine
 10
-35.6871791989
 20
-68.1919056405
 30
0.0
 11
-36.0166622947
 21
-67.6212241784
 31
0.0
  0
LINE
  5
367
330
1F
100
AcDbEntity
  8
0
  6
Continuous
 62
     7
370
    25
100
AcDbLine
 10
-36.0166622947
 20
-78.7625871026
 30
0.0
 11
-35.6871791989
 21
-78.1919056405
 31
0.0
  0
LINE
  5
368
330
1F
100
AcDbEntity
  8
0
  6
Continuous
 62
     7
370
    25
100
AcDbLine
 10
-42.9871791989
 20
-96.3919056405
 30
0.0
 11
-48.9871791989
 21
-96.3919056405
 31
0.0
  0
LINE
  5
369
330
1F
100
AcDbEntity
  8
0
  6
Continuous
 62
     7
370
    25
100
AcDbLine
 10
872.0128208011
 20
-96.3919056405
 30
0.0
 11
866.0128208011
 21
-96.3919056405
 31
0.0
  0
LINE
  5
36A
330
1F
100
AcDbEntity
  8
0
  6
Continuous
 62
     7
370
    25
100
AcDbLine
 10
866.0128208011
 20
-96.3919056405
 30
0.0
 11
863.8407277778
 21
-96.3919056405
 31
0.0
  0
LINE
  5
36B
330
1F
100
AcDbEntity
  8
0
  6
Continuous
 62
     7
370
    25
100
AcDbLine
 10
-40.8150861757
 20
-96.3919056405
 30
0.0
 11
-42.9871791989
 21
-96.3919056405
 31
0.0
  0
SPLINE
  5
36C
330
1F
100
AcDbEntity
  8
0
  6
Continuous
 62
     7
370
    25
100
AcDbSpline
210
0.0
220
0.0
230
1.0
 70
    24
 71
     3
 72
     9
 73
     5
 74
     0
 42
0.000000001
 43
0.00000001
 40
0.0
 40
0.0
 40
0.0
 40
0.0
 40
0.5153941859594328
 40
1.0
 40
1.0
 40
1.0
 40
1.0
 10
863.7128208010603
 20
-67.51689564051637
 30
0.0
 10
863.7128208010604
 20
-67.47315379246149
 30
0.0
 10
863.7128208010604
 20
-67.3882831259959
 30
0.0
 10
863.7128208010603
 20
-67.41103956123925
 30
0.0
 10
863.7128208010603
 20
-67.42206746206503
 30
0.0
  0
SPLINE
  5
36D
330
1F
100
AcDbEntity
  8
0
  6
Continuous
 62
     7
370
    25
100
AcDbSpline
210
0.0
220
0.0
230
1.0
 70
    24
 71
     3
 72
    17
 73
    13
 74
     0
 42
0.000000001
 43
0.00000001
 40
0.0
 40
0.0
 40
0.0
 40
0.0
 40
0.0359921626376393
 40
0.1205930661280472
 40
0.2034359252874609
 40
0.3573281084250927
 40
0.5112202915627223
 40
0.5940631507221394
 40
0.6786640542125462
 40
0.7632649577029533
 40
0.8461078168623699
 40
1.0
 40
1.0
 40
1.0
 40
1.0
 10
862.7128208010604
 20
-67.42206746205409
 30
0.0
 10
862.7128208010604
 20
-67.41491607501283
 30
0.0
 10
862.7128208010604
 20
-67.39095508942108
 30
0.0
 10
862.7128208010602
 20
-67.60896001565672
 30
0.0
 10
862.7128208010608
 20
-68.18074711274382
 30
0.0
 10
862.7128208010602
 20
-69.37776368883412
 30
0.0
 10
862.7128208010606
 20
-71.0238204487112
 30
0.0
 10
862.7128208010602
 20
-72.50901080092504
 30
0.0
 10
862.7128208010604
 20
-73.70503892529925
 30
0.0
 10
862.7128208010604
 20
-74.87480433808867
 30
0.0
 10
862.7128208010602
 20
-76.29675151867247
 30
0.0
 10
862.7128208010604
 20
-77.10901879853263
 30
0.0
 10
862.7128208010604
 20
-77.63704195799417
 30
0.0
  0
SPLINE
  5
36E
330
1F
100
AcDbEntity
  8
0
  6
Continuous
 62
     7
370
    25
100
AcDbSpline
210
0.0
220
0.0
230
1.0
 70
     8
 71
     3
 72
     8
 73
     4
 74
     0
 42
0.000000001
 43
0.00000001
 40
0.0
 40
0.0
 40
0.0
 40
0.0
 40
1.0
 40
1.0
 40
1.0
 40
1.0
 10
858.7128208010674
 20
-69.98010424283954
 30
0.0
 10
858.7128208010674
 20
-70.73522504914747
 30
0.0
 10
858.8871361014468
 20
-71.46967852309092
 30
0.0
 10
859.1594027884587
 20
-72.19251859386125
 30
0.0
  0
SPLINE
  5
36F
330
1F
100
AcDbEntity
  8
0
  6
Continuous
 62
     7
370
    25
100
AcDbSpline
210
0.0
220
0.0
230
1.0
 70
     8
 71
     3
 72
     8
 73
     4
 74
     0
 42
0.000000001
 43
0.00000001
 40
0.0
 40
0.0
 40
0.0
 40
0.0
 40
1.0
 40
1.0
 40
1.0
 40
1.0
 10
859.1594027884588
 20
-67.76768989181775
 30
0.0
 10
858.8871361014473
 20
-68.490529962587
 30
0.0
 10
858.7128208010674
 20
-69.22498343653272
 30
0.0
 10
858.7128208010674
 20
-69.98010424283954
 30
0.0
  0
LINE
  5
370
330
1F
100
AcDbEntity
  8
0
  6
Continuous
 62
     7
370
    25
100
AcDbLine
 10
859.1594027885
 20
-67.7676898918
 30
0.0
 11
862.7128208011
 21
-67.7676898918
 31
0.0
  0
LINE
  5
371
330
1F
100
AcDbEntity
  8
0
  6
Continuous
 62
     7
370
    25
100
AcDbLine
 10
862.7128208011
 20
-72.1925185939
 30
0.0
 11
859.1594027885
 21
-72.1925185939
 31
0.0
  0
SPLINE
  5
372
330
1F
100
AcDbEntity
  8
0
  6
Continuous
 62
     7
370
    25
100
AcDbSpline
210
0.0
220
0.0
230
1.0
 70
     8
 71
     3
 72
     8
 73
     4
 74
     0
 42
0.000000001
 43
0.00000001
 40
0.0
 40
0.0
 40
0.0
 40
0.0
 40
1.0
 40
1.0
 40
1.0
 40
1.0
 10
858.7128208010672
 20
-74.90462646821653
 30
0.0
 10
858.7128208010672
 20
-75.83029804683683
 30
0.0
 10
858.8871361014467
 20
-76.73063439165612
 30
0.0
 10
859.1594027884587
 20
-77.61673434256532
 30
0.0
  0
SPLINE
  5
373
330
1F
100
AcDbEntity
  8
0
  6
Continuous
 62
     7
370
    25
100
AcDbSpline
210
0.0
220
0.0
230
1.0
 70
     8
 71
     3
 72
     8
 73
     4
 74
     0
 42
0.000000001
 43
0.00000001
 40
0.0
 40
0.0
 40
0.0
 40
0.0
 40
1.0
 40
1.0
 40
1.0
 40
1.0
 10
859.1594027884586
 20
-72.19251859386786
 30
0.0
 10
858.8871361014471
 20
-73.07861854477537
 30
0.0
 10
858.7128208010672
 20
-73.97895488959801
 30
0.0
 10
858.7128208010672
 20
-74.90462646821653
 30
0.0
  0
LINE
  5
374
330
1F
100
AcDbEntity
  8
0
  6
Continuous
 62
     7
370
    25
100
AcDbLine
 10
862.7128208011
 20
-77.6167343426
 30
0.0
 11
859.1594027885
 21
-77.6167343426
 31
0.0
  0
LINE
  5
375
330
1F
100
AcDbEntity
  8
0
  6
Continuous
 62
     7
370
    25
100
AcDbLine
 10
858.7128208011
 20
-69.9801042428
 30
0.0
 11
858.7128208011
 21
-74.9046264682
 31
0.0
  0
SPLINE
  5
376
330
1F
100
AcDbEntity
  8
0
  6
Continuous
 62
     7
370
    25
100
AcDbSpline
210
0.0
220
0.0
230
1.0
 70
     8
 71
     3
 72
     8
 73
     4
 74
     0
 42
0.000000001
 43
0.00000001
 40
0.0
 40
0.0
 40
0.0
 40
0.0
 40
1.0
 40
1.0
 40
1.0
 40
1.0
 10
859.1594027884588
 20
-77.61673434256973
 30
0.0
 10
858.8871361014474
 20
-77.77999422270815
 30
0.0
 10
858.7128208010674
 20
-77.94587709358456
 30
0.0
 10
858.7128208010674
 20
-78.11642786589644
 30
0.0
  0
LINE
  5
377
330
1F
100
AcDbEntity
  8
0
  6
Continuous
 62
     7
370
    25
100
AcDbLine
 10
858.7128208011
 20
-74.9046264682
 30
0.0
 11
858.7128208011
 21
-78.1164278659
 31
0.0
  0
SPLINE
  5
378
330
1F
100
AcDbEntity
  8
0
  6
Continuous
 62
     7
370
    25
100
AcDbSpline
210
0.0
220
0.0
230
1.0
 70
     8
 71
     3
 72
     8
 73
     4
 74
     0
 42
0.000000001
 43
0.00000001
 40
0.0
 40
0.0
 40
0.0
 40
0.0
 40
1.0
 40
1.0
 40
1.0
 40
1.0
 10
858.7128208010674
 20
-68.26738341514216
 30
0.0
 10
858.7128208010674
 20
-68.09683264282985
 30
0.0
 10
858.8871361014467
 20
-67.93094977195427
 30
0.0
 10
859.1594027884588
 20
-67.76768989181545
 30
0.0
  0
LINE
  5
379
330
1F
100
AcDbEntity
  8
0
  6
Continuous
 62
     7
370
    25
100
AcDbLine
 10
858.7128208011
 20
-69.9801042428
 30
0.0
 11
858.7128208011
 21
-68.1965436748
 31
0.0
  0
SPLINE
  5
37A
330
1F
100
AcDbEntity
  8
0
  6
Continuous
 62
     7
370
    25
100
AcDbSpline
210
0.0
220
0.0
230
1.0
 70
     8
 71
     3
 72
     8
 73
     4
 74
     0
 42
0.000000001
 43
0.00000001
 40
0.0
 40
0.0
 40
0.0
 40
0.0
 40
1.0
 40
1.0
 40
1.0
 40
1.0
 10
858.7128208010674
 20
-78.11642786589644
 30
0.0
 10
858.7128208010674
 20
-78.28697863820864
 30
0.0
 10
858.8871361014469
 20
-78.45286150908444
 30
0.0
 10
859.1594027884588
 20
-78.61612138922315
 30
0.0
  0
LINE
  5
37B
330
1F
100
AcDbEntity
  8
0
  6
Continuous
 62
     7
370
    25
100
AcDbLine
 10
862.7128208011
 20
-78.6161213892
 30
0.0
 11
859.1594027885
 21
-78.6161213892
 31
0.0
  0
LINE
  5
37C
330
1F
100
AcDbEntity
  8
0
  6
Continuous
 62
     7
370
    25
100
AcDbLine
 10
873.7128208011
 20
-75.6506556405
 30
0.0
 11
873.7128208011
 21
-70.7331556405
 31
0.0
  0
LINE
  5
37D
330
1F
100
AcDbEntity
  8
0
  6
Continuous
 62
     7
370
    25
100
AcDbLine
 10
873.1715708011
 20
-71.2648248019
 30
0.0
 11
873.1715708011
 21
-70.1919056405
 31
0.0
  0
LINE
  5
37E
330
1F
100
AcDbEntity
  8
0
  6
Continuous
 62
     7
370
    25
100
AcDbLine
 10
873.1715708011
 20
-76.1919056405
 30
0.0
 11
873.1715708011
 21
-71.2648248019
 31
0.0
  0
LINE
  5
37F
330
1F
100
AcDbEntity
  8
0
  6
Continuous
 62
     7
370
    25
100
AcDbLine
 10
878.0128208011
 20
-98.7919056405
 30
0.0
 11
866.0128208011
 21
-98.7919056405
 31
0.0
  0
LINE
  5
380
330
1F
100
AcDbEntity
  8
0
  6
Continuous
 62
     7
370
    25
100
AcDbLine
 10
881.0128208011
 20
-94.7919056405
 30
0.0
 11
881.0128208011
 21
-95.7919056405
 31
0.0
  0
ARC
  5
381
330
1F
100
AcDbEntity
  8
0
  6
Continuous
 62
     7
370
    25
100
AcDbCircle
 10
884.0128208011
 20
-94.7919056405
 30
0.0
 40
3.000000000000114
100
AcDbArc
 50
90.0
 51
180.0
  0
LINE
  5
382
330
1F
100
AcDbEntity
  8
0
  6
Continuous
 62
     7
370
    25
100
AcDbLine
 10
907.5421101229
 20
-91.7919056405
 30
0.0
 11
884.0128208011
 21
-91.7919056405
 31
0.0
  0
LINE
  5
383
330
1F
100
AcDbEntity
  8
0
  6
Continuous
 62
     7
370
    25
100
AcDbLine
 10
907.5421101229
 20
-101.3919056405
 30
0.0
 11
907.5421101229
 21
-91.7919056405
 31
0.0
  0
LINE
  5
384
330
1F
100
AcDbEntity
  8
0
  6
Continuous
 62
     7
370
    25
100
AcDbLine
 10
-84.5164685208
 20
-101.3919056405
 30
0.0
 11
-84.5164685208
 21
-91.7919056405
 31
0.0
  0
LINE
  5
385
330
1F
100
AcDbEntity
  8
0
  6
Continuous
 62
     7
370
    25
100
AcDbLine
 10
-60.9871791989
 20
-91.7919056405
 30
0.0
 11
-84.5164685208
 21
-91.7919056405
 31
0.0
  0
ARC
  5
386
330
1F
100
AcDbEntity
  8
0
  6
Continuous
 62
     7
370
    25
100
AcDbCircle
 10
-60.9871791989
 20
-94.7919056405
 30
0.0
 40
3.000000000000057
100
AcDbArc
 50
0.0
 51
90.0
  0
LINE
  5
387
330
1F
100
AcDbEntity
  8
0
  6
Continuous
 62
     7
370
    25
100
AcDbLine
 10
-57.9871791989
 20
-94.7919056405
 30
0.0
 11
-57.9871791989
 21
-95.7919056405
 31
0.0
  0
ARC
  5
388
330
1F
100
AcDbEntity
  8
0
  6
Continuous
 62
     7
370
    25
100
AcDbCircle
 10
-54.9871791989
 20
-95.7919056405
 30
0.0
 40
3.000000000000057
100
AcDbArc
 50
180.0
 51
270.0
  0
LINE
  5
389
330
1F
100
AcDbEntity
  8
0
  6
Continuous
 62
     7
370
    25
100
AcDbLine
 10
-54.9871791989
 20
-98.7919056405
 30
0.0
 11
-42.9871791989
 21
-98.7919056405
 31
0.0
  0
ARC
  5
38A
330
1F
100
AcDbEntity
  8
0
  6
Continuous
 62
     7
370
    25
100
AcDbCircle
 10
-42.9871791989
 20
-95.7919056405
 30
0.0
 40
3.000000000000015
100
AcDbArc
 50
270.0
 51
312.3694630984
  0
ARC
  5
38B
330
1F
100
AcDbEntity
  8
0
  6
Continuous
 62
     7
370
    25
100
AcDbCircle
 10
866.0128208011
 20
-95.7919056405
 30
0.0
 40
3.000000000000028
100
AcDbArc
 50
227.6305369016
 51
270.0
  0
ARC
  5
38C
330
1F
100
AcDbEntity
  8
0
  6
Continuous
 62
     7
370
    25
100
AcDbCircle
 10
878.0128208011
 20
-95.7919056405
 30
0.0
 40
3.000000000000014
100
AcDbArc
 50
270.0
 51
0.0
  0
SPLINE
  5
38D
330
1F
100
AcDbEntity
  8
0
  6
Continuous
 62
     7
370
    25
100
AcDbSpline
210
0.0
220
0.0
230
1.0
 70
     8
 71
     3
 72
    20
 73
    16
 74
     0
 42
0.000000001
 43
0.00000001
 40
0.0
 40
0.0
 40
0.0
 40
0.0
 40
0.1250000000000108
 40
0.1250000000000108
 40
0.2500000000000215
 40
0.2500000000000215
 40
0.3750000000000323
 40
0.3750000000000323
 40
0.5000000000000431
 40
0.5000000000000431
 40
0.7500000000000245
 40
0.7500000000000245
 40
0.8750000000000123
 40
0.8750000000000123
 40
1.0
 40
1.0
 40
1.0
 40
1.0
 10
-83.58717919893854
 20
-103.7919056405163
 30
0.0
 10
-83.62621992979325
 20
-103.7919056405163
 30
0.0
 10
-83.66473863399293
 20
-103.7763690800415
 30
0.0
 10
-83.74214538530089
 20
-103.7150507280809
 30
0.0
 10
-83.78128980328736
 20
-103.6686269824941
 30
0.0
 10
-83.85844055720266
 20
-103.5486761123399
 30
0.0
 10
-83.89676813894376
 20
-103.4750714680566
 30
0.0
 10
-83.97431445942033
 20
-103.300341101961
 30
0.0
 10
-84.01329066708895
 20
-103.1994904730594
 30
0.0
 10
-84.1287855235343
 20
-102.8682051930755
 30
0.0
 10
-84.2066979672042
 20
-102.6005250316916
 30
0.0
 10
-84.32217789260493
 20
-102.1678510056362
 30
0.0
 10
-84.36104368847013
 20
-102.016332918785
 30
0.0
 10
-84.43881802213859
 20
-101.7069071613989
 30
0.0
 10
-84.47742778909328
 20
-101.5502848317051
 30
0.0
 10
-84.51646852081996
 20
-101.3919056405164
 30
0.0
  0
SPLINE
  5
38E
330
1F
100
AcDbEntity
  8
0
  6
Continuous
 62
     7
370
    25
100
AcDbSpline
210
0.0
220
0.0
230
1.0
 70
     8
 71
     3
 72
    20
 73
    16
 74
     0
 42
0.000000001
 43
0.00000001
 40
0.0
 40
0.0
 40
0.0
 40
0.0
 40
0.1249999999999987
 40
0.1249999999999987
 40
0.2499999999999973
 40
0.2499999999999973
 40
0.374999999999996
 40
0.374999999999996
 40
0.4999999999999947
 40
0.4999999999999947
 40
0.7499999999999921
 40
0.7499999999999921
 40
0.874999999999996
 40
0.874999999999996
 40
1.0
 40
1.0
 40
1.0
 40
1.0
 10
907.5421101229429
 20
-101.3919056405165
 30
0.0
 10
907.5030693920884
 20
-101.5502848281672
 30
0.0
 10
907.4645506878885
 20
-101.7065305528589
 30
0.0
 10
907.3871439365809
 20
-102.0145224022755
 30
0.0
 10
907.3479995185941
 20
-102.1671665097466
 30
0.0
 10
907.2708487646788
 20
-102.4562507989336
 30
0.0
 10
907.2325211829378
 20
-102.5940553371176
 30
0.0
 10
907.1549748624612
 20
-102.8556740127565
 30
0.0
 10
907.1159986547926
 20
-102.9784203194392
 30
0.0
 10
907.0005037983475
 20
-103.3097446963869
 30
0.0
 10
906.9225913546775
 20
-103.4887558204151
 30
0.0
 10
906.8071114292763
 20
-103.6683709197959
 30
0.0
 10
906.7682456334114
 20
-103.7146152686637
 30
0.0
 10
906.6904712997427
 20
-103.7763685746749
 30
0.0
 10
906.6518615327881
 20
-103.7919056405163
 30
0.0
 10
906.6128208010614
 20
-103.7919056405163
 30
0.0
  0
LINE
  5
38F
330
1F
100
AcDbEntity
  8
0
  6
Continuous
 62
     7
370
    25
100
AcDbLine
 10
906.6128208011
 20
-103.7919056405
 30
0.0
 11
-83.5871791989
 21
-103.7919056405
 31
0.0
  0
SPLINE
  5
390
330
1F
100
AcDbEntity
  8
0
  6
Continuous
 62
     7
370
    25
100
AcDbSpline
210
0.0
220
0.0
230
1.0
 70
     8
 71
     3
 72
    20
 73
    16
 74
     0
 42
0.000000001
 43
0.00000001
 40
0.0
 40
0.0
 40
0.0
 40
0.0
 40
0.125
 40
0.125
 40
0.25
 40
0.25
 40
0.375
 40
0.375
 40
0.5
 40
0.5
 40
0.75
 40
0.75
 40
0.875
 40
0.875
 40
1.0
 40
1.0
 40
1.0
 40
1.0
 10
-85.98717919893856
 20
-101.3919056405164
 30
0.0
 10
-85.98717919893856
 20
-101.5502848281671
 30
0.0
 10
-85.97164263846379
 20
-101.7065305528588
 30
0.0
 10
-85.91032428650297
 20
-102.0145224022754
 30
0.0
 10
-85.8639005409163
 20
-102.1671665097465
 30
0.0
 10
-85.74394967076215
 20
-102.4562507989336
 30
0.0
 10
-85.6703450264788
 20
-102.5940553371176
 30
0.0
 10
-85.49561466038314
 20
-102.8556740127565
 30
0.0
 10
-85.39476403148139
 20
-102.9784203194391
 30
0.0
 10
-85.0634787514975
 20
-103.3097446963869
 30
0.0
 10
-84.79579859011372
 20
-103.4887558204151
 30
0.0
 10
-84.36312456405825
 20
-103.668370919796
 30
0.0
 10
-84.21160647720727
 20
-103.7146152686637
 30
0.0
 10
-83.90218071982119
 20
-103.7763685746749
 30
0.0
 10
-83.74555839012737
 20
-103.7919056405164
 30
0.0
 10
-83.58717919893854
 20
-103.7919056405164
 30
0.0
  0
LINE
  5
391
330
1F
100
AcDbEntity
  8
0
  6
Continuous
 62
     7
370
    25
100
AcDbLine
 10
-85.9871791989
 20
-101.3919056405
 30
0.0
 11
-84.5871791989
 21
-101.3919056405
 31
0.0
  0
SPLINE
  5
392
330
1F
100
AcDbEntity
  8
0
  6
Continuous
 62
     7
370
    25
100
AcDbSpline
210
0.0
220
0.0
230
1.0
 70
     8
 71
     3
 72
     9
 73
     5
 74
     0
 42
0.000000001
 43
0.00000001
 40
0.0
 40
0.0
 40
0.0
 40
0.0
 40
0.6784508005730038
 40
0.9999999999999999
 40
0.9999999999999999
 40
0.9999999999999999
 40
0.9999999999999999
 10
-84.58717919893854
 20
-101.3919056405164
 30
0.0
 10
-84.57392962847405
 20
-101.5426128449697
 30
0.0
 10
-84.55440047403373
 20
-101.764747160864
 30
0.0
 10
-84.41355282039514
 20
-101.9315802657532
 30
0.0
 10
-84.36826337012631
 20
-101.9852253170683
 30
0.0
  0
SPLINE
  5
393
330
1F
100
AcDbEntity
  8
0
  6
Continuous
 62
     7
370
    25
100
AcDbSpline
210
0.0
220
0.0
230
1.0
 70
     8
 71
     3
 72
    20
 73
    16
 74
     0
 42
0.000000001
 43
0.00000001
 40
0.0
 40
0.0
 40
0.0
 40
0.0
 40
0.1250000000000067
 40
0.1250000000000067
 40
0.2500000000000134
 40
0.2500000000000134
 40
0.3750000000000201
 40
0.3750000000000201
 40
0.5000000000000268
 40
0.5000000000000268
 40
0.7500000000000105
 40
0.7500000000000105
 40
0.8750000000000053
 40
0.8750000000000053
 40
1.0
 40
1.0
 40
1.0
 40
1.0
 10
906.6128208010614
 20
-103.7919056405164
 30
0.0
 10
906.7711999887122
 20
-103.7919056405164
 30
0.0
 10
906.9274457134039
 20
-103.7763690800415
 30
0.0
 10
907.2354375628204
 20
-103.7150507280809
 30
0.0
 10
907.3880816702916
 20
-103.6686269824941
 30
0.0
 10
907.6771659594787
 20
-103.54867611234
 30
0.0
 10
907.8149704976626
 20
-103.4750714680565
 30
0.0
 10
908.0765891733016
 20
-103.3003411019609
 30
0.0
 10
908.1993354799844
 20
-103.1994904730593
 30
0.0
 10
908.5306598569321
 20
-102.8682051930754
 30
0.0
 10
908.7096709809601
 20
-102.6005250316915
 30
0.0
 10
908.8892860803408
 20
-102.1678510056361
 30
0.0
 10
908.9355304292086
 20
-102.016332918785
 30
0.0
 10
908.9972837352199
 20
-101.7069071613989
 30
0.0
 10
909.0128208010615
 20
-101.5502848317051
 30
0.0
 10
909.0128208010615
 20
-101.3919056405164
 30
0.0
  0
SPLINE
  5
394
330
1F
100
AcDbEntity
  8
0
  6
Continuous
 62
     7
370
    25
100
AcDbSpline
210
0.0
220
0.0
230
1.0
 70
     8
 71
     3
 72
     9
 73
     5
 74
     0
 42
0.000000001
 43
0.00000001
 40
0.0
 40
0.0
 40
0.0
 40
0.0
 40
0.4825784287291948
 40
1.0
 40
1.0
 40
1.0
 40
1.0
 10
907.388991033008
 20
-102.0044453796943
 30
0.0
 10
907.4527992260695
 20
-101.916311038378
 30
0.0
 10
907.5850226933086
 20
-101.733678877325
 30
0.0
 10
907.603341997765
 20
-101.5084459932805
 30
0.0
 10
907.6128208010614
 20
-101.3919056405164
 30
0.0
  0
LINE
  5
395
330
1F
100
AcDbEntity
  8
0
  6
Continuous
 62
     7
370
    25
100
AcDbLine
 10
909.0128208011
 20
-101.3919056405
 30
0.0
 11
907.6128208011
 21
-101.3919056405
 31
0.0
  0
LINE
  5
396
330
1F
100
AcDbEntity
  8
0
  6
Continuous
 62
     7
370
    25
100
AcDbLine
 10
-84.5871791989
 20
-101.3919056405
 30
0.0
 11
-84.5871791989
 21
-91.7919056405
 31
0.0
  0
LINE
  5
397
330
1F
100
AcDbEntity
  8
0
  6
Continuous
 62
     7
370
    25
100
AcDbLine
 10
-85.9871791989
 20
-101.3919056405
 30
0.0
 11
-85.9871791989
 21
-91.7919056405
 31
0.0
  0
LINE
  5
398
330
1F
100
AcDbEntity
  8
0
  6
Continuous
 62
     7
370
    25
100
AcDbLine
 10
-85.9871791989
 20
-91.7919056405
 30
0.0
 11
-84.5871791989
 21
-91.7919056405
 31
0.0
  0
LINE
  5
399
330
1F
100
AcDbEntity
  8
0
  6
Continuous
 62
     7
370
    25
100
AcDbLine
 10
909.0128208011
 20
-91.7919056405
 30
0.0
 11
907.6128208011
 21
-91.7919056405
 31
0.0
  0
LINE
  5
39A
330
1F
100
AcDbEntity
  8
0
  6
Continuous
 62
     7
370
    25
100
AcDbLine
 10
909.0128208011
 20
-101.3919056405
 30
0.0
 11
909.0128208011
 21
-91.7919056405
 31
0.0
  0
LINE
  5
39B
330
1F
100
AcDbEntity
  8
0
  6
Continuous
 62
     7
370
    25
100
AcDbLine
 10
907.6128208011
 20
-101.3919056405
 30
0.0
 11
907.6128208011
 21
-91.7919056405
 31
0.0
  0
LINE
  5
39C
330
1F
100
AcDbEntity
  8
0
  6
Continuous
 62
     7
370
    25
100
AcDbLine
 10
-40.6871791989
 20
-84.6919056405
 30
0.0
 11
-40.6871791989
 21
-67.6919056405
 31
0.0
  0
LINE
  5
39D
330
1F
100
AcDbEntity
  8
0
  6
Continuous
 62
     7
370
    25
100
AcDbLine
 10
-41.4871791989
 20
-84.6919056405
 30
0.0
 11
-41.4871791989
 21
-67.6919056405
 31
0.0
  0
LINE
  5
39E
330
1F
100
AcDbEntity
  8
0
  6
Continuous
 62
     7
370
    25
100
AcDbLine
 10
864.5128208011
 20
-67.6919056405
 30
0.0
 11
864.5128208011
 21
-84.6919056405
 31
0.0
  0
LINE
  5
39F
330
1F
100
AcDbEntity
  8
0
  6
Continuous
 62
     7
370
    25
100
AcDbLine
 10
863.7128208011
 20
-67.6919056405
 30
0.0
 11
863.7128208011
 21
-84.6919056405
 31
0.0
  0
LINE
  5
3A0
330
1F
100
AcDbEntity
  8
0
  6
Continuous
 62
     7
370
    25
100
AcDbLine
 10
863.7128208011
 20
-67.6919056405
 30
0.0
 11
863.7128208011
 21
-64.6919056405
 31
0.0
  0
LINE
  5
3A1
330
1F
100
AcDbEntity
  8
0
  6
Continuous
 62
     7
370
    25
100
AcDbLine
 10
863.7128208011
 20
-64.6919056405
 30
0.0
 11
864.5128208011
 21
-64.6919056405
 31
0.0
  0
LINE
  5
3A2
330
1F
100
AcDbEntity
  8
0
  6
Continuous
 62
     7
370
    25
100
AcDbLine
 10
864.5128208011
 20
-64.6919056405
 30
0.0
 11
864.5128208011
 21
-67.6919056405
 31
0.0
  0
LINE
  5
3A3
330
1F
100
AcDbEntity
  8
0
  6
Continuous
 62
     7
370
    25
100
AcDbLine
 10
-41.4871791989
 20
-64.6919056405
 30
0.0
 11
-40.6871791989
 21
-64.6919056405
 31
0.0
  0
LINE
  5
3A4
330
1F
100
AcDbEntity
  8
0
  6
Continuous
 62
     7
370
    25
100
AcDbLine
 10
-41.4871791989
 20
-67.6919056405
 30
0.0
 11
-41.4871791989
 21
-64.6919056405
 31
0.0
  0
LINE
  5
3A5
330
1F
100
AcDbEntity
  8
0
  6
Continuous
 62
     7
370
    25
100
AcDbLine
 10
-40.6871791989
 20
-64.6919056405
 30
0.0
 11
-40.6871791989
 21
-67.6919056405
 31
0.0
  0
LINE
  5
3A6
330
1F
100
AcDbEntity
  8
0
  6
Continuous
 62
     7
370
    25
100
AcDbLine
 10
-40.6871791989
 20
-87.6919056405
 30
0.0
 11
-41.4871791989
 21
-87.6919056405
 31
0.0
  0
LINE
  5
3A7
330
1F
100
AcDbEntity
  8
0
  6
Continuous
 62
     7
370
    25
100
AcDbLine
 10
-41.4871791989
 20
-87.6919056405
 30
0.0
 11
-41.4871791989
 21
-84.6919056405
 31
0.0
  0
LINE
  5
3A8
330
1F
100
AcDbEntity
  8
0
  6
Continuous
 62
     7
370
    25
100
AcDbLine
 10
-40.6871791989
 20
-84.6919056405
 30
0.0
 11
-40.6871791989
 21
-87.6919056405
 31
0.0
  0
LINE
  5
3A9
330
1F
100
AcDbEntity
  8
0
  6
Continuous
 62
     7
370
    25
100
AcDbLine
 10
864.5128208011
 20
-87.6919056405
 30
0.0
 11
863.7128208011
 21
-87.6919056405
 31
0.0
  0
LINE
  5
3AA
330
1F
100
AcDbEntity
  8
0
  6
Continuous
 62
     7
370
    25
100
AcDbLine
 10
863.7128208011
 20
-87.6919056405
 30
0.0
 11
863.7128208011
 21
-84.6919056405
 31
0.0
  0
LINE
  5
3AB
330
1F
100
AcDbEntity
  8
0
  6
Continuous
 62
     7
370
    25
100
AcDbLine
 10
864.5128208011
 20
-84.6919056405
 30
0.0
 11
864.5128208011
 21
-87.6919056405
 31
0.0
  0
LINE
  5
3AC
330
1F
100
AcDbEntity
  8
0
  6
Continuous
 62
     7
370
    25
100
AcDbLine
 10
861.5128208011
 20
-84.8919056405
 30
0.0
 11
-38.4871791989
 21
-84.8919056405
 31
0.0
  0
LINE
  5
3AD
330
1F
100
AcDbEntity
  8
0
  6
Continuous
 62
     7
370
    25
100
AcDbLine
 10
-38.4871791989
 20
-85.6919056405
 30
0.0
 11
-38.4871791989
 21
-84.8919056405
 31
0.0
  0
LINE
  5
3AE
330
1F
100
AcDbEntity
  8
0
  6
Continuous
 62
     7
370
    25
100
AcDbLine
 10
861.5128208011
 20
-85.6919056405
 30
0.0
 11
861.5128208011
 21
-84.8919056405
 31
0.0
  0
LINE
  5
3AF
330
1F
100
AcDbEntity
  8
0
  6
Continuous
 62
     7
370
    25
100
AcDbLine
 10
16.0128208011
 20
-44.7872922487
 30
0.0
 11
16.0128208011
 21
-51.3049837024
 31
0.0
  0
ARC
  5
3B0
330
1F
100
AcDbEntity
  8
0
  6
Continuous
 62
     7
370
    25
100
AcDbCircle
 10
19.0128208011
 20
-44.7872922487
 30
0.0
 40
3.000000000000004
100
AcDbArc
 50
90.0
 51
180.0
  0
LINE
  5
3B1
330
1F
100
AcDbEntity
  8
0
  6
Continuous
 62
     7
370
    25
100
AcDbLine
 10
213.0128208011
 20
-41.7872922487
 30
0.0
 11
19.0128208011
 21
-41.7872922487
 31
0.0
  0
ARC
  5
3B2
330
1F
100
AcDbEntity
  8
0
  6
Continuous
 62
     7
370
    25
100
AcDbCircle
 10
213.0128208011
 20
-44.7872922487
 30
0.0
 40
3.0
100
AcDbArc
 50
0.0
 51
90.0
  0
LINE
  5
3B3
330
1F
100
AcDbEntity
  8
0
  6
Continuous
 62
     7
370
    25
100
AcDbLine
 10
216.0128208011
 20
-51.3049837024
 30
0.0
 11
216.0128208011
 21
-44.7872922487
 31
0.0
  0
LINE
  5
3B4
330
1F
100
AcDbEntity
  8
0
  6
Continuous
 62
     7
370
    25
100
AcDbLine
 10
607.0128208011
 20
-44.7872922487
 30
0.0
 11
607.0128208011
 21
-51.3049837024
 31
0.0
  0
ARC
  5
3B5
330
1F
100
AcDbEntity
  8
0
  6
Continuous
 62
     7
370
    25
100
AcDbCircle
 10
610.0128208011
 20
-44.7872922487
 30
0.0
 40
3.0
100
AcDbArc
 50
90.0
 51
180.0
  0
ARC
  5
3B6
330
1F
100
AcDbEntity
  8
0
  6
Continuous
 62
     7
370
    25
100
AcDbCircle
 10
804.0128208011
 20
-44.7872922487
 30
0.0
 40
3.0
100
AcDbArc
 50
0.0
 51
90.0
  0
LINE
  5
3B7
330
1F
100
AcDbEntity
  8
0
  6
Continuous
 62
     7
370
    25
100
AcDbLine
 10
807.0128208011
 20
-51.3049837024
 30
0.0
 11
807.0128208011
 21
-44.7872922487
 31
0.0
  0
LINE
  5
3B8
330
1F
100
AcDbEntity
  8
0
  6
Continuous
 62
     7
370
    25
100
AcDbLine
 10
804.0128208011
 20
-41.7872922487
 30
0.0
 11
610.0128208011
 21
-41.7872922487
 31
0.0
  0
LINE
  5
3B9
330
1F
100
AcDbEntity
  8
0
  6
Continuous
 62
     7
370
    25
100
AcDbLine
 10
311.5128208011
 20
-44.7872922487
 30
0.0
 11
311.5128208011
 21
-51.3049837024
 31
0.0
  0
ARC
  5
3BA
330
1F
100
AcDbEntity
  8
0
  6
Continuous
 62
     7
370
    25
100
AcDbCircle
 10
314.5128208011
 20
-44.7872922487
 30
0.0
 40
3.0
100
AcDbArc
 50
90.0
 51
180.0
  0
LINE
  5
3BB
330
1F
100
AcDbEntity
  8
0
  6
Continuous
 62
     7
370
    25
100
AcDbLine
 10
508.5128208011
 20
-41.7872922487
 30
0.0
 11
314.5128208011
 21
-41.7872922487
 31
0.0
  0
ARC
  5
3BC
330
1F
100
AcDbEntity
  8
0
  6
Continuous
 62
     7
370
    25
100
AcDbCircle
 10
508.5128208011
 20
-44.7872922487
 30
0.0
 40
3.0
100
AcDbArc
 50
0.0
 51
90.0
  0
LINE
  5
3BD
330
1F
100
AcDbEntity
  8
0
  6
Continuous
 62
     7
370
    25
100
AcDbLine
 10
511.5128208011
 20
-51.3049837024
 30
0.0
 11
511.5128208011
 21
-44.7872922487
 31
0.0
  0
LINE
  5
3BE
330
1F
100
AcDbEntity
  8
0
  6
Continuous
 62
     7
370
    25
100
AcDbLine
 10
607.0128208011
 20
-52.2049837024
 30
0.0
 11
607.0128208011
 21
-51.3049837024
 31
0.0
  0
LINE
  5
3BF
330
1F
100
AcDbEntity
  8
0
  6
Continuous
 62
     7
370
    25
100
AcDbLine
 10
807.0128208011
 20
-51.3049837024
 30
0.0
 11
807.0128208011
 21
-52.2049837024
 31
0.0
  0
LINE
  5
3C0
330
1F
100
AcDbEntity
  8
0
  6
Continuous
 62
     7
370
    25
100
AcDbLine
 10
16.0128208011
 20
-52.2049837024
 30
0.0
 11
16.0128208011
 21
-51.3049837024
 31
0.0
  0
LINE
  5
3C1
330
1F
100
AcDbEntity
  8
0
  6
Continuous
 62
     7
370
    25
100
AcDbLine
 10
216.0128208011
 20
-51.3049837024
 30
0.0
 11
216.0128208011
 21
-52.2049837024
 31
0.0
  0
LINE
  5
3C2
330
1F
100
AcDbEntity
  8
0
  6
Continuous
 62
     7
370
    25
100
AcDbLine
 10
311.5128208011
 20
-52.2049837024
 30
0.0
 11
311.5128208011
 21
-51.3049837024
 31
0.0
  0
LINE
  5
3C3
330
1F
100
AcDbEntity
  8
0
  6
Continuous
 62
     7
370
    25
100
AcDbLine
 10
511.5128208011
 20
-51.3049837024
 30
0.0
 11
511.5128208011
 21
-52.2049837024
 31
0.0
  0
LINE
  5
3C4
330
1F
100
AcDbEntity
  8
0
  6
Continuous
 62
     7
370
    25
100
AcDbLine
 10
607.0128208011
 20
-58.8298548329
 30
0.0
 11
607.0128208011
 21
-52.2049837024
 31
0.0
  0
LINE
  5
3C5
330
1F
100
AcDbEntity
  8
0
  6
Continuous
 62
     7
370
    25
100
AcDbLine
 10
807.0128208011
 20
-52.2049837024
 30
0.0
 11
807.0128208011
 21
-58.8298548329
 31
0.0
  0
LINE
  5
3C6
330
1F
100
AcDbEntity
  8
0
  6
Continuous
 62
     7
370
    25
100
AcDbLine
 10
16.0128208011
 20
-58.8298548329
 30
0.0
 11
16.0128208011
 21
-52.2049837024
 31
0.0
  0
LINE
  5
3C7
330
1F
100
AcDbEntity
  8
0
  6
Continuous
 62
     7
370
    25
100
AcDbLine
 10
216.0128208011
 20
-52.2049837024
 30
0.0
 11
216.0128208011
 21
-58.8298548329
 31
0.0
  0
LINE
  5
3C8
330
1F
100
AcDbEntity
  8
0
  6
Continuous
 62
     7
370
    25
100
AcDbLine
 10
511.5128208011
 20
-52.2049837024
 30
0.0
 11
511.5128208011
 21
-58.8298548329
 31
0.0
  0
LINE
  5
3C9
330
1F
100
AcDbEntity
  8
0
  6
Continuous
 62
     7
370
    25
100
AcDbLine
 10
311.5128208011
 20
-58.8298548329
 30
0.0
 11
311.5128208011
 21
-52.2049837024
 31
0.0
  0
LINE
  5
3CA
330
1F
100
AcDbEntity
  8
0
  6
Continuous
 62
     7
370
    25
100
AcDbLine
 10
863.7128208011
 20
-64.6919056405
 30
0.0
 11
862.7128208011
 21
-64.6919056405
 31
0.0
  0
LINE
  5
3CB
330
1F
100
AcDbEntity
  8
0
  6
Continuous
 62
     7
370
    25
100
AcDbLine
 10
862.7128208011
 20
-83.6919056405
 30
0.0
 11
863.7128208011
 21
-83.6919056405
 31
0.0
  0
LINE
  5
3CC
330
1F
100
AcDbEntity
  8
0
  6
Continuous
 62
     7
370
    25
100
AcDbLine
 10
-40.6871791989
 20
-83.6919056405
 30
0.0
 11
-39.6871791989
 21
-83.6919056405
 31
0.0
  0
LINE
  5
3CD
330
1F
100
AcDbEntity
  8
0
  6
Continuous
 62
     7
370
    25
100
AcDbLine
 10
-39.6871791989
 20
-64.6919056405
 30
0.0
 11
-40.6871791989
 21
-64.6919056405
 31
0.0
  0
LINE
  5
3CE
330
1F
100
AcDbEntity
  8
0
  6
Continuous
 62
     7
370
    25
100
AcDbLine
 10
861.5128208011
 20
-84.8919056405
 30
0.0
 11
861.5128208011
 21
-83.8919056405
 31
0.0
  0
LINE
  5
3CF
330
1F
100
AcDbEntity
  8
0
  6
Continuous
 62
     7
370
    25
100
AcDbLine
 10
-38.4871791989
 20
-83.8919056405
 30
0.0
 11
-38.4871791989
 21
-84.8919056405
 31
0.0
  0
LINE
  5
3D0
330
1F
100
AcDbEntity
  8
0
  6
Continuous
 62
     7
370
    25
100
AcDbLine
 10
607.0128208011
 20
-58.8298548329
 30
0.0
 11
607.0128208011
 21
-59.3298548329
 31
0.0
  0
LINE
  5
3D1
330
1F
100
AcDbEntity
  8
0
  6
Continuous
 62
     7
370
    25
100
AcDbLine
 10
807.0128208011
 20
-59.3298548329
 30
0.0
 11
807.0128208011
 21
-58.8298548329
 31
0.0
  0
LINE
  5
3D2
330
1F
100
AcDbEntity
  8
0
  6
Continuous
 62
     7
370
    25
100
AcDbLine
 10
311.5128208011
 20
-58.8298548329
 30
0.0
 11
311.5128208011
 21
-59.3298548329
 31
0.0
  0
LINE
  5
3D3
330
1F
100
AcDbEntity
  8
0
  6
Continuous
 62
     7
370
    25
100
AcDbLine
 10
511.5128208011
 20
-59.3298548329
 30
0.0
 11
511.5128208011
 21
-58.8298548329
 31
0.0
  0
LINE
  5
3D4
330
1F
100
AcDbEntity
  8
0
  6
Continuous
 62
     7
370
    25
100
AcDbLine
 10
216.0128208011
 20
-59.3298548329
 30
0.0
 11
216.0128208011
 21
-58.8298548329
 31
0.0
  0
LINE
  5
3D5
330
1F
100
AcDbEntity
  8
0
  6
Continuous
 62
     7
370
    25
100
AcDbLine
 10
16.0128208011
 20
-58.8298548329
 30
0.0
 11
16.0128208011
 21
-59.3298548329
 31
0.0
  0
LINE
  5
3D6
330
1F
100
AcDbEntity
  8
0
  6
Continuous
 62
     7
370
    25
100
AcDbLine
 10
-38.4871791989
 20
-83.6919056405
 30
0.0
 11
-38.4871791989
 21
-83.8919056405
 31
0.0
  0
LINE
  5
3D7
330
1F
100
AcDbEntity
  8
0
  6
Continuous
 62
     7
370
    25
100
AcDbLine
 10
-39.6871791989
 20
-83.6919056405
 30
0.0
 11
-38.4871791989
 21
-83.6919056405
 31
0.0
  0
LINE
  5
3D8
330
1F
100
AcDbEntity
  8
0
  6
Continuous
 62
     7
370
    25
100
AcDbLine
 10
-36.4871791989
 20
-64.6919056405
 30
0.0
 11
-39.6871791989
 21
-64.6919056405
 31
0.0
  0
LINE
  5
3D9
330
1F
100
AcDbEntity
  8
0
  6
Continuous
 62
     7
370
    25
100
AcDbLine
 10
-36.4871791989
 20
-43.6919056405
 30
0.0
 11
-36.4871791989
 21
-64.6919056405
 31
0.0
  0
ARC
  5
3DA
330
1F
100
AcDbEntity
  8
0
  6
Continuous
 62
     7
370
    25
100
AcDbCircle
 10
-33.4871791989
 20
-43.6919056405
 30
0.0
 40
3.000000000000007
100
AcDbArc
 50
90.0
 51
180.0
  0
LINE
  5
3DB
330
1F
100
AcDbEntity
  8
0
  6
Continuous
 62
     7
370
    25
100
AcDbLine
 10
10.5128208011
 20
-40.6919056405
 30
0.0
 11
-33.4871791989
 21
-40.6919056405
 31
0.0
  0
ARC
  5
3DC
330
1F
100
AcDbEntity
  8
0
  6
Continuous
 62
     7
370
    25
100
AcDbCircle
 10
10.5128208011
 20
-43.6919056405
 30
0.0
 40
3.000000000000002
100
AcDbArc
 50
0.0
 51
90.0
  0
LINE
  5
3DD
330
1F
100
AcDbEntity
  8
0
  6
Continuous
 62
     7
370
    25
100
AcDbLine
 10
13.5128208011
 20
-43.6919056405
 30
0.0
 11
13.5128208011
 21
-59.8219056405
 31
0.0
  0
LINE
  5
3DE
330
1F
100
AcDbEntity
  8
0
  6
Continuous
 62
     7
370
    25
100
AcDbLine
 10
13.5128208011
 20
-59.8219056405
 30
0.0
 11
16.0128208011
 21
-59.8219056405
 31
0.0
  0
LINE
  5
3DF
330
1F
100
AcDbEntity
  8
0
  6
Continuous
 62
     7
370
    25
100
AcDbLine
 10
16.0128208011
 20
-59.3298548329
 30
0.0
 11
16.0128208011
 21
-59.8219056405
 31
0.0
  0
LINE
  5
3E0
330
1F
100
AcDbEntity
  8
0
  6
Continuous
 62
     7
370
    25
100
AcDbLine
 10
216.0128208011
 20
-59.3298548329
 30
0.0
 11
216.0128208011
 21
-59.8219056405
 31
0.0
  0
LINE
  5
3E1
330
1F
100
AcDbEntity
  8
0
  6
Continuous
 62
     7
370
    25
100
AcDbLine
 10
216.0128208011
 20
-59.8219056405
 30
0.0
 11
218.5128208011
 21
-59.8219056405
 31
0.0
  0
LINE
  5
3E2
330
1F
100
AcDbEntity
  8
0
  6
Continuous
 62
     7
370
    25
100
AcDbLine
 10
218.5128208011
 20
-59.8219056405
 30
0.0
 11
218.5128208011
 21
-43.6919056405
 31
0.0
  0
ARC
  5
3E3
330
1F
100
AcDbEntity
  8
0
  6
Continuous
 62
     7
370
    25
100
AcDbCircle
 10
221.5128208011
 20
-43.6919056405
 30
0.0
 40
3.000000000000007
100
AcDbArc
 50
90.0
 51
180.0
  0
LINE
  5
3E4
330
1F
100
AcDbEntity
  8
0
  6
Continuous
 62
     7
370
    25
100
AcDbLine
 10
306.0128208011
 20
-40.6919056405
 30
0.0
 11
221.5128208011
 21
-40.6919056405
 31
0.0
  0
ARC
  5
3E5
330
1F
100
AcDbEntity
  8
0
  6
Continuous
 62
     7
370
    25
100
AcDbCircle
 10
306.0128208011
 20
-43.6919056405
 30
0.0
 40
3.000000000000007
100
AcDbArc
 50
0.0
 51
90.0
  0
LINE
  5
3E6
330
1F
100
AcDbEntity
  8
0
  6
Continuous
 62
     7
370
    25
100
AcDbLine
 10
309.0128208011
 20
-43.6919056405
 30
0.0
 11
309.0128208011
 21
-59.8219056405
 31
0.0
  0
LINE
  5
3E7
330
1F
100
AcDbEntity
  8
0
  6
Continuous
 62
     7
370
    25
100
AcDbLine
 10
309.0128208011
 20
-59.8219056405
 30
0.0
 11
311.5128208011
 21
-59.8219056405
 31
0.0
  0
LINE
  5
3E8
330
1F
100
AcDbEntity
  8
0
  6
Continuous
 62
     7
370
    25
100
AcDbLine
 10
311.5128208011
 20
-59.3298548329
 30
0.0
 11
311.5128208011
 21
-59.8219056405
 31
0.0
  0
LINE
  5
3E9
330
1F
100
AcDbEntity
  8
0
  6
Continuous
 62
     7
370
    25
100
AcDbLine
 10
511.5128208011
 20
-59.3298548329
 30
0.0
 11
511.5128208011
 21
-59.8219056405
 31
0.0
  0
LINE
  5
3EA
330
1F
100
AcDbEntity
  8
0
  6
Continuous
 62
     7
370
    25
100
AcDbLine
 10
511.5128208011
 20
-59.8219056405
 30
0.0
 11
514.0128208011
 21
-59.8219056405
 31
0.0
  0
LINE
  5
3EB
330
1F
100
AcDbEntity
  8
0
  6
Continuous
 62
     7
370
    25
100
AcDbLine
 10
514.0128208011
 20
-59.8219056405
 30
0.0
 11
514.0128208011
 21
-43.6919056405
 31
0.0
  0
ARC
  5
3EC
330
1F
100
AcDbEntity
  8
0
  6
Continuous
 62
     7
370
    25
100
AcDbCircle
 10
517.0128208011
 20
-43.6919056405
 30
0.0
 40
3.000000000000007
100
AcDbArc
 50
90.0
 51
180.0
  0
LINE
  5
3ED
330
1F
100
AcDbEntity
  8
0
  6
Continuous
 62
     7
370
    25
100
AcDbLine
 10
601.5128208011
 20
-40.6919056405
 30
0.0
 11
517.0128208011
 21
-40.6919056405
 31
0.0
  0
ARC
  5
3EE
330
1F
100
AcDbEntity
  8
0
  6
Continuous
 62
     7
370
    25
100
AcDbCircle
 10
601.5128208011
 20
-43.6919056405
 30
0.0
 40
2.999999999999993
100
AcDbArc
 50
0.0
 51
90.0
  0
LINE
  5
3EF
330
1F
100
AcDbEntity
  8
0
  6
Continuous
 62
     7
370
    25
100
AcDbLine
 10
604.5128208011
 20
-43.6919056405
 30
0.0
 11
604.5128208011
 21
-59.8219056405
 31
0.0
  0
LINE
  5
3F0
330
1F
100
AcDbEntity
  8
0
  6
Continuous
 62
     7
370
    25
100
AcDbLine
 10
604.5128208011
 20
-59.8219056405
 30
0.0
 11
607.0128208011
 21
-59.8219056405
 31
0.0
  0
LINE
  5
3F1
330
1F
100
AcDbEntity
  8
0
  6
Continuous
 62
     7
370
    25
100
AcDbLine
 10
607.0128208011
 20
-59.3298548329
 30
0.0
 11
607.0128208011
 21
-59.8219056405
 31
0.0
  0
LINE
  5
3F2
330
1F
100
AcDbEntity
  8
0
  6
Continuous
 62
     7
370
    25
100
AcDbLine
 10
807.0128208011
 20
-59.3298548329
 30
0.0
 11
807.0128208011
 21
-59.8219056405
 31
0.0
  0
LINE
  5
3F3
330
1F
100
AcDbEntity
  8
0
  6
Continuous
 62
     7
370
    25
100
AcDbLine
 10
807.0128208011
 20
-59.8219056405
 30
0.0
 11
809.5128208011
 21
-59.8219056405
 31
0.0
  0
LINE
  5
3F4
330
1F
100
AcDbEntity
  8
0
  6
Continuous
 62
     7
370
    25
100
AcDbLine
 10
809.5128208011
 20
-59.8219056405
 30
0.0
 11
809.5128208011
 21
-43.6919056405
 31
0.0
  0
ARC
  5
3F5
330
1F
100
AcDbEntity
  8
0
  6
Continuous
 62
     7
370
    25
100
AcDbCircle
 10
812.5128208011
 20
-43.6919056405
 30
0.0
 40
3.0
100
AcDbArc
 50
90.0
 51
180.0
  0
LINE
  5
3F6
330
1F
100
AcDbEntity
  8
0
  6
Continuous
 62
     7
370
    25
100
AcDbLine
 10
856.5128208011
 20
-40.6919056405
 30
0.0
 11
812.5128208011
 21
-40.6919056405
 31
0.0
  0
ARC
  5
3F7
330
1F
100
AcDbEntity
  8
0
  6
Continuous
 62
     7
370
    25
100
AcDbCircle
 10
856.5128208011
 20
-43.6919056405
 30
0.0
 40
3.000000000000007
100
AcDbArc
 50
0.0
 51
90.0
  0
LINE
  5
3F8
330
1F
100
AcDbEntity
  8
0
  6
Continuous
 62
     7
370
    25
100
AcDbLine
 10
859.5128208011
 20
-64.6919056405
 30
0.0
 11
859.5128208011
 21
-43.6919056405
 31
0.0
  0
LINE
  5
3F9
330
1F
100
AcDbEntity
  8
0
  6
Continuous
 62
     7
370
    25
100
AcDbLine
 10
862.7128208011
 20
-64.6919056405
 30
0.0
 11
859.5128208011
 21
-64.6919056405
 31
0.0
  0
LINE
  5
3FA
330
1F
100
AcDbEntity
  8
0
  6
Continuous
 62
     7
370
    25
100
AcDbLine
 10
861.5128208011
 20
-83.6919056405
 30
0.0
 11
862.7128208011
 21
-83.6919056405
 31
0.0
  0
LINE
  5
3FB
330
1F
100
AcDbEntity
  8
0
  6
Continuous
 62
     7
370
    25
100
AcDbLine
 10
861.5128208011
 20
-83.8919056405
 30
0.0
 11
861.5128208011
 21
-83.6919056405
 31
0.0
  0
SPLINE
  5
3FC
330
1F
100
AcDbEntity
  8
0
  6
Continuous
 62
     7
370
    25
100
AcDbSpline
210
0.0
220
0.0
230
1.0
 70
     8
 71
     3
 72
    14
 73
    10
 74
     0
 42
0.000000001
 43
0.00000001
 40
0.0
 40
0.0
 40
0.0
 40
0.0
 40
0.25
 40
0.25
 40
0.5
 40
0.5
 40
0.75
 40
0.75
 40
1.0
 40
1.0
 40
1.0
 40
1.0
 10
846.1485605239168
 20
-82.1065856259024
 30
0.0
 10
846.2006182328075
 20
-82.01171101659179
 30
0.0
 10
846.2539517711357
 20
-81.93210609171602
 30
0.0
 10
846.3608837787638
 20
-81.82326947682182
 30
0.0
 10
846.4146371452113
 20
-81.79394587113131
 30
0.0
 10
846.522816196635
 20
-81.79401065287692
 30
0.0
 10
846.5776448932231
 20
-81.82416684620328
 30
0.0
 10
846.684551875883
 20
-81.93375204756899
 30
0.0
 10
846.7369733908552
 20
-82.01229502137116
 30
0.0
 10
846.7887106562573
 20
-82.10658562590241
 30
0.0
  0
SPLINE
  5
3FD
330
1F
100
AcDbEntity
  8
0
  6
Continuous
 62
     7
370
    25
100
AcDbSpline
210
0.0
220
0.0
230
1.0
 70
     8
 71
     3
 72
    12
 73
     8
 74
     0
 42
0.000000001
 43
0.00000001
 40
0.0
 40
0.0
 40
0.0
 40
0.0
 40
0.4999999999999811
 40
0.4999999999999811
 40
0.7499999999999906
 40
0.7499999999999906
 40
1.0
 40
1.0
 40
1.0
 40
1.0
 10
846.1485605239169
 20
-82.10658562590142
 30
0.0
 10
845.5320301339966
 20
-81.91609133647789
 30
0.0
 10
844.9062622615469
 20
-81.79441692341554
 30
0.0
 10
843.9432005521619
 20
-81.7937607328843
 30
0.0
 10
843.6225075170323
 20
-81.82359473467868
 30
0.0
 10
842.9925492670362
 20
-81.93252460478628
 30
0.0
 10
842.6813199990055
 20
-82.01121979184914
 30
0.0
 10
842.3726706687207
 20
-82.1065856259019
 30
0.0
  0
SPLINE
  5
3FE
330
1F
100
AcDbEntity
  8
0
  6
Continuous
 62
     7
370
    25
100
AcDbSpline
210
0.0
220
0.0
230
1.0
 70
     8
 71
     3
 72
    12
 73
     8
 74
     0
 42
0.000000001
 43
0.00000001
 40
0.0
 40
0.0
 40
0.0
 40
0.0
 40
0.5
 40
0.5
 40
0.75
 40
0.75
 40
1.0
 40
1.0
 40
1.0
 40
1.0
 10
842.372670668721
 20
-82.10658562590142
 30
0.0
 10
841.860664517016
 20
-81.91609133647789
 30
0.0
 10
841.3409869707475
 20
-81.79441692341554
 30
0.0
 10
840.5411991131853
 20
-81.79376073288431
 30
0.0
 10
840.2748751663373
 20
-81.8235947346787
 30
0.0
 10
839.7517176633357
 20
-81.93252460478628
 30
0.0
 10
839.4932530321875
 20
-82.01121979184916
 30
0.0
 10
839.2369309458654
 20
-82.10658562590191
 30
0.0
  0
SPLINE
  5
3FF
330
1F
100
AcDbEntity
  8
0
  6
Continuous
 62
     7
370
    25
100
AcDbSpline
210
0.0
220
0.0
230
1.0
 70
     8
 71
     3
 72
     9
 73
     5
 74
     0
 42
0.000000001
 43
0.00000001
 40
0.0
 40
0.0
 40
0.0
 40
0.0
 40
0.3722348086954575
 40
1.0
 40
1.0
 40
1.0
 40
1.0
 10
839.2369309458654
 20
-82.10658562590241
 30
0.0
 10
839.2648971795371
 20
-82.05466131712882
 30
0.0
 10
839.3400278041281
 20
-81.91516789104233
 30
0.0
 10
839.4185716622846
 20
-81.9071591649372
 30
0.0
 10
839.4678787624262
 20
-81.90213156546172
 30
0.0
  0
LINE
  5
400
330
1F
100
AcDbEntity
  8
0
  6
Continuous
 62
     7
370
    25
100
AcDbLine
 10
846.1628208011
 20
-81.5919056405
 30
0.0
 11
839.8628208011
 21
-81.5919056405
 31
0.0
  0
LINE
  5
401
330
1F
100
AcDbEntity
  8
0
  6
Continuous
 62
     7
370
    25
100
AcDbLine
 10
846.1485605239
 20
-82.1065856259
 30
0.0
 11
846.1485605239
 21
-84.2772256551
 31
0.0
  0
SPLINE
  5
402
330
1F
100
AcDbEntity
  8
0
  6
Continuous
 62
     7
370
    25
100
AcDbSpline
210
0.0
220
0.0
230
1.0
 70
     8
 71
     3
 72
    12
 73
     8
 74
     0
 42
0.000000001
 43
0.00000001
 40
0.0
 40
0.0
 40
0.0
 40
0.0
 40
0.4999999999999811
 40
0.4999999999999811
 40
0.7499999999999906
 40
0.7499999999999906
 40
1.0
 40
1.0
 40
1.0
 40
1.0
 10
842.3726706687207
 20
-84.27722565513137
 30
0.0
 10
842.989201058641
 20
-84.46771994455489
 30
0.0
 10
843.6149689310906
 20
-84.58939435761727
 30
0.0
 10
844.5780306404756
 20
-84.5900505481485
 30
0.0
 10
844.8987236756054
 20
-84.5602165463541
 30
0.0
 10
845.5286819256014
 20
-84.4512866762465
 30
0.0
 10
845.8399111936322
 20
-84.37259148918363
 30
0.0
 10
846.1485605239168
 20
-84.27722565513088
 30
0.0
  0
LINE
  5
403
330
1F
100
AcDbEntity
  8
0
  6
Continuous
 62
     7
370
    25
100
AcDbLine
 10
842.3726706687
 20
-82.1065856259
 30
0.0
 11
842.3726706687
 21
-84.2772256551
 31
0.0
  0
SPLINE
  5
404
330
1F
100
AcDbEntity
  8
0
  6
Continuous
 62
     7
370
    25
100
AcDbSpline
210
0.0
220
0.0
230
1.0
 70
     8
 71
     3
 72
     9
 73
     5
 74
     0
 42
0.000000001
 43
0.00000001
 40
0.0
 40
0.0
 40
0.0
 40
0.0
 40
0.627765191304545
 40
1.0
 40
1.0
 40
1.0
 40
1.0
 10
839.4678787624263
 20
-84.48167971557108
 30
0.0
 10
839.4185716622849
 20
-84.4766521160956
 30
0.0
 10
839.3400278041281
 20
-84.46864338999046
 30
0.0
 10
839.2648971795371
 20
-84.32914996390396
 30
0.0
 10
839.2369309458654
 20
-84.27722565513038
 30
0.0
  0
SPLINE
  5
405
330
1F
100
AcDbEntity
  8
0
  6
Continuous
 62
     7
370
    25
100
AcDbSpline
210
0.0
220
0.0
230
1.0
 70
     8
 71
     3
 72
    12
 73
     8
 74
     0
 42
0.000000001
 43
0.00000001
 40
0.0
 40
0.0
 40
0.0
 40
0.0
 40
0.5
 40
0.5
 40
0.75
 40
0.75
 40
1.0
 40
1.0
 40
1.0
 40
1.0
 10
839.2369309458654
 20
-84.27722565513136
 30
0.0
 10
839.7489370975703
 20
-84.46771994455487
 30
0.0
 10
840.2686146438384
 20
-84.58939435761725
 30
0.0
 10
841.068402501401
 20
-84.59005054814848
 30
0.0
 10
841.334726448249
 20
-84.5602165463541
 30
0.0
 10
841.8578839512505
 20
-84.4512866762465
 30
0.0
 10
842.1163485823988
 20
-84.37259148918363
 30
0.0
 10
842.372670668721
 20
-84.27722565513088
 30
0.0
  0
SPLINE
  5
406
330
1F
100
AcDbEntity
  8
0
  6
Continuous
 62
     7
370
    25
100
AcDbSpline
210
0.0
220
0.0
230
1.0
 70
     8
 71
     3
 72
    14
 73
    10
 74
     0
 42
0.000000001
 43
0.00000001
 40
0.0
 40
0.0
 40
0.0
 40
0.0
 40
0.25
 40
0.25
 40
0.5
 40
0.5
 40
0.75
 40
0.75
 40
1.0
 40
1.0
 40
1.0
 40
1.0
 10
846.1485605239168
 20
-84.2772256551304
 30
0.0
 10
846.2006182328075
 20
-84.372100264441
 30
0.0
 10
846.2539517711357
 20
-84.45170518931675
 30
0.0
 10
846.3608837787638
 20
-84.56054180421098
 30
0.0
 10
846.4146371452113
 20
-84.58986540990146
 30
0.0
 10
846.522816196635
 20
-84.58980062815587
 30
0.0
 10
846.5776448932231
 20
-84.55964443482952
 30
0.0
 10
846.684551875883
 20
-84.4500592334638
 30
0.0
 10
846.7369733908552
 20
-84.37151625966163
 30
0.0
 10
846.7887106562573
 20
-84.27722565513038
 30
0.0
  0
LINE
  5
407
330
1F
100
AcDbEntity
  8
0
  6
Continuous
 62
     7
370
    25
100
AcDbLine
 10
846.1628208011
 20
-84.7919056405
 30
0.0
 11
839.8628208011
 21
-84.7919056405
 31
0.0
  0
LINE
  5
408
330
1F
100
AcDbEntity
  8
0
  6
Continuous
 62
     7
370
    25
100
AcDbLine
 10
839.2369309459
 20
-82.1065856259
 30
0.0
 11
839.2369309459
 21
-84.2772256551
 31
0.0
  0
LINE
  5
409
330
1F
100
AcDbEntity
  8
0
  6
Continuous
 62
     7
370
    25
100
AcDbLine
 10
846.7887106563
 20
-82.1065856259
 30
0.0
 11
846.7887106563
 21
-84.2772256551
 31
0.0
  0
SPLINE
  5
40A
330
1F
100
AcDbEntity
  8
0
  6
Continuous
 62
     7
370
    25
100
AcDbSpline
210
0.0
220
0.0
230
1.0
 70
     8
 71
     3
 72
    14
 73
    10
 74
     0
 42
0.000000001
 43
0.00000001
 40
0.0
 40
0.0
 40
0.0
 40
0.0
 40
0.25
 40
0.25
 40
0.5
 40
0.5
 40
0.75
 40
0.75
 40
1.0
 40
1.0
 40
1.0
 40
1.0
 10
263.1485605239168
 20
-82.10658562590235
 30
0.0
 10
263.2006182328076
 20
-82.01171101659175
 30
0.0
 10
263.2539517711356
 20
-81.93210609171598
 30
0.0
 10
263.3608837787638
 20
-81.82326947682176
 30
0.0
 10
263.4146371452113
 20
-81.79394587113127
 30
0.0
 10
263.522816196635
 20
-81.79401065287686
 30
0.0
 10
263.577644893223
 20
-81.82416684620323
 30
0.0
 10
263.6845518758828
 20
-81.93375204756893
 30
0.0
 10
263.7369733908552
 20
-82.01229502137112
 30
0.0
 10
263.7887106562573
 20
-82.10658562590237
 30
0.0
  0
SPLINE
  5
40B
330
1F
100
AcDbEntity
  8
0
  6
Continuous
 62
     7
370
    25
100
AcDbSpline
210
0.0
220
0.0
230
1.0
 70
     8
 71
     3
 72
    12
 73
     8
 74
     0
 42
0.000000001
 43
0.00000001
 40
0.0
 40
0.0
 40
0.0
 40
0.0
 40
0.4999999999999906
 40
0.4999999999999906
 40
0.7499999999999952
 40
0.7499999999999952
 40
1.0
 40
1.0
 40
1.0
 40
1.0
 10
263.1485605239169
 20
-82.10658562590139
 30
0.0
 10
262.5320301339966
 20
-81.91609133647786
 30
0.0
 10
261.9062622615468
 20
-81.7944169234155
 30
0.0
 10
260.9432005521619
 20
-81.79376073288425
 30
0.0
 10
260.6225075170323
 20
-81.82359473467866
 30
0.0
 10
259.9925492670363
 20
-81.93252460478624
 30
0.0
 10
259.6813199990053
 20
-82.01121979184911
 30
0.0
 10
259.3726706687207
 20
-82.10658562590187
 30
0.0
  0
SPLINE
  5
40C
330
1F
100
AcDbEntity
  8
0
  6
Continuous
 62
     7
370
    25
100
AcDbSpline
210
0.0
220
0.0
230
1.0
 70
     8
 71
     3
 72
    12
 73
     8
 74
     0
 42
0.000000001
 43
0.00000001
 40
0.0
 40
0.0
 40
0.0
 40
0.0
 40
0.5000000000000079
 40
0.5000000000000079
 40
0.7500000000000039
 40
0.7500000000000039
 40
1.0
 40
1.0
 40
1.0
 40
1.0
 10
259.372670668721
 20
-82.10658562590139
 30
0.0
 10
258.8606645170159
 20
-81.91609133647786
 30
0.0
 10
258.3409869707478
 20
-81.7944169234155
 30
0.0
 10
257.5411991131853
 20
-81.79376073288427
 30
0.0
 10
257.2748751663372
 20
-81.82359473467865
 30
0.0
 10
256.7517176633357
 20
-81.93252460478622
 30
0.0
 10
256.4932530321875
 20
-82.01121979184911
 30
0.0
 10
256.2369309458654
 20
-82.10658562590187
 30
0.0
  0
SPLINE
  5
40D
330
1F
100
AcDbEntity
  8
0
  6
Continuous
 62
     7
370
    25
100
AcDbSpline
210
0.0
220
0.0
230
1.0
 70
     8
 71
     3
 72
     9
 73
     5
 74
     0
 42
0.000000001
 43
0.00000001
 40
0.0
 40
0.0
 40
0.0
 40
0.0
 40
0.3722348086954557
 40
1.0
 40
1.0
 40
1.0
 40
1.0
 10
256.2369309458655
 20
-82.10658562590237
 30
0.0
 10
256.2648971795372
 20
-82.05466131712878
 30
0.0
 10
256.3400278041281
 20
-81.91516789104227
 30
0.0
 10
256.4185716622848
 20
-81.90715916493717
 30
0.0
 10
256.4678787624262
 20
-81.90213156546169
 30
0.0
  0
LINE
  5
40E
330
1F
100
AcDbEntity
  8
0
  6
Continuous
 62
     7
370
    25
100
AcDbLine
 10
263.1628208011
 20
-81.5919056405
 30
0.0
 11
256.8628208011
 21
-81.5919056405
 31
0.0
  0
LINE
  5
40F
330
1F
100
AcDbEntity
  8
0
  6
Continuous
 62
     7
370
    25
100
AcDbLine
 10
263.1485605239
 20
-82.1065856259
 30
0.0
 11
263.1485605239
 21
-84.2772256551
 31
0.0
  0
SPLINE
  5
410
330
1F
100
AcDbEntity
  8
0
  6
Continuous
 62
     7
370
    25
100
AcDbSpline
210
0.0
220
0.0
230
1.0
 70
     8
 71
     3
 72
    12
 73
     8
 74
     0
 42
0.000000001
 43
0.00000001
 40
0.0
 40
0.0
 40
0.0
 40
0.0
 40
0.5000000000000094
 40
0.5000000000000094
 40
0.7500000000000047
 40
0.7500000000000047
 40
1.0
 40
1.0
 40
1.0
 40
1.0
 10
259.3726706687207
 20
-84.27722565513133
 30
0.0
 10
259.989201058641
 20
-84.46771994455486
 30
0.0
 10
260.6149689310907
 20
-84.58939435761724
 30
0.0
 10
261.5780306404757
 20
-84.59005054814847
 30
0.0
 10
261.8987236756054
 20
-84.56021654635407
 30
0.0
 10
262.5286819256013
 20
-84.45128667624648
 30
0.0
 10
262.8399111936322
 20
-84.3725914891836
 30
0.0
 10
263.1485605239168
 20
-84.27722565513085
 30
0.0
  0
LINE
  5
411
330
1F
100
AcDbEntity
  8
0
  6
Continuous
 62
     7
370
    25
100
AcDbLine
 10
259.3726706687
 20
-82.1065856259
 30
0.0
 11
259.3726706687
 21
-84.2772256551
 31
0.0
  0
SPLINE
  5
412
330
1F
100
AcDbEntity
  8
0
  6
Continuous
 62
     7
370
    25
100
AcDbSpline
210
0.0
220
0.0
230
1.0
 70
     8
 71
     3
 72
     9
 73
     5
 74
     0
 42
0.000000001
 43
0.00000001
 40
0.0
 40
0.0
 40
0.0
 40
0.0
 40
0.6277651913045457
 40
1.0
 40
1.0
 40
1.0
 40
1.0
 10
256.4678787624263
 20
-84.48167971557103
 30
0.0
 10
256.4185716622848
 20
-84.47665211609555
 30
0.0
 10
256.3400278041281
 20
-84.46864338999043
 30
0.0
 10
256.2648971795373
 20
-84.32914996390392
 30
0.0
 10
256.2369309458655
 20
-84.27722565513035
 30
0.0
  0
SPLINE
  5
413
330
1F
100
AcDbEntity
  8
0
  6
Continuous
 62
     7
370
    25
100
AcDbSpline
210
0.0
220
0.0
230
1.0
 70
     8
 71
     3
 72
    12
 73
     8
 74
     0
 42
0.000000001
 43
0.00000001
 40
0.0
 40
0.0
 40
0.0
 40
0.0
 40
0.5000000000000079
 40
0.5000000000000079
 40
0.7500000000000039
 40
0.7500000000000039
 40
1.0
 40
1.0
 40
1.0
 40
1.0
 10
256.2369309458654
 20
-84.27722565513135
 30
0.0
 10
256.7489370975703
 20
-84.46771994455486
 30
0.0
 10
257.2686146438385
 20
-84.58939435761724
 30
0.0
 10
258.0684025014011
 20
-84.59005054814847
 30
0.0
 10
258.3347264482491
 20
-84.56021654635407
 30
0.0
 10
258.8578839512505
 20
-84.45128667624648
 30
0.0
 10
259.1163485823988
 20
-84.3725914891836
 30
0.0
 10
259.3726706687209
 20
-84.27722565513085
 30
0.0
  0
SPLINE
  5
414
330
1F
100
AcDbEntity
  8
0
  6
Continuous
 62
     7
370
    25
100
AcDbSpline
210
0.0
220
0.0
230
1.0
 70
     8
 71
     3
 72
    14
 73
    10
 74
     0
 42
0.000000001
 43
0.00000001
 40
0.0
 40
0.0
 40
0.0
 40
0.0
 40
0.25
 40
0.25
 40
0.5
 40
0.5
 40
0.75
 40
0.75
 40
1.0
 40
1.0
 40
1.0
 40
1.0
 10
263.1485605239168
 20
-84.27722565513037
 30
0.0
 10
263.2006182328076
 20
-84.37210026444097
 30
0.0
 10
263.2539517711356
 20
-84.45170518931673
 30
0.0
 10
263.3608837787638
 20
-84.56054180421096
 30
0.0
 10
263.4146371452113
 20
-84.58986540990146
 30
0.0
 10
263.522816196635
 20
-84.58980062815586
 30
0.0
 10
263.577644893223
 20
-84.5596444348295
 30
0.0
 10
263.6845518758828
 20
-84.45005923346379
 30
0.0
 10
263.7369733908552
 20
-84.3715162596616
 30
0.0
 10
263.7887106562573
 20
-84.27722565513037
 30
0.0
  0
LINE
  5
415
330
1F
100
AcDbEntity
  8
0
  6
Continuous
 62
     7
370
    25
100
AcDbLine
 10
263.1628208011
 20
-84.7919056405
 30
0.0
 11
256.8628208011
 21
-84.7919056405
 31
0.0
  0
LINE
  5
416
330
1F
100
AcDbEntity
  8
0
  6
Continuous
 62
     7
370
    25
100
AcDbLine
 10
256.2369309459
 20
-82.1065856259
 30
0.0
 11
256.2369309459
 21
-84.2772256551
 31
0.0
  0
LINE
  5
417
330
1F
100
AcDbEntity
  8
0
  6
Continuous
 62
     7
370
    25
100
AcDbLine
 10
263.7887106563
 20
-82.1065856259
 30
0.0
 11
263.7887106563
 21
-84.2772256551
 31
0.0
  0
SPLINE
  5
418
330
1F
100
AcDbEntity
  8
0
  6
Continuous
 62
     7
370
    25
100
AcDbSpline
210
0.0
220
0.0
230
1.0
 70
     8
 71
     3
 72
    14
 73
    10
 74
     0
 42
0.000000001
 43
0.00000001
 40
0.0
 40
0.0
 40
0.0
 40
0.0
 40
0.25
 40
0.25
 40
0.5
 40
0.5
 40
0.75
 40
0.75
 40
1.0
 40
1.0
 40
1.0
 40
1.0
 10
566.1485605239167
 20
-82.1065856259024
 30
0.0
 10
566.2006182328075
 20
-82.01171101659178
 30
0.0
 10
566.2539517711357
 20
-81.93210609171602
 30
0.0
 10
566.3608837787637
 20
-81.8232694768218
 30
0.0
 10
566.4146371452113
 20
-81.79394587113131
 30
0.0
 10
566.5228161966351
 20
-81.7940106528769
 30
0.0
 10
566.5776448932229
 20
-81.82416684620327
 30
0.0
 10
566.6845518758829
 20
-81.93375204756897
 30
0.0
 10
566.7369733908552
 20
-82.01229502137114
 30
0.0
 10
566.7887106562573
 20
-82.1065856259024
 30
0.0
  0
SPLINE
  5
419
330
1F
100
AcDbEntity
  8
0
  6
Continuous
 62
     7
370
    25
100
AcDbSpline
210
0.0
220
0.0
230
1.0
 70
     8
 71
     3
 72
    12
 73
     8
 74
     0
 42
0.000000001
 43
0.00000001
 40
0.0
 40
0.0
 40
0.0
 40
0.0
 40
0.4999999999999906
 40
0.4999999999999906
 40
0.7499999999999952
 40
0.7499999999999952
 40
1.0
 40
1.0
 40
1.0
 40
1.0
 10
566.1485605239169
 20
-82.10658562590142
 30
0.0
 10
565.5320301339966
 20
-81.91609133647789
 30
0.0
 10
564.9062622615469
 20
-81.79441692341553
 30
0.0
 10
563.943200552162
 20
-81.79376073288431
 30
0.0
 10
563.6225075170322
 20
-81.8235947346787
 30
0.0
 10
562.9925492670362
 20
-81.93252460478628
 30
0.0
 10
562.6813199990054
 20
-82.01121979184916
 30
0.0
 10
562.3726706687207
 20
-82.1065856259019
 30
0.0
  0
SPLINE
  5
41A
330
1F
100
AcDbEntity
  8
0
  6
Continuous
 62
     7
370
    25
100
AcDbSpline
210
0.0
220
0.0
230
1.0
 70
     8
 71
     3
 72
    12
 73
     8
 74
     0
 42
0.000000001
 43
0.00000001
 40
0.0
 40
0.0
 40
0.0
 40
0.0
 40
0.5000000000000079
 40
0.5000000000000079
 40
0.7500000000000039
 40
0.7500000000000039
 40
1.0
 40
1.0
 40
1.0
 40
1.0
 10
562.3726706687208
 20
-82.10658562590142
 30
0.0
 10
561.8606645170161
 20
-81.91609133647789
 30
0.0
 10
561.3409869707477
 20
-81.79441692341554
 30
0.0
 10
560.5411991131853
 20
-81.79376073288428
 30
0.0
 10
560.2748751663372
 20
-81.82359473467868
 30
0.0
 10
559.7517176633357
 20
-81.93252460478627
 30
0.0
 10
559.4932530321876
 20
-82.01121979184914
 30
0.0
 10
559.2369309458654
 20
-82.1065856259019
 30
0.0
  0
SPLINE
  5
41B
330
1F
100
AcDbEntity
  8
0
  6
Continuous
 62
     7
370
    25
100
AcDbSpline
210
0.0
220
0.0
230
1.0
 70
     8
 71
     3
 72
     9
 73
     5
 74
     0
 42
0.000000001
 43
0.00000001
 40
0.0
 40
0.0
 40
0.0
 40
0.0
 40
0.3722348086954546
 40
1.0
 40
1.0
 40
1.0
 40
1.0
 10
559.2369309458655
 20
-82.10658562590241
 30
0.0
 10
559.2648971795372
 20
-82.05466131712882
 30
0.0
 10
559.3400278041281
 20
-81.91516789104232
 30
0.0
 10
559.4185716622848
 20
-81.9071591649372
 30
0.0
 10
559.4678787624262
 20
-81.90213156546172
 30
0.0
  0
LINE
  5
41C
330
1F
100
AcDbEntity
  8
0
  6
Continuous
 62
     7
370
    25
100
AcDbLine
 10
566.1628208011
 20
-81.5919056405
 30
0.0
 11
559.8628208011
 21
-81.5919056405
 31
0.0
  0
LINE
  5
41D
330
1F
100
AcDbEntity
  8
0
  6
Continuous
 62
     7
370
    25
100
AcDbLine
 10
566.1485605239
 20
-82.1065856259
 30
0.0
 11
566.1485605239
 21
-84.2772256551
 31
0.0
  0
SPLINE
  5
41E
330
1F
100
AcDbEntity
  8
0
  6
Continuous
 62
     7
370
    25
100
AcDbSpline
210
0.0
220
0.0
230
1.0
 70
     8
 71
     3
 72
    12
 73
     8
 74
     0
 42
0.000000001
 43
0.00000001
 40
0.0
 40
0.0
 40
0.0
 40
0.0
 40
0.5000000000000094
 40
0.5000000000000094
 40
0.7500000000000047
 40
0.7500000000000047
 40
1.0
 40
1.0
 40
1.0
 40
1.0
 10
562.3726706687206
 20
-84.27722565513137
 30
0.0
 10
562.9892010586409
 20
-84.46771994455489
 30
0.0
 10
563.6149689310907
 20
-84.58939435761727
 30
0.0
 10
564.5780306404756
 20
-84.5900505481485
 30
0.0
 10
564.8987236756053
 20
-84.56021654635411
 30
0.0
 10
565.5286819256014
 20
-84.45128667624651
 30
0.0
 10
565.8399111936322
 20
-84.37259148918363
 30
0.0
 10
566.1485605239168
 20
-84.27722565513089
 30
0.0
  0
LINE
  5
41F
330
1F
100
AcDbEntity
  8
0
  6
Continuous
 62
     7
370
    25
100
AcDbLine
 10
562.3726706687
 20
-82.1065856259
 30
0.0
 11
562.3726706687
 21
-84.2772256551
 31
0.0
  0
SPLINE
  5
420
330
1F
100
AcDbEntity
  8
0
  6
Continuous
 62
     7
370
    25
100
AcDbSpline
210
0.0
220
0.0
230
1.0
 70
     8
 71
     3
 72
     9
 73
     5
 74
     0
 42
0.000000001
 43
0.00000001
 40
0.0
 40
0.0
 40
0.0
 40
0.0
 40
0.6277651913045446
 40
1.0
 40
1.0
 40
1.0
 40
1.0
 10
559.4678787624262
 20
-84.48167971557108
 30
0.0
 10
559.4185716622846
 20
-84.4766521160956
 30
0.0
 10
559.3400278041281
 20
-84.46864338999046
 30
0.0
 10
559.2648971795373
 20
-84.32914996390396
 30
0.0
 10
559.2369309458654
 20
-84.27722565513038
 30
0.0
  0
SPLINE
  5
421
330
1F
100
AcDbEntity
  8
0
  6
Continuous
 62
     7
370
    25
100
AcDbSpline
210
0.0
220
0.0
230
1.0
 70
     8
 71
     3
 72
    12
 73
     8
 74
     0
 42
0.000000001
 43
0.00000001
 40
0.0
 40
0.0
 40
0.0
 40
0.0
 40
0.5000000000000079
 40
0.5000000000000079
 40
0.7500000000000039
 40
0.7500000000000039
 40
1.0
 40
1.0
 40
1.0
 40
1.0
 10
559.2369309458653
 20
-84.27722565513137
 30
0.0
 10
559.7489370975703
 20
-84.46771994455489
 30
0.0
 10
560.2686146438385
 20
-84.58939435761727
 30
0.0
 10
561.0684025014011
 20
-84.5900505481485
 30
0.0
 10
561.3347264482491
 20
-84.56021654635411
 30
0.0
 10
561.8578839512505
 20
-84.45128667624651
 30
0.0
 10
562.1163485823988
 20
-84.37259148918363
 30
0.0
 10
562.3726706687208
 20
-84.27722565513089
 30
0.0
  0
SPLINE
  5
422
330
1F
100
AcDbEntity
  8
0
  6
Continuous
 62
     7
370
    25
100
AcDbSpline
210
0.0
220
0.0
230
1.0
 70
     8
 71
     3
 72
    14
 73
    10
 74
     0
 42
0.000000001
 43
0.00000001
 40
0.0
 40
0.0
 40
0.0
 40
0.0
 40
0.25
 40
0.25
 40
0.5
 40
0.5
 40
0.75
 40
0.75
 40
1.0
 40
1.0
 40
1.0
 40
1.0
 10
566.1485605239167
 20
-84.27722565513041
 30
0.0
 10
566.2006182328075
 20
-84.37210026444102
 30
0.0
 10
566.2539517711357
 20
-84.45170518931677
 30
0.0
 10
566.3608837787637
 20
-84.560541804211
 30
0.0
 10
566.4146371452113
 20
-84.58986540990149
 30
0.0
 10
566.5228161966351
 20
-84.5898006281559
 30
0.0
 10
566.5776448932229
 20
-84.55964443482952
 30
0.0
 10
566.6845518758829
 20
-84.45005923346383
 30
0.0
 10
566.7369733908552
 20
-84.37151625966165
 30
0.0
 10
566.7887106562573
 20
-84.2772256551304
 30
0.0
  0
LINE
  5
423
330
1F
100
AcDbEntity
  8
0
  6
Continuous
 62
     7
370
    25
100
AcDbLine
 10
566.1628208011
 20
-84.7919056405
 30
0.0
 11
559.8628208011
 21
-84.7919056405
 31
0.0
  0
LINE
  5
424
330
1F
100
AcDbEntity
  8
0
  6
Continuous
 62
     7
370
    25
100
AcDbLine
 10
559.2369309459
 20
-82.1065856259
 30
0.0
 11
559.2369309459
 21
-84.2772256551
 31
0.0
  0
LINE
  5
425
330
1F
100
AcDbEntity
  8
0
  6
Continuous
 62
     7
370
    25
100
AcDbLine
 10
566.7887106563
 20
-82.1065856259
 30
0.0
 11
566.7887106563
 21
-84.2772256551
 31
0.0
  0
SPLINE
  5
426
330
1F
100
AcDbEntity
  8
0
  6
Continuous
 62
     7
370
    25
100
AcDbSpline
210
0.0
220
0.0
230
1.0
 70
     8
 71
     3
 72
    14
 73
    10
 74
     0
 42
0.000000001
 43
0.00000001
 40
0.0
 40
0.0
 40
0.0
 40
0.0
 40
0.25
 40
0.25
 40
0.5
 40
0.5
 40
0.75
 40
0.75
 40
1.0
 40
1.0
 40
1.0
 40
1.0
 10
-16.85143947608325
 20
-82.10658562590234
 30
0.0
 10
-16.79938176719242
 20
-82.01171101659173
 30
0.0
 10
-16.74604822886433
 20
-81.93210609171598
 30
0.0
 10
-16.63911622123609
 20
-81.82326947682175
 30
0.0
 10
-16.58536285478873
 20
-81.79394587113126
 30
0.0
 10
-16.47718380336499
 20
-81.79401065287685
 30
0.0
 10
-16.42235510677698
 20
-81.82416684620321
 30
0.0
 10
-16.31544812411717
 20
-81.93375204756892
 30
0.0
 10
-16.26302660914486
 20
-82.01229502137109
 30
0.0
 10
-16.21128934374266
 20
-82.10658562590234
 30
0.0
  0
SPLINE
  5
427
330
1F
100
AcDbEntity
  8
0
  6
Continuous
 62
     7
370
    25
100
AcDbSpline
210
0.0
220
0.0
230
1.0
 70
     8
 71
     3
 72
    12
 73
     8
 74
     0
 42
0.000000001
 43
0.00000001
 40
0.0
 40
0.0
 40
0.0
 40
0.0
 40
0.4999999999999811
 40
0.4999999999999811
 40
0.7499999999999906
 40
0.7499999999999906
 40
1.0
 40
1.0
 40
1.0
 40
1.0
 10
-16.85143947608314
 20
-82.10658562590136
 30
0.0
 10
-17.46796986600335
 20
-81.91609133647785
 30
0.0
 10
-18.09373773845313
 20
-81.79441692341547
 30
0.0
 10
-19.05679944783817
 20
-81.79376073288422
 30
0.0
 10
-19.37749248296799
 20
-81.82359473467862
 30
0.0
 10
-20.00745073296373
 20
-81.93252460478621
 30
0.0
 10
-20.31868000099468
 20
-82.01121979184909
 30
0.0
 10
-20.62732933127925
 20
-82.10658562590184
 30
0.0
  0
SPLINE
  5
428
330
1F
100
AcDbEntity
  8
0
  6
Continuous
 62
     7
370
    25
100
AcDbSpline
210
0.0
220
0.0
230
1.0
 70
     8
 71
     3
 72
    12
 73
     8
 74
     0
 42
0.000000001
 43
0.00000001
 40
0.0
 40
0.0
 40
0.0
 40
0.0
 40
0.5
 40
0.5
 40
0.75
 40
0.75
 40
1.0
 40
1.0
 40
1.0
 40
1.0
 10
-20.62732933127909
 20
-82.10658562590136
 30
0.0
 10
-21.13933548298391
 20
-81.91609133647785
 30
0.0
 10
-21.65901302925221
 20
-81.79441692341547
 30
0.0
 10
-22.4588008868149
 20
-81.79376073288424
 30
0.0
 10
-22.72512483366285
 20
-81.82359473467862
 30
0.0
 10
-23.24828233666426
 20
-81.93252460478621
 30
0.0
 10
-23.50674696781257
 20
-82.01121979184909
 30
0.0
 10
-23.76306905413461
 20
-82.10658562590184
 30
0.0
  0
SPLINE
  5
429
330
1F
100
AcDbEntity
  8
0
  6
Continuous
 62
     7
370
    25
100
AcDbSpline
210
0.0
220
0.0
230
1.0
 70
     8
 71
     3
 72
     9
 73
     5
 74
     0
 42
0.000000001
 43
0.00000001
 40
0.0
 40
0.0
 40
0.0
 40
0.0
 40
0.3722348086954575
 40
1.0
 40
1.0
 40
1.0
 40
1.0
 10
-23.76306905413455
 20
-82.10658562590234
 30
0.0
 10
-23.73510282046271
 20
-82.05466131712876
 30
0.0
 10
-23.6599721958719
 20
-81.91516789104224
 30
0.0
 10
-23.58142833771532
 20
-81.90715916493713
 30
0.0
 10
-23.53212123757381
 20
-81.90213156546164
 30
0.0
  0
LINE
  5
42A
330
1F
100
AcDbEntity
  8
0
  6
Continuous
 62
     7
370
    25
100
AcDbLine
 10
-16.8371791989
 20
-81.5919056405
 30
0.0
 11
-23.1371791989
 21
-81.5919056405
 31
0.0
  0
LINE
  5
42B
330
1F
100
AcDbEntity
  8
0
  6
Continuous
 62
     7
370
    25
100
AcDbLine
 10
-16.8514394761
 20
-82.1065856259
 30
0.0
 11
-16.8514394761
 21
-84.2772256551
 31
0.0
  0
SPLINE
  5
42C
330
1F
100
AcDbEntity
  8
0
  6
Continuous
 62
     7
370
    25
100
AcDbSpline
210
0.0
220
0.0
230
1.0
 70
     8
 71
     3
 72
    12
 73
     8
 74
     0
 42
0.000000001
 43
0.00000001
 40
0.0
 40
0.0
 40
0.0
 40
0.0
 40
0.4999999999999811
 40
0.4999999999999811
 40
0.7499999999999906
 40
0.7499999999999906
 40
1.0
 40
1.0
 40
1.0
 40
1.0
 10
-20.62732933127937
 20
-84.2772256551313
 30
0.0
 10
-20.01079894135921
 20
-84.46771994455483
 30
0.0
 10
-19.38503106890937
 20
-84.5893943576172
 30
0.0
 10
-18.42196935952434
 20
-84.59005054814843
 30
0.0
 10
-18.10127632439462
 20
-84.56021654635403
 30
0.0
 10
-17.47131807439878
 20
-84.45128667624644
 30
0.0
 10
-17.16008880636799
 20
-84.37259148918356
 30
0.0
 10
-16.8514394760832
 20
-84.2772256551308
 30
0.0
  0
LINE
  5
42D
330
1F
100
AcDbEntity
  8
0
  6
Continuous
 62
     7
370
    25
100
AcDbLine
 10
-20.6273293313
 20
-82.1065856259
 30
0.0
 11
-20.6273293313
 21
-84.2772256551
 31
0.0
  0
SPLINE
  5
42E
330
1F
100
AcDbEntity
  8
0
  6
Continuous
 62
     7
370
    25
100
AcDbSpline
210
0.0
220
0.0
230
1.0
 70
     8
 71
     3
 72
     9
 73
     5
 74
     0
 42
0.000000001
 43
0.00000001
 40
0.0
 40
0.0
 40
0.0
 40
0.0
 40
0.627765191304545
 40
1.0
 40
1.0
 40
1.0
 40
1.0
 10
-23.53212123757375
 20
-84.48167971557099
 30
0.0
 10
-23.58142833771521
 20
-84.47665211609551
 30
0.0
 10
-23.65997219587185
 20
-84.46864338999039
 30
0.0
 10
-23.73510282046282
 20
-84.32914996390389
 30
0.0
 10
-23.76306905413455
 20
-84.27722565513031
 30
0.0
  0
SPLINE
  5
42F
330
1F
100
AcDbEntity
  8
0
  6
Continuous
 62
     7
370
    25
100
AcDbSpline
210
0.0
220
0.0
230
1.0
 70
     8
 71
     3
 72
    12
 73
     8
 74
     0
 42
0.000000001
 43
0.00000001
 40
0.0
 40
0.0
 40
0.0
 40
0.0
 40
0.5
 40
0.5
 40
0.75
 40
0.75
 40
1.0
 40
1.0
 40
1.0
 40
1.0
 10
-23.76306905413467
 20
-84.27722565513129
 30
0.0
 10
-23.25106290242973
 20
-84.46771994455482
 30
0.0
 10
-22.73138535616132
 20
-84.5893943576172
 30
0.0
 10
-21.93159749859902
 20
-84.59005054814841
 30
0.0
 10
-21.66527355175102
 20
-84.56021654635403
 30
0.0
 10
-21.14211604874955
 20
-84.45128667624645
 30
0.0
 10
-20.88365141760118
 20
-84.37259148918356
 30
0.0
 10
-20.62732933127914
 20
-84.27722565513082
 30
0.0
  0
SPLINE
  5
430
330
1F
100
AcDbEntity
  8
0
  6
Continuous
 62
     7
370
    25
100
AcDbSpline
210
0.0
220
0.0
230
1.0
 70
     8
 71
     3
 72
    14
 73
    10
 74
     0
 42
0.000000001
 43
0.00000001
 40
0.0
 40
0.0
 40
0.0
 40
0.0
 40
0.25
 40
0.25
 40
0.5
 40
0.5
 40
0.75
 40
0.75
 40
1.0
 40
1.0
 40
1.0
 40
1.0
 10
-16.85143947608325
 20
-84.27722565513032
 30
0.0
 10
-16.79938176719242
 20
-84.37210026444093
 30
0.0
 10
-16.74604822886433
 20
-84.45170518931668
 30
0.0
 10
-16.63911622123609
 20
-84.56054180421091
 30
0.0
 10
-16.58536285478873
 20
-84.5898654099014
 30
0.0
 10
-16.47718380336499
 20
-84.5898006281558
 30
0.0
 10
-16.42235510677698
 20
-84.55964443482944
 30
0.0
 10
-16.31544812411717
 20
-84.45005923346373
 30
0.0
 10
-16.26302660914486
 20
-84.37151625966156
 30
0.0
 10
-16.21128934374266
 20
-84.27722565513031
 30
0.0
  0
LINE
  5
431
330
1F
100
AcDbEntity
  8
0
  6
Continuous
 62
     7
370
    25
100
AcDbLine
 10
-16.8371791989
 20
-84.7919056405
 30
0.0
 11
-23.1371791989
 21
-84.7919056405
 31
0.0
  0
LINE
  5
432
330
1F
100
AcDbEntity
  8
0
  6
Continuous
 62
     7
370
    25
100
AcDbLine
 10
-23.7630690541
 20
-82.1065856259
 30
0.0
 11
-23.7630690541
 21
-84.2772256551
 31
0.0
  0
LINE
  5
433
330
1F
100
AcDbEntity
  8
0
  6
Continuous
 62
     7
370
    25
100
AcDbLine
 10
-16.2112893437
 20
-82.1065856259
 30
0.0
 11
-16.2112893437
 21
-84.2772256551
 31
0.0
  0
LINE
  5
434
330
1F
100
AcDbEntity
  8
0
  6
Continuous
 62
     7
370
    25
100
AcDbLine
 10
-39.9871791989
 20
-85.6919056405
 30
0.0
 11
863.0128208011
 21
-85.6919056405
 31
0.0
  0
LINE
  5
435
330
1F
100
AcDbEntity
  8
0
  6
Continuous
 62
     7
370
    25
100
AcDbLine
 10
863.0128208011
 20
-85.6919056405
 30
0.0
 11
863.0128208011
 21
-87.4919056405
 31
0.0
  0
LINE
  5
436
330
1F
100
AcDbEntity
  8
0
  6
Continuous
 62
     7
370
    25
100
AcDbLine
 10
-39.9871791989
 20
-87.4919056405
 30
0.0
 11
-39.9871791989
 21
-85.6919056405
 31
0.0
  0
LINE
  5
437
330
1F
100
AcDbEntity
  8
0
  6
Continuous
 62
     7
370
    25
100
AcDbLine
 10
-40.9871791989
 20
-98.2419056405
 30
0.0
 11
-40.9081094315
 21
-97.3919056405
 31
0.0
  0
LINE
  5
438
330
1F
100
AcDbEntity
  8
0
  6
Continuous
 62
     7
370
    25
100
AcDbLine
 10
863.9337510336
 20
-97.3919056405
 30
0.0
 11
864.0128208011
 21
-98.2419056405
 31
0.0
  0
LINE
  5
439
330
1F
100
AcDbEntity
  8
0
  6
Continuous
 62
     7
370
    25
100
AcDbLine
 10
-40.9081094315
 20
-97.3919056405
 30
0.0
 11
-39.9871791989
 21
-87.4919056405
 31
0.0
  0
LINE
  5
43A
330
1F
100
AcDbEntity
  8
0
  6
Continuous
 62
     7
370
    25
100
AcDbLine
 10
863.0128208011
 20
-87.4919056405
 30
0.0
 11
863.9337510336
 21
-97.3919056405
 31
0.0
  0
LINE
  5
43B
330
1F
100
AcDbEntity
  8
0
  6
Continuous
 62
     7
370
    25
100
AcDbLine
 10
842.6960286429
 20
-76.4919056405
 30
0.0
 11
845.0128208011
 21
-76.4919056405
 31
0.0
  0
LINE
  5
43C
330
1F
100
AcDbEntity
  8
0
  6
Continuous
 62
     7
370
    25
100
AcDbLine
 10
841.0128208011
 20
-76.4919056405
 30
0.0
 11
842.6960286429
 21
-76.4919056405
 31
0.0
  0
LINE
  5
43D
330
1F
100
AcDbEntity
  8
0
  6
Continuous
 62
     7
370
    25
100
AcDbLine
 10
259.6960286429
 20
-76.4919056405
 30
0.0
 11
262.0128208011
 21
-76.4919056405
 31
0.0
  0
LINE
  5
43E
330
1F
100
AcDbEntity
  8
0
  6
Continuous
 62
     7
370
    25
100
AcDbLine
 10
258.0128208011
 20
-76.4919056405
 30
0.0
 11
259.6960286429
 21
-76.4919056405
 31
0.0
  0
LINE
  5
43F
330
1F
100
AcDbEntity
  8
0
  6
Continuous
 62
     7
370
    25
100
AcDbLine
 10
562.6960286429
 20
-76.4919056405
 30
0.0
 11
565.0128208011
 21
-76.4919056405
 31
0.0
  0
LINE
  5
440
330
1F
100
AcDbEntity
  8
0
  6
Continuous
 62
     7
370
    25
100
AcDbLine
 10
561.0128208011
 20
-76.4919056405
 30
0.0
 11
562.6960286429
 21
-76.4919056405
 31
0.0
  0
LINE
  5
441
330
1F
100
AcDbEntity
  8
0
  6
Continuous
 62
     7
370
    25
100
AcDbLine
 10
-20.3039713571
 20
-76.4919056405
 30
0.0
 11
-17.9871791989
 21
-76.4919056405
 31
0.0
  0
LINE
  5
442
330
1F
100
AcDbEntity
  8
0
  6
Continuous
 62
     7
370
    25
100
AcDbLine
 10
-21.9871791989
 20
-76.4919056405
 30
0.0
 11
-20.3039713571
 21
-76.4919056405
 31
0.0
  0
LINE
  5
443
330
1F
100
AcDbEntity
  8
0
  6
Continuous
 62
     7
370
    25
100
AcDbLine
 10
865.5128208011
 20
-67.2919056405
 30
0.0
 11
865.5128208011
 21
-70.1919056405
 31
0.0
  0
LINE
  5
444
330
1F
100
AcDbEntity
  8
0
  6
Continuous
 62
     7
370
    25
100
AcDbLine
 10
865.5128208011
 20
-76.1919056405
 30
0.0
 11
865.5128208011
 21
-96.2919056405
 31
0.0
  0
LINE
  5
445
330
1F
100
AcDbEntity
  8
0
  6
Continuous
 62
     7
370
    25
100
AcDbLine
 10
863.5128208011
 20
-83.6919056405
 30
0.0
 11
863.5128208011
 21
-92.8669056405
 31
0.0
  0
LINE
  5
446
330
1F
100
AcDbEntity
  8
0
  6
Continuous
 62
     7
370
    25
100
AcDbLine
 10
864.5128208011
 20
-65.2919056405
 30
0.0
 11
865.5128208011
 21
-65.2919056405
 31
0.0
  0
LINE
  5
447
330
1F
100
AcDbEntity
  8
0
  6
Continuous
 62
     7
370
    25
100
AcDbLine
 10
865.5128208011
 20
-65.2919056405
 30
0.0
 11
865.5128208011
 21
-67.2919056405
 31
0.0
  0
LINE
  5
448
330
1F
100
AcDbEntity
  8
0
  6
Continuous
 62
     7
370
    25
100
AcDbLine
 10
865.5111536712
 20
-96.3919056405
 30
0.0
 11
865.5128208011
 21
-96.2919056405
 31
0.0
  0
LINE
  5
449
330
1F
100
AcDbEntity
  8
0
  6
Continuous
 62
     7
370
    25
100
AcDbLine
 10
865.5128208011
 20
-81.2919056405
 30
0.0
 11
865.5731281803
 21
-81.2919056405
 31
0.0
  0
LINE
  5
44A
330
1F
100
AcDbEntity
  8
0
  6
Continuous
 62
     7
370
    25
100
AcDbLine
 10
865.5731281803
 20
-65.2919056405
 30
0.0
 11
865.5128208011
 21
-65.2919056405
 31
0.0
  0
LWPOLYLINE
  5
44B
330
1F
100
AcDbEntity
  8
0
  6
Continuous
 62
     7
370
    25
100
AcDbPolyline
 90
        9
 70
   128
 43
0.0
 10
868.1283671892
 20
-67.2919056405
 10
868.1152235469
 20
-66.9017249965
 10
868.0762977228
 20
-66.5265387758
 10
868.0130856145
 20
-66.1807651745
 10
867.9280164279
 20
-65.8776920781
 10
867.824359324
 20
-65.6289664159
 10
867.7060977874
 20
-65.4441465755
 10
867.5777765424
 20
-65.3303350797
 10
867.4443269026
 20
-65.2919056405
  0
LINE
  5
44C
330
1F
100
AcDbEntity
  8
0
  6
Continuous
 62
     7
370
    25
100
AcDbLine
 10
868.1283671892
 20
-67.2919056405
 30
0.0
 11
868.1283671892
 21
-70.1919056405
 31
0.0
  0
LINE
  5
44D
330
1F
100
AcDbEntity
  8
0
  6
Continuous
 62
     7
370
    25
100
AcDbLine
 10
868.1283671892
 20
-76.1919056405
 30
0.0
 11
868.1283671892
 21
-79.2919056405
 31
0.0
  0
LWPOLYLINE
  5
44E
330
1F
100
AcDbEntity
  8
0
  6
Continuous
 62
     7
370
    25
100
AcDbPolyline
 90
        9
 70
   128
 43
0.0
 10
867.4443269026
 20
-81.2919056405
 10
867.5777765424
 20
-81.2534762013
 10
867.7060977874
 20
-81.1396647055
 10
867.824359324
 20
-80.9548448651
 10
867.9280164279
 20
-80.7061192029
 10
868.0130856145
 20
-80.4030461066
 10
868.0762977228
 20
-80.0572725052
 10
868.1152235469
 20
-79.6820862845
 10
868.1283671892
 20
-79.2919056405
  0
LINE
  5
44F
330
1F
100
AcDbEntity
  8
0
  6
Continuous
 62
     7
370
    25
100
AcDbLine
 10
867.4443269026
 20
-81.2919056405
 30
0.0
 11
865.5731281803
 21
-81.2919056405
 31
0.0
  0
LINE
  5
450
330
1F
100
AcDbEntity
  8
0
  6
Continuous
 62
     7
370
    25
100
AcDbLine
 10
865.5731281803
 20
-65.2919056405
 30
0.0
 11
867.4443269026
 21
-65.2919056405
 31
0.0
  0
LINE
  5
451
330
1F
100
AcDbEntity
  8
0
  6
Continuous
 62
     7
370
    25
100
AcDbLine
 10
-42.4871791989
 20
-96.2919056405
 30
0.0
 11
-42.4871791989
 21
-76.1919056405
 31
0.0
  0
LINE
  5
452
330
1F
100
AcDbEntity
  8
0
  6
Continuous
 62
     7
370
    25
100
AcDbLine
 10
-42.4871791989
 20
-70.1919056405
 30
0.0
 11
-42.4871791989
 21
-67.2919056405
 31
0.0
  0
LINE
  5
453
330
1F
100
AcDbEntity
  8
0
  6
Continuous
 62
     7
370
    25
100
AcDbLine
 10
-40.4871791989
 20
-92.8669056405
 30
0.0
 11
-40.4871791989
 21
-83.6919056405
 31
0.0
  0
LINE
  5
454
330
1F
100
AcDbEntity
  8
0
  6
Continuous
 62
     7
370
    25
100
AcDbLine
 10
-42.4871791989
 20
-65.2919056405
 30
0.0
 11
-41.4871791989
 21
-65.2919056405
 31
0.0
  0
LINE
  5
455
330
1F
100
AcDbEntity
  8
0
  6
Continuous
 62
     7
370
    25
100
AcDbLine
 10
-42.4871791989
 20
-67.2919056405
 30
0.0
 11
-42.4871791989
 21
-65.2919056405
 31
0.0
  0
LINE
  5
456
330
1F
100
AcDbEntity
  8
0
  6
Continuous
 62
     7
370
    25
100
AcDbLine
 10
-42.4871791989
 20
-96.2919056405
 30
0.0
 11
-42.4855120691
 21
-96.3919056405
 31
0.0
  0
LINE
  5
457
330
1F
100
AcDbEntity
  8
0
  6
Continuous
 62
     7
370
    25
100
AcDbLine
 10
-42.5474865782
 20
-81.2919056405
 30
0.0
 11
-42.4871791989
 21
-81.2919056405
 31
0.0
  0
LINE
  5
458
330
1F
100
AcDbEntity
  8
0
  6
Continuous
 62
     7
370
    25
100
AcDbLine
 10
-42.4871791989
 20
-65.2919056405
 30
0.0
 11
-42.5474865782
 21
-65.2919056405
 31
0.0
  0
LWPOLYLINE
  5
459
330
1F
100
AcDbEntity
  8
0
  6
Continuous
 62
     7
370
    25
100
AcDbPolyline
 90
        9
 70
   128
 43
0.0
 10
-44.4186853005
 20
-65.2919056405
 10
-44.5521349403
 20
-65.3303350797
 10
-44.6804561852
 20
-65.4441465755
 10
-44.7987177219
 20
-65.6289664159
 10
-44.9023748258
 20
-65.8776920781
 10
-44.9874440124
 20
-66.1807651745
 10
-45.0506561207
 20
-66.5265387758
 10
-45.0895819448
 20
-66.9017249965
 10
-45.1027255871
 20
-67.2919056405
  0
LINE
  5
45A
330
1F
100
AcDbEntity
  8
0
  6
Continuous
 62
     7
370
    25
100
AcDbLine
 10
-44.4186853005
 20
-65.2919056405
 30
0.0
 11
-42.5474865782
 21
-65.2919056405
 31
0.0
  0
LINE
  5
45B
330
1F
100
AcDbEntity
  8
0
  6
Continuous
 62
     7
370
    25
100
AcDbLine
 10
-42.5474865782
 20
-81.2919056405
 30
0.0
 11
-44.4186853005
 21
-81.2919056405
 31
0.0
  0
LWPOLYLINE
  5
45C
330
1F
100
AcDbEntity
  8
0
  6
Continuous
 62
     7
370
    25
100
AcDbPolyline
 90
        9
 70
   128
 43
0.0
 10
-45.1027255871
 20
-79.2919056405
 10
-45.0895819448
 20
-79.6820862845
 10
-45.0506561207
 20
-80.0572725052
 10
-44.9874440124
 20
-80.4030461066
 10
-44.9023748258
 20
-80.7061192029
 10
-44.7987177219
 20
-80.9548448651
 10
-44.6804561852
 20
-81.1396647055
 10
-44.5521349403
 20
-81.2534762013
 10
-44.4186853005
 20
-81.2919056405
  0
LINE
  5
45D
330
1F
100
AcDbEntity
  8
0
  6
Continuous
 62
     7
370
    25
100
AcDbLine
 10
-45.1027255871
 20
-79.2919056405
 30
0.0
 11
-45.1027255871
 21
-76.1919056405
 31
0.0
  0
LINE
  5
45E
330
1F
100
AcDbEntity
  8
0
  6
Continuous
 62
     7
370
    25
100
AcDbLine
 10
-45.1027255871
 20
-70.1919056405
 30
0.0
 11
-45.1027255871
 21
-67.2919056405
 31
0.0
  0
SPLINE
  5
45F
330
1F
100
AcDbEntity
  8
0
  6
Continuous
 62
     7
370
    25
100
AcDbSpline
210
0.0
220
0.0
230
1.0
 70
    24
 71
     3
 72
     9
 73
     5
 74
     0
 42
0.000000001
 43
0.00000001
 40
0.0
 40
0.0
 40
0.0
 40
0.0
 40
0.7059102712410721
 40
1.0
 40
1.0
 40
1.0
 40
1.0
 10
-40.68717919893827
 20
-67.41865683112668
 30
0.0
 10
-40.68717919893827
 20
-67.40840406183008
 30
0.0
 10
-40.68717919893838
 20
-67.39387987977142
 30
0.0
 10
-40.68717919893822
 20
-67.48893183637955
 30
0.0
 10
-40.68717919893827
 20
-67.51688564051645
 30
0.0
  0
SPLINE
  5
460
330
1F
100
AcDbEntity
  8
0
  6
Continuous
 62
     7
370
    25
100
AcDbSpline
210
0.0
220
0.0
230
1.0
 70
    24
 71
     3
 72
    12
 73
     8
 74
     0
 42
0.000000001
 43
0.00000001
 40
0.0
 40
0.0
 40
0.0
 40
0.0
 40
0.3344405486782611
 40
0.5144757571369835
 40
0.6983315710265358
 40
0.8821873849160827
 40
1.0
 40
1.0
 40
1.0
 40
1.0
 10
-39.68717919893827
 20
-70.68559833546016
 30
0.0
 10
-39.68717919893822
 20
-70.06145279995832
 30
0.0
 10
-39.68717919893816
 20
-69.10131878448072
 30
0.0
 10
-39.68717919893838
 20
-68.19340787818544
 30
0.0
 10
-39.68717919893844
 20
-67.6876905402693
 30
0.0
 10
-39.68717919893838
 20
-67.41607080613109
 30
0.0
 10
-39.68717919893827
 20
-67.41793053759085
 30
0.0
 10
-39.68717919893827
 20
-67.41865683111573
 30
0.0
  0
SPLINE
  5
461
330
1F
100
AcDbEntity
  8
0
  6
Continuous
 62
     7
370
    25
100
AcDbSpline
210
0.0
220
0.0
230
1.0
 70
    24
 71
     3
 72
    15
 73
    11
 74
     0
 42
0.000000001
 43
0.00000001
 40
0.0
 40
0.0
 40
0.0
 40
0.0
 40
0.034696749791865
 40
0.2211884951269616
 40
0.4076802404620631
 40
0.508072015263078
 40
0.6105942475634826
 40
0.7131164798638864
 40
0.8135082546649008
 40
1.0
 40
1.0
 40
1.0
 40
1.0
 10
-39.68717919893827
 20
-78.96515444992146
 30
0.0
 10
-39.68717919893827
 20
-78.97187555355288
 30
0.0
 10
-39.68717919893838
 20
-79.01472195290566
 30
0.0
 10
-39.6871791989381
 20
-78.52668099014717
 30
0.0
 10
-39.68717919893816
 20
-77.43076993267864
 30
0.0
 10
-39.68717919893838
 20
-76.21187280023112
 30
0.0
 10
-39.68717919893827
 20
-75.13169757237418
 30
0.0
 10
-39.68717919893827
 20
-73.97122066990849
 30
0.0
 10
-39.68717919893822
 20
-72.44064577479337
 30
0.0
 10
-39.68717919893822
 20
-71.3770198861433
 30
0.0
 10
-39.68717919893827
 20
-70.68559833546016
 30
0.0
  0
SPLINE
  5
462
330
1F
100
AcDbEntity
  8
0
  6
Continuous
 62
     7
370
    25
100
AcDbSpline
210
0.0
220
0.0
230
1.0
 70
     8
 71
     3
 72
     8
 73
     4
 74
     0
 42
0.000000001
 43
0.00000001
 40
0.0
 40
0.0
 40
0.0
 40
0.0
 40
1.0
 40
1.0
 40
1.0
 40
1.0
 10
-35.68717919894526
 20
-73.57530066820506
 30
0.0
 10
-35.68717919894526
 20
-72.59292222363229
 30
0.0
 10
-35.86149449932469
 20
-71.63743105544255
 30
0.0
 10
-36.13376118633666
 20
-70.69704840611497
 30
0.0
  0
SPLINE
  5
463
330
1F
100
AcDbEntity
  8
0
  6
Continuous
 62
     7
370
    25
100
AcDbSpline
210
0.0
220
0.0
230
1.0
 70
     8
 71
     3
 72
     8
 73
     4
 74
     0
 42
0.000000001
 43
0.00000001
 40
0.0
 40
0.0
 40
0.0
 40
0.0
 40
1.0
 40
1.0
 40
1.0
 40
1.0
 10
-36.1337611863366
 20
-76.45355293029505
 30
0.0
 10
-35.86149449932519
 20
-75.51317028096925
 30
0.0
 10
-35.68717919894526
 20
-74.55767911277599
 30
0.0
 10
-35.68717919894526
 20
-73.57530066820506
 30
0.0
  0
LINE
  5
464
330
1F
100
AcDbEntity
  8
0
  6
Continuous
 62
     7
370
    25
100
AcDbLine
 10
-39.6871791989
 20
-76.4535529303
 30
0.0
 11
-36.1337611863
 21
-76.4535529303
 31
0.0
  0
LINE
  5
465
330
1F
100
AcDbEntity
  8
0
  6
Continuous
 62
     7
370
    25
100
AcDbLine
 10
-39.6871791989
 20
-70.6970484061
 30
0.0
 11
-36.1337611863
 21
-70.6970484061
 31
0.0
  0
LINE
  5
466
330
1F
100
AcDbEntity
  8
0
  6
Continuous
 62
     7
370
    25
100
AcDbLine
 10
-35.6871791989
 20
-73.5753006682
 30
0.0
 11
-35.6871791989
 21
-69.0662247612
 31
0.0
  0
SPLINE
  5
467
330
1F
100
AcDbEntity
  8
0
  6
Continuous
 62
     7
370
    25
100
AcDbSpline
210
0.0
220
0.0
230
1.0
 70
     8
 71
     3
 72
     8
 73
     4
 74
     0
 42
0.000000001
 43
0.00000001
 40
0.0
 40
0.0
 40
0.0
 40
0.0
 40
1.0
 40
1.0
 40
1.0
 40
1.0
 10
-36.13376118633676
 20
-70.69704840610885
 30
0.0
 10
-35.86149449932535
 20
-70.16422566504403
 30
0.0
 10
-35.68717919894543
 20
-69.62284240614942
 30
0.0
 10
-35.68717919894543
 20
-69.06622476122098
 30
0.0
  0
LINE
  5
468
330
1F
100
AcDbEntity
  8
0
  6
Continuous
 62
     7
370
    25
100
AcDbLine
 10
-35.6871791989
 20
-77.7009815475
 30
0.0
 11
-35.6871791989
 21
-73.5753006682
 31
0.0
  0
SPLINE
  5
469
330
1F
100
AcDbEntity
  8
0
  6
Continuous
 62
     7
370
    25
100
AcDbSpline
210
0.0
220
0.0
230
1.0
 70
     8
 71
     3
 72
     8
 73
     4
 74
     0
 42
0.000000001
 43
0.00000001
 40
0.0
 40
0.0
 40
0.0
 40
0.0
 40
1.0
 40
1.0
 40
1.0
 40
1.0
 10
-35.68717919894543
 20
-77.70098154750258
 30
0.0
 10
-35.68717919894543
 20
-77.27522074785938
 30
0.0
 10
-35.86149449932486
 20
-76.86111283856228
 30
0.0
 10
-36.13376118633671
 20
-76.45355293030063
 30
0.0
  0
SPLINE
  5
46A
330
1F
100
AcDbEntity
  8
0
  6
Continuous
 62
     7
370
    25
100
AcDbSpline
210
0.0
220
0.0
230
1.0
 70
     8
 71
     3
 72
     8
 73
     4
 74
     0
 42
0.000000001
 43
0.00000001
 40
0.0
 40
0.0
 40
0.0
 40
0.0
 40
1.0
 40
1.0
 40
1.0
 40
1.0
 10
-35.68717919894543
 20
-69.06622476122098
 30
0.0
 10
-35.68717919894543
 20
-68.50960711629153
 30
0.0
 10
-35.86149449932486
 20
-67.96822385739893
 30
0.0
 10
-36.13376118633676
 20
-67.43540111633311
 30
0.0
  0
LINE
  5
46B
330
1F
100
AcDbEntity
  8
0
  6
Continuous
 62
     7
370
    25
100
AcDbLine
 10
-39.6871791989
 20
-67.4354011163
 30
0.0
 11
-36.1337611863
 21
-67.4354011163
 31
0.0
  0
SPLINE
  5
46C
330
1F
100
AcDbEntity
  8
0
  6
Continuous
 62
     7
370
    25
100
AcDbSpline
210
0.0
220
0.0
230
1.0
 70
     8
 71
     3
 72
     8
 73
     4
 74
     0
 42
0.000000001
 43
0.00000001
 40
0.0
 40
0.0
 40
0.0
 40
0.0
 40
1.0
 40
1.0
 40
1.0
 40
1.0
 10
-36.13376118633671
 20
-78.94841016470458
 30
0.0
 10
-35.86149449932524
 20
-78.5408502564435
 30
0.0
 10
-35.68717919894543
 20
-78.12674234714517
 30
0.0
 10
-35.68717919894543
 20
-77.70098154750258
 30
0.0
  0
LINE
  5
46D
330
1F
100
AcDbEntity
  8
0
  6
Continuous
 62
     7
370
    25
100
AcDbLine
 10
-36.1337611863
 20
-78.9484101647
 30
0.0
 11
-39.6871791989
 21
-78.9484101647
 31
0.0
  0
LINE
  5
46E
330
1F
100
AcDbEntity
  8
0
  6
Continuous
 62
     7
370
    25
100
AcDbLine
 10
-50.6871791989
 20
-70.7331556405
 30
0.0
 11
-50.6871791989
 21
-75.6506556405
 31
0.0
  0
LINE
  5
46F
330
1F
100
AcDbEntity
  8
0
  6
Continuous
 62
     7
370
    25
100
AcDbLine
 10
-50.1459291989
 20
-75.8973511847
 30
0.0
 11
-50.1459291989
 21
-76.1919056405
 31
0.0
  0
LINE
  5
470
330
1F
100
AcDbEntity
  8
0
  6
Continuous
 62
     7
370
    25
100
AcDbLine
 10
-50.1459291989
 20
-70.1919056405
 30
0.0
 11
-50.1459291989
 21
-75.8973511847
 31
0.0
  0
LINE
  5
471
330
1F
100
AcDbEntity
  8
0
  6
Continuous
 62
     7
370
    25
100
AcDbLine
 10
-36.1337611863
 20
-67.4354011163
 30
0.0
 11
-36.0585734308
 21
-67.6454215841
 31
0.0
  0
LINE
  5
472
330
1F
100
AcDbEntity
  8
0
  6
Continuous
 62
     7
370
    25
100
AcDbLine
 10
-35.6871791989
 20
-69.0662247612
 30
0.0
 11
-35.6871791989
 21
-68.1919056405
 31
0.0
  0
LINE
  5
473
330
1F
100
AcDbEntity
  8
0
  6
Continuous
 62
     7
370
    25
100
AcDbLine
 10
-35.6871791989
 20
-78.1919056405
 30
0.0
 11
-35.6871791989
 21
-77.7009815475
 31
0.0
  0
ARC
  5
474
330
1F
100
AcDbEntity
  8
0
  6
Continuous
 62
     7
370
    25
100
AcDbCircle
 10
-48.9871791989
 20
-102.3919056405
 30
0.0
 40
6.000000000000014
100
AcDbArc
 50
90.0
 51
143.1301023541
  0
ARC
  5
475
330
1F
100
AcDbEntity
  8
0
  6
Continuous
 62
     7
370
    25
100
AcDbCircle
 10
872.0128208011
 20
-102.3919056405
 30
0.0
 40
6.000000000000014
100
AcDbArc
 50
36.8698976459
 51
90.0
  0
LINE
  5
476
330
1F
100
AcDbEntity
  8
0
  6
Continuous
 62
     7
370
    25
100
AcDbLine
 10
-155.1156834669
 20
596.5364911679
 30
0.0
 11
-155.4786212452
 21
595.9078644958
 31
0.0
  0
LINE
  5
477
330
1F
100
AcDbEntity
  8
0
  6
Continuous
 62
     7
370
    25
100
AcDbLine
 10
-155.4786212452
 20
589.6078644958
 30
0.0
 11
-155.1156834669
 21
588.9792378237
 31
0.0
  0
LINE
  5
478
330
1F
100
AcDbEntity
  8
0
  6
Continuous
 62
     7
370
    25
100
AcDbLine
 10
-157.1786212452
 20
596.7578644958
 30
0.0
 11
-159.1786212452
 21
596.7578644958
 31
0.0
  0
LINE
  5
479
330
1F
100
AcDbEntity
  8
0
  6
Continuous
 62
     7
370
    25
100
AcDbLine
 10
-159.1786212452
 20
588.7578644958
 30
0.0
 11
-157.1786212452
 21
588.7578644958
 31
0.0
  0
ARC
  5
47A
330
1F
100
AcDbEntity
  8
0
  6
Continuous
 62
     7
370
    25
100
AcDbCircle
 10
-152.250418015
 20
592.7578644958
 30
0.0
 40
8.000000000000036
100
AcDbArc
 50
195.2747479997
 51
210.0
  0
ARC
  5
47B
330
1F
100
AcDbEntity
  8
0
  6
Continuous
 62
     7
370
    25
100
AcDbCircle
 10
-152.250418015
 20
592.7578644958
 30
0.0
 40
7.999999999999992
100
AcDbArc
 50
150.0
 51
164.7252520003
  0
LINE
  5
47C
330
1F
100
AcDbEntity
  8
0
  6
Continuous
 62
     7
370
    25
100
AcDbLine
 10
-155.4786212452
 20
594.7578644958
 30
0.0
 11
-155.5786212452
 21
594.7578644958
 31
0.0
  0
LINE
  5
47D
330
1F
100
AcDbEntity
  8
0
  6
Continuous
 62
     7
370
    25
100
AcDbLine
 10
-155.5786212452
 20
590.7578644958
 30
0.0
 11
-155.4786212452
 21
590.7578644958
 31
0.0
  0
CIRCLE
  5
47E
330
1F
100
AcDbEntity
  8
0
  6
Continuous
 62
     7
370
    25
100
AcDbCircle
 10
-143.8786212452
 20
291.7578644958
 30
0.0
 40
2.458750000016647
  0
CIRCLE
  5
47F
330
1F
100
AcDbEntity
  8
0
  6
Continuous
 62
     7
370
    25
100
AcDbCircle
 10
-143.8786212452
 20
291.7578644958
 30
0.0
 40
2.999999999999999
  0
CIRCLE
  5
480
330
1F
100
AcDbEntity
  8
0
  6
Continuous
 62
     7
370
    25
100
AcDbCircle
 10
-143.8786212453
 20
617.7578644958
 30
0.0
 40
2.458750000016638
  0
CIRCLE
  5
481
330
1F
100
AcDbEntity
  8
0
  6
Continuous
 62
     7
370
    25
100
AcDbCircle
 10
-143.8786212453
 20
617.7578644958
 30
0.0
 40
3.000000000000003
  0
LINE
  5
482
330
1F
100
AcDbEntity
  8
0
  6
Continuous
 62
     7
370
    25
100
AcDbLine
 10
-162.4786212452
 20
-4.7714248261
 30
0.0
 11
-162.4786212452
 21
588.2871538176
 31
0.0
  0
LINE
  5
483
330
1F
100
AcDbEntity
  8
0
  6
Continuous
 62
     7
370
    25
100
AcDbLine
 10
-172.0786212452
 20
-4.7714248261
 30
0.0
 11
-162.4786212452
 21
-4.7714248261
 31
0.0
  0
LINE
  5
484
330
1F
100
AcDbEntity
  8
0
  6
Continuous
 62
     7
370
    25
100
AcDbLine
 10
-172.0786212452
 20
588.2871538176
 30
0.0
 11
-162.4786212452
 21
588.2871538176
 31
0.0
  0
SPLINE
  5
485
330
1F
100
AcDbEntity
  8
0
  6
Continuous
 62
     7
370
    25
100
AcDbSpline
210
0.0
220
0.0
230
1.0
 70
     8
 71
     3
 72
    20
 73
    16
 74
     0
 42
0.000000001
 43
0.00000001
 40
0.0
 40
0.0
 40
0.0
 40
0.0
 40
0.1249999999999913
 40
0.1249999999999913
 40
0.2499999999999826
 40
0.2499999999999826
 40
0.3749999999999739
 40
0.3749999999999739
 40
0.4999999999999651
 40
0.4999999999999651
 40
0.749999999999958
 40
0.749999999999958
 40
0.8749999999999789
 40
0.8749999999999789
 40
1.0
 40
1.0
 40
1.0
 40
1.0
 10
-172.0786212452492
 20
-4.771424826124415
 30
0.0
 10
-172.2370004328999
 20
-4.732384095269937
 30
0.0
 10
-172.3932461575916
 20
-4.693865391070084
 30
0.0
 10
-172.7012380070082
 20
-4.616458639762233
 30
0.0
 10
-172.8538821144793
 20
-4.577314221775541
 30
0.0
 10
-173.1429664036664
 20
-4.500163467860252
 30
0.0
 10
-173.2807709418505
 20
-4.46183588611937
 30
0.0
 10
-173.5423896174894
 20
-4.384289565642685
 30
0.0
 10
-173.6651359241721
 20
-4.345313357974002
 30
0.0
 10
-173.9964603011197
 20
-4.229818501528815
 30
0.0
 10
-174.1754714251479
 20
-4.151906057858923
 30
0.0
 10
-174.3550865245288
 20
-4.036426132458026
 30
0.0
 10
-174.4013308733965
 20
-3.997560336592987
 30
0.0
 10
-174.4630841794078
 20
-3.919786002924475
 30
0.0
 10
-174.4786212452492
 20
-3.881176235969674
 30
0.0
 10
-174.4786212452492
 20
-3.84213550424306
 30
0.0
  0
LINE
  5
486
330
1F
100
AcDbEntity
  8
0
  6
Continuous
 62
     7
370
    25
100
AcDbLine
 10
-174.4786212452
 20
-3.8421355042
 30
0.0
 11
-174.4786212452
 21
587.3578644958
 31
0.0
  0
SPLINE
  5
487
330
1F
100
AcDbEntity
  8
0
  6
Continuous
 62
     7
370
    25
100
AcDbSpline
210
0.0
220
0.0
230
1.0
 70
     8
 71
     3
 72
    20
 73
    16
 74
     0
 42
0.000000001
 43
0.00000001
 40
0.0
 40
0.0
 40
0.0
 40
0.0
 40
0.1250000000000067
 40
0.1250000000000067
 40
0.2500000000000134
 40
0.2500000000000134
 40
0.3750000000000201
 40
0.3750000000000201
 40
0.5000000000000268
 40
0.5000000000000268
 40
0.7500000000000105
 40
0.7500000000000105
 40
0.8750000000000053
 40
0.8750000000000053
 40
1.0
 40
1.0
 40
1.0
 40
1.0
 10
-174.4786212452492
 20
587.3578644957569
 30
0.0
 10
-174.4786212452492
 20
587.3969052266115
 30
0.0
 10
-174.4630846847743
 20
587.4354239308111
 30
0.0
 10
-174.4017663328137
 20
587.5128306821191
 30
0.0
 10
-174.3553425872269
 20
587.5519751001057
 30
0.0
 10
-174.2353917170728
 20
587.629125854021
 30
0.0
 10
-174.1617870727894
 20
587.667453435762
 30
0.0
 10
-173.9870567066937
 20
587.7449997562385
 30
0.0
 10
-173.8862060777921
 20
587.7839759639073
 30
0.0
 10
-173.5549207978083
 20
587.8994708203526
 30
0.0
 10
-173.2872406364243
 20
587.9773832640225
 30
0.0
 10
-172.854566610369
 20
588.0928631894234
 30
0.0
 10
-172.7030485235179
 20
588.1317289852883
 30
0.0
 10
-172.3936227661317
 20
588.209503318957
 30
0.0
 10
-172.2370004364379
 20
588.2481130859117
 30
0.0
 10
-172.0786212452492
 20
588.2871538176385
 30
0.0
  0
SPLINE
  5
488
330
1F
100
AcDbEntity
  8
0
  6
Continuous
 62
     7
370
    25
100
AcDbSpline
210
0.0
220
0.0
230
1.0
 70
     8
 71
     3
 72
    20
 73
    16
 74
     0
 42
0.000000001
 43
0.00000001
 40
0.0
 40
0.0
 40
0.0
 40
0.0
 40
0.1249999999999987
 40
0.1249999999999987
 40
0.2499999999999973
 40
0.2499999999999973
 40
0.374999999999996
 40
0.374999999999996
 40
0.4999999999999947
 40
0.4999999999999947
 40
0.7499999999999921
 40
0.7499999999999921
 40
0.874999999999996
 40
0.874999999999996
 40
1.0
 40
1.0
 40
1.0
 40
1.0
 10
-172.0786212452493
 20
589.7578644957568
 30
0.0
 10
-172.2370004329
 20
589.7578644957568
 30
0.0
 10
-172.3932461575917
 20
589.742327935282
 30
0.0
 10
-172.7012380070083
 20
589.6810095833214
 30
0.0
 10
-172.8538821144794
 20
589.6345858377347
 30
0.0
 10
-173.1429664036664
 20
589.5146349675804
 30
0.0
 10
-173.2807709418504
 20
589.4410303232969
 30
0.0
 10
-173.5423896174894
 20
589.2662999572012
 30
0.0
 10
-173.665135924172
 20
589.1654493282998
 30
0.0
 10
-173.9964603011197
 20
588.834164048316
 30
0.0
 10
-174.1754714251479
 20
588.5664838869321
 30
0.0
 10
-174.3550865245288
 20
588.1338098608766
 30
0.0
 10
-174.4013308733965
 20
587.9822917740256
 30
0.0
 10
-174.4630841794077
 20
587.6728660166394
 30
0.0
 10
-174.4786212452491
 20
587.5162436869457
 30
0.0
 10
-174.4786212452491
 20
587.3578644957569
 30
0.0
  0
LINE
  5
489
330
1F
100
AcDbEntity
  8
0
  6
Continuous
 62
     7
370
    25
100
AcDbLine
 10
-172.0786212452
 20
589.7578644958
 30
0.0
 11
-172.0786212452
 21
588.3578644958
 31
0.0
  0
SPLINE
  5
48A
330
1F
100
AcDbEntity
  8
0
  6
Continuous
 62
     7
370
    25
100
AcDbSpline
210
0.0
220
0.0
230
1.0
 70
     8
 71
     3
 72
     9
 73
     5
 74
     0
 42
0.000000001
 43
0.00000001
 40
0.0
 40
0.0
 40
0.0
 40
0.0
 40
0.7584558214376309
 40
1.0
 40
1.0
 40
1.0
 40
1.0
 10
-172.0786212452492
 20
588.3578644957568
 30
0.0
 10
-172.2303290231855
 20
588.3468099599233
 30
0.0
 10
-172.4303509277557
 20
588.3322349042365
 30
0.0
 10
-172.5809050191471
 20
588.2091385206369
 30
0.0
 10
-172.6172704834814
 20
588.1794053057762
 30
0.0
  0
SPLINE
  5
48B
330
1F
100
AcDbEntity
  8
0
  6
Continuous
 62
     7
370
    25
100
AcDbSpline
210
0.0
220
0.0
230
1.0
 70
     8
 71
     3
 72
    20
 73
    16
 74
     0
 42
0.000000001
 43
0.00000001
 40
0.0
 40
0.0
 40
0.0
 40
0.0
 40
0.1250000000000107
 40
0.1250000000000107
 40
0.2500000000000214
 40
0.2500000000000214
 40
0.3750000000000321
 40
0.3750000000000321
 40
0.5000000000000429
 40
0.5000000000000429
 40
0.7500000000000346
 40
0.7500000000000346
 40
0.8750000000000173
 40
0.8750000000000173
 40
1.0
 40
1.0
 40
1.0
 40
1.0
 10
-174.4786212452491
 20
-3.842135504243005
 30
0.0
 10
-174.4786212452492
 20
-4.000514691893775
 30
0.0
 10
-174.4630846847743
 20
-4.156760416585525
 30
0.0
 10
-174.4017663328137
 20
-4.46475226600207
 30
0.0
 10
-174.3553425872269
 20
-4.617396373473137
 30
0.0
 10
-174.2353917170728
 20
-4.90648066266025
 30
0.0
 10
-174.1617870727894
 20
-5.044285200844212
 30
0.0
 10
-173.9870567066937
 20
-5.305903876483164
 30
0.0
 10
-173.8862060777922
 20
-5.428650183165851
 30
0.0
 10
-173.5549207978083
 20
-5.759974560113679
 30
0.0
 10
-173.2872406364244
 20
-5.938985684141807
 30
0.0
 10
-172.854566610369
 20
-6.118600783522609
 30
0.0
 10
-172.7030485235179
 20
-6.16484513239024
 30
0.0
 10
-172.3936227661317
 20
-6.226598438401454
 30
0.0
 10
-172.2370004364379
 20
-6.242135504243073
 30
0.0
 10
-172.0786212452492
 20
-6.242135504243073
 30
0.0
  0
SPLINE
  5
48C
330
1F
100
AcDbEntity
  8
0
  6
Continuous
 62
     7
370
    25
100
AcDbSpline
210
0.0
220
0.0
230
1.0
 70
     8
 71
     3
 72
     9
 73
     5
 74
     0
 42
0.000000001
 43
0.00000001
 40
0.0
 40
0.0
 40
0.0
 40
0.0
 40
0.425869494152625
 40
1.0
 40
1.0
 40
1.0
 40
1.0
 10
-172.6350126722585
 20
-4.65205694156573
 30
0.0
 10
-172.5646084956536
 20
-4.701978566410303
 30
0.0
 10
-172.399289829791
 20
-4.81920139060893
 30
0.0
 10
-172.1955782675345
 20
-4.833770775770352
 30
0.0
 10
-172.0786212452492
 20
-4.842135504243061
 30
0.0
  0
LINE
  5
48D
330
1F
100
AcDbEntity
  8
0
  6
Continuous
 62
     7
370
    25
100
AcDbLine
 10
-172.0786212452
 20
-6.2421355042
 30
0.0
 11
-172.0786212452
 21
-4.8421355042
 31
0.0
  0
LINE
  5
48E
330
1F
100
AcDbEntity
  8
0
  6
Continuous
 62
     7
370
    25
100
AcDbLine
 10
-162.4786212452
 20
589.7578644958
 30
0.0
 11
-162.4786212452
 21
588.3578644958
 31
0.0
  0
LINE
  5
48F
330
1F
100
AcDbEntity
  8
0
  6
Continuous
 62
     7
370
    25
100
AcDbLine
 10
-172.0786212452
 20
589.7578644958
 30
0.0
 11
-162.4786212452
 21
589.7578644958
 31
0.0
  0
LINE
  5
490
330
1F
100
AcDbEntity
  8
0
  6
Continuous
 62
     7
370
    25
100
AcDbLine
 10
-172.0786212452
 20
588.3578644958
 30
0.0
 11
-162.4786212452
 21
588.3578644958
 31
0.0
  0
LINE
  5
491
330
1F
100
AcDbEntity
  8
0
  6
Continuous
 62
     7
370
    25
100
AcDbLine
 10
-172.0786212452
 20
-4.8421355042
 30
0.0
 11
-162.4786212452
 21
-4.8421355042
 31
0.0
  0
LINE
  5
492
330
1F
100
AcDbEntity
  8
0
  6
Continuous
 62
     7
370
    25
100
AcDbLine
 10
-172.0786212452
 20
-6.2421355042
 30
0.0
 11
-162.4786212452
 21
-6.2421355042
 31
0.0
  0
LINE
  5
493
330
1F
100
AcDbEntity
  8
0
  6
Continuous
 62
     7
370
    25
100
AcDbLine
 10
-162.4786212452
 20
-6.2421355042
 30
0.0
 11
-162.4786212452
 21
-4.8421355042
 31
0.0
  0
ARC
  5
494
330
1F
100
AcDbEntity
  8
0
  6
Continuous
 62
     7
370
    25
100
AcDbCircle
 10
-138.3786212452
 20
621.2578644958
 30
0.0
 40
3.0
100
AcDbArc
 50
0.0
 51
90.0
  0
LINE
  5
495
330
1F
100
AcDbEntity
  8
0
  6
Continuous
 62
     7
370
    25
100
AcDbLine
 10
-135.3786212452
 20
587.0578644958
 30
0.0
 11
-135.3786212452
 21
621.2578644958
 31
0.0
  0
LINE
  5
496
330
1F
100
AcDbEntity
  8
0
  6
Continuous
 62
     7
370
    25
100
AcDbLine
 10
-154.3786212452
 20
604.2578644958
 30
0.0
 11
-154.3786212452
 21
587.0578644958
 31
0.0
  0
LINE
  5
497
330
1F
100
AcDbEntity
  8
0
  6
Continuous
 62
     7
370
    25
100
AcDbLine
 10
-158.3786212452
 20
604.2578644958
 30
0.0
 11
-154.3786212452
 21
604.2578644958
 31
0.0
  0
LINE
  5
498
330
1F
100
AcDbEntity
  8
0
  6
Continuous
 62
     7
370
    25
100
AcDbLine
 10
-158.3786212452
 20
621.2578644958
 30
0.0
 11
-158.3786212452
 21
604.2578644958
 31
0.0
  0
ARC
  5
499
330
1F
100
AcDbEntity
  8
0
  6
Continuous
 62
     7
370
    25
100
AcDbCircle
 10
-155.3786212452
 20
621.2578644958
 30
0.0
 40
3.0
100
AcDbArc
 50
90.0
 51
180.0
  0
LINE
  5
49A
330
1F
100
AcDbEntity
  8
0
  6
Continuous
 62
     7
370
    25
100
AcDbLine
 10
-138.3786212452
 20
624.2578644958
 30
0.0
 11
-155.3786212452
 21
624.2578644958
 31
0.0
  0
CIRCLE
  5
49B
330
1F
100
AcDbEntity
  8
0
  6
Continuous
 62
     7
370
    25
100
AcDbCircle
 10
-143.8786212452
 20
617.7578644958
 30
0.0
 40
3.249999999999886
  0
CIRCLE
  5
49C
330
1F
100
AcDbEntity
  8
0
  6
Continuous
 62
     7
370
    25
100
AcDbCircle
 10
-143.8786212452
 20
592.7578644958
 30
0.0
 40
3.249999999999773
  0
LINE
  5
49D
330
1F
100
AcDbEntity
  8
0
  6
Continuous
 62
     7
370
    25
100
AcDbLine
 10
-154.3786212452
 20
585.2578644958
 30
0.0
 11
-154.3786212452
 21
587.0578644958
 31
0.0
  0
LINE
  5
49E
330
1F
100
AcDbEntity
  8
0
  6
Continuous
 62
     7
370
    25
100
AcDbLine
 10
-135.3786212452
 20
587.0578644958
 30
0.0
 11
-135.3786212452
 21
585.2578644958
 31
0.0
  0
LINE
  5
49F
330
1F
100
AcDbEntity
  8
0
  6
Continuous
 62
     7
370
    25
100
AcDbLine
 10
-135.3786212452
 20
585.2578644958
 30
0.0
 11
-154.3786212452
 21
585.2578644958
 31
0.0
  0
LINE
  5
4A0
330
1F
100
AcDbEntity
  8
0
  6
Continuous
 62
     7
370
    25
100
AcDbLine
 10
-155.5786212452
 20
587.0578644958
 30
0.0
 11
-155.5786212452
 21
597.2578644958
 31
0.0
  0
LINE
  5
4A1
330
1F
100
AcDbEntity
  8
0
  6
Continuous
 62
     7
370
    25
100
AcDbLine
 10
-156.3786212452
 20
597.2578644958
 30
0.0
 11
-155.5786212452
 21
597.2578644958
 31
0.0
  0
ARC
  5
4A2
330
1F
100
AcDbEntity
  8
0
  6
Continuous
 62
     7
370
    25
100
AcDbCircle
 10
-154.5786212452
 20
587.0578644958
 30
0.0
 40
1.000000000000028
100
AcDbArc
 50
180.0
 51
270.0
  0
ARC
  5
4A3
330
1F
100
AcDbEntity
  8
0
  6
Continuous
 62
     7
370
    25
100
AcDbCircle
 10
-154.5786212452
 20
587.0578644958
 30
0.0
 40
1.800000000000068
100
AcDbArc
 50
180.0
 51
270.0
  0
LINE
  5
4A4
330
1F
100
AcDbEntity
  8
0
  6
Continuous
 62
     7
370
    25
100
AcDbLine
 10
-154.5786212452
 20
586.0578644958
 30
0.0
 11
-154.3786212452
 21
586.0578644958
 31
0.0
  0
LINE
  5
4A5
330
1F
100
AcDbEntity
  8
0
  6
Continuous
 62
     7
370
    25
100
AcDbLine
 10
-154.5786212452
 20
585.2578644958
 30
0.0
 11
-154.3786212452
 21
585.2578644958
 31
0.0
  0
LINE
  5
4A6
330
1F
100
AcDbEntity
  8
0
  6
Continuous
 62
     7
370
    25
100
AcDbLine
 10
-135.3786212452
 20
586.0578644958
 30
0.0
 11
-114.3786212452
 21
586.0578644958
 31
0.0
  0
LINE
  5
4A7
330
1F
100
AcDbEntity
  8
0
  6
Continuous
 62
     7
370
    25
100
AcDbLine
 10
-135.3786212452
 20
585.2578644958
 30
0.0
 11
-114.3786212452
 21
585.2578644958
 31
0.0
  0
LINE
  5
4A8
330
1F
100
AcDbEntity
  8
0
  6
Continuous
 62
     7
370
    25
100
AcDbLine
 10
-111.3786212452
 20
586.0578644958
 30
0.0
 11
-111.3786212452
 21
585.2578644958
 31
0.0
  0
LINE
  5
4A9
330
1F
100
AcDbEntity
  8
0
  6
Continuous
 62
     7
370
    25
100
AcDbLine
 10
-114.3786212452
 20
586.0578644958
 30
0.0
 11
-111.3786212452
 21
586.0578644958
 31
0.0
  0
LINE
  5
4AA
330
1F
100
AcDbEntity
  8
0
  6
Continuous
 62
     7
370
    25
100
AcDbLine
 10
-111.3786212452
 20
585.2578644958
 30
0.0
 11
-114.3786212452
 21
585.2578644958
 31
0.0
  0
ARC
  5
4AB
330
1F
100
AcDbEntity
  8
0
  6
Continuous
 62
     7
370
    25
100
AcDbCircle
 10
-130.0165704377
 20
587.0578644958
 30
0.0
 40
1.0
100
AcDbArc
 50
270.0
 51
300.0
  0
LINE
  5
4AC
330
1F
100
AcDbEntity
  8
0
  6
Continuous
 62
     7
370
    25
100
AcDbLine
 10
-122.4916993071
 20
589.3238898995
 30
0.0
 11
-128.1486212452
 21
586.0578644958
 31
0.0
  0
LINE
  5
4AD
330
1F
100
AcDbEntity
  8
0
  6
Continuous
 62
     7
370
    25
100
AcDbLine
 10
-122.8916993071
 20
590.0167102226
 30
0.0
 11
-129.5165704377
 21
586.191839092
 31
0.0
  0
LINE
  5
4AE
330
1F
100
AcDbEntity
  8
0
  6
Continuous
 62
     7
370
    25
100
AcDbLine
 10
-112.4740078535
 20
590.2578644958
 30
0.0
 11
-112.4740078535
 21
589.4578644958
 31
0.0
  0
LINE
  5
4AF
330
1F
100
AcDbEntity
  8
0
  6
Continuous
 62
     7
370
    25
100
AcDbLine
 10
-112.4740078535
 20
589.4578644958
 30
0.0
 11
-115.4740078535
 21
589.4578644958
 31
0.0
  0
LINE
  5
4B0
330
1F
100
AcDbEntity
  8
0
  6
Continuous
 62
     7
370
    25
100
AcDbLine
 10
-115.4740078535
 20
590.2578644958
 30
0.0
 11
-112.4740078535
 21
590.2578644958
 31
0.0
  0
LINE
  5
4B1
330
1F
100
AcDbEntity
  8
0
  6
Continuous
 62
     7
370
    25
100
AcDbLine
 10
-121.9916993071
 20
590.2578644958
 30
0.0
 11
-115.4740078535
 21
590.2578644958
 31
0.0
  0
LINE
  5
4B2
330
1F
100
AcDbEntity
  8
0
  6
Continuous
 62
     7
370
    25
100
AcDbLine
 10
-121.9916993071
 20
589.4578644958
 30
0.0
 11
-115.4740078535
 21
589.4578644958
 31
0.0
  0
ARC
  5
4B3
330
1F
100
AcDbEntity
  8
0
  6
Continuous
 62
     7
370
    25
100
AcDbCircle
 10
-121.9916993071
 20
588.4578644958
 30
0.0
 40
0.9999999999999694
100
AcDbArc
 50
90.0
 51
120.0
  0
ARC
  5
4B4
330
1F
100
AcDbEntity
  8
0
  6
Continuous
 62
     7
370
    25
100
AcDbCircle
 10
-121.9916993071
 20
588.4578644958
 30
0.0
 40
1.799999999999955
100
AcDbArc
 50
90.0
 51
120.0
  0
CIRCLE
  5
4B5
330
1F
100
AcDbEntity
  8
0
  6
Continuous
 62
     7
370
    25
100
AcDbCircle
 10
-143.8786212452
 20
41.7578644958
 30
0.0
 40
2.458750000016629
  0
CIRCLE
  5
4B6
330
1F
100
AcDbEntity
  8
0
  6
Continuous
 62
     7
370
    25
100
AcDbCircle
 10
-143.8786212452
 20
41.7578644958
 30
0.0
 40
3.000000000000006
  0
CIRCLE
  5
4B7
330
1F
100
AcDbEntity
  8
0
  6
Continuous
 62
     7
370
    25
100
AcDbCircle
 10
-143.8786212453
 20
592.7578644958
 30
0.0
 40
2.45875000001657
  0
CIRCLE
  5
4B8
330
1F
100
AcDbEntity
  8
0
  6
Continuous
 62
     7
370
    25
100
AcDbCircle
 10
-143.8786212453
 20
592.7578644958
 30
0.0
 40
3.000000000000003
  0
SPLINE
  5
4B9
330
1F
100
AcDbEntity
  8
0
  6
Continuous
 62
     7
370
    25
100
AcDbSpline
210
0.0
220
0.0
230
1.0
 70
     8
 71
     3
 72
    12
 73
     8
 74
     0
 42
0.000000001
 43
0.00000001
 40
0.0
 40
0.0
 40
0.0
 40
0.0
 40
0.5
 40
0.5
 40
0.75
 40
0.75
 40
1.0
 40
1.0
 40
1.0
 40
1.0
 10
-154.9639412598642
 20
591.3170351738866
 30
0.0
 10
-155.1544355492877
 20
590.9007340902319
 30
0.0
 10
-155.2761099623501
 20
590.4781955622435
 30
0.0
 10
-155.2767661528813
 20
589.8279054227827
 30
0.0
 10
-155.2469321510869
 20
589.6113632048683
 30
0.0
 10
-155.1380022809793
 20
589.185995199628
 30
0.0
 10
-155.0593070939165
 20
588.9758432206427
 30
0.0
 10
-154.9639412598637
 20
588.7674332983299
 30
0.0
  0
LINE
  5
4BA
330
1F
100
AcDbEntity
  8
0
  6
Continuous
 62
     7
370
    25
100
AcDbLine
 10
-154.9639412599
 20
588.7674332983
 30
0.0
 11
-155.0618162971
 21
589.0103380486
 31
0.0
  0
SPLINE
  5
4BB
330
1F
100
AcDbEntity
  8
0
  6
Continuous
 62
     7
370
    25
100
AcDbSpline
210
0.0
220
0.0
230
1.0
 70
     8
 71
     3
 72
    12
 73
     8
 74
     0
 42
0.000000001
 43
0.00000001
 40
0.0
 40
0.0
 40
0.0
 40
0.0
 40
0.4999999999999811
 40
0.4999999999999811
 40
0.7499999999999906
 40
0.7499999999999906
 40
1.0
 40
1.0
 40
1.0
 40
1.0
 10
-154.9639412598642
 20
596.7482956931838
 30
0.0
 10
-155.1544355492877
 20
596.5130359007406
 30
0.0
 10
-155.2761099623501
 20
596.2742512078902
 30
0.0
 10
-155.2767661528813
 20
595.9067596753332
 30
0.0
 10
-155.2469321510869
 20
595.784387480684
 30
0.0
 10
-155.1380022809793
 20
595.5440037955243
 30
0.0
 10
-155.0593070939165
 20
595.4252428484627
 30
0.0
 10
-154.9639412598637
 20
595.3074663713131
 30
0.0
  0
SPLINE
  5
4BC
330
1F
100
AcDbEntity
  8
0
  6
Continuous
 62
     7
370
    25
100
AcDbSpline
210
0.0
220
0.0
230
1.0
 70
     8
 71
     3
 72
    14
 73
    10
 74
     0
 42
0.000000001
 43
0.00000001
 40
0.0
 40
0.0
 40
0.0
 40
0.0
 40
0.25
 40
0.25
 40
0.5
 40
0.5
 40
0.75
 40
0.75
 40
1.0
 40
1.0
 40
1.0
 40
1.0
 10
-154.9639412598632
 20
595.3074663713132
 30
0.0
 10
-155.0588158691738
 20
594.9829601420247
 30
0.0
 10
-155.1384207940496
 20
594.6505009196302
 30
0.0
 10
-155.2472574089438
 20
593.983931004722
 30
0.0
 10
-155.2765810146343
 20
593.6488547474468
 30
0.0
 10
-155.2765162328887
 20
592.9745112772191
 30
0.0
 10
-155.2463600395623
 20
592.6327318565403
 30
0.0
 10
-155.1367748381966
 20
591.9663179369355
 30
0.0
 10
-155.0582318643945
 20
591.6395438909828
 30
0.0
 10
-154.9639412598632
 20
591.3170351738863
 30
0.0
  0
LINE
  5
4BD
330
1F
100
AcDbEntity
  8
0
  6
Continuous
 62
     7
370
    25
100
AcDbLine
 10
-155.4786212452
 20
589.6078644958
 30
0.0
 11
-155.4786212452
 21
595.9078644958
 31
0.0
  0
LINE
  5
4BE
330
1F
100
AcDbEntity
  8
0
  6
Continuous
 62
     7
370
    25
100
AcDbLine
 10
-154.3786212452
 20
591.3170351739
 30
0.0
 11
-154.9639412599
 21
591.3170351739
 31
0.0
  0
LINE
  5
4BF
330
1F
100
AcDbEntity
  8
0
  6
Continuous
 62
     7
370
    25
100
AcDbLine
 10
-154.3786212452
 20
595.3074663713
 30
0.0
 11
-154.9639412599
 21
595.3074663713
 31
0.0
  0
LINE
  5
4C0
330
1F
100
AcDbEntity
  8
0
  6
Continuous
 62
     7
370
    25
100
AcDbLine
 10
-154.3786212452
 20
588.7674332983
 30
0.0
 11
-154.9639412599
 21
588.7674332983
 31
0.0
  0
LINE
  5
4C1
330
1F
100
AcDbEntity
  8
0
  6
Continuous
 62
     7
370
    25
100
AcDbLine
 10
-154.3786212452
 20
596.7482956932
 30
0.0
 11
-154.9639412599
 21
596.7482956932
 31
0.0
  0
LINE
  5
4C2
330
1F
100
AcDbEntity
  8
0
  6
Continuous
 62
     7
370
    25
100
AcDbLine
 10
-158.1786212452
 20
602.7578644958
 30
0.0
 11
-168.0786212452
 21
602.7578644958
 31
0.0
  0
LINE
  5
4C3
330
1F
100
AcDbEntity
  8
0
  6
Continuous
 62
     7
370
    25
100
AcDbLine
 10
-158.1786212452
 20
601.9578644958
 30
0.0
 11
-158.1786212452
 21
602.7578644958
 31
0.0
  0
LINE
  5
4C4
330
1F
100
AcDbEntity
  8
0
  6
Continuous
 62
     7
370
    25
100
AcDbLine
 10
-168.0786212452
 20
601.9578644958
 30
0.0
 11
-158.1786212452
 21
601.9578644958
 31
0.0
  0
LINE
  5
4C5
330
1F
100
AcDbEntity
  8
0
  6
Continuous
 62
     7
370
    25
100
AcDbLine
 10
-168.0786212452
 20
601.9578644958
 30
0.0
 11
-168.0786212452
 21
601.8578644958
 31
0.0
  0
LINE
  5
4C6
330
1F
100
AcDbEntity
  8
0
  6
Continuous
 62
     7
370
    25
100
AcDbLine
 10
-168.0786212452
 20
601.8578644958
 30
0.0
 11
-162.9286212452
 21
601.8578644958
 31
0.0
  0
LINE
  5
4C7
330
1F
100
AcDbEntity
  8
0
  6
Continuous
 62
     7
370
    25
100
AcDbLine
 10
-162.9286212452
 20
601.0578644958
 30
0.0
 11
-162.9286212452
 21
601.8578644958
 31
0.0
  0
LINE
  5
4C8
330
1F
100
AcDbEntity
  8
0
  6
Continuous
 62
     7
370
    25
100
AcDbLine
 10
-168.0786212452
 20
601.0578644958
 30
0.0
 11
-162.9286212452
 21
601.0578644958
 31
0.0
  0
ARC
  5
4C9
330
1F
100
AcDbEntity
  8
0
  6
Continuous
 62
     7
370
    25
100
AcDbCircle
 10
-168.0786212452
 20
601.9078644958
 30
0.0
 40
0.8500000000000227
100
AcDbArc
 50
90.0
 51
270.0
  0
LINE
  5
4CA
330
1F
100
AcDbEntity
  8
0
  6
Continuous
 62
     7
370
    25
100
AcDbLine
 10
-158.1786212452
 20
583.5578644958
 30
0.0
 11
-162.4786212452
 21
583.5578644958
 31
0.0
  0
LINE
  5
4CB
330
1F
100
AcDbEntity
  8
0
  6
Continuous
 62
     7
370
    25
100
AcDbLine
 10
-158.1786212452
 20
582.7578644958
 30
0.0
 11
-158.1786212452
 21
583.5578644958
 31
0.0
  0
LINE
  5
4CC
330
1F
100
AcDbEntity
  8
0
  6
Continuous
 62
     7
370
    25
100
AcDbLine
 10
-158.1786212452
 20
582.7578644958
 30
0.0
 11
-162.4786212452
 21
582.7578644958
 31
0.0
  0
LINE
  5
4CD
330
1F
100
AcDbEntity
  8
0
  6
Continuous
 62
     7
370
    25
100
AcDbLine
 10
-156.3786212452
 20
584.5578644958
 30
0.0
 11
-156.3786212452
 21
600.9578644958
 31
0.0
  0
ARC
  5
4CE
330
1F
100
AcDbEntity
  8
0
  6
Continuous
 62
     7
370
    25
100
AcDbCircle
 10
-158.1786212452
 20
584.5578644958
 30
0.0
 40
1.000000000000114
100
AcDbArc
 50
270.0
 51
0.0
  0
ARC
  5
4CF
330
1F
100
AcDbEntity
  8
0
  6
Continuous
 62
     7
370
    25
100
AcDbCircle
 10
-158.1786212452
 20
600.9578644958
 30
0.0
 40
1.800000000000068
100
AcDbArc
 50
0.0
 51
90.0
  0
ARC
  5
4D0
330
1F
100
AcDbEntity
  8
0
  6
Continuous
 62
     7
370
    25
100
AcDbCircle
 10
-158.1786212452
 20
584.5578644958
 30
0.0
 40
1.800000000000296
100
AcDbArc
 50
270.0
 51
0.0
  0
ARC
  5
4D1
330
1F
100
AcDbEntity
  8
0
  6
Continuous
 62
     7
370
    25
100
AcDbCircle
 10
-158.1786212452
 20
600.9578644958
 30
0.0
 40
1.000000000000114
100
AcDbArc
 50
360.0
 51
90.0
  0
LINE
  5
4D2
330
1F
100
AcDbEntity
  8
0
  6
Continuous
 62
     7
370
    25
100
AcDbLine
 10
-157.1786212452
 20
584.5578644958
 30
0.0
 11
-157.1786212452
 21
600.9578644958
 31
0.0
  0
LINE
  5
4D3
330
1F
100
AcDbEntity
  8
0
  6
Continuous
 62
     7
370
    25
100
AcDbLine
 10
-159.1786212452
 20
596.7578644958
 30
0.0
 11
-159.1786212452
 21
588.7578644958
 31
0.0
  0
LWPOLYLINE
  5
4D4
330
1F
100
AcDbEntity
  8
0
  6
Continuous
 62
     7
370
    25
100
AcDbPolyline
 90
        3
 70
   128
 43
0.0
 10
-160.1846653621
 20
593.4816458964
 10
-160.1890658868
 20
593.4389505695
 10
-160.2052907355
 20
593.2552522407
  0
ARC
  5
4D5
330
1F
100
AcDbEntity
  8
0
  6
Continuous
 62
     7
370
    25
100
AcDbCircle
 10
-159.6808978111
 20
593.5683800782
 30
0.0
 40
0.6107675350079237
100
AcDbArc
 50
210.8424581413
 51
243.3898036633
  0
ARC
  5
4D6
330
1F
100
AcDbEntity
  8
0
  6
Continuous
 62
     7
370
    25
100
AcDbCircle
 10
-150.7979638894
 20
592.4268671269
 30
0.0
 40
9.175815043944985
100
AcDbArc
 50
177.9327321262
 51
179.6562101005
  0
ARC
  5
4D7
330
1F
100
AcDbEntity
  8
0
  6
Continuous
 62
     7
370
    25
100
AcDbCircle
 10
-152.4416413475
 20
592.6637272207
 30
0.0
 40
7.786288415102594
100
AcDbArc
 50
184.3702527064
 51
195.2299003794
  0
ARC
  5
4D8
330
1F
100
AcDbEntity
  8
0
  6
Continuous
 62
     7
370
    25
100
AcDbCircle
 10
-159.7333496802
 20
590.7133633794
 30
0.0
 40
0.2406805056718916
100
AcDbArc
 50
156.7420981704
 51
203.2579018296
  0
ARC
  5
4D9
330
1F
100
AcDbEntity
  8
0
  6
Continuous
 62
     7
370
    25
100
AcDbCircle
 10
-152.4416413475
 20
592.8538025156
 30
0.0
 40
7.786288415101634
100
AcDbArc
 50
184.3702527064
 51
195.2299003794
  0
ARC
  5
4DA
330
1F
100
AcDbEntity
  8
0
  6
Continuous
 62
     7
370
    25
100
AcDbCircle
 10
-159.6808978111
 20
591.9473489133
 30
0.0
 40
0.610767535010046
100
AcDbArc
 50
116.6101963367
 51
149.1575418586
  0
ARC
  5
4DB
330
1F
100
AcDbEntity
  8
0
  6
Continuous
 62
     7
370
    25
100
AcDbCircle
 10
-150.8748356696
 20
593.0858460084
 30
0.0
 40
9.098942710248835
100
AcDbArc
 50
176.2668736478
 51
183.7331263522
  0
ARC
  5
4DC
330
1F
100
AcDbEntity
  8
0
  6
Continuous
 62
     7
370
    25
100
AcDbCircle
 10
-159.6808978111
 20
593.1321996981
 30
0.0
 40
0.6107675350072643
100
AcDbArc
 50
116.6101963366
 51
149.1575418587
  0
ARC
  5
4DD
330
1F
100
AcDbEntity
  8
0
  6
Continuous
 62
     7
370
    25
100
AcDbCircle
 10
-152.4416413475
 20
592.8520017708
 30
0.0
 40
7.786288415106253
100
AcDbArc
 50
164.7700996206
 51
175.6297472936
  0
ARC
  5
4DE
330
1F
100
AcDbEntity
  8
0
  6
Continuous
 62
     7
370
    25
100
AcDbCircle
 10
-159.8213874666
 20
594.8234668726
 30
0.0
 40
0.1522432420594859
100
AcDbArc
 50
150.9451665855
 51
179.1449116537
  0
LINE
  5
4DF
330
1F
100
AcDbEntity
  8
0
  6
Continuous
 62
     7
370
    25
100
AcDbLine
 10
-160.2052907355
 20
593.4453275356
 30
0.0
 11
-159.9667350776
 21
593.4453275356
 31
0.0
  0
LINE
  5
4E0
330
1F
100
AcDbEntity
  8
0
  6
Continuous
 62
     7
370
    25
100
AcDbLine
 10
-160.2052907355
 20
592.0704014559
 30
0.0
 11
-160.1884237438
 21
592.0704014559
 31
0.0
  0
LINE
  5
4E1
330
1F
100
AcDbEntity
  8
0
  6
Continuous
 62
     7
370
    25
100
AcDbLine
 10
-160.2052907355
 20
593.2552522407
 30
0.0
 11
-159.9722404191
 21
593.2552522407
 31
0.0
  0
ARC
  5
4E2
330
1F
100
AcDbEntity
  8
0
  6
Continuous
 62
     7
370
    25
100
AcDbCircle
 10
-137.920132356
 20
529.0133376721
 30
0.0
 40
1.942508566655354
100
AcDbArc
 50
268.2745645851
 51
358.1637932023
  0
LINE
  5
4E3
330
1F
100
AcDbEntity
  8
0
  6
Continuous
 62
     7
370
    25
100
AcDbLine
 10
-135.9786212452
 20
528.9510950963
 30
0.0
 11
-135.9786212452
 21
528.2670548096
 31
0.0
  0
ARC
  5
4E4
330
1F
100
AcDbEntity
  8
0
  6
Continuous
 62
     7
370
    25
100
AcDbCircle
 10
-137.920132356
 20
528.3292973855
 30
0.0
 40
1.942508566655356
100
AcDbArc
 50
268.2745645851
 51
358.1637932023
  0
LINE
  5
4E5
330
1F
100
AcDbEntity
  8
0
  6
Continuous
 62
     7
370
    25
100
AcDbLine
 10
-135.9786212452
 20
534.0921713331
 30
0.0
 11
-135.9786212452
 21
528.9510950963
 31
0.0
  0
LINE
  5
4E6
330
1F
100
AcDbEntity
  8
0
  6
Continuous
 62
     7
370
    25
100
AcDbLine
 10
-137.9786212452
 20
527.0717098547
 30
0.0
 11
-149.9786212452
 21
527.0717098547
 31
0.0
  0
ARC
  5
4E7
330
1F
100
AcDbEntity
  8
0
  6
Continuous
 62
     7
370
    25
100
AcDbCircle
 10
-150.0371101345
 20
529.0133376721
 30
0.0
 40
1.942508566655328
100
AcDbArc
 50
181.8362067977
 51
271.7254354149
  0
LINE
  5
4E8
330
1F
100
AcDbEntity
  8
0
  6
Continuous
 62
     7
370
    25
100
AcDbLine
 10
-151.9786212452
 20
528.9510950963
 30
0.0
 11
-151.9786212452
 21
534.0921713331
 31
0.0
  0
LINE
  5
4E9
330
1F
100
AcDbEntity
  8
0
  6
Continuous
 62
     7
370
    25
100
AcDbLine
 10
-137.9786212452
 20
526.3876695681
 30
0.0
 11
-149.9786212452
 21
526.3876695681
 31
0.0
  0
LINE
  5
4EA
330
1F
100
AcDbEntity
  8
0
  6
Continuous
 62
     7
370
    25
100
AcDbLine
 10
-151.9786212452
 20
528.2670548096
 30
0.0
 11
-151.9786212452
 21
528.9510950963
 31
0.0
  0
ARC
  5
4EB
330
1F
100
AcDbEntity
  8
0
  6
Continuous
 62
     7
370
    25
100
AcDbCircle
 10
-150.0371101345
 20
528.3292973855
 30
0.0
 40
1.942508566655576
100
AcDbArc
 50
181.8362067977
 51
271.7254354149
  0
LINE
  5
4EC
330
1F
100
AcDbEntity
  8
0
  6
Continuous
 62
     7
370
    25
100
AcDbLine
 10
-151.9786212452
 20
534.4341914765
 30
0.0
 11
-151.9786212452
 21
534.0921713331
 31
0.0
  0
LINE
  5
4ED
330
1F
100
AcDbEntity
  8
0
  6
Continuous
 62
     7
370
    25
100
AcDbLine
 10
-135.9786212452
 20
534.0921713331
 30
0.0
 11
-135.9786212452
 21
534.4341914765
 31
0.0
  0
LINE
  5
4EE
330
1F
100
AcDbEntity
  8
0
  6
Continuous
 62
     7
370
    25
100
AcDbLine
 10
-162.4786212452
 20
534.2578644958
 30
0.0
 11
-151.9786212452
 21
534.2578644958
 31
0.0
  0
ARC
  5
4EF
330
1F
100
AcDbEntity
  8
0
  6
Continuous
 62
     7
370
    25
100
AcDbCircle
 10
-137.9786212452
 20
547.2578644958
 30
0.0
 40
2.0
100
AcDbArc
 50
0.0
 51
90.0
  0
LINE
  5
4F0
330
1F
100
AcDbEntity
  8
0
  6
Continuous
 62
     7
370
    25
100
AcDbLine
 10
-135.9786212452
 20
534.4341914765
 30
0.0
 11
-135.9786212452
 21
547.2578644958
 31
0.0
  0
CIRCLE
  5
4F1
330
1F
100
AcDbEntity
  8
0
  6
Continuous
 62
     7
370
    25
100
AcDbCircle
 10
-143.8786212452
 20
541.7578644958
 30
0.0
 40
3.500000000000028
  0
LINE
  5
4F2
330
1F
100
AcDbEntity
  8
0
  6
Continuous
 62
     7
370
    25
100
AcDbLine
 10
-137.9786212452
 20
549.2578644958
 30
0.0
 11
-162.4786212452
 21
549.2578644958
 31
0.0
  0
LINE
  5
4F3
330
1F
100
AcDbEntity
  8
0
  6
Continuous
 62
     7
370
    25
100
AcDbLine
 10
-135.9786212452
 20
284.0921713331
 30
0.0
 11
-135.9786212452
 21
278.9510950963
 31
0.0
  0
ARC
  5
4F4
330
1F
100
AcDbEntity
  8
0
  6
Continuous
 62
     7
370
    25
100
AcDbCircle
 10
-137.920132356
 20
279.0133376721
 30
0.0
 40
1.9425085666553
100
AcDbArc
 50
268.2745645851
 51
358.1637932023
  0
LINE
  5
4F5
330
1F
100
AcDbEntity
  8
0
  6
Continuous
 62
     7
370
    25
100
AcDbLine
 10
-137.9786212452
 20
277.0717098547
 30
0.0
 11
-149.9786212452
 21
277.0717098547
 31
0.0
  0
ARC
  5
4F6
330
1F
100
AcDbEntity
  8
0
  6
Continuous
 62
     7
370
    25
100
AcDbCircle
 10
-150.0371101345
 20
279.0133376721
 30
0.0
 40
1.942508566655271
100
AcDbArc
 50
181.8362067977
 51
271.7254354149
  0
LINE
  5
4F7
330
1F
100
AcDbEntity
  8
0
  6
Continuous
 62
     7
370
    25
100
AcDbLine
 10
-151.9786212452
 20
278.9510950963
 30
0.0
 11
-151.9786212452
 21
284.0921713331
 31
0.0
  0
LINE
  5
4F8
330
1F
100
AcDbEntity
  8
0
  6
Continuous
 62
     7
370
    25
100
AcDbLine
 10
-137.9786212452
 20
276.3876695681
 30
0.0
 11
-149.9786212452
 21
276.3876695681
 31
0.0
  0
LINE
  5
4F9
330
1F
100
AcDbEntity
  8
0
  6
Continuous
 62
     7
370
    25
100
AcDbLine
 10
-135.9786212452
 20
278.9510950963
 30
0.0
 11
-135.9786212452
 21
278.2670548096
 31
0.0
  0
ARC
  5
4FA
330
1F
100
AcDbEntity
  8
0
  6
Continuous
 62
     7
370
    25
100
AcDbCircle
 10
-137.920132356
 20
278.3292973855
 30
0.0
 40
1.942508566655355
100
AcDbArc
 50
268.2745645851
 51
358.1637932023
  0
LINE
  5
4FB
330
1F
100
AcDbEntity
  8
0
  6
Continuous
 62
     7
370
    25
100
AcDbLine
 10
-151.9786212452
 20
278.2670548096
 30
0.0
 11
-151.9786212452
 21
278.9510950963
 31
0.0
  0
ARC
  5
4FC
330
1F
100
AcDbEntity
  8
0
  6
Continuous
 62
     7
370
    25
100
AcDbCircle
 10
-150.0371101345
 20
278.3292973855
 30
0.0
 40
1.942508566655354
100
AcDbArc
 50
181.8362067977
 51
271.7254354149
  0
LINE
  5
4FD
330
1F
100
AcDbEntity
  8
0
  6
Continuous
 62
     7
370
    25
100
AcDbLine
 10
-135.9786212452
 20
284.0921713331
 30
0.0
 11
-135.9786212452
 21
284.4341914765
 31
0.0
  0
LINE
  5
4FE
330
1F
100
AcDbEntity
  8
0
  6
Continuous
 62
     7
370
    25
100
AcDbLine
 10
-151.9786212452
 20
284.4341914765
 30
0.0
 11
-151.9786212452
 21
284.0921713331
 31
0.0
  0
LINE
  5
4FF
330
1F
100
AcDbEntity
  8
0
  6
Continuous
 62
     7
370
    25
100
AcDbLine
 10
-162.4786212452
 20
284.2578644958
 30
0.0
 11
-151.9786212452
 21
284.2578644958
 31
0.0
  0
CIRCLE
  5
500
330
1F
100
AcDbEntity
  8
0
  6
Continuous
 62
     7
370
    25
100
AcDbCircle
 10
-143.8786212452
 20
291.7578644958
 30
0.0
 40
3.500000000000028
  0
ARC
  5
501
330
1F
100
AcDbEntity
  8
0
  6
Continuous
 62
     7
370
    25
100
AcDbCircle
 10
-137.9786212452
 20
297.2578644958
 30
0.0
 40
2.0
100
AcDbArc
 50
0.0
 51
90.0
  0
LINE
  5
502
330
1F
100
AcDbEntity
  8
0
  6
Continuous
 62
     7
370
    25
100
AcDbLine
 10
-137.9786212452
 20
299.2578644958
 30
0.0
 11
-162.4786212452
 21
299.2578644958
 31
0.0
  0
LINE
  5
503
330
1F
100
AcDbEntity
  8
0
  6
Continuous
 62
     7
370
    25
100
AcDbLine
 10
-135.9786212452
 20
284.4341914765
 30
0.0
 11
-135.9786212452
 21
297.2578644958
 31
0.0
  0
LINE
  5
504
330
1F
100
AcDbEntity
  8
0
  6
Continuous
 62
     7
370
    25
100
AcDbLine
 10
-135.9786212452
 20
55.2486741819
 30
0.0
 11
-135.9786212452
 21
54.5646338952
 31
0.0
  0
ARC
  5
505
330
1F
100
AcDbEntity
  8
0
  6
Continuous
 62
     7
370
    25
100
AcDbCircle
 10
-137.920132356
 20
54.5023913194
 30
0.0
 40
1.94250856665523
100
AcDbArc
 50
1.8362067977
 51
91.7254354149
  0
ARC
  5
506
330
1F
100
AcDbEntity
  8
0
  6
Continuous
 62
     7
370
    25
100
AcDbCircle
 10
-137.920132356
 20
55.186431606
 30
0.0
 40
1.942508566655389
100
AcDbArc
 50
1.8362067977
 51
91.7254354149
  0
LINE
  5
507
330
1F
100
AcDbEntity
  8
0
  6
Continuous
 62
     7
370
    25
100
AcDbLine
 10
-135.9786212452
 20
54.5646338952
 30
0.0
 11
-135.9786212452
 21
49.4235576584
 31
0.0
  0
LINE
  5
508
330
1F
100
AcDbEntity
  8
0
  6
Continuous
 62
     7
370
    25
100
AcDbLine
 10
-151.9786212452
 20
49.4235576584
 30
0.0
 11
-151.9786212452
 21
54.5646338952
 31
0.0
  0
ARC
  5
509
330
1F
100
AcDbEntity
  8
0
  6
Continuous
 62
     7
370
    25
100
AcDbCircle
 10
-150.0371101345
 20
54.5023913194
 30
0.0
 40
1.9425085666553
100
AcDbArc
 50
88.2745645851
 51
178.1637932023
  0
LINE
  5
50A
330
1F
100
AcDbEntity
  8
0
  6
Continuous
 62
     7
370
    25
100
AcDbLine
 10
-149.9786212452
 20
56.4440191368
 30
0.0
 11
-137.9786212452
 21
56.4440191368
 31
0.0
  0
LINE
  5
50B
330
1F
100
AcDbEntity
  8
0
  6
Continuous
 62
     7
370
    25
100
AcDbLine
 10
-149.9786212452
 20
57.1280594235
 30
0.0
 11
-137.9786212452
 21
57.1280594235
 31
0.0
  0
LINE
  5
50C
330
1F
100
AcDbEntity
  8
0
  6
Continuous
 62
     7
370
    25
100
AcDbLine
 10
-151.9786212452
 20
54.5646338952
 30
0.0
 11
-151.9786212452
 21
55.2486741819
 31
0.0
  0
ARC
  5
50D
330
1F
100
AcDbEntity
  8
0
  6
Continuous
 62
     7
370
    25
100
AcDbCircle
 10
-150.0371101345
 20
55.186431606
 30
0.0
 40
1.942508566655332
100
AcDbArc
 50
88.2745645851
 51
178.1637932023
  0
LINE
  5
50E
330
1F
100
AcDbEntity
  8
0
  6
Continuous
 62
     7
370
    25
100
AcDbLine
 10
-151.9786212452
 20
49.4235576584
 30
0.0
 11
-151.9786212452
 21
49.081537515
 31
0.0
  0
LINE
  5
50F
330
1F
100
AcDbEntity
  8
0
  6
Continuous
 62
     7
370
    25
100
AcDbLine
 10
-135.9786212452
 20
49.081537515
 30
0.0
 11
-135.9786212452
 21
49.4235576584
 31
0.0
  0
LINE
  5
510
330
1F
100
AcDbEntity
  8
0
  6
Continuous
 62
     7
370
    25
100
AcDbLine
 10
-151.9786212452
 20
49.2578644958
 30
0.0
 11
-162.4786212452
 21
49.2578644958
 31
0.0
  0
LINE
  5
511
330
1F
100
AcDbEntity
  8
0
  6
Continuous
 62
     7
370
    25
100
AcDbLine
 10
-162.4786212452
 20
34.2578644958
 30
0.0
 11
-137.9786212452
 21
34.2578644958
 31
0.0
  0
CIRCLE
  5
512
330
1F
100
AcDbEntity
  8
0
  6
Continuous
 62
     7
370
    25
100
AcDbCircle
 10
-143.8786212452
 20
41.7578644958
 30
0.0
 40
3.500000000000028
  0
ARC
  5
513
330
1F
100
AcDbEntity
  8
0
  6
Continuous
 62
     7
370
    25
100
AcDbCircle
 10
-137.9786212452
 20
36.2578644958
 30
0.0
 40
2.0
100
AcDbArc
 50
270.0
 51
0.0
  0
LINE
  5
514
330
1F
100
AcDbEntity
  8
0
  6
Continuous
 62
     7
370
    25
100
AcDbLine
 10
-135.9786212452
 20
36.2578644958
 30
0.0
 11
-135.9786212452
 21
49.081537515
 31
0.0
  0
CIRCLE
  5
515
330
1F
100
AcDbEntity
  8
0
  6
Continuous
 62
     7
370
    25
100
AcDbCircle
 10
-143.8786212452
 20
541.7578644958
 30
0.0
 40
2.458750000016708
  0
CIRCLE
  5
516
330
1F
100
AcDbEntity
  8
0
  6
Continuous
 62
     7
370
    25
100
AcDbCircle
 10
-143.8786212452
 20
541.7578644958
 30
0.0
 40
2.999999999999938
  0
ENDSEC
  0
SECTION
  2
OBJECTS
  0
DICTIONARY
  5
C
330
0
100
AcDbDictionary
281
     1
  3
ACAD_GROUP
350
D
  3
ACAD_LAYOUT
350
1A
  3
ACAD_MLINESTYLE
350
17
  3
ACAD_PLOTSETTINGS
350
19
  3
ACAD_PLOTSTYLENAME
350
E
  3
ACAD_SCALELIST
350
47
  0
DICTIONARY
  5
D
102
{ACAD_REACTORS
330
C
102
}
330
C
100
AcDbDictionary
281
     1
  0
DICTIONARY
  5
1A
102
{ACAD_REACTORS
330
C
102
}
330
C
100
AcDbDictionary
281
     1
  3
Layout1
350
1E
  3
Layout2
350
26
  3
Model
350
22
  0
DICTIONARY
  5
17
102
{ACAD_REACTORS
330
C
102
}
330
C
100
AcDbDictionary
281
     1
  3
Standard
350
18
  0
DICTIONARY
  5
19
102
{ACAD_REACTORS
330
C
102
}
330
C
100
AcDbDictionary
281
     1
  0
ACDBDICTIONARYWDFLT
  5
E
102
{ACAD_REACTORS
330
C
102
}
330
C
100
AcDbDictionary
281
     1
  3
Normal
350
F
100
AcDbDictionaryWithDefault
340
F
  0
DICTIONARY
  5
47
102
{ACAD_REACTORS
330
C
102
}
330
C
100
AcDbDictionary
281
     1
  3
A0
350
48
  3
A1
350
49
  3
A2
350
4A
  3
A3
350
4B
  3
A4
350
4C
  3
A5
350
4D
  3
A6
350
4E
  3
A7
350
4F
  3
A8
350
50
  3
A9
350
51
  3
B0
350
52
  3
B1
350
53
  3
B2
350
54
  3
B3
350
55
  3
B4
350
56
  3
B5
350
57
  3
B6
350
58
  3
B7
350
59
  3
B8
350
5A
  3
B9
350
5B
  3
C0
350
5C
  3
C1
350
5D
  3
C2
350
5E
  3
C3
350
5F
  3
C4
350
60
  3
C5
350
61
  3
C6
350
62
  3
C7
350
63
  3
C8
350
64
  3
C9
350
65
  3
D0
350
66
  3
D1
350
67
  3
D2
350
68
  0
LAYOUT
  5
1E
102
{ACAD_REACTORS
330
1A
102
}
330
1A
100
AcDbPlotSettings
  1

  2
none_device
  4

  6

 40
0.0
 41
0.0
 42
0.0
 43
0.0
 44
0.0
 45
0.0
 46
0.0
 47
0.0
 48
0.0
 49
0.0
140
0.0
141
0.0
142
1.0
143
1.0
 70
   688
 72
     1
 73
     0
 74
     5
  7

 75
    16
147
1.0
148
0.0
149
0.0
100
AcDbLayout
  1
Layout1
 70
     1
 71
     1
 10
0.0
 20
0.0
 11
420.0
 21
297.0
 12
0.0
 22
0.0
 32
0.0
 14
1.0000000000E+20
 24
1.0000000000E+20
 34
1.0000000000E+20
 15
-1.0000000000E+20
 25
-1.0000000000E+20
 35
-1.0000000000E+20
146
0.0
 13
0.0
 23
0.0
 33
0.0
 16
1.0
 26
0.0
 36
0.0
 17
0.0
 27
1.0
 37
0.0
 76
     0
330
1B
  0
LAYOUT
  5
26
102
{ACAD_REACTORS
330
1A
102
}
330
1A
100
AcDbPlotSettings
  1

  2
none_device
  4

  6

 40
0.0
 41
0.0
 42
0.0
 43
0.0
 44
0.0
 45
0.0
 46
0.0
 47
0.0
 48
0.0
 49
0.0
140
0.0
141
0.0
142
1.0
143
1.0
 70
   688
 72
     1
 73
     0
 74
     5
  7

 75
    16
147
1.0
148
0.0
149
0.0
100
AcDbLayout
  1
Layout2
 70
     1
 71
     2
 10
0.0
 20
0.0
 11
0.0
 21
0.0
 12
0.0
 22
0.0
 32
0.0
 14
0.0
 24
0.0
 34
0.0
 15
0.0
 25
0.0
 35
0.0
146
0.0
 13
0.0
 23
0.0
 33
0.0
 16
1.0
 26
0.0
 36
0.0
 17
0.0
 27
1.0
 37
0.0
 76
     0
330
23
  0
LAYOUT
  5
22
102
{ACAD_REACTORS
330
1A
102
}
330
1A
100
AcDbPlotSettings
  1

  2
none_device
  4
Letter_(8.50_x_11.00_Inches)
  6

 40
6.35
 41
6.35
 42
6.35000508
 43
6.35000508
 44
215.9
 45
279.4
 46
0.0
 47
0.0
 48
0.0
 49
0.0
140
0.0
141
0.0
142
1.0
143
1.0
 70
  1712
 72
     1
 73
     0
 74
     0
  7

 75
     0
147
1.0
148
0.0
149
0.0
100
AcDbLayout
  1
Model
 70
     1
 71
     0
 10
0.0
 20
0.0
 11
841.0
 21
594.0
 12
0.0
 22
0.0
 32
0.0
 14
0.0
 24
0.0
 34
0.0
 15
841.0
 25
594.0
 35
0.0
146
0.0
 13
0.0
 23
0.0
 33
0.0
 16
1.0
 26
0.0
 36
0.0
 17
0.0
 27
1.0
 37
0.0
 76
     0
330
1F
331
29
  0
MLINESTYLE
  5
18
102
{ACAD_REACTORS
330
17
102
}
330
17
100
AcDbMlineStyle
  2
Standard
 70
     0
  3

 62
   256
 51
90.0
 52
90.0
 71
     2
 49
0.5
 62
   256
  6
BYLAYER
 49
-0.5
 62
   256
  6
BYLAYER
  0
ACDBPLACEHOLDER
  5
F
102
{ACAD_REACTORS
330
E
102
}
330
E
  0
SCALE
  5
48
102
{ACAD_REACTORS
330
47
102
}
330
47
100
AcDbScale
 70
     0
300
1:1
140
1.0
141
1.0
290
     1
  0
SCALE
  5
49
102
{ACAD_REACTORS
330
47
102
}
330
47
100
AcDbScale
 70
     0
300
1:2
140
1.0
141
2.0
290
     0
  0
SCALE
  5
4A
102
{ACAD_REACTORS
330
47
102
}
330
47
100
AcDbScale
 70
     0
300
1:4
140
1.0
141
4.0
290
     0
  0
SCALE
  5
4B
102
{ACAD_REACTORS
330
47
102
}
330
47
100
AcDbScale
 70
     0
300
1:5
140
1.0
141
5.0
290
     0
  0
SCALE
  5
4C
102
{ACAD_REACTORS
330
47
102
}
330
47
100
AcDbScale
 70
     0
300
1:8
140
1.0
141
8.0
290
     0
  0
SCALE
  5
4D
102
{ACAD_REACTORS
330
47
102
}
330
47
100
AcDbScale
 70
     0
300
1:10
140
1.0
141
10.0
290
     0
  0
SCALE
  5
4E
102
{ACAD_REACTORS
330
47
102
}
330
47
100
AcDbScale
 70
     0
300
1:16
140
1.0
141
16.0
290
     0
  0
SCALE
  5
4F
102
{ACAD_REACTORS
330
47
102
}
330
47
100
AcDbScale
 70
     0
300
1:20
140
1.0
141
20.0
290
     0
  0
SCALE
  5
50
102
{ACAD_REACTORS
330
47
102
}
330
47
100
AcDbScale
 70
     0
300
1:30
140
1.0
141
30.0
290
     0
  0
SCALE
  5
51
102
{ACAD_REACTORS
330
47
102
}
330
47
100
AcDbScale
 70
     0
300
1:40
140
1.0
141
40.0
290
     0
  0
SCALE
  5
52
102
{ACAD_REACTORS
330
47
102
}
330
47
100
AcDbScale
 70
     0
300
1:50
140
1.0
141
50.0
290
     0
  0
SCALE
  5
53
102
{ACAD_REACTORS
330
47
102
}
330
47
100
AcDbScale
 70
     0
300
1:100
140
1.0
141
100.0
290
     0
  0
SCALE
  5
54
102
{ACAD_REACTORS
330
47
102
}
330
47
100
AcDbScale
 70
     0
300
2:1
140
2.0
141
1.0
290
     0
  0
SCALE
  5
55
102
{ACAD_REACTORS
330
47
102
}
330
47
100
AcDbScale
 70
     0
300
4:1
140
4.0
141
1.0
290
     0
  0
SCALE
  5
56
102
{ACAD_REACTORS
330
47
102
}
330
47
100
AcDbScale
 70
     0
300
8:1
140
8.0
141
1.0
290
     0
  0
SCALE
  5
57
102
{ACAD_REACTORS
330
47
102
}
330
47
100
AcDbScale
 70
     0
300
10:1
140
10.0
141
1.0
290
     0
  0
SCALE
  5
58
102
{ACAD_REACTORS
330
47
102
}
330
47
100
AcDbScale
 70
     0
300
100:1
140
100.0
141
1.0
290
     0
  0
SCALE
  5
59
102
{ACAD_REACTORS
330
47
102
}
330
47
100
AcDbScale
 70
     0
300
1/128" = 1'-0"
140
0.0078125
141
12.0
290
     0
  0
SCALE
  5
5A
102
{ACAD_REACTORS
330
47
102
}
330
47
100
AcDbScale
 70
     0
300
1/64" = 1'-0"
140
0.015625
141
12.0
290
     0
  0
SCALE
  5
5B
102
{ACAD_REACTORS
330
47
102
}
330
47
100
AcDbScale
 70
     0
300
1/32" = 1'-0"
140
0.03125
141
12.0
290
     0
  0
SCALE
  5
5C
102
{ACAD_REACTORS
330
47
102
}
330
47
100
AcDbScale
 70
     0
300
1/16" = 1'-0"
140
0.0625
141
12.0
290
     0
  0
SCALE
  5
5D
102
{ACAD_REACTORS
330
47
102
}
330
47
100
AcDbScale
 70
     0
300
3/32" = 1'-0"
140
0.09375
141
12.0
290
     0
  0
SCALE
  5
5E
102
{ACAD_REACTORS
330
47
102
}
330
47
100
AcDbScale
 70
     0
300
1/8" = 1'-0"
140
0.125
141
12.0
290
     0
  0
SCALE
  5
5F
102
{ACAD_REACTORS
330
47
102
}
330
47
100
AcDbScale
 70
     0
300
3/16" = 1'-0"
140
0.1875
141
12.0
290
     0
  0
SCALE
  5
60
102
{ACAD_REACTORS
330
47
102
}
330
47
100
AcDbScale
 70
     0
300
1/4" = 1'-0"
140
0.25
141
12.0
290
     0
  0
SCALE
  5
61
102
{ACAD_REACTORS
330
47
102
}
330
47
100
AcDbScale
 70
     0
300
3/8" = 1'-0"
140
0.375
141
12.0
290
     0
  0
SCALE
  5
62
102
{ACAD_REACTORS
330
47
102
}
330
47
100
AcDbScale
 70
     0
300
1/2" = 1'-0"
140
0.5
141
12.0
290
     0
  0
SCALE
  5
63
102
{ACAD_REACTORS
330
47
102
}
330
47
100
AcDbScale
 70
     0
300
3/4" = 1'-0"
140
0.75
141
12.0
290
     0
  0
SCALE
  5
64
102
{ACAD_REACTORS
330
47
102
}
330
47
100
AcDbScale
 70
     0
300
1" = 1'-0"
140
1.0
141
12.0
290
     0
  0
SCALE
  5
65
102
{ACAD_REACTORS
330
47
102
}
330
47
100
AcDbScale
 70
     0
300
1-1/2" = 1'-0"
140
1.5
141
12.0
290
     0
  0
SCALE
  5
66
102
{ACAD_REACTORS
330
47
102
}
330
47
100
AcDbScale
 70
     0
300
3" = 1'-0"
140
3.0
141
12.0
290
     0
  0
SCALE
  5
67
102
{ACAD_REACTORS
330
47
102
}
330
47
100
AcDbScale
 70
     0
300
6" = 1'-0"
140
6.0
141
12.0
290
     0
  0
SCALE
  5
68
102
{ACAD_REACTORS
330
47
102
}
330
47
100
AcDbScale
 70
     0
300
1'-0" = 1'-0"
140
12.0
141
12.0
290
     0
  0
ENDSEC
  0
EOF
