  0
SECTION
  2
HEADER
  9
$ACADVER
  1
AC1015
  9
$ACADMAINTVER
 70
     6
  9
$DWGCODEPAGE
  3
ANSI_1251
  9
$INSBASE
 10
0.0
 20
0.0
 30
0.0
  9
$EXTMIN
 10
0.0
 20
0.0
 30
0.0
  9
$EXTMAX
 10
841.0
 20
594.0
 30
0.0
  9
$LIMMIN
 10
0.0
 20
0.0
  9
$LIMMAX
 10
841.0
 20
594.0
  9
$ORTHOMODE
 70
     0
  9
$REGENMODE
 70
     1
  9
$FILLMODE
 70
     1
  9
$QTEXTMODE
 70
     0
  9
$MIRRTEXT
 70
     1
  9
$LTSCALE
 40
1.0
  9
$ATTMODE
 70
     1
  9
$TEXTSIZE
 40
3.5
  9
$TRACEWID
 40
1.0
  9
$TEXTSTYLE
  7
Standard
  9
$CLAYER
  8
0
  9
$CELTYPE
  6
ByLayer
  9
$CECOLOR
 62
   256
  9
$CELTSCALE
 40
1.0
  9
$DISPSILH
 70
     0
  9
$DIMSCALE
 40
1.0
  9
$DIMASZ
 40
3.5
  9
$DIMEXO
 40
0.01
  9
$DIMDLI
 40
3.75
  9
$DIMRND
 40
0.0
  9
$DIMDLE
 40
0.0
  9
$DIMEXE
 40
1.0
  9
$DIMTP
 40
0.0
  9
$DIMTM
 40
0.0
  9
$DIMTXT
 40
3.5
  9
$DIMCEN
 40
2.5
  9
$DIMTSZ
 40
0.0
  9
$DIMTOL
 70
     0
  9
$DIMLIM
 70
     0
  9
$DIMTIH
 70
     1
  9
$DIMTOH
 70
     1
  9
$DIMSE1
 70
     0
  9
$DIMSE2
 70
     0
  9
$DIMTAD
 70
     1
  9
$DIMZIN
 70
     0
  9
$DIMBLK
  1

  9
$DIMASO
 70
     1
  9
$DIMSHO
 70
     1
  9
$DIMPOST
  1

  9
$DIMAPOST
  1

  9
$DIMALT
 70
     0
  9
$DIMALTD
 70
     3
  9
$DIMALTF
 40
0.0393700787
  9
$DIMLFAC
 40
1.0
  9
$DIMTOFL
 70
     1
  9
$DIMTVP
 40
0.0
  9
$DIMTIX
 70
     0
  9
$DIMSOXD
 70
     0
  9
$DIMSAH
 70
     0
  9
$DIMBLK1
  1

  9
$DIMBLK2
  1

  9
$DIMSTYLE
  2
ISO-25
  9
$DIMCLRD
 70
     0
  9
$DIMCLRE
 70
     0
  9
$DIMCLRT
 70
     0
  9
$DIMTFAC
 40
1.0
  9
$DIMGAP
 40
3.0
  9
$DIMJUST
 70
     0
  9
$DIMSD1
 70
     0
  9
$DIMSD2
 70
     0
  9
$DIMTOLJ
 70
     0
  9
$DIMTZIN
 70
     0
  9
$DIMALTZ
 70
     0
  9
$DIMALTTZ
 70
     0
  9
$DIMUPT
 70
     0
  9
$DIMDEC
 70
     2
  9
$DIMTDEC
 70
     3
  9
$DIMALTU
 70
     2
  9
$DIMALTTD
 70
     3
  9
$DIMTXSTY
  7
Standard
  9
$DIMAUNIT
 70
     0
  9
$DIMADEC
 70
     2
  9
$DIMALTRND
 40
0.0
  9
$DIMAZIN
 70
     0
  9
$DIMDSEP
 70
    44
  9
$DIMATFIT
 70
     3
  9
$DIMFRAC
 70
     0
  9
$DIMLDRBLK
  1

  9
$DIMLUNIT
 70
     2
  9
$DIMLWD
 70
    -2
  9
$DIMLWE
 70
    -2
  9
$DIMTMOVE
 70
     0
  9
$LUNITS
 70
     2
  9
$LUPREC
 70
     2
  9
$SKETCHINC
 40
1.0
  9
$FILLETRAD
 40
10.0
  9
$AUNITS
 70
     0
  9
$AUPREC
 70
     2
  9
$MENU
  1
.
  9
$ELEVATION
 40
0.0
  9
$PELEVATION
 40
0.0
  9
$THICKNESS
 40
0.0
  9
$LIMCHECK
 70
     0
  9
$CHAMFERA
 40
0.0
  9
$CHAMFERB
 40
0.0
  9
$CHAMFERC
 40
0.0
  9
$CHAMFERD
 40
0.0
  9
$SKPOLY
 70
     0
  9
$TDCREATE
 40
2459732.614025405
  9
$TDUCREATE
 40
2459732.489025405
  9
$TDUPDATE
 40
2459732.614026979
  9
$TDUUPDATE
 40
2459732.489026979
  9
$TDINDWG
 40
0.0000000116
  9
$TDUSRTIMER
 40
0.0000000116
  9
$USRTIMER
 70
     1
  9
$ANGBASE
 50
0.0
  9
$ANGDIR
 70
     0
  9
$PDMODE
 70
     0
  9
$PDSIZE
 40
-1.0
  9
$PLINEWID
 40
0.0
  9
$SPLFRAME
 70
     0
  9
$SPLINETYPE
 70
     6
  9
$SPLINESEGS
 70
     8
  9
$HANDSEED
  5
4A3
  9
$SURFTAB1
 70
     6
  9
$SURFTAB2
 70
     6
  9
$SURFTYPE
 70
     6
  9
$SURFU
 70
     6
  9
$SURFV
 70
     6
  9
$UCSBASE
  2

  9
$UCSNAME
  2

  9
$UCSORG
 10
0.0
 20
0.0
 30
0.0
  9
$UCSXDIR
 10
1.0
 20
0.0
 30
0.0
  9
$UCSYDIR
 10
0.0
 20
1.0
 30
0.0
  9
$UCSORTHOREF
  2

  9
$UCSORTHOVIEW
 70
     0
  9
$UCSORGTOP
 10
0.0
 20
0.0
 30
0.0
  9
$UCSORGBOTTOM
 10
0.0
 20
0.0
 30
0.0
  9
$UCSORGLEFT
 10
0.0
 20
0.0
 30
0.0
  9
$UCSORGRIGHT
 10
0.0
 20
0.0
 30
0.0
  9
$UCSORGFRONT
 10
0.0
 20
0.0
 30
0.0
  9
$UCSORGBACK
 10
0.0
 20
0.0
 30
0.0
  9
$PUCSBASE
  2

  9
$PUCSNAME
  2

  9
$PUCSORG
 10
0.0
 20
0.0
 30
0.0
  9
$PUCSXDIR
 10
1.0
 20
0.0
 30
0.0
  9
$PUCSYDIR
 10
0.0
 20
1.0
 30
0.0
  9
$PUCSORTHOREF
  2

  9
$PUCSORTHOVIEW
 70
     0
  9
$PUCSORGTOP
 10
0.0
 20
0.0
 30
0.0
  9
$PUCSORGBOTTOM
 10
0.0
 20
0.0
 30
0.0
  9
$PUCSORGLEFT
 10
0.0
 20
0.0
 30
0.0
  9
$PUCSORGRIGHT
 10
0.0
 20
0.0
 30
0.0
  9
$PUCSORGFRONT
 10
0.0
 20
0.0
 30
0.0
  9
$PUCSORGBACK
 10
0.0
 20
0.0
 30
0.0
  9
$USERI1
 70
     0
  9
$USERI2
 70
     0
  9
$USERI3
 70
     0
  9
$USERI4
 70
     0
  9
$USERI5
 70
     0
  9
$USERR1
 40
0.0
  9
$USERR2
 40
0.0
  9
$USERR3
 40
0.0
  9
$USERR4
 40
0.0
  9
$USERR5
 40
0.0
  9
$WORLDVIEW
 70
     1
  9
$SHADEDGE
 70
     3
  9
$SHADEDIF
 70
    70
  9
$TILEMODE
 70
     1
  9
$MAXACTVP
 70
    64
  9
$PINSBASE
 10
0.0
 20
0.0
 30
0.0
  9
$PLIMCHECK
 70
     0
  9
$PEXTMIN
 10
1.0000000000E+20
 20
1.0000000000E+20
 30
1.0000000000E+20
  9
$PEXTMAX
 10
-1.0000000000E+20
 20
-1.0000000000E+20
 30
-1.0000000000E+20
  9
$PLIMMIN
 10
0.0
 20
0.0
  9
$PLIMMAX
 10
420.0
 20
297.0
  9
$UNITMODE
 70
     0
  9
$VISRETAIN
 70
     1
  9
$PLINEGEN
 70
     0
  9
$PSLTSCALE
 70
     1
  9
$TREEDEPTH
 70
  3020
  9
$CMLSTYLE
  2
Standard
  9
$CMLJUST
 70
     0
  9
$CMLSCALE
 40
20.0
  9
$PROXYGRAPHICS
 70
     1
  9
$MEASUREMENT
 70
     1
  9
$CELWEIGHT
370
    -1
  9
$ENDCAPS
280
     0
  9
$JOINSTYLE
280
     0
  9
$LWDISPLAY
290
     1
  9
$INSUNITS
 70
     4
  9
$HYPERLINKBASE
  1

  9
$STYLESHEET
  1

  9
$XEDIT
290
     1
  9
$CEPSNTYPE
380
     0
  9
$PSTYLEMODE
290
     1
  9
$FINGERPRINTGUID
  2
{DA051C91-0B28-40E5-8D24-C40A8EF4E2DE}
  9
$VERSIONGUID
  2
{FAEB1C32-E019-11D5-929B-00C0DF256EC4}
  9
$EXTNAMES
290
     1
  9
$PSVPSCALE
 40
0.0
  9
$OLESTARTUP
290
     0
  0
ENDSEC
  0
SECTION
  2
CLASSES
  0
CLASS
  1
ACDBDICTIONARYWDFLT
  2
AcDbDictionaryWithDefault
  3
ObjectDBX Classes
 90
        0
280
     0
281
     0
  0
CLASS
  1
VISUALSTYLE
  2
AcDbVisualStyle
  3
ObjectDBX Classes
 90
     4095
280
     0
281
     0
  0
CLASS
  1
MATERIAL
  2
AcDbMaterial
  3
ObjectDBX Classes
 90
     1153
280
     0
281
     0
  0
CLASS
  1
SCALE
  2
AcDbScale
  3
ObjectDBX Classes
 90
     1153
280
     0
281
     0
  0
CLASS
  1
TABLESTYLE
  2
AcDbTableStyle
  3
ObjectDBX Classes
 90
     4095
280
     0
281
     0
  0
CLASS
  1
MLEADERSTYLE
  2
AcDbMLeaderStyle
  3
ACDB_MLEADERSTYLE_CLASS
 90
     4095
280
     0
281
     0
  0
CLASS
  1
SUN
  2
AcDbSun
  3
SCENEOE
 90
     1153
280
     0
281
     0
  0
CLASS
  1
ACDBPLACEHOLDER
  2
AcDbPlaceHolder
  3
ObjectDBX Classes
 90
        0
280
     0
281
     0
  0
CLASS
  1
LAYOUT
  2
AcDbLayout
  3
ObjectDBX Classes
 90
        0
280
     0
281
     0
  0
ENDSEC
  0
SECTION
  2
TABLES
  0
TABLE
  2
VPORT
  5
8
330
0
100
AcDbSymbolTable
 70
     1
  0
VPORT
  5
29
330
8
100
AcDbSymbolTableRecord
100
AcDbViewportTableRecord
  2
*Active
 70
     0
 10
0.0
 20
0.0
 11
1.0
 21
1.0
 12
420.5
 22
297.0
 13
0.0
 23
0.0
 14
10.0
 24
10.0
 15
10.0
 25
10.0
 16
0.0
 26
0.0
 36
1.0
 17
0.0
 27
0.0
 37
0.0
 40
594.0
 41
1.4158249158
 42
50.0
 43
0.0
 44
0.0
 50
0.0
 51
0.0
 71
     0
 72
  2000
 73
     1
 74
     3
 75
     0
 76
     0
 77
     0
 78
     0
281
     0
 65
     1
110
0.0
120
0.0
130
0.0
111
1.0
121
0.0
131
0.0
112
0.0
122
1.0
132
0.0
 79
     0
146
0.0
  0
ENDTAB
  0
TABLE
  2
LTYPE
  5
5
330
0
100
AcDbSymbolTable
 70
     6
  0
LTYPE
  5
14
330
5
100
AcDbSymbolTableRecord
100
AcDbLinetypeTableRecord
  2
ByBlock
 70
     0
  3

 72
    65
 73
     0
 40
0.0
  0
LTYPE
  5
15
330
5
100
AcDbSymbolTableRecord
100
AcDbLinetypeTableRecord
  2
ByLayer
 70
     0
  3

 72
    65
 73
     0
 40
0.0
  0
LTYPE
  5
16
330
5
100
AcDbSymbolTableRecord
100
AcDbLinetypeTableRecord
  2
Continuous
 70
     0
  3
Solid line
 72
    65
 73
     0
 40
0.0
  0
LTYPE
  5
6E
330
5
100
AcDbSymbolTableRecord
100
AcDbLinetypeTableRecord
  2
HIDDEN
 70
     0
  3
Hidden __ __ __ __ __ __ __ __ __ __ __ __ __ __
 72
    65
 73
     2
 40
1.905
 49
1.27
 74
     0
 49
-0.635
 74
     0
  0
LTYPE
  5
6F
330
5
100
AcDbSymbolTableRecord
100
AcDbLinetypeTableRecord
  2
PHANTOM
 70
     0
  3
Phantom ______  __  __  ______  __  __  ______
 72
    65
 73
     6
 40
12.7
 49
6.35
 74
     0
 49
-1.27
 74
     0
 49
1.27
 74
     0
 49
-1.27
 74
     0
 49
1.27
 74
     0
 49
-1.27
 74
     0
  0
LTYPE
  5
70
330
5
100
AcDbSymbolTableRecord
100
AcDbLinetypeTableRecord
  2
CENTER
 70
     0
  3
Center ____ _ ____ _ ____ _ ____ _ ____ _ ____
 72
    65
 73
     4
 40
10.16
 49
6.35
 74
     0
 49
-1.27
 74
     0
 49
1.27
 74
     0
 49
-1.27
 74
     0
  0
LTYPE
  5
71
330
5
100
AcDbSymbolTableRecord
100
AcDbLinetypeTableRecord
  2
CENTERX2
 70
     0
  3
Center (2x) ________  __  ________  __  _____
 72
    65
 73
     4
 40
20.32
 49
12.7
 74
     0
 49
-2.54
 74
     0
 49
2.54
 74
     0
 49
-2.54
 74
     0
  0
LTYPE
  5
72
330
5
100
AcDbSymbolTableRecord
100
AcDbLinetypeTableRecord
  2
DOT2
 70
     0
  3
Dot (.5x) ........................................
 72
    65
 73
     2
 40
0.635
 49
0.0
 74
     0
 49
-0.635
 74
     0
  0
ENDTAB
  0
TABLE
  2
LAYER
  5
2
330
0
100
AcDbSymbolTable
 70
     1
  0
LAYER
  5
10
330
2
100
AcDbSymbolTableRecord
100
AcDbLayerTableRecord
  2
0
 70
     0
 62
     7
  6
Continuous
370
    -3
390
F
  0
ENDTAB
  0
TABLE
  2
STYLE
  5
3
330
0
100
AcDbSymbolTable
 70
     1
  0
STYLE
  5
11
330
3
100
AcDbSymbolTableRecord
100
AcDbTextStyleTableRecord
  2
Standard
 70
     0
 40
0.0
 41
1.0
 50
0.0
 71
     0
 42
3.5
  3
txt
  4

  0
ENDTAB
  0
TABLE
  2
VIEW
  5
6
330
0
100
AcDbSymbolTable
 70
     0
  0
ENDTAB
  0
TABLE
  2
UCS
  5
7
330
0
100
AcDbSymbolTable
 70
     0
  0
ENDTAB
  0
TABLE
  2
APPID
  5
9
330
0
100
AcDbSymbolTable
 70
     1
  0
APPID
  5
12
330
9
100
AcDbSymbolTableRecord
100
AcDbRegAppTableRecord
  2
ACAD
 70
     0
  0
ENDTAB
  0
TABLE
  2
DIMSTYLE
  5
A
330
0
100
AcDbSymbolTable
 70
     1
100
AcDbDimStyleTable
  0
DIMSTYLE
105
27
330
A
100
AcDbSymbolTableRecord
100
AcDbDimStyleTableRecord
  2
ISO-25
 70
     0
 41
2.5
 42
0.625
 43
3.75
 44
1.25
 73
     0
 74
     0
 77
     1
 78
     8
140
2.5
141
2.5
143
0.0393700787
147
0.625
171
     3
172
     1
178
     0
271
     2
272
     2
274
     3
278
    44
283
     0
284
     8
340
11
  0
ENDTAB
  0
TABLE
  2
BLOCK_RECORD
  5
1
330
0
100
AcDbSymbolTable
 70
     1
  0
BLOCK_RECORD
  5
1F
330
1
100
AcDbSymbolTableRecord
100
AcDbBlockTableRecord
  2
*Model_Space
340
22
  0
BLOCK_RECORD
  5
1B
330
1
100
AcDbSymbolTableRecord
100
AcDbBlockTableRecord
  2
*Paper_Space
340
1E
  0
BLOCK_RECORD
  5
23
330
1
100
AcDbSymbolTableRecord
100
AcDbBlockTableRecord
  2
*Paper_Space0
340
26
  0
ENDTAB
  0
ENDSEC
  0
SECTION
  2
BLOCKS
  0
BLOCK
  5
20
330
1F
100
AcDbEntity
  8
0
100
AcDbBlockBegin
  2
*Model_Space
 70
     0
 10
0.0
 20
0.0
 30
0.0
  3
*Model_Space
  1

  0
ENDBLK
  5
21
330
1F
100
AcDbEntity
  8
0
100
AcDbBlockEnd
  0
BLOCK
  5
1C
330
1B
100
AcDbEntity
 67
     1
  8
0
100
AcDbBlockBegin
  2
*Paper_Space
 70
     0
 10
0.0
 20
0.0
 30
0.0
  3
*Paper_Space
  1

  0
ENDBLK
  5
1D
330
1B
100
AcDbEntity
 67
     1
  8
0
100
AcDbBlockEnd
  0
BLOCK
  5
24
330
23
100
AcDbEntity
  8
0
100
AcDbBlockBegin
  2
*Paper_Space0
 70
     0
 10
0.0
 20
0.0
 30
0.0
  3
*Paper_Space0
  1

  0
ENDBLK
  5
25
330
23
100
AcDbEntity
  8
0
100
AcDbBlockEnd
  0
ENDSEC
  0
SECTION
  2
ENTITIES
  0
ARC
  5
73
330
1F
100
AcDbEntity
  8
0
  6
Continuous
 62
     7
370
    25
100
AcDbCircle
 10
563.2128208011
 20
711.9578644957
 30
0.0
 40
0.5000000000001137
100
AcDbArc
 50
180.0
 51
0.0
  0
ARC
  5
74
330
1F
100
AcDbEntity
  8
0
  6
Continuous
 62
     7
370
    25
100
AcDbCircle
 10
563.2128208011
 20
723.5578644959
 30
0.0
 40
0.5000000000001137
100
AcDbArc
 50
0.0
 51
180.0
  0
LINE
  5
75
330
1F
100
AcDbEntity
  8
0
  6
Continuous
 62
     7
370
    25
100
AcDbLine
 10
558.7128208011
 20
712.7578644958
 30
0.0
 11
558.923399856
 21
712.3931308735
 31
0.0
  0
LINE
  5
76
330
1F
100
AcDbEntity
  8
0
  6
Continuous
 62
     7
370
    25
100
AcDbLine
 10
573.1715708011
 20
720.7578644958
 30
0.0
 11
564.5128208011
 21
720.7578644958
 31
0.0
  0
LINE
  5
77
330
1F
100
AcDbEntity
  8
0
  6
Continuous
 62
     7
370
    25
100
AcDbLine
 10
564.5128208011
 20
714.7578644958
 30
0.0
 11
573.1715708011
 21
714.7578644958
 31
0.0
  0
LINE
  5
78
330
1F
100
AcDbEntity
  8
0
  6
Continuous
 62
     7
370
    25
100
AcDbLine
 10
573.1715708011
 20
714.7578644958
 30
0.0
 11
573.7128208011
 21
715.2991144957
 31
0.0
  0
LINE
  5
79
330
1F
100
AcDbEntity
  8
0
  6
Continuous
 62
     7
370
    25
100
AcDbLine
 10
573.7128208011
 20
720.2166144958
 30
0.0
 11
573.1715708011
 21
720.7578644958
 31
0.0
  0
LINE
  5
7A
330
1F
100
AcDbEntity
  8
0
  6
Continuous
 62
     7
370
    25
100
AcDbLine
 10
558.923399856
 20
723.122598118
 30
0.0
 11
558.7128208011
 21
722.7578644958
 31
0.0
  0
ARC
  5
7B
330
1F
100
AcDbEntity
  8
0
  6
Continuous
 62
     7
370
    25
100
AcDbCircle
 10
563.2128208011
 20
698.5578644959
 30
0.0
 40
0.5000000000001322
100
AcDbArc
 50
0.0
 51
113.578178478
  0
LINE
  5
7C
330
1F
100
AcDbEntity
  8
0
  6
Continuous
 62
     7
370
    25
100
AcDbLine
 10
573.1715708011
 20
695.7578644958
 30
0.0
 11
564.5128208011
 21
695.7578644958
 31
0.0
  0
LINE
  5
7D
330
1F
100
AcDbEntity
  8
0
  6
Continuous
 62
     7
370
    25
100
AcDbLine
 10
573.1715708011
 20
689.7578644958
 30
0.0
 11
573.7128208011
 21
690.2991144957
 31
0.0
  0
LINE
  5
7E
330
1F
100
AcDbEntity
  8
0
  6
Continuous
 62
     7
370
    25
100
AcDbLine
 10
573.7128208011
 20
695.2166144958
 30
0.0
 11
573.1715708011
 21
695.7578644958
 31
0.0
  0
ARC
  5
7F
330
1F
100
AcDbEntity
  8
0
  6
Continuous
 62
     7
370
    25
100
AcDbCircle
 10
259.8128208011
 20
698.5578644959
 30
0.0
 40
0.5
100
AcDbArc
 50
66.4218215219
 51
180.0
  0
LINE
  5
80
330
1F
100
AcDbEntity
  8
0
  6
Continuous
 62
     7
370
    25
100
AcDbLine
 10
249.8540708011
 20
695.7578644958
 30
0.0
 11
249.3128208011
 21
695.2166144958
 31
0.0
  0
LINE
  5
81
330
1F
100
AcDbEntity
  8
0
  6
Continuous
 62
     7
370
    25
100
AcDbLine
 10
249.3128208011
 20
690.2991144957
 30
0.0
 11
249.8540708011
 21
689.7578644958
 31
0.0
  0
LINE
  5
82
330
1F
100
AcDbEntity
  8
0
  6
Continuous
 62
     7
370
    25
100
AcDbLine
 10
258.5128208011
 20
695.7578644958
 30
0.0
 11
249.8540708011
 21
695.7578644958
 31
0.0
  0
ARC
  5
83
330
1F
100
AcDbEntity
  8
0
  6
Continuous
 62
     7
370
    25
100
AcDbCircle
 10
259.8128208011
 20
723.5578644959
 30
0.0
 40
0.5
100
AcDbArc
 50
0.0
 51
180.0
  0
ARC
  5
84
330
1F
100
AcDbEntity
  8
0
  6
Continuous
 62
     7
370
    25
100
AcDbCircle
 10
259.8128208011
 20
711.9578644957
 30
0.0
 40
0.5
100
AcDbArc
 50
180.0
 51
360.0
  0
LINE
  5
85
330
1F
100
AcDbEntity
  8
0
  6
Continuous
 62
     7
370
    25
100
AcDbLine
 10
249.8540708011
 20
720.7578644958
 30
0.0
 11
249.3128208011
 21
720.2166144958
 31
0.0
  0
LINE
  5
86
330
1F
100
AcDbEntity
  8
0
  6
Continuous
 62
     7
370
    25
100
AcDbLine
 10
249.3128208011
 20
715.2991144957
 30
0.0
 11
249.8540708011
 21
714.7578644958
 31
0.0
  0
LINE
  5
87
330
1F
100
AcDbEntity
  8
0
  6
Continuous
 62
     7
370
    25
100
AcDbLine
 10
249.8540708011
 20
714.7578644958
 30
0.0
 11
258.5128208011
 21
714.7578644958
 31
0.0
  0
LINE
  5
88
330
1F
100
AcDbEntity
  8
0
  6
Continuous
 62
     7
370
    25
100
AcDbLine
 10
258.5128208011
 20
720.7578644958
 30
0.0
 11
249.8540708011
 21
720.7578644958
 31
0.0
  0
SPLINE
  5
89
330
1F
100
AcDbEntity
  8
0
  6
Continuous
 62
     7
370
    25
100
AcDbSpline
210
0.0
220
0.0
230
1.0
 70
    24
 71
     3
 72
    16
 73
    12
 74
     0
 42
0.000000001
 43
0.00000001
 40
0.0
 40
0.0
 40
0.0
 40
0.0
 40
0.1658292928977469
 40
0.2550981074401225
 40
0.3462613343064166
 40
0.4374245611727114
 40
0.5266933757150813
 40
0.6925226686128336
 40
0.858351961510584
 40
0.9476207760529564
 40
1.0
 40
1.0
 40
1.0
 40
1.0
 10
562.7128208010602
 20
721.4835541203933
 30
0.0
 10
562.7128208010602
 20
720.8746463227183
 30
0.0
 10
562.7128208010602
 20
719.9379527863828
 30
0.0
 10
562.7128208010602
 20
718.4381540951465
 30
0.0
 10
562.7128208010602
 20
717.2461970153315
 30
0.0
 10
562.7128208010602
 20
716.0717687411251
 30
0.0
 10
562.7128208010603
 20
714.668155447838
 30
0.0
 10
562.7128208010602
 20
713.2008123670557
 30
0.0
 10
562.7128208010602
 20
712.3016250162351
 30
0.0
 10
562.7128208010602
 20
711.9737936891206
 30
0.0
 10
562.7128208010602
 20
711.9841841045611
 30
0.0
 10
562.7128208010602
 20
711.9880263172952
 30
0.0
  0
LINE
  5
8A
330
1F
100
AcDbEntity
  8
0
  6
Continuous
 62
     7
370
    25
100
AcDbLine
 10
558.7128208011
 20
718.6233590664
 30
0.0
 11
558.7128208011
 21
713.9258504324
 31
0.0
  0
SPLINE
  5
8B
330
1F
100
AcDbEntity
  8
0
  6
Continuous
 62
     7
370
    25
100
AcDbSpline
210
0.0
220
0.0
230
1.0
 70
     8
 71
     3
 72
     8
 73
     4
 74
     0
 42
0.000000001
 43
0.00000001
 40
0.0
 40
0.0
 40
0.0
 40
0.0
 40
1.0
 40
1.0
 40
1.0
 40
1.0
 10
558.7128208010672
 20
718.6233590663765
 30
0.0
 10
558.7128208010672
 20
717.6529531304863
 30
0.0
 10
558.8871361014467
 20
716.7091067885551
 30
0.0
 10
559.1594027884586
 20
715.7801848339285
 30
0.0
  0
SPLINE
  5
8C
330
1F
100
AcDbEntity
  8
0
  6
Continuous
 62
     7
370
    25
100
AcDbSpline
210
0.0
220
0.0
230
1.0
 70
     8
 71
     3
 72
     8
 73
     4
 74
     0
 42
0.000000001
 43
0.00000001
 40
0.0
 40
0.0
 40
0.0
 40
0.0
 40
1.0
 40
1.0
 40
1.0
 40
1.0
 10
559.1594027884586
 20
715.7801848339222
 30
0.0
 10
558.8871361014471
 20
715.174336652991
 30
0.0
 10
558.7128208010673
 20
714.558754701792
 30
0.0
 10
558.7128208010673
 20
713.9258504323908
 30
0.0
  0
SPLINE
  5
8D
330
1F
100
AcDbEntity
  8
0
  6
Continuous
 62
     7
370
    25
100
AcDbSpline
210
0.0
220
0.0
230
1.0
 70
     8
 71
     3
 72
     8
 73
     4
 74
     0
 42
0.000000001
 43
0.00000001
 40
0.0
 40
0.0
 40
0.0
 40
0.0
 40
1.0
 40
1.0
 40
1.0
 40
1.0
 10
559.1594027884586
 20
721.4665332988245
 30
0.0
 10
558.8871361014471
 20
720.5376113441995
 30
0.0
 10
558.7128208010672
 20
719.593765002265
 30
0.0
 10
558.7128208010672
 20
718.6233590663765
 30
0.0
  0
LINE
  5
8E
330
1F
100
AcDbEntity
  8
0
  6
Continuous
 62
     7
370
    25
100
AcDbLine
 10
562.7128208011
 20
721.4665332988
 30
0.0
 11
559.1594027885
 21
721.4665332988
 31
0.0
  0
LINE
  5
8F
330
1F
100
AcDbEntity
  8
0
  6
Continuous
 62
     7
370
    25
100
AcDbLine
 10
562.7128208011
 20
715.7801848339
 30
0.0
 11
559.1594027885
 21
715.7801848339
 31
0.0
  0
SPLINE
  5
90
330
1F
100
AcDbEntity
  8
0
  6
Continuous
 62
     7
370
    25
100
AcDbSpline
210
0.0
220
0.0
230
1.0
 70
     8
 71
     3
 72
     8
 73
     4
 74
     0
 42
0.000000001
 43
0.00000001
 40
0.0
 40
0.0
 40
0.0
 40
0.0
 40
1.0
 40
1.0
 40
1.0
 40
1.0
 10
558.7128208010673
 20
713.9258504323908
 30
0.0
 10
558.7128208010673
 20
713.2929461629883
 30
0.0
 10
558.8871361014467
 20
712.6773642117917
 30
0.0
 10
559.1594027884586
 20
712.0715160308594
 30
0.0
  0
LINE
  5
91
330
1F
100
AcDbEntity
  8
0
  6
Continuous
 62
     7
370
    25
100
AcDbLine
 10
562.7128208011
 20
712.0715160309
 30
0.0
 11
559.1594027885
 21
712.0715160309
 31
0.0
  0
LINE
  5
92
330
1F
100
AcDbEntity
  8
0
  6
Continuous
 62
     7
370
    25
100
AcDbLine
 10
558.7128208011
 20
722.4553731297
 30
0.0
 11
558.7128208011
 21
718.6233590664
 31
0.0
  0
SPLINE
  5
93
330
1F
100
AcDbEntity
  8
0
  6
Continuous
 62
     7
370
    25
100
AcDbSpline
210
0.0
220
0.0
230
1.0
 70
     8
 71
     3
 72
     8
 73
     4
 74
     0
 42
0.000000001
 43
0.00000001
 40
0.0
 40
0.0
 40
0.0
 40
0.0
 40
1.0
 40
1.0
 40
1.0
 40
1.0
 10
558.7128208010671
 20
722.4553731297459
 30
0.0
 10
558.7128208010671
 20
722.1178714632583
 30
0.0
 10
558.8871361014465
 20
721.789607072524
 30
0.0
 10
559.1594027884586
 20
721.4665332988295
 30
0.0
  0
SPLINE
  5
94
330
1F
100
AcDbEntity
  8
0
  6
Continuous
 62
     7
370
    25
100
AcDbSpline
210
0.0
220
0.0
230
1.0
 70
     8
 71
     3
 72
     8
 73
     4
 74
     0
 42
0.000000001
 43
0.00000001
 40
0.0
 40
0.0
 40
0.0
 40
0.0
 40
1.0
 40
1.0
 40
1.0
 40
1.0
 10
559.1594027884585
 20
723.4442129606624
 30
0.0
 10
558.887136101447
 20
723.1211391869685
 30
0.0
 10
558.7128208010671
 20
722.792874796233
 30
0.0
 10
558.7128208010671
 20
722.4553731297459
 30
0.0
  0
LINE
  5
95
330
1F
100
AcDbEntity
  8
0
  6
Continuous
 62
     7
370
    25
100
AcDbLine
 10
562.7128208011
 20
723.4442129607
 30
0.0
 11
559.1594027885
 21
723.4442129607
 31
0.0
  0
LINE
  5
96
330
1F
100
AcDbEntity
  8
0
  6
Continuous
 62
     7
370
    25
100
AcDbLine
 10
559.1594027885
 20
712.0715160309
 30
0.0
 11
558.9953847532
 21
712.4346913733
 31
0.0
  0
LINE
  5
97
330
1F
100
AcDbEntity
  8
0
  6
Continuous
 62
     7
370
    25
100
AcDbLine
 10
558.7128208011
 20
713.9258504324
 30
0.0
 11
558.7128208011
 21
712.7578644958
 31
0.0
  0
LINE
  5
98
330
1F
100
AcDbEntity
  8
0
  6
Continuous
 62
     7
370
    25
100
AcDbLine
 10
573.1715708011
 20
714.7578644958
 30
0.0
 11
573.1715708011
 21
720.7578644958
 31
0.0
  0
LINE
  5
99
330
1F
100
AcDbEntity
  8
0
  6
Continuous
 62
     7
370
    25
100
AcDbLine
 10
573.7128208011
 20
715.8734715801
 30
0.0
 11
573.7128208011
 21
720.2166144958
 31
0.0
  0
LINE
  5
9A
330
1F
100
AcDbEntity
  8
0
  6
Continuous
 62
     7
370
    25
100
AcDbLine
 10
573.7128208011
 20
715.2991144957
 30
0.0
 11
573.7128208011
 21
715.8734715801
 31
0.0
  0
LINE
  5
9B
330
1F
100
AcDbEntity
  8
0
  6
Continuous
 62
     7
370
    25
100
AcDbLine
 10
558.7128208011
 20
722.7578644958
 30
0.0
 11
558.7128208011
 21
722.4553731297
 31
0.0
  0
CIRCLE
  5
9C
330
1F
100
AcDbEntity
  8
0
  6
Continuous
 62
     7
370
    25
100
AcDbCircle
 10
314.0128208011
 20
664.7578644958
 30
0.0
 40
0.5000000000000568
  0
SPLINE
  5
9D
330
1F
100
AcDbEntity
  8
0
  6
Continuous
 62
     7
370
    25
100
AcDbSpline
210
0.0
220
0.0
230
1.0
 70
     8
 71
     3
 72
    20
 73
    16
 74
     0
 42
0.000000001
 43
0.00000001
 40
0.0
 40
0.0
 40
0.0
 40
0.0
 40
0.1250000000000037
 40
0.1250000000000037
 40
0.2500000000000074
 40
0.2500000000000074
 40
0.3750000000000111
 40
0.3750000000000111
 40
0.5000000000000148
 40
0.5000000000000148
 40
0.7500000000000072
 40
0.7500000000000072
 40
0.8750000000000036
 40
0.8750000000000036
 40
1.0
 40
1.0
 40
1.0
 40
1.0
 10
606.6128208010615
 20
687.357864495759
 30
0.0
 10
606.771199988712
 20
687.3969052266134
 30
0.0
 10
606.9274457134038
 20
687.4354239308134
 30
0.0
 10
607.2354375628204
 20
687.5128306821214
 30
0.0
 10
607.3880816702915
 20
687.5519751001079
 30
0.0
 10
607.6771659594787
 20
687.6291258540231
 30
0.0
 10
607.8149704976628
 20
687.6674534357643
 30
0.0
 10
608.0765891733015
 20
687.7449997562405
 30
0.0
 10
608.1993354799843
 20
687.7839759639093
 30
0.0
 10
608.530659856932
 20
687.899470820354
 30
0.0
 10
608.7096709809601
 20
687.9773832640244
 30
0.0
 10
608.8892860803411
 20
688.0928631894252
 30
0.0
 10
608.9355304292088
 20
688.1317289852904
 30
0.0
 10
608.99728373522
 20
688.2095033189588
 30
0.0
 10
609.0128208010614
 20
688.2481130859136
 30
0.0
 10
609.0128208010615
 20
688.2871538176403
 30
0.0
  0
LINE
  5
9E
330
1F
100
AcDbEntity
  8
0
  6
Continuous
 62
     7
370
    25
100
AcDbLine
 10
609.0128208011
 20
-104.7714248261
 30
0.0
 11
609.0128208011
 21
688.2871538176
 31
0.0
  0
SPLINE
  5
9F
330
1F
100
AcDbEntity
  8
0
  6
Continuous
 62
     7
370
    25
100
AcDbSpline
210
0.0
220
0.0
230
1.0
 70
     8
 71
     3
 72
    20
 73
    16
 74
     0
 42
0.000000001
 43
0.00000001
 40
0.0
 40
0.0
 40
0.0
 40
0.0
 40
0.1249999999999999
 40
0.1249999999999999
 40
0.2499999999999999
 40
0.2499999999999999
 40
0.375
 40
0.375
 40
0.5
 40
0.5
 40
0.75
 40
0.75
 40
0.875
 40
0.875
 40
1.0
 40
1.0
 40
1.0
 40
1.0
 10
609.0128208010615
 20
-104.7714248261225
 30
0.0
 10
609.0128208010615
 20
-104.7323840952681
 30
0.0
 10
608.9972842405866
 20
-104.6938653910682
 30
0.0
 10
608.935965888626
 20
-104.6164586397602
 30
0.0
 10
608.8895421430392
 20
-104.5773142217737
 30
0.0
 10
608.7695912728851
 20
-104.5001634678586
 30
0.0
 10
608.6959866286016
 20
-104.4618358861173
 30
0.0
 10
608.521256262506
 20
-104.3842895656409
 30
0.0
 10
608.4204056336046
 20
-104.3453133579723
 30
0.0
 10
608.0891203536205
 20
-104.229818501527
 30
0.0
 10
607.8214401922367
 20
-104.1519060578571
 30
0.0
 10
607.3887661661812
 20
-104.0364261324561
 30
0.0
 10
607.2372480793301
 20
-103.997560336591
 30
0.0
 10
606.927822321944
 20
-103.9197860029226
 30
0.0
 10
606.7711999922502
 20
-103.8811762359679
 30
0.0
 10
606.6128208010615
 20
-103.8421355042412
 30
0.0
  0
SPLINE
  5
A0
330
1F
100
AcDbEntity
  8
0
  6
Continuous
 62
     7
370
    25
100
AcDbSpline
210
0.0
220
0.0
230
1.0
 70
     8
 71
     3
 72
    20
 73
    16
 74
     0
 42
0.000000001
 43
0.00000001
 40
0.0
 40
0.0
 40
0.0
 40
0.0
 40
0.1250000000000013
 40
0.1250000000000013
 40
0.2500000000000027
 40
0.2500000000000027
 40
0.375000000000004
 40
0.375000000000004
 40
0.5000000000000053
 40
0.5000000000000053
 40
0.7500000000000079
 40
0.7500000000000079
 40
0.875000000000004
 40
0.875000000000004
 40
1.0
 40
1.0
 40
1.0
 40
1.0
 10
216.4128208010615
 20
-103.8421355042411
 30
0.0
 10
216.2544416134108
 20
-103.8811762350957
 30
0.0
 10
216.098195888719
 20
-103.9196949392954
 30
0.0
 10
215.7902040393024
 20
-103.9971016906032
 30
0.0
 10
215.6375599318312
 20
-104.0362461085899
 30
0.0
 10
215.3484756426442
 20
-104.1133968625053
 30
0.0
 10
215.2106711044603
 20
-104.1517244442462
 30
0.0
 10
214.9490524288213
 20
-104.2292707647228
 30
0.0
 10
214.8263061221386
 20
-104.2682469723915
 30
0.0
 10
214.4949817451909
 20
-104.3837418288364
 30
0.0
 10
214.3159706211628
 20
-104.4616542725065
 30
0.0
 10
214.1363555217819
 20
-104.5771341979074
 30
0.0
 10
214.0901111729142
 20
-104.6159999937724
 30
0.0
 10
214.028357866903
 20
-104.6937743274409
 30
0.0
 10
214.0128208010614
 20
-104.7323840943957
 30
0.0
 10
214.0128208010614
 20
-104.7714248261224
 30
0.0
  0
LINE
  5
A1
330
1F
100
AcDbEntity
  8
0
  6
Continuous
 62
     7
370
    25
100
AcDbLine
 10
214.0128208011
 20
688.2871538176
 30
0.0
 11
214.0128208011
 21
-104.7714248261
 31
0.0
  0
SPLINE
  5
A2
330
1F
100
AcDbEntity
  8
0
  6
Continuous
 62
     7
370
    25
100
AcDbSpline
210
0.0
220
0.0
230
1.0
 70
     8
 71
     3
 72
    20
 73
    16
 74
     0
 42
0.000000001
 43
0.00000001
 40
0.0
 40
0.0
 40
0.0
 40
0.0
 40
0.1250000000000014
 40
0.1250000000000014
 40
0.2500000000000027
 40
0.2500000000000027
 40
0.375000000000004
 40
0.375000000000004
 40
0.5000000000000052
 40
0.5000000000000052
 40
0.7500000000000078
 40
0.7500000000000078
 40
0.8750000000000039
 40
0.8750000000000039
 40
1.0
 40
1.0
 40
1.0
 40
1.0
 10
214.0128208010614
 20
688.2871538176403
 30
0.0
 10
214.0128208010615
 20
688.2481130867859
 30
0.0
 10
214.0283573615363
 20
688.209594382586
 30
0.0
 10
214.0896757134969
 20
688.1321876312782
 30
0.0
 10
214.1360994590837
 20
688.0930432132915
 30
0.0
 10
214.2560503292378
 20
688.015892459376
 30
0.0
 10
214.3296549735213
 20
687.9775648776351
 30
0.0
 10
214.5043853396168
 20
687.9000185571587
 30
0.0
 10
214.6052359685183
 20
687.8610423494899
 30
0.0
 10
214.9365212485023
 20
687.7455474930449
 30
0.0
 10
215.2042014098863
 20
687.6676350493747
 30
0.0
 10
215.6368754359416
 20
687.5521551239741
 30
0.0
 10
215.7883935227928
 20
687.5132893281087
 30
0.0
 10
216.0978192801789
 20
687.4355149944403
 30
0.0
 10
216.2544416098728
 20
687.3969052274855
 30
0.0
 10
216.4128208010615
 20
687.357864495759
 30
0.0
  0
SPLINE
  5
A3
330
1F
100
AcDbEntity
  8
0
  6
Continuous
 62
     7
370
    25
100
AcDbSpline
210
0.0
220
0.0
230
1.0
 70
     8
 71
     3
 72
    20
 73
    16
 74
     0
 42
0.000000001
 43
0.00000001
 40
0.0
 40
0.0
 40
0.0
 40
0.0
 40
0.1250000000000039
 40
0.1250000000000039
 40
0.2500000000000078
 40
0.2500000000000078
 40
0.3750000000000118
 40
0.3750000000000118
 40
0.5000000000000157
 40
0.5000000000000157
 40
0.7500000000000184
 40
0.7500000000000184
 40
0.8750000000000093
 40
0.8750000000000093
 40
1.0
 40
1.0
 40
1.0
 40
1.0
 10
606.6128208010615
 20
-103.8421355042411
 30
0.0
 10
606.651861531916
 20
-104.0005146918918
 30
0.0
 10
606.6903802361157
 20
-104.1567604165836
 30
0.0
 10
606.7677869874237
 20
-104.4647522660003
 30
0.0
 10
606.8069314054104
 20
-104.6173963734711
 30
0.0
 10
606.8840821593255
 20
-104.9064806626583
 30
0.0
 10
606.9224097410666
 20
-105.0442852008424
 30
0.0
 10
606.9999560615432
 20
-105.3059038764814
 30
0.0
 10
607.038932269212
 20
-105.4286501831642
 30
0.0
 10
607.154427125657
 20
-105.7599745601117
 30
0.0
 10
607.2323395693271
 20
-105.93898568414
 30
0.0
 10
607.3478194947279
 20
-106.1186007835207
 30
0.0
 10
607.386685290593
 20
-106.1648451323885
 30
0.0
 10
607.4644596242614
 20
-106.2265984383996
 30
0.0
 10
607.5030693912162
 20
-106.2421355042412
 30
0.0
 10
607.5421101229427
 20
-106.2421355042411
 30
0.0
  0
LINE
  5
A4
330
1F
100
AcDbEntity
  8
0
  6
Continuous
 62
     7
370
    25
100
AcDbLine
 10
215.4835314792
 20
-106.2421355042
 30
0.0
 11
607.5421101229
 21
-106.2421355042
 31
0.0
  0
SPLINE
  5
A5
330
1F
100
AcDbEntity
  8
0
  6
Continuous
 62
     7
370
    25
100
AcDbSpline
210
0.0
220
0.0
230
1.0
 70
     8
 71
     3
 72
    20
 73
    16
 74
     0
 42
0.000000001
 43
0.00000001
 40
0.0
 40
0.0
 40
0.0
 40
0.0
 40
0.1250000000000006
 40
0.1250000000000006
 40
0.2500000000000013
 40
0.2500000000000013
 40
0.3750000000000019
 40
0.3750000000000019
 40
0.5000000000000026
 40
0.5000000000000026
 40
0.7500000000000038
 40
0.7500000000000038
 40
0.8750000000000019
 40
0.8750000000000019
 40
1.0
 40
1.0
 40
1.0
 40
1.0
 10
215.48353147918
 20
-106.2421355042411
 30
0.0
 10
215.5225722100346
 20
-106.2421355042412
 30
0.0
 10
215.5610909142343
 20
-106.2265989437662
 30
0.0
 10
215.6384976655423
 20
-106.1652805918057
 30
0.0
 10
215.677642083529
 20
-106.118856846219
 30
0.0
 10
215.7547928374442
 20
-105.9989059760648
 30
0.0
 10
215.7931204191852
 20
-105.9253013317813
 30
0.0
 10
215.8706667396618
 20
-105.7505709656857
 30
0.0
 10
215.9096429473304
 20
-105.6497203367842
 30
0.0
 10
216.0251378037755
 20
-105.3184350568001
 30
0.0
 10
216.1030502474456
 20
-105.0507548954164
 30
0.0
 10
216.2185301728464
 20
-104.6180808693609
 30
0.0
 10
216.2573959687114
 20
-104.4665627825098
 30
0.0
 10
216.33517030238
 20
-104.1571370251236
 30
0.0
 10
216.3737800693348
 20
-104.0005146954298
 30
0.0
 10
216.4128208010614
 20
-103.8421355042411
 30
0.0
  0
SPLINE
  5
A6
330
1F
100
AcDbEntity
  8
0
  6
Continuous
 62
     7
370
    25
100
AcDbSpline
210
0.0
220
0.0
230
1.0
 70
     8
 71
     3
 72
    14
 73
    10
 74
     0
 42
0.000000001
 43
0.00000001
 40
0.0
 40
0.0
 40
0.0
 40
0.0
 40
0.25
 40
0.25
 40
0.5
 40
0.5
 40
0.75
 40
0.75
 40
1.0
 40
1.0
 40
1.0
 40
1.0
 10
606.6128208010615
 20
687.357864495759
 30
0.0
 10
606.7450062169204
 20
687.4360659107806
 30
0.0
 10
606.872988235454
 20
687.5117758580776
 30
0.0
 10
607.1156122604013
 20
687.6670562697244
 30
0.0
 10
607.2260545248114
 20
687.7440661193075
 30
0.0
 10
607.4120514220048
 20
687.8994896053349
 30
0.0
 10
607.4858524008431
 20
687.9764393222534
 30
0.0
 10
607.5866709852381
 20
688.1318693015027
 30
0.0
 10
607.6128208010614
 20
688.2089524100753
 30
0.0
 10
607.6128208010614
 20
688.2871538176403
 30
0.0
  0
LINE
  5
A7
330
1F
100
AcDbEntity
  8
0
  6
Continuous
 62
     7
370
    25
100
AcDbLine
 10
609.0128208011
 20
688.2871538176
 30
0.0
 11
607.6128208011
 21
688.2871538176
 31
0.0
  0
SPLINE
  5
A8
330
1F
100
AcDbEntity
  8
0
  6
Continuous
 62
     7
370
    25
100
AcDbSpline
210
0.0
220
0.0
230
1.0
 70
     8
 71
     3
 72
    14
 73
    10
 74
     0
 42
0.000000001
 43
0.00000001
 40
0.0
 40
0.0
 40
0.0
 40
0.0
 40
0.2499999999999999
 40
0.2499999999999999
 40
0.4999999999999999
 40
0.4999999999999999
 40
0.7499999999999998
 40
0.7499999999999998
 40
1.0
 40
1.0
 40
1.0
 40
1.0
 10
216.4128208010615
 20
-103.8421355042411
 30
0.0
 10
216.2806353852025
 20
-103.9203369192628
 30
0.0
 10
216.152653366669
 20
-103.9960468665597
 30
0.0
 10
215.9100293417216
 20
-104.1513272782066
 30
0.0
 10
215.7995870773116
 20
-104.2283371277896
 30
0.0
 10
215.6135901801182
 20
-104.3837606138171
 30
0.0
 10
215.53978920128
 20
-104.4607103307354
 30
0.0
 10
215.4389706168849
 20
-104.6161403099847
 30
0.0
 10
215.4128208010615
 20
-104.6932234185572
 30
0.0
 10
215.4128208010615
 20
-104.7714248261224
 30
0.0
  0
LINE
  5
A9
330
1F
100
AcDbEntity
  8
0
  6
Continuous
 62
     7
370
    25
100
AcDbLine
 10
214.0128208011
 20
-104.7714248261
 30
0.0
 11
215.4128208011
 21
-104.7714248261
 31
0.0
  0
LINE
  5
AA
330
1F
100
AcDbEntity
  8
0
  6
Continuous
 62
     7
370
    25
100
AcDbLine
 10
214.0128208011
 20
688.2871538176
 30
0.0
 11
215.4128208011
 21
688.2871538176
 31
0.0
  0
SPLINE
  5
AB
330
1F
100
AcDbEntity
  8
0
  6
Continuous
 62
     7
370
    25
100
AcDbSpline
210
0.0
220
0.0
230
1.0
 70
     8
 71
     3
 72
    14
 73
    10
 74
     0
 42
0.000000001
 43
0.00000001
 40
0.0
 40
0.0
 40
0.0
 40
0.0
 40
0.25
 40
0.25
 40
0.5
 40
0.5
 40
0.75
 40
0.75
 40
1.0
 40
1.0
 40
1.0
 40
1.0
 10
215.4128208010615
 20
688.2871538176403
 30
0.0
 10
215.4128208010615
 20
688.2089524026186
 30
0.0
 10
215.4383794657418
 20
688.1332424553217
 30
0.0
 10
215.5385074943385
 20
687.9779620436748
 30
0.0
 10
215.6120716736427
 20
687.9009521940917
 30
0.0
 10
215.7976093093345
 20
687.7455287080643
 30
0.0
 10
215.907774230294
 20
687.6685789911459
 30
0.0
 10
216.1503859869834
 20
687.5131490118969
 30
0.0
 10
216.2806353978065
 20
687.436065903324
 30
0.0
 10
216.4128208010615
 20
687.357864495759
 30
0.0
  0
SPLINE
  5
AC
330
1F
100
AcDbEntity
  8
0
  6
Continuous
 62
     7
370
    25
100
AcDbSpline
210
0.0
220
0.0
230
1.0
 70
     8
 71
     3
 72
    20
 73
    16
 74
     0
 42
0.000000001
 43
0.00000001
 40
0.0
 40
0.0
 40
0.0
 40
0.0
 40
0.1249999999999899
 40
0.1249999999999899
 40
0.2499999999999798
 40
0.2499999999999798
 40
0.3749999999999698
 40
0.3749999999999698
 40
0.4999999999999597
 40
0.4999999999999597
 40
0.7499999999999744
 40
0.7499999999999744
 40
0.8749999999999872
 40
0.8749999999999872
 40
1.0
 40
1.0
 40
1.0
 40
1.0
 10
216.4128208010615
 20
687.357864495759
 30
0.0
 10
216.3737800702069
 20
687.5162436834097
 30
0.0
 10
216.3352613660071
 20
687.6724894081016
 30
0.0
 10
216.2578546146992
 20
687.9804812575182
 30
0.0
 10
216.2187101967125
 20
688.1331253649892
 30
0.0
 10
216.1415594427974
 20
688.4222096541763
 30
0.0
 10
216.1032318610563
 20
688.5600141923602
 30
0.0
 10
216.0256855405797
 20
688.8216328679993
 30
0.0
 10
215.9867093329109
 20
688.9443791746819
 30
0.0
 10
215.871214476466
 20
689.2757035516295
 30
0.0
 10
215.7933020327959
 20
689.4547146756577
 30
0.0
 10
215.677822107395
 20
689.6343297750387
 30
0.0
 10
215.63895631153
 20
689.6805741239064
 30
0.0
 10
215.5611819778615
 20
689.7423274299175
 30
0.0
 10
215.5225722109067
 20
689.7578644957589
 30
0.0
 10
215.48353147918
 20
689.7578644957589
 30
0.0
  0
SPLINE
  5
AD
330
1F
100
AcDbEntity
  8
0
  6
Continuous
 62
     7
370
    25
100
AcDbSpline
210
0.0
220
0.0
230
1.0
 70
     8
 71
     3
 72
    14
 73
    10
 74
     0
 42
0.000000001
 43
0.00000001
 40
0.0
 40
0.0
 40
0.0
 40
0.0
 40
0.25
 40
0.25
 40
0.5
 40
0.5
 40
0.75
 40
0.75
 40
1.0
 40
1.0
 40
1.0
 40
1.0
 10
216.4128208010615
 20
687.357864495759
 30
0.0
 10
216.3346193860398
 20
687.4900499116179
 30
0.0
 10
216.2589094387429
 20
687.6180319301515
 30
0.0
 10
216.1036290270959
 20
687.8606559550988
 30
0.0
 10
216.0266191775128
 20
687.9710982195088
 30
0.0
 10
215.8711956914854
 20
688.1570951167022
 30
0.0
 10
215.7942459745669
 20
688.2308960955405
 30
0.0
 10
215.6388159953177
 20
688.3317146799357
 30
0.0
 10
215.5617328867451
 20
688.357864495759
 30
0.0
 10
215.48353147918
 20
688.357864495759
 30
0.0
  0
LINE
  5
AE
330
1F
100
AcDbEntity
  8
0
  6
Continuous
 62
     7
370
    25
100
AcDbLine
 10
215.4835314792
 20
689.7578644958
 30
0.0
 11
215.4835314792
 21
688.3578644958
 31
0.0
  0
LINE
  5
AF
330
1F
100
AcDbEntity
  8
0
  6
Continuous
 62
     7
370
    25
100
AcDbLine
 10
609.0128208011
 20
-104.7714248261
 30
0.0
 11
607.6128208011
 21
-104.7714248261
 31
0.0
  0
SPLINE
  5
B0
330
1F
100
AcDbEntity
  8
0
  6
Continuous
 62
     7
370
    25
100
AcDbSpline
210
0.0
220
0.0
230
1.0
 70
     8
 71
     3
 72
    14
 73
    10
 74
     0
 42
0.000000001
 43
0.00000001
 40
0.0
 40
0.0
 40
0.0
 40
0.0
 40
0.2500000000000002
 40
0.2500000000000002
 40
0.5000000000000001
 40
0.5000000000000001
 40
0.7500000000000001
 40
0.7500000000000001
 40
1.0
 40
1.0
 40
1.0
 40
1.0
 10
607.6128208010614
 20
-104.7714248261225
 30
0.0
 10
607.6128208010615
 20
-104.6932234111009
 30
0.0
 10
607.5872621363811
 20
-104.6175134638039
 30
0.0
 10
607.4871341077844
 20
-104.4622330521571
 30
0.0
 10
607.4135699284801
 20
-104.385223202574
 30
0.0
 10
607.2280322927883
 20
-104.2297997165467
 30
0.0
 10
607.1178673718289
 20
-104.1528499996281
 30
0.0
 10
606.8752556151393
 20
-103.9974200203788
 30
0.0
 10
606.7450062043163
 20
-103.9203369118061
 30
0.0
 10
606.6128208010615
 20
-103.8421355042412
 30
0.0
  0
LINE
  5
B1
330
1F
100
AcDbEntity
  8
0
  6
Continuous
 62
     7
370
    25
100
AcDbLine
 10
607.5421101229
 20
689.7578644958
 30
0.0
 11
215.4835314792
 21
689.7578644958
 31
0.0
  0
SPLINE
  5
B2
330
1F
100
AcDbEntity
  8
0
  6
Continuous
 62
     7
370
    25
100
AcDbSpline
210
0.0
220
0.0
230
1.0
 70
     8
 71
     3
 72
    20
 73
    16
 74
     0
 42
0.000000001
 43
0.00000001
 40
0.0
 40
0.0
 40
0.0
 40
0.0
 40
0.1249999999999982
 40
0.1249999999999982
 40
0.2499999999999963
 40
0.2499999999999963
 40
0.3749999999999943
 40
0.3749999999999943
 40
0.4999999999999924
 40
0.4999999999999924
 40
0.7499999999999937
 40
0.7499999999999937
 40
0.8749999999999969
 40
0.8749999999999969
 40
1.0
 40
1.0
 40
1.0
 40
1.0
 10
607.5421101229427
 20
689.7578644957589
 30
0.0
 10
607.5030693920884
 20
689.7578644957591
 30
0.0
 10
607.4645506878885
 20
689.7423279352842
 30
0.0
 10
607.3871439365806
 20
689.6810095833237
 30
0.0
 10
607.3479995185938
 20
689.6345858377368
 30
0.0
 10
607.2708487646787
 20
689.5146349675827
 30
0.0
 10
607.2325211829377
 20
689.4410303232992
 30
0.0
 10
607.1549748624611
 20
689.2662999572037
 30
0.0
 10
607.1159986547925
 20
689.1654493283022
 30
0.0
 10
607.0005037983474
 20
688.8341640483183
 30
0.0
 10
606.9225913546773
 20
688.5664838869341
 30
0.0
 10
606.8071114292765
 20
688.1338098608787
 30
0.0
 10
606.7682456334113
 20
687.9822917740274
 30
0.0
 10
606.6904712997429
 20
687.6728660166414
 30
0.0
 10
606.6518615327881
 20
687.5162436869477
 30
0.0
 10
606.6128208010615
 20
687.357864495759
 30
0.0
  0
SPLINE
  5
B3
330
1F
100
AcDbEntity
  8
0
  6
Continuous
 62
     7
370
    25
100
AcDbSpline
210
0.0
220
0.0
230
1.0
 70
     8
 71
     3
 72
    14
 73
    10
 74
     0
 42
0.000000001
 43
0.00000001
 40
0.0
 40
0.0
 40
0.0
 40
0.0
 40
0.25
 40
0.25
 40
0.5
 40
0.5
 40
0.75
 40
0.75
 40
1.0
 40
1.0
 40
1.0
 40
1.0
 10
606.6128208010615
 20
-103.8421355042411
 30
0.0
 10
606.6910222160831
 20
-103.9743209201
 30
0.0
 10
606.7667321633801
 20
-104.1023029386335
 30
0.0
 10
606.922012575027
 20
-104.3449269635808
 30
0.0
 10
606.99902242461
 20
-104.4553692279908
 30
0.0
 10
607.1544459106375
 20
-104.6413661251839
 30
0.0
 10
607.2313956275559
 20
-104.7151671040226
 30
0.0
 10
607.3868256068051
 20
-104.8159856884177
 30
0.0
 10
607.4639087153778
 20
-104.8421355042411
 30
0.0
 10
607.5421101229427
 20
-104.8421355042411
 30
0.0
  0
LINE
  5
B4
330
1F
100
AcDbEntity
  8
0
  6
Continuous
 62
     7
370
    25
100
AcDbLine
 10
607.5421101229
 20
-106.2421355042
 30
0.0
 11
607.5421101229
 21
-104.8421355042
 31
0.0
  0
LINE
  5
B5
330
1F
100
AcDbEntity
  8
0
  6
Continuous
 62
     7
370
    25
100
AcDbLine
 10
215.4835314792
 20
-106.2421355042
 30
0.0
 11
215.4835314792
 21
-104.8421355042
 31
0.0
  0
SPLINE
  5
B6
330
1F
100
AcDbEntity
  8
0
  6
Continuous
 62
     7
370
    25
100
AcDbSpline
210
0.0
220
0.0
230
1.0
 70
     8
 71
     3
 72
    14
 73
    10
 74
     0
 42
0.000000001
 43
0.00000001
 40
0.0
 40
0.0
 40
0.0
 40
0.0
 40
0.2500000000000003
 40
0.2500000000000003
 40
0.5000000000000002
 40
0.5000000000000002
 40
0.7500000000000001
 40
0.7500000000000001
 40
1.0
 40
1.0
 40
1.0
 40
1.0
 10
215.48353147918
 20
-104.8421355042411
 30
0.0
 10
215.5617328942017
 20
-104.8421355042412
 30
0.0
 10
215.6374428414986
 20
-104.816576839561
 30
0.0
 10
215.7927232531457
 20
-104.7164488109642
 30
0.0
 10
215.8697331027286
 20
-104.6428846316599
 30
0.0
 10
216.0251565887562
 20
-104.457346995968
 30
0.0
 10
216.1021063056745
 20
-104.3471820750084
 30
0.0
 10
216.2575362849238
 20
-104.1045703183191
 30
0.0
 10
216.3346193934964
 20
-103.9743209074959
 30
0.0
 10
216.4128208010614
 20
-103.8421355042411
 30
0.0
  0
LINE
  5
B7
330
1F
100
AcDbEntity
  8
0
  6
Continuous
 62
     7
370
    25
100
AcDbLine
 10
607.5421101229
 20
689.7578644958
 30
0.0
 11
607.5421101229
 21
688.3578644958
 31
0.0
  0
SPLINE
  5
B8
330
1F
100
AcDbEntity
  8
0
  6
Continuous
 62
     7
370
    25
100
AcDbSpline
210
0.0
220
0.0
230
1.0
 70
     8
 71
     3
 72
    14
 73
    10
 74
     0
 42
0.000000001
 43
0.00000001
 40
0.0
 40
0.0
 40
0.0
 40
0.0
 40
0.2500000000000003
 40
0.2500000000000003
 40
0.5000000000000002
 40
0.5000000000000002
 40
0.7500000000000001
 40
0.7500000000000001
 40
1.0
 40
1.0
 40
1.0
 40
1.0
 10
607.5421101229427
 20
688.357864495759
 30
0.0
 10
607.4639087079212
 20
688.357864495759
 30
0.0
 10
607.3881987606243
 20
688.3323058310791
 30
0.0
 10
607.2329183489773
 20
688.2321778024823
 30
0.0
 10
607.1559084993943
 20
688.1586136231776
 30
0.0
 10
607.0004850133668
 20
687.9730759874857
 30
0.0
 10
606.9235352964482
 20
687.8629110665262
 30
0.0
 10
606.7681053171991
 20
687.6202993098368
 30
0.0
 10
606.6910222086265
 20
687.4900498990138
 30
0.0
 10
606.6128208010615
 20
687.357864495759
 30
0.0
  0
CIRCLE
  5
B9
330
1F
100
AcDbEntity
  8
0
  6
Continuous
 62
     7
370
    25
100
AcDbCircle
 10
270.0128208011
 20
641.7578644958
 30
0.0
 40
5.500000000000071
  0
ARC
  5
BA
330
1F
100
AcDbEntity
  8
0
  6
Continuous
 62
     7
370
    25
100
AcDbCircle
 10
272.1928307027
 20
642.8148006106
 30
0.0
 40
0.5050994627335003
100
AcDbArc
 50
298.8005827702
 51
112.9304972368
  0
ARC
  5
BB
330
1F
100
AcDbEntity
  8
0
  6
Continuous
 62
     7
370
    25
100
AcDbCircle
 10
270.0128208011
 20
641.7578644958
 30
0.0
 40
2.499999999999952
100
AcDbArc
 50
37.506301084
 51
74.2247789229
  0
ARC
  5
BC
330
1F
100
AcDbEntity
  8
0
  6
Continuous
 62
     7
370
    25
100
AcDbCircle
 10
270.1874922262
 20
644.1742765084
 30
0.0
 40
0.5050994627349649
100
AcDbArc
 50
358.800582771
 51
172.930497236
  0
ARC
  5
BD
330
1F
100
AcDbEntity
  8
0
  6
Continuous
 62
     7
370
    25
100
AcDbCircle
 10
270.0128208011
 20
641.7578644958
 30
0.0
 40
2.49999999999995
100
AcDbArc
 50
97.5063010841
 51
134.2247789229
  0
ARC
  5
BE
330
1F
100
AcDbEntity
  8
0
  6
Continuous
 62
     7
370
    25
100
AcDbCircle
 10
268.0074823247
 20
643.1173403936
 30
0.0
 40
0.5050994627351901
100
AcDbArc
 50
58.8005827697
 51
232.9304972372
  0
ARC
  5
BF
330
1F
100
AcDbEntity
  8
0
  6
Continuous
 62
     7
370
    25
100
AcDbCircle
 10
270.0128208011
 20
641.7578644958
 30
0.0
 40
2.499999999999959
100
AcDbArc
 50
157.5063010841
 51
194.2247789229
  0
ARC
  5
C0
330
1F
100
AcDbEntity
  8
0
  6
Continuous
 62
     7
370
    25
100
AcDbCircle
 10
267.8328108995
 20
640.7009283809
 30
0.0
 40
0.5050994627333252
100
AcDbArc
 50
118.8005827707
 51
292.9304972361
  0
ARC
  5
C1
330
1F
100
AcDbEntity
  8
0
  6
Continuous
 62
     7
370
    25
100
AcDbCircle
 10
270.0128208011
 20
641.7578644958
 30
0.0
 40
2.499999999999978
100
AcDbArc
 50
217.506301084
 51
254.2247789229
  0
ARC
  5
C2
330
1F
100
AcDbEntity
  8
0
  6
Continuous
 62
     7
370
    25
100
AcDbCircle
 10
269.8381493759
 20
639.3414524831
 30
0.0
 40
0.50509946273661
100
AcDbArc
 50
178.8005827716
 51
352.9304972355
  0
ARC
  5
C3
330
1F
100
AcDbEntity
  8
0
  6
Continuous
 62
     7
370
    25
100
AcDbCircle
 10
270.0128208011
 20
641.7578644958
 30
0.0
 40
2.499999999999901
100
AcDbArc
 50
277.5063010841
 51
314.2247789229
  0
ARC
  5
C4
330
1F
100
AcDbEntity
  8
0
  6
Continuous
 62
     7
370
    25
100
AcDbCircle
 10
272.0181592775
 20
640.3983885979
 30
0.0
 40
0.5050994627355395
100
AcDbArc
 50
238.8005827701
 51
52.9304972368
  0
ARC
  5
C5
330
1F
100
AcDbEntity
  8
0
  6
Continuous
 62
     7
370
    25
100
AcDbCircle
 10
270.0128208011
 20
641.7578644958
 30
0.0
 40
2.499999999999888
100
AcDbArc
 50
337.5063010841
 51
14.2247789229
  0
CIRCLE
  5
C6
330
1F
100
AcDbEntity
  8
0
  6
Continuous
 62
     7
370
    25
100
AcDbCircle
 10
553.0128208011
 20
641.7578644958
 30
0.0
 40
5.500000000000238
  0
ARC
  5
C7
330
1F
100
AcDbEntity
  8
0
  6
Continuous
 62
     7
370
    25
100
AcDbCircle
 10
553.0128208011
 20
641.7578644958
 30
0.0
 40
2.50000000000002
100
AcDbArc
 50
100.8681863767
 51
137.5866642156
  0
ARC
  5
C8
330
1F
100
AcDbEntity
  8
0
  6
Continuous
 62
     7
370
    25
100
AcDbCircle
 10
550.9312105941
 20
642.997403147
 30
0.0
 40
0.5050994627349373
100
AcDbArc
 50
62.1624680637
 51
236.2923825287
  0
ARC
  5
C9
330
1F
100
AcDbEntity
  8
0
  6
Continuous
 62
     7
370
    25
100
AcDbCircle
 10
553.0128208011
 20
641.7578644958
 30
0.0
 40
2.499999999999959
100
AcDbArc
 50
160.8681863768
 51
197.5866642156
  0
ARC
  5
CA
330
1F
100
AcDbEntity
  8
0
  6
Continuous
 62
     7
370
    25
100
AcDbCircle
 10
550.8985437366
 20
640.5749065014
 30
0.0
 40
0.5050994627351878
100
AcDbArc
 50
122.1624680624
 51
296.2923825299
  0
ARC
  5
CB
330
1F
100
AcDbEntity
  8
0
  6
Continuous
 62
     7
370
    25
100
AcDbCircle
 10
553.0128208011
 20
641.7578644958
 30
0.0
 40
2.499999999999949
100
AcDbArc
 50
220.8681863768
 51
257.5866642156
  0
ARC
  5
CC
330
1F
100
AcDbEntity
  8
0
  6
Continuous
 62
     7
370
    25
100
AcDbCircle
 10
552.9801539436
 20
639.3353678501
 30
0.0
 40
0.5050994627333301
100
AcDbArc
 50
182.1624680634
 51
356.2923825288
  0
ARC
  5
CD
330
1F
100
AcDbEntity
  8
0
  6
Continuous
 62
     7
370
    25
100
AcDbCircle
 10
553.0128208011
 20
641.7578644958
 30
0.0
 40
2.499999999999913
100
AcDbArc
 50
280.8681863767
 51
317.5866642156
  0
ARC
  5
CE
330
1F
100
AcDbEntity
  8
0
  6
Continuous
 62
     7
370
    25
100
AcDbCircle
 10
555.094431008
 20
640.5183258445
 30
0.0
 40
0.505099462736639
100
AcDbArc
 50
242.1624680643
 51
56.2923825281
  0
ARC
  5
CF
330
1F
100
AcDbEntity
  8
0
  6
Continuous
 62
     7
370
    25
100
AcDbCircle
 10
553.0128208011
 20
641.7578644958
 30
0.0
 40
2.499999999999998
100
AcDbArc
 50
340.8681863768
 51
17.5866642156
  0
ARC
  5
D0
330
1F
100
AcDbEntity
  8
0
  6
Continuous
 62
     7
370
    25
100
AcDbCircle
 10
555.1270978655
 20
642.9408224901
 30
0.0
 40
0.5050994627356112
100
AcDbArc
 50
302.1624680628
 51
116.2923825295
  0
ARC
  5
D1
330
1F
100
AcDbEntity
  8
0
  6
Continuous
 62
     7
370
    25
100
AcDbCircle
 10
553.0128208011
 20
641.7578644958
 30
0.0
 40
2.500000000000041
100
AcDbArc
 50
40.8681863768
 51
77.5866642156
  0
ARC
  5
D2
330
1F
100
AcDbEntity
  8
0
  6
Continuous
 62
     7
370
    25
100
AcDbCircle
 10
553.0454876586
 20
644.1803611414
 30
0.0
 40
0.5050994627336001
100
AcDbArc
 50
2.1624680629
 51
176.2923825295
  0
CIRCLE
  5
D3
330
1F
100
AcDbEntity
  8
0
  6
Continuous
 62
     7
370
    25
100
AcDbCircle
 10
553.0128208011
 20
291.7578644958
 30
0.0
 40
5.500000000000135
  0
ARC
  5
D4
330
1F
100
AcDbEntity
  8
0
  6
Continuous
 62
     7
370
    25
100
AcDbCircle
 10
554.9540513956
 20
290.308319429
 30
0.0
 40
0.5050994627351817
100
AcDbArc
 50
236.1858115763
 51
50.3157260438
  0
ARC
  5
D5
330
1F
100
AcDbEntity
  8
0
  6
Continuous
 62
     7
370
    25
100
AcDbCircle
 10
553.0128208011
 20
291.7578644958
 30
0.0
 40
2.499999999999936
100
AcDbArc
 50
334.8915298906
 51
11.6100077295
  0
ARC
  5
D6
330
1F
100
AcDbEntity
  8
0
  6
Continuous
 62
     7
370
    25
100
AcDbCircle
 10
555.2387789501
 20
292.7142469718
 30
0.0
 40
0.505099462733322
100
AcDbArc
 50
296.1858115773
 51
110.3157260427
  0
ARC
  5
D7
330
1F
100
AcDbEntity
  8
0
  6
Continuous
 62
     7
370
    25
100
AcDbCircle
 10
551.0715902065
 20
293.2074095626
 30
0.0
 40
0.5050994627355092
100
AcDbArc
 50
56.1858115767
 51
230.3157260434
  0
ARC
  5
D8
330
1F
100
AcDbEntity
  8
0
  6
Continuous
 62
     7
370
    25
100
AcDbCircle
 10
553.0128208011
 20
291.7578644958
 30
0.0
 40
2.499999999999927
100
AcDbArc
 50
34.8915298906
 51
71.6100077295
  0
ARC
  5
D9
330
1F
100
AcDbEntity
  8
0
  6
Continuous
 62
     7
370
    25
100
AcDbCircle
 10
553.0128208011
 20
291.7578644958
 30
0.0
 40
2.499999999999984
100
AcDbArc
 50
274.8915298907
 51
311.6100077294
  0
ARC
  5
DA
330
1F
100
AcDbEntity
  8
0
  6
Continuous
 62
     7
370
    25
100
AcDbCircle
 10
553.0128208011
 20
291.7578644958
 30
0.0
 40
2.499999999999994
100
AcDbArc
 50
94.8915298907
 51
131.6100077294
  0
ARC
  5
DB
330
1F
100
AcDbEntity
  8
0
  6
Continuous
 62
     7
370
    25
100
AcDbCircle
 10
552.7280932466
 20
289.3519369529
 30
0.0
 40
0.5050994627350468
100
AcDbArc
 50
176.1858115776
 51
350.3157260426
  0
ARC
  5
DC
330
1F
100
AcDbEntity
  8
0
  6
Continuous
 62
     7
370
    25
100
AcDbCircle
 10
553.0128208011
 20
291.7578644958
 30
0.0
 40
2.500000000000037
100
AcDbArc
 50
214.8915298906
 51
251.6100077295
  0
ARC
  5
DD
330
1F
100
AcDbEntity
  8
0
  6
Continuous
 62
     7
370
    25
100
AcDbCircle
 10
553.2975483556
 20
294.1637920386
 30
0.0
 40
0.5050994627366275
100
AcDbArc
 50
356.1858115782
 51
170.315726042
  0
ARC
  5
DE
330
1F
100
AcDbEntity
  8
0
  6
Continuous
 62
     7
370
    25
100
AcDbCircle
 10
553.0128208011
 20
291.7578644958
 30
0.0
 40
2.500000000000062
100
AcDbArc
 50
154.8915298906
 51
191.6100077295
  0
ARC
  5
DF
330
1F
100
AcDbEntity
  8
0
  6
Continuous
 62
     7
370
    25
100
AcDbCircle
 10
550.786862652
 20
290.8014820197
 30
0.0
 40
0.5050994627335078
100
AcDbArc
 50
116.1858115768
 51
290.3157260433
  0
CIRCLE
  5
E0
330
1F
100
AcDbEntity
  8
0
  6
Continuous
 62
     7
370
    25
100
AcDbCircle
 10
270.0128208011
 20
291.7578644958
 30
0.0
 40
5.500000000000071
  0
ARC
  5
E1
330
1F
100
AcDbEntity
  8
0
  6
Continuous
 62
     7
370
    25
100
AcDbCircle
 10
272.1928307027
 20
292.8148006106
 30
0.0
 40
0.5050994627335003
100
AcDbArc
 50
298.8005827702
 51
112.9304972368
  0
ARC
  5
E2
330
1F
100
AcDbEntity
  8
0
  6
Continuous
 62
     7
370
    25
100
AcDbCircle
 10
270.0128208011
 20
291.7578644958
 30
0.0
 40
2.499999999999924
100
AcDbArc
 50
37.506301084
 51
74.2247789229
  0
ARC
  5
E3
330
1F
100
AcDbEntity
  8
0
  6
Continuous
 62
     7
370
    25
100
AcDbCircle
 10
270.1874922262
 20
294.1742765084
 30
0.0
 40
0.5050994627349636
100
AcDbArc
 50
358.800582771
 51
172.930497236
  0
ARC
  5
E4
330
1F
100
AcDbEntity
  8
0
  6
Continuous
 62
     7
370
    25
100
AcDbCircle
 10
270.0128208011
 20
291.7578644958
 30
0.0
 40
2.499999999999938
100
AcDbArc
 50
97.5063010841
 51
134.2247789229
  0
ARC
  5
E5
330
1F
100
AcDbEntity
  8
0
  6
Continuous
 62
     7
370
    25
100
AcDbCircle
 10
268.0074823247
 20
293.1173403936
 30
0.0
 40
0.5050994627351901
100
AcDbArc
 50
58.8005827697
 51
232.9304972372
  0
ARC
  5
E6
330
1F
100
AcDbEntity
  8
0
  6
Continuous
 62
     7
370
    25
100
AcDbCircle
 10
270.0128208011
 20
291.7578644958
 30
0.0
 40
2.499999999999955
100
AcDbArc
 50
157.5063010841
 51
194.2247789229
  0
ARC
  5
E7
330
1F
100
AcDbEntity
  8
0
  6
Continuous
 62
     7
370
    25
100
AcDbCircle
 10
267.8328108995
 20
290.7009283809
 30
0.0
 40
0.5050994627332872
100
AcDbArc
 50
118.8005827707
 51
292.9304972361
  0
ARC
  5
E8
330
1F
100
AcDbEntity
  8
0
  6
Continuous
 62
     7
370
    25
100
AcDbCircle
 10
270.0128208011
 20
291.7578644958
 30
0.0
 40
2.500000000000032
100
AcDbArc
 50
217.506301084
 51
254.2247789229
  0
ARC
  5
E9
330
1F
100
AcDbEntity
  8
0
  6
Continuous
 62
     7
370
    25
100
AcDbCircle
 10
269.8381493759
 20
289.3414524831
 30
0.0
 40
0.5050994627366175
100
AcDbArc
 50
178.8005827716
 51
352.9304972354
  0
ARC
  5
EA
330
1F
100
AcDbEntity
  8
0
  6
Continuous
 62
     7
370
    25
100
AcDbCircle
 10
270.0128208011
 20
291.7578644958
 30
0.0
 40
2.499999999999942
100
AcDbArc
 50
277.5063010841
 51
314.2247789229
  0
ARC
  5
EB
330
1F
100
AcDbEntity
  8
0
  6
Continuous
 62
     7
370
    25
100
AcDbCircle
 10
272.0181592775
 20
290.3983885979
 30
0.0
 40
0.5050994627354977
100
AcDbArc
 50
238.8005827701
 51
52.9304972368
  0
ARC
  5
EC
330
1F
100
AcDbEntity
  8
0
  6
Continuous
 62
     7
370
    25
100
AcDbCircle
 10
270.0128208011
 20
291.7578644958
 30
0.0
 40
2.499999999999916
100
AcDbArc
 50
337.5063010841
 51
14.2247789229
  0
ARC
  5
ED
330
1F
100
AcDbEntity
  8
0
  6
Continuous
 62
     7
370
    25
100
AcDbCircle
 10
267.677507306
 20
-58.8870137886
 30
0.0
 40
0.505099462733501
100
AcDbArc
 50
108.3721109518
 51
282.5020254184
  0
ARC
  5
EE
330
1F
100
AcDbEntity
  8
0
  6
Continuous
 62
     7
370
    25
100
AcDbCircle
 10
270.0128208011
 20
-58.2421355042
 30
0.0
 40
2.499999999999967
100
AcDbArc
 50
207.0778292656
 51
243.7963071045
  0
ARC
  5
EF
330
1F
100
AcDbEntity
  8
0
  6
Continuous
 62
     7
370
    25
100
AcDbCircle
 10
269.4036450301
 20
-60.5870154589
 30
0.0
 40
0.5050994627349552
100
AcDbArc
 50
168.3721109526
 51
342.5020254176
  0
ARC
  5
F0
330
1F
100
AcDbEntity
  8
0
  6
Continuous
 62
     7
370
    25
100
AcDbCircle
 10
270.0128208011
 20
-58.2421355042
 30
0.0
 40
2.499999999999968
100
AcDbArc
 50
267.0778292657
 51
303.7963071045
  0
ARC
  5
F1
330
1F
100
AcDbEntity
  8
0
  6
Continuous
 62
     7
370
    25
100
AcDbCircle
 10
271.7389585252
 20
-59.9421371746
 30
0.0
 40
0.5050994627351675
100
AcDbArc
 50
228.3721109513
 51
42.5020254188
  0
ARC
  5
F2
330
1F
100
AcDbEntity
  8
0
  6
Continuous
 62
     7
370
    25
100
AcDbCircle
 10
270.0128208011
 20
-58.2421355042
 30
0.0
 40
2.499999999999988
100
AcDbArc
 50
327.0778292657
 51
3.7963071045
  0
ARC
  5
F3
330
1F
100
AcDbEntity
  8
0
  6
Continuous
 62
     7
370
    25
100
AcDbCircle
 10
272.3481342961
 20
-57.5972572199
 30
0.0
 40
0.5050994627332824
100
AcDbArc
 50
288.3721109524
 51
102.5020254178
  0
ARC
  5
F4
330
1F
100
AcDbEntity
  8
0
  6
Continuous
 62
     7
370
    25
100
AcDbCircle
 10
270.0128208011
 20
-58.2421355042
 30
0.0
 40
2.499999999999994
100
AcDbArc
 50
27.0778292656
 51
63.7963071045
  0
ARC
  5
F5
330
1F
100
AcDbEntity
  8
0
  6
Continuous
 62
     7
370
    25
100
AcDbCircle
 10
270.621996572
 20
-55.8972555496
 30
0.0
 40
0.5050994627365942
100
AcDbArc
 50
348.3721109532
 51
162.5020254171
  0
ARC
  5
F6
330
1F
100
AcDbEntity
  8
0
  6
Continuous
 62
     7
370
    25
100
AcDbCircle
 10
270.0128208011
 20
-58.2421355042
 30
0.0
 40
2.499999999999989
100
AcDbArc
 50
87.0778292658
 51
123.7963071045
  0
ARC
  5
F7
330
1F
100
AcDbEntity
  8
0
  6
Continuous
 62
     7
370
    25
100
AcDbCircle
 10
268.2866830769
 20
-56.5421338339
 30
0.0
 40
0.50509946273551
100
AcDbArc
 50
48.3721109517
 51
222.5020254184
  0
ARC
  5
F8
330
1F
100
AcDbEntity
  8
0
  6
Continuous
 62
     7
370
    25
100
AcDbCircle
 10
270.0128208011
 20
-58.2421355042
 30
0.0
 40
2.499999999999927
100
AcDbArc
 50
147.0778292657
 51
183.7963071045
  0
CIRCLE
  5
F9
330
1F
100
AcDbEntity
  8
0
  6
Continuous
 62
     7
370
    25
100
AcDbCircle
 10
270.0128208011
 20
-58.2421355042
 30
0.0
 40
5.500000000000078
  0
CIRCLE
  5
FA
330
1F
100
AcDbEntity
  8
0
  6
Continuous
 62
     7
370
    25
100
AcDbCircle
 10
553.0128208011
 20
-58.2421355042
 30
0.0
 40
5.500000000000122
  0
ARC
  5
FB
330
1F
100
AcDbEntity
  8
0
  6
Continuous
 62
     7
370
    25
100
AcDbCircle
 10
553.576478183
 20
-60.5983713748
 30
0.0
 40
0.5050994627334954
100
AcDbArc
 50
196.3884805024
 51
10.518394969
  0
ARC
  5
FC
330
1F
100
AcDbEntity
  8
0
  6
Continuous
 62
     7
370
    25
100
AcDbCircle
 10
553.0128208011
 20
-58.2421355042
 30
0.0
 40
2.499999999999944
100
AcDbArc
 50
295.0941988163
 51
331.8126766552
  0
ARC
  5
FD
330
1F
100
AcDbEntity
  8
0
  6
Continuous
 62
     7
370
    25
100
AcDbCircle
 10
555.3352096132
 20
-58.9321118278
 30
0.0
 40
0.5050994627349972
100
AcDbArc
 50
256.3884805032
 51
70.5183949683
  0
ARC
  5
FE
330
1F
100
AcDbEntity
  8
0
  6
Continuous
 62
     7
370
    25
100
AcDbCircle
 10
553.0128208011
 20
-58.2421355042
 30
0.0
 40
2.499999999999897
100
AcDbArc
 50
355.0941988163
 51
31.8126766551
  0
ARC
  5
FF
330
1F
100
AcDbEntity
  8
0
  6
Continuous
 62
     7
370
    25
100
AcDbCircle
 10
554.7715522313
 20
-56.5758759572
 30
0.0
 40
0.5050994627351826
100
AcDbArc
 50
316.388480502
 51
130.5183949694
  0
ARC
  5
100
330
1F
100
AcDbEntity
  8
0
  6
Continuous
 62
     7
370
    25
100
AcDbCircle
 10
553.0128208011
 20
-58.2421355042
 30
0.0
 40
2.499999999999929
100
AcDbArc
 50
55.0941988163
 51
91.8126766551
  0
ARC
  5
101
330
1F
100
AcDbEntity
  8
0
  6
Continuous
 62
     7
370
    25
100
AcDbCircle
 10
552.4491634192
 20
-55.8858996337
 30
0.0
 40
0.5050994627332842
100
AcDbArc
 50
16.388480503
 51
190.5183949684
  0
ARC
  5
102
330
1F
100
AcDbEntity
  8
0
  6
Continuous
 62
     7
370
    25
100
AcDbCircle
 10
553.0128208011
 20
-58.2421355042
 30
0.0
 40
2.49999999999997
100
AcDbArc
 50
115.0941988162
 51
151.8126766551
  0
ARC
  5
103
330
1F
100
AcDbEntity
  8
0
  6
Continuous
 62
     7
370
    25
100
AcDbCircle
 10
550.6904319889
 20
-57.5521591807
 30
0.0
 40
0.5050994627366453
100
AcDbArc
 50
76.3884805038
 51
250.5183949677
  0
ARC
  5
104
330
1F
100
AcDbEntity
  8
0
  6
Continuous
 62
     7
370
    25
100
AcDbCircle
 10
553.0128208011
 20
-58.2421355042
 30
0.0
 40
2.5
100
AcDbArc
 50
175.0941988164
 51
211.8126766551
  0
ARC
  5
105
330
1F
100
AcDbEntity
  8
0
  6
Continuous
 62
     7
370
    25
100
AcDbCircle
 10
551.2540893708
 20
-59.9083950513
 30
0.0
 40
0.5050994627355466
100
AcDbArc
 50
136.3884805023
 51
310.5183949691
  0
ARC
  5
106
330
1F
100
AcDbEntity
  8
0
  6
Continuous
 62
     7
370
    25
100
AcDbCircle
 10
553.0128208011
 20
-58.2421355042
 30
0.0
 40
2.499999999999961
100
AcDbArc
 50
235.0941988163
 51
271.8126766551
  0
LINE
  5
107
330
1F
100
AcDbEntity
  8
0
  6
Continuous
 62
     7
370
    25
100
AcDbLine
 10
258.5128208011
 20
724.2578644958
 30
0.0
 11
259.3128208011
 21
724.2578644958
 31
0.0
  0
LINE
  5
108
330
1F
100
AcDbEntity
  8
0
  6
Continuous
 62
     7
370
    25
100
AcDbLine
 10
258.5128208011
 20
721.2578644958
 30
0.0
 11
258.5128208011
 21
724.2578644958
 31
0.0
  0
LINE
  5
109
330
1F
100
AcDbEntity
  8
0
  6
Continuous
 62
     7
370
    25
100
AcDbLine
 10
259.3128208011
 20
724.2578644958
 30
0.0
 11
259.3128208011
 21
721.2578644958
 31
0.0
  0
LINE
  5
10A
330
1F
100
AcDbEntity
  8
0
  6
Continuous
 62
     7
370
    25
100
AcDbLine
 10
258.5128208011
 20
704.2578644958
 30
0.0
 11
258.5128208011
 21
721.2578644958
 31
0.0
  0
LINE
  5
10B
330
1F
100
AcDbEntity
  8
0
  6
Continuous
 62
     7
370
    25
100
AcDbLine
 10
258.5128208011
 20
704.2578644958
 30
0.0
 11
259.3128208011
 21
704.2578644958
 31
0.0
  0
LINE
  5
10C
330
1F
100
AcDbEntity
  8
0
  6
Continuous
 62
     7
370
    25
100
AcDbLine
 10
259.3128208011
 20
704.2578644958
 30
0.0
 11
259.3128208011
 21
721.2578644958
 31
0.0
  0
LINE
  5
10D
330
1F
100
AcDbEntity
  8
0
  6
Continuous
 62
     7
370
    25
100
AcDbLine
 10
564.5128208011
 20
721.2578644958
 30
0.0
 11
564.5128208011
 21
704.2578644958
 31
0.0
  0
LINE
  5
10E
330
1F
100
AcDbEntity
  8
0
  6
Continuous
 62
     7
370
    25
100
AcDbLine
 10
563.7128208011
 20
721.2578644958
 30
0.0
 11
563.7128208011
 21
704.2578644958
 31
0.0
  0
LINE
  5
10F
330
1F
100
AcDbEntity
  8
0
  6
Continuous
 62
     7
370
    25
100
AcDbLine
 10
564.5128208011
 20
704.2578644958
 30
0.0
 11
563.7128208011
 21
704.2578644958
 31
0.0
  0
LINE
  5
110
330
1F
100
AcDbEntity
  8
0
  6
Continuous
 62
     7
370
    25
100
AcDbLine
 10
563.7128208011
 20
724.2578644958
 30
0.0
 11
564.5128208011
 21
724.2578644958
 31
0.0
  0
LINE
  5
111
330
1F
100
AcDbEntity
  8
0
  6
Continuous
 62
     7
370
    25
100
AcDbLine
 10
564.5128208011
 20
724.2578644958
 30
0.0
 11
564.5128208011
 21
721.2578644958
 31
0.0
  0
LINE
  5
112
330
1F
100
AcDbEntity
  8
0
  6
Continuous
 62
     7
370
    25
100
AcDbLine
 10
563.7128208011
 20
721.2578644958
 30
0.0
 11
563.7128208011
 21
724.2578644958
 31
0.0
  0
LINE
  5
113
330
1F
100
AcDbEntity
  8
0
  6
Continuous
 62
     7
370
    25
100
AcDbLine
 10
258.5128208011
 20
689.7578644958
 30
0.0
 11
258.5128208011
 21
704.2578644958
 31
0.0
  0
LINE
  5
114
330
1F
100
AcDbEntity
  8
0
  6
Continuous
 62
     7
370
    25
100
AcDbLine
 10
259.3128208011
 20
689.7578644958
 30
0.0
 11
259.3128208011
 21
701.0578644958
 31
0.0
  0
LINE
  5
115
330
1F
100
AcDbEntity
  8
0
  6
Continuous
 62
     7
370
    25
100
AcDbLine
 10
259.3128208011
 20
702.7578644958
 30
0.0
 11
259.3128208011
 21
704.2578644958
 31
0.0
  0
LINE
  5
116
330
1F
100
AcDbEntity
  8
0
  6
Continuous
 62
     7
370
    25
100
AcDbLine
 10
564.5128208011
 20
704.2578644958
 30
0.0
 11
564.5128208011
 21
689.7578644958
 31
0.0
  0
LINE
  5
117
330
1F
100
AcDbEntity
  8
0
  6
Continuous
 62
     7
370
    25
100
AcDbLine
 10
563.7128208011
 20
704.2578644958
 30
0.0
 11
563.7128208011
 21
702.7578644958
 31
0.0
  0
LINE
  5
118
330
1F
100
AcDbEntity
  8
0
  6
Continuous
 62
     7
370
    25
100
AcDbLine
 10
563.7128208011
 20
701.0578644958
 30
0.0
 11
563.7128208011
 21
689.7578644958
 31
0.0
  0
LINE
  5
119
330
1F
100
AcDbEntity
  8
0
  6
Continuous
 62
     7
370
    25
100
AcDbLine
 10
573.1715708011
 20
689.7578644958
 30
0.0
 11
573.1715708011
 21
695.7578644958
 31
0.0
  0
LINE
  5
11A
330
1F
100
AcDbEntity
  8
0
  6
Continuous
 62
     7
370
    25
100
AcDbLine
 10
573.7128208011
 20
690.8734715801
 30
0.0
 11
573.7128208011
 21
695.2166144958
 31
0.0
  0
LINE
  5
11B
330
1F
100
AcDbEntity
  8
0
  6
Continuous
 62
     7
370
    25
100
AcDbLine
 10
573.7128208011
 20
690.2991144957
 30
0.0
 11
573.7128208011
 21
690.8734715801
 31
0.0
  0
LINE
  5
11C
330
1F
100
AcDbEntity
  8
0
  6
Continuous
 62
     7
370
    25
100
AcDbLine
 10
259.0918905685
 20
702.7578644958
 30
0.0
 11
563.9337510336
 21
702.7578644958
 31
0.0
  0
LINE
  5
11D
330
1F
100
AcDbEntity
  8
0
  6
Continuous
 62
     7
370
    25
100
AcDbLine
 10
259.0918905685
 20
701.0578644958
 30
0.0
 11
563.9337510336
 21
701.0578644958
 31
0.0
  0
ELLIPSE
  5
11E
330
1F
100
AcDbEntity
  8
0
  6
Continuous
 62
     7
370
    25
100
AcDbEllipse
 10
563.9337510336
 20
701.9078644958
 30
0.0
 11
0.0
 21
0.8500000000000227
 31
0.0
210
0.0
220
0.0
230
1.0
 40
0.0930232558
 41
3.141592653591382
 42
6.283185307179586
  0
ELLIPSE
  5
11F
330
1F
100
AcDbEntity
  8
0
  6
Continuous
 62
     7
370
    25
100
AcDbEllipse
 10
259.0918905685
 20
701.9078644958
 30
0.0
 11
0.0
 21
0.8500000000000227
 31
0.0
210
0.0
220
0.0
230
1.0
 40
0.0930232558
 41
0.0
 42
3.141592653589076
  0
LINE
  5
120
330
1F
100
AcDbEntity
  8
0
  6
Continuous
 62
     7
370
    25
100
AcDbLine
 10
260.0128208011
 20
701.0578644958
 30
0.0
 11
260.0128208011
 21
700.9578644958
 31
0.0
  0
LINE
  5
121
330
1F
100
AcDbEntity
  8
0
  6
Continuous
 62
     7
370
    25
100
AcDbLine
 10
563.0128208011
 20
700.9578644958
 30
0.0
 11
563.0128208011
 21
701.0578644958
 31
0.0
  0
LINE
  5
122
330
1F
100
AcDbEntity
  8
0
  6
Continuous
 62
     7
370
    25
100
AcDbLine
 10
260.0128208011
 20
700.9578644958
 30
0.0
 11
260.0128208011
 21
689.7578644958
 31
0.0
  0
LINE
  5
123
330
1F
100
AcDbEntity
  8
0
  6
Continuous
 62
     7
370
    25
100
AcDbLine
 10
563.0128208011
 20
689.7578644958
 30
0.0
 11
563.0128208011
 21
700.9578644958
 31
0.0
  0
LINE
  5
124
330
1F
100
AcDbEntity
  8
0
  6
Continuous
 62
     7
370
    25
100
AcDbLine
 10
249.3128208011
 20
695.2166144958
 30
0.0
 11
249.3128208011
 21
690.2991144957
 31
0.0
  0
LINE
  5
125
330
1F
100
AcDbEntity
  8
0
  6
Continuous
 62
     7
370
    25
100
AcDbLine
 10
249.8540708011
 20
694.054230342
 30
0.0
 11
249.8540708011
 21
689.7578644958
 31
0.0
  0
LINE
  5
126
330
1F
100
AcDbEntity
  8
0
  6
Continuous
 62
     7
370
    25
100
AcDbLine
 10
249.8540708011
 20
695.7578644958
 30
0.0
 11
249.8540708011
 21
694.054230342
 31
0.0
  0
ARC
  5
127
330
1F
100
AcDbEntity
  8
0
  6
Continuous
 62
     7
370
    25
100
AcDbCircle
 10
552.8382871161
 20
694.3340785064
 30
0.0
 40
12.03669752936008
100
AcDbArc
 50
186.2565722694
 51
191.9710500657
  0
LINE
  5
128
330
1F
100
AcDbEntity
  8
0
  6
Continuous
 62
     7
370
    25
100
AcDbLine
 10
541.0633573322
 20
691.8374575907
 30
0.0
 11
542.5154330561
 21
692.0704014559
 31
0.0
  0
ARC
  5
129
330
1F
100
AcDbEntity
  8
0
  6
Continuous
 62
     7
370
    25
100
AcDbCircle
 10
541.4366067904
 20
702.5833308107
 30
0.0
 40
12.03669752925809
100
AcDbArc
 50
276.2565722693
 51
281.9710500657
  0
LINE
  5
12A
330
1F
100
AcDbEntity
  8
0
  6
Continuous
 62
     7
370
    25
100
AcDbLine
 10
543.7002838409
 20
692.2604767508
 30
0.0
 11
543.9332277061
 21
690.8084010269
 31
0.0
  0
LINE
  5
12B
330
1F
100
AcDbEntity
  8
0
  6
Continuous
 62
     7
370
    25
100
AcDbLine
 10
543.7002838409
 20
692.2604767508
 30
0.0
 11
545.1523595649
 21
692.493420616
 31
0.0
  0
ARC
  5
12C
330
1F
100
AcDbEntity
  8
0
  6
Continuous
 62
     7
370
    25
100
AcDbCircle
 10
533.187354486
 20
691.1816504851
 30
0.0
 40
12.03669752936942
100
AcDbArc
 50
6.2565722694
 51
11.9710500657
  0
LINE
  5
12D
330
1F
100
AcDbEntity
  8
0
  6
Continuous
 62
     7
370
    25
100
AcDbLine
 10
543.2772646808
 20
694.8974032596
 30
0.0
 11
543.510208546
 21
693.4453275356
 31
0.0
  0
ARC
  5
12E
330
1F
100
AcDbEntity
  8
0
  6
Continuous
 62
     7
370
    25
100
AcDbCircle
 10
544.5890348117
 20
682.9323981807
 30
0.0
 40
12.03669752939826
100
AcDbArc
 50
96.2565722694
 51
101.9710500657
  0
ARC
  5
12F
330
1F
100
AcDbEntity
  8
0
  6
Continuous
 62
     7
370
    25
100
AcDbCircle
 10
543.0128208011
 20
692.7578644958
 30
0.0
 40
4.000000000000086
100
AcDbArc
 50
311.4096221093
 51
99.1138111675
  0
ARC
  5
130
330
1F
100
AcDbEntity
  8
0
  6
Continuous
 62
     7
370
    25
100
AcDbCircle
 10
543.0128208011
 20
692.7578644958
 30
0.0
 40
4.000000000000162
100
AcDbArc
 50
99.1138111675
 51
228.5903778907
  0
LINE
  5
131
330
1F
100
AcDbEntity
  8
0
  6
Continuous
 62
     7
370
    25
100
AcDbLine
 10
542.092413896
 20
694.7073279646
 30
0.0
 11
542.3253577612
 21
693.2552522407
 31
0.0
  0
LINE
  5
132
330
1F
100
AcDbEntity
  8
0
  6
Continuous
 62
     7
370
    25
100
AcDbLine
 10
542.5154330561
 20
692.0704014559
 30
0.0
 11
542.7483769213
 21
690.618325732
 31
0.0
  0
LINE
  5
133
330
1F
100
AcDbEntity
  8
0
  6
Continuous
 62
     7
370
    25
100
AcDbLine
 10
543.510208546
 20
693.4453275356
 30
0.0
 11
544.9622842699
 21
693.6782714008
 31
0.0
  0
LINE
  5
134
330
1F
100
AcDbEntity
  8
0
  6
Continuous
 62
     7
370
    25
100
AcDbLine
 10
540.8732820373
 20
693.0223083755
 30
0.0
 11
542.3253577612
 21
693.2552522407
 31
0.0
  0
LINE
  5
135
330
1F
100
AcDbEntity
  8
0
  6
Continuous
 62
     7
370
    25
100
AcDbLine
 10
543.6583148941
 20
693.4690869475
 30
0.0
 11
543.848390189
 21
692.2842361627
 31
0.0
  0
LINE
  5
136
330
1F
100
AcDbEntity
  8
0
  6
Continuous
 62
     7
370
    25
100
AcDbLine
 10
543.7240432528
 20
692.1123704027
 30
0.0
 11
542.539192468
 21
691.9222951078
 31
0.0
  0
LINE
  5
137
330
1F
100
AcDbEntity
  8
0
  6
Continuous
 62
     7
370
    25
100
AcDbLine
 10
543.4864491341
 20
693.5934338837
 30
0.0
 11
542.3015983493
 21
693.4033585888
 31
0.0
  0
LINE
  5
138
330
1F
100
AcDbEntity
  8
0
  6
Continuous
 62
     7
370
    25
100
AcDbLine
 10
542.1772514131
 20
693.2314928288
 30
0.0
 11
542.367326708
 21
692.046642044
 31
0.0
  0
ARC
  5
139
330
1F
100
AcDbEntity
  8
0
  6
Continuous
 62
     7
370
    25
100
AcDbCircle
 10
420.8382871161
 20
694.3340785064
 30
0.0
 40
12.03669752932673
100
AcDbArc
 50
186.2565722693
 51
191.9710500657
  0
ARC
  5
13A
330
1F
100
AcDbEntity
  8
0
  6
Continuous
 62
     7
370
    25
100
AcDbCircle
 10
409.4366067904
 20
702.5833308107
 30
0.0
 40
12.03669752925591
100
AcDbArc
 50
276.2565722693
 51
281.9710500657
  0
LINE
  5
13B
330
1F
100
AcDbEntity
  8
0
  6
Continuous
 62
     7
370
    25
100
AcDbLine
 10
411.7002838409
 20
692.2604767508
 30
0.0
 11
413.1523595649
 21
692.493420616
 31
0.0
  0
ARC
  5
13C
330
1F
100
AcDbEntity
  8
0
  6
Continuous
 62
     7
370
    25
100
AcDbCircle
 10
401.187354486
 20
691.1816504851
 30
0.0
 40
12.03669752936451
100
AcDbArc
 50
6.2565722694
 51
11.9710500657
  0
LINE
  5
13D
330
1F
100
AcDbEntity
  8
0
  6
Continuous
 62
     7
370
    25
100
AcDbLine
 10
411.2772646808
 20
694.8974032596
 30
0.0
 11
411.510208546
 21
693.4453275356
 31
0.0
  0
ARC
  5
13E
330
1F
100
AcDbEntity
  8
0
  6
Continuous
 62
     7
370
    25
100
AcDbCircle
 10
412.5890348117
 20
682.9323981807
 30
0.0
 40
12.03669752939874
100
AcDbArc
 50
96.2565722694
 51
101.9710500657
  0
ARC
  5
13F
330
1F
100
AcDbEntity
  8
0
  6
Continuous
 62
     7
370
    25
100
AcDbCircle
 10
411.0128208011
 20
692.7578644958
 30
0.0
 40
4.000000000000086
100
AcDbArc
 50
311.4096221093
 51
99.1138111675
  0
ARC
  5
140
330
1F
100
AcDbEntity
  8
0
  6
Continuous
 62
     7
370
    25
100
AcDbCircle
 10
411.0128208011
 20
692.7578644958
 30
0.0
 40
4.000000000000134
100
AcDbArc
 50
99.1138111675
 51
228.5903778907
  0
LINE
  5
141
330
1F
100
AcDbEntity
  8
0
  6
Continuous
 62
     7
370
    25
100
AcDbLine
 10
411.510208546
 20
693.4453275356
 30
0.0
 11
412.9622842699
 21
693.6782714008
 31
0.0
  0
LINE
  5
142
330
1F
100
AcDbEntity
  8
0
  6
Continuous
 62
     7
370
    25
100
AcDbLine
 10
410.5154330561
 20
692.0704014559
 30
0.0
 11
410.7483769213
 21
690.618325732
 31
0.0
  0
LINE
  5
143
330
1F
100
AcDbEntity
  8
0
  6
Continuous
 62
     7
370
    25
100
AcDbLine
 10
411.7002838409
 20
692.2604767508
 30
0.0
 11
411.9332277061
 21
690.8084010269
 31
0.0
  0
LINE
  5
144
330
1F
100
AcDbEntity
  8
0
  6
Continuous
 62
     7
370
    25
100
AcDbLine
 10
409.0633573322
 20
691.8374575907
 30
0.0
 11
410.5154330561
 21
692.0704014559
 31
0.0
  0
LINE
  5
145
330
1F
100
AcDbEntity
  8
0
  6
Continuous
 62
     7
370
    25
100
AcDbLine
 10
408.8732820373
 20
693.0223083755
 30
0.0
 11
410.3253577612
 21
693.2552522407
 31
0.0
  0
LINE
  5
146
330
1F
100
AcDbEntity
  8
0
  6
Continuous
 62
     7
370
    25
100
AcDbLine
 10
410.092413896
 20
694.7073279646
 30
0.0
 11
410.3253577612
 21
693.2552522407
 31
0.0
  0
LINE
  5
147
330
1F
100
AcDbEntity
  8
0
  6
Continuous
 62
     7
370
    25
100
AcDbLine
 10
411.6583148941
 20
693.4690869475
 30
0.0
 11
411.848390189
 21
692.2842361627
 31
0.0
  0
LINE
  5
148
330
1F
100
AcDbEntity
  8
0
  6
Continuous
 62
     7
370
    25
100
AcDbLine
 10
411.4864491341
 20
693.5934338837
 30
0.0
 11
410.3015983493
 21
693.4033585888
 31
0.0
  0
LINE
  5
149
330
1F
100
AcDbEntity
  8
0
  6
Continuous
 62
     7
370
    25
100
AcDbLine
 10
411.7240432528
 20
692.1123704027
 30
0.0
 11
410.539192468
 21
691.9222951078
 31
0.0
  0
LINE
  5
14A
330
1F
100
AcDbEntity
  8
0
  6
Continuous
 62
     7
370
    25
100
AcDbLine
 10
410.1772514131
 20
693.2314928288
 30
0.0
 11
410.367326708
 21
692.046642044
 31
0.0
  0
LINE
  5
14B
330
1F
100
AcDbEntity
  8
0
  6
Continuous
 62
     7
370
    25
100
AcDbLine
 10
279.092413896
 20
694.7073279646
 30
0.0
 11
279.3253577612
 21
693.2552522407
 31
0.0
  0
LINE
  5
14C
330
1F
100
AcDbEntity
  8
0
  6
Continuous
 62
     7
370
    25
100
AcDbLine
 10
277.8732820373
 20
693.0223083755
 30
0.0
 11
279.3253577612
 21
693.2552522407
 31
0.0
  0
ARC
  5
14D
330
1F
100
AcDbEntity
  8
0
  6
Continuous
 62
     7
370
    25
100
AcDbCircle
 10
289.8382871161
 20
694.3340785064
 30
0.0
 40
12.03669752933949
100
AcDbArc
 50
186.2565722694
 51
191.9710500657
  0
LINE
  5
14E
330
1F
100
AcDbEntity
  8
0
  6
Continuous
 62
     7
370
    25
100
AcDbLine
 10
278.0633573322
 20
691.8374575907
 30
0.0
 11
279.5154330561
 21
692.0704014559
 31
0.0
  0
LINE
  5
14F
330
1F
100
AcDbEntity
  8
0
  6
Continuous
 62
     7
370
    25
100
AcDbLine
 10
279.5154330561
 20
692.0704014559
 30
0.0
 11
279.7483769213
 21
690.618325732
 31
0.0
  0
ARC
  5
150
330
1F
100
AcDbEntity
  8
0
  6
Continuous
 62
     7
370
    25
100
AcDbCircle
 10
278.4366067904
 20
702.5833308107
 30
0.0
 40
12.0366975292552
100
AcDbArc
 50
276.2565722693
 51
281.9710500657
  0
LINE
  5
151
330
1F
100
AcDbEntity
  8
0
  6
Continuous
 62
     7
370
    25
100
AcDbLine
 10
280.7002838409
 20
692.2604767508
 30
0.0
 11
282.1523595649
 21
692.493420616
 31
0.0
  0
ARC
  5
152
330
1F
100
AcDbEntity
  8
0
  6
Continuous
 62
     7
370
    25
100
AcDbCircle
 10
270.187354486
 20
691.1816504851
 30
0.0
 40
12.03669752935682
100
AcDbArc
 50
6.2565722694
 51
11.9710500657
  0
LINE
  5
153
330
1F
100
AcDbEntity
  8
0
  6
Continuous
 62
     7
370
    25
100
AcDbLine
 10
280.2772646808
 20
694.8974032596
 30
0.0
 11
280.510208546
 21
693.4453275356
 31
0.0
  0
ARC
  5
154
330
1F
100
AcDbEntity
  8
0
  6
Continuous
 62
     7
370
    25
100
AcDbCircle
 10
281.5890348117
 20
682.9323981807
 30
0.0
 40
12.03669752939632
100
AcDbArc
 50
96.2565722694
 51
101.9710500657
  0
ARC
  5
155
330
1F
100
AcDbEntity
  8
0
  6
Continuous
 62
     7
370
    25
100
AcDbCircle
 10
280.0128208011
 20
692.7578644958
 30
0.0
 40
4.000000000000134
100
AcDbArc
 50
311.4096221093
 51
99.1138111675
  0
ARC
  5
156
330
1F
100
AcDbEntity
  8
0
  6
Continuous
 62
     7
370
    25
100
AcDbCircle
 10
280.0128208011
 20
692.7578644958
 30
0.0
 40
4.000000000000209
100
AcDbArc
 50
99.1138111675
 51
228.5903778907
  0
LINE
  5
157
330
1F
100
AcDbEntity
  8
0
  6
Continuous
 62
     7
370
    25
100
AcDbLine
 10
280.7002838409
 20
692.2604767508
 30
0.0
 11
280.9332277061
 21
690.8084010269
 31
0.0
  0
LINE
  5
158
330
1F
100
AcDbEntity
  8
0
  6
Continuous
 62
     7
370
    25
100
AcDbLine
 10
280.510208546
 20
693.4453275356
 30
0.0
 11
281.9622842699
 21
693.6782714008
 31
0.0
  0
LINE
  5
159
330
1F
100
AcDbEntity
  8
0
  6
Continuous
 62
     7
370
    25
100
AcDbLine
 10
280.6583148941
 20
693.4690869475
 30
0.0
 11
280.848390189
 21
692.2842361627
 31
0.0
  0
LINE
  5
15A
330
1F
100
AcDbEntity
  8
0
  6
Continuous
 62
     7
370
    25
100
AcDbLine
 10
280.4864491341
 20
693.5934338837
 30
0.0
 11
279.3015983493
 21
693.4033585888
 31
0.0
  0
LINE
  5
15B
330
1F
100
AcDbEntity
  8
0
  6
Continuous
 62
     7
370
    25
100
AcDbLine
 10
280.7240432528
 20
692.1123704027
 30
0.0
 11
279.539192468
 21
691.9222951078
 31
0.0
  0
LINE
  5
15C
330
1F
100
AcDbEntity
  8
0
  6
Continuous
 62
     7
370
    25
100
AcDbLine
 10
279.1772514131
 20
693.2314928288
 30
0.0
 11
279.367326708
 21
692.046642044
 31
0.0
  0
SPLINE
  5
15D
330
1F
100
AcDbEntity
  8
0
  6
Continuous
 62
     7
370
    25
100
AcDbSpline
210
0.0
220
0.0
230
1.0
 70
    24
 71
     3
 72
    18
 73
    14
 74
     0
 42
0.000000001
 43
0.00000001
 40
0.0
 40
0.0
 40
0.0
 40
0.0
 40
0.1395442450004743
 40
0.2146633576115594
 40
0.291376605570158
 40
0.3680898535287546
 40
0.4432089661398435
 40
0.5827532111403163
 40
0.7222974561407927
 40
0.7974165687518789
 40
0.8741298167104771
 40
0.9508430646690748
 40
1.0
 40
1.0
 40
1.0
 40
1.0
 10
260.3128208010622
 20
712.5273364389909
 30
0.0
 10
260.3128208010621
 20
712.9124673309166
 30
0.0
 10
260.3128208010622
 20
713.5049209314245
 30
0.0
 10
260.3128208010622
 20
714.7408351128095
 30
0.0
 10
260.3128208010621
 20
715.8168647251644
 30
0.0
 10
260.3128208010623
 20
716.980392845713
 30
0.0
 10
260.3128208010622
 20
718.5008400367315
 30
0.0
 10
260.3128208010622
 20
720.3250300347381
 30
0.0
 10
260.3128208010622
 20
721.8402649893305
 30
0.0
 10
260.3128208010622
 20
722.7580122877606
 30
0.0
 10
260.3128208010622
 20
723.2616291061142
 30
0.0
 10
260.3128208010622
 20
723.5337662308541
 30
0.0
 10
260.3128208010621
 20
723.5318583879682
 30
0.0
 10
260.3128208010622
 20
723.5311133051621
 30
0.0
  0
SPLINE
  5
15E
330
1F
100
AcDbEntity
  8
0
  6
Continuous
 62
     7
370
    25
100
AcDbSpline
210
0.0
220
0.0
230
1.0
 70
     8
 71
     3
 72
     8
 73
     4
 74
     0
 42
0.000000001
 43
0.00000001
 40
0.0
 40
0.0
 40
0.0
 40
0.0
 40
1.0
 40
1.0
 40
1.0
 40
1.0
 10
264.312820801055
 20
714.9331950846249
 30
0.0
 10
264.312820801055
 20
715.7461846563301
 30
0.0
 10
264.1385055006759
 20
716.5369230523979
 30
0.0
 10
263.8662388136637
 20
717.3151580508747
 30
0.0
  0
SPLINE
  5
15F
330
1F
100
AcDbEntity
  8
0
  6
Continuous
 62
     7
370
    25
100
AcDbSpline
210
0.0
220
0.0
230
1.0
 70
     8
 71
     3
 72
     8
 73
     4
 74
     0
 42
0.000000001
 43
0.00000001
 40
0.0
 40
0.0
 40
0.0
 40
0.0
 40
1.0
 40
1.0
 40
1.0
 40
1.0
 10
263.8662388136636
 20
712.5512321183752
 30
0.0
 10
264.1385055006751
 20
713.3294671168501
 30
0.0
 10
264.312820801055
 20
714.1202055129219
 30
0.0
 10
264.312820801055
 20
714.9331950846249
 30
0.0
  0
LINE
  5
160
330
1F
100
AcDbEntity
  8
0
  6
Continuous
 62
     7
370
    25
100
AcDbLine
 10
260.3128208011
 20
712.5512321184
 30
0.0
 11
263.8662388137
 21
712.5512321184
 31
0.0
  0
LINE
  5
161
330
1F
100
AcDbEntity
  8
0
  6
Continuous
 62
     7
370
    25
100
AcDbLine
 10
263.8662388137
 20
717.3151580509
 30
0.0
 11
260.3128208011
 21
717.3151580509
 31
0.0
  0
SPLINE
  5
162
330
1F
100
AcDbEntity
  8
0
  6
Continuous
 62
     7
370
    25
100
AcDbSpline
210
0.0
220
0.0
230
1.0
 70
     8
 71
     3
 72
     8
 73
     4
 74
     0
 42
0.000000001
 43
0.00000001
 40
0.0
 40
0.0
 40
0.0
 40
0.0
 40
1.0
 40
1.0
 40
1.0
 40
1.0
 10
264.312820801055
 20
719.9184742395714
 30
0.0
 10
264.312820801055
 20
720.8070140461274
 30
0.0
 10
264.1385055006756
 20
721.6712348995463
 30
0.0
 10
263.8662388136638
 20
722.5217904282615
 30
0.0
  0
SPLINE
  5
163
330
1F
100
AcDbEntity
  8
0
  6
Continuous
 62
     7
370
    25
100
AcDbSpline
210
0.0
220
0.0
230
1.0
 70
     8
 71
     3
 72
     8
 73
     4
 74
     0
 42
0.000000001
 43
0.00000001
 40
0.0
 40
0.0
 40
0.0
 40
0.0
 40
1.0
 40
1.0
 40
1.0
 40
1.0
 10
263.8662388136637
 20
717.3151580508815
 30
0.0
 10
264.1385055006752
 20
718.1657135795954
 30
0.0
 10
264.312820801055
 20
719.0299344330172
 30
0.0
 10
264.312820801055
 20
719.9184742395714
 30
0.0
  0
LINE
  5
164
330
1F
100
AcDbEntity
  8
0
  6
Continuous
 62
     7
370
    25
100
AcDbLine
 10
260.3128208011
 20
722.5217904283
 30
0.0
 11
263.8662388137
 21
722.5217904283
 31
0.0
  0
LINE
  5
165
330
1F
100
AcDbEntity
  8
0
  6
Continuous
 62
     7
370
    25
100
AcDbLine
 10
264.3128208011
 20
714.9331950846
 30
0.0
 11
264.3128208011
 21
719.9184742396
 31
0.0
  0
SPLINE
  5
166
330
1F
100
AcDbEntity
  8
0
  6
Continuous
 62
     7
370
    25
100
AcDbSpline
210
0.0
220
0.0
230
1.0
 70
     8
 71
     3
 72
     8
 73
     4
 74
     0
 42
0.000000001
 43
0.00000001
 40
0.0
 40
0.0
 40
0.0
 40
0.0
 40
1.0
 40
1.0
 40
1.0
 40
1.0
 10
263.8662388136638
 20
722.521790428265
 30
0.0
 10
264.1385055006753
 20
722.5941109585038
 30
0.0
 10
264.3128208010551
 20
722.6675934158544
 30
0.0
 10
264.3128208010551
 20
722.7431436507056
 30
0.0
  0
LINE
  5
167
330
1F
100
AcDbEntity
  8
0
  6
Continuous
 62
     7
370
    25
100
AcDbLine
 10
264.3128208011
 20
719.9184742396
 30
0.0
 11
264.3128208011
 21
722.7431436507
 31
0.0
  0
SPLINE
  5
168
330
1F
100
AcDbEntity
  8
0
  6
Continuous
 62
     7
370
    25
100
AcDbSpline
210
0.0
220
0.0
230
1.0
 70
     8
 71
     3
 72
     8
 73
     4
 74
     0
 42
0.000000001
 43
0.00000001
 40
0.0
 40
0.0
 40
0.0
 40
0.0
 40
1.0
 40
1.0
 40
1.0
 40
1.0
 10
264.3128208010551
 20
712.7725853408128
 30
0.0
 10
264.3128208010551
 20
712.6970351059616
 30
0.0
 10
264.1385055006758
 20
712.6235526486113
 30
0.0
 10
263.8662388136638
 20
712.5512321183725
 30
0.0
  0
LINE
  5
169
330
1F
100
AcDbEntity
  8
0
  6
Continuous
 62
     7
370
    25
100
AcDbLine
 10
264.3128208011
 20
714.9331950846
 30
0.0
 11
264.3128208011
 21
712.765192002
 31
0.0
  0
SPLINE
  5
16A
330
1F
100
AcDbEntity
  8
0
  6
Continuous
 62
     7
370
    25
100
AcDbSpline
210
0.0
220
0.0
230
1.0
 70
     8
 71
     3
 72
     8
 73
     4
 74
     0
 42
0.000000001
 43
0.00000001
 40
0.0
 40
0.0
 40
0.0
 40
0.0
 40
1.0
 40
1.0
 40
1.0
 40
1.0
 10
264.3128208010551
 20
722.7431436507056
 30
0.0
 10
264.3128208010551
 20
722.818693885557
 30
0.0
 10
264.1385055006758
 20
722.8921763429072
 30
0.0
 10
263.8662388136638
 20
722.9644968731461
 30
0.0
  0
LINE
  5
16B
330
1F
100
AcDbEntity
  8
0
  6
Continuous
 62
     7
370
    25
100
AcDbLine
 10
260.3128208011
 20
722.9644968731
 30
0.0
 11
263.8662388137
 21
722.9644968731
 31
0.0
  0
LINE
  5
16C
330
1F
100
AcDbEntity
  8
0
  6
Continuous
 62
     7
370
    25
100
AcDbLine
 10
249.3128208011
 20
720.2166144958
 30
0.0
 11
249.3128208011
 21
715.2991144957
 31
0.0
  0
LINE
  5
16D
330
1F
100
AcDbEntity
  8
0
  6
Continuous
 62
     7
370
    25
100
AcDbLine
 10
249.8540708011
 20
719.054230342
 30
0.0
 11
249.8540708011
 21
714.7578644958
 31
0.0
  0
LINE
  5
16E
330
1F
100
AcDbEntity
  8
0
  6
Continuous
 62
     7
370
    25
100
AcDbLine
 10
249.8540708011
 20
720.7578644958
 30
0.0
 11
249.8540708011
 21
719.054230342
 31
0.0
  0
LINE
  5
16F
330
1F
100
AcDbEntity
  8
0
  6
Continuous
 62
     7
370
    25
100
AcDbLine
 10
730.2539026878
 20
688.9792378237
 30
0.0
 11
730.6168404661
 21
689.6078644958
 31
0.0
  0
LINE
  5
170
330
1F
100
AcDbEntity
  8
0
  6
Continuous
 62
     7
370
    25
100
AcDbLine
 10
730.6168404661
 20
695.9078644958
 30
0.0
 11
730.2539026878
 21
696.5364911679
 31
0.0
  0
LINE
  5
171
330
1F
100
AcDbEntity
  8
0
  6
Continuous
 62
     7
370
    25
100
AcDbLine
 10
732.3168404661
 20
688.7578644958
 30
0.0
 11
734.3168404661
 21
688.7578644958
 31
0.0
  0
LINE
  5
172
330
1F
100
AcDbEntity
  8
0
  6
Continuous
 62
     7
370
    25
100
AcDbLine
 10
734.3168404661
 20
696.7578644958
 30
0.0
 11
732.3168404661
 21
696.7578644958
 31
0.0
  0
ARC
  5
173
330
1F
100
AcDbEntity
  8
0
  6
Continuous
 62
     7
370
    25
100
AcDbCircle
 10
727.3886372358
 20
692.7578644958
 30
0.0
 40
8.00000000000009
100
AcDbArc
 50
330.0
 51
344.7252520003
  0
ARC
  5
174
330
1F
100
AcDbEntity
  8
0
  6
Continuous
 62
     7
370
    25
100
AcDbCircle
 10
727.3886372358
 20
692.7578644958
 30
0.0
 40
8.0
100
AcDbArc
 50
15.2747479997
 51
30.0
  0
LINE
  5
175
330
1F
100
AcDbEntity
  8
0
  6
Continuous
 62
     7
370
    25
100
AcDbLine
 10
730.6168404661
 20
690.7578644958
 30
0.0
 11
730.7168404661
 21
690.7578644958
 31
0.0
  0
LINE
  5
176
330
1F
100
AcDbEntity
  8
0
  6
Continuous
 62
     7
370
    25
100
AcDbLine
 10
730.7168404661
 20
694.7578644958
 30
0.0
 11
730.6168404661
 21
694.7578644958
 31
0.0
  0
LINE
  5
177
330
1F
100
AcDbEntity
  8
0
  6
Continuous
 62
     7
370
    25
100
AcDbLine
 10
747.2168404661
 20
-104.7714248261
 30
0.0
 11
737.6168404661
 21
-104.7714248261
 31
0.0
  0
LINE
  5
178
330
1F
100
AcDbEntity
  8
0
  6
Continuous
 62
     7
370
    25
100
AcDbLine
 10
747.2168404661
 20
688.2871538176
 30
0.0
 11
737.6168404661
 21
688.2871538176
 31
0.0
  0
LINE
  5
179
330
1F
100
AcDbEntity
  8
0
  6
Continuous
 62
     7
370
    25
100
AcDbLine
 10
737.6168404661
 20
688.2871538176
 30
0.0
 11
737.6168404661
 21
-104.7714248261
 31
0.0
  0
SPLINE
  5
17A
330
1F
100
AcDbEntity
  8
0
  6
Continuous
 62
     7
370
    25
100
AcDbSpline
210
0.0
220
0.0
230
1.0
 70
     8
 71
     3
 72
    20
 73
    16
 74
     0
 42
0.000000001
 43
0.00000001
 40
0.0
 40
0.0
 40
0.0
 40
0.0
 40
0.1250000000000014
 40
0.1250000000000014
 40
0.2500000000000027
 40
0.2500000000000027
 40
0.375000000000004
 40
0.375000000000004
 40
0.5000000000000052
 40
0.5000000000000052
 40
0.7500000000000078
 40
0.7500000000000078
 40
0.8750000000000039
 40
0.8750000000000039
 40
1.0
 40
1.0
 40
1.0
 40
1.0
 10
747.2168404661195
 20
688.2871538176403
 30
0.0
 10
747.37521965377
 20
688.2481130867859
 30
0.0
 10
747.5314653784618
 20
688.209594382586
 30
0.0
 10
747.8394572278784
 20
688.1321876312782
 30
0.0
 10
747.9921013353495
 20
688.0930432132915
 30
0.0
 10
748.2811856245366
 20
688.015892459376
 30
0.0
 10
748.4189901627207
 20
687.9775648776351
 30
0.0
 10
748.6806088383596
 20
687.9000185571587
 30
0.0
 10
748.8033551450422
 20
687.8610423494899
 30
0.0
 10
749.1346795219899
 20
687.7455474930449
 30
0.0
 10
749.3136906460181
 20
687.6676350493747
 30
0.0
 10
749.4933057453991
 20
687.5521551239741
 30
0.0
 10
749.5395500942668
 20
687.5132893281087
 30
0.0
 10
749.601303400278
 20
687.4355149944403
 30
0.0
 10
749.6168404661195
 20
687.3969052274855
 30
0.0
 10
749.6168404661195
 20
687.357864495759
 30
0.0
  0
LINE
  5
17B
330
1F
100
AcDbEntity
  8
0
  6
Continuous
 62
     7
370
    25
100
AcDbLine
 10
749.6168404661
 20
687.3578644958
 30
0.0
 11
749.6168404661
 21
-103.8421355042
 31
0.0
  0
SPLINE
  5
17C
330
1F
100
AcDbEntity
  8
0
  6
Continuous
 62
     7
370
    25
100
AcDbSpline
210
0.0
220
0.0
230
1.0
 70
     8
 71
     3
 72
    20
 73
    16
 74
     0
 42
0.000000001
 43
0.00000001
 40
0.0
 40
0.0
 40
0.0
 40
0.0
 40
0.1250000000000013
 40
0.1250000000000013
 40
0.2500000000000027
 40
0.2500000000000027
 40
0.375000000000004
 40
0.375000000000004
 40
0.5000000000000053
 40
0.5000000000000053
 40
0.7500000000000079
 40
0.7500000000000079
 40
0.875000000000004
 40
0.875000000000004
 40
1.0
 40
1.0
 40
1.0
 40
1.0
 10
749.6168404661195
 20
-103.8421355042411
 30
0.0
 10
749.6168404661195
 20
-103.8811762350957
 30
0.0
 10
749.6013039056446
 20
-103.9196949392954
 30
0.0
 10
749.539985553684
 20
-103.9971016906032
 30
0.0
 10
749.4935618080971
 20
-104.0362461085899
 30
0.0
 10
749.373610937943
 20
-104.1133968625053
 30
0.0
 10
749.3000062936595
 20
-104.1517244442462
 30
0.0
 10
749.125275927564
 20
-104.2292707647228
 30
0.0
 10
749.0244252986624
 20
-104.2682469723915
 30
0.0
 10
748.6931400186785
 20
-104.3837418288364
 30
0.0
 10
748.4254598572945
 20
-104.4616542725065
 30
0.0
 10
747.9927858312392
 20
-104.5771341979074
 30
0.0
 10
747.8412677443881
 20
-104.6159999937724
 30
0.0
 10
747.5318419870019
 20
-104.6937743274409
 30
0.0
 10
747.3752196573081
 20
-104.7323840943957
 30
0.0
 10
747.2168404661195
 20
-104.7714248261224
 30
0.0
  0
SPLINE
  5
17D
330
1F
100
AcDbEntity
  8
0
  6
Continuous
 62
     7
370
    25
100
AcDbSpline
210
0.0
220
0.0
230
1.0
 70
     8
 71
     3
 72
    20
 73
    16
 74
     0
 42
0.000000001
 43
0.00000001
 40
0.0
 40
0.0
 40
0.0
 40
0.0
 40
0.1249999999999899
 40
0.1249999999999899
 40
0.2499999999999798
 40
0.2499999999999798
 40
0.3749999999999698
 40
0.3749999999999698
 40
0.4999999999999597
 40
0.4999999999999597
 40
0.7499999999999744
 40
0.7499999999999744
 40
0.8749999999999872
 40
0.8749999999999872
 40
1.0
 40
1.0
 40
1.0
 40
1.0
 10
749.6168404661194
 20
687.357864495759
 30
0.0
 10
749.6168404661194
 20
687.5162436834097
 30
0.0
 10
749.6013039056445
 20
687.6724894081016
 30
0.0
 10
749.5399855536839
 20
687.9804812575182
 30
0.0
 10
749.4935618080971
 20
688.1331253649892
 30
0.0
 10
749.373610937943
 20
688.4222096541763
 30
0.0
 10
749.3000062936595
 20
688.5600141923602
 30
0.0
 10
749.125275927564
 20
688.8216328679993
 30
0.0
 10
749.0244252986623
 20
688.9443791746819
 30
0.0
 10
748.6931400186784
 20
689.2757035516295
 30
0.0
 10
748.4254598572945
 20
689.4547146756577
 30
0.0
 10
747.9927858312392
 20
689.6343297750387
 30
0.0
 10
747.841267744388
 20
689.6805741239064
 30
0.0
 10
747.5318419870019
 20
689.7423274299175
 30
0.0
 10
747.3752196573081
 20
689.7578644957589
 30
0.0
 10
747.2168404661195
 20
689.7578644957589
 30
0.0
  0
SPLINE
  5
17E
330
1F
100
AcDbEntity
  8
0
  6
Continuous
 62
     7
370
    25
100
AcDbSpline
210
0.0
220
0.0
230
1.0
 70
     8
 71
     3
 72
     9
 73
     5
 74
     0
 42
0.000000001
 43
0.00000001
 40
0.0
 40
0.0
 40
0.0
 40
0.0
 40
0.4825784287295302
 40
1.0
 40
1.0
 40
1.0
 40
1.0
 10
747.8293802052976
 20
688.1340347277054
 30
0.0
 10
747.7412458639811
 20
688.1978429207669
 30
0.0
 10
747.5586137029281
 20
688.3300663880061
 30
0.0
 10
747.3333808188836
 20
688.3483856924624
 30
0.0
 10
747.2168404661195
 20
688.357864495759
 30
0.0
  0
LINE
  5
17F
330
1F
100
AcDbEntity
  8
0
  6
Continuous
 62
     7
370
    25
100
AcDbLine
 10
747.2168404661
 20
689.7578644958
 30
0.0
 11
747.2168404661
 21
688.3578644958
 31
0.0
  0
SPLINE
  5
180
330
1F
100
AcDbEntity
  8
0
  6
Continuous
 62
     7
370
    25
100
AcDbSpline
210
0.0
220
0.0
230
1.0
 70
     8
 71
     3
 72
    20
 73
    16
 74
     0
 42
0.000000001
 43
0.00000001
 40
0.0
 40
0.0
 40
0.0
 40
0.0
 40
0.1250000000000006
 40
0.1250000000000006
 40
0.2500000000000013
 40
0.2500000000000013
 40
0.3750000000000019
 40
0.3750000000000019
 40
0.5000000000000026
 40
0.5000000000000026
 40
0.7500000000000038
 40
0.7500000000000038
 40
0.8750000000000019
 40
0.8750000000000019
 40
1.0
 40
1.0
 40
1.0
 40
1.0
 10
747.2168404661195
 20
-106.2421355042411
 30
0.0
 10
747.37521965377
 20
-106.2421355042412
 30
0.0
 10
747.5314653784618
 20
-106.2265989437662
 30
0.0
 10
747.8394572278784
 20
-106.1652805918057
 30
0.0
 10
747.9921013353495
 20
-106.118856846219
 30
0.0
 10
748.2811856245366
 20
-105.9989059760648
 30
0.0
 10
748.4189901627207
 20
-105.9253013317813
 30
0.0
 10
748.6806088383595
 20
-105.7505709656857
 30
0.0
 10
748.8033551450422
 20
-105.6497203367842
 30
0.0
 10
749.1346795219898
 20
-105.3184350568001
 30
0.0
 10
749.3136906460181
 20
-105.0507548954164
 30
0.0
 10
749.4933057453991
 20
-104.6180808693609
 30
0.0
 10
749.5395500942668
 20
-104.4665627825098
 30
0.0
 10
749.601303400278
 20
-104.1571370251236
 30
0.0
 10
749.6168404661195
 20
-104.0005146954298
 30
0.0
 10
749.6168404661195
 20
-103.8421355042411
 30
0.0
  0
LINE
  5
181
330
1F
100
AcDbEntity
  8
0
  6
Continuous
 62
     7
370
    25
100
AcDbLine
 10
747.2168404661
 20
-106.2421355042
 30
0.0
 11
747.2168404661
 21
-104.8421355042
 31
0.0
  0
SPLINE
  5
182
330
1F
100
AcDbEntity
  8
0
  6
Continuous
 62
     7
370
    25
100
AcDbSpline
210
0.0
220
0.0
230
1.0
 70
     8
 71
     3
 72
     9
 73
     5
 74
     0
 42
0.000000001
 43
0.00000001
 40
0.0
 40
0.0
 40
0.0
 40
0.0
 40
0.7329379507267368
 40
0.9999999999999999
 40
0.9999999999999999
 40
0.9999999999999999
 40
0.9999999999999999
 10
747.2168404661195
 20
-104.8421355042411
 30
0.0
 10
747.3682291077753
 20
-104.8303808547233
 30
0.0
 10
747.5747795279108
 20
-104.8143431403355
 30
0.0
 10
747.7301398700293
 20
-104.6860058338416
 30
0.0
 10
747.7716307213714
 20
-104.6517318097711
 30
0.0
  0
LINE
  5
183
330
1F
100
AcDbEntity
  8
0
  6
Continuous
 62
     7
370
    25
100
AcDbLine
 10
747.2168404661
 20
-104.8421355042
 30
0.0
 11
737.6168404661
 21
-104.8421355042
 31
0.0
  0
LINE
  5
184
330
1F
100
AcDbEntity
  8
0
  6
Continuous
 62
     7
370
    25
100
AcDbLine
 10
747.2168404661
 20
-106.2421355042
 30
0.0
 11
737.6168404661
 21
-106.2421355042
 31
0.0
  0
LINE
  5
185
330
1F
100
AcDbEntity
  8
0
  6
Continuous
 62
     7
370
    25
100
AcDbLine
 10
737.6168404661
 20
-106.2421355042
 30
0.0
 11
737.6168404661
 21
-104.8421355042
 31
0.0
  0
LINE
  5
186
330
1F
100
AcDbEntity
  8
0
  6
Continuous
 62
     7
370
    25
100
AcDbLine
 10
747.2168404661
 20
689.7578644958
 30
0.0
 11
737.6168404661
 21
689.7578644958
 31
0.0
  0
LINE
  5
187
330
1F
100
AcDbEntity
  8
0
  6
Continuous
 62
     7
370
    25
100
AcDbLine
 10
737.6168404661
 20
689.7578644958
 30
0.0
 11
737.6168404661
 21
688.3578644958
 31
0.0
  0
LINE
  5
188
330
1F
100
AcDbEntity
  8
0
  6
Continuous
 62
     7
370
    25
100
AcDbLine
 10
747.2168404661
 20
688.3578644958
 30
0.0
 11
737.6168404661
 21
688.3578644958
 31
0.0
  0
LINE
  5
189
330
1F
100
AcDbEntity
  8
0
  6
Continuous
 62
     7
370
    25
100
AcDbLine
 10
729.5168404661
 20
704.2578644958
 30
0.0
 11
733.5168404661
 21
704.2578644958
 31
0.0
  0
LINE
  5
18A
330
1F
100
AcDbEntity
  8
0
  6
Continuous
 62
     7
370
    25
100
AcDbLine
 10
729.5168404661
 20
687.0578644958
 30
0.0
 11
729.5168404661
 21
704.2578644958
 31
0.0
  0
LINE
  5
18B
330
1F
100
AcDbEntity
  8
0
  6
Continuous
 62
     7
370
    25
100
AcDbLine
 10
710.5168404661
 20
721.2578644958
 30
0.0
 11
710.5168404661
 21
687.0578644958
 31
0.0
  0
ARC
  5
18C
330
1F
100
AcDbEntity
  8
0
  6
Continuous
 62
     7
370
    25
100
AcDbCircle
 10
713.5168404661
 20
721.2578644958
 30
0.0
 40
3.0
100
AcDbArc
 50
90.0
 51
180.0
  0
LINE
  5
18D
330
1F
100
AcDbEntity
  8
0
  6
Continuous
 62
     7
370
    25
100
AcDbLine
 10
730.5168404661
 20
724.2578644958
 30
0.0
 11
713.5168404661
 21
724.2578644958
 31
0.0
  0
ARC
  5
18E
330
1F
100
AcDbEntity
  8
0
  6
Continuous
 62
     7
370
    25
100
AcDbCircle
 10
730.5168404661
 20
721.2578644958
 30
0.0
 40
3.0
100
AcDbArc
 50
0.0
 51
90.0
  0
LINE
  5
18F
330
1F
100
AcDbEntity
  8
0
  6
Continuous
 62
     7
370
    25
100
AcDbLine
 10
733.5168404661
 20
704.2578644958
 30
0.0
 11
733.5168404661
 21
721.2578644958
 31
0.0
  0
CIRCLE
  5
190
330
1F
100
AcDbEntity
  8
0
  6
Continuous
 62
     7
370
    25
100
AcDbCircle
 10
719.0168404661
 20
717.7578644958
 30
0.0
 40
3.250000000000227
  0
CIRCLE
  5
191
330
1F
100
AcDbEntity
  8
0
  6
Continuous
 62
     7
370
    25
100
AcDbCircle
 10
719.0168404661
 20
692.7578644958
 30
0.0
 40
3.25
  0
LINE
  5
192
330
1F
100
AcDbEntity
  8
0
  6
Continuous
 62
     7
370
    25
100
AcDbLine
 10
710.5168404661
 20
685.2578644958
 30
0.0
 11
710.5168404661
 21
687.0578644958
 31
0.0
  0
LINE
  5
193
330
1F
100
AcDbEntity
  8
0
  6
Continuous
 62
     7
370
    25
100
AcDbLine
 10
729.5168404661
 20
687.0578644958
 30
0.0
 11
729.5168404661
 21
685.2578644958
 31
0.0
  0
LINE
  5
194
330
1F
100
AcDbEntity
  8
0
  6
Continuous
 62
     7
370
    25
100
AcDbLine
 10
729.5168404661
 20
685.2578644958
 30
0.0
 11
710.5168404661
 21
685.2578644958
 31
0.0
  0
LINE
  5
195
330
1F
100
AcDbEntity
  8
0
  6
Continuous
 62
     7
370
    25
100
AcDbLine
 10
729.5168404661
 20
685.2578644958
 30
0.0
 11
729.7168404661
 21
685.2578644958
 31
0.0
  0
LINE
  5
196
330
1F
100
AcDbEntity
  8
0
  6
Continuous
 62
     7
370
    25
100
AcDbLine
 10
729.5168404661
 20
686.0578644958
 30
0.0
 11
729.7168404661
 21
686.0578644958
 31
0.0
  0
ARC
  5
197
330
1F
100
AcDbEntity
  8
0
  6
Continuous
 62
     7
370
    25
100
AcDbCircle
 10
729.7168404661
 20
687.0578644958
 30
0.0
 40
1.800000000000068
100
AcDbArc
 50
270.0
 51
0.0
  0
ARC
  5
198
330
1F
100
AcDbEntity
  8
0
  6
Continuous
 62
     7
370
    25
100
AcDbCircle
 10
729.7168404661
 20
687.0578644958
 30
0.0
 40
1.000000000000114
100
AcDbArc
 50
270.0
 51
0.0
  0
LINE
  5
199
330
1F
100
AcDbEntity
  8
0
  6
Continuous
 62
     7
370
    25
100
AcDbLine
 10
731.5168404661
 20
697.2578644958
 30
0.0
 11
730.7168404661
 21
697.2578644958
 31
0.0
  0
LINE
  5
19A
330
1F
100
AcDbEntity
  8
0
  6
Continuous
 62
     7
370
    25
100
AcDbLine
 10
730.7168404661
 20
697.2578644958
 30
0.0
 11
730.7168404661
 21
687.0578644958
 31
0.0
  0
LINE
  5
19B
330
1F
100
AcDbEntity
  8
0
  6
Continuous
 62
     7
370
    25
100
AcDbLine
 10
686.5168404661
 20
685.2578644958
 30
0.0
 11
686.5168404661
 21
686.0578644958
 31
0.0
  0
LINE
  5
19C
330
1F
100
AcDbEntity
  8
0
  6
Continuous
 62
     7
370
    25
100
AcDbLine
 10
689.5168404661
 20
685.2578644958
 30
0.0
 11
686.5168404661
 21
685.2578644958
 31
0.0
  0
LINE
  5
19D
330
1F
100
AcDbEntity
  8
0
  6
Continuous
 62
     7
370
    25
100
AcDbLine
 10
686.5168404661
 20
686.0578644958
 30
0.0
 11
689.5168404661
 21
686.0578644958
 31
0.0
  0
LINE
  5
19E
330
1F
100
AcDbEntity
  8
0
  6
Continuous
 62
     7
370
    25
100
AcDbLine
 10
689.5168404661
 20
685.2578644958
 30
0.0
 11
710.5168404661
 21
685.2578644958
 31
0.0
  0
LINE
  5
19F
330
1F
100
AcDbEntity
  8
0
  6
Continuous
 62
     7
370
    25
100
AcDbLine
 10
689.5168404661
 20
686.0578644958
 30
0.0
 11
710.5168404661
 21
686.0578644958
 31
0.0
  0
LINE
  5
1A0
330
1F
100
AcDbEntity
  8
0
  6
Continuous
 62
     7
370
    25
100
AcDbLine
 10
687.6122270743
 20
689.4578644958
 30
0.0
 11
687.6122270743
 21
690.2578644958
 31
0.0
  0
LINE
  5
1A1
330
1F
100
AcDbEntity
  8
0
  6
Continuous
 62
     7
370
    25
100
AcDbLine
 10
687.6122270743
 20
690.2578644958
 30
0.0
 11
690.6122270743
 21
690.2578644958
 31
0.0
  0
LINE
  5
1A2
330
1F
100
AcDbEntity
  8
0
  6
Continuous
 62
     7
370
    25
100
AcDbLine
 10
690.6122270743
 20
689.4578644958
 30
0.0
 11
687.6122270743
 21
689.4578644958
 31
0.0
  0
LINE
  5
1A3
330
1F
100
AcDbEntity
  8
0
  6
Continuous
 62
     7
370
    25
100
AcDbLine
 10
690.6122270743
 20
690.2578644958
 30
0.0
 11
697.129918528
 21
690.2578644958
 31
0.0
  0
LINE
  5
1A4
330
1F
100
AcDbEntity
  8
0
  6
Continuous
 62
     7
370
    25
100
AcDbLine
 10
690.6122270743
 20
689.4578644958
 30
0.0
 11
697.129918528
 21
689.4578644958
 31
0.0
  0
LINE
  5
1A5
330
1F
100
AcDbEntity
  8
0
  6
Continuous
 62
     7
370
    25
100
AcDbLine
 10
704.6547896586
 20
686.191839092
 30
0.0
 11
698.029918528
 21
690.0167102226
 31
0.0
  0
LINE
  5
1A6
330
1F
100
AcDbEntity
  8
0
  6
Continuous
 62
     7
370
    25
100
AcDbLine
 10
703.2868404661
 20
686.0578644958
 30
0.0
 11
697.629918528
 21
689.3238898995
 31
0.0
  0
ARC
  5
1A7
330
1F
100
AcDbEntity
  8
0
  6
Continuous
 62
     7
370
    25
100
AcDbCircle
 10
697.129918528
 20
688.4578644958
 30
0.0
 40
1.800000000000068
100
AcDbArc
 50
60.0
 51
90.0
  0
ARC
  5
1A8
330
1F
100
AcDbEntity
  8
0
  6
Continuous
 62
     7
370
    25
100
AcDbCircle
 10
697.129918528
 20
688.4578644958
 30
0.0
 40
1.000000000000025
100
AcDbArc
 50
60.0
 51
90.0
  0
ARC
  5
1A9
330
1F
100
AcDbEntity
  8
0
  6
Continuous
 62
     7
370
    25
100
AcDbCircle
 10
705.1547896586
 20
687.0578644958
 30
0.0
 40
1.000000000000114
100
AcDbArc
 50
240.0
 51
270.0
  0
LINE
  5
1AA
330
1F
100
AcDbEntity
  8
0
  6
Continuous
 62
     7
370
    25
100
AcDbLine
 10
729.5168404661
 20
694.1986938176
 30
0.0
 11
730.1021604807
 21
694.1986938176
 31
0.0
  0
SPLINE
  5
1AB
330
1F
100
AcDbEntity
  8
0
  6
Continuous
 62
     7
370
    25
100
AcDbSpline
210
0.0
220
0.0
230
1.0
 70
     8
 71
     3
 72
    14
 73
    10
 74
     0
 42
0.000000001
 43
0.00000001
 40
0.0
 40
0.0
 40
0.0
 40
0.0
 40
0.25
 40
0.25
 40
0.5
 40
0.5
 40
0.75
 40
0.75
 40
1.0
 40
1.0
 40
1.0
 40
1.0
 10
730.1021604807335
 20
694.1986938176285
 30
0.0
 10
730.1970350900441
 20
693.8741875883399
 30
0.0
 10
730.2766400149198
 20
693.5417283659456
 30
0.0
 10
730.385476629814
 20
692.8751584510374
 30
0.0
 10
730.4148002355046
 20
692.5400821937621
 30
0.0
 10
730.4147354537589
 20
691.8657387235345
 30
0.0
 10
730.3845792604326
 20
691.5239593028555
 30
0.0
 10
730.2749940590668
 20
690.8575453832509
 30
0.0
 10
730.1964510852647
 20
690.5307713372981
 30
0.0
 10
730.1021604807333
 20
690.2082626202017
 30
0.0
  0
LINE
  5
1AC
330
1F
100
AcDbEntity
  8
0
  6
Continuous
 62
     7
370
    25
100
AcDbLine
 10
729.5168404661
 20
690.2082626202
 30
0.0
 11
730.1021604807
 21
690.2082626202
 31
0.0
  0
SPLINE
  5
1AD
330
1F
100
AcDbEntity
  8
0
  6
Continuous
 62
     7
370
    25
100
AcDbSpline
210
0.0
220
0.0
230
1.0
 70
     8
 71
     3
 72
    12
 73
     8
 74
     0
 42
0.000000001
 43
0.00000001
 40
0.0
 40
0.0
 40
0.0
 40
0.0
 40
0.4999999999999906
 40
0.4999999999999906
 40
0.7499999999999952
 40
0.7499999999999952
 40
1.0
 40
1.0
 40
1.0
 40
1.0
 10
730.1021604807344
 20
688.7674332983311
 30
0.0
 10
730.2926547701579
 20
689.0026930907742
 30
0.0
 10
730.4143291832204
 20
689.2414777836249
 30
0.0
 10
730.4149853737516
 20
689.6089693161817
 30
0.0
 10
730.3851513719571
 20
689.731341510831
 30
0.0
 10
730.2762215018496
 20
689.9717251959908
 30
0.0
 10
730.1975263147867
 20
690.0904861430523
 30
0.0
 10
730.1021604807339
 20
690.2082626202017
 30
0.0
  0
SPLINE
  5
1AE
330
1F
100
AcDbEntity
  8
0
  6
Continuous
 62
     7
370
    25
100
AcDbSpline
210
0.0
220
0.0
230
1.0
 70
     8
 71
     3
 72
    12
 73
     8
 74
     0
 42
0.000000001
 43
0.00000001
 40
0.0
 40
0.0
 40
0.0
 40
0.0
 40
0.4999999999999922
 40
0.4999999999999922
 40
0.7499999999999961
 40
0.7499999999999961
 40
1.0
 40
1.0
 40
1.0
 40
1.0
 10
730.1021604807344
 20
694.1986938176285
 30
0.0
 10
730.2926547701579
 20
694.6149949012832
 30
0.0
 10
730.4143291832204
 20
695.0375334292714
 30
0.0
 10
730.4149853737516
 20
695.6878235687323
 30
0.0
 10
730.3851513719571
 20
695.9043657866466
 30
0.0
 10
730.2762215018496
 20
696.329733791887
 30
0.0
 10
730.1975263147867
 20
696.5398857708723
 30
0.0
 10
730.1021604807339
 20
696.748295693185
 30
0.0
  0
LINE
  5
1AF
330
1F
100
AcDbEntity
  8
0
  6
Continuous
 62
     7
370
    25
100
AcDbLine
 10
730.1021604807
 20
696.7482956932
 30
0.0
 11
730.200035518
 21
696.5053909429
 31
0.0
  0
LINE
  5
1B0
330
1F
100
AcDbEntity
  8
0
  6
Continuous
 62
     7
370
    25
100
AcDbLine
 10
730.6168404661
 20
692.2589168466
 30
0.0
 11
730.6168404661
 21
689.6078644958
 31
0.0
  0
LINE
  5
1B1
330
1F
100
AcDbEntity
  8
0
  6
Continuous
 62
     7
370
    25
100
AcDbLine
 10
730.6168404661
 20
695.9078644958
 30
0.0
 11
730.6168404661
 21
692.2589168466
 31
0.0
  0
LINE
  5
1B2
330
1F
100
AcDbEntity
  8
0
  6
Continuous
 62
     7
370
    25
100
AcDbLine
 10
729.5168404661
 20
696.7482956932
 30
0.0
 11
730.1021604807
 21
696.7482956932
 31
0.0
  0
LINE
  5
1B3
330
1F
100
AcDbEntity
  8
0
  6
Continuous
 62
     7
370
    25
100
AcDbLine
 10
729.5168404661
 20
688.7674332983
 30
0.0
 11
730.1021604807
 21
688.7674332983
 31
0.0
  0
LINE
  5
1B4
330
1F
100
AcDbEntity
  8
0
  6
Continuous
 62
     7
370
    25
100
AcDbLine
 10
738.0668404661
 20
701.0578644958
 30
0.0
 11
743.2168404661
 21
701.0578644958
 31
0.0
  0
LINE
  5
1B5
330
1F
100
AcDbEntity
  8
0
  6
Continuous
 62
     7
370
    25
100
AcDbLine
 10
738.0668404661
 20
701.8578644958
 30
0.0
 11
738.0668404661
 21
701.0578644958
 31
0.0
  0
LINE
  5
1B6
330
1F
100
AcDbEntity
  8
0
  6
Continuous
 62
     7
370
    25
100
AcDbLine
 10
738.0668404661
 20
701.8578644958
 30
0.0
 11
743.2168404661
 21
701.8578644958
 31
0.0
  0
LINE
  5
1B7
330
1F
100
AcDbEntity
  8
0
  6
Continuous
 62
     7
370
    25
100
AcDbLine
 10
743.2168404661
 20
701.8578644958
 30
0.0
 11
743.2168404661
 21
701.9578644958
 31
0.0
  0
LINE
  5
1B8
330
1F
100
AcDbEntity
  8
0
  6
Continuous
 62
     7
370
    25
100
AcDbLine
 10
733.3168404661
 20
701.9578644958
 30
0.0
 11
743.2168404661
 21
701.9578644958
 31
0.0
  0
LINE
  5
1B9
330
1F
100
AcDbEntity
  8
0
  6
Continuous
 62
     7
370
    25
100
AcDbLine
 10
733.3168404661
 20
701.9578644958
 30
0.0
 11
733.3168404661
 21
702.7578644958
 31
0.0
  0
LINE
  5
1BA
330
1F
100
AcDbEntity
  8
0
  6
Continuous
 62
     7
370
    25
100
AcDbLine
 10
743.2168404661
 20
702.7578644958
 30
0.0
 11
733.3168404661
 21
702.7578644958
 31
0.0
  0
ARC
  5
1BB
330
1F
100
AcDbEntity
  8
0
  6
Continuous
 62
     7
370
    25
100
AcDbCircle
 10
743.2168404661
 20
701.9078644958
 30
0.0
 40
0.8500000000000227
100
AcDbArc
 50
270.0
 51
90.0
  0
LINE
  5
1BC
330
1F
100
AcDbEntity
  8
0
  6
Continuous
 62
     7
370
    25
100
AcDbLine
 10
733.3168404661
 20
682.7578644958
 30
0.0
 11
733.3168404661
 21
683.5578644958
 31
0.0
  0
LINE
  5
1BD
330
1F
100
AcDbEntity
  8
0
  6
Continuous
 62
     7
370
    25
100
AcDbLine
 10
737.6168404661
 20
683.5578644958
 30
0.0
 11
733.3168404661
 21
683.5578644958
 31
0.0
  0
LINE
  5
1BE
330
1F
100
AcDbEntity
  8
0
  6
Continuous
 62
     7
370
    25
100
AcDbLine
 10
737.6168404661
 20
682.7578644958
 30
0.0
 11
733.3168404661
 21
682.7578644958
 31
0.0
  0
LINE
  5
1BF
330
1F
100
AcDbEntity
  8
0
  6
Continuous
 62
     7
370
    25
100
AcDbLine
 10
732.3168404661
 20
700.9578644958
 30
0.0
 11
732.3168404661
 21
684.5578644958
 31
0.0
  0
ARC
  5
1C0
330
1F
100
AcDbEntity
  8
0
  6
Continuous
 62
     7
370
    25
100
AcDbCircle
 10
733.3168404661
 20
684.5578644958
 30
0.0
 40
1.0
100
AcDbArc
 50
180.0
 51
270.0
  0
LINE
  5
1C1
330
1F
100
AcDbEntity
  8
0
  6
Continuous
 62
     7
370
    25
100
AcDbLine
 10
731.5168404661
 20
684.5578644958
 30
0.0
 11
731.5168404661
 21
700.9578644958
 31
0.0
  0
ARC
  5
1C2
330
1F
100
AcDbEntity
  8
0
  6
Continuous
 62
     7
370
    25
100
AcDbCircle
 10
733.3168404661
 20
700.9578644958
 30
0.0
 40
1.799999999999955
100
AcDbArc
 50
90.0
 51
180.0
  0
ARC
  5
1C3
330
1F
100
AcDbEntity
  8
0
  6
Continuous
 62
     7
370
    25
100
AcDbCircle
 10
733.3168404661
 20
684.5578644958
 30
0.0
 40
1.800000000000068
100
AcDbArc
 50
180.0
 51
270.0
  0
ARC
  5
1C4
330
1F
100
AcDbEntity
  8
0
  6
Continuous
 62
     7
370
    25
100
AcDbCircle
 10
733.3168404661
 20
700.9578644958
 30
0.0
 40
1.000000000000114
100
AcDbArc
 50
90.0
 51
180.0
  0
CIRCLE
  5
1C5
330
1F
100
AcDbEntity
  8
0
  6
Continuous
 62
     7
370
    25
100
AcDbCircle
 10
719.0168404661
 20
692.7578644958
 30
0.0
 40
2.458750000016599
  0
CIRCLE
  5
1C6
330
1F
100
AcDbEntity
  8
0
  6
Continuous
 62
     7
370
    25
100
AcDbCircle
 10
719.0168404661
 20
692.7578644958
 30
0.0
 40
3.000000000000015
  0
LINE
  5
1C7
330
1F
100
AcDbEntity
  8
0
  6
Continuous
 62
     7
370
    25
100
AcDbLine
 10
734.3168404661
 20
696.7073671118
 30
0.0
 11
734.3168404661
 21
696.7578644958
 31
0.0
  0
LINE
  5
1C8
330
1F
100
AcDbEntity
  8
0
  6
Continuous
 62
     7
370
    25
100
AcDbLine
 10
734.3168404661
 20
688.7578644958
 30
0.0
 11
734.3168404661
 21
696.7073671118
 31
0.0
  0
ARC
  5
1C9
330
1F
100
AcDbEntity
  8
0
  6
Continuous
 62
     7
370
    25
100
AcDbCircle
 10
727.5798605684
 20
692.6619264759
 30
0.0
 40
7.78628841508757
100
AcDbArc
 50
4.3702527064
 51
15.2299003794
  0
ARC
  5
1CA
330
1F
100
AcDbEntity
  8
0
  6
Continuous
 62
     7
370
    25
100
AcDbCircle
 10
734.819117032
 20
693.5683800782
 30
0.0
 40
0.6107675350062834
100
AcDbArc
 50
296.6101963366
 51
329.1575418587
  0
ARC
  5
1CB
330
1F
100
AcDbEntity
  8
0
  6
Continuous
 62
     7
370
    25
100
AcDbCircle
 10
726.0130548905
 20
692.4298829831
 30
0.0
 40
9.098942710185286
100
AcDbArc
 50
356.2668736477
 51
3.7331263523
  0
ARC
  5
1CC
330
1F
100
AcDbEntity
  8
0
  6
Continuous
 62
     7
370
    25
100
AcDbCircle
 10
734.819117032
 20
692.3835292934
 30
0.0
 40
0.6107675350076565
100
AcDbArc
 50
296.6101963366
 51
329.1575418587
  0
ARC
  5
1CD
330
1F
100
AcDbEntity
  8
0
  6
Continuous
 62
     7
370
    25
100
AcDbCircle
 10
727.5798605684
 20
692.6637272207
 30
0.0
 40
7.786288415081995
100
AcDbArc
 50
344.7700996206
 51
355.6297472936
  0
ARC
  5
1CE
330
1F
100
AcDbEntity
  8
0
  6
Continuous
 62
     7
370
    25
100
AcDbCircle
 10
734.9596066875
 20
690.6922621189
 30
0.0
 40
0.1522432420536559
100
AcDbArc
 50
330.945166585
 51
359.1449116521
  0
LWPOLYLINE
  5
1CF
330
1F
100
AcDbEntity
  8
0
  6
Continuous
 62
     7
370
    25
100
AcDbPolyline
 90
        3
 70
   128
 43
0.0
 10
735.3435099564
 20
692.2604767508
 10
735.3272851077
 20
692.076778422
 10
735.3266429647
 20
692.0704014559
  0
ARC
  5
1D0
330
1F
100
AcDbEntity
  8
0
  6
Continuous
 62
     7
370
    25
100
AcDbCircle
 10
734.819117032
 20
691.9473489133
 30
0.0
 40
0.6107675350084288
100
AcDbArc
 50
30.8424581413
 51
63.3898036633
  0
ARC
  5
1D1
330
1F
100
AcDbEntity
  8
0
  6
Continuous
 62
     7
370
    25
100
AcDbCircle
 10
725.9361831102
 20
693.0888618646
 30
0.0
 40
9.175815043976433
100
AcDbArc
 50
357.932732128
 51
359.6562101147
  0
ARC
  5
1D2
330
1F
100
AcDbEntity
  8
0
  6
Continuous
 62
     7
370
    25
100
AcDbCircle
 10
727.5798605684
 20
692.8520017708
 30
0.0
 40
7.786288415085625
100
AcDbArc
 50
4.3702527064
 51
15.2299003794
  0
ARC
  5
1D3
330
1F
100
AcDbEntity
  8
0
  6
Continuous
 62
     7
370
    25
100
AcDbCircle
 10
734.8715689011
 20
694.8023656121
 30
0.0
 40
0.2406805056704032
100
AcDbArc
 50
336.7420981703
 51
23.2579018297
  0
LINE
  5
1D4
330
1F
100
AcDbEntity
  8
0
  6
Continuous
 62
     7
370
    25
100
AcDbLine
 10
735.3435099564
 20
692.0704014559
 30
0.0
 11
735.1049542985
 21
692.0704014559
 31
0.0
  0
LINE
  5
1D5
330
1F
100
AcDbEntity
  8
0
  6
Continuous
 62
     7
370
    25
100
AcDbLine
 10
735.3435099564
 20
693.4453275356
 30
0.0
 11
735.3266429647
 21
693.4453275356
 31
0.0
  0
LINE
  5
1D6
330
1F
100
AcDbEntity
  8
0
  6
Continuous
 62
     7
370
    25
100
AcDbLine
 10
735.3435099564
 20
692.2604767508
 30
0.0
 11
735.11045964
 21
692.2604767508
 31
0.0
  0
LINE
  5
1D7
330
1F
100
AcDbEntity
  8
0
  6
Continuous
 62
     7
370
    25
100
AcDbLine
 10
711.1168404661
 20
628.2670548096
 30
0.0
 11
711.1168404661
 21
628.9510950963
 31
0.0
  0
ARC
  5
1D8
330
1F
100
AcDbEntity
  8
0
  6
Continuous
 62
     7
370
    25
100
AcDbCircle
 10
713.0583515769
 20
629.0133376721
 30
0.0
 40
1.942508566654891
100
AcDbArc
 50
181.8362067976
 51
271.7254354149
  0
ARC
  5
1D9
330
1F
100
AcDbEntity
  8
0
  6
Continuous
 62
     7
370
    25
100
AcDbCircle
 10
713.0583515769
 20
628.3292973855
 30
0.0
 40
1.942508566655356
100
AcDbArc
 50
181.8362067977
 51
271.7254354149
  0
LINE
  5
1DA
330
1F
100
AcDbEntity
  8
0
  6
Continuous
 62
     7
370
    25
100
AcDbLine
 10
711.1168404661
 20
628.9510950963
 30
0.0
 11
711.1168404661
 21
634.0921713331
 31
0.0
  0
LINE
  5
1DB
330
1F
100
AcDbEntity
  8
0
  6
Continuous
 62
     7
370
    25
100
AcDbLine
 10
727.1168404661
 20
634.0921713331
 30
0.0
 11
727.1168404661
 21
628.9510950963
 31
0.0
  0
ARC
  5
1DC
330
1F
100
AcDbEntity
  8
0
  6
Continuous
 62
     7
370
    25
100
AcDbCircle
 10
725.1753293553
 20
629.0133376721
 30
0.0
 40
1.942508566655136
100
AcDbArc
 50
268.2745645851
 51
358.1637932023
  0
LINE
  5
1DD
330
1F
100
AcDbEntity
  8
0
  6
Continuous
 62
     7
370
    25
100
AcDbLine
 10
725.1168404661
 20
627.0717098547
 30
0.0
 11
713.1168404661
 21
627.0717098547
 31
0.0
  0
LINE
  5
1DE
330
1F
100
AcDbEntity
  8
0
  6
Continuous
 62
     7
370
    25
100
AcDbLine
 10
725.1168404661
 20
626.3876695681
 30
0.0
 11
713.1168404661
 21
626.3876695681
 31
0.0
  0
LINE
  5
1DF
330
1F
100
AcDbEntity
  8
0
  6
Continuous
 62
     7
370
    25
100
AcDbLine
 10
727.1168404661
 20
628.9510950963
 30
0.0
 11
727.1168404661
 21
628.2670548096
 31
0.0
  0
ARC
  5
1E0
330
1F
100
AcDbEntity
  8
0
  6
Continuous
 62
     7
370
    25
100
AcDbCircle
 10
725.1753293553
 20
628.3292973855
 30
0.0
 40
1.942508566655591
100
AcDbArc
 50
268.2745645851
 51
358.1637932023
  0
LINE
  5
1E1
330
1F
100
AcDbEntity
  8
0
  6
Continuous
 62
     7
370
    25
100
AcDbLine
 10
727.1168404661
 20
634.0921713331
 30
0.0
 11
727.1168404661
 21
634.4341914765
 31
0.0
  0
LINE
  5
1E2
330
1F
100
AcDbEntity
  8
0
  6
Continuous
 62
     7
370
    25
100
AcDbLine
 10
711.1168404661
 20
634.4341914765
 30
0.0
 11
711.1168404661
 21
634.0921713331
 31
0.0
  0
LINE
  5
1E3
330
1F
100
AcDbEntity
  8
0
  6
Continuous
 62
     7
370
    25
100
AcDbLine
 10
727.1168404661
 20
634.2578644958
 30
0.0
 11
737.6168404661
 21
634.2578644958
 31
0.0
  0
LINE
  5
1E4
330
1F
100
AcDbEntity
  8
0
  6
Continuous
 62
     7
370
    25
100
AcDbLine
 10
737.6168404661
 20
649.2578644958
 30
0.0
 11
713.1168404661
 21
649.2578644958
 31
0.0
  0
CIRCLE
  5
1E5
330
1F
100
AcDbEntity
  8
0
  6
Continuous
 62
     7
370
    25
100
AcDbCircle
 10
719.0168404661
 20
641.7578644958
 30
0.0
 40
3.5
  0
ARC
  5
1E6
330
1F
100
AcDbEntity
  8
0
  6
Continuous
 62
     7
370
    25
100
AcDbCircle
 10
713.1168404661
 20
647.2578644958
 30
0.0
 40
2.0
100
AcDbArc
 50
90.0
 51
180.0
  0
LINE
  5
1E7
330
1F
100
AcDbEntity
  8
0
  6
Continuous
 62
     7
370
    25
100
AcDbLine
 10
711.1168404661
 20
647.2578644958
 30
0.0
 11
711.1168404661
 21
634.4341914765
 31
0.0
  0
CIRCLE
  5
1E8
330
1F
100
AcDbEntity
  8
0
  6
Continuous
 62
     7
370
    25
100
AcDbCircle
 10
719.0168404661
 20
291.7578644958
 30
0.0
 40
2.458750000016599
  0
CIRCLE
  5
1E9
330
1F
100
AcDbEntity
  8
0
  6
Continuous
 62
     7
370
    25
100
AcDbCircle
 10
719.0168404661
 20
291.7578644958
 30
0.0
 40
3.000000000000039
  0
LINE
  5
1EA
330
1F
100
AcDbEntity
  8
0
  6
Continuous
 62
     7
370
    25
100
AcDbLine
 10
711.1168404661
 20
278.2670548096
 30
0.0
 11
711.1168404661
 21
278.9510950963
 31
0.0
  0
ARC
  5
1EB
330
1F
100
AcDbEntity
  8
0
  6
Continuous
 62
     7
370
    25
100
AcDbCircle
 10
713.0583515769
 20
279.0133376721
 30
0.0
 40
1.942508566655133
100
AcDbArc
 50
181.8362067977
 51
271.7254354149
  0
ARC
  5
1EC
330
1F
100
AcDbEntity
  8
0
  6
Continuous
 62
     7
370
    25
100
AcDbCircle
 10
713.0583515769
 20
278.3292973855
 30
0.0
 40
1.942508566655124
100
AcDbArc
 50
181.8362067976
 51
271.7254354149
  0
LINE
  5
1ED
330
1F
100
AcDbEntity
  8
0
  6
Continuous
 62
     7
370
    25
100
AcDbLine
 10
711.1168404661
 20
278.9510950963
 30
0.0
 11
711.1168404661
 21
284.0921713331
 31
0.0
  0
LINE
  5
1EE
330
1F
100
AcDbEntity
  8
0
  6
Continuous
 62
     7
370
    25
100
AcDbLine
 10
727.1168404661
 20
284.0921713331
 30
0.0
 11
727.1168404661
 21
278.9510950963
 31
0.0
  0
ARC
  5
1EF
330
1F
100
AcDbEntity
  8
0
  6
Continuous
 62
     7
370
    25
100
AcDbCircle
 10
725.1753293553
 20
279.0133376721
 30
0.0
 40
1.942508566655357
100
AcDbArc
 50
268.2745645851
 51
358.1637932023
  0
LINE
  5
1F0
330
1F
100
AcDbEntity
  8
0
  6
Continuous
 62
     7
370
    25
100
AcDbLine
 10
725.1168404661
 20
277.0717098547
 30
0.0
 11
713.1168404661
 21
277.0717098547
 31
0.0
  0
LINE
  5
1F1
330
1F
100
AcDbEntity
  8
0
  6
Continuous
 62
     7
370
    25
100
AcDbLine
 10
725.1168404661
 20
276.3876695681
 30
0.0
 11
713.1168404661
 21
276.3876695681
 31
0.0
  0
LINE
  5
1F2
330
1F
100
AcDbEntity
  8
0
  6
Continuous
 62
     7
370
    25
100
AcDbLine
 10
727.1168404661
 20
278.9510950963
 30
0.0
 11
727.1168404661
 21
278.2670548096
 31
0.0
  0
ARC
  5
1F3
330
1F
100
AcDbEntity
  8
0
  6
Continuous
 62
     7
370
    25
100
AcDbCircle
 10
725.1753293553
 20
278.3292973855
 30
0.0
 40
1.942508566655413
100
AcDbArc
 50
268.2745645851
 51
358.1637932023
  0
LINE
  5
1F4
330
1F
100
AcDbEntity
  8
0
  6
Continuous
 62
     7
370
    25
100
AcDbLine
 10
727.1168404661
 20
284.0921713331
 30
0.0
 11
727.1168404661
 21
284.4341914765
 31
0.0
  0
LINE
  5
1F5
330
1F
100
AcDbEntity
  8
0
  6
Continuous
 62
     7
370
    25
100
AcDbLine
 10
711.1168404661
 20
284.4341914765
 30
0.0
 11
711.1168404661
 21
284.0921713331
 31
0.0
  0
LINE
  5
1F6
330
1F
100
AcDbEntity
  8
0
  6
Continuous
 62
     7
370
    25
100
AcDbLine
 10
727.1168404661
 20
284.2578644958
 30
0.0
 11
737.6168404661
 21
284.2578644958
 31
0.0
  0
LINE
  5
1F7
330
1F
100
AcDbEntity
  8
0
  6
Continuous
 62
     7
370
    25
100
AcDbLine
 10
711.1168404661
 20
297.2578644958
 30
0.0
 11
711.1168404661
 21
284.4341914765
 31
0.0
  0
LINE
  5
1F8
330
1F
100
AcDbEntity
  8
0
  6
Continuous
 62
     7
370
    25
100
AcDbLine
 10
737.6168404661
 20
299.2578644958
 30
0.0
 11
713.1168404661
 21
299.2578644958
 31
0.0
  0
CIRCLE
  5
1F9
330
1F
100
AcDbEntity
  8
0
  6
Continuous
 62
     7
370
    25
100
AcDbCircle
 10
719.0168404661
 20
291.7578644958
 30
0.0
 40
3.5
  0
ARC
  5
1FA
330
1F
100
AcDbEntity
  8
0
  6
Continuous
 62
     7
370
    25
100
AcDbCircle
 10
713.1168404661
 20
297.2578644958
 30
0.0
 40
2.0
100
AcDbArc
 50
90.0
 51
180.0
  0
LINE
  5
1FB
330
1F
100
AcDbEntity
  8
0
  6
Continuous
 62
     7
370
    25
100
AcDbLine
 10
711.1168404661
 20
-71.7329451904
 30
0.0
 11
711.1168404661
 21
-71.0489049037
 31
0.0
  0
ARC
  5
1FC
330
1F
100
AcDbEntity
  8
0
  6
Continuous
 62
     7
370
    25
100
AcDbCircle
 10
713.0583515769
 20
-70.9866623279
 30
0.0
 40
1.942508566655357
100
AcDbArc
 50
181.8362067977
 51
271.7254354149
  0
ARC
  5
1FD
330
1F
100
AcDbEntity
  8
0
  6
Continuous
 62
     7
370
    25
100
AcDbCircle
 10
713.0583515769
 20
-71.6707026145
 30
0.0
 40
1.942508566655147
100
AcDbArc
 50
181.8362067977
 51
271.7254354149
  0
LINE
  5
1FE
330
1F
100
AcDbEntity
  8
0
  6
Continuous
 62
     7
370
    25
100
AcDbLine
 10
711.1168404661
 20
-71.0489049037
 30
0.0
 11
711.1168404661
 21
-65.9078286669
 31
0.0
  0
LINE
  5
1FF
330
1F
100
AcDbEntity
  8
0
  6
Continuous
 62
     7
370
    25
100
AcDbLine
 10
727.1168404661
 20
-65.9078286669
 30
0.0
 11
727.1168404661
 21
-71.0489049037
 31
0.0
  0
ARC
  5
200
330
1F
100
AcDbEntity
  8
0
  6
Continuous
 62
     7
370
    25
100
AcDbCircle
 10
725.1753293553
 20
-70.9866623279
 30
0.0
 40
1.942508566655328
100
AcDbArc
 50
268.2745645851
 51
358.1637932023
  0
LINE
  5
201
330
1F
100
AcDbEntity
  8
0
  6
Continuous
 62
     7
370
    25
100
AcDbLine
 10
725.1168404661
 20
-72.9282901453
 30
0.0
 11
713.1168404661
 21
-72.9282901453
 31
0.0
  0
LINE
  5
202
330
1F
100
AcDbEntity
  8
0
  6
Continuous
 62
     7
370
    25
100
AcDbLine
 10
725.1168404661
 20
-73.6123304319
 30
0.0
 11
713.1168404661
 21
-73.6123304319
 31
0.0
  0
LINE
  5
203
330
1F
100
AcDbEntity
  8
0
  6
Continuous
 62
     7
370
    25
100
AcDbLine
 10
727.1168404661
 20
-71.0489049037
 30
0.0
 11
727.1168404661
 21
-71.7329451904
 31
0.0
  0
ARC
  5
204
330
1F
100
AcDbEntity
  8
0
  6
Continuous
 62
     7
370
    25
100
AcDbCircle
 10
725.1753293553
 20
-71.6707026145
 30
0.0
 40
1.942508566655342
100
AcDbArc
 50
268.2745645851
 51
358.1637932023
  0
LINE
  5
205
330
1F
100
AcDbEntity
  8
0
  6
Continuous
 62
     7
370
    25
100
AcDbLine
 10
727.1168404661
 20
-65.9078286669
 30
0.0
 11
727.1168404661
 21
-65.5658085235
 31
0.0
  0
LINE
  5
206
330
1F
100
AcDbEntity
  8
0
  6
Continuous
 62
     7
370
    25
100
AcDbLine
 10
711.1168404661
 20
-65.5658085235
 30
0.0
 11
711.1168404661
 21
-65.9078286669
 31
0.0
  0
LINE
  5
207
330
1F
100
AcDbEntity
  8
0
  6
Continuous
 62
     7
370
    25
100
AcDbLine
 10
727.1168404661
 20
-65.7421355042
 30
0.0
 11
737.6168404661
 21
-65.7421355042
 31
0.0
  0
CIRCLE
  5
208
330
1F
100
AcDbEntity
  8
0
  6
Continuous
 62
     7
370
    25
100
AcDbCircle
 10
719.0168404661
 20
-58.2421355042
 30
0.0
 40
3.499999999999886
  0
LINE
  5
209
330
1F
100
AcDbEntity
  8
0
  6
Continuous
 62
     7
370
    25
100
AcDbLine
 10
711.1168404661
 20
-52.7421355042
 30
0.0
 11
711.1168404661
 21
-65.5658085235
 31
0.0
  0
LINE
  5
20A
330
1F
100
AcDbEntity
  8
0
  6
Continuous
 62
     7
370
    25
100
AcDbLine
 10
737.6168404661
 20
-50.7421355042
 30
0.0
 11
713.1168404661
 21
-50.7421355042
 31
0.0
  0
ARC
  5
20B
330
1F
100
AcDbEntity
  8
0
  6
Continuous
 62
     7
370
    25
100
AcDbCircle
 10
713.1168404661
 20
-52.7421355042
 30
0.0
 40
2.0
100
AcDbArc
 50
90.0
 51
180.0
  0
CIRCLE
  5
20C
330
1F
100
AcDbEntity
  8
0
  6
Continuous
 62
     7
370
    25
100
AcDbCircle
 10
719.0168404661
 20
717.7578644958
 30
0.0
 40
2.458750000016702
  0
CIRCLE
  5
20D
330
1F
100
AcDbEntity
  8
0
  6
Continuous
 62
     7
370
    25
100
AcDbCircle
 10
719.0168404661
 20
717.7578644958
 30
0.0
 40
3.000000000000064
  0
CIRCLE
  5
20E
330
1F
100
AcDbEntity
  8
0
  6
Continuous
 62
     7
370
    25
100
AcDbCircle
 10
719.0168404661
 20
-58.2421355042
 30
0.0
 40
2.458750000016561
  0
CIRCLE
  5
20F
330
1F
100
AcDbEntity
  8
0
  6
Continuous
 62
     7
370
    25
100
AcDbCircle
 10
719.0168404661
 20
-58.2421355042
 30
0.0
 40
3.00000000000001
  0
CIRCLE
  5
210
330
1F
100
AcDbEntity
  8
0
  6
Continuous
 62
     7
370
    25
100
AcDbCircle
 10
719.0168404661
 20
641.7578644958
 30
0.0
 40
2.458750000016599
  0
CIRCLE
  5
211
330
1F
100
AcDbEntity
  8
0
  6
Continuous
 62
     7
370
    25
100
AcDbCircle
 10
719.0168404661
 20
641.7578644958
 30
0.0
 40
2.999999999999965
  0
LINE
  5
212
330
1F
100
AcDbEntity
  8
0
  6
Continuous
 62
     7
370
    25
100
AcDbLine
 10
550.1443680867
 20
807.2834202127
 30
0.0
 11
550.6443680867
 21
806.7834202127
 31
0.0
  0
LINE
  5
213
330
1F
100
AcDbEntity
  8
0
  6
Continuous
 62
     7
370
    25
100
AcDbLine
 10
550.1443680867
 20
811.2834202127
 30
0.0
 11
550.1443680867
 21
807.2834202127
 31
0.0
  0
LINE
  5
214
330
1F
100
AcDbEntity
  8
0
  6
Continuous
 62
     7
370
    25
100
AcDbLine
 10
550.2007100485
 20
807.2834202127
 30
0.0
 11
550.7007100485
 21
806.7834202127
 31
0.0
  0
LINE
  5
215
330
1F
100
AcDbEntity
  8
0
  6
Continuous
 62
     7
370
    25
100
AcDbLine
 10
550.2007100485
 20
811.2834202127
 30
0.0
 11
550.2007100485
 21
807.2834202127
 31
0.0
  0
LINE
  5
216
330
1F
100
AcDbEntity
  8
0
  6
Continuous
 62
     7
370
    25
100
AcDbLine
 10
267.1211610626
 20
807.2834202127
 30
0.0
 11
267.6211610626
 21
806.7834202127
 31
0.0
  0
LINE
  5
217
330
1F
100
AcDbEntity
  8
0
  6
Continuous
 62
     7
370
    25
100
AcDbLine
 10
267.1211610626
 20
811.2834202127
 30
0.0
 11
267.1211610626
 21
807.2834202127
 31
0.0
  0
LINE
  5
218
330
1F
100
AcDbEntity
  8
0
  6
Continuous
 62
     7
370
    25
100
AcDbLine
 10
272.9716951808
 20
807.2834202127
 30
0.0
 11
272.9716951808
 21
811.2834202127
 31
0.0
  0
LINE
  5
219
330
1F
100
AcDbEntity
  8
0
  6
Continuous
 62
     7
370
    25
100
AcDbLine
 10
272.4716951808
 20
806.7834202127
 30
0.0
 11
272.9716951808
 21
807.2834202127
 31
0.0
  0
LINE
  5
21A
330
1F
100
AcDbEntity
  8
0
  6
Continuous
 62
     7
370
    25
100
AcDbLine
 10
267.2875789267
 20
807.2834202127
 30
0.0
 11
267.7875789267
 21
806.7834202127
 31
0.0
  0
LINE
  5
21B
330
1F
100
AcDbEntity
  8
0
  6
Continuous
 62
     7
370
    25
100
AcDbLine
 10
267.2875789267
 20
811.2834202127
 30
0.0
 11
267.2875789267
 21
807.2834202127
 31
0.0
  0
LINE
  5
21C
330
1F
100
AcDbEntity
  8
0
  6
Continuous
 62
     7
370
    25
100
AcDbLine
 10
550.2996357071
 20
811.2834202127
 30
0.0
 11
550.2996357071
 21
807.2834202127
 31
0.0
  0
LINE
  5
21D
330
1F
100
AcDbEntity
  8
0
  6
Continuous
 62
     7
370
    25
100
AcDbLine
 10
550.2996357071
 20
807.2834202127
 30
0.0
 11
550.7996357071
 21
806.7834202127
 31
0.0
  0
LINE
  5
21E
330
1F
100
AcDbEntity
  8
0
  6
Continuous
 62
     7
370
    25
100
AcDbLine
 10
555.9764761671
 20
807.2834202127
 30
0.0
 11
555.9764761671
 21
811.2834202127
 31
0.0
  0
LINE
  5
21F
330
1F
100
AcDbEntity
  8
0
  6
Continuous
 62
     7
370
    25
100
AcDbLine
 10
555.4764761671
 20
806.7834202127
 30
0.0
 11
555.9764761671
 21
807.2834202127
 31
0.0
  0
ARC
  5
220
330
1F
100
AcDbEntity
  8
0
  6
Continuous
 62
     7
370
    25
100
AcDbCircle
 10
563.0128208011
 20
787.3834202126
 30
0.0
 40
0.5000000000001137
100
AcDbArc
 50
180.0
 51
0.0
  0
ARC
  5
221
330
1F
100
AcDbEntity
  8
0
  6
Continuous
 62
     7
370
    25
100
AcDbCircle
 10
563.0128208011
 20
798.9834202128
 30
0.0
 40
0.5000000000001137
100
AcDbArc
 50
0.0
 51
180.0
  0
LINE
  5
222
330
1F
100
AcDbEntity
  8
0
  6
Continuous
 62
     7
370
    25
100
AcDbLine
 10
558.7404022383
 20
798.5776028248
 30
0.0
 11
558.5128208011
 21
798.1834202127
 31
0.0
  0
LINE
  5
223
330
1F
100
AcDbEntity
  8
0
  6
Continuous
 62
     7
370
    25
100
AcDbLine
 10
572.9715708011
 20
796.1834202127
 30
0.0
 11
568.1283671892
 21
796.1834202127
 31
0.0
  0
LINE
  5
224
330
1F
100
AcDbEntity
  8
0
  6
Continuous
 62
     7
370
    25
100
AcDbLine
 10
568.1283671892
 20
790.1834202127
 30
0.0
 11
572.9715708011
 21
790.1834202127
 31
0.0
  0
LINE
  5
225
330
1F
100
AcDbEntity
  8
0
  6
Continuous
 62
     7
370
    25
100
AcDbLine
 10
572.9715708011
 20
790.1834202127
 30
0.0
 11
573.5128208011
 21
790.7246702127
 31
0.0
  0
LINE
  5
226
330
1F
100
AcDbEntity
  8
0
  6
Continuous
 62
     7
370
    25
100
AcDbLine
 10
573.5128208011
 20
795.6421702127
 30
0.0
 11
572.9715708011
 21
796.1834202127
 31
0.0
  0
LINE
  5
227
330
1F
100
AcDbEntity
  8
0
  6
Continuous
 62
     7
370
    25
100
AcDbLine
 10
558.5128208011
 20
788.1834202127
 30
0.0
 11
558.7404022383
 21
787.7892376006
 31
0.0
  0
LINE
  5
228
330
1F
100
AcDbEntity
  8
0
  6
Continuous
 62
     7
370
    25
100
AcDbLine
 10
573.1715708011
 20
796.1834202127
 30
0.0
 11
572.9715708011
 21
796.1834202127
 31
0.0
  0
LINE
  5
229
330
1F
100
AcDbEntity
  8
0
  6
Continuous
 62
     7
370
    25
100
AcDbLine
 10
572.9715708011
 20
790.1834202127
 30
0.0
 11
573.1715708011
 21
790.1834202127
 31
0.0
  0
LINE
  5
22A
330
1F
100
AcDbEntity
  8
0
  6
Continuous
 62
     7
370
    25
100
AcDbLine
 10
573.1715708011
 20
790.1834202127
 30
0.0
 11
573.7128208011
 21
790.7246702127
 31
0.0
  0
LINE
  5
22B
330
1F
100
AcDbEntity
  8
0
  6
Continuous
 62
     7
370
    25
100
AcDbLine
 10
573.7128208011
 20
795.6421702127
 30
0.0
 11
573.1715708011
 21
796.1834202127
 31
0.0
  0
LINE
  5
22C
330
1F
100
AcDbEntity
  8
0
  6
Continuous
 62
     7
370
    25
100
AcDbLine
 10
249.8540708011
 20
790.1834202127
 30
0.0
 11
250.0540708011
 21
790.1834202127
 31
0.0
  0
LINE
  5
22D
330
1F
100
AcDbEntity
  8
0
  6
Continuous
 62
     7
370
    25
100
AcDbLine
 10
250.0540708011
 20
796.1834202127
 30
0.0
 11
249.8540708011
 21
796.1834202127
 31
0.0
  0
LINE
  5
22E
330
1F
100
AcDbEntity
  8
0
  6
Continuous
 62
     7
370
    25
100
AcDbLine
 10
249.8540708011
 20
796.1834202127
 30
0.0
 11
249.3128208011
 21
795.6421702127
 31
0.0
  0
LINE
  5
22F
330
1F
100
AcDbEntity
  8
0
  6
Continuous
 62
     7
370
    25
100
AcDbLine
 10
249.3128208011
 20
790.7246702127
 30
0.0
 11
249.8540708011
 21
790.1834202127
 31
0.0
  0
LINE
  5
230
330
1F
100
AcDbEntity
  8
0
  6
Continuous
 62
     7
370
    25
100
AcDbLine
 10
264.1833377053
 20
787.6127387506
 30
0.0
 11
264.5128208011
 21
788.1834202127
 31
0.0
  0
LINE
  5
231
330
1F
100
AcDbEntity
  8
0
  6
Continuous
 62
     7
370
    25
100
AcDbLine
 10
251.0128208011
 20
816.3834202127
 30
0.0
 11
257.0128208011
 21
816.3834202127
 31
0.0
  0
LINE
  5
232
330
1F
100
AcDbEntity
  8
0
  6
Continuous
 62
     7
370
    25
100
AcDbLine
 10
257.0128208011
 20
816.3834202127
 30
0.0
 11
259.9522084924
 21
816.3834202127
 31
0.0
  0
LINE
  5
233
330
1F
100
AcDbEntity
  8
0
  6
Continuous
 62
     7
370
    25
100
AcDbLine
 10
563.0734331097
 20
816.3834202127
 30
0.0
 11
566.0128208011
 21
816.3834202127
 31
0.0
  0
LINE
  5
234
330
1F
100
AcDbEntity
  8
0
  6
Continuous
 62
     7
370
    25
100
AcDbLine
 10
566.0128208011
 20
816.3834202127
 30
0.0
 11
572.0128208011
 21
816.3834202127
 31
0.0
  0
ARC
  5
235
330
1F
100
AcDbEntity
  8
0
  6
Continuous
 62
     7
370
    25
100
AcDbCircle
 10
260.0128208011
 20
798.9834202128
 30
0.0
 40
0.5000000000000568
100
AcDbArc
 50
0.0
 51
180.0
  0
ARC
  5
236
330
1F
100
AcDbEntity
  8
0
  6
Continuous
 62
     7
370
    25
100
AcDbCircle
 10
260.0128208011
 20
787.3834202126
 30
0.0
 40
0.5
100
AcDbArc
 50
180.0
 51
0.0
  0
LINE
  5
237
330
1F
100
AcDbEntity
  8
0
  6
Continuous
 62
     7
370
    25
100
AcDbLine
 10
250.0540708011
 20
796.1834202127
 30
0.0
 11
249.5128208011
 21
795.6421702127
 31
0.0
  0
LINE
  5
238
330
1F
100
AcDbEntity
  8
0
  6
Continuous
 62
     7
370
    25
100
AcDbLine
 10
249.5128208011
 20
790.7246702127
 30
0.0
 11
250.0540708011
 21
790.1834202127
 31
0.0
  0
LINE
  5
239
330
1F
100
AcDbEntity
  8
0
  6
Continuous
 62
     7
370
    25
100
AcDbLine
 10
250.0540708011
 20
790.1834202127
 30
0.0
 11
254.8972744129
 21
790.1834202127
 31
0.0
  0
LINE
  5
23A
330
1F
100
AcDbEntity
  8
0
  6
Continuous
 62
     7
370
    25
100
AcDbLine
 10
254.8972744129
 20
796.1834202127
 30
0.0
 11
250.0540708011
 21
796.1834202127
 31
0.0
  0
ARC
  5
23B
330
1F
100
AcDbEntity
  8
0
  6
Continuous
 62
     7
370
    25
100
AcDbCircle
 10
257.0128208011
 20
815.7834202127
 30
0.0
 40
3.0
100
AcDbArc
 50
0.0
 51
90.0
  0
LINE
  5
23C
330
1F
100
AcDbEntity
  8
0
  6
Continuous
 62
     7
370
    25
100
AcDbLine
 10
245.0128208011
 20
818.7834202127
 30
0.0
 11
257.0128208011
 21
818.7834202127
 31
0.0
  0
ARC
  5
23D
330
1F
100
AcDbEntity
  8
0
  6
Continuous
 62
     7
370
    25
100
AcDbCircle
 10
245.0128208011
 20
815.7834202127
 30
0.0
 40
3.0
100
AcDbArc
 50
90.0
 51
180.0
  0
LINE
  5
23E
330
1F
100
AcDbEntity
  8
0
  6
Continuous
 62
     7
370
    25
100
AcDbLine
 10
242.0128208011
 20
814.7834202127
 30
0.0
 11
242.0128208011
 21
815.7834202127
 31
0.0
  0
ARC
  5
23F
330
1F
100
AcDbEntity
  8
0
  6
Continuous
 62
     7
370
    25
100
AcDbCircle
 10
239.0128208011
 20
814.7834202127
 30
0.0
 40
3.0
100
AcDbArc
 50
270.0
 51
0.0
  0
LINE
  5
240
330
1F
100
AcDbEntity
  8
0
  6
Continuous
 62
     7
370
    25
100
AcDbLine
 10
215.4835314792
 20
811.7834202127
 30
0.0
 11
239.0128208011
 21
811.7834202127
 31
0.0
  0
LINE
  5
241
330
1F
100
AcDbEntity
  8
0
  6
Continuous
 62
     7
370
    25
100
AcDbLine
 10
215.4835314792
 20
821.3834202127
 30
0.0
 11
215.4835314792
 21
811.7834202127
 31
0.0
  0
LINE
  5
242
330
1F
100
AcDbEntity
  8
0
  6
Continuous
 62
     7
370
    25
100
AcDbLine
 10
607.5421101229
 20
821.3834202127
 30
0.0
 11
607.5421101229
 21
811.7834202127
 31
0.0
  0
LINE
  5
243
330
1F
100
AcDbEntity
  8
0
  6
Continuous
 62
     7
370
    25
100
AcDbLine
 10
584.0128208011
 20
811.7834202127
 30
0.0
 11
607.5421101229
 21
811.7834202127
 31
0.0
  0
ARC
  5
244
330
1F
100
AcDbEntity
  8
0
  6
Continuous
 62
     7
370
    25
100
AcDbCircle
 10
584.0128208011
 20
814.7834202127
 30
0.0
 40
3.0
100
AcDbArc
 50
180.0
 51
270.0
  0
LINE
  5
245
330
1F
100
AcDbEntity
  8
0
  6
Continuous
 62
     7
370
    25
100
AcDbLine
 10
581.0128208011
 20
814.7834202127
 30
0.0
 11
581.0128208011
 21
815.7834202127
 31
0.0
  0
ARC
  5
246
330
1F
100
AcDbEntity
  8
0
  6
Continuous
 62
     7
370
    25
100
AcDbCircle
 10
578.0128208011
 20
815.7834202127
 30
0.0
 40
3.000000000000114
100
AcDbArc
 50
0.0
 51
90.0
  0
LINE
  5
247
330
1F
100
AcDbEntity
  8
0
  6
Continuous
 62
     7
370
    25
100
AcDbLine
 10
578.0128208011
 20
818.7834202127
 30
0.0
 11
566.0128208011
 21
818.7834202127
 31
0.0
  0
ARC
  5
248
330
1F
100
AcDbEntity
  8
0
  6
Continuous
 62
     7
370
    25
100
AcDbCircle
 10
566.0128208011
 20
815.7834202127
 30
0.0
 40
3.0
100
AcDbArc
 50
90.0
 51
180.0
  0
LINE
  5
249
330
1F
100
AcDbEntity
  8
0
  6
Continuous
 62
     7
370
    25
100
AcDbLine
 10
563.0128208011
 20
814.7834202127
 30
0.0
 11
563.0128208011
 21
815.7834202127
 31
0.0
  0
ARC
  5
24A
330
1F
100
AcDbEntity
  8
0
  6
Continuous
 62
     7
370
    25
100
AcDbCircle
 10
560.0128208011
 20
814.7834202127
 30
0.0
 40
3.0
100
AcDbArc
 50
270.0
 51
0.0
  0
LINE
  5
24B
330
1F
100
AcDbEntity
  8
0
  6
Continuous
 62
     7
370
    25
100
AcDbLine
 10
263.0128208011
 20
811.7834202127
 30
0.0
 11
560.0128208011
 21
811.7834202127
 31
0.0
  0
ARC
  5
24C
330
1F
100
AcDbEntity
  8
0
  6
Continuous
 62
     7
370
    25
100
AcDbCircle
 10
263.0128208011
 20
814.7834202127
 30
0.0
 40
3.0
100
AcDbArc
 50
180.0
 51
270.0
  0
LINE
  5
24D
330
1F
100
AcDbEntity
  8
0
  6
Continuous
 62
     7
370
    25
100
AcDbLine
 10
260.0128208011
 20
814.7834202127
 30
0.0
 11
260.0128208011
 21
815.7834202127
 31
0.0
  0
SPLINE
  5
24E
330
1F
100
AcDbEntity
  8
0
  6
Continuous
 62
     7
370
    25
100
AcDbSpline
210
0.0
220
0.0
230
1.0
 70
     8
 71
     3
 72
    20
 73
    16
 74
     0
 42
0.000000001
 43
0.00000001
 40
0.0
 40
0.0
 40
0.0
 40
0.0
 40
0.1250000000000039
 40
0.1250000000000039
 40
0.2500000000000078
 40
0.2500000000000078
 40
0.3750000000000118
 40
0.3750000000000118
 40
0.5000000000000157
 40
0.5000000000000157
 40
0.7500000000000184
 40
0.7500000000000184
 40
0.8750000000000093
 40
0.8750000000000093
 40
1.0
 40
1.0
 40
1.0
 40
1.0
 10
606.6128208010615
 20
823.7834202127009
 30
0.0
 10
606.651861531916
 20
823.7834202127009
 30
0.0
 10
606.6903802361157
 20
823.767883652226
 30
0.0
 10
606.7677869874237
 20
823.7065653002655
 30
0.0
 10
606.8069314054104
 20
823.6601415546787
 30
0.0
 10
606.8840821593255
 20
823.5401906845245
 30
0.0
 10
606.9224097410666
 20
823.4665860402412
 30
0.0
 10
606.9999560615432
 20
823.2918556741454
 30
0.0
 10
607.038932269212
 20
823.191005045244
 30
0.0
 10
607.154427125657
 20
822.85971976526
 30
0.0
 10
607.2323395693271
 20
822.5920396038762
 30
0.0
 10
607.3478194947279
 20
822.1593655778207
 30
0.0
 10
607.386685290593
 20
822.0078474909695
 30
0.0
 10
607.4644596242614
 20
821.6984217335835
 30
0.0
 10
607.5030693912162
 20
821.5417994038897
 30
0.0
 10
607.5421101229427
 20
821.3834202127009
 30
0.0
  0
LINE
  5
24F
330
1F
100
AcDbEntity
  8
0
  6
Continuous
 62
     7
370
    25
100
AcDbLine
 10
216.4128208011
 20
823.7834202127
 30
0.0
 11
606.6128208011
 21
823.7834202127
 31
0.0
  0
SPLINE
  5
250
330
1F
100
AcDbEntity
  8
0
  6
Continuous
 62
     7
370
    25
100
AcDbSpline
210
0.0
220
0.0
230
1.0
 70
     8
 71
     3
 72
    20
 73
    16
 74
     0
 42
0.000000001
 43
0.00000001
 40
0.0
 40
0.0
 40
0.0
 40
0.0
 40
0.1250000000000006
 40
0.1250000000000006
 40
0.2500000000000013
 40
0.2500000000000013
 40
0.3750000000000019
 40
0.3750000000000019
 40
0.5000000000000026
 40
0.5000000000000026
 40
0.7500000000000038
 40
0.7500000000000038
 40
0.8750000000000019
 40
0.8750000000000019
 40
1.0
 40
1.0
 40
1.0
 40
1.0
 10
215.48353147918
 20
821.3834202127009
 30
0.0
 10
215.5225722100346
 20
821.5417994003517
 30
0.0
 10
215.5610909142343
 20
821.6980451250433
 30
0.0
 10
215.6384976655423
 20
822.0060369744599
 30
0.0
 10
215.677642083529
 20
822.158681081931
 30
0.0
 10
215.7547928374442
 20
822.4477653711182
 30
0.0
 10
215.7931204191852
 20
822.5855699093022
 30
0.0
 10
215.8706667396618
 20
822.8471885849411
 30
0.0
 10
215.9096429473304
 20
822.9699348916238
 30
0.0
 10
216.0251378037755
 20
823.3012592685715
 30
0.0
 10
216.1030502474456
 20
823.4802703925998
 30
0.0
 10
216.2185301728464
 20
823.6598854919805
 30
0.0
 10
216.2573959687114
 20
823.7061298408482
 30
0.0
 10
216.33517030238
 20
823.7678831468595
 30
0.0
 10
216.3737800693348
 20
823.7834202127009
 30
0.0
 10
216.4128208010614
 20
823.7834202127009
 30
0.0
  0
LINE
  5
251
330
1F
100
AcDbEntity
  8
0
  6
Continuous
 62
     7
370
    25
100
AcDbLine
 10
609.0128208011
 20
821.3834202127
 30
0.0
 11
607.6128208011
 21
821.3834202127
 31
0.0
  0
SPLINE
  5
252
330
1F
100
AcDbEntity
  8
0
  6
Continuous
 62
     7
370
    25
100
AcDbSpline
210
0.0
220
0.0
230
1.0
 70
     8
 71
     3
 72
     9
 73
     5
 74
     0
 42
0.000000001
 43
0.00000001
 40
0.0
 40
0.0
 40
0.0
 40
0.0
 40
0.6784508005729825
 40
1.0
 40
1.0
 40
1.0
 40
1.0
 10
607.6128208010614
 20
821.3834202127009
 30
0.0
 10
607.599571230597
 20
821.5341274171543
 30
0.0
 10
607.5800420761568
 20
821.7562617330487
 30
0.0
 10
607.439194422518
 20
821.9230948379378
 30
0.0
 10
607.3939049722492
 20
821.9767398892528
 30
0.0
  0
SPLINE
  5
253
330
1F
100
AcDbEntity
  8
0
  6
Continuous
 62
     7
370
    25
100
AcDbSpline
210
0.0
220
0.0
230
1.0
 70
     8
 71
     3
 72
    20
 73
    16
 74
     0
 42
0.000000001
 43
0.00000001
 40
0.0
 40
0.0
 40
0.0
 40
0.0
 40
0.1249999999999999
 40
0.1249999999999999
 40
0.2499999999999999
 40
0.2499999999999999
 40
0.375
 40
0.375
 40
0.5
 40
0.5
 40
0.75
 40
0.75
 40
0.875
 40
0.875
 40
1.0
 40
1.0
 40
1.0
 40
1.0
 10
609.0128208010615
 20
821.3834202127009
 30
0.0
 10
609.0128208010615
 20
821.5417994003517
 30
0.0
 10
608.9972842405866
 20
821.6980451250433
 30
0.0
 10
608.935965888626
 20
822.0060369744599
 30
0.0
 10
608.8895421430392
 20
822.1586810819311
 30
0.0
 10
608.7695912728851
 20
822.4477653711182
 30
0.0
 10
608.6959866286016
 20
822.5855699093022
 30
0.0
 10
608.521256262506
 20
822.8471885849411
 30
0.0
 10
608.4204056336046
 20
822.9699348916238
 30
0.0
 10
608.0891203536205
 20
823.3012592685715
 30
0.0
 10
607.8214401922367
 20
823.4802703925998
 30
0.0
 10
607.3887661661812
 20
823.6598854919805
 30
0.0
 10
607.2372480793301
 20
823.7061298408482
 30
0.0
 10
606.927822321944
 20
823.7678831468595
 30
0.0
 10
606.7711999922502
 20
823.7834202127009
 30
0.0
 10
606.6128208010615
 20
823.7834202127009
 30
0.0
  0
SPLINE
  5
254
330
1F
100
AcDbEntity
  8
0
  6
Continuous
 62
     7
370
    25
100
AcDbSpline
210
0.0
220
0.0
230
1.0
 70
     8
 71
     3
 72
     9
 73
     5
 74
     0
 42
0.000000001
 43
0.00000001
 40
0.0
 40
0.0
 40
0.0
 40
0.0
 40
0.482578428729208
 40
1.0
 40
1.0
 40
1.0
 40
1.0
 10
215.636650569115
 20
821.995959951879
 30
0.0
 10
215.5728423760536
 20
821.9078256105626
 30
0.0
 10
215.4406189088145
 20
821.7251934495096
 30
0.0
 10
215.4222996043579
 20
821.499960565465
 30
0.0
 10
215.4128208010614
 20
821.3834202127009
 30
0.0
  0
LINE
  5
255
330
1F
100
AcDbEntity
  8
0
  6
Continuous
 62
     7
370
    25
100
AcDbLine
 10
214.0128208011
 20
821.3834202127
 30
0.0
 11
215.4128208011
 21
821.3834202127
 31
0.0
  0
SPLINE
  5
256
330
1F
100
AcDbEntity
  8
0
  6
Continuous
 62
     7
370
    25
100
AcDbSpline
210
0.0
220
0.0
230
1.0
 70
     8
 71
     3
 72
    20
 73
    16
 74
     0
 42
0.000000001
 43
0.00000001
 40
0.0
 40
0.0
 40
0.0
 40
0.0
 40
0.1250000000000013
 40
0.1250000000000013
 40
0.2500000000000027
 40
0.2500000000000027
 40
0.375000000000004
 40
0.375000000000004
 40
0.5000000000000053
 40
0.5000000000000053
 40
0.7500000000000079
 40
0.7500000000000079
 40
0.875000000000004
 40
0.875000000000004
 40
1.0
 40
1.0
 40
1.0
 40
1.0
 10
216.4128208010615
 20
823.7834202127009
 30
0.0
 10
216.2544416134108
 20
823.7834202127009
 30
0.0
 10
216.098195888719
 20
823.767883652226
 30
0.0
 10
215.7902040393024
 20
823.7065653002655
 30
0.0
 10
215.6375599318312
 20
823.6601415546787
 30
0.0
 10
215.3484756426442
 20
823.5401906845245
 30
0.0
 10
215.2106711044603
 20
823.4665860402412
 30
0.0
 10
214.9490524288213
 20
823.2918556741455
 30
0.0
 10
214.8263061221386
 20
823.191005045244
 30
0.0
 10
214.4949817451909
 20
822.8597197652599
 30
0.0
 10
214.3159706211628
 20
822.5920396038762
 30
0.0
 10
214.1363555217819
 20
822.1593655778207
 30
0.0
 10
214.0901111729142
 20
822.0078474909695
 30
0.0
 10
214.028357866903
 20
821.6984217335835
 30
0.0
 10
214.0128208010614
 20
821.5417994038897
 30
0.0
 10
214.0128208010614
 20
821.3834202127009
 30
0.0
  0
LINE
  5
257
330
1F
100
AcDbEntity
  8
0
  6
Continuous
 62
     7
370
    25
100
AcDbLine
 10
607.6128208011
 20
821.3834202127
 30
0.0
 11
607.6128208011
 21
811.7834202127
 31
0.0
  0
LINE
  5
258
330
1F
100
AcDbEntity
  8
0
  6
Continuous
 62
     7
370
    25
100
AcDbLine
 10
609.0128208011
 20
821.3834202127
 30
0.0
 11
609.0128208011
 21
811.7834202127
 31
0.0
  0
LINE
  5
259
330
1F
100
AcDbEntity
  8
0
  6
Continuous
 62
     7
370
    25
100
AcDbLine
 10
609.0128208011
 20
811.7834202127
 30
0.0
 11
607.6128208011
 21
811.7834202127
 31
0.0
  0
LINE
  5
25A
330
1F
100
AcDbEntity
  8
0
  6
Continuous
 62
     7
370
    25
100
AcDbLine
 10
215.4128208011
 20
821.3834202127
 30
0.0
 11
215.4128208011
 21
811.7834202127
 31
0.0
  0
LINE
  5
25B
330
1F
100
AcDbEntity
  8
0
  6
Continuous
 62
     7
370
    25
100
AcDbLine
 10
214.0128208011
 20
811.7834202127
 30
0.0
 11
215.4128208011
 21
811.7834202127
 31
0.0
  0
LINE
  5
25C
330
1F
100
AcDbEntity
  8
0
  6
Continuous
 62
     7
370
    25
100
AcDbLine
 10
214.0128208011
 20
821.3834202127
 30
0.0
 11
214.0128208011
 21
811.7834202127
 31
0.0
  0
LINE
  5
25D
330
1F
100
AcDbEntity
  8
0
  6
Continuous
 62
     7
370
    25
100
AcDbLine
 10
550.1443680867
 20
807.2834202127
 30
0.0
 11
550.2007100485
 21
807.2834202127
 31
0.0
  0
LINE
  5
25E
330
1F
100
AcDbEntity
  8
0
  6
Continuous
 62
     7
370
    25
100
AcDbLine
 10
550.7007100485
 20
806.7834202127
 30
0.0
 11
550.6443680867
 21
806.7834202127
 31
0.0
  0
LINE
  5
25F
330
1F
100
AcDbEntity
  8
0
  6
Continuous
 62
     7
370
    25
100
AcDbLine
 10
550.2007100485
 20
807.2834202127
 30
0.0
 11
550.2996357071
 21
807.2834202127
 31
0.0
  0
LINE
  5
260
330
1F
100
AcDbEntity
  8
0
  6
Continuous
 62
     7
370
    25
100
AcDbLine
 10
550.7996357071
 20
806.7834202127
 30
0.0
 11
550.7007100485
 21
806.7834202127
 31
0.0
  0
LINE
  5
261
330
1F
100
AcDbEntity
  8
0
  6
Continuous
 62
     7
370
    25
100
AcDbLine
 10
267.7875789267
 20
806.7834202127
 30
0.0
 11
267.6211610626
 21
806.7834202127
 31
0.0
  0
LINE
  5
262
330
1F
100
AcDbEntity
  8
0
  6
Continuous
 62
     7
370
    25
100
AcDbLine
 10
267.1211610626
 20
807.2834202127
 30
0.0
 11
267.2875789267
 21
807.2834202127
 31
0.0
  0
LINE
  5
263
330
1F
100
AcDbEntity
  8
0
  6
Continuous
 62
     7
370
    25
100
AcDbLine
 10
267.8614395363
 20
807.2834202127
 30
0.0
 11
271.2296720445
 21
807.2834202127
 31
0.0
  0
LINE
  5
264
330
1F
100
AcDbEntity
  8
0
  6
Continuous
 62
     7
370
    25
100
AcDbLine
 10
270.8670511073
 20
806.7834202127
 30
0.0
 11
268.3408767262
 21
806.7834202127
 31
0.0
  0
LINE
  5
265
330
1F
100
AcDbEntity
  8
0
  6
Continuous
 62
     7
370
    25
100
AcDbLine
 10
271.2296720445
 20
807.2834202127
 30
0.0
 11
272.4221789296
 21
807.2834202127
 31
0.0
  0
LINE
  5
266
330
1F
100
AcDbEntity
  8
0
  6
Continuous
 62
     7
370
    25
100
AcDbLine
 10
272.0595579924
 20
806.7834202127
 30
0.0
 11
270.8670511073
 21
806.7834202127
 31
0.0
  0
LINE
  5
267
330
1F
100
AcDbEntity
  8
0
  6
Continuous
 62
     7
370
    25
100
AcDbLine
 10
267.3698301672
 20
807.2834202127
 30
0.0
 11
267.8614395363
 21
807.2834202127
 31
0.0
  0
LINE
  5
268
330
1F
100
AcDbEntity
  8
0
  6
Continuous
 62
     7
370
    25
100
AcDbLine
 10
268.3408767262
 20
806.7834202127
 30
0.0
 11
267.8492673571
 21
806.7834202127
 31
0.0
  0
LINE
  5
269
330
1F
100
AcDbEntity
  8
0
  6
Continuous
 62
     7
370
    25
100
AcDbLine
 10
272.4221789296
 20
807.2834202127
 30
0.0
 11
272.9716951808
 21
807.2834202127
 31
0.0
  0
LINE
  5
26A
330
1F
100
AcDbEntity
  8
0
  6
Continuous
 62
     7
370
    25
100
AcDbLine
 10
272.4716951808
 20
806.7834202127
 30
0.0
 11
272.0595579924
 21
806.7834202127
 31
0.0
  0
LINE
  5
26B
330
1F
100
AcDbEntity
  8
0
  6
Continuous
 62
     7
370
    25
100
AcDbLine
 10
267.2875789267
 20
807.2834202127
 30
0.0
 11
267.3698301672
 21
807.2834202127
 31
0.0
  0
LINE
  5
26C
330
1F
100
AcDbEntity
  8
0
  6
Continuous
 62
     7
370
    25
100
AcDbLine
 10
267.8492673571
 20
806.7834202127
 30
0.0
 11
267.7875789267
 21
806.7834202127
 31
0.0
  0
LINE
  5
26D
330
1F
100
AcDbEntity
  8
0
  6
Continuous
 62
     7
370
    25
100
AcDbLine
 10
550.2996357071
 20
807.2834202127
 30
0.0
 11
552.8005762512
 21
807.2834202127
 31
0.0
  0
LINE
  5
26E
330
1F
100
AcDbEntity
  8
0
  6
Continuous
 62
     7
370
    25
100
AcDbLine
 10
552.6753411152
 20
806.7834202127
 30
0.0
 11
550.7996357071
 21
806.7834202127
 31
0.0
  0
LINE
  5
26F
330
1F
100
AcDbEntity
  8
0
  6
Continuous
 62
     7
370
    25
100
AcDbLine
 10
552.8005762512
 20
807.2834202127
 30
0.0
 11
554.4774167112
 21
807.2834202127
 31
0.0
  0
LINE
  5
270
330
1F
100
AcDbEntity
  8
0
  6
Continuous
 62
     7
370
    25
100
AcDbLine
 10
554.3521815752
 20
806.7834202127
 30
0.0
 11
552.6753411152
 21
806.7834202127
 31
0.0
  0
LINE
  5
271
330
1F
100
AcDbEntity
  8
0
  6
Continuous
 62
     7
370
    25
100
AcDbLine
 10
554.4774167112
 20
807.2834202127
 30
0.0
 11
555.9764761671
 21
807.2834202127
 31
0.0
  0
LINE
  5
272
330
1F
100
AcDbEntity
  8
0
  6
Continuous
 62
     7
370
    25
100
AcDbLine
 10
555.4764761671
 20
806.7834202127
 30
0.0
 11
554.3521815752
 21
806.7834202127
 31
0.0
  0
ARC
  5
273
330
1F
100
AcDbEntity
  8
0
  6
Continuous
 62
     7
370
    25
100
AcDbCircle
 10
492.5128208011
 20
763.6834202127
 30
0.0
 40
3.0
100
AcDbArc
 50
180.0
 51
270.0
  0
LINE
  5
274
330
1F
100
AcDbEntity
  8
0
  6
Continuous
 62
     7
370
    25
100
AcDbLine
 10
489.5128208011
 20
763.6834202127
 30
0.0
 11
489.5128208011
 21
779.8134202127
 31
0.0
  0
LINE
  5
275
330
1F
100
AcDbEntity
  8
0
  6
Continuous
 62
     7
370
    25
100
AcDbLine
 10
489.5128208011
 20
779.8134202127
 30
0.0
 11
487.0128208011
 21
779.8134202127
 31
0.0
  0
LINE
  5
276
330
1F
100
AcDbEntity
  8
0
  6
Continuous
 62
     7
370
    25
100
AcDbLine
 10
487.0128208011
 20
779.3213694051
 30
0.0
 11
487.0128208011
 21
779.8134202127
 31
0.0
  0
LINE
  5
277
330
1F
100
AcDbEntity
  8
0
  6
Continuous
 62
     7
370
    25
100
AcDbLine
 10
337.0128208011
 20
779.3213694051
 30
0.0
 11
337.0128208011
 21
779.8134202127
 31
0.0
  0
LINE
  5
278
330
1F
100
AcDbEntity
  8
0
  6
Continuous
 62
     7
370
    25
100
AcDbLine
 10
337.0128208011
 20
779.8134202127
 30
0.0
 11
334.5128208011
 21
779.8134202127
 31
0.0
  0
LINE
  5
279
330
1F
100
AcDbEntity
  8
0
  6
Continuous
 62
     7
370
    25
100
AcDbLine
 10
334.5128208011
 20
779.8134202127
 30
0.0
 11
334.5128208011
 21
763.6834202127
 31
0.0
  0
ARC
  5
27A
330
1F
100
AcDbEntity
  8
0
  6
Continuous
 62
     7
370
    25
100
AcDbCircle
 10
331.5128208011
 20
763.6834202127
 30
0.0
 40
3.0
100
AcDbArc
 50
270.0
 51
0.0
  0
LINE
  5
27B
330
1F
100
AcDbEntity
  8
0
  6
Continuous
 62
     7
370
    25
100
AcDbLine
 10
331.5128208011
 20
760.6834202127
 30
0.0
 11
266.5128208011
 21
760.6834202127
 31
0.0
  0
ARC
  5
27C
330
1F
100
AcDbEntity
  8
0
  6
Continuous
 62
     7
370
    25
100
AcDbCircle
 10
266.5128208011
 20
763.6834202127
 30
0.0
 40
3.0
100
AcDbArc
 50
180.0
 51
270.0
  0
LINE
  5
27D
330
1F
100
AcDbEntity
  8
0
  6
Continuous
 62
     7
370
    25
100
AcDbLine
 10
263.5128208011
 20
763.6834202127
 30
0.0
 11
263.5128208011
 21
784.6834202127
 31
0.0
  0
LINE
  5
27E
330
1F
100
AcDbEntity
  8
0
  6
Continuous
 62
     7
370
    25
100
AcDbLine
 10
263.5128208011
 20
784.6834202127
 30
0.0
 11
260.3128208011
 21
784.6834202127
 31
0.0
  0
LINE
  5
27F
330
1F
100
AcDbEntity
  8
0
  6
Continuous
 62
     7
370
    25
100
AcDbLine
 10
260.3128208011
 20
803.6834202127
 30
0.0
 11
261.5128208011
 21
803.6834202127
 31
0.0
  0
LINE
  5
280
330
1F
100
AcDbEntity
  8
0
  6
Continuous
 62
     7
370
    25
100
AcDbLine
 10
261.5128208011
 20
803.6834202127
 30
0.0
 11
261.5128208011
 21
803.8834202127
 31
0.0
  0
LINE
  5
281
330
1F
100
AcDbEntity
  8
0
  6
Continuous
 62
     7
370
    25
100
AcDbLine
 10
561.5128208011
 20
803.8834202127
 30
0.0
 11
561.5128208011
 21
803.6834202127
 31
0.0
  0
LINE
  5
282
330
1F
100
AcDbEntity
  8
0
  6
Continuous
 62
     7
370
    25
100
AcDbLine
 10
561.5128208011
 20
803.6834202127
 30
0.0
 11
562.7128208011
 21
803.6834202127
 31
0.0
  0
LINE
  5
283
330
1F
100
AcDbEntity
  8
0
  6
Continuous
 62
     7
370
    25
100
AcDbLine
 10
562.7128208011
 20
784.6834202127
 30
0.0
 11
559.5128208011
 21
784.6834202127
 31
0.0
  0
ARC
  5
284
330
1F
100
AcDbEntity
  8
0
  6
Continuous
 62
     7
370
    25
100
AcDbCircle
 10
556.5128208011
 20
763.6834202127
 30
0.0
 40
3.0
100
AcDbArc
 50
270.0
 51
0.0
  0
LINE
  5
285
330
1F
100
AcDbEntity
  8
0
  6
Continuous
 62
     7
370
    25
100
AcDbLine
 10
556.5128208011
 20
760.6834202127
 30
0.0
 11
492.5128208011
 21
760.6834202127
 31
0.0
  0
LINE
  5
286
330
1F
100
AcDbEntity
  8
0
  6
Continuous
 62
     7
370
    25
100
AcDbLine
 10
559.5128208011
 20
784.6834202127
 30
0.0
 11
559.5128208011
 21
763.6834202127
 31
0.0
  0
LINE
  5
287
330
1F
100
AcDbEntity
  8
0
  6
Continuous
 62
     7
370
    25
100
AcDbLine
 10
487.0128208011
 20
779.3213694051
 30
0.0
 11
487.0128208011
 21
778.4213694051
 31
0.0
  0
LINE
  5
288
330
1F
100
AcDbEntity
  8
0
  6
Continuous
 62
     7
370
    25
100
AcDbLine
 10
337.0128208011
 20
778.4213694051
 30
0.0
 11
337.0128208011
 21
779.3213694051
 31
0.0
  0
LINE
  5
289
330
1F
100
AcDbEntity
  8
0
  6
Continuous
 62
     7
370
    25
100
AcDbLine
 10
562.7128208011
 20
803.6834202127
 30
0.0
 11
563.5128208011
 21
803.6834202127
 31
0.0
  0
LINE
  5
28A
330
1F
100
AcDbEntity
  8
0
  6
Continuous
 62
     7
370
    25
100
AcDbLine
 10
564.5128208011
 20
784.6834202127
 30
0.0
 11
564.5128208011
 21
785.2834202127
 31
0.0
  0
LINE
  5
28B
330
1F
100
AcDbEntity
  8
0
  6
Continuous
 62
     7
370
    25
100
AcDbLine
 10
564.5128208011
 20
784.6834202127
 30
0.0
 11
562.7128208011
 21
784.6834202127
 31
0.0
  0
LINE
  5
28C
330
1F
100
AcDbEntity
  8
0
  6
Continuous
 62
     7
370
    25
100
AcDbLine
 10
258.5128208011
 20
784.6834202127
 30
0.0
 11
258.5128208011
 21
785.2834202127
 31
0.0
  0
LINE
  5
28D
330
1F
100
AcDbEntity
  8
0
  6
Continuous
 62
     7
370
    25
100
AcDbLine
 10
259.5128208011
 20
803.6834202127
 30
0.0
 11
260.3128208011
 21
803.6834202127
 31
0.0
  0
LINE
  5
28E
330
1F
100
AcDbEntity
  8
0
  6
Continuous
 62
     7
370
    25
100
AcDbLine
 10
260.3128208011
 20
784.6834202127
 30
0.0
 11
258.5128208011
 21
784.6834202127
 31
0.0
  0
LINE
  5
28F
330
1F
100
AcDbEntity
  8
0
  6
Continuous
 62
     7
370
    25
100
AcDbLine
 10
261.5128208011
 20
803.8834202127
 30
0.0
 11
261.5128208011
 21
805.6834202127
 31
0.0
  0
LINE
  5
290
330
1F
100
AcDbEntity
  8
0
  6
Continuous
 62
     7
370
    25
100
AcDbLine
 10
561.5128208011
 20
805.6834202127
 30
0.0
 11
561.5128208011
 21
803.8834202127
 31
0.0
  0
LINE
  5
291
330
1F
100
AcDbEntity
  8
0
  6
Continuous
 62
     7
370
    25
100
AcDbLine
 10
337.0128208011
 20
778.4213694051
 30
0.0
 11
337.0128208011
 21
771.7964982745
 31
0.0
  0
LINE
  5
292
330
1F
100
AcDbEntity
  8
0
  6
Continuous
 62
     7
370
    25
100
AcDbLine
 10
487.0128208011
 20
771.7964982745
 30
0.0
 11
487.0128208011
 21
778.4213694051
 31
0.0
  0
LINE
  5
293
330
1F
100
AcDbEntity
  8
0
  6
Continuous
 62
     7
370
    25
100
AcDbLine
 10
487.0128208011
 20
771.2964982745
 30
0.0
 11
487.0128208011
 21
771.7964982745
 31
0.0
  0
LINE
  5
294
330
1F
100
AcDbEntity
  8
0
  6
Continuous
 62
     7
370
    25
100
AcDbLine
 10
337.0128208011
 20
771.7964982745
 30
0.0
 11
337.0128208011
 21
771.2964982745
 31
0.0
  0
ARC
  5
295
330
1F
100
AcDbEntity
  8
0
  6
Continuous
 62
     7
370
    25
100
AcDbCircle
 10
340.0128208011
 20
764.7788068209
 30
0.0
 40
3.0
100
AcDbArc
 50
180.0
 51
270.0
  0
LINE
  5
296
330
1F
100
AcDbEntity
  8
0
  6
Continuous
 62
     7
370
    25
100
AcDbLine
 10
337.0128208011
 20
764.7788068209
 30
0.0
 11
337.0128208011
 21
771.2964982745
 31
0.0
  0
LINE
  5
297
330
1F
100
AcDbEntity
  8
0
  6
Continuous
 62
     7
370
    25
100
AcDbLine
 10
487.0128208011
 20
771.2964982745
 30
0.0
 11
487.0128208011
 21
764.7788068209
 31
0.0
  0
ARC
  5
298
330
1F
100
AcDbEntity
  8
0
  6
Continuous
 62
     7
370
    25
100
AcDbCircle
 10
484.0128208011
 20
764.7788068209
 30
0.0
 40
3.0
100
AcDbArc
 50
270.0
 51
0.0
  0
LINE
  5
299
330
1F
100
AcDbEntity
  8
0
  6
Continuous
 62
     7
370
    25
100
AcDbLine
 10
484.0128208011
 20
761.7788068209
 30
0.0
 11
340.0128208011
 21
761.7788068209
 31
0.0
  0
SPLINE
  5
29A
330
1F
100
AcDbEntity
  8
0
  6
Continuous
 62
     7
370
    25
100
AcDbSpline
210
0.0
220
0.0
230
1.0
 70
    24
 71
     3
 72
    19
 73
    15
 74
     0
 42
0.000000001
 43
0.00000001
 40
0.0
 40
0.0
 40
0.0
 40
0.0
 40
0.1260638187928839
 40
0.1939261817305621
 40
0.2632286813759849
 40
0.3325311810214079
 40
0.4003935439590843
 40
0.5264573627519694
 40
0.6525211815448548
 40
0.7203835444825296
 40
0.7896860441279532
 40
0.8589885437733787
 40
0.9268509067110525
 40
1.0
 40
1.0
 40
1.0
 40
1.0
 10
562.5128208010615
 20
798.9108085680804
 30
0.0
 10
562.5128208010615
 20
798.7192206571441
 30
0.0
 10
562.5128208010615
 20
798.4244976161527
 30
0.0
 10
562.5128208010615
 20
797.4972430933122
 30
0.0
 10
562.5128208010614
 20
796.6116870527796
 30
0.0
 10
562.5128208010615
 20
795.5752858432443
 30
0.0
 10
562.5128208010615
 20
794.131332470595
 30
0.0
 10
562.5128208010615
 20
792.2465048878864
 30
0.0
 10
562.5128208010615
 20
790.4734946860599
 30
0.0
 10
562.5128208010615
 20
789.2511910643196
 30
0.0
 10
562.5128208010615
 20
788.4505043491015
 30
0.0
 10
562.5128208010615
 20
787.8650137663285
 30
0.0
 10
562.5128208010615
 20
787.4371276277756
 30
0.0
 10
562.5128208010615
 20
787.4676398796781
 30
0.0
 10
562.5128208010615
 20
787.4834679806042
 30
0.0
  0
SPLINE
  5
29B
330
1F
100
AcDbEntity
  8
0
  6
Continuous
 62
     7
370
    25
100
AcDbSpline
210
0.0
220
0.0
230
1.0
 70
     8
 71
     3
 72
     8
 73
     4
 74
     0
 42
0.000000001
 43
0.00000001
 40
0.0
 40
0.0
 40
0.0
 40
0.0
 40
1.0
 40
1.0
 40
1.0
 40
1.0
 10
558.5128208010686
 20
792.3947224206444
 30
0.0
 10
558.5128208010686
 20
791.4217781048646
 30
0.0
 10
558.687136101448
 20
790.4754628574123
 30
0.0
 10
558.9594027884599
 20
789.5441110363541
 30
0.0
  0
SPLINE
  5
29C
330
1F
100
AcDbEntity
  8
0
  6
Continuous
 62
     7
370
    25
100
AcDbSpline
210
0.0
220
0.0
230
1.0
 70
     8
 71
     3
 72
     8
 73
     4
 74
     0
 42
0.000000001
 43
0.00000001
 40
0.0
 40
0.0
 40
0.0
 40
0.0
 40
1.0
 40
1.0
 40
1.0
 40
1.0
 10
558.9594027884599
 20
795.2453338049347
 30
0.0
 10
558.6871361014485
 20
794.3139819838783
 30
0.0
 10
558.5128208010686
 20
793.3676667364223
 30
0.0
 10
558.5128208010686
 20
792.3947224206444
 30
0.0
  0
LINE
  5
29D
330
1F
100
AcDbEntity
  8
0
  6
Continuous
 62
     7
370
    25
100
AcDbLine
 10
562.5128208011
 20
795.2453338049
 30
0.0
 11
558.9594027885
 21
795.2453338049
 31
0.0
  0
LINE
  5
29E
330
1F
100
AcDbEntity
  8
0
  6
Continuous
 62
     7
370
    25
100
AcDbLine
 10
562.5128208011
 20
789.5441110364
 30
0.0
 11
558.9594027885
 21
789.5441110364
 31
0.0
  0
LINE
  5
29F
330
1F
100
AcDbEntity
  8
0
  6
Continuous
 62
     7
370
    25
100
AcDbLine
 10
558.5128208011
 20
797.0649883931
 30
0.0
 11
558.5128208011
 21
792.3947224206
 31
0.0
  0
SPLINE
  5
2A0
330
1F
100
AcDbEntity
  8
0
  6
Continuous
 62
     7
370
    25
100
AcDbSpline
210
0.0
220
0.0
230
1.0
 70
     8
 71
     3
 72
     8
 73
     4
 74
     0
 42
0.000000001
 43
0.00000001
 40
0.0
 40
0.0
 40
0.0
 40
0.0
 40
1.0
 40
1.0
 40
1.0
 40
1.0
 10
558.5128208010685
 20
797.064988393114
 30
0.0
 10
558.5128208010685
 20
796.4439207168947
 30
0.0
 10
558.687136101448
 20
795.8398513964062
 30
0.0
 10
558.9594027884599
 20
795.245333804941
 30
0.0
  0
SPLINE
  5
2A1
330
1F
100
AcDbEntity
  8
0
  6
Continuous
 62
     7
370
    25
100
AcDbSpline
210
0.0
220
0.0
230
1.0
 70
     8
 71
     3
 72
     8
 73
     4
 74
     0
 42
0.000000001
 43
0.00000001
 40
0.0
 40
0.0
 40
0.0
 40
0.0
 40
1.0
 40
1.0
 40
1.0
 40
1.0
 10
558.9594027884599
 20
798.8846429812871
 30
0.0
 10
558.6871361014485
 20
798.290125389823
 30
0.0
 10
558.5128208010685
 20
797.6860560693322
 30
0.0
 10
558.5128208010685
 20
797.064988393114
 30
0.0
  0
LINE
  5
2A2
330
1F
100
AcDbEntity
  8
0
  6
Continuous
 62
     7
370
    25
100
AcDbLine
 10
562.5128208011
 20
798.8846429813
 30
0.0
 11
558.9594027885
 21
798.8846429813
 31
0.0
  0
LINE
  5
2A3
330
1F
100
AcDbEntity
  8
0
  6
Continuous
 62
     7
370
    25
100
AcDbLine
 10
558.5128208011
 20
792.3947224206
 30
0.0
 11
558.5128208011
 21
788.5131542402
 31
0.0
  0
SPLINE
  5
2A4
330
1F
100
AcDbEntity
  8
0
  6
Continuous
 62
     7
370
    25
100
AcDbSpline
210
0.0
220
0.0
230
1.0
 70
     8
 71
     3
 72
     8
 73
     4
 74
     0
 42
0.000000001
 43
0.00000001
 40
0.0
 40
0.0
 40
0.0
 40
0.0
 40
1.0
 40
1.0
 40
1.0
 40
1.0
 10
558.9594027884599
 20
789.544111036349
 30
0.0
 10
558.6871361014483
 20
789.2072768067566
 30
0.0
 10
558.5128208010684
 20
788.8650308797913
 30
0.0
 10
558.5128208010684
 20
788.5131542402315
 30
0.0
  0
SPLINE
  5
2A5
330
1F
100
AcDbEntity
  8
0
  6
Continuous
 62
     7
370
    25
100
AcDbSpline
210
0.0
220
0.0
230
1.0
 70
     8
 71
     3
 72
     8
 73
     4
 74
     0
 42
0.000000001
 43
0.00000001
 40
0.0
 40
0.0
 40
0.0
 40
0.0
 40
1.0
 40
1.0
 40
1.0
 40
1.0
 10
558.5128208010684
 20
788.5131542402315
 30
0.0
 10
558.5128208010684
 20
788.161277600671
 30
0.0
 10
558.6871361014479
 20
787.819031673707
 30
0.0
 10
558.9594027884599
 20
787.4821974441139
 30
0.0
  0
LINE
  5
2A6
330
1F
100
AcDbEntity
  8
0
  6
Continuous
 62
     7
370
    25
100
AcDbLine
 10
562.5128208011
 20
787.4821974441
 30
0.0
 11
558.9594027885
 21
787.4821974441
 31
0.0
  0
LINE
  5
2A7
330
1F
100
AcDbEntity
  8
0
  6
Continuous
 62
     7
370
    25
100
AcDbLine
 10
558.8091965582
 20
798.5378844056
 30
0.0
 11
558.9594027885
 21
798.8846429813
 31
0.0
  0
LINE
  5
2A8
330
1F
100
AcDbEntity
  8
0
  6
Continuous
 62
     7
370
    25
100
AcDbLine
 10
558.5128208011
 20
798.1834202127
 30
0.0
 11
558.5128208011
 21
797.0649883931
 31
0.0
  0
LINE
  5
2A9
330
1F
100
AcDbEntity
  8
0
  6
Continuous
 62
     7
370
    25
100
AcDbLine
 10
572.9715708011
 20
790.1834202127
 30
0.0
 11
572.9715708011
 21
796.1834202127
 31
0.0
  0
LINE
  5
2AA
330
1F
100
AcDbEntity
  8
0
  6
Continuous
 62
     7
370
    25
100
AcDbLine
 10
573.5128208011
 20
792.7955780735
 30
0.0
 11
573.5128208011
 21
795.6421702127
 31
0.0
  0
LINE
  5
2AB
330
1F
100
AcDbEntity
  8
0
  6
Continuous
 62
     7
370
    25
100
AcDbLine
 10
573.5128208011
 20
790.7246702127
 30
0.0
 11
573.5128208011
 21
792.7955780735
 31
0.0
  0
LINE
  5
2AC
330
1F
100
AcDbEntity
  8
0
  6
Continuous
 62
     7
370
    25
100
AcDbLine
 10
558.5128208011
 20
788.5131542402
 30
0.0
 11
558.5128208011
 21
788.1834202127
 31
0.0
  0
LINE
  5
2AD
330
1F
100
AcDbEntity
  8
0
  6
Continuous
 62
     7
370
    25
100
AcDbLine
 10
573.1715708011
 20
790.1834202127
 30
0.0
 11
573.1715708011
 21
790.3834202127
 31
0.0
  0
LINE
  5
2AE
330
1F
100
AcDbEntity
  8
0
  6
Continuous
 62
     7
370
    25
100
AcDbLine
 10
573.1715708011
 20
795.9834202127
 30
0.0
 11
573.1715708011
 21
796.1834202127
 31
0.0
  0
LINE
  5
2AF
330
1F
100
AcDbEntity
  8
0
  6
Continuous
 62
     7
370
    25
100
AcDbLine
 10
573.7128208011
 20
794.76282355
 30
0.0
 11
573.7128208011
 21
795.6421702127
 31
0.0
  0
LINE
  5
2B0
330
1F
100
AcDbEntity
  8
0
  6
Continuous
 62
     7
370
    25
100
AcDbLine
 10
573.7128208011
 20
790.7246702127
 30
0.0
 11
573.7128208011
 21
794.76282355
 31
0.0
  0
LINE
  5
2B1
330
1F
100
AcDbEntity
  8
0
  6
Continuous
 62
     7
370
    25
100
AcDbLine
 10
274.7628208011
 20
811.7834202127
 30
0.0
 11
274.7628208011
 21
811.2834202127
 31
0.0
  0
LINE
  5
2B2
330
1F
100
AcDbEntity
  8
0
  6
Continuous
 62
     7
370
    25
100
AcDbLine
 10
274.7628208011
 20
811.2834202127
 30
0.0
 11
265.2628208011
 21
811.2834202127
 31
0.0
  0
LINE
  5
2B3
330
1F
100
AcDbEntity
  8
0
  6
Continuous
 62
     7
370
    25
100
AcDbLine
 10
265.2628208011
 20
811.2834202127
 30
0.0
 11
265.2628208011
 21
811.7834202127
 31
0.0
  0
ARC
  5
2B4
330
1F
100
AcDbEntity
  8
0
  6
Continuous
 62
     7
370
    25
100
AcDbCircle
 10
264.4994208011
 20
812.5200202127
 30
0.0
 40
1.236599999999953
100
AcDbArc
 50
216.5600911007
 51
270.0
  0
LINE
  5
2B5
330
1F
100
AcDbEntity
  8
0
  6
Continuous
 62
     7
370
    25
100
AcDbLine
 10
275.5262208011
 20
811.2834202127
 30
0.0
 11
274.7628208011
 21
811.2834202127
 31
0.0
  0
ARC
  5
2B6
330
1F
100
AcDbEntity
  8
0
  6
Continuous
 62
     7
370
    25
100
AcDbCircle
 10
275.5262208011
 20
812.5200202127
 30
0.0
 40
1.236599999999959
100
AcDbArc
 50
270.0
 51
323.4399088993
  0
LINE
  5
2B7
330
1F
100
AcDbEntity
  8
0
  6
Continuous
 62
     7
370
    25
100
AcDbLine
 10
265.2628208011
 20
811.2834202127
 30
0.0
 11
264.4994208011
 21
811.2834202127
 31
0.0
  0
LINE
  5
2B8
330
1F
100
AcDbEntity
  8
0
  6
Continuous
 62
     7
370
    25
100
AcDbLine
 10
563.0128208011
 20
805.6834202127
 30
0.0
 11
260.0128208011
 21
805.6834202127
 31
0.0
  0
LINE
  5
2B9
330
1F
100
AcDbEntity
  8
0
  6
Continuous
 62
     7
370
    25
100
AcDbLine
 10
260.0128208011
 20
805.6834202127
 30
0.0
 11
260.0128208011
 21
807.4834202127
 31
0.0
  0
LINE
  5
2BA
330
1F
100
AcDbEntity
  8
0
  6
Continuous
 62
     7
370
    25
100
AcDbLine
 10
563.0128208011
 20
807.4834202127
 30
0.0
 11
563.0128208011
 21
805.6834202127
 31
0.0
  0
LINE
  5
2BB
330
1F
100
AcDbEntity
  8
0
  6
Continuous
 62
     7
370
    25
100
AcDbLine
 10
259.5128208011
 20
812.8584202127
 30
0.0
 11
260.0128208011
 21
807.4834202127
 31
0.0
  0
LINE
  5
2BC
330
1F
100
AcDbEntity
  8
0
  6
Continuous
 62
     7
370
    25
100
AcDbLine
 10
563.0128208011
 20
807.4834202127
 30
0.0
 11
563.5128208011
 21
812.8584202127
 31
0.0
  0
LINE
  5
2BD
330
1F
100
AcDbEntity
  8
0
  6
Continuous
 62
     7
370
    25
100
AcDbLine
 10
249.8540708011
 20
796.1834202127
 30
0.0
 11
249.8540708011
 21
795.9834202127
 31
0.0
  0
LINE
  5
2BE
330
1F
100
AcDbEntity
  8
0
  6
Continuous
 62
     7
370
    25
100
AcDbLine
 10
249.8540708011
 20
790.3834202127
 30
0.0
 11
249.8540708011
 21
790.1834202127
 31
0.0
  0
LINE
  5
2BF
330
1F
100
AcDbEntity
  8
0
  6
Continuous
 62
     7
370
    25
100
AcDbLine
 10
249.3128208011
 20
790.9660821354
 30
0.0
 11
249.3128208011
 21
790.7246702127
 31
0.0
  0
LINE
  5
2C0
330
1F
100
AcDbEntity
  8
0
  6
Continuous
 62
     7
370
    25
100
AcDbLine
 10
249.3128208011
 20
795.6421702127
 30
0.0
 11
249.3128208011
 21
790.9660821354
 31
0.0
  0
LINE
  5
2C1
330
1F
100
AcDbEntity
  8
0
  6
Continuous
 62
     7
370
    25
100
AcDbLine
 10
264.1989651992
 20
798.4552358469
 30
0.0
 11
264.0662388137
 21
798.9399247369
 31
0.0
  0
LINE
  5
2C2
330
1F
100
AcDbEntity
  8
0
  6
Continuous
 62
     7
370
    25
100
AcDbLine
 10
264.0662388137
 20
798.9399247369
 30
0.0
 11
260.5128208011
 21
798.9399247369
 31
0.0
  0
LINE
  5
2C3
330
1F
100
AcDbEntity
  8
0
  6
Continuous
 62
     7
370
    25
100
AcDbLine
 10
264.0662388137
 20
787.4269156885
 30
0.0
 11
264.2661491587
 21
787.9853212945
 31
0.0
  0
LINE
  5
2C4
330
1F
100
AcDbEntity
  8
0
  6
Continuous
 62
     7
370
    25
100
AcDbLine
 10
260.5128208011
 20
787.4269156885
 30
0.0
 11
264.0662388137
 21
787.4269156885
 31
0.0
  0
LINE
  5
2C5
330
1F
100
AcDbEntity
  8
0
  6
Continuous
 62
     7
370
    25
100
AcDbLine
 10
264.0662388137
 20
798.9399247369
 30
0.0
 11
264.1414265692
 21
798.7299042691
 31
0.0
  0
LINE
  5
2C6
330
1F
100
AcDbEntity
  8
0
  6
Continuous
 62
     7
370
    25
100
AcDbLine
 10
566.2489819477
 20
787.2834202127
 30
0.0
 11
566.2489819477
 21
799.2834202127
 31
0.0
  0
LINE
  5
2C7
330
1F
100
AcDbEntity
  8
0
  6
Continuous
 62
     7
370
    25
100
AcDbLine
 10
568.1283671892
 20
787.2834202127
 30
0.0
 11
568.1283671892
 21
799.2834202127
 31
0.0
  0
LWPOLYLINE
  5
2C8
330
1F
100
AcDbEntity
  8
0
  6
Continuous
 62
     7
370
    25
100
AcDbPolyline
 90
        9
 70
   128
 43
0.0
 10
568.1283671892
 20
787.2834202127
 10
568.1152235469
 20
786.8932395687
 10
568.0762977228
 20
786.518053348
 10
568.0130856145
 20
786.1722797467
 10
567.9280164279
 20
785.8692066503
 10
567.824359324
 20
785.6204809881
 10
567.7060977874
 20
785.4356611477
 10
567.5777765424
 20
785.3218496519
 10
567.4443269026
 20
785.2834202127
  0
LINE
  5
2C9
330
1F
100
AcDbEntity
  8
0
  6
Continuous
 62
     7
370
    25
100
AcDbLine
 10
567.4443269026
 20
785.2834202127
 30
0.0
 11
565.564941661
 21
785.2834202127
 31
0.0
  0
LWPOLYLINE
  5
2CA
330
1F
100
AcDbEntity
  8
0
  6
Continuous
 62
     7
370
    25
100
AcDbPolyline
 90
        9
 70
   128
 43
0.0
 10
565.564941661
 20
785.2834202127
 10
565.6983913008
 20
785.3218496519
 10
565.8267125458
 20
785.4356611477
 10
565.9449740825
 20
785.6204809881
 10
566.0486311863
 20
785.8692066503
 10
566.133700373
 20
786.1722797467
 10
566.1969124813
 20
786.518053348
 10
566.2358383054
 20
786.8932395687
 10
566.2489819477
 20
787.2834202127
  0
LINE
  5
2CB
330
1F
100
AcDbEntity
  8
0
  6
Continuous
 62
     7
370
    25
100
AcDbLine
 10
563.6937429387
 20
785.2834202127
 30
0.0
 11
565.564941661
 21
785.2834202127
 31
0.0
  0
LINE
  5
2CC
330
1F
100
AcDbEntity
  8
0
  6
Continuous
 62
     7
370
    25
100
AcDbLine
 10
565.564941661
 20
801.2834202127
 30
0.0
 11
563.6937429387
 21
801.2834202127
 31
0.0
  0
LWPOLYLINE
  5
2CD
330
1F
100
AcDbEntity
  8
0
  6
Continuous
 62
     7
370
    25
100
AcDbPolyline
 90
        9
 70
   128
 43
0.0
 10
566.2489819477
 20
799.2834202127
 10
566.2358383054
 20
799.6736008567
 10
566.1969124813
 20
800.0487870774
 10
566.133700373
 20
800.3945606787
 10
566.0486311863
 20
800.6976337751
 10
565.9449740825
 20
800.9463594373
 10
565.8267125458
 20
801.1311792777
 10
565.6983913008
 20
801.2449907735
 10
565.564941661
 20
801.2834202127
  0
LINE
  5
2CE
330
1F
100
AcDbEntity
  8
0
  6
Continuous
 62
     7
370
    25
100
AcDbLine
 10
565.564941661
 20
801.2834202127
 30
0.0
 11
567.4443269026
 21
801.2834202127
 31
0.0
  0
LWPOLYLINE
  5
2CF
330
1F
100
AcDbEntity
  8
0
  6
Continuous
 62
     7
370
    25
100
AcDbPolyline
 90
        9
 70
   128
 43
0.0
 10
567.4443269026
 20
801.2834202127
 10
567.5777765424
 20
801.2449907735
 10
567.7060977874
 20
801.1311792777
 10
567.824359324
 20
800.9463594373
 10
567.9280164279
 20
800.6976337751
 10
568.0130856145
 20
800.3945606787
 10
568.0762977228
 20
800.0487870774
 10
568.1152235469
 20
799.6736008567
 10
568.1283671892
 20
799.2834202127
  0
LINE
  5
2D0
330
1F
100
AcDbEntity
  8
0
  6
Continuous
 62
     7
370
    25
100
AcDbLine
 10
563.5180071515
 20
801.2834202127
 30
0.0
 11
563.6937429387
 21
801.2834202127
 31
0.0
  0
LINE
  5
2D1
330
1F
100
AcDbEntity
  8
0
  6
Continuous
 62
     7
370
    25
100
AcDbLine
 10
563.6937429387
 20
785.2834202127
 30
0.0
 11
563.5128208011
 21
785.2834202127
 31
0.0
  0
LINE
  5
2D2
330
1F
100
AcDbEntity
  8
0
  6
Continuous
 62
     7
370
    25
100
AcDbLine
 10
563.5128208011
 20
785.2834202127
 30
0.0
 11
563.5128208011
 21
801.2834202127
 31
0.0
  0
LINE
  5
2D3
330
1F
100
AcDbEntity
  8
0
  6
Continuous
 62
     7
370
    25
100
AcDbLine
 10
563.5180071515
 20
801.2834202127
 30
0.0
 11
563.5128208011
 21
801.2834202127
 31
0.0
  0
LINE
  5
2D4
330
1F
100
AcDbEntity
  8
0
  6
Continuous
 62
     7
370
    25
100
AcDbLine
 10
565.5128208011
 20
816.2834202127
 30
0.0
 11
565.5128208011
 21
801.2834202127
 31
0.0
  0
LINE
  5
2D5
330
1F
100
AcDbEntity
  8
0
  6
Continuous
 62
     7
370
    25
100
AcDbLine
 10
563.5128208011
 20
816.2834202127
 30
0.0
 11
563.5128208011
 21
801.2834202127
 31
0.0
  0
LINE
  5
2D6
330
1F
100
AcDbEntity
  8
0
  6
Continuous
 62
     7
370
    25
100
AcDbLine
 10
565.5128208011
 20
816.2834202127
 30
0.0
 11
565.5111536712
 21
816.3834202127
 31
0.0
  0
LINE
  5
2D7
330
1F
100
AcDbEntity
  8
0
  6
Continuous
 62
     7
370
    25
100
AcDbLine
 10
563.5128208011
 20
816.2834202127
 30
0.0
 11
563.5078082382
 21
816.3834202127
 31
0.0
  0
LINE
  5
2D8
330
1F
100
AcDbEntity
  8
0
  6
Continuous
 62
     7
370
    25
100
AcDbLine
 10
257.4606999411
 20
785.2834202127
 30
0.0
 11
259.3318986634
 21
785.2834202127
 31
0.0
  0
LWPOLYLINE
  5
2D9
330
1F
100
AcDbEntity
  8
0
  6
Continuous
 62
     7
370
    25
100
AcDbPolyline
 90
        9
 70
   128
 43
0.0
 10
256.7766596545
 20
787.2834202127
 10
256.7898032968
 20
786.8932395687
 10
256.8287291209
 20
786.518053348
 10
256.8919412292
 20
786.1722797467
 10
256.9770104158
 20
785.8692066503
 10
257.0806675197
 20
785.6204809881
 10
257.1989290563
 20
785.4356611477
 10
257.3272503013
 20
785.3218496519
 10
257.4606999411
 20
785.2834202127
  0
LINE
  5
2DA
330
1F
100
AcDbEntity
  8
0
  6
Continuous
 62
     7
370
    25
100
AcDbLine
 10
256.7766596545
 20
799.2834202127
 30
0.0
 11
256.7766596545
 21
787.2834202127
 31
0.0
  0
LWPOLYLINE
  5
2DB
330
1F
100
AcDbEntity
  8
0
  6
Continuous
 62
     7
370
    25
100
AcDbPolyline
 90
        9
 70
   128
 43
0.0
 10
257.4606999411
 20
801.2834202127
 10
257.3272503013
 20
801.2449907735
 10
257.1989290563
 20
801.1311792777
 10
257.0806675197
 20
800.9463594373
 10
256.9770104158
 20
800.6976337751
 10
256.8919412292
 20
800.3945606787
 10
256.8287291209
 20
800.0487870774
 10
256.7898032968
 20
799.6736008567
 10
256.7766596545
 20
799.2834202127
  0
LINE
  5
2DC
330
1F
100
AcDbEntity
  8
0
  6
Continuous
 62
     7
370
    25
100
AcDbLine
 10
259.3318986634
 20
801.2834202127
 30
0.0
 11
257.4606999411
 21
801.2834202127
 31
0.0
  0
LINE
  5
2DD
330
1F
100
AcDbEntity
  8
0
  6
Continuous
 62
     7
370
    25
100
AcDbLine
 10
254.8972744129
 20
799.2834202127
 30
0.0
 11
254.8972744129
 21
787.2834202127
 31
0.0
  0
LINE
  5
2DE
330
1F
100
AcDbEntity
  8
0
  6
Continuous
 62
     7
370
    25
100
AcDbLine
 10
257.4606999411
 20
785.2834202127
 30
0.0
 11
255.5813146995
 21
785.2834202127
 31
0.0
  0
LWPOLYLINE
  5
2DF
330
1F
100
AcDbEntity
  8
0
  6
Continuous
 62
     7
370
    25
100
AcDbPolyline
 90
        9
 70
   128
 43
0.0
 10
255.5813146995
 20
785.2834202127
 10
255.4478650597
 20
785.3218496519
 10
255.3195438148
 20
785.4356611477
 10
255.2012822781
 20
785.6204809881
 10
255.0976251742
 20
785.8692066503
 10
255.0125559876
 20
786.1722797467
 10
254.9493438793
 20
786.518053348
 10
254.9104180552
 20
786.8932395687
 10
254.8972744129
 20
787.2834202127
  0
LWPOLYLINE
  5
2E0
330
1F
100
AcDbEntity
  8
0
  6
Continuous
 62
     7
370
    25
100
AcDbPolyline
 90
        9
 70
   128
 43
0.0
 10
254.8972744129
 20
799.2834202127
 10
254.9104180552
 20
799.6736008567
 10
254.9493438793
 20
800.0487870774
 10
255.0125559876
 20
800.3945606787
 10
255.0976251742
 20
800.6976337751
 10
255.2012822781
 20
800.9463594373
 10
255.3195438148
 20
801.1311792777
 10
255.4478650597
 20
801.2449907735
 10
255.5813146995
 20
801.2834202127
  0
LINE
  5
2E1
330
1F
100
AcDbEntity
  8
0
  6
Continuous
 62
     7
370
    25
100
AcDbLine
 10
255.5813146995
 20
801.2834202127
 30
0.0
 11
257.4606999411
 21
801.2834202127
 31
0.0
  0
LINE
  5
2E2
330
1F
100
AcDbEntity
  8
0
  6
Continuous
 62
     7
370
    25
100
AcDbLine
 10
259.5128208011
 20
785.2834202127
 30
0.0
 11
259.3318986634
 21
785.2834202127
 31
0.0
  0
LINE
  5
2E3
330
1F
100
AcDbEntity
  8
0
  6
Continuous
 62
     7
370
    25
100
AcDbLine
 10
259.3318986634
 20
801.2834202127
 30
0.0
 11
259.5076344507
 21
801.2834202127
 31
0.0
  0
LINE
  5
2E4
330
1F
100
AcDbEntity
  8
0
  6
Continuous
 62
     7
370
    25
100
AcDbLine
 10
259.5128208011
 20
801.2834202127
 30
0.0
 11
259.5128208011
 21
785.2834202127
 31
0.0
  0
LINE
  5
2E5
330
1F
100
AcDbEntity
  8
0
  6
Continuous
 62
     7
370
    25
100
AcDbLine
 10
259.5076344507
 20
801.2834202127
 30
0.0
 11
259.5128208011
 21
801.2834202127
 31
0.0
  0
LINE
  5
2E6
330
1F
100
AcDbEntity
  8
0
  6
Continuous
 62
     7
370
    25
100
AcDbLine
 10
259.5128208011
 20
801.2834202127
 30
0.0
 11
259.5128208011
 21
816.2834202127
 31
0.0
  0
LINE
  5
2E7
330
1F
100
AcDbEntity
  8
0
  6
Continuous
 62
     7
370
    25
100
AcDbLine
 10
257.5128208011
 20
801.2834202127
 30
0.0
 11
257.5128208011
 21
816.2834202127
 31
0.0
  0
LINE
  5
2E8
330
1F
100
AcDbEntity
  8
0
  6
Continuous
 62
     7
370
    25
100
AcDbLine
 10
257.5144879309
 20
816.3834202127
 30
0.0
 11
257.5128208011
 21
816.2834202127
 31
0.0
  0
LINE
  5
2E9
330
1F
100
AcDbEntity
  8
0
  6
Continuous
 62
     7
370
    25
100
AcDbLine
 10
259.517833364
 20
816.3834202127
 30
0.0
 11
259.5128208011
 21
816.2834202127
 31
0.0
  0
ARC
  5
2EA
330
1F
100
AcDbEntity
  8
0
  6
Continuous
 62
     7
370
    25
100
AcDbCircle
 10
251.0128208011
 20
822.3834202127
 30
0.0
 40
6.000000000000045
100
AcDbArc
 50
216.8698976459
 51
270.0
  0
ARC
  5
2EB
330
1F
100
AcDbEntity
  8
0
  6
Continuous
 62
     7
370
    25
100
AcDbCircle
 10
572.0128208011
 20
822.3834202127
 30
0.0
 40
6.000000000000045
100
AcDbArc
 50
270.0
 51
323.1301023541
  0
SPLINE
  5
2EC
330
1F
100
AcDbEntity
  8
0
  6
Continuous
 62
     7
370
    25
100
AcDbSpline
210
0.0
220
0.0
230
1.0
 70
    24
 71
     3
 72
    19
 73
    15
 74
     0
 42
0.000000001
 43
0.00000001
 40
0.0
 40
0.0
 40
0.0
 40
0.0
 40
0.1348599644641575
 40
0.2074574467700402
 40
0.2815955518104268
 40
0.3557336568508132
 40
0.4283311391566973
 40
0.563191103620854
 40
0.6980510680850108
 40
0.7706485503908947
 40
0.8447866554312816
 40
0.9189247604716664
 40
0.9915222427775493
 40
1.0
 40
1.0
 40
1.0
 40
1.0
 10
260.5128208010617
 20
787.7411090869688
 30
0.0
 10
260.5128208010617
 20
788.0660495266551
 30
0.0
 10
260.5128208010617
 20
788.5659110996392
 30
0.0
 10
260.5128208010617
 20
789.7115569585691
 30
0.0
 10
260.5128208010617
 20
790.7347728095968
 30
0.0
 10
260.5128208010617
 20
791.8671313797785
 30
0.0
 10
260.5128208010617
 20
793.376470499137
 30
0.0
 10
260.5128208010617
 20
795.2368410739542
 30
0.0
 10
260.5128208010617
 20
796.852946914854
 30
0.0
 10
260.5128208010615
 20
797.8750562611584
 30
0.0
 10
260.5128208010617
 20
798.4951900131873
 30
0.0
 10
260.5128208010615
 20
798.8441571975759
 30
0.0
 10
260.5128208010616
 20
799.0452203196547
 30
0.0
 10
260.5128208010616
 20
798.9675049938896
 30
0.0
 10
260.5128208010616
 20
798.9593785712218
 30
0.0
  0
SPLINE
  5
2ED
330
1F
100
AcDbEntity
  8
0
  6
Continuous
 62
     7
370
    25
100
AcDbSpline
210
0.0
220
0.0
230
1.0
 70
     8
 71
     3
 72
     8
 73
     4
 74
     0
 42
0.000000001
 43
0.00000001
 40
0.0
 40
0.0
 40
0.0
 40
0.0
 40
1.0
 40
1.0
 40
1.0
 40
1.0
 10
264.5128208010545
 20
789.9846900433799
 30
0.0
 10
264.5128208010545
 20
790.7419622660302
 30
0.0
 10
264.3385055006751
 20
791.4785082729741
 30
0.0
 10
264.0662388136631
 20
792.2034077889724
 30
0.0
  0
SPLINE
  5
2EE
330
1F
100
AcDbEntity
  8
0
  6
Continuous
 62
     7
370
    25
100
AcDbSpline
210
0.0
220
0.0
230
1.0
 70
     8
 71
     3
 72
     8
 73
     4
 74
     0
 42
0.000000001
 43
0.00000001
 40
0.0
 40
0.0
 40
0.0
 40
0.0
 40
1.0
 40
1.0
 40
1.0
 40
1.0
 10
264.0662388136632
 20
787.7659722977875
 30
0.0
 10
264.3385055006746
 20
788.4908718137846
 30
0.0
 10
264.5128208010545
 20
789.227417820731
 30
0.0
 10
264.5128208010545
 20
789.9846900433799
 30
0.0
  0
LINE
  5
2EF
330
1F
100
AcDbEntity
  8
0
  6
Continuous
 62
     7
370
    25
100
AcDbLine
 10
260.5128208011
 20
787.7659722978
 30
0.0
 11
264.0662388137
 21
787.7659722978
 31
0.0
  0
LINE
  5
2F0
330
1F
100
AcDbEntity
  8
0
  6
Continuous
 62
     7
370
    25
100
AcDbLine
 10
260.5128208011
 20
792.203407789
 30
0.0
 11
264.0662388137
 21
792.203407789
 31
0.0
  0
SPLINE
  5
2F1
330
1F
100
AcDbEntity
  8
0
  6
Continuous
 62
     7
370
    25
100
AcDbSpline
210
0.0
220
0.0
230
1.0
 70
     8
 71
     3
 72
     8
 73
     4
 74
     0
 42
0.000000001
 43
0.00000001
 40
0.0
 40
0.0
 40
0.0
 40
0.0
 40
1.0
 40
1.0
 40
1.0
 40
1.0
 10
264.5128208010544
 20
794.9121317464347
 30
0.0
 10
264.5128208010544
 20
795.8366483578347
 30
0.0
 10
264.3385055006751
 20
796.7358613463911
 30
0.0
 10
264.0662388136631
 20
797.6208557038901
 30
0.0
  0
SPLINE
  5
2F2
330
1F
100
AcDbEntity
  8
0
  6
Continuous
 62
     7
370
    25
100
AcDbSpline
210
0.0
220
0.0
230
1.0
 70
     8
 71
     3
 72
     8
 73
     4
 74
     0
 42
0.000000001
 43
0.00000001
 40
0.0
 40
0.0
 40
0.0
 40
0.0
 40
1.0
 40
1.0
 40
1.0
 40
1.0
 10
264.0662388136631
 20
792.2034077889791
 30
0.0
 10
264.3385055006745
 20
793.0884021464767
 30
0.0
 10
264.5128208010544
 20
793.9876151350363
 30
0.0
 10
264.5128208010544
 20
794.9121317464347
 30
0.0
  0
LINE
  5
2F3
330
1F
100
AcDbEntity
  8
0
  6
Continuous
 62
     7
370
    25
100
AcDbLine
 10
260.5128208011
 20
797.6208557039
 30
0.0
 11
264.0662388137
 21
797.6208557039
 31
0.0
  0
LINE
  5
2F4
330
1F
100
AcDbEntity
  8
0
  6
Continuous
 62
     7
370
    25
100
AcDbLine
 10
264.5128208011
 20
789.9846900434
 30
0.0
 11
264.5128208011
 21
794.9121317464
 31
0.0
  0
SPLINE
  5
2F5
330
1F
100
AcDbEntity
  8
0
  6
Continuous
 62
     7
370
    25
100
AcDbSpline
210
0.0
220
0.0
230
1.0
 70
     8
 71
     3
 72
     8
 73
     4
 74
     0
 42
0.000000001
 43
0.00000001
 40
0.0
 40
0.0
 40
0.0
 40
0.0
 40
1.0
 40
1.0
 40
1.0
 40
1.0
 10
264.0662388136632
 20
797.6208557038944
 30
0.0
 10
264.3385055006747
 20
797.780950545395
 30
0.0
 10
264.5128208010545
 20
797.9436175270082
 30
0.0
 10
264.5128208010545
 20
798.1108619157577
 30
0.0
  0
LINE
  5
2F6
330
1F
100
AcDbEntity
  8
0
  6
Continuous
 62
     7
370
    25
100
AcDbLine
 10
264.5128208011
 20
794.9121317464
 30
0.0
 11
264.5128208011
 21
798.1108619158
 31
0.0
  0
SPLINE
  5
2F7
330
1F
100
AcDbEntity
  8
0
  6
Continuous
 62
     7
370
    25
100
AcDbSpline
210
0.0
220
0.0
230
1.0
 70
     8
 71
     3
 72
     8
 73
     4
 74
     0
 42
0.000000001
 43
0.00000001
 40
0.0
 40
0.0
 40
0.0
 40
0.0
 40
1.0
 40
1.0
 40
1.0
 40
1.0
 10
264.5128208010547
 20
788.2559785096486
 30
0.0
 10
264.5128208010547
 20
788.0887341208986
 30
0.0
 10
264.3385055006752
 20
787.9260671392861
 30
0.0
 10
264.0662388136632
 20
787.7659722977852
 30
0.0
  0
LINE
  5
2F8
330
1F
100
AcDbEntity
  8
0
  6
Continuous
 62
     7
370
    25
100
AcDbLine
 10
264.5128208011
 20
789.9846900434
 30
0.0
 11
264.5128208011
 21
788.1873538338
 31
0.0
  0
SPLINE
  5
2F9
330
1F
100
AcDbEntity
  8
0
  6
Continuous
 62
     7
370
    25
100
AcDbSpline
210
0.0
220
0.0
230
1.0
 70
     8
 71
     3
 72
     8
 73
     4
 74
     0
 42
0.000000001
 43
0.00000001
 40
0.0
 40
0.0
 40
0.0
 40
0.0
 40
1.0
 40
1.0
 40
1.0
 40
1.0
 10
264.5128208010545
 20
798.1108619157577
 30
0.0
 10
264.5128208010545
 20
798.2781063045077
 30
0.0
 10
264.3385055006752
 20
798.44077328612
 30
0.0
 10
264.0662388136632
 20
798.6008681276211
 30
0.0
  0
LINE
  5
2FA
330
1F
100
AcDbEntity
  8
0
  6
Continuous
 62
     7
370
    25
100
AcDbLine
 10
260.5128208011
 20
798.6008681276
 30
0.0
 11
264.0662388137
 21
798.6008681276
 31
0.0
  0
LINE
  5
2FB
330
1F
100
AcDbEntity
  8
0
  6
Continuous
 62
     7
370
    25
100
AcDbLine
 10
249.5128208011
 20
794.0335141094
 30
0.0
 11
249.5128208011
 21
790.7246702127
 31
0.0
  0
LINE
  5
2FC
330
1F
100
AcDbEntity
  8
0
  6
Continuous
 62
     7
370
    25
100
AcDbLine
 10
249.5128208011
 20
795.6421702127
 30
0.0
 11
249.5128208011
 21
794.0335141094
 31
0.0
  0
LINE
  5
2FD
330
1F
100
AcDbEntity
  8
0
  6
Continuous
 62
     7
370
    25
100
AcDbLine
 10
250.0540708011
 20
796.1834202127
 30
0.0
 11
250.0540708011
 21
790.1834202127
 31
0.0
  0
LINE
  5
2FE
330
1F
100
AcDbEntity
  8
0
  6
Continuous
 62
     7
370
    25
100
AcDbLine
 10
557.7628208011
 20
811.2834202127
 30
0.0
 11
548.2628208011
 21
811.2834202127
 31
0.0
  0
LINE
  5
2FF
330
1F
100
AcDbEntity
  8
0
  6
Continuous
 62
     7
370
    25
100
AcDbLine
 10
548.2628208011
 20
811.2834202127
 30
0.0
 11
548.2628208011
 21
811.7834202127
 31
0.0
  0
LINE
  5
300
330
1F
100
AcDbEntity
  8
0
  6
Continuous
 62
     7
370
    25
100
AcDbLine
 10
557.7628208011
 20
811.7834202127
 30
0.0
 11
557.7628208011
 21
811.2834202127
 31
0.0
  0
ARC
  5
301
330
1F
100
AcDbEntity
  8
0
  6
Continuous
 62
     7
370
    25
100
AcDbCircle
 10
558.5262208011
 20
812.5200202127
 30
0.0
 40
1.236599999999984
100
AcDbArc
 50
270.0
 51
323.4399088991
  0
LINE
  5
302
330
1F
100
AcDbEntity
  8
0
  6
Continuous
 62
     7
370
    25
100
AcDbLine
 10
558.5262208011
 20
811.2834202127
 30
0.0
 11
557.7628208011
 21
811.2834202127
 31
0.0
  0
LINE
  5
303
330
1F
100
AcDbEntity
  8
0
  6
Continuous
 62
     7
370
    25
100
AcDbLine
 10
548.2628208011
 20
811.2834202127
 30
0.0
 11
547.4994208011
 21
811.2834202127
 31
0.0
  0
ARC
  5
304
330
1F
100
AcDbEntity
  8
0
  6
Continuous
 62
     7
370
    25
100
AcDbCircle
 10
547.4994208011
 20
812.5200202127
 30
0.0
 40
1.236600000000067
100
AcDbArc
 50
216.5600911009
 51
270.0
  0
ARC
  5
305
330
1F
100
AcDbEntity
  8
0
  6
Continuous
 62
     7
370
    25
100
AcDbCircle
 10
563.2128208011
 20
-193.6482894243
 30
0.0
 40
0.5000000000001137
100
AcDbArc
 50
180.0
 51
360.0
  0
ARC
  5
306
330
1F
100
AcDbEntity
  8
0
  6
Continuous
 62
     7
370
    25
100
AcDbCircle
 10
563.2128208011
 20
-182.0482894241
 30
0.0
 40
0.5000000000001137
100
AcDbArc
 50
0.0
 51
180.0
  0
LINE
  5
307
330
1F
100
AcDbEntity
  8
0
  6
Continuous
 62
     7
370
    25
100
AcDbLine
 10
573.1715708011
 20
-190.8482894242
 30
0.0
 11
573.7128208011
 21
-190.3070394242
 31
0.0
  0
LINE
  5
308
330
1F
100
AcDbEntity
  8
0
  6
Continuous
 62
     7
370
    25
100
AcDbLine
 10
573.7128208011
 20
-185.3895394242
 30
0.0
 11
573.1715708011
 21
-184.8482894242
 31
0.0
  0
LINE
  5
309
330
1F
100
AcDbEntity
  8
0
  6
Continuous
 62
     7
370
    25
100
AcDbLine
 10
573.1715708011
 20
-184.8482894242
 30
0.0
 11
564.5128208011
 21
-184.8482894242
 31
0.0
  0
LINE
  5
30A
330
1F
100
AcDbEntity
  8
0
  6
Continuous
 62
     7
370
    25
100
AcDbLine
 10
564.5128208011
 20
-190.8482894242
 30
0.0
 11
573.1715708011
 21
-190.8482894242
 31
0.0
  0
LINE
  5
30B
330
1F
100
AcDbEntity
  8
0
  6
Continuous
 62
     7
370
    25
100
AcDbLine
 10
539.4322825061
 20
-199.1997180237
 30
0.0
 11
539.8628208011
 21
-199.4482894242
 31
0.0
  0
LINE
  5
30C
330
1F
100
AcDbEntity
  8
0
  6
Continuous
 62
     7
370
    25
100
AcDbLine
 10
546.1628208011
 20
-199.4482894242
 30
0.0
 11
546.5580353867
 21
-199.2201121768
 31
0.0
  0
LINE
  5
30D
330
1F
100
AcDbEntity
  8
0
  6
Continuous
 62
     7
370
    25
100
AcDbLine
 10
546.5580353867
 20
-196.4764666716
 30
0.0
 11
546.1628208011
 21
-196.2482894242
 31
0.0
  0
LINE
  5
30E
330
1F
100
AcDbEntity
  8
0
  6
Continuous
 62
     7
370
    25
100
AcDbLine
 10
539.8628208011
 20
-196.2482894242
 30
0.0
 11
539.4322825061
 21
-196.4968608247
 31
0.0
  0
LINE
  5
30F
330
1F
100
AcDbEntity
  8
0
  6
Continuous
 62
     7
370
    25
100
AcDbLine
 10
407.4322825061
 20
-199.1997180237
 30
0.0
 11
407.8628208011
 21
-199.4482894242
 31
0.0
  0
LINE
  5
310
330
1F
100
AcDbEntity
  8
0
  6
Continuous
 62
     7
370
    25
100
AcDbLine
 10
414.1628208011
 20
-199.4482894242
 30
0.0
 11
414.5580353867
 21
-199.2201121768
 31
0.0
  0
LINE
  5
311
330
1F
100
AcDbEntity
  8
0
  6
Continuous
 62
     7
370
    25
100
AcDbLine
 10
414.5580353867
 20
-196.4764666716
 30
0.0
 11
414.1628208011
 21
-196.2482894242
 31
0.0
  0
LINE
  5
312
330
1F
100
AcDbEntity
  8
0
  6
Continuous
 62
     7
370
    25
100
AcDbLine
 10
407.8628208011
 20
-196.2482894242
 30
0.0
 11
407.4322825061
 21
-196.4968608247
 31
0.0
  0
LINE
  5
313
330
1F
100
AcDbEntity
  8
0
  6
Continuous
 62
     7
370
    25
100
AcDbLine
 10
283.5580353867
 20
-196.4764666716
 30
0.0
 11
283.1628208011
 21
-196.2482894242
 31
0.0
  0
LINE
  5
314
330
1F
100
AcDbEntity
  8
0
  6
Continuous
 62
     7
370
    25
100
AcDbLine
 10
276.8628208011
 20
-196.2482894242
 30
0.0
 11
276.4322825061
 21
-196.4968608247
 31
0.0
  0
LINE
  5
315
330
1F
100
AcDbEntity
  8
0
  6
Continuous
 62
     7
370
    25
100
AcDbLine
 10
276.4322825061
 20
-199.1997180237
 30
0.0
 11
276.8628208011
 21
-199.4482894242
 31
0.0
  0
LINE
  5
316
330
1F
100
AcDbEntity
  8
0
  6
Continuous
 62
     7
370
    25
100
AcDbLine
 10
283.1628208011
 20
-199.4482894242
 30
0.0
 11
283.5580353867
 21
-199.2201121768
 31
0.0
  0
LINE
  5
317
330
1F
100
AcDbEntity
  8
0
  6
Continuous
 62
     7
370
    25
100
AcDbLine
 10
259.0128208011
 20
-212.8982894242
 30
0.0
 11
564.0128208011
 21
-212.8982894242
 31
0.0
  0
LINE
  5
318
330
1F
100
AcDbEntity
  8
0
  6
Continuous
 62
     7
370
    25
100
AcDbLine
 10
541.0128208011
 20
-191.1482894242
 30
0.0
 11
541.0128208011
 21
-196.2482894242
 31
0.0
  0
LINE
  5
319
330
1F
100
AcDbEntity
  8
0
  6
Continuous
 62
     7
370
    25
100
AcDbLine
 10
541.0128208011
 20
-199.4482894242
 30
0.0
 11
541.0128208011
 21
-199.5482894242
 31
0.0
  0
LINE
  5
31A
330
1F
100
AcDbEntity
  8
0
  6
Continuous
 62
     7
370
    25
100
AcDbLine
 10
545.0128208011
 20
-199.5482894242
 30
0.0
 11
545.0128208011
 21
-199.4482894242
 31
0.0
  0
LINE
  5
31B
330
1F
100
AcDbEntity
  8
0
  6
Continuous
 62
     7
370
    25
100
AcDbLine
 10
545.0128208011
 20
-196.2482894242
 30
0.0
 11
545.0128208011
 21
-191.1482894242
 31
0.0
  0
LINE
  5
31C
330
1F
100
AcDbEntity
  8
0
  6
Continuous
 62
     7
370
    25
100
AcDbLine
 10
409.0128208011
 20
-191.1482894242
 30
0.0
 11
409.0128208011
 21
-196.2482894242
 31
0.0
  0
LINE
  5
31D
330
1F
100
AcDbEntity
  8
0
  6
Continuous
 62
     7
370
    25
100
AcDbLine
 10
409.0128208011
 20
-199.4482894242
 30
0.0
 11
409.0128208011
 21
-199.5482894242
 31
0.0
  0
LINE
  5
31E
330
1F
100
AcDbEntity
  8
0
  6
Continuous
 62
     7
370
    25
100
AcDbLine
 10
413.0128208011
 20
-199.5482894242
 30
0.0
 11
413.0128208011
 21
-199.4482894242
 31
0.0
  0
LINE
  5
31F
330
1F
100
AcDbEntity
  8
0
  6
Continuous
 62
     7
370
    25
100
AcDbLine
 10
413.0128208011
 20
-196.2482894242
 30
0.0
 11
413.0128208011
 21
-191.1482894242
 31
0.0
  0
LINE
  5
320
330
1F
100
AcDbEntity
  8
0
  6
Continuous
 62
     7
370
    25
100
AcDbLine
 10
278.0128208011
 20
-191.1482894242
 30
0.0
 11
278.0128208011
 21
-196.2482894242
 31
0.0
  0
LINE
  5
321
330
1F
100
AcDbEntity
  8
0
  6
Continuous
 62
     7
370
    25
100
AcDbLine
 10
278.0128208011
 20
-199.4482894242
 30
0.0
 11
278.0128208011
 21
-199.5482894242
 31
0.0
  0
LINE
  5
322
330
1F
100
AcDbEntity
  8
0
  6
Continuous
 62
     7
370
    25
100
AcDbLine
 10
282.0128208011
 20
-199.5482894242
 30
0.0
 11
282.0128208011
 21
-199.4482894242
 31
0.0
  0
LINE
  5
323
330
1F
100
AcDbEntity
  8
0
  6
Continuous
 62
     7
370
    25
100
AcDbLine
 10
282.0128208011
 20
-196.2482894242
 30
0.0
 11
282.0128208011
 21
-191.1482894242
 31
0.0
  0
ARC
  5
324
330
1F
100
AcDbEntity
  8
0
  6
Continuous
 62
     7
370
    25
100
AcDbCircle
 10
259.8128208011
 20
-182.0482894241
 30
0.0
 40
0.5
100
AcDbArc
 50
0.0
 51
180.0
  0
ARC
  5
325
330
1F
100
AcDbEntity
  8
0
  6
Continuous
 62
     7
370
    25
100
AcDbCircle
 10
259.8128208011
 20
-193.6482894243
 30
0.0
 40
0.5
100
AcDbArc
 50
180.0
 51
0.0
  0
LINE
  5
326
330
1F
100
AcDbEntity
  8
0
  6
Continuous
 62
     7
370
    25
100
AcDbLine
 10
249.8540708011
 20
-190.8482894242
 30
0.0
 11
258.5128208011
 21
-190.8482894242
 31
0.0
  0
LINE
  5
327
330
1F
100
AcDbEntity
  8
0
  6
Continuous
 62
     7
370
    25
100
AcDbLine
 10
258.5128208011
 20
-184.8482894242
 30
0.0
 11
249.8540708011
 21
-184.8482894242
 31
0.0
  0
LINE
  5
328
330
1F
100
AcDbEntity
  8
0
  6
Continuous
 62
     7
370
    25
100
AcDbLine
 10
249.8540708011
 20
-184.8482894242
 30
0.0
 11
249.3128208011
 21
-185.3895394242
 31
0.0
  0
LINE
  5
329
330
1F
100
AcDbEntity
  8
0
  6
Continuous
 62
     7
370
    25
100
AcDbLine
 10
249.3128208011
 20
-190.3070394242
 30
0.0
 11
249.8540708011
 21
-190.8482894242
 31
0.0
  0
LINE
  5
32A
330
1F
100
AcDbEntity
  8
0
  6
Continuous
 62
     7
370
    25
100
AcDbLine
 10
264.3128208011
 20
-182.8482894242
 30
0.0
 11
263.9833377053
 21
-182.2776079621
 31
0.0
  0
LINE
  5
32B
330
1F
100
AcDbEntity
  8
0
  6
Continuous
 62
     7
370
    25
100
AcDbLine
 10
263.9833377053
 20
-193.4189708863
 30
0.0
 11
264.3128208011
 21
-192.8482894242
 31
0.0
  0
LINE
  5
32C
330
1F
100
AcDbEntity
  8
0
  6
Continuous
 62
     7
370
    25
100
AcDbLine
 10
257.0128208011
 20
-211.0482894242
 30
0.0
 11
251.0128208011
 21
-211.0482894242
 31
0.0
  0
LINE
  5
32D
330
1F
100
AcDbEntity
  8
0
  6
Continuous
 62
     7
370
    25
100
AcDbLine
 10
566.0128208011
 20
-211.0482894242
 30
0.0
 11
563.8407277778
 21
-211.0482894242
 31
0.0
  0
LINE
  5
32E
330
1F
100
AcDbEntity
  8
0
  6
Continuous
 62
     7
370
    25
100
AcDbLine
 10
259.1849138243
 20
-211.0482894242
 30
0.0
 11
257.0128208011
 21
-211.0482894242
 31
0.0
  0
LINE
  5
32F
330
1F
100
AcDbEntity
  8
0
  6
Continuous
 62
     7
370
    25
100
AcDbLine
 10
572.0128208011
 20
-211.0482894242
 30
0.0
 11
566.0128208011
 21
-211.0482894242
 31
0.0
  0
SPLINE
  5
330
330
1F
100
AcDbEntity
  8
0
  6
Continuous
 62
     7
370
    25
100
AcDbSpline
210
0.0
220
0.0
230
1.0
 70
    24
 71
     3
 72
     9
 73
     5
 74
     0
 42
0.000000001
 43
0.00000001
 40
0.0
 40
0.0
 40
0.0
 40
0.0
 40
0.5153941859595098
 40
1.0
 40
1.0
 40
1.0
 40
1.0
 10
563.7128208010602
 20
-182.1732794242251
 30
0.0
 10
563.7128208010602
 20
-182.1295375761703
 30
0.0
 10
563.7128208010602
 20
-182.0446669097047
 30
0.0
 10
563.7128208010602
 20
-182.067423344948
 30
0.0
 10
563.7128208010602
 20
-182.0784512457738
 30
0.0
  0
SPLINE
  5
331
330
1F
100
AcDbEntity
  8
0
  6
Continuous
 62
     7
370
    25
100
AcDbSpline
210
0.0
220
0.0
230
1.0
 70
    24
 71
     3
 72
    17
 73
    13
 74
     0
 42
0.000000001
 43
0.00000001
 40
0.0
 40
0.0
 40
0.0
 40
0.0
 40
0.0359921626376355
 40
0.1205930661280437
 40
0.2034359252874578
 40
0.3573281084250902
 40
0.5112202915627204
 40
0.5940631507221379
 40
0.678664054212545
 40
0.7632649577029524
 40
0.8461078168623694
 40
1.0
 40
1.0
 40
1.0
 40
1.0
 10
562.7128208010602
 20
-182.0784512457628
 30
0.0
 10
562.7128208010602
 20
-182.0712998587215
 30
0.0
 10
562.7128208010602
 20
-182.0473388731299
 30
0.0
 10
562.7128208010602
 20
-182.2653437993654
 30
0.0
 10
562.7128208010602
 20
-182.8371308964526
 30
0.0
 10
562.7128208010602
 20
-184.0341474725429
 30
0.0
 10
562.7128208010602
 20
-185.68020423242
 30
0.0
 10
562.7128208010602
 20
-187.1653945846338
 30
0.0
 10
562.7128208010602
 20
-188.361422709008
 30
0.0
 10
562.7128208010602
 20
-189.5311881217974
 30
0.0
 10
562.71282080106
 20
-190.9531353023812
 30
0.0
 10
562.7128208010602
 20
-191.7654025822414
 30
0.0
 10
562.7128208010602
 20
-192.2934257417029
 30
0.0
  0
SPLINE
  5
332
330
1F
100
AcDbEntity
  8
0
  6
Continuous
 62
     7
370
    25
100
AcDbSpline
210
0.0
220
0.0
230
1.0
 70
     8
 71
     3
 72
     8
 73
     4
 74
     0
 42
0.000000001
 43
0.00000001
 40
0.0
 40
0.0
 40
0.0
 40
0.0
 40
1.0
 40
1.0
 40
1.0
 40
1.0
 10
558.7128208010671
 20
-189.5610102519253
 30
0.0
 10
558.7128208010671
 20
-190.4866818305456
 30
0.0
 10
558.8871361014465
 20
-191.3870181753649
 30
0.0
 10
559.1594027884586
 20
-192.2731181262741
 30
0.0
  0
SPLINE
  5
333
330
1F
100
AcDbEntity
  8
0
  6
Continuous
 62
     7
370
    25
100
AcDbSpline
210
0.0
220
0.0
230
1.0
 70
     8
 71
     3
 72
     8
 73
     4
 74
     0
 42
0.000000001
 43
0.00000001
 40
0.0
 40
0.0
 40
0.0
 40
0.0
 40
1.0
 40
1.0
 40
1.0
 40
1.0
 10
559.1594027884585
 20
-186.8489023775766
 30
0.0
 10
558.887136101447
 20
-187.7350023284841
 30
0.0
 10
558.7128208010671
 20
-188.6353386733068
 30
0.0
 10
558.7128208010671
 20
-189.5610102519253
 30
0.0
  0
LINE
  5
334
330
1F
100
AcDbEntity
  8
0
  6
Continuous
 62
     7
370
    25
100
AcDbLine
 10
562.7128208011
 20
-186.8489023776
 30
0.0
 11
559.1594027885
 21
-186.8489023776
 31
0.0
  0
LINE
  5
335
330
1F
100
AcDbEntity
  8
0
  6
Continuous
 62
     7
370
    25
100
AcDbLine
 10
562.7128208011
 20
-192.2731181263
 30
0.0
 11
559.1594027885
 21
-192.2731181263
 31
0.0
  0
SPLINE
  5
336
330
1F
100
AcDbEntity
  8
0
  6
Continuous
 62
     7
370
    25
100
AcDbSpline
210
0.0
220
0.0
230
1.0
 70
     8
 71
     3
 72
     8
 73
     4
 74
     0
 42
0.000000001
 43
0.00000001
 40
0.0
 40
0.0
 40
0.0
 40
0.0
 40
1.0
 40
1.0
 40
1.0
 40
1.0
 10
558.7128208010672
 20
-184.6364880265483
 30
0.0
 10
558.7128208010672
 20
-185.3916088328562
 30
0.0
 10
558.8871361014467
 20
-186.1260623067997
 30
0.0
 10
559.1594027884586
 20
-186.84890237757
 30
0.0
  0
SPLINE
  5
337
330
1F
100
AcDbEntity
  8
0
  6
Continuous
 62
     7
370
    25
100
AcDbSpline
210
0.0
220
0.0
230
1.0
 70
     8
 71
     3
 72
     8
 73
     4
 74
     0
 42
0.000000001
 43
0.00000001
 40
0.0
 40
0.0
 40
0.0
 40
0.0
 40
1.0
 40
1.0
 40
1.0
 40
1.0
 10
559.1594027884586
 20
-182.4240736755265
 30
0.0
 10
558.887136101447
 20
-183.1469137462958
 30
0.0
 10
558.7128208010672
 20
-183.8813672202415
 30
0.0
 10
558.7128208010672
 20
-184.6364880265483
 30
0.0
  0
LINE
  5
338
330
1F
100
AcDbEntity
  8
0
  6
Continuous
 62
     7
370
    25
100
AcDbLine
 10
559.1594027885
 20
-182.4240736755
 30
0.0
 11
562.7128208011
 21
-182.4240736755
 31
0.0
  0
LINE
  5
339
330
1F
100
AcDbEntity
  8
0
  6
Continuous
 62
     7
370
    25
100
AcDbLine
 10
558.7128208011
 20
-184.6364880265
 30
0.0
 11
558.7128208011
 21
-189.5610102519
 31
0.0
  0
SPLINE
  5
33A
330
1F
100
AcDbEntity
  8
0
  6
Continuous
 62
     7
370
    25
100
AcDbSpline
210
0.0
220
0.0
230
1.0
 70
     8
 71
     3
 72
     8
 73
     4
 74
     0
 42
0.000000001
 43
0.00000001
 40
0.0
 40
0.0
 40
0.0
 40
0.0
 40
1.0
 40
1.0
 40
1.0
 40
1.0
 10
559.1594027884586
 20
-192.2731181262785
 30
0.0
 10
558.8871361014471
 20
-192.4363780064169
 30
0.0
 10
558.7128208010672
 20
-192.6022608772933
 30
0.0
 10
558.7128208010672
 20
-192.7728116496052
 30
0.0
  0
LINE
  5
33B
330
1F
100
AcDbEntity
  8
0
  6
Continuous
 62
     7
370
    25
100
AcDbLine
 10
558.7128208011
 20
-189.5610102519
 30
0.0
 11
558.7128208011
 21
-192.7728116496
 31
0.0
  0
SPLINE
  5
33C
330
1F
100
AcDbEntity
  8
0
  6
Continuous
 62
     7
370
    25
100
AcDbSpline
210
0.0
220
0.0
230
1.0
 70
     8
 71
     3
 72
     8
 73
     4
 74
     0
 42
0.000000001
 43
0.00000001
 40
0.0
 40
0.0
 40
0.0
 40
0.0
 40
1.0
 40
1.0
 40
1.0
 40
1.0
 10
558.7128208010672
 20
-182.9237671988509
 30
0.0
 10
558.7128208010672
 20
-182.7532164265386
 30
0.0
 10
558.8871361014465
 20
-182.587333555663
 30
0.0
 10
559.1594027884586
 20
-182.4240736755242
 30
0.0
  0
LINE
  5
33D
330
1F
100
AcDbEntity
  8
0
  6
Continuous
 62
     7
370
    25
100
AcDbLine
 10
558.7128208011
 20
-184.6364880265
 30
0.0
 11
558.7128208011
 21
-182.8529274585
 31
0.0
  0
SPLINE
  5
33E
330
1F
100
AcDbEntity
  8
0
  6
Continuous
 62
     7
370
    25
100
AcDbSpline
210
0.0
220
0.0
230
1.0
 70
     8
 71
     3
 72
     8
 73
     4
 74
     0
 42
0.000000001
 43
0.00000001
 40
0.0
 40
0.0
 40
0.0
 40
0.0
 40
1.0
 40
1.0
 40
1.0
 40
1.0
 10
558.7128208010672
 20
-192.7728116496052
 30
0.0
 10
558.7128208010672
 20
-192.9433624219174
 30
0.0
 10
558.8871361014467
 20
-193.1092452927932
 30
0.0
 10
559.1594027884586
 20
-193.2725051729319
 30
0.0
  0
LINE
  5
33F
330
1F
100
AcDbEntity
  8
0
  6
Continuous
 62
     7
370
    25
100
AcDbLine
 10
562.7128208011
 20
-193.2725051729
 30
0.0
 11
559.1594027885
 21
-193.2725051729
 31
0.0
  0
LINE
  5
340
330
1F
100
AcDbEntity
  8
0
  6
Continuous
 62
     7
370
    25
100
AcDbLine
 10
573.7128208011
 20
-190.3070394242
 30
0.0
 11
573.7128208011
 21
-185.3895394242
 31
0.0
  0
LINE
  5
341
330
1F
100
AcDbEntity
  8
0
  6
Continuous
 62
     7
370
    25
100
AcDbLine
 10
573.1715708011
 20
-185.9212085856
 30
0.0
 11
573.1715708011
 21
-184.8482894242
 31
0.0
  0
LINE
  5
342
330
1F
100
AcDbEntity
  8
0
  6
Continuous
 62
     7
370
    25
100
AcDbLine
 10
573.1715708011
 20
-190.8482894242
 30
0.0
 11
573.1715708011
 21
-185.9212085856
 31
0.0
  0
ARC
  5
343
330
1F
100
AcDbEntity
  8
0
  6
Continuous
 62
     7
370
    25
100
AcDbCircle
 10
566.0128208011
 20
-210.4482894242
 30
0.0
 40
3.0
100
AcDbArc
 50
227.6305369016
 51
270.0
  0
LINE
  5
344
330
1F
100
AcDbEntity
  8
0
  6
Continuous
 62
     7
370
    25
100
AcDbLine
 10
578.0128208011
 20
-213.4482894242
 30
0.0
 11
566.0128208011
 21
-213.4482894242
 31
0.0
  0
ARC
  5
345
330
1F
100
AcDbEntity
  8
0
  6
Continuous
 62
     7
370
    25
100
AcDbCircle
 10
578.0128208011
 20
-210.4482894242
 30
0.0
 40
3.0
100
AcDbArc
 50
270.0
 51
0.0
  0
LINE
  5
346
330
1F
100
AcDbEntity
  8
0
  6
Continuous
 62
     7
370
    25
100
AcDbLine
 10
581.0128208011
 20
-209.4482894242
 30
0.0
 11
581.0128208011
 21
-210.4482894242
 31
0.0
  0
ARC
  5
347
330
1F
100
AcDbEntity
  8
0
  6
Continuous
 62
     7
370
    25
100
AcDbCircle
 10
584.0128208011
 20
-209.4482894242
 30
0.0
 40
3.0
100
AcDbArc
 50
90.0
 51
180.0
  0
LINE
  5
348
330
1F
100
AcDbEntity
  8
0
  6
Continuous
 62
     7
370
    25
100
AcDbLine
 10
607.5421101229
 20
-206.4482894242
 30
0.0
 11
584.0128208011
 21
-206.4482894242
 31
0.0
  0
LINE
  5
349
330
1F
100
AcDbEntity
  8
0
  6
Continuous
 62
     7
370
    25
100
AcDbLine
 10
607.5421101229
 20
-216.0482894242
 30
0.0
 11
607.5421101229
 21
-206.4482894242
 31
0.0
  0
LINE
  5
34A
330
1F
100
AcDbEntity
  8
0
  6
Continuous
 62
     7
370
    25
100
AcDbLine
 10
215.4835314792
 20
-216.0482894242
 30
0.0
 11
215.4835314792
 21
-206.4482894242
 31
0.0
  0
LINE
  5
34B
330
1F
100
AcDbEntity
  8
0
  6
Continuous
 62
     7
370
    25
100
AcDbLine
 10
239.0128208011
 20
-206.4482894242
 30
0.0
 11
215.4835314792
 21
-206.4482894242
 31
0.0
  0
ARC
  5
34C
330
1F
100
AcDbEntity
  8
0
  6
Continuous
 62
     7
370
    25
100
AcDbCircle
 10
239.0128208011
 20
-209.4482894242
 30
0.0
 40
3.0
100
AcDbArc
 50
0.0
 51
90.0
  0
LINE
  5
34D
330
1F
100
AcDbEntity
  8
0
  6
Continuous
 62
     7
370
    25
100
AcDbLine
 10
242.0128208011
 20
-209.4482894242
 30
0.0
 11
242.0128208011
 21
-210.4482894242
 31
0.0
  0
ARC
  5
34E
330
1F
100
AcDbEntity
  8
0
  6
Continuous
 62
     7
370
    25
100
AcDbCircle
 10
245.0128208011
 20
-210.4482894242
 30
0.0
 40
3.0
100
AcDbArc
 50
180.0
 51
270.0
  0
LINE
  5
34F
330
1F
100
AcDbEntity
  8
0
  6
Continuous
 62
     7
370
    25
100
AcDbLine
 10
245.0128208011
 20
-213.4482894242
 30
0.0
 11
257.0128208011
 21
-213.4482894242
 31
0.0
  0
ARC
  5
350
330
1F
100
AcDbEntity
  8
0
  6
Continuous
 62
     7
370
    25
100
AcDbCircle
 10
257.0128208011
 20
-210.4482894242
 30
0.0
 40
3.000000000000003
100
AcDbArc
 50
270.0
 51
312.3694630984
  0
SPLINE
  5
351
330
1F
100
AcDbEntity
  8
0
  6
Continuous
 62
     7
370
    25
100
AcDbSpline
210
0.0
220
0.0
230
1.0
 70
     8
 71
     3
 72
    20
 73
    16
 74
     0
 42
0.000000001
 43
0.00000001
 40
0.0
 40
0.0
 40
0.0
 40
0.0
 40
0.1249999999999982
 40
0.1249999999999982
 40
0.2499999999999963
 40
0.2499999999999963
 40
0.3749999999999943
 40
0.3749999999999943
 40
0.4999999999999924
 40
0.4999999999999924
 40
0.7499999999999937
 40
0.7499999999999937
 40
0.8749999999999969
 40
0.8749999999999969
 40
1.0
 40
1.0
 40
1.0
 40
1.0
 10
607.5421101229427
 20
-216.0482894242249
 30
0.0
 10
607.5030693920884
 20
-216.2066686118755
 30
0.0
 10
607.4645506878885
 20
-216.3629143365672
 30
0.0
 10
607.3871439365806
 20
-216.6709061859838
 30
0.0
 10
607.3479995185938
 20
-216.823550293455
 30
0.0
 10
607.2708487646787
 20
-217.112634582642
 30
0.0
 10
607.2325211829377
 20
-217.2504391208261
 30
0.0
 10
607.1549748624611
 20
-217.512057796465
 30
0.0
 10
607.1159986547925
 20
-217.6348041031476
 30
0.0
 10
607.0005037983474
 20
-217.9661284800953
 30
0.0
 10
606.9225913546773
 20
-218.1451396041236
 30
0.0
 10
606.8071114292765
 20
-218.3247547035044
 30
0.0
 10
606.7682456334113
 20
-218.3709990523721
 30
0.0
 10
606.6904712997429
 20
-218.4327523583833
 30
0.0
 10
606.6518615327881
 20
-218.4482894242248
 30
0.0
 10
606.6128208010615
 20
-218.4482894242248
 30
0.0
  0
LINE
  5
352
330
1F
100
AcDbEntity
  8
0
  6
Continuous
 62
     7
370
    25
100
AcDbLine
 10
606.6128208011
 20
-218.4482894242
 30
0.0
 11
216.4128208011
 21
-218.4482894242
 31
0.0
  0
SPLINE
  5
353
330
1F
100
AcDbEntity
  8
0
  6
Continuous
 62
     7
370
    25
100
AcDbSpline
210
0.0
220
0.0
230
1.0
 70
     8
 71
     3
 72
    20
 73
    16
 74
     0
 42
0.000000001
 43
0.00000001
 40
0.0
 40
0.0
 40
0.0
 40
0.0
 40
0.1249999999999899
 40
0.1249999999999899
 40
0.2499999999999798
 40
0.2499999999999798
 40
0.3749999999999698
 40
0.3749999999999698
 40
0.4999999999999597
 40
0.4999999999999597
 40
0.7499999999999744
 40
0.7499999999999744
 40
0.8749999999999872
 40
0.8749999999999872
 40
1.0
 40
1.0
 40
1.0
 40
1.0
 10
216.4128208010615
 20
-218.4482894242248
 30
0.0
 10
216.3737800702069
 20
-218.4482894242248
 30
0.0
 10
216.3352613660071
 20
-218.43275286375
 30
0.0
 10
216.2578546146992
 20
-218.3714345117893
 30
0.0
 10
216.2187101967125
 20
-218.3250107662025
 30
0.0
 10
216.1415594427974
 20
-218.2050598960484
 30
0.0
 10
216.1032318610563
 20
-218.1314552517649
 30
0.0
 10
216.0256855405797
 20
-217.9567248856693
 30
0.0
 10
215.9867093329109
 20
-217.8558742567678
 30
0.0
 10
215.871214476466
 20
-217.5245889767838
 30
0.0
 10
215.7933020327959
 20
-217.2569088154
 30
0.0
 10
215.677822107395
 20
-216.8242347893446
 30
0.0
 10
215.63895631153
 20
-216.6727167024934
 30
0.0
 10
215.5611819778615
 20
-216.3632909451074
 30
0.0
 10
215.5225722109067
 20
-216.2066686154136
 30
0.0
 10
215.48353147918
 20
-216.0482894242249
 30
0.0
  0
SPLINE
  5
354
330
1F
100
AcDbEntity
  8
0
  6
Continuous
 62
     7
370
    25
100
AcDbSpline
210
0.0
220
0.0
230
1.0
 70
     8
 71
     3
 72
    20
 73
    16
 74
     0
 42
0.000000001
 43
0.00000001
 40
0.0
 40
0.0
 40
0.0
 40
0.0
 40
0.1250000000000037
 40
0.1250000000000037
 40
0.2500000000000074
 40
0.2500000000000074
 40
0.3750000000000111
 40
0.3750000000000111
 40
0.5000000000000148
 40
0.5000000000000148
 40
0.7500000000000072
 40
0.7500000000000072
 40
0.8750000000000036
 40
0.8750000000000036
 40
1.0
 40
1.0
 40
1.0
 40
1.0
 10
606.6128208010615
 20
-218.4482894242248
 30
0.0
 10
606.771199988712
 20
-218.4482894242248
 30
0.0
 10
606.9274457134038
 20
-218.43275286375
 30
0.0
 10
607.2354375628204
 20
-218.3714345117894
 30
0.0
 10
607.3880816702915
 20
-218.3250107662026
 30
0.0
 10
607.6771659594787
 20
-218.2050598960484
 30
0.0
 10
607.8149704976628
 20
-218.131455251765
 30
0.0
 10
608.0765891733015
 20
-217.9567248856694
 30
0.0
 10
608.1993354799843
 20
-217.8558742567679
 30
0.0
 10
608.530659856932
 20
-217.5245889767839
 30
0.0
 10
608.7096709809601
 20
-217.2569088154
 30
0.0
 10
608.8892860803411
 20
-216.8242347893446
 30
0.0
 10
608.9355304292088
 20
-216.6727167024935
 30
0.0
 10
608.99728373522
 20
-216.3632909451074
 30
0.0
 10
609.0128208010614
 20
-216.2066686154136
 30
0.0
 10
609.0128208010615
 20
-216.0482894242249
 30
0.0
  0
SPLINE
  5
355
330
1F
100
AcDbEntity
  8
0
  6
Continuous
 62
     7
370
    25
100
AcDbSpline
210
0.0
220
0.0
230
1.0
 70
     8
 71
     3
 72
     9
 73
     5
 74
     0
 42
0.000000001
 43
0.00000001
 40
0.0
 40
0.0
 40
0.0
 40
0.0
 40
0.4825784287291343
 40
1.0
 40
1.0
 40
1.0
 40
1.0
 10
607.3889910330079
 20
-216.6608291634028
 30
0.0
 10
607.4527992260694
 20
-216.5726948220865
 30
0.0
 10
607.5850226933084
 20
-216.3900626610335
 30
0.0
 10
607.6033419977649
 20
-216.164829776989
 30
0.0
 10
607.6128208010614
 20
-216.0482894242249
 30
0.0
  0
LINE
  5
356
330
1F
100
AcDbEntity
  8
0
  6
Continuous
 62
     7
370
    25
100
AcDbLine
 10
609.0128208011
 20
-216.0482894242
 30
0.0
 11
607.6128208011
 21
-216.0482894242
 31
0.0
  0
SPLINE
  5
357
330
1F
100
AcDbEntity
  8
0
  6
Continuous
 62
     7
370
    25
100
AcDbSpline
210
0.0
220
0.0
230
1.0
 70
     8
 71
     3
 72
    20
 73
    16
 74
     0
 42
0.000000001
 43
0.00000001
 40
0.0
 40
0.0
 40
0.0
 40
0.0
 40
0.1250000000000014
 40
0.1250000000000014
 40
0.2500000000000027
 40
0.2500000000000027
 40
0.375000000000004
 40
0.375000000000004
 40
0.5000000000000052
 40
0.5000000000000052
 40
0.7500000000000078
 40
0.7500000000000078
 40
0.8750000000000039
 40
0.8750000000000039
 40
1.0
 40
1.0
 40
1.0
 40
1.0
 10
214.0128208010614
 20
-216.0482894242249
 30
0.0
 10
214.0128208010615
 20
-216.2066686118755
 30
0.0
 10
214.0283573615363
 20
-216.3629143365672
 30
0.0
 10
214.0896757134969
 20
-216.6709061859839
 30
0.0
 10
214.1360994590837
 20
-216.823550293455
 30
0.0
 10
214.2560503292378
 20
-217.112634582642
 30
0.0
 10
214.3296549735213
 20
-217.2504391208261
 30
0.0
 10
214.5043853396168
 20
-217.512057796465
 30
0.0
 10
214.6052359685183
 20
-217.6348041031476
 30
0.0
 10
214.9365212485023
 20
-217.9661284800954
 30
0.0
 10
215.2042014098863
 20
-218.1451396041236
 30
0.0
 10
215.6368754359416
 20
-218.3247547035045
 30
0.0
 10
215.7883935227928
 20
-218.3709990523722
 30
0.0
 10
216.0978192801789
 20
-218.4327523583834
 30
0.0
 10
216.2544416098728
 20
-218.4482894242248
 30
0.0
 10
216.4128208010615
 20
-218.4482894242248
 30
0.0
  0
LINE
  5
358
330
1F
100
AcDbEntity
  8
0
  6
Continuous
 62
     7
370
    25
100
AcDbLine
 10
214.0128208011
 20
-216.0482894242
 30
0.0
 11
215.4128208011
 21
-216.0482894242
 31
0.0
  0
SPLINE
  5
359
330
1F
100
AcDbEntity
  8
0
  6
Continuous
 62
     7
370
    25
100
AcDbSpline
210
0.0
220
0.0
230
1.0
 70
     8
 71
     3
 72
     9
 73
     5
 74
     0
 42
0.000000001
 43
0.00000001
 40
0.0
 40
0.0
 40
0.0
 40
0.0
 40
0.6784508005729537
 40
1.0
 40
1.0
 40
1.0
 40
1.0
 10
215.4128208010615
 20
-216.0482894242249
 30
0.0
 10
215.4260703715259
 20
-216.1989966286781
 30
0.0
 10
215.445599525966
 20
-216.4211309445726
 30
0.0
 10
215.586447179605
 20
-216.5879640494617
 30
0.0
 10
215.6317366298737
 20
-216.6416091007767
 30
0.0
  0
LINE
  5
35A
330
1F
100
AcDbEntity
  8
0
  6
Continuous
 62
     7
370
    25
100
AcDbLine
 10
607.6128208011
 20
-216.0482894242
 30
0.0
 11
607.6128208011
 21
-206.4482894242
 31
0.0
  0
LINE
  5
35B
330
1F
100
AcDbEntity
  8
0
  6
Continuous
 62
     7
370
    25
100
AcDbLine
 10
609.0128208011
 20
-216.0482894242
 30
0.0
 11
609.0128208011
 21
-206.4482894242
 31
0.0
  0
LINE
  5
35C
330
1F
100
AcDbEntity
  8
0
  6
Continuous
 62
     7
370
    25
100
AcDbLine
 10
609.0128208011
 20
-206.4482894242
 30
0.0
 11
607.6128208011
 21
-206.4482894242
 31
0.0
  0
LINE
  5
35D
330
1F
100
AcDbEntity
  8
0
  6
Continuous
 62
     7
370
    25
100
AcDbLine
 10
215.4128208011
 20
-216.0482894242
 30
0.0
 11
215.4128208011
 21
-206.4482894242
 31
0.0
  0
LINE
  5
35E
330
1F
100
AcDbEntity
  8
0
  6
Continuous
 62
     7
370
    25
100
AcDbLine
 10
214.0128208011
 20
-216.0482894242
 30
0.0
 11
214.0128208011
 21
-206.4482894242
 31
0.0
  0
LINE
  5
35F
330
1F
100
AcDbEntity
  8
0
  6
Continuous
 62
     7
370
    25
100
AcDbLine
 10
214.0128208011
 20
-206.4482894242
 30
0.0
 11
215.4128208011
 21
-206.4482894242
 31
0.0
  0
LINE
  5
360
330
1F
100
AcDbEntity
  8
0
  6
Continuous
 62
     7
370
    25
100
AcDbLine
 10
258.5128208011
 20
-179.3482894242
 30
0.0
 11
259.3128208011
 21
-179.3482894242
 31
0.0
  0
LINE
  5
361
330
1F
100
AcDbEntity
  8
0
  6
Continuous
 62
     7
370
    25
100
AcDbLine
 10
259.3128208011
 20
-179.3482894242
 30
0.0
 11
259.3128208011
 21
-182.3482894242
 31
0.0
  0
LINE
  5
362
330
1F
100
AcDbEntity
  8
0
  6
Continuous
 62
     7
370
    25
100
AcDbLine
 10
258.5128208011
 20
-182.3482894242
 30
0.0
 11
258.5128208011
 21
-179.3482894242
 31
0.0
  0
LINE
  5
363
330
1F
100
AcDbEntity
  8
0
  6
Continuous
 62
     7
370
    25
100
AcDbLine
 10
259.3128208011
 20
-199.3482894242
 30
0.0
 11
259.3128208011
 21
-182.3482894242
 31
0.0
  0
LINE
  5
364
330
1F
100
AcDbEntity
  8
0
  6
Continuous
 62
     7
370
    25
100
AcDbLine
 10
258.5128208011
 20
-199.3482894242
 30
0.0
 11
258.5128208011
 21
-182.3482894242
 31
0.0
  0
LINE
  5
365
330
1F
100
AcDbEntity
  8
0
  6
Continuous
 62
     7
370
    25
100
AcDbLine
 10
563.7128208011
 20
-179.3482894242
 30
0.0
 11
564.5128208011
 21
-179.3482894242
 31
0.0
  0
LINE
  5
366
330
1F
100
AcDbEntity
  8
0
  6
Continuous
 62
     7
370
    25
100
AcDbLine
 10
564.5128208011
 20
-179.3482894242
 30
0.0
 11
564.5128208011
 21
-182.3482894242
 31
0.0
  0
LINE
  5
367
330
1F
100
AcDbEntity
  8
0
  6
Continuous
 62
     7
370
    25
100
AcDbLine
 10
563.7128208011
 20
-182.3482894242
 30
0.0
 11
563.7128208011
 21
-179.3482894242
 31
0.0
  0
LINE
  5
368
330
1F
100
AcDbEntity
  8
0
  6
Continuous
 62
     7
370
    25
100
AcDbLine
 10
564.5128208011
 20
-182.3482894242
 30
0.0
 11
564.5128208011
 21
-199.3482894242
 31
0.0
  0
LINE
  5
369
330
1F
100
AcDbEntity
  8
0
  6
Continuous
 62
     7
370
    25
100
AcDbLine
 10
563.7128208011
 20
-182.3482894242
 30
0.0
 11
563.7128208011
 21
-199.3482894242
 31
0.0
  0
LINE
  5
36A
330
1F
100
AcDbEntity
  8
0
  6
Continuous
 62
     7
370
    25
100
AcDbLine
 10
259.3128208011
 20
-202.3482894242
 30
0.0
 11
258.5128208011
 21
-202.3482894242
 31
0.0
  0
LINE
  5
36B
330
1F
100
AcDbEntity
  8
0
  6
Continuous
 62
     7
370
    25
100
AcDbLine
 10
259.3128208011
 20
-199.3482894242
 30
0.0
 11
259.3128208011
 21
-202.3482894242
 31
0.0
  0
LINE
  5
36C
330
1F
100
AcDbEntity
  8
0
  6
Continuous
 62
     7
370
    25
100
AcDbLine
 10
258.5128208011
 20
-202.3482894242
 30
0.0
 11
258.5128208011
 21
-199.3482894242
 31
0.0
  0
LINE
  5
36D
330
1F
100
AcDbEntity
  8
0
  6
Continuous
 62
     7
370
    25
100
AcDbLine
 10
564.5128208011
 20
-202.3482894242
 30
0.0
 11
563.7128208011
 21
-202.3482894242
 31
0.0
  0
LINE
  5
36E
330
1F
100
AcDbEntity
  8
0
  6
Continuous
 62
     7
370
    25
100
AcDbLine
 10
564.5128208011
 20
-199.3482894242
 30
0.0
 11
564.5128208011
 21
-202.3482894242
 31
0.0
  0
LINE
  5
36F
330
1F
100
AcDbEntity
  8
0
  6
Continuous
 62
     7
370
    25
100
AcDbLine
 10
563.7128208011
 20
-202.3482894242
 30
0.0
 11
563.7128208011
 21
-199.3482894242
 31
0.0
  0
LINE
  5
370
330
1F
100
AcDbEntity
  8
0
  6
Continuous
 62
     7
370
    25
100
AcDbLine
 10
561.5128208011
 20
-200.3482894242
 30
0.0
 11
561.5128208011
 21
-199.5482894242
 31
0.0
  0
LINE
  5
371
330
1F
100
AcDbEntity
  8
0
  6
Continuous
 62
     7
370
    25
100
AcDbLine
 10
561.5128208011
 20
-199.5482894242
 30
0.0
 11
261.5128208011
 21
-199.5482894242
 31
0.0
  0
LINE
  5
372
330
1F
100
AcDbEntity
  8
0
  6
Continuous
 62
     7
370
    25
100
AcDbLine
 10
261.5128208011
 20
-200.3482894242
 30
0.0
 11
261.5128208011
 21
-199.5482894242
 31
0.0
  0
LINE
  5
373
330
1F
100
AcDbEntity
  8
0
  6
Continuous
 62
     7
370
    25
100
AcDbLine
 10
337.0128208011
 20
-159.4436760324
 30
0.0
 11
337.0128208011
 21
-165.9613674861
 31
0.0
  0
ARC
  5
374
330
1F
100
AcDbEntity
  8
0
  6
Continuous
 62
     7
370
    25
100
AcDbCircle
 10
340.0128208011
 20
-159.4436760324
 30
0.0
 40
3.0
100
AcDbArc
 50
90.0
 51
180.0
  0
LINE
  5
375
330
1F
100
AcDbEntity
  8
0
  6
Continuous
 62
     7
370
    25
100
AcDbLine
 10
484.0128208011
 20
-156.4436760324
 30
0.0
 11
340.0128208011
 21
-156.4436760324
 31
0.0
  0
ARC
  5
376
330
1F
100
AcDbEntity
  8
0
  6
Continuous
 62
     7
370
    25
100
AcDbCircle
 10
484.0128208011
 20
-159.4436760324
 30
0.0
 40
3.0
100
AcDbArc
 50
0.0
 51
90.0
  0
LINE
  5
377
330
1F
100
AcDbEntity
  8
0
  6
Continuous
 62
     7
370
    25
100
AcDbLine
 10
487.0128208011
 20
-165.9613674861
 30
0.0
 11
487.0128208011
 21
-159.4436760324
 31
0.0
  0
LINE
  5
378
330
1F
100
AcDbEntity
  8
0
  6
Continuous
 62
     7
370
    25
100
AcDbLine
 10
337.0128208011
 20
-166.8613674861
 30
0.0
 11
337.0128208011
 21
-165.9613674861
 31
0.0
  0
LINE
  5
379
330
1F
100
AcDbEntity
  8
0
  6
Continuous
 62
     7
370
    25
100
AcDbLine
 10
487.0128208011
 20
-165.9613674861
 30
0.0
 11
487.0128208011
 21
-166.8613674861
 31
0.0
  0
LINE
  5
37A
330
1F
100
AcDbEntity
  8
0
  6
Continuous
 62
     7
370
    25
100
AcDbLine
 10
487.0128208011
 20
-166.8613674861
 30
0.0
 11
487.0128208011
 21
-173.4862386167
 31
0.0
  0
LINE
  5
37B
330
1F
100
AcDbEntity
  8
0
  6
Continuous
 62
     7
370
    25
100
AcDbLine
 10
337.0128208011
 20
-173.4862386167
 30
0.0
 11
337.0128208011
 21
-166.8613674861
 31
0.0
  0
LINE
  5
37C
330
1F
100
AcDbEntity
  8
0
  6
Continuous
 62
     7
370
    25
100
AcDbLine
 10
259.3128208011
 20
-198.3482894242
 30
0.0
 11
260.3128208011
 21
-198.3482894242
 31
0.0
  0
LINE
  5
37D
330
1F
100
AcDbEntity
  8
0
  6
Continuous
 62
     7
370
    25
100
AcDbLine
 10
260.3128208011
 20
-179.3482894242
 30
0.0
 11
259.3128208011
 21
-179.3482894242
 31
0.0
  0
LINE
  5
37E
330
1F
100
AcDbEntity
  8
0
  6
Continuous
 62
     7
370
    25
100
AcDbLine
 10
562.7128208011
 20
-198.3482894242
 30
0.0
 11
563.7128208011
 21
-198.3482894242
 31
0.0
  0
LINE
  5
37F
330
1F
100
AcDbEntity
  8
0
  6
Continuous
 62
     7
370
    25
100
AcDbLine
 10
563.7128208011
 20
-179.3482894242
 30
0.0
 11
562.7128208011
 21
-179.3482894242
 31
0.0
  0
LINE
  5
380
330
1F
100
AcDbEntity
  8
0
  6
Continuous
 62
     7
370
    25
100
AcDbLine
 10
561.5128208011
 20
-199.5482894242
 30
0.0
 11
561.5128208011
 21
-198.5482894242
 31
0.0
  0
LINE
  5
381
330
1F
100
AcDbEntity
  8
0
  6
Continuous
 62
     7
370
    25
100
AcDbLine
 10
261.5128208011
 20
-198.5482894242
 30
0.0
 11
261.5128208011
 21
-199.5482894242
 31
0.0
  0
LINE
  5
382
330
1F
100
AcDbEntity
  8
0
  6
Continuous
 62
     7
370
    25
100
AcDbLine
 10
487.0128208011
 20
-173.9862386167
 30
0.0
 11
487.0128208011
 21
-173.4862386167
 31
0.0
  0
LINE
  5
383
330
1F
100
AcDbEntity
  8
0
  6
Continuous
 62
     7
370
    25
100
AcDbLine
 10
337.0128208011
 20
-173.4862386167
 30
0.0
 11
337.0128208011
 21
-173.9862386167
 31
0.0
  0
LINE
  5
384
330
1F
100
AcDbEntity
  8
0
  6
Continuous
 62
     7
370
    25
100
AcDbLine
 10
562.7128208011
 20
-179.3482894242
 30
0.0
 11
559.5128208011
 21
-179.3482894242
 31
0.0
  0
LINE
  5
385
330
1F
100
AcDbEntity
  8
0
  6
Continuous
 62
     7
370
    25
100
AcDbLine
 10
561.5128208011
 20
-198.3482894242
 30
0.0
 11
562.7128208011
 21
-198.3482894242
 31
0.0
  0
LINE
  5
386
330
1F
100
AcDbEntity
  8
0
  6
Continuous
 62
     7
370
    25
100
AcDbLine
 10
561.5128208011
 20
-198.5482894242
 30
0.0
 11
561.5128208011
 21
-198.3482894242
 31
0.0
  0
LINE
  5
387
330
1F
100
AcDbEntity
  8
0
  6
Continuous
 62
     7
370
    25
100
AcDbLine
 10
261.5128208011
 20
-198.3482894242
 30
0.0
 11
261.5128208011
 21
-198.5482894242
 31
0.0
  0
LINE
  5
388
330
1F
100
AcDbEntity
  8
0
  6
Continuous
 62
     7
370
    25
100
AcDbLine
 10
260.3128208011
 20
-198.3482894242
 30
0.0
 11
261.5128208011
 21
-198.3482894242
 31
0.0
  0
LINE
  5
389
330
1F
100
AcDbEntity
  8
0
  6
Continuous
 62
     7
370
    25
100
AcDbLine
 10
263.5128208011
 20
-179.3482894242
 30
0.0
 11
260.3128208011
 21
-179.3482894242
 31
0.0
  0
LINE
  5
38A
330
1F
100
AcDbEntity
  8
0
  6
Continuous
 62
     7
370
    25
100
AcDbLine
 10
263.5128208011
 20
-158.3482894242
 30
0.0
 11
263.5128208011
 21
-179.3482894242
 31
0.0
  0
ARC
  5
38B
330
1F
100
AcDbEntity
  8
0
  6
Continuous
 62
     7
370
    25
100
AcDbCircle
 10
266.5128208011
 20
-158.3482894242
 30
0.0
 40
3.0
100
AcDbArc
 50
90.0
 51
180.0
  0
LINE
  5
38C
330
1F
100
AcDbEntity
  8
0
  6
Continuous
 62
     7
370
    25
100
AcDbLine
 10
331.5128208011
 20
-155.3482894242
 30
0.0
 11
266.5128208011
 21
-155.3482894242
 31
0.0
  0
ARC
  5
38D
330
1F
100
AcDbEntity
  8
0
  6
Continuous
 62
     7
370
    25
100
AcDbCircle
 10
331.5128208011
 20
-158.3482894242
 30
0.0
 40
3.0
100
AcDbArc
 50
0.0
 51
90.0
  0
LINE
  5
38E
330
1F
100
AcDbEntity
  8
0
  6
Continuous
 62
     7
370
    25
100
AcDbLine
 10
334.5128208011
 20
-158.3482894242
 30
0.0
 11
334.5128208011
 21
-174.4782894242
 31
0.0
  0
LINE
  5
38F
330
1F
100
AcDbEntity
  8
0
  6
Continuous
 62
     7
370
    25
100
AcDbLine
 10
334.5128208011
 20
-174.4782894242
 30
0.0
 11
337.0128208011
 21
-174.4782894242
 31
0.0
  0
LINE
  5
390
330
1F
100
AcDbEntity
  8
0
  6
Continuous
 62
     7
370
    25
100
AcDbLine
 10
337.0128208011
 20
-173.9862386167
 30
0.0
 11
337.0128208011
 21
-174.4782894242
 31
0.0
  0
LINE
  5
391
330
1F
100
AcDbEntity
  8
0
  6
Continuous
 62
     7
370
    25
100
AcDbLine
 10
487.0128208011
 20
-173.9862386167
 30
0.0
 11
487.0128208011
 21
-174.4782894242
 31
0.0
  0
LINE
  5
392
330
1F
100
AcDbEntity
  8
0
  6
Continuous
 62
     7
370
    25
100
AcDbLine
 10
487.0128208011
 20
-174.4782894242
 30
0.0
 11
489.5128208011
 21
-174.4782894242
 31
0.0
  0
LINE
  5
393
330
1F
100
AcDbEntity
  8
0
  6
Continuous
 62
     7
370
    25
100
AcDbLine
 10
489.5128208011
 20
-174.4782894242
 30
0.0
 11
489.5128208011
 21
-158.3482894242
 31
0.0
  0
ARC
  5
394
330
1F
100
AcDbEntity
  8
0
  6
Continuous
 62
     7
370
    25
100
AcDbCircle
 10
492.5128208011
 20
-158.3482894242
 30
0.0
 40
3.0
100
AcDbArc
 50
90.0
 51
180.0
  0
LINE
  5
395
330
1F
100
AcDbEntity
  8
0
  6
Continuous
 62
     7
370
    25
100
AcDbLine
 10
556.5128208011
 20
-155.3482894242
 30
0.0
 11
492.5128208011
 21
-155.3482894242
 31
0.0
  0
ARC
  5
396
330
1F
100
AcDbEntity
  8
0
  6
Continuous
 62
     7
370
    25
100
AcDbCircle
 10
556.5128208011
 20
-158.3482894242
 30
0.0
 40
2.999999999999972
100
AcDbArc
 50
0.0
 51
90.0
  0
LINE
  5
397
330
1F
100
AcDbEntity
  8
0
  6
Continuous
 62
     7
370
    25
100
AcDbLine
 10
559.5128208011
 20
-179.3482894242
 30
0.0
 11
559.5128208011
 21
-158.3482894242
 31
0.0
  0
SPLINE
  5
398
330
1F
100
AcDbEntity
  8
0
  6
Continuous
 62
     7
370
    25
100
AcDbSpline
210
0.0
220
0.0
230
1.0
 70
     8
 71
     3
 72
     9
 73
     5
 74
     0
 42
0.000000001
 43
0.00000001
 40
0.0
 40
0.0
 40
0.0
 40
0.0
 40
0.6277651913045446
 40
1.0
 40
1.0
 40
1.0
 40
1.0
 10
539.467878762427
 20
-199.1380634992795
 30
0.0
 10
539.4185716622854
 20
-199.133035899804
 30
0.0
 10
539.3400278041288
 20
-199.1250271736989
 30
0.0
 10
539.2648971795379
 20
-198.9855337476124
 30
0.0
 10
539.2369309458662
 20
-198.9336094388388
 30
0.0
  0
SPLINE
  5
399
330
1F
100
AcDbEntity
  8
0
  6
Continuous
 62
     7
370
    25
100
AcDbSpline
210
0.0
220
0.0
230
1.0
 70
     8
 71
     3
 72
    12
 73
     8
 74
     0
 42
0.000000001
 43
0.00000001
 40
0.0
 40
0.0
 40
0.0
 40
0.0
 40
0.4999999999999922
 40
0.4999999999999922
 40
0.7499999999999961
 40
0.7499999999999961
 40
1.0
 40
1.0
 40
1.0
 40
1.0
 10
539.2369309458661
 20
-198.9336094388398
 30
0.0
 10
539.748937097571
 20
-199.1241037282633
 30
0.0
 10
540.2686146438392
 20
-199.2457781413257
 30
0.0
 10
541.0684025014018
 20
-199.246434331857
 30
0.0
 10
541.3347264482497
 20
-199.2166003300626
 30
0.0
 10
541.8578839512512
 20
-199.107670459955
 30
0.0
 10
542.1163485823995
 20
-199.0289752728921
 30
0.0
 10
542.3726706687216
 20
-198.9336094388393
 30
0.0
  0
SPLINE
  5
39A
330
1F
100
AcDbEntity
  8
0
  6
Continuous
 62
     7
370
    25
100
AcDbSpline
210
0.0
220
0.0
230
1.0
 70
     8
 71
     3
 72
    12
 73
     8
 74
     0
 42
0.000000001
 43
0.00000001
 40
0.0
 40
0.0
 40
0.0
 40
0.0
 40
0.4999999999999906
 40
0.4999999999999906
 40
0.7499999999999952
 40
0.7499999999999952
 40
1.0
 40
1.0
 40
1.0
 40
1.0
 10
542.3726706687214
 20
-198.9336094388398
 30
0.0
 10
542.9892010586417
 20
-199.1241037282633
 30
0.0
 10
543.6149689310915
 20
-199.2457781413257
 30
0.0
 10
544.5780306404764
 20
-199.246434331857
 30
0.0
 10
544.898723675606
 20
-199.2166003300626
 30
0.0
 10
545.528681925602
 20
-199.107670459955
 30
0.0
 10
545.8399111936329
 20
-199.0289752728921
 30
0.0
 10
546.1485605239176
 20
-198.9336094388393
 30
0.0
  0
SPLINE
  5
39B
330
1F
100
AcDbEntity
  8
0
  6
Continuous
 62
     7
370
    25
100
AcDbSpline
210
0.0
220
0.0
230
1.0
 70
     8
 71
     3
 72
    14
 73
    10
 74
     0
 42
0.000000001
 43
0.00000001
 40
0.0
 40
0.0
 40
0.0
 40
0.0
 40
0.25
 40
0.25
 40
0.5
 40
0.5
 40
0.75
 40
0.75
 40
1.0
 40
1.0
 40
1.0
 40
1.0
 10
546.1485605239175
 20
-198.9336094388389
 30
0.0
 10
546.2006182328083
 20
-199.0284840481495
 30
0.0
 10
546.2539517711365
 20
-199.1080889730252
 30
0.0
 10
546.3608837787646
 20
-199.2169255879195
 30
0.0
 10
546.414637145212
 20
-199.2462491936099
 30
0.0
 10
546.5228161966357
 20
-199.2461844118643
 30
0.0
 10
546.5776448932237
 20
-199.216028218538
 30
0.0
 10
546.6845518758836
 20
-199.1064430171723
 30
0.0
 10
546.736973390856
 20
-199.0279000433701
 30
0.0
 10
546.7887106562581
 20
-198.9336094388389
 30
0.0
  0
LINE
  5
39C
330
1F
100
AcDbEntity
  8
0
  6
Continuous
 62
     7
370
    25
100
AcDbLine
 10
546.1628208011
 20
-199.4482894242
 30
0.0
 11
539.8628208011
 21
-199.4482894242
 31
0.0
  0
SPLINE
  5
39D
330
1F
100
AcDbEntity
  8
0
  6
Continuous
 62
     7
370
    25
100
AcDbSpline
210
0.0
220
0.0
230
1.0
 70
     8
 71
     3
 72
    12
 73
     8
 74
     0
 42
0.000000001
 43
0.00000001
 40
0.0
 40
0.0
 40
0.0
 40
0.0
 40
0.5000000000000094
 40
0.5000000000000094
 40
0.7500000000000047
 40
0.7500000000000047
 40
1.0
 40
1.0
 40
1.0
 40
1.0
 10
546.1485605239176
 20
-196.7629694096099
 30
0.0
 10
545.5320301339974
 20
-196.5724751201864
 30
0.0
 10
544.9062622615475
 20
-196.450800707124
 30
0.0
 10
543.9432005521627
 20
-196.4501445165928
 30
0.0
 10
543.6225075170329
 20
-196.4799785183871
 30
0.0
 10
542.992549267037
 20
-196.5889083884947
 30
0.0
 10
542.6813199990062
 20
-196.6676035755576
 30
0.0
 10
542.3726706687215
 20
-196.7629694096103
 30
0.0
  0
LINE
  5
39E
330
1F
100
AcDbEntity
  8
0
  6
Continuous
 62
     7
370
    25
100
AcDbLine
 10
546.1485605239
 20
-196.7629694096
 30
0.0
 11
546.1485605239
 21
-198.9336094388
 31
0.0
  0
LINE
  5
39F
330
1F
100
AcDbEntity
  8
0
  6
Continuous
 62
     7
370
    25
100
AcDbLine
 10
542.3726706687
 20
-196.7629694096
 30
0.0
 11
542.3726706687
 21
-198.9336094388
 31
0.0
  0
SPLINE
  5
3A0
330
1F
100
AcDbEntity
  8
0
  6
Continuous
 62
     7
370
    25
100
AcDbSpline
210
0.0
220
0.0
230
1.0
 70
     8
 71
     3
 72
    14
 73
    10
 74
     0
 42
0.000000001
 43
0.00000001
 40
0.0
 40
0.0
 40
0.0
 40
0.0
 40
0.25
 40
0.25
 40
0.5
 40
0.5
 40
0.75
 40
0.75
 40
1.0
 40
1.0
 40
1.0
 40
1.0
 10
546.1485605239175
 20
-196.7629694096109
 30
0.0
 10
546.2006182328083
 20
-196.6680948003002
 30
0.0
 10
546.2539517711365
 20
-196.5884898754245
 30
0.0
 10
546.3608837787646
 20
-196.4796532605303
 30
0.0
 10
546.414637145212
 20
-196.4503296548398
 30
0.0
 10
546.5228161966357
 20
-196.4503944365854
 30
0.0
 10
546.5776448932237
 20
-196.4805506299117
 30
0.0
 10
546.6845518758836
 20
-196.5901358312774
 30
0.0
 10
546.736973390856
 20
-196.6686788050796
 30
0.0
 10
546.7887106562581
 20
-196.7629694096109
 30
0.0
  0
SPLINE
  5
3A1
330
1F
100
AcDbEntity
  8
0
  6
Continuous
 62
     7
370
    25
100
AcDbSpline
210
0.0
220
0.0
230
1.0
 70
     8
 71
     3
 72
    12
 73
     8
 74
     0
 42
0.000000001
 43
0.00000001
 40
0.0
 40
0.0
 40
0.0
 40
0.0
 40
0.4999999999999922
 40
0.4999999999999922
 40
0.7499999999999961
 40
0.7499999999999961
 40
1.0
 40
1.0
 40
1.0
 40
1.0
 10
542.3726706687216
 20
-196.7629694096099
 30
0.0
 10
541.8606645170167
 20
-196.5724751201864
 30
0.0
 10
541.3409869707485
 20
-196.450800707124
 30
0.0
 10
540.5411991131858
 20
-196.4501445165927
 30
0.0
 10
540.2748751663379
 20
-196.4799785183871
 30
0.0
 10
539.7517176633365
 20
-196.5889083884947
 30
0.0
 10
539.4932530321882
 20
-196.6676035755576
 30
0.0
 10
539.2369309458662
 20
-196.7629694096103
 30
0.0
  0
SPLINE
  5
3A2
330
1F
100
AcDbEntity
  8
0
  6
Continuous
 62
     7
370
    25
100
AcDbSpline
210
0.0
220
0.0
230
1.0
 70
     8
 71
     3
 72
     9
 73
     5
 74
     0
 42
0.000000001
 43
0.00000001
 40
0.0
 40
0.0
 40
0.0
 40
0.0
 40
0.3722348086954546
 40
1.0
 40
1.0
 40
1.0
 40
1.0
 10
539.2369309458662
 20
-196.7629694096109
 30
0.0
 10
539.2648971795379
 20
-196.7110451008373
 30
0.0
 10
539.3400278041288
 20
-196.5715516747508
 30
0.0
 10
539.4185716622854
 20
-196.5635429486456
 30
0.0
 10
539.467878762427
 20
-196.5585153491702
 30
0.0
  0
LINE
  5
3A3
330
1F
100
AcDbEntity
  8
0
  6
Continuous
 62
     7
370
    25
100
AcDbLine
 10
546.1628208011
 20
-196.2482894242
 30
0.0
 11
539.8628208011
 21
-196.2482894242
 31
0.0
  0
LINE
  5
3A4
330
1F
100
AcDbEntity
  8
0
  6
Continuous
 62
     7
370
    25
100
AcDbLine
 10
539.2369309459
 20
-196.7629694096
 30
0.0
 11
539.2369309459
 21
-198.9336094388
 31
0.0
  0
LINE
  5
3A5
330
1F
100
AcDbEntity
  8
0
  6
Continuous
 62
     7
370
    25
100
AcDbLine
 10
546.7887106563
 20
-196.7629694096
 30
0.0
 11
546.7887106563
 21
-198.9336094388
 31
0.0
  0
SPLINE
  5
3A6
330
1F
100
AcDbEntity
  8
0
  6
Continuous
 62
     7
370
    25
100
AcDbSpline
210
0.0
220
0.0
230
1.0
 70
     8
 71
     3
 72
    12
 73
     8
 74
     0
 42
0.000000001
 43
0.00000001
 40
0.0
 40
0.0
 40
0.0
 40
0.0
 40
0.5
 40
0.5
 40
0.75
 40
0.75
 40
1.0
 40
1.0
 40
1.0
 40
1.0
 10
414.1485605239176
 20
-196.7629694096099
 30
0.0
 10
413.5320301339973
 20
-196.5724751201864
 30
0.0
 10
412.9062622615475
 20
-196.450800707124
 30
0.0
 10
411.9432005521626
 20
-196.4501445165927
 30
0.0
 10
411.6225075170329
 20
-196.4799785183871
 30
0.0
 10
410.992549267037
 20
-196.5889083884947
 30
0.0
 10
410.6813199990061
 20
-196.6676035755576
 30
0.0
 10
410.3726706687215
 20
-196.7629694096103
 30
0.0
  0
LINE
  5
3A7
330
1F
100
AcDbEntity
  8
0
  6
Continuous
 62
     7
370
    25
100
AcDbLine
 10
414.1485605239
 20
-196.7629694096
 30
0.0
 11
414.1485605239
 21
-198.9336094388
 31
0.0
  0
SPLINE
  5
3A8
330
1F
100
AcDbEntity
  8
0
  6
Continuous
 62
     7
370
    25
100
AcDbSpline
210
0.0
220
0.0
230
1.0
 70
     8
 71
     3
 72
    12
 73
     8
 74
     0
 42
0.000000001
 43
0.00000001
 40
0.0
 40
0.0
 40
0.0
 40
0.0
 40
0.5
 40
0.5
 40
0.75
 40
0.75
 40
1.0
 40
1.0
 40
1.0
 40
1.0
 10
410.3726706687214
 20
-198.9336094388398
 30
0.0
 10
410.9892010586417
 20
-199.1241037282633
 30
0.0
 10
411.6149689310914
 20
-199.2457781413257
 30
0.0
 10
412.5780306404763
 20
-199.246434331857
 30
0.0
 10
412.898723675606
 20
-199.2166003300626
 30
0.0
 10
413.528681925602
 20
-199.107670459955
 30
0.0
 10
413.8399111936329
 20
-199.0289752728921
 30
0.0
 10
414.1485605239175
 20
-198.9336094388393
 30
0.0
  0
LINE
  5
3A9
330
1F
100
AcDbEntity
  8
0
  6
Continuous
 62
     7
370
    25
100
AcDbLine
 10
410.3726706687
 20
-196.7629694096
 30
0.0
 11
410.3726706687
 21
-198.9336094388
 31
0.0
  0
SPLINE
  5
3AA
330
1F
100
AcDbEntity
  8
0
  6
Continuous
 62
     7
370
    25
100
AcDbSpline
210
0.0
220
0.0
230
1.0
 70
     8
 71
     3
 72
     9
 73
     5
 74
     0
 42
0.000000001
 43
0.00000001
 40
0.0
 40
0.0
 40
0.0
 40
0.0
 40
0.6277651913045449
 40
0.9999999999999999
 40
0.9999999999999999
 40
0.9999999999999999
 40
0.9999999999999999
 10
407.4678787624269
 20
-199.1380634992795
 30
0.0
 10
407.4185716622854
 20
-199.133035899804
 30
0.0
 10
407.3400278041288
 20
-199.1250271736989
 30
0.0
 10
407.264897179538
 20
-198.9855337476124
 30
0.0
 10
407.2369309458662
 20
-198.9336094388388
 30
0.0
  0
SPLINE
  5
3AB
330
1F
100
AcDbEntity
  8
0
  6
Continuous
 62
     7
370
    25
100
AcDbSpline
210
0.0
220
0.0
230
1.0
 70
     8
 71
     3
 72
    12
 73
     8
 74
     0
 42
0.000000001
 43
0.00000001
 40
0.0
 40
0.0
 40
0.0
 40
0.0
 40
0.4999999999999998
 40
0.4999999999999998
 40
0.7499999999999999
 40
0.7499999999999999
 40
1.0
 40
1.0
 40
1.0
 40
1.0
 10
407.2369309458661
 20
-198.9336094388398
 30
0.0
 10
407.748937097571
 20
-199.1241037282633
 30
0.0
 10
408.2686146438393
 20
-199.2457781413257
 30
0.0
 10
409.0684025014017
 20
-199.246434331857
 30
0.0
 10
409.3347264482498
 20
-199.2166003300626
 30
0.0
 10
409.8578839512512
 20
-199.107670459955
 30
0.0
 10
410.1163485823996
 20
-199.0289752728921
 30
0.0
 10
410.3726706687216
 20
-198.9336094388393
 30
0.0
  0
SPLINE
  5
3AC
330
1F
100
AcDbEntity
  8
0
  6
Continuous
 62
     7
370
    25
100
AcDbSpline
210
0.0
220
0.0
230
1.0
 70
     8
 71
     3
 72
    14
 73
    10
 74
     0
 42
0.000000001
 43
0.00000001
 40
0.0
 40
0.0
 40
0.0
 40
0.0
 40
0.25
 40
0.25
 40
0.5
 40
0.5
 40
0.75
 40
0.75
 40
1.0
 40
1.0
 40
1.0
 40
1.0
 10
414.1485605239175
 20
-198.9336094388389
 30
0.0
 10
414.2006182328082
 20
-199.0284840481495
 30
0.0
 10
414.2539517711364
 20
-199.1080889730252
 30
0.0
 10
414.3608837787644
 20
-199.2169255879195
 30
0.0
 10
414.414637145212
 20
-199.2462491936099
 30
0.0
 10
414.5228161966357
 20
-199.2461844118643
 30
0.0
 10
414.5776448932237
 20
-199.216028218538
 30
0.0
 10
414.6845518758835
 20
-199.1064430171723
 30
0.0
 10
414.7369733908559
 20
-199.0279000433701
 30
0.0
 10
414.788710656258
 20
-198.9336094388388
 30
0.0
  0
LINE
  5
3AD
330
1F
100
AcDbEntity
  8
0
  6
Continuous
 62
     7
370
    25
100
AcDbLine
 10
414.1628208011
 20
-199.4482894242
 30
0.0
 11
407.8628208011
 21
-199.4482894242
 31
0.0
  0
SPLINE
  5
3AE
330
1F
100
AcDbEntity
  8
0
  6
Continuous
 62
     7
370
    25
100
AcDbSpline
210
0.0
220
0.0
230
1.0
 70
     8
 71
     3
 72
    14
 73
    10
 74
     0
 42
0.000000001
 43
0.00000001
 40
0.0
 40
0.0
 40
0.0
 40
0.0
 40
0.25
 40
0.25
 40
0.5
 40
0.5
 40
0.75
 40
0.75
 40
1.0
 40
1.0
 40
1.0
 40
1.0
 10
414.1485605239175
 20
-196.7629694096109
 30
0.0
 10
414.2006182328082
 20
-196.6680948003002
 30
0.0
 10
414.2539517711364
 20
-196.5884898754245
 30
0.0
 10
414.3608837787644
 20
-196.4796532605303
 30
0.0
 10
414.414637145212
 20
-196.4503296548398
 30
0.0
 10
414.5228161966357
 20
-196.4503944365854
 30
0.0
 10
414.5776448932237
 20
-196.4805506299117
 30
0.0
 10
414.6845518758835
 20
-196.5901358312774
 30
0.0
 10
414.7369733908559
 20
-196.6686788050796
 30
0.0
 10
414.788710656258
 20
-196.7629694096109
 30
0.0
  0
SPLINE
  5
3AF
330
1F
100
AcDbEntity
  8
0
  6
Continuous
 62
     7
370
    25
100
AcDbSpline
210
0.0
220
0.0
230
1.0
 70
     8
 71
     3
 72
    12
 73
     8
 74
     0
 42
0.000000001
 43
0.00000001
 40
0.0
 40
0.0
 40
0.0
 40
0.0
 40
0.5000000000000001
 40
0.5000000000000001
 40
0.75
 40
0.75
 40
1.0
 40
1.0
 40
1.0
 40
1.0
 10
410.3726706687216
 20
-196.7629694096099
 30
0.0
 10
409.8606645170167
 20
-196.5724751201863
 30
0.0
 10
409.3409869707484
 20
-196.450800707124
 30
0.0
 10
408.5411991131859
 20
-196.4501445165928
 30
0.0
 10
408.2748751663379
 20
-196.4799785183871
 30
0.0
 10
407.7517176633365
 20
-196.5889083884947
 30
0.0
 10
407.4932530321882
 20
-196.6676035755576
 30
0.0
 10
407.2369309458661
 20
-196.7629694096103
 30
0.0
  0
SPLINE
  5
3B0
330
1F
100
AcDbEntity
  8
0
  6
Continuous
 62
     7
370
    25
100
AcDbSpline
210
0.0
220
0.0
230
1.0
 70
     8
 71
     3
 72
     9
 73
     5
 74
     0
 42
0.000000001
 43
0.00000001
 40
0.0
 40
0.0
 40
0.0
 40
0.0
 40
0.3722348086954556
 40
1.0
 40
1.0
 40
1.0
 40
1.0
 10
407.2369309458662
 20
-196.7629694096109
 30
0.0
 10
407.264897179538
 20
-196.7110451008373
 30
0.0
 10
407.3400278041288
 20
-196.5715516747508
 30
0.0
 10
407.4185716622854
 20
-196.5635429486457
 30
0.0
 10
407.4678787624269
 20
-196.5585153491702
 30
0.0
  0
LINE
  5
3B1
330
1F
100
AcDbEntity
  8
0
  6
Continuous
 62
     7
370
    25
100
AcDbLine
 10
414.1628208011
 20
-196.2482894242
 30
0.0
 11
407.8628208011
 21
-196.2482894242
 31
0.0
  0
LINE
  5
3B2
330
1F
100
AcDbEntity
  8
0
  6
Continuous
 62
     7
370
    25
100
AcDbLine
 10
407.2369309459
 20
-196.7629694096
 30
0.0
 11
407.2369309459
 21
-198.9336094388
 31
0.0
  0
LINE
  5
3B3
330
1F
100
AcDbEntity
  8
0
  6
Continuous
 62
     7
370
    25
100
AcDbLine
 10
414.7887106563
 20
-196.7629694096
 30
0.0
 11
414.7887106563
 21
-198.9336094388
 31
0.0
  0
SPLINE
  5
3B4
330
1F
100
AcDbEntity
  8
0
  6
Continuous
 62
     7
370
    25
100
AcDbSpline
210
0.0
220
0.0
230
1.0
 70
     8
 71
     3
 72
    14
 73
    10
 74
     0
 42
0.000000001
 43
0.00000001
 40
0.0
 40
0.0
 40
0.0
 40
0.0
 40
0.25
 40
0.25
 40
0.5
 40
0.5
 40
0.75
 40
0.75
 40
1.0
 40
1.0
 40
1.0
 40
1.0
 10
283.1485605239175
 20
-196.7629694096109
 30
0.0
 10
283.2006182328083
 20
-196.6680948003003
 30
0.0
 10
283.2539517711363
 20
-196.5884898754245
 30
0.0
 10
283.3608837787645
 20
-196.4796532605303
 30
0.0
 10
283.4146371452121
 20
-196.4503296548398
 30
0.0
 10
283.5228161966358
 20
-196.4503944365854
 30
0.0
 10
283.5776448932237
 20
-196.4805506299118
 30
0.0
 10
283.6845518758835
 20
-196.5901358312775
 30
0.0
 10
283.7369733908559
 20
-196.6686788050796
 30
0.0
 10
283.788710656258
 20
-196.7629694096109
 30
0.0
  0
SPLINE
  5
3B5
330
1F
100
AcDbEntity
  8
0
  6
Continuous
 62
     7
370
    25
100
AcDbSpline
210
0.0
220
0.0
230
1.0
 70
     8
 71
     3
 72
    12
 73
     8
 74
     0
 42
0.000000001
 43
0.00000001
 40
0.0
 40
0.0
 40
0.0
 40
0.0
 40
0.5000000000000094
 40
0.5000000000000094
 40
0.7500000000000047
 40
0.7500000000000047
 40
1.0
 40
1.0
 40
1.0
 40
1.0
 10
283.1485605239176
 20
-196.7629694096099
 30
0.0
 10
282.5320301339973
 20
-196.5724751201864
 30
0.0
 10
281.9062622615475
 20
-196.450800707124
 30
0.0
 10
280.9432005521627
 20
-196.4501445165928
 30
0.0
 10
280.6225075170329
 20
-196.4799785183872
 30
0.0
 10
279.992549267037
 20
-196.5889083884948
 30
0.0
 10
279.6813199990061
 20
-196.6676035755576
 30
0.0
 10
279.3726706687215
 20
-196.7629694096104
 30
0.0
  0
SPLINE
  5
3B6
330
1F
100
AcDbEntity
  8
0
  6
Continuous
 62
     7
370
    25
100
AcDbSpline
210
0.0
220
0.0
230
1.0
 70
     8
 71
     3
 72
    12
 73
     8
 74
     0
 42
0.000000001
 43
0.00000001
 40
0.0
 40
0.0
 40
0.0
 40
0.0
 40
0.4999999999999922
 40
0.4999999999999922
 40
0.7499999999999961
 40
0.7499999999999961
 40
1.0
 40
1.0
 40
1.0
 40
1.0
 10
279.3726706687216
 20
-196.7629694096099
 30
0.0
 10
278.8606645170167
 20
-196.5724751201864
 30
0.0
 10
278.3409869707485
 20
-196.450800707124
 30
0.0
 10
277.541199113186
 20
-196.4501445165928
 30
0.0
 10
277.2748751663379
 20
-196.4799785183872
 30
0.0
 10
276.7517176633365
 20
-196.5889083884948
 30
0.0
 10
276.4932530321883
 20
-196.6676035755576
 30
0.0
 10
276.2369309458662
 20
-196.7629694096104
 30
0.0
  0
SPLINE
  5
3B7
330
1F
100
AcDbEntity
  8
0
  6
Continuous
 62
     7
370
    25
100
AcDbSpline
210
0.0
220
0.0
230
1.0
 70
     8
 71
     3
 72
     9
 73
     5
 74
     0
 42
0.000000001
 43
0.00000001
 40
0.0
 40
0.0
 40
0.0
 40
0.0
 40
0.3722348086954546
 40
1.0
 40
1.0
 40
1.0
 40
1.0
 10
276.2369309458662
 20
-196.7629694096109
 30
0.0
 10
276.264897179538
 20
-196.7110451008373
 30
0.0
 10
276.3400278041288
 20
-196.5715516747508
 30
0.0
 10
276.4185716622854
 20
-196.5635429486457
 30
0.0
 10
276.4678787624269
 20
-196.5585153491702
 30
0.0
  0
LINE
  5
3B8
330
1F
100
AcDbEntity
  8
0
  6
Continuous
 62
     7
370
    25
100
AcDbLine
 10
283.1628208011
 20
-196.2482894242
 30
0.0
 11
276.8628208011
 21
-196.2482894242
 31
0.0
  0
LINE
  5
3B9
330
1F
100
AcDbEntity
  8
0
  6
Continuous
 62
     7
370
    25
100
AcDbLine
 10
283.1485605239
 20
-196.7629694096
 30
0.0
 11
283.1485605239
 21
-198.9336094388
 31
0.0
  0
SPLINE
  5
3BA
330
1F
100
AcDbEntity
  8
0
  6
Continuous
 62
     7
370
    25
100
AcDbSpline
210
0.0
220
0.0
230
1.0
 70
     8
 71
     3
 72
    12
 73
     8
 74
     0
 42
0.000000001
 43
0.00000001
 40
0.0
 40
0.0
 40
0.0
 40
0.0
 40
0.4999999999999906
 40
0.4999999999999906
 40
0.7499999999999952
 40
0.7499999999999952
 40
1.0
 40
1.0
 40
1.0
 40
1.0
 10
279.3726706687214
 20
-198.9336094388399
 30
0.0
 10
279.9892010586416
 20
-199.1241037282634
 30
0.0
 10
280.6149689310915
 20
-199.2457781413258
 30
0.0
 10
281.5780306404764
 20
-199.246434331857
 30
0.0
 10
281.8987236756061
 20
-199.2166003300626
 30
0.0
 10
282.528681925602
 20
-199.107670459955
 30
0.0
 10
282.8399111936328
 20
-199.0289752728921
 30
0.0
 10
283.1485605239176
 20
-198.9336094388394
 30
0.0
  0
LINE
  5
3BB
330
1F
100
AcDbEntity
  8
0
  6
Continuous
 62
     7
370
    25
100
AcDbLine
 10
279.3726706687
 20
-196.7629694096
 30
0.0
 11
279.3726706687
 21
-198.9336094388
 31
0.0
  0
SPLINE
  5
3BC
330
1F
100
AcDbEntity
  8
0
  6
Continuous
 62
     7
370
    25
100
AcDbSpline
210
0.0
220
0.0
230
1.0
 70
     8
 71
     3
 72
     9
 73
     5
 74
     0
 42
0.000000001
 43
0.00000001
 40
0.0
 40
0.0
 40
0.0
 40
0.0
 40
0.6277651913045457
 40
1.0
 40
1.0
 40
1.0
 40
1.0
 10
276.4678787624269
 20
-199.1380634992796
 30
0.0
 10
276.4185716622854
 20
-199.1330358998041
 30
0.0
 10
276.3400278041288
 20
-199.125027173699
 30
0.0
 10
276.264897179538
 20
-198.9855337476125
 30
0.0
 10
276.2369309458662
 20
-198.9336094388389
 30
0.0
  0
SPLINE
  5
3BD
330
1F
100
AcDbEntity
  8
0
  6
Continuous
 62
     7
370
    25
100
AcDbSpline
210
0.0
220
0.0
230
1.0
 70
     8
 71
     3
 72
    12
 73
     8
 74
     0
 42
0.000000001
 43
0.00000001
 40
0.0
 40
0.0
 40
0.0
 40
0.0
 40
0.4999999999999922
 40
0.4999999999999922
 40
0.7499999999999961
 40
0.7499999999999961
 40
1.0
 40
1.0
 40
1.0
 40
1.0
 10
276.2369309458661
 20
-198.9336094388399
 30
0.0
 10
276.748937097571
 20
-199.1241037282634
 30
0.0
 10
277.2686146438392
 20
-199.2457781413258
 30
0.0
 10
278.0684025014019
 20
-199.246434331857
 30
0.0
 10
278.3347264482499
 20
-199.2166003300626
 30
0.0
 10
278.8578839512512
 20
-199.107670459955
 30
0.0
 10
279.1163485823996
 20
-199.0289752728922
 30
0.0
 10
279.3726706687216
 20
-198.9336094388394
 30
0.0
  0
SPLINE
  5
3BE
330
1F
100
AcDbEntity
  8
0
  6
Continuous
 62
     7
370
    25
100
AcDbSpline
210
0.0
220
0.0
230
1.0
 70
     8
 71
     3
 72
    14
 73
    10
 74
     0
 42
0.000000001
 43
0.00000001
 40
0.0
 40
0.0
 40
0.0
 40
0.0
 40
0.25
 40
0.25
 40
0.5
 40
0.5
 40
0.75
 40
0.75
 40
1.0
 40
1.0
 40
1.0
 40
1.0
 10
283.1485605239175
 20
-198.9336094388389
 30
0.0
 10
283.2006182328083
 20
-199.0284840481495
 30
0.0
 10
283.2539517711363
 20
-199.1080889730252
 30
0.0
 10
283.3608837787645
 20
-199.2169255879195
 30
0.0
 10
283.4146371452121
 20
-199.24624919361
 30
0.0
 10
283.5228161966358
 20
-199.2461844118644
 30
0.0
 10
283.5776448932237
 20
-199.216028218538
 30
0.0
 10
283.6845518758835
 20
-199.1064430171723
 30
0.0
 10
283.7369733908559
 20
-199.0279000433702
 30
0.0
 10
283.788710656258
 20
-198.9336094388389
 30
0.0
  0
LINE
  5
3BF
330
1F
100
AcDbEntity
  8
0
  6
Continuous
 62
     7
370
    25
100
AcDbLine
 10
283.1628208011
 20
-199.4482894242
 30
0.0
 11
276.8628208011
 21
-199.4482894242
 31
0.0
  0
LINE
  5
3C0
330
1F
100
AcDbEntity
  8
0
  6
Continuous
 62
     7
370
    25
100
AcDbLine
 10
276.2369309459
 20
-196.7629694096
 30
0.0
 11
276.2369309459
 21
-198.9336094388
 31
0.0
  0
LINE
  5
3C1
330
1F
100
AcDbEntity
  8
0
  6
Continuous
 62
     7
370
    25
100
AcDbLine
 10
283.7887106563
 20
-196.7629694096
 30
0.0
 11
283.7887106563
 21
-198.9336094388
 31
0.0
  0
LINE
  5
3C2
330
1F
100
AcDbEntity
  8
0
  6
Continuous
 62
     7
370
    25
100
AcDbLine
 10
563.0128208011
 20
-202.1482894242
 30
0.0
 11
563.9337510336
 21
-212.0482894242
 31
0.0
  0
LINE
  5
3C3
330
1F
100
AcDbEntity
  8
0
  6
Continuous
 62
     7
370
    25
100
AcDbLine
 10
259.0918905685
 20
-212.0482894242
 30
0.0
 11
260.0128208011
 21
-202.1482894242
 31
0.0
  0
LINE
  5
3C4
330
1F
100
AcDbEntity
  8
0
  6
Continuous
 62
     7
370
    25
100
AcDbLine
 10
259.0128208011
 20
-212.8982894242
 30
0.0
 11
259.0918905685
 21
-212.0482894242
 31
0.0
  0
LINE
  5
3C5
330
1F
100
AcDbEntity
  8
0
  6
Continuous
 62
     7
370
    25
100
AcDbLine
 10
563.9337510336
 20
-212.0482894242
 30
0.0
 11
564.0128208011
 21
-212.8982894242
 31
0.0
  0
LINE
  5
3C6
330
1F
100
AcDbEntity
  8
0
  6
Continuous
 62
     7
370
    25
100
AcDbLine
 10
260.0128208011
 20
-200.3482894242
 30
0.0
 11
563.0128208011
 21
-200.3482894242
 31
0.0
  0
LINE
  5
3C7
330
1F
100
AcDbEntity
  8
0
  6
Continuous
 62
     7
370
    25
100
AcDbLine
 10
260.0128208011
 20
-202.1482894242
 30
0.0
 11
260.0128208011
 21
-200.3482894242
 31
0.0
  0
LINE
  5
3C8
330
1F
100
AcDbEntity
  8
0
  6
Continuous
 62
     7
370
    25
100
AcDbLine
 10
563.0128208011
 20
-200.3482894242
 30
0.0
 11
563.0128208011
 21
-202.1482894242
 31
0.0
  0
LINE
  5
3C9
330
1F
100
AcDbEntity
  8
0
  6
Continuous
 62
     7
370
    25
100
AcDbLine
 10
542.6960286429
 20
-191.1482894242
 30
0.0
 11
545.0128208011
 21
-191.1482894242
 31
0.0
  0
LINE
  5
3CA
330
1F
100
AcDbEntity
  8
0
  6
Continuous
 62
     7
370
    25
100
AcDbLine
 10
541.0128208011
 20
-191.1482894242
 30
0.0
 11
542.6960286429
 21
-191.1482894242
 31
0.0
  0
LINE
  5
3CB
330
1F
100
AcDbEntity
  8
0
  6
Continuous
 62
     7
370
    25
100
AcDbLine
 10
410.6960286429
 20
-191.1482894242
 30
0.0
 11
413.0128208011
 21
-191.1482894242
 31
0.0
  0
LINE
  5
3CC
330
1F
100
AcDbEntity
  8
0
  6
Continuous
 62
     7
370
    25
100
AcDbLine
 10
409.0128208011
 20
-191.1482894242
 30
0.0
 11
410.6960286429
 21
-191.1482894242
 31
0.0
  0
LINE
  5
3CD
330
1F
100
AcDbEntity
  8
0
  6
Continuous
 62
     7
370
    25
100
AcDbLine
 10
279.6960286429
 20
-191.1482894242
 30
0.0
 11
282.0128208011
 21
-191.1482894242
 31
0.0
  0
LINE
  5
3CE
330
1F
100
AcDbEntity
  8
0
  6
Continuous
 62
     7
370
    25
100
AcDbLine
 10
278.0128208011
 20
-191.1482894242
 30
0.0
 11
279.6960286429
 21
-191.1482894242
 31
0.0
  0
LINE
  5
3CF
330
1F
100
AcDbEntity
  8
0
  6
Continuous
 62
     7
370
    25
100
AcDbLine
 10
564.5128208011
 20
-179.9482894242
 30
0.0
 11
565.5128208011
 21
-179.9482894242
 31
0.0
  0
LINE
  5
3D0
330
1F
100
AcDbEntity
  8
0
  6
Continuous
 62
     7
370
    25
100
AcDbLine
 10
565.5128208011
 20
-179.9482894242
 30
0.0
 11
565.5128208011
 21
-181.9482894242
 31
0.0
  0
LINE
  5
3D1
330
1F
100
AcDbEntity
  8
0
  6
Continuous
 62
     7
370
    25
100
AcDbLine
 10
565.5128208011
 20
-181.9482894242
 30
0.0
 11
565.5128208011
 21
-184.8482894242
 31
0.0
  0
LINE
  5
3D2
330
1F
100
AcDbEntity
  8
0
  6
Continuous
 62
     7
370
    25
100
AcDbLine
 10
565.5128208011
 20
-190.8482894242
 30
0.0
 11
565.5128208011
 21
-210.9482894242
 31
0.0
  0
LINE
  5
3D3
330
1F
100
AcDbEntity
  8
0
  6
Continuous
 62
     7
370
    25
100
AcDbLine
 10
563.5128208011
 20
-198.3482894242
 30
0.0
 11
563.5128208011
 21
-207.5232894242
 31
0.0
  0
LINE
  5
3D4
330
1F
100
AcDbEntity
  8
0
  6
Continuous
 62
     7
370
    25
100
AcDbLine
 10
565.5111536712
 20
-211.0482894242
 30
0.0
 11
565.5128208011
 21
-210.9482894242
 31
0.0
  0
LINE
  5
3D5
330
1F
100
AcDbEntity
  8
0
  6
Continuous
 62
     7
370
    25
100
AcDbLine
 10
565.5731281803
 20
-179.9482894242
 30
0.0
 11
565.5128208011
 21
-179.9482894242
 31
0.0
  0
LINE
  5
3D6
330
1F
100
AcDbEntity
  8
0
  6
Continuous
 62
     7
370
    25
100
AcDbLine
 10
565.5128208011
 20
-195.9482894242
 30
0.0
 11
565.5731281803
 21
-195.9482894242
 31
0.0
  0
LWPOLYLINE
  5
3D7
330
1F
100
AcDbEntity
  8
0
  6
Continuous
 62
     7
370
    25
100
AcDbPolyline
 90
        9
 70
   128
 43
0.0
 10
568.1283671892
 20
-181.9482894242
 10
568.1152235469
 20
-181.5581087802
 10
568.0762977228
 20
-181.1829225595
 10
568.0130856145
 20
-180.8371489582
 10
567.9280164279
 20
-180.5340758619
 10
567.824359324
 20
-180.2853501996
 10
567.7060977874
 20
-180.1005303592
 10
567.5777765424
 20
-179.9867188634
 10
567.4443269026
 20
-179.9482894242
  0
LINE
  5
3D8
330
1F
100
AcDbEntity
  8
0
  6
Continuous
 62
     7
370
    25
100
AcDbLine
 10
568.1283671892
 20
-181.9482894242
 30
0.0
 11
568.1283671892
 21
-184.8482894242
 31
0.0
  0
LINE
  5
3D9
330
1F
100
AcDbEntity
  8
0
  6
Continuous
 62
     7
370
    25
100
AcDbLine
 10
568.1283671892
 20
-190.8482894242
 30
0.0
 11
568.1283671892
 21
-193.9482894242
 31
0.0
  0
LWPOLYLINE
  5
3DA
330
1F
100
AcDbEntity
  8
0
  6
Continuous
 62
     7
370
    25
100
AcDbPolyline
 90
        9
 70
   128
 43
0.0
 10
567.4443269026
 20
-195.9482894242
 10
567.5777765424
 20
-195.909859985
 10
567.7060977874
 20
-195.7960484892
 10
567.824359324
 20
-195.6112286488
 10
567.9280164279
 20
-195.3625029866
 10
568.0130856145
 20
-195.0594298903
 10
568.0762977228
 20
-194.713656289
 10
568.1152235469
 20
-194.3384700683
 10
568.1283671892
 20
-193.9482894242
  0
LINE
  5
3DB
330
1F
100
AcDbEntity
  8
0
  6
Continuous
 62
     7
370
    25
100
AcDbLine
 10
567.4443269026
 20
-195.9482894242
 30
0.0
 11
565.5731281803
 21
-195.9482894242
 31
0.0
  0
LINE
  5
3DC
330
1F
100
AcDbEntity
  8
0
  6
Continuous
 62
     7
370
    25
100
AcDbLine
 10
565.5731281803
 20
-179.9482894242
 30
0.0
 11
567.4443269026
 21
-179.9482894242
 31
0.0
  0
LINE
  5
3DD
330
1F
100
AcDbEntity
  8
0
  6
Continuous
 62
     7
370
    25
100
AcDbLine
 10
257.5128208011
 20
-179.9482894242
 30
0.0
 11
258.5128208011
 21
-179.9482894242
 31
0.0
  0
LINE
  5
3DE
330
1F
100
AcDbEntity
  8
0
  6
Continuous
 62
     7
370
    25
100
AcDbLine
 10
257.5128208011
 20
-181.9482894242
 30
0.0
 11
257.5128208011
 21
-179.9482894242
 31
0.0
  0
LINE
  5
3DF
330
1F
100
AcDbEntity
  8
0
  6
Continuous
 62
     7
370
    25
100
AcDbLine
 10
257.5128208011
 20
-210.9482894242
 30
0.0
 11
257.5128208011
 21
-190.8482894242
 31
0.0
  0
LINE
  5
3E0
330
1F
100
AcDbEntity
  8
0
  6
Continuous
 62
     7
370
    25
100
AcDbLine
 10
257.5128208011
 20
-184.8482894242
 30
0.0
 11
257.5128208011
 21
-181.9482894242
 31
0.0
  0
LINE
  5
3E1
330
1F
100
AcDbEntity
  8
0
  6
Continuous
 62
     7
370
    25
100
AcDbLine
 10
259.5128208011
 20
-207.5232894242
 30
0.0
 11
259.5128208011
 21
-198.3482894242
 31
0.0
  0
LINE
  5
3E2
330
1F
100
AcDbEntity
  8
0
  6
Continuous
 62
     7
370
    25
100
AcDbLine
 10
257.5128208011
 20
-210.9482894242
 30
0.0
 11
257.5144879309
 21
-211.0482894242
 31
0.0
  0
LINE
  5
3E3
330
1F
100
AcDbEntity
  8
0
  6
Continuous
 62
     7
370
    25
100
AcDbLine
 10
257.4525134218
 20
-195.9482894242
 30
0.0
 11
257.5128208011
 21
-195.9482894242
 31
0.0
  0
LINE
  5
3E4
330
1F
100
AcDbEntity
  8
0
  6
Continuous
 62
     7
370
    25
100
AcDbLine
 10
257.5128208011
 20
-179.9482894242
 30
0.0
 11
257.4525134218
 21
-179.9482894242
 31
0.0
  0
LWPOLYLINE
  5
3E5
330
1F
100
AcDbEntity
  8
0
  6
Continuous
 62
     7
370
    25
100
AcDbPolyline
 90
        9
 70
   128
 43
0.0
 10
255.5813146995
 20
-179.9482894242
 10
255.4478650597
 20
-179.9867188634
 10
255.3195438148
 20
-180.1005303592
 10
255.2012822781
 20
-180.2853501996
 10
255.0976251742
 20
-180.5340758619
 10
255.0125559876
 20
-180.8371489582
 10
254.9493438793
 20
-181.1829225595
 10
254.9104180552
 20
-181.5581087802
 10
254.8972744129
 20
-181.9482894242
  0
LINE
  5
3E6
330
1F
100
AcDbEntity
  8
0
  6
Continuous
 62
     7
370
    25
100
AcDbLine
 10
257.4525134218
 20
-195.9482894242
 30
0.0
 11
255.5813146995
 21
-195.9482894242
 31
0.0
  0
LWPOLYLINE
  5
3E7
330
1F
100
AcDbEntity
  8
0
  6
Continuous
 62
     7
370
    25
100
AcDbPolyline
 90
        9
 70
   128
 43
0.0
 10
254.8972744129
 20
-193.9482894242
 10
254.9104180552
 20
-194.3384700683
 10
254.9493438793
 20
-194.713656289
 10
255.0125559876
 20
-195.0594298903
 10
255.0976251742
 20
-195.3625029866
 10
255.2012822781
 20
-195.6112286488
 10
255.3195438148
 20
-195.7960484892
 10
255.4478650597
 20
-195.909859985
 10
255.5813146995
 20
-195.9482894242
  0
LINE
  5
3E8
330
1F
100
AcDbEntity
  8
0
  6
Continuous
 62
     7
370
    25
100
AcDbLine
 10
254.8972744129
 20
-193.9482894242
 30
0.0
 11
254.8972744129
 21
-190.8482894242
 31
0.0
  0
LINE
  5
3E9
330
1F
100
AcDbEntity
  8
0
  6
Continuous
 62
     7
370
    25
100
AcDbLine
 10
254.8972744129
 20
-184.8482894242
 30
0.0
 11
254.8972744129
 21
-181.9482894242
 31
0.0
  0
LINE
  5
3EA
330
1F
100
AcDbEntity
  8
0
  6
Continuous
 62
     7
370
    25
100
AcDbLine
 10
255.5813146995
 20
-179.9482894242
 30
0.0
 11
257.4525134218
 21
-179.9482894242
 31
0.0
  0
SPLINE
  5
3EB
330
1F
100
AcDbEntity
  8
0
  6
Continuous
 62
     7
370
    25
100
AcDbSpline
210
0.0
220
0.0
230
1.0
 70
    24
 71
     3
 72
     9
 73
     5
 74
     0
 42
0.000000001
 43
0.00000001
 40
0.0
 40
0.0
 40
0.0
 40
0.0
 40
0.7059102712379675
 40
1.0
 40
1.0
 40
1.0
 40
1.0
 10
259.3128208010621
 20
-182.0750406148343
 30
0.0
 10
259.3128208010621
 20
-182.0647878455378
 30
0.0
 10
259.3128208010622
 20
-182.0502636634792
 30
0.0
 10
259.3128208010621
 20
-182.1453156200879
 30
0.0
 10
259.3128208010621
 20
-182.1732694242252
 30
0.0
  0
SPLINE
  5
3EC
330
1F
100
AcDbEntity
  8
0
  6
Continuous
 62
     7
370
    25
100
AcDbSpline
210
0.0
220
0.0
230
1.0
 70
    24
 71
     3
 72
    12
 73
     8
 74
     0
 42
0.000000001
 43
0.00000001
 40
0.0
 40
0.0
 40
0.0
 40
0.0
 40
0.3344405486782612
 40
0.5144757571369837
 40
0.6983315710265356
 40
0.8821873849160827
 40
1.0
 40
1.0
 40
1.0
 40
1.0
 10
260.3128208010622
 20
-185.3419821191678
 30
0.0
 10
260.3128208010622
 20
-184.717836583666
 30
0.0
 10
260.3128208010621
 20
-183.7577025681884
 30
0.0
 10
260.3128208010622
 20
-182.8497916618931
 30
0.0
 10
260.3128208010621
 20
-182.344074323977
 30
0.0
 10
260.3128208010622
 20
-182.0724545898388
 30
0.0
 10
260.3128208010621
 20
-182.0743143212985
 30
0.0
 10
260.3128208010621
 20
-182.0750406148234
 30
0.0
  0
SPLINE
  5
3ED
330
1F
100
AcDbEntity
  8
0
  6
Continuous
 62
     7
370
    25
100
AcDbSpline
210
0.0
220
0.0
230
1.0
 70
    24
 71
     3
 72
    15
 73
    11
 74
     0
 42
0.000000001
 43
0.00000001
 40
0.0
 40
0.0
 40
0.0
 40
0.0
 40
0.0346967497918696
 40
0.2211884951269653
 40
0.4076802404620657
 40
0.5080720152630803
 40
0.6105942475634841
 40
0.7131164798638875
 40
0.8135082546649014
 40
1.0
 40
1.0
 40
1.0
 40
1.0
 10
260.3128208010622
 20
-193.6215382336291
 30
0.0
 10
260.3128208010622
 20
-193.6282593372605
 30
0.0
 10
260.3128208010623
 20
-193.6711057366134
 30
0.0
 10
260.3128208010622
 20
-193.1830647738548
 30
0.0
 10
260.3128208010621
 20
-192.0871537163863
 30
0.0
 10
260.3128208010622
 20
-190.8682565839388
 30
0.0
 10
260.3128208010622
 20
-189.7880813560818
 30
0.0
 10
260.3128208010622
 20
-188.6276044536162
 30
0.0
 10
260.3128208010622
 20
-187.097029558501
 30
0.0
 10
260.3128208010622
 20
-186.033403669851
 30
0.0
 10
260.3128208010622
 20
-185.3419821191678
 30
0.0
  0
SPLINE
  5
3EE
330
1F
100
AcDbEntity
  8
0
  6
Continuous
 62
     7
370
    25
100
AcDbSpline
210
0.0
220
0.0
230
1.0
 70
     8
 71
     3
 72
     8
 73
     4
 74
     0
 42
0.000000001
 43
0.00000001
 40
0.0
 40
0.0
 40
0.0
 40
0.0
 40
1.0
 40
1.0
 40
1.0
 40
1.0
 10
264.3128208010551
 20
-188.2316844519127
 30
0.0
 10
264.3128208010551
 20
-187.24930600734
 30
0.0
 10
264.1385055006758
 20
-186.2938148391502
 30
0.0
 10
263.8662388136638
 20
-185.3534321898227
 30
0.0
  0
SPLINE
  5
3EF
330
1F
100
AcDbEntity
  8
0
  6
Continuous
 62
     7
370
    25
100
AcDbSpline
210
0.0
220
0.0
230
1.0
 70
     8
 71
     3
 72
     8
 73
     4
 74
     0
 42
0.000000001
 43
0.00000001
 40
0.0
 40
0.0
 40
0.0
 40
0.0
 40
1.0
 40
1.0
 40
1.0
 40
1.0
 10
263.8662388136638
 20
-191.1099367140027
 30
0.0
 10
264.1385055006753
 20
-190.1695540646769
 30
0.0
 10
264.3128208010551
 20
-189.2140628964837
 30
0.0
 10
264.3128208010551
 20
-188.2316844519127
 30
0.0
  0
LINE
  5
3F0
330
1F
100
AcDbEntity
  8
0
  6
Continuous
 62
     7
370
    25
100
AcDbLine
 10
260.3128208011
 20
-191.109936714
 30
0.0
 11
263.8662388137
 21
-191.109936714
 31
0.0
  0
LINE
  5
3F1
330
1F
100
AcDbEntity
  8
0
  6
Continuous
 62
     7
370
    25
100
AcDbLine
 10
260.3128208011
 20
-185.3534321898
 30
0.0
 11
263.8662388137
 21
-185.3534321898
 31
0.0
  0
LINE
  5
3F2
330
1F
100
AcDbEntity
  8
0
  6
Continuous
 62
     7
370
    25
100
AcDbLine
 10
264.3128208011
 20
-188.2316844519
 30
0.0
 11
264.3128208011
 21
-183.7226085449
 31
0.0
  0
SPLINE
  5
3F3
330
1F
100
AcDbEntity
  8
0
  6
Continuous
 62
     7
370
    25
100
AcDbSpline
210
0.0
220
0.0
230
1.0
 70
     8
 71
     3
 72
     8
 73
     4
 74
     0
 42
0.000000001
 43
0.00000001
 40
0.0
 40
0.0
 40
0.0
 40
0.0
 40
1.0
 40
1.0
 40
1.0
 40
1.0
 10
263.8662388136636
 20
-185.3534321898165
 30
0.0
 10
264.1385055006751
 20
-184.8206094487517
 30
0.0
 10
264.312820801055
 20
-184.2792261898571
 30
0.0
 10
264.312820801055
 20
-183.7226085449287
 30
0.0
  0
LINE
  5
3F4
330
1F
100
AcDbEntity
  8
0
  6
Continuous
 62
     7
370
    25
100
AcDbLine
 10
264.3128208011
 20
-192.3573653312
 30
0.0
 11
264.3128208011
 21
-188.2316844519
 31
0.0
  0
SPLINE
  5
3F5
330
1F
100
AcDbEntity
  8
0
  6
Continuous
 62
     7
370
    25
100
AcDbSpline
210
0.0
220
0.0
230
1.0
 70
     8
 71
     3
 72
     8
 73
     4
 74
     0
 42
0.000000001
 43
0.00000001
 40
0.0
 40
0.0
 40
0.0
 40
0.0
 40
1.0
 40
1.0
 40
1.0
 40
1.0
 10
264.312820801055
 20
-192.3573653312102
 30
0.0
 10
264.312820801055
 20
-191.931604531567
 30
0.0
 10
264.1385055006756
 20
-191.51749662227
 30
0.0
 10
263.8662388136638
 20
-191.1099367140083
 30
0.0
  0
SPLINE
  5
3F6
330
1F
100
AcDbEntity
  8
0
  6
Continuous
 62
     7
370
    25
100
AcDbSpline
210
0.0
220
0.0
230
1.0
 70
     8
 71
     3
 72
     8
 73
     4
 74
     0
 42
0.000000001
 43
0.00000001
 40
0.0
 40
0.0
 40
0.0
 40
0.0
 40
1.0
 40
1.0
 40
1.0
 40
1.0
 10
264.312820801055
 20
-183.7226085449287
 30
0.0
 10
264.312820801055
 20
-183.1659908999992
 30
0.0
 10
264.1385055006756
 20
-182.6246076411066
 30
0.0
 10
263.8662388136636
 20
-182.0917849000408
 30
0.0
  0
LINE
  5
3F7
330
1F
100
AcDbEntity
  8
0
  6
Continuous
 62
     7
370
    25
100
AcDbLine
 10
260.3128208011
 20
-182.0917849
 30
0.0
 11
263.8662388137
 21
-182.0917849
 31
0.0
  0
SPLINE
  5
3F8
330
1F
100
AcDbEntity
  8
0
  6
Continuous
 62
     7
370
    25
100
AcDbSpline
210
0.0
220
0.0
230
1.0
 70
     8
 71
     3
 72
     8
 73
     4
 74
     0
 42
0.000000001
 43
0.00000001
 40
0.0
 40
0.0
 40
0.0
 40
0.0
 40
1.0
 40
1.0
 40
1.0
 40
1.0
 10
263.8662388136637
 20
-193.6047939484122
 30
0.0
 10
264.1385055006752
 20
-193.1972340401512
 30
0.0
 10
264.312820801055
 20
-192.7831261308528
 30
0.0
 10
264.312820801055
 20
-192.3573653312102
 30
0.0
  0
LINE
  5
3F9
330
1F
100
AcDbEntity
  8
0
  6
Continuous
 62
     7
370
    25
100
AcDbLine
 10
263.8662388137
 20
-193.6047939484
 30
0.0
 11
260.3128208011
 21
-193.6047939484
 31
0.0
  0
LINE
  5
3FA
330
1F
100
AcDbEntity
  8
0
  6
Continuous
 62
     7
370
    25
100
AcDbLine
 10
249.8540708011
 20
-190.5537349684
 30
0.0
 11
249.8540708011
 21
-190.8482894242
 31
0.0
  0
LINE
  5
3FB
330
1F
100
AcDbEntity
  8
0
  6
Continuous
 62
     7
370
    25
100
AcDbLine
 10
249.8540708011
 20
-184.8482894242
 30
0.0
 11
249.8540708011
 21
-190.5537349684
 31
0.0
  0
LINE
  5
3FC
330
1F
100
AcDbEntity
  8
0
  6
Continuous
 62
     7
370
    25
100
AcDbLine
 10
249.3128208011
 20
-185.3895394242
 30
0.0
 11
249.3128208011
 21
-190.3070394242
 31
0.0
  0
LINE
  5
3FD
330
1F
100
AcDbEntity
  8
0
  6
Continuous
 62
     7
370
    25
100
AcDbLine
 10
263.8662388137
 20
-182.0917849
 30
0.0
 11
263.9414265692
 21
-182.3018053679
 31
0.0
  0
LINE
  5
3FE
330
1F
100
AcDbEntity
  8
0
  6
Continuous
 62
     7
370
    25
100
AcDbLine
 10
264.3128208011
 20
-183.7226085449
 30
0.0
 11
264.3128208011
 21
-182.8482894242
 31
0.0
  0
LINE
  5
3FF
330
1F
100
AcDbEntity
  8
0
  6
Continuous
 62
     7
370
    25
100
AcDbLine
 10
264.3128208011
 20
-192.8482894242
 30
0.0
 11
264.3128208011
 21
-192.3573653312
 31
0.0
  0
ARC
  5
400
330
1F
100
AcDbEntity
  8
0
  6
Continuous
 62
     7
370
    25
100
AcDbCircle
 10
251.0128208011
 20
-217.0482894242
 30
0.0
 40
6.000000000000085
100
AcDbArc
 50
90.0
 51
143.1301023541
  0
ARC
  5
401
330
1F
100
AcDbEntity
  8
0
  6
Continuous
 62
     7
370
    25
100
AcDbCircle
 10
572.0128208011
 20
-217.0482894242
 30
0.0
 40
6.000000000000085
100
AcDbArc
 50
36.8698976459
 51
90.0
  0
LINE
  5
402
330
1F
100
AcDbEntity
  8
0
  6
Continuous
 62
     7
370
    25
100
AcDbLine
 10
115.8903145673
 20
696.5364911679
 30
0.0
 11
115.527376789
 21
695.9078644958
 31
0.0
  0
LINE
  5
403
330
1F
100
AcDbEntity
  8
0
  6
Continuous
 62
     7
370
    25
100
AcDbLine
 10
115.527376789
 20
689.6078644958
 30
0.0
 11
115.8903145673
 21
688.9792378237
 31
0.0
  0
LINE
  5
404
330
1F
100
AcDbEntity
  8
0
  6
Continuous
 62
     7
370
    25
100
AcDbLine
 10
113.827376789
 20
696.7578644958
 30
0.0
 11
111.827376789
 21
696.7578644958
 31
0.0
  0
LINE
  5
405
330
1F
100
AcDbEntity
  8
0
  6
Continuous
 62
     7
370
    25
100
AcDbLine
 10
111.827376789
 20
688.7578644958
 30
0.0
 11
113.827376789
 21
688.7578644958
 31
0.0
  0
ARC
  5
406
330
1F
100
AcDbEntity
  8
0
  6
Continuous
 62
     7
370
    25
100
AcDbCircle
 10
118.7555800192
 20
692.7578644958
 30
0.0
 40
8.00000000000006
100
AcDbArc
 50
195.2747479997
 51
210.0
  0
ARC
  5
407
330
1F
100
AcDbEntity
  8
0
  6
Continuous
 62
     7
370
    25
100
AcDbCircle
 10
118.7555800192
 20
692.7578644958
 30
0.0
 40
8.000000000000004
100
AcDbArc
 50
150.0
 51
164.7252520003
  0
LINE
  5
408
330
1F
100
AcDbEntity
  8
0
  6
Continuous
 62
     7
370
    25
100
AcDbLine
 10
115.527376789
 20
694.7578644958
 30
0.0
 11
115.427376789
 21
694.7578644958
 31
0.0
  0
LINE
  5
409
330
1F
100
AcDbEntity
  8
0
  6
Continuous
 62
     7
370
    25
100
AcDbLine
 10
115.427376789
 20
690.7578644958
 30
0.0
 11
115.527376789
 21
690.7578644958
 31
0.0
  0
CIRCLE
  5
40A
330
1F
100
AcDbEntity
  8
0
  6
Continuous
 62
     7
370
    25
100
AcDbCircle
 10
127.127376789
 20
291.7578644958
 30
0.0
 40
2.458750000016537
  0
CIRCLE
  5
40B
330
1F
100
AcDbEntity
  8
0
  6
Continuous
 62
     7
370
    25
100
AcDbCircle
 10
127.127376789
 20
291.7578644958
 30
0.0
 40
2.999999999999997
  0
CIRCLE
  5
40C
330
1F
100
AcDbEntity
  8
0
  6
Continuous
 62
     7
370
    25
100
AcDbCircle
 10
127.127376789
 20
717.7578644958
 30
0.0
 40
2.458750000016629
  0
CIRCLE
  5
40D
330
1F
100
AcDbEntity
  8
0
  6
Continuous
 62
     7
370
    25
100
AcDbCircle
 10
127.127376789
 20
717.7578644958
 30
0.0
 40
3.000000000000003
  0
LINE
  5
40E
330
1F
100
AcDbEntity
  8
0
  6
Continuous
 62
     7
370
    25
100
AcDbLine
 10
108.527376789
 20
-104.7714248261
 30
0.0
 11
108.527376789
 21
688.2871538176
 31
0.0
  0
LINE
  5
40F
330
1F
100
AcDbEntity
  8
0
  6
Continuous
 62
     7
370
    25
100
AcDbLine
 10
98.927376789
 20
-104.7714248261
 30
0.0
 11
108.527376789
 21
-104.7714248261
 31
0.0
  0
LINE
  5
410
330
1F
100
AcDbEntity
  8
0
  6
Continuous
 62
     7
370
    25
100
AcDbLine
 10
98.927376789
 20
688.2871538176
 30
0.0
 11
108.527376789
 21
688.2871538176
 31
0.0
  0
SPLINE
  5
411
330
1F
100
AcDbEntity
  8
0
  6
Continuous
 62
     7
370
    25
100
AcDbSpline
210
0.0
220
0.0
230
1.0
 70
     8
 71
     3
 72
    20
 73
    16
 74
     0
 42
0.000000001
 43
0.00000001
 40
0.0
 40
0.0
 40
0.0
 40
0.0
 40
0.1250000000000037
 40
0.1250000000000037
 40
0.2500000000000074
 40
0.2500000000000074
 40
0.3750000000000111
 40
0.3750000000000111
 40
0.5000000000000148
 40
0.5000000000000148
 40
0.7500000000000072
 40
0.7500000000000072
 40
0.8750000000000036
 40
0.8750000000000036
 40
1.0
 40
1.0
 40
1.0
 40
1.0
 10
96.52737678897145
 20
687.357864495759
 30
0.0
 10
96.52737678897145
 20
687.3969052266134
 30
0.0
 10
96.54291334944631
 20
687.4354239308134
 30
0.0
 10
96.60423170140692
 20
687.5128306821214
 30
0.0
 10
96.65065544699372
 20
687.5519751001079
 30
0.0
 10
96.77060631714784
 20
687.6291258540231
 30
0.0
 10
96.84421096143127
 20
687.6674534357643
 30
0.0
 10
97.01894132752692
 20
687.7449997562405
 30
0.0
 10
97.11979195642844
 20
687.7839759639093
 30
0.0
 10
97.45107723641244
 20
687.899470820354
 30
0.0
 10
97.71875739779628
 20
687.9773832640244
 30
0.0
 10
98.15143142385172
 20
688.0928631894252
 30
0.0
 10
98.30294951070282
 20
688.1317289852904
 30
0.0
 10
98.61237526808894
 20
688.2095033189588
 30
0.0
 10
98.76899759778271
 20
688.2481130859136
 30
0.0
 10
98.92737678897146
 20
688.2871538176403
 30
0.0
  0
SPLINE
  5
412
330
1F
100
AcDbEntity
  8
0
  6
Continuous
 62
     7
370
    25
100
AcDbSpline
210
0.0
220
0.0
230
1.0
 70
     8
 71
     3
 72
    20
 73
    16
 74
     0
 42
0.000000001
 43
0.00000001
 40
0.0
 40
0.0
 40
0.0
 40
0.0
 40
0.1249999999999999
 40
0.1249999999999999
 40
0.2499999999999999
 40
0.2499999999999999
 40
0.375
 40
0.375
 40
0.5
 40
0.5
 40
0.75
 40
0.75
 40
0.875
 40
0.875
 40
1.0
 40
1.0
 40
1.0
 40
1.0
 10
98.92737678897146
 20
-104.7714248261225
 30
0.0
 10
98.76899760132073
 20
-104.7323840952681
 30
0.0
 10
98.61275187662909
 20
-104.6938653910682
 30
0.0
 10
98.30476002721247
 20
-104.6164586397602
 30
0.0
 10
98.1521159197413
 20
-104.5773142217737
 30
0.0
 10
97.86303163055425
 20
-104.5001634678586
 30
0.0
 10
97.72522709237019
 20
-104.4618358861173
 30
0.0
 10
97.46360841673128
 20
-104.3842895656409
 30
0.0
 10
97.3408621100486
 20
-104.3453133579723
 30
0.0
 10
97.00953773310091
 20
-104.229818501527
 30
0.0
 10
96.8305266090727
 20
-104.1519060578571
 30
0.0
 10
96.65091150969182
 20
-104.0364261324561
 30
0.0
 10
96.60466716082412
 20
-103.997560336591
 30
0.0
 10
96.5429138548129
 20
-103.9197860029226
 30
0.0
 10
96.52737678897145
 20
-103.8811762359679
 30
0.0
 10
96.52737678897145
 20
-103.8421355042412
 30
0.0
  0
LINE
  5
413
330
1F
100
AcDbEntity
  8
0
  6
Continuous
 62
     7
370
    25
100
AcDbLine
 10
96.527376789
 20
-103.8421355042
 30
0.0
 11
96.527376789
 21
687.3578644958
 31
0.0
  0
SPLINE
  5
414
330
1F
100
AcDbEntity
  8
0
  6
Continuous
 62
     7
370
    25
100
AcDbSpline
210
0.0
220
0.0
230
1.0
 70
     8
 71
     3
 72
    20
 73
    16
 74
     0
 42
0.000000001
 43
0.00000001
 40
0.0
 40
0.0
 40
0.0
 40
0.0
 40
0.1250000000000039
 40
0.1250000000000039
 40
0.2500000000000078
 40
0.2500000000000078
 40
0.3750000000000118
 40
0.3750000000000118
 40
0.5000000000000157
 40
0.5000000000000157
 40
0.7500000000000184
 40
0.7500000000000184
 40
0.8750000000000093
 40
0.8750000000000093
 40
1.0
 40
1.0
 40
1.0
 40
1.0
 10
96.52737678897147
 20
-103.8421355042411
 30
0.0
 10
96.52737678897147
 20
-104.0005146918918
 30
0.0
 10
96.54291334944631
 20
-104.1567604165836
 30
0.0
 10
96.60423170140692
 20
-104.4647522660003
 30
0.0
 10
96.65065544699375
 20
-104.6173963734711
 30
0.0
 10
96.77060631714788
 20
-104.9064806626583
 30
0.0
 10
96.8442109614313
 20
-105.0442852008424
 30
0.0
 10
97.01894132752693
 20
-105.3059038764814
 30
0.0
 10
97.11979195642844
 20
-105.4286501831642
 30
0.0
 10
97.45107723641239
 20
-105.7599745601117
 30
0.0
 10
97.71875739779627
 20
-105.93898568414
 30
0.0
 10
98.15143142385168
 20
-106.1186007835207
 30
0.0
 10
98.30294951070283
 20
-106.1648451323885
 30
0.0
 10
98.61237526808894
 20
-106.2265984383996
 30
0.0
 10
98.76899759778271
 20
-106.2421355042412
 30
0.0
 10
98.92737678897146
 20
-106.2421355042411
 30
0.0
  0
SPLINE
  5
415
330
1F
100
AcDbEntity
  8
0
  6
Continuous
 62
     7
370
    25
100
AcDbSpline
210
0.0
220
0.0
230
1.0
 70
     8
 71
     3
 72
     9
 73
     5
 74
     0
 42
0.000000001
 43
0.00000001
 40
0.0
 40
0.0
 40
0.0
 40
0.0
 40
0.4258694941526767
 40
1.0
 40
1.0
 40
1.0
 40
1.0
 10
98.37098536196201
 20
-104.6520569415637
 30
0.0
 10
98.44138953856697
 20
-104.7019785664083
 30
0.0
 10
98.60670820442965
 20
-104.8192013906066
 30
0.0
 10
98.81041976668617
 20
-104.8337707757684
 30
0.0
 10
98.92737678897146
 20
-104.8421355042411
 30
0.0
  0
LINE
  5
416
330
1F
100
AcDbEntity
  8
0
  6
Continuous
 62
     7
370
    25
100
AcDbLine
 10
98.927376789
 20
-106.2421355042
 30
0.0
 11
98.927376789
 21
-104.8421355042
 31
0.0
  0
SPLINE
  5
417
330
1F
100
AcDbEntity
  8
0
  6
Continuous
 62
     7
370
    25
100
AcDbSpline
210
0.0
220
0.0
230
1.0
 70
     8
 71
     3
 72
    20
 73
    16
 74
     0
 42
0.000000001
 43
0.00000001
 40
0.0
 40
0.0
 40
0.0
 40
0.0
 40
0.1249999999999982
 40
0.1249999999999982
 40
0.2499999999999963
 40
0.2499999999999963
 40
0.3749999999999943
 40
0.3749999999999943
 40
0.4999999999999924
 40
0.4999999999999924
 40
0.7499999999999937
 40
0.7499999999999937
 40
0.8749999999999969
 40
0.8749999999999969
 40
1.0
 40
1.0
 40
1.0
 40
1.0
 10
98.92737678897146
 20
689.7578644957589
 30
0.0
 10
98.76899760132075
 20
689.7578644957591
 30
0.0
 10
98.61275187662908
 20
689.7423279352842
 30
0.0
 10
98.30476002721245
 20
689.6810095833237
 30
0.0
 10
98.15211591974135
 20
689.6345858377368
 30
0.0
 10
97.86303163055427
 20
689.5146349675827
 30
0.0
 10
97.72522709237023
 20
689.4410303232992
 30
0.0
 10
97.46360841673132
 20
689.2662999572037
 30
0.0
 10
97.34086211004869
 20
689.1654493283022
 30
0.0
 10
97.009537733101
 20
688.8341640483183
 30
0.0
 10
96.83052660907276
 20
688.5664838869341
 30
0.0
 10
96.6509115096919
 20
688.1338098608787
 30
0.0
 10
96.60466716082416
 20
687.9822917740274
 30
0.0
 10
96.54291385481298
 20
687.6728660166414
 30
0.0
 10
96.52737678897151
 20
687.5162436869477
 30
0.0
 10
96.52737678897151
 20
687.357864495759
 30
0.0
  0
LINE
  5
418
330
1F
100
AcDbEntity
  8
0
  6
Continuous
 62
     7
370
    25
100
AcDbLine
 10
98.927376789
 20
689.7578644958
 30
0.0
 11
98.927376789
 21
688.3578644958
 31
0.0
  0
SPLINE
  5
419
330
1F
100
AcDbEntity
  8
0
  6
Continuous
 62
     7
370
    25
100
AcDbSpline
210
0.0
220
0.0
230
1.0
 70
     8
 71
     3
 72
     9
 73
     5
 74
     0
 42
0.000000001
 43
0.00000001
 40
0.0
 40
0.0
 40
0.0
 40
0.0
 40
0.7584558214380528
 40
1.0
 40
1.0
 40
1.0
 40
1.0
 10
98.92737678897146
 20
688.357864495759
 30
0.0
 10
98.77566901103519
 20
688.3468099599255
 30
0.0
 10
98.57564710646517
 20
688.3322349042387
 30
0.0
 10
98.42509301507381
 20
688.209138520639
 30
0.0
 10
98.38872755073955
 20
688.1794053057786
 30
0.0
  0
LINE
  5
41A
330
1F
100
AcDbEntity
  8
0
  6
Continuous
 62
     7
370
    25
100
AcDbLine
 10
98.927376789
 20
689.7578644958
 30
0.0
 11
108.527376789
 21
689.7578644958
 31
0.0
  0
LINE
  5
41B
330
1F
100
AcDbEntity
  8
0
  6
Continuous
 62
     7
370
    25
100
AcDbLine
 10
108.527376789
 20
689.7578644958
 30
0.0
 11
108.527376789
 21
688.3578644958
 31
0.0
  0
LINE
  5
41C
330
1F
100
AcDbEntity
  8
0
  6
Continuous
 62
     7
370
    25
100
AcDbLine
 10
98.927376789
 20
688.3578644958
 30
0.0
 11
108.527376789
 21
688.3578644958
 31
0.0
  0
LINE
  5
41D
330
1F
100
AcDbEntity
  8
0
  6
Continuous
 62
     7
370
    25
100
AcDbLine
 10
98.927376789
 20
-104.8421355042
 30
0.0
 11
108.527376789
 21
-104.8421355042
 31
0.0
  0
LINE
  5
41E
330
1F
100
AcDbEntity
  8
0
  6
Continuous
 62
     7
370
    25
100
AcDbLine
 10
98.927376789
 20
-106.2421355042
 30
0.0
 11
108.527376789
 21
-106.2421355042
 31
0.0
  0
LINE
  5
41F
330
1F
100
AcDbEntity
  8
0
  6
Continuous
 62
     7
370
    25
100
AcDbLine
 10
108.527376789
 20
-106.2421355042
 30
0.0
 11
108.527376789
 21
-104.8421355042
 31
0.0
  0
LINE
  5
420
330
1F
100
AcDbEntity
  8
0
  6
Continuous
 62
     7
370
    25
100
AcDbLine
 10
116.627376789
 20
704.2578644958
 30
0.0
 11
116.627376789
 21
687.0578644958
 31
0.0
  0
LINE
  5
421
330
1F
100
AcDbEntity
  8
0
  6
Continuous
 62
     7
370
    25
100
AcDbLine
 10
112.627376789
 20
704.2578644958
 30
0.0
 11
116.627376789
 21
704.2578644958
 31
0.0
  0
LINE
  5
422
330
1F
100
AcDbEntity
  8
0
  6
Continuous
 62
     7
370
    25
100
AcDbLine
 10
112.627376789
 20
721.2578644958
 30
0.0
 11
112.627376789
 21
704.2578644958
 31
0.0
  0
ARC
  5
423
330
1F
100
AcDbEntity
  8
0
  6
Continuous
 62
     7
370
    25
100
AcDbCircle
 10
115.627376789
 20
721.2578644958
 30
0.0
 40
3.000000000000014
100
AcDbArc
 50
90.0
 51
180.0
  0
LINE
  5
424
330
1F
100
AcDbEntity
  8
0
  6
Continuous
 62
     7
370
    25
100
AcDbLine
 10
132.627376789
 20
724.2578644958
 30
0.0
 11
115.627376789
 21
724.2578644958
 31
0.0
  0
ARC
  5
425
330
1F
100
AcDbEntity
  8
0
  6
Continuous
 62
     7
370
    25
100
AcDbCircle
 10
132.627376789
 20
721.2578644958
 30
0.0
 40
3.0
100
AcDbArc
 50
0.0
 51
90.0
  0
LINE
  5
426
330
1F
100
AcDbEntity
  8
0
  6
Continuous
 62
     7
370
    25
100
AcDbLine
 10
135.627376789
 20
687.0578644958
 30
0.0
 11
135.627376789
 21
721.2578644958
 31
0.0
  0
CIRCLE
  5
427
330
1F
100
AcDbEntity
  8
0
  6
Continuous
 62
     7
370
    25
100
AcDbCircle
 10
127.127376789
 20
717.7578644958
 30
0.0
 40
3.250000000000114
  0
CIRCLE
  5
428
330
1F
100
AcDbEntity
  8
0
  6
Continuous
 62
     7
370
    25
100
AcDbCircle
 10
127.127376789
 20
692.7578644958
 30
0.0
 40
3.250000000000114
  0
LINE
  5
429
330
1F
100
AcDbEntity
  8
0
  6
Continuous
 62
     7
370
    25
100
AcDbLine
 10
116.627376789
 20
685.2578644958
 30
0.0
 11
116.627376789
 21
687.0578644958
 31
0.0
  0
LINE
  5
42A
330
1F
100
AcDbEntity
  8
0
  6
Continuous
 62
     7
370
    25
100
AcDbLine
 10
135.627376789
 20
685.2578644958
 30
0.0
 11
116.627376789
 21
685.2578644958
 31
0.0
  0
LINE
  5
42B
330
1F
100
AcDbEntity
  8
0
  6
Continuous
 62
     7
370
    25
100
AcDbLine
 10
135.627376789
 20
687.0578644958
 30
0.0
 11
135.627376789
 21
685.2578644958
 31
0.0
  0
LINE
  5
42C
330
1F
100
AcDbEntity
  8
0
  6
Continuous
 62
     7
370
    25
100
AcDbLine
 10
116.427376789
 20
685.2578644958
 30
0.0
 11
116.627376789
 21
685.2578644958
 31
0.0
  0
LINE
  5
42D
330
1F
100
AcDbEntity
  8
0
  6
Continuous
 62
     7
370
    25
100
AcDbLine
 10
116.427376789
 20
686.0578644958
 30
0.0
 11
116.627376789
 21
686.0578644958
 31
0.0
  0
ARC
  5
42E
330
1F
100
AcDbEntity
  8
0
  6
Continuous
 62
     7
370
    25
100
AcDbCircle
 10
116.427376789
 20
687.0578644958
 30
0.0
 40
1.799999999999997
100
AcDbArc
 50
180.0
 51
270.0
  0
ARC
  5
42F
330
1F
100
AcDbEntity
  8
0
  6
Continuous
 62
     7
370
    25
100
AcDbCircle
 10
116.427376789
 20
687.0578644958
 30
0.0
 40
1.000000000000114
100
AcDbArc
 50
180.0
 51
270.0
  0
LINE
  5
430
330
1F
100
AcDbEntity
  8
0
  6
Continuous
 62
     7
370
    25
100
AcDbLine
 10
115.427376789
 20
687.0578644958
 30
0.0
 11
115.427376789
 21
697.2578644958
 31
0.0
  0
LINE
  5
431
330
1F
100
AcDbEntity
  8
0
  6
Continuous
 62
     7
370
    25
100
AcDbLine
 10
114.627376789
 20
697.2578644958
 30
0.0
 11
115.427376789
 21
697.2578644958
 31
0.0
  0
LINE
  5
432
330
1F
100
AcDbEntity
  8
0
  6
Continuous
 62
     7
370
    25
100
AcDbLine
 10
135.627376789
 20
685.2578644958
 30
0.0
 11
156.627376789
 21
685.2578644958
 31
0.0
  0
LINE
  5
433
330
1F
100
AcDbEntity
  8
0
  6
Continuous
 62
     7
370
    25
100
AcDbLine
 10
135.627376789
 20
686.0578644958
 30
0.0
 11
156.627376789
 21
686.0578644958
 31
0.0
  0
LINE
  5
434
330
1F
100
AcDbEntity
  8
0
  6
Continuous
 62
     7
370
    25
100
AcDbLine
 10
159.627376789
 20
686.0578644958
 30
0.0
 11
159.627376789
 21
685.2578644958
 31
0.0
  0
LINE
  5
435
330
1F
100
AcDbEntity
  8
0
  6
Continuous
 62
     7
370
    25
100
AcDbLine
 10
159.627376789
 20
685.2578644958
 30
0.0
 11
156.627376789
 21
685.2578644958
 31
0.0
  0
LINE
  5
436
330
1F
100
AcDbEntity
  8
0
  6
Continuous
 62
     7
370
    25
100
AcDbLine
 10
156.627376789
 20
686.0578644958
 30
0.0
 11
159.627376789
 21
686.0578644958
 31
0.0
  0
LINE
  5
437
330
1F
100
AcDbEntity
  8
0
  6
Continuous
 62
     7
370
    25
100
AcDbLine
 10
158.5319901808
 20
690.2578644958
 30
0.0
 11
158.5319901808
 21
689.4578644958
 31
0.0
  0
LINE
  5
438
330
1F
100
AcDbEntity
  8
0
  6
Continuous
 62
     7
370
    25
100
AcDbLine
 10
158.5319901808
 20
689.4578644958
 30
0.0
 11
155.5319901808
 21
689.4578644958
 31
0.0
  0
LINE
  5
439
330
1F
100
AcDbEntity
  8
0
  6
Continuous
 62
     7
370
    25
100
AcDbLine
 10
155.5319901808
 20
690.2578644958
 30
0.0
 11
158.5319901808
 21
690.2578644958
 31
0.0
  0
LINE
  5
43A
330
1F
100
AcDbEntity
  8
0
  6
Continuous
 62
     7
370
    25
100
AcDbLine
 10
149.0142987271
 20
689.4578644958
 30
0.0
 11
155.5319901808
 21
689.4578644958
 31
0.0
  0
LINE
  5
43B
330
1F
100
AcDbEntity
  8
0
  6
Continuous
 62
     7
370
    25
100
AcDbLine
 10
149.0142987271
 20
690.2578644958
 30
0.0
 11
155.5319901808
 21
690.2578644958
 31
0.0
  0
LINE
  5
43C
330
1F
100
AcDbEntity
  8
0
  6
Continuous
 62
     7
370
    25
100
AcDbLine
 10
148.5142987271
 20
689.3238898995
 30
0.0
 11
142.857376789
 21
686.0578644958
 31
0.0
  0
LINE
  5
43D
330
1F
100
AcDbEntity
  8
0
  6
Continuous
 62
     7
370
    25
100
AcDbLine
 10
148.1142987271
 20
690.0167102226
 30
0.0
 11
141.4894275965
 21
686.191839092
 31
0.0
  0
ARC
  5
43E
330
1F
100
AcDbEntity
  8
0
  6
Continuous
 62
     7
370
    25
100
AcDbCircle
 10
149.0142987271
 20
688.4578644958
 30
0.0
 40
1.800000000000182
100
AcDbArc
 50
90.0
 51
120.0
  0
ARC
  5
43F
330
1F
100
AcDbEntity
  8
0
  6
Continuous
 62
     7
370
    25
100
AcDbCircle
 10
149.0142987271
 20
688.4578644958
 30
0.0
 40
1.000000000000054
100
AcDbArc
 50
90.0
 51
120.0
  0
ARC
  5
440
330
1F
100
AcDbEntity
  8
0
  6
Continuous
 62
     7
370
    25
100
AcDbCircle
 10
140.9894275965
 20
687.0578644958
 30
0.0
 40
1.000000000000114
100
AcDbArc
 50
270.0
 51
300.0
  0
CIRCLE
  5
441
330
1F
100
AcDbEntity
  8
0
  6
Continuous
 62
     7
370
    25
100
AcDbCircle
 10
127.127376789
 20
-58.2421355042
 30
0.0
 40
2.458750000016624
  0
CIRCLE
  5
442
330
1F
100
AcDbEntity
  8
0
  6
Continuous
 62
     7
370
    25
100
AcDbCircle
 10
127.127376789
 20
-58.2421355042
 30
0.0
 40
3.000000000000004
  0
CIRCLE
  5
443
330
1F
100
AcDbEntity
  8
0
  6
Continuous
 62
     7
370
    25
100
AcDbCircle
 10
127.127376789
 20
692.7578644958
 30
0.0
 40
2.458750000016629
  0
CIRCLE
  5
444
330
1F
100
AcDbEntity
  8
0
  6
Continuous
 62
     7
370
    25
100
AcDbCircle
 10
127.127376789
 20
692.7578644958
 30
0.0
 40
3.000000000000003
  0
LINE
  5
445
330
1F
100
AcDbEntity
  8
0
  6
Continuous
 62
     7
370
    25
100
AcDbLine
 10
116.627376789
 20
691.3170351739
 30
0.0
 11
116.0420567744
 21
691.3170351739
 31
0.0
  0
SPLINE
  5
446
330
1F
100
AcDbEntity
  8
0
  6
Continuous
 62
     7
370
    25
100
AcDbSpline
210
0.0
220
0.0
230
1.0
 70
     8
 71
     3
 72
    14
 73
    10
 74
     0
 42
0.000000001
 43
0.00000001
 40
0.0
 40
0.0
 40
0.0
 40
0.0
 40
0.25
 40
0.25
 40
0.5
 40
0.5
 40
0.75
 40
0.75
 40
1.0
 40
1.0
 40
1.0
 40
1.0
 10
116.0420567743574
 20
695.3074663713145
 30
0.0
 10
115.9471821650468
 20
694.9829601420257
 30
0.0
 10
115.8675772401711
 20
694.6505009196313
 30
0.0
 10
115.7587406252769
 20
693.9839310047232
 30
0.0
 10
115.7294170195864
 20
693.648854747448
 30
0.0
 10
115.729481801332
 20
692.9745112772205
 30
0.0
 10
115.7596379946583
 20
692.6327318565415
 30
0.0
 10
115.869223196024
 20
691.9663179369369
 30
0.0
 10
115.9477661698262
 20
691.639543890984
 30
0.0
 10
116.0420567743574
 20
691.3170351738876
 30
0.0
  0
LINE
  5
447
330
1F
100
AcDbEntity
  8
0
  6
Continuous
 62
     7
370
    25
100
AcDbLine
 10
116.627376789
 20
695.3074663713
 30
0.0
 11
116.0420567744
 21
695.3074663713
 31
0.0
  0
SPLINE
  5
448
330
1F
100
AcDbEntity
  8
0
  6
Continuous
 62
     7
370
    25
100
AcDbSpline
210
0.0
220
0.0
230
1.0
 70
     8
 71
     3
 72
    12
 73
     8
 74
     0
 42
0.000000001
 43
0.00000001
 40
0.0
 40
0.0
 40
0.0
 40
0.0
 40
0.4999999999999922
 40
0.4999999999999922
 40
0.7499999999999961
 40
0.7499999999999961
 40
1.0
 40
1.0
 40
1.0
 40
1.0
 10
116.0420567743565
 20
691.3170351738878
 30
0.0
 10
115.8515624849329
 20
690.9007340902331
 30
0.0
 10
115.7298880718706
 20
690.4781955622449
 30
0.0
 10
115.7292318813393
 20
689.8279054227838
 30
0.0
 10
115.7590658831337
 20
689.6113632048695
 30
0.0
 10
115.8679957532413
 20
689.1859951996291
 30
0.0
 10
115.9466909403042
 20
688.9758432206439
 30
0.0
 10
116.042056774357
 20
688.7674332983311
 30
0.0
  0
LINE
  5
449
330
1F
100
AcDbEntity
  8
0
  6
Continuous
 62
     7
370
    25
100
AcDbLine
 10
116.0420567744
 20
688.7674332983
 30
0.0
 11
115.9441817371
 21
689.0103380486
 31
0.0
  0
SPLINE
  5
44A
330
1F
100
AcDbEntity
  8
0
  6
Continuous
 62
     7
370
    25
100
AcDbSpline
210
0.0
220
0.0
230
1.0
 70
     8
 71
     3
 72
    12
 73
     8
 74
     0
 42
0.000000001
 43
0.00000001
 40
0.0
 40
0.0
 40
0.0
 40
0.0
 40
0.4999999999999906
 40
0.4999999999999906
 40
0.7499999999999952
 40
0.7499999999999952
 40
1.0
 40
1.0
 40
1.0
 40
1.0
 10
116.0420567743565
 20
696.748295693185
 30
0.0
 10
115.851562484933
 20
696.5130359007419
 30
0.0
 10
115.7298880718706
 20
696.2742512078914
 30
0.0
 10
115.7292318813393
 20
695.9067596753345
 30
0.0
 10
115.7590658831337
 20
695.784387480685
 30
0.0
 10
115.8679957532413
 20
695.5440037955257
 30
0.0
 10
115.9466909403042
 20
695.425242848464
 30
0.0
 10
116.042056774357
 20
695.3074663713144
 30
0.0
  0
LINE
  5
44B
330
1F
100
AcDbEntity
  8
0
  6
Continuous
 62
     7
370
    25
100
AcDbLine
 10
115.527376789
 20
689.6078644958
 30
0.0
 11
115.527376789
 21
695.9078644958
 31
0.0
  0
LINE
  5
44C
330
1F
100
AcDbEntity
  8
0
  6
Continuous
 62
     7
370
    25
100
AcDbLine
 10
116.627376789
 20
688.7674332983
 30
0.0
 11
116.0420567744
 21
688.7674332983
 31
0.0
  0
LINE
  5
44D
330
1F
100
AcDbEntity
  8
0
  6
Continuous
 62
     7
370
    25
100
AcDbLine
 10
116.627376789
 20
696.7482956932
 30
0.0
 11
116.0420567744
 21
696.7482956932
 31
0.0
  0
LINE
  5
44E
330
1F
100
AcDbEntity
  8
0
  6
Continuous
 62
     7
370
    25
100
AcDbLine
 10
112.827376789
 20
683.5578644958
 30
0.0
 11
108.527376789
 21
683.5578644958
 31
0.0
  0
LINE
  5
44F
330
1F
100
AcDbEntity
  8
0
  6
Continuous
 62
     7
370
    25
100
AcDbLine
 10
112.827376789
 20
682.7578644958
 30
0.0
 11
112.827376789
 21
683.5578644958
 31
0.0
  0
LINE
  5
450
330
1F
100
AcDbEntity
  8
0
  6
Continuous
 62
     7
370
    25
100
AcDbLine
 10
112.827376789
 20
682.7578644958
 30
0.0
 11
108.527376789
 21
682.7578644958
 31
0.0
  0
LINE
  5
451
330
1F
100
AcDbEntity
  8
0
  6
Continuous
 62
     7
370
    25
100
AcDbLine
 10
112.827376789
 20
702.7578644958
 30
0.0
 11
102.927376789
 21
702.7578644958
 31
0.0
  0
LINE
  5
452
330
1F
100
AcDbEntity
  8
0
  6
Continuous
 62
     7
370
    25
100
AcDbLine
 10
112.827376789
 20
701.9578644958
 30
0.0
 11
112.827376789
 21
702.7578644958
 31
0.0
  0
LINE
  5
453
330
1F
100
AcDbEntity
  8
0
  6
Continuous
 62
     7
370
    25
100
AcDbLine
 10
102.927376789
 20
701.9578644958
 30
0.0
 11
112.827376789
 21
701.9578644958
 31
0.0
  0
LINE
  5
454
330
1F
100
AcDbEntity
  8
0
  6
Continuous
 62
     7
370
    25
100
AcDbLine
 10
102.927376789
 20
701.9578644958
 30
0.0
 11
102.927376789
 21
701.8578644958
 31
0.0
  0
LINE
  5
455
330
1F
100
AcDbEntity
  8
0
  6
Continuous
 62
     7
370
    25
100
AcDbLine
 10
102.927376789
 20
701.8578644958
 30
0.0
 11
108.077376789
 21
701.8578644958
 31
0.0
  0
LINE
  5
456
330
1F
100
AcDbEntity
  8
0
  6
Continuous
 62
     7
370
    25
100
AcDbLine
 10
108.077376789
 20
701.0578644958
 30
0.0
 11
108.077376789
 21
701.8578644958
 31
0.0
  0
LINE
  5
457
330
1F
100
AcDbEntity
  8
0
  6
Continuous
 62
     7
370
    25
100
AcDbLine
 10
102.927376789
 20
701.0578644958
 30
0.0
 11
108.077376789
 21
701.0578644958
 31
0.0
  0
ARC
  5
458
330
1F
100
AcDbEntity
  8
0
  6
Continuous
 62
     7
370
    25
100
AcDbCircle
 10
102.927376789
 20
701.9078644958
 30
0.0
 40
0.8500000000000227
100
AcDbArc
 50
90.0
 51
270.0
  0
LINE
  5
459
330
1F
100
AcDbEntity
  8
0
  6
Continuous
 62
     7
370
    25
100
AcDbLine
 10
114.627376789
 20
684.5578644958
 30
0.0
 11
114.627376789
 21
700.9578644958
 31
0.0
  0
ARC
  5
45A
330
1F
100
AcDbEntity
  8
0
  6
Continuous
 62
     7
370
    25
100
AcDbCircle
 10
112.827376789
 20
684.5578644958
 30
0.0
 40
1.800000000000068
100
AcDbArc
 50
270.0
 51
0.0
  0
ARC
  5
45B
330
1F
100
AcDbEntity
  8
0
  6
Continuous
 62
     7
370
    25
100
AcDbCircle
 10
112.827376789
 20
684.5578644958
 30
0.0
 40
1.000000000000014
100
AcDbArc
 50
270.0
 51
0.0
  0
LINE
  5
45C
330
1F
100
AcDbEntity
  8
0
  6
Continuous
 62
     7
370
    25
100
AcDbLine
 10
113.827376789
 20
684.5578644958
 30
0.0
 11
113.827376789
 21
700.9578644958
 31
0.0
  0
ARC
  5
45D
330
1F
100
AcDbEntity
  8
0
  6
Continuous
 62
     7
370
    25
100
AcDbCircle
 10
112.827376789
 20
700.9578644958
 30
0.0
 40
1.800000000000026
100
AcDbArc
 50
0.0
 51
90.0
  0
ARC
  5
45E
330
1F
100
AcDbEntity
  8
0
  6
Continuous
 62
     7
370
    25
100
AcDbCircle
 10
112.827376789
 20
700.9578644958
 30
0.0
 40
1.000000000000114
100
AcDbArc
 50
0.0
 51
90.0
  0
LINE
  5
45F
330
1F
100
AcDbEntity
  8
0
  6
Continuous
 62
     7
370
    25
100
AcDbLine
 10
111.827376789
 20
696.7578644958
 30
0.0
 11
111.827376789
 21
688.7578644958
 31
0.0
  0
LWPOLYLINE
  5
460
330
1F
100
AcDbEntity
  8
0
  6
Continuous
 62
     7
370
    25
100
AcDbPolyline
 90
        3
 70
   128
 43
0.0
 10
110.8213326714
 20
693.481645889
 10
110.8169321474
 20
693.4389505695
 10
110.8007072987
 20
693.2552522407
  0
ARC
  5
461
330
1F
100
AcDbEntity
  8
0
  6
Continuous
 62
     7
370
    25
100
AcDbCircle
 10
111.3251002231
 20
693.5683800782
 30
0.0
 40
0.6107675350070273
100
AcDbArc
 50
210.8424581413
 51
243.3898036634
  0
ARC
  5
462
330
1F
100
AcDbEntity
  8
0
  6
Continuous
 62
     7
370
    25
100
AcDbCircle
 10
120.2080341445
 20
692.4268671269
 30
0.0
 40
9.17581504362009
100
AcDbArc
 50
177.9327321277
 51
179.656210104
  0
ARC
  5
463
330
1F
100
AcDbEntity
  8
0
  6
Continuous
 62
     7
370
    25
100
AcDbCircle
 10
118.5643566867
 20
692.6637272207
 30
0.0
 40
7.786288415098306
100
AcDbArc
 50
184.3702527064
 51
195.2299003794
  0
ARC
  5
464
330
1F
100
AcDbEntity
  8
0
  6
Continuous
 62
     7
370
    25
100
AcDbCircle
 10
111.272648354
 20
690.7133633794
 30
0.0
 40
0.2406805056720091
100
AcDbArc
 50
156.7420981705
 51
203.2579018295
  0
ARC
  5
465
330
1F
100
AcDbEntity
  8
0
  6
Continuous
 62
     7
370
    25
100
AcDbCircle
 10
118.5643566867
 20
692.8538025156
 30
0.0
 40
7.786288415101118
100
AcDbArc
 50
184.3702527064
 51
195.2299003794
  0
ARC
  5
466
330
1F
100
AcDbEntity
  8
0
  6
Continuous
 62
     7
370
    25
100
AcDbCircle
 10
111.3251002231
 20
691.9473489133
 30
0.0
 40
0.6107675350092967
100
AcDbArc
 50
116.6101963367
 51
149.1575418586
  0
ARC
  5
467
330
1F
100
AcDbEntity
  8
0
  6
Continuous
 62
     7
370
    25
100
AcDbCircle
 10
120.1311623646
 20
693.0858460084
 30
0.0
 40
9.098942710252233
100
AcDbArc
 50
176.2668736478
 51
183.7331263522
  0
ARC
  5
468
330
1F
100
AcDbEntity
  8
0
  6
Continuous
 62
     7
370
    25
100
AcDbCircle
 10
111.3251002231
 20
693.1321996981
 30
0.0
 40
0.610767535008661
100
AcDbArc
 50
116.6101963367
 51
149.1575418587
  0
ARC
  5
469
330
1F
100
AcDbEntity
  8
0
  6
Continuous
 62
     7
370
    25
100
AcDbCircle
 10
118.5643566867
 20
692.8520017708
 30
0.0
 40
7.786288415101954
100
AcDbArc
 50
164.7700996206
 51
175.6297472936
  0
ARC
  5
46A
330
1F
100
AcDbEntity
  8
0
  6
Continuous
 62
     7
370
    25
100
AcDbCircle
 10
111.1846105676
 20
694.8234668726
 30
0.0
 40
0.1522432420529413
100
AcDbArc
 50
150.9451665852
 51
179.144911649
  0
LINE
  5
46B
330
1F
100
AcDbEntity
  8
0
  6
Continuous
 62
     7
370
    25
100
AcDbLine
 10
110.8007072987
 20
693.4453275356
 30
0.0
 11
111.0392629566
 21
693.4453275356
 31
0.0
  0
LINE
  5
46C
330
1F
100
AcDbEntity
  8
0
  6
Continuous
 62
     7
370
    25
100
AcDbLine
 10
110.8007072987
 20
692.0704014559
 30
0.0
 11
110.8175742904
 21
692.0704014559
 31
0.0
  0
LINE
  5
46D
330
1F
100
AcDbEntity
  8
0
  6
Continuous
 62
     7
370
    25
100
AcDbLine
 10
110.8007072987
 20
693.2552522407
 30
0.0
 11
111.0337576151
 21
693.2552522407
 31
0.0
  0
ARC
  5
46E
330
1F
100
AcDbEntity
  8
0
  6
Continuous
 62
     7
370
    25
100
AcDbCircle
 10
133.0858656782
 20
629.0133376721
 30
0.0
 40
1.942508566655328
100
AcDbArc
 50
268.2745645851
 51
358.1637932023
  0
LINE
  5
46F
330
1F
100
AcDbEntity
  8
0
  6
Continuous
 62
     7
370
    25
100
AcDbLine
 10
135.027376789
 20
628.9510950963
 30
0.0
 11
135.027376789
 21
628.2670548096
 31
0.0
  0
ARC
  5
470
330
1F
100
AcDbEntity
  8
0
  6
Continuous
 62
     7
370
    25
100
AcDbCircle
 10
133.0858656782
 20
628.3292973855
 30
0.0
 40
1.942508566655465
100
AcDbArc
 50
268.2745645851
 51
358.1637932023
  0
LINE
  5
471
330
1F
100
AcDbEntity
  8
0
  6
Continuous
 62
     7
370
    25
100
AcDbLine
 10
135.027376789
 20
634.0921713331
 30
0.0
 11
135.027376789
 21
628.9510950963
 31
0.0
  0
LINE
  5
472
330
1F
100
AcDbEntity
  8
0
  6
Continuous
 62
     7
370
    25
100
AcDbLine
 10
133.027376789
 20
627.0717098547
 30
0.0
 11
121.027376789
 21
627.0717098547
 31
0.0
  0
ARC
  5
473
330
1F
100
AcDbEntity
  8
0
  6
Continuous
 62
     7
370
    25
100
AcDbCircle
 10
120.9688878998
 20
629.0133376721
 30
0.0
 40
1.942508566655328
100
AcDbArc
 50
181.8362067977
 51
271.7254354149
  0
LINE
  5
474
330
1F
100
AcDbEntity
  8
0
  6
Continuous
 62
     7
370
    25
100
AcDbLine
 10
119.027376789
 20
628.9510950963
 30
0.0
 11
119.027376789
 21
634.0921713331
 31
0.0
  0
LINE
  5
475
330
1F
100
AcDbEntity
  8
0
  6
Continuous
 62
     7
370
    25
100
AcDbLine
 10
133.027376789
 20
626.3876695681
 30
0.0
 11
121.027376789
 21
626.3876695681
 31
0.0
  0
LINE
  5
476
330
1F
100
AcDbEntity
  8
0
  6
Continuous
 62
     7
370
    25
100
AcDbLine
 10
119.027376789
 20
628.2670548096
 30
0.0
 11
119.027376789
 21
628.9510950963
 31
0.0
  0
ARC
  5
477
330
1F
100
AcDbEntity
  8
0
  6
Continuous
 62
     7
370
    25
100
AcDbCircle
 10
120.9688878998
 20
628.3292973855
 30
0.0
 40
1.942508566655465
100
AcDbArc
 50
181.8362067977
 51
271.7254354149
  0
LINE
  5
478
330
1F
100
AcDbEntity
  8
0
  6
Continuous
 62
     7
370
    25
100
AcDbLine
 10
119.027376789
 20
634.4341914765
 30
0.0
 11
119.027376789
 21
634.0921713331
 31
0.0
  0
LINE
  5
479
330
1F
100
AcDbEntity
  8
0
  6
Continuous
 62
     7
370
    25
100
AcDbLine
 10
135.027376789
 20
634.0921713331
 30
0.0
 11
135.027376789
 21
634.4341914765
 31
0.0
  0
LINE
  5
47A
330
1F
100
AcDbEntity
  8
0
  6
Continuous
 62
     7
370
    25
100
AcDbLine
 10
108.527376789
 20
634.2578644958
 30
0.0
 11
119.027376789
 21
634.2578644958
 31
0.0
  0
LINE
  5
47B
330
1F
100
AcDbEntity
  8
0
  6
Continuous
 62
     7
370
    25
100
AcDbLine
 10
133.027376789
 20
649.2578644958
 30
0.0
 11
108.527376789
 21
649.2578644958
 31
0.0
  0
ARC
  5
47C
330
1F
100
AcDbEntity
  8
0
  6
Continuous
 62
     7
370
    25
100
AcDbCircle
 10
133.027376789
 20
647.2578644958
 30
0.0
 40
2.0
100
AcDbArc
 50
0.0
 51
90.0
  0
CIRCLE
  5
47D
330
1F
100
AcDbEntity
  8
0
  6
Continuous
 62
     7
370
    25
100
AcDbCircle
 10
127.127376789
 20
641.7578644958
 30
0.0
 40
3.500000000000014
  0
LINE
  5
47E
330
1F
100
AcDbEntity
  8
0
  6
Continuous
 62
     7
370
    25
100
AcDbLine
 10
135.027376789
 20
634.4341914765
 30
0.0
 11
135.027376789
 21
647.2578644958
 31
0.0
  0
LINE
  5
47F
330
1F
100
AcDbEntity
  8
0
  6
Continuous
 62
     7
370
    25
100
AcDbLine
 10
135.027376789
 20
284.0921713331
 30
0.0
 11
135.027376789
 21
278.9510950963
 31
0.0
  0
ARC
  5
480
330
1F
100
AcDbEntity
  8
0
  6
Continuous
 62
     7
370
    25
100
AcDbCircle
 10
133.0858656782
 20
279.0133376721
 30
0.0
 40
1.942508566655355
100
AcDbArc
 50
268.2745645851
 51
358.1637932023
  0
LINE
  5
481
330
1F
100
AcDbEntity
  8
0
  6
Continuous
 62
     7
370
    25
100
AcDbLine
 10
133.027376789
 20
277.0717098547
 30
0.0
 11
121.027376789
 21
277.0717098547
 31
0.0
  0
ARC
  5
482
330
1F
100
AcDbEntity
  8
0
  6
Continuous
 62
     7
370
    25
100
AcDbCircle
 10
120.9688878998
 20
279.0133376721
 30
0.0
 40
1.942508566655259
100
AcDbArc
 50
181.8362067977
 51
271.7254354149
  0
LINE
  5
483
330
1F
100
AcDbEntity
  8
0
  6
Continuous
 62
     7
370
    25
100
AcDbLine
 10
119.027376789
 20
278.9510950963
 30
0.0
 11
119.027376789
 21
284.0921713331
 31
0.0
  0
LINE
  5
484
330
1F
100
AcDbEntity
  8
0
  6
Continuous
 62
     7
370
    25
100
AcDbLine
 10
135.027376789
 20
278.9510950963
 30
0.0
 11
135.027376789
 21
278.2670548096
 31
0.0
  0
ARC
  5
485
330
1F
100
AcDbEntity
  8
0
  6
Continuous
 62
     7
370
    25
100
AcDbCircle
 10
133.0858656782
 20
278.3292973855
 30
0.0
 40
1.9425085666553
100
AcDbArc
 50
268.2745645851
 51
358.1637932023
  0
LINE
  5
486
330
1F
100
AcDbEntity
  8
0
  6
Continuous
 62
     7
370
    25
100
AcDbLine
 10
133.027376789
 20
276.3876695681
 30
0.0
 11
121.027376789
 21
276.3876695681
 31
0.0
  0
LINE
  5
487
330
1F
100
AcDbEntity
  8
0
  6
Continuous
 62
     7
370
    25
100
AcDbLine
 10
119.027376789
 20
278.2670548096
 30
0.0
 11
119.027376789
 21
278.9510950963
 31
0.0
  0
ARC
  5
488
330
1F
100
AcDbEntity
  8
0
  6
Continuous
 62
     7
370
    25
100
AcDbCircle
 10
120.9688878998
 20
278.3292973855
 30
0.0
 40
1.942508566655287
100
AcDbArc
 50
181.8362067977
 51
271.7254354149
  0
LINE
  5
489
330
1F
100
AcDbEntity
  8
0
  6
Continuous
 62
     7
370
    25
100
AcDbLine
 10
119.027376789
 20
284.4341914765
 30
0.0
 11
119.027376789
 21
284.0921713331
 31
0.0
  0
LINE
  5
48A
330
1F
100
AcDbEntity
  8
0
  6
Continuous
 62
     7
370
    25
100
AcDbLine
 10
135.027376789
 20
284.0921713331
 30
0.0
 11
135.027376789
 21
284.4341914765
 31
0.0
  0
LINE
  5
48B
330
1F
100
AcDbEntity
  8
0
  6
Continuous
 62
     7
370
    25
100
AcDbLine
 10
108.527376789
 20
284.2578644958
 30
0.0
 11
119.027376789
 21
284.2578644958
 31
0.0
  0
LINE
  5
48C
330
1F
100
AcDbEntity
  8
0
  6
Continuous
 62
     7
370
    25
100
AcDbLine
 10
135.027376789
 20
284.4341914765
 30
0.0
 11
135.027376789
 21
297.2578644958
 31
0.0
  0
CIRCLE
  5
48D
330
1F
100
AcDbEntity
  8
0
  6
Continuous
 62
     7
370
    25
100
AcDbCircle
 10
127.127376789
 20
291.7578644958
 30
0.0
 40
3.500000000000014
  0
ARC
  5
48E
330
1F
100
AcDbEntity
  8
0
  6
Continuous
 62
     7
370
    25
100
AcDbCircle
 10
133.027376789
 20
297.2578644958
 30
0.0
 40
2.0
100
AcDbArc
 50
0.0
 51
90.0
  0
LINE
  5
48F
330
1F
100
AcDbEntity
  8
0
  6
Continuous
 62
     7
370
    25
100
AcDbLine
 10
133.027376789
 20
299.2578644958
 30
0.0
 11
108.527376789
 21
299.2578644958
 31
0.0
  0
LINE
  5
490
330
1F
100
AcDbEntity
  8
0
  6
Continuous
 62
     7
370
    25
100
AcDbLine
 10
135.027376789
 20
-65.9078286669
 30
0.0
 11
135.027376789
 21
-71.0489049037
 31
0.0
  0
ARC
  5
491
330
1F
100
AcDbEntity
  8
0
  6
Continuous
 62
     7
370
    25
100
AcDbCircle
 10
133.0858656782
 20
-70.9866623279
 30
0.0
 40
1.942508566655271
100
AcDbArc
 50
268.2745645851
 51
358.1637932023
  0
LINE
  5
492
330
1F
100
AcDbEntity
  8
0
  6
Continuous
 62
     7
370
    25
100
AcDbLine
 10
133.027376789
 20
-72.9282901453
 30
0.0
 11
121.027376789
 21
-72.9282901453
 31
0.0
  0
ARC
  5
493
330
1F
100
AcDbEntity
  8
0
  6
Continuous
 62
     7
370
    25
100
AcDbCircle
 10
120.9688878998
 20
-70.9866623279
 30
0.0
 40
1.942508566655258
100
AcDbArc
 50
181.8362067977
 51
271.7254354149
  0
LINE
  5
494
330
1F
100
AcDbEntity
  8
0
  6
Continuous
 62
     7
370
    25
100
AcDbLine
 10
119.027376789
 20
-71.0489049037
 30
0.0
 11
119.027376789
 21
-65.9078286669
 31
0.0
  0
LINE
  5
495
330
1F
100
AcDbEntity
  8
0
  6
Continuous
 62
     7
370
    25
100
AcDbLine
 10
135.027376789
 20
-71.0489049037
 30
0.0
 11
135.027376789
 21
-71.7329451904
 31
0.0
  0
ARC
  5
496
330
1F
100
AcDbEntity
  8
0
  6
Continuous
 62
     7
370
    25
100
AcDbCircle
 10
133.0858656782
 20
-71.6707026145
 30
0.0
 40
1.942508566655216
100
AcDbArc
 50
268.2745645851
 51
358.1637932023
  0
LINE
  5
497
330
1F
100
AcDbEntity
  8
0
  6
Continuous
 62
     7
370
    25
100
AcDbLine
 10
133.027376789
 20
-73.6123304319
 30
0.0
 11
121.027376789
 21
-73.6123304319
 31
0.0
  0
LINE
  5
498
330
1F
100
AcDbEntity
  8
0
  6
Continuous
 62
     7
370
    25
100
AcDbLine
 10
119.027376789
 20
-71.7329451904
 30
0.0
 11
119.027376789
 21
-71.0489049037
 31
0.0
  0
ARC
  5
499
330
1F
100
AcDbEntity
  8
0
  6
Continuous
 62
     7
370
    25
100
AcDbCircle
 10
120.9688878998
 20
-71.6707026145
 30
0.0
 40
1.942508566655287
100
AcDbArc
 50
181.8362067977
 51
271.7254354149
  0
LINE
  5
49A
330
1F
100
AcDbEntity
  8
0
  6
Continuous
 62
     7
370
    25
100
AcDbLine
 10
135.027376789
 20
-65.9078286669
 30
0.0
 11
135.027376789
 21
-65.5658085235
 31
0.0
  0
LINE
  5
49B
330
1F
100
AcDbEntity
  8
0
  6
Continuous
 62
     7
370
    25
100
AcDbLine
 10
119.027376789
 20
-65.5658085235
 30
0.0
 11
119.027376789
 21
-65.9078286669
 31
0.0
  0
LINE
  5
49C
330
1F
100
AcDbEntity
  8
0
  6
Continuous
 62
     7
370
    25
100
AcDbLine
 10
108.527376789
 20
-65.7421355042
 30
0.0
 11
119.027376789
 21
-65.7421355042
 31
0.0
  0
LINE
  5
49D
330
1F
100
AcDbEntity
  8
0
  6
Continuous
 62
     7
370
    25
100
AcDbLine
 10
133.027376789
 20
-50.7421355042
 30
0.0
 11
108.527376789
 21
-50.7421355042
 31
0.0
  0
LINE
  5
49E
330
1F
100
AcDbEntity
  8
0
  6
Continuous
 62
     7
370
    25
100
AcDbLine
 10
135.027376789
 20
-65.5658085235
 30
0.0
 11
135.027376789
 21
-52.7421355042
 31
0.0
  0
CIRCLE
  5
49F
330
1F
100
AcDbEntity
  8
0
  6
Continuous
 62
     7
370
    25
100
AcDbCircle
 10
127.127376789
 20
-58.2421355042
 30
0.0
 40
3.500000000000014
  0
ARC
  5
4A0
330
1F
100
AcDbEntity
  8
0
  6
Continuous
 62
     7
370
    25
100
AcDbCircle
 10
133.027376789
 20
-52.7421355042
 30
0.0
 40
2.0
100
AcDbArc
 50
0.0
 51
90.0
  0
CIRCLE
  5
4A1
330
1F
100
AcDbEntity
  8
0
  6
Continuous
 62
     7
370
    25
100
AcDbCircle
 10
127.127376789
 20
641.7578644958
 30
0.0
 40
2.458750000016594
  0
CIRCLE
  5
4A2
330
1F
100
AcDbEntity
  8
0
  6
Continuous
 62
     7
370
    25
100
AcDbCircle
 10
127.127376789
 20
641.7578644958
 30
0.0
 40
2.999999999999936
  0
ENDSEC
  0
SECTION
  2
OBJECTS
  0
DICTIONARY
  5
C
330
0
100
AcDbDictionary
281
     1
  3
ACAD_GROUP
350
D
  3
ACAD_LAYOUT
350
1A
  3
ACAD_MLINESTYLE
350
17
  3
ACAD_PLOTSETTINGS
350
19
  3
ACAD_PLOTSTYLENAME
350
E
  3
ACAD_SCALELIST
350
47
  0
DICTIONARY
  5
D
102
{ACAD_REACTORS
330
C
102
}
330
C
100
AcDbDictionary
281
     1
  0
DICTIONARY
  5
1A
102
{ACAD_REACTORS
330
C
102
}
330
C
100
AcDbDictionary
281
     1
  3
Layout1
350
1E
  3
Layout2
350
26
  3
Model
350
22
  0
DICTIONARY
  5
17
102
{ACAD_REACTORS
330
C
102
}
330
C
100
AcDbDictionary
281
     1
  3
Standard
350
18
  0
DICTIONARY
  5
19
102
{ACAD_REACTORS
330
C
102
}
330
C
100
AcDbDictionary
281
     1
  0
ACDBDICTIONARYWDFLT
  5
E
102
{ACAD_REACTORS
330
C
102
}
330
C
100
AcDbDictionary
281
     1
  3
Normal
350
F
100
AcDbDictionaryWithDefault
340
F
  0
DICTIONARY
  5
47
102
{ACAD_REACTORS
330
C
102
}
330
C
100
AcDbDictionary
281
     1
  3
A0
350
48
  3
A1
350
49
  3
A2
350
4A
  3
A3
350
4B
  3
A4
350
4C
  3
A5
350
4D
  3
A6
350
4E
  3
A7
350
4F
  3
A8
350
50
  3
A9
350
51
  3
B0
350
52
  3
B1
350
53
  3
B2
350
54
  3
B3
350
55
  3
B4
350
56
  3
B5
350
57
  3
B6
350
58
  3
B7
350
59
  3
B8
350
5A
  3
B9
350
5B
  3
C0
350
5C
  3
C1
350
5D
  3
C2
350
5E
  3
C3
350
5F
  3
C4
350
60
  3
C5
350
61
  3
C6
350
62
  3
C7
350
63
  3
C8
350
64
  3
C9
350
65
  3
D0
350
66
  3
D1
350
67
  3
D2
350
68
  0
LAYOUT
  5
1E
102
{ACAD_REACTORS
330
1A
102
}
330
1A
100
AcDbPlotSettings
  1

  2
none_device
  4

  6

 40
0.0
 41
0.0
 42
0.0
 43
0.0
 44
0.0
 45
0.0
 46
0.0
 47
0.0
 48
0.0
 49
0.0
140
0.0
141
0.0
142
1.0
143
1.0
 70
   688
 72
     1
 73
     0
 74
     5
  7

 75
    16
147
1.0
148
0.0
149
0.0
100
AcDbLayout
  1
Layout1
 70
     1
 71
     1
 10
0.0
 20
0.0
 11
420.0
 21
297.0
 12
0.0
 22
0.0
 32
0.0
 14
1.0000000000E+20
 24
1.0000000000E+20
 34
1.0000000000E+20
 15
-1.0000000000E+20
 25
-1.0000000000E+20
 35
-1.0000000000E+20
146
0.0
 13
0.0
 23
0.0
 33
0.0
 16
1.0
 26
0.0
 36
0.0
 17
0.0
 27
1.0
 37
0.0
 76
     0
330
1B
  0
LAYOUT
  5
26
102
{ACAD_REACTORS
330
1A
102
}
330
1A
100
AcDbPlotSettings
  1

  2
none_device
  4

  6

 40
0.0
 41
0.0
 42
0.0
 43
0.0
 44
0.0
 45
0.0
 46
0.0
 47
0.0
 48
0.0
 49
0.0
140
0.0
141
0.0
142
1.0
143
1.0
 70
   688
 72
     1
 73
     0
 74
     5
  7

 75
    16
147
1.0
148
0.0
149
0.0
100
AcDbLayout
  1
Layout2
 70
     1
 71
     2
 10
0.0
 20
0.0
 11
0.0
 21
0.0
 12
0.0
 22
0.0
 32
0.0
 14
0.0
 24
0.0
 34
0.0
 15
0.0
 25
0.0
 35
0.0
146
0.0
 13
0.0
 23
0.0
 33
0.0
 16
1.0
 26
0.0
 36
0.0
 17
0.0
 27
1.0
 37
0.0
 76
     0
330
23
  0
LAYOUT
  5
22
102
{ACAD_REACTORS
330
1A
102
}
330
1A
100
AcDbPlotSettings
  1

  2
none_device
  4
Letter_(8.50_x_11.00_Inches)
  6

 40
6.35
 41
6.35
 42
6.35000508
 43
6.35000508
 44
215.9
 45
279.4
 46
0.0
 47
0.0
 48
0.0
 49
0.0
140
0.0
141
0.0
142
1.0
143
1.0
 70
  1712
 72
     1
 73
     0
 74
     0
  7

 75
     0
147
1.0
148
0.0
149
0.0
100
AcDbLayout
  1
Model
 70
     1
 71
     0
 10
0.0
 20
0.0
 11
841.0
 21
594.0
 12
0.0
 22
0.0
 32
0.0
 14
0.0
 24
0.0
 34
0.0
 15
841.0
 25
594.0
 35
0.0
146
0.0
 13
0.0
 23
0.0
 33
0.0
 16
1.0
 26
0.0
 36
0.0
 17
0.0
 27
1.0
 37
0.0
 76
     0
330
1F
331
29
  0
MLINESTYLE
  5
18
102
{ACAD_REACTORS
330
17
102
}
330
17
100
AcDbMlineStyle
  2
Standard
 70
     0
  3

 62
   256
 51
90.0
 52
90.0
 71
     2
 49
0.5
 62
   256
  6
BYLAYER
 49
-0.5
 62
   256
  6
BYLAYER
  0
ACDBPLACEHOLDER
  5
F
102
{ACAD_REACTORS
330
E
102
}
330
E
  0
SCALE
  5
48
102
{ACAD_REACTORS
330
47
102
}
330
47
100
AcDbScale
 70
     0
300
1:1
140
1.0
141
1.0
290
     1
  0
SCALE
  5
49
102
{ACAD_REACTORS
330
47
102
}
330
47
100
AcDbScale
 70
     0
300
1:2
140
1.0
141
2.0
290
     0
  0
SCALE
  5
4A
102
{ACAD_REACTORS
330
47
102
}
330
47
100
AcDbScale
 70
     0
300
1:4
140
1.0
141
4.0
290
     0
  0
SCALE
  5
4B
102
{ACAD_REACTORS
330
47
102
}
330
47
100
AcDbScale
 70
     0
300
1:5
140
1.0
141
5.0
290
     0
  0
SCALE
  5
4C
102
{ACAD_REACTORS
330
47
102
}
330
47
100
AcDbScale
 70
     0
300
1:8
140
1.0
141
8.0
290
     0
  0
SCALE
  5
4D
102
{ACAD_REACTORS
330
47
102
}
330
47
100
AcDbScale
 70
     0
300
1:10
140
1.0
141
10.0
290
     0
  0
SCALE
  5
4E
102
{ACAD_REACTORS
330
47
102
}
330
47
100
AcDbScale
 70
     0
300
1:16
140
1.0
141
16.0
290
     0
  0
SCALE
  5
4F
102
{ACAD_REACTORS
330
47
102
}
330
47
100
AcDbScale
 70
     0
300
1:20
140
1.0
141
20.0
290
     0
  0
SCALE
  5
50
102
{ACAD_REACTORS
330
47
102
}
330
47
100
AcDbScale
 70
     0
300
1:30
140
1.0
141
30.0
290
     0
  0
SCALE
  5
51
102
{ACAD_REACTORS
330
47
102
}
330
47
100
AcDbScale
 70
     0
300
1:40
140
1.0
141
40.0
290
     0
  0
SCALE
  5
52
102
{ACAD_REACTORS
330
47
102
}
330
47
100
AcDbScale
 70
     0
300
1:50
140
1.0
141
50.0
290
     0
  0
SCALE
  5
53
102
{ACAD_REACTORS
330
47
102
}
330
47
100
AcDbScale
 70
     0
300
1:100
140
1.0
141
100.0
290
     0
  0
SCALE
  5
54
102
{ACAD_REACTORS
330
47
102
}
330
47
100
AcDbScale
 70
     0
300
2:1
140
2.0
141
1.0
290
     0
  0
SCALE
  5
55
102
{ACAD_REACTORS
330
47
102
}
330
47
100
AcDbScale
 70
     0
300
4:1
140
4.0
141
1.0
290
     0
  0
SCALE
  5
56
102
{ACAD_REACTORS
330
47
102
}
330
47
100
AcDbScale
 70
     0
300
8:1
140
8.0
141
1.0
290
     0
  0
SCALE
  5
57
102
{ACAD_REACTORS
330
47
102
}
330
47
100
AcDbScale
 70
     0
300
10:1
140
10.0
141
1.0
290
     0
  0
SCALE
  5
58
102
{ACAD_REACTORS
330
47
102
}
330
47
100
AcDbScale
 70
     0
300
100:1
140
100.0
141
1.0
290
     0
  0
SCALE
  5
59
102
{ACAD_REACTORS
330
47
102
}
330
47
100
AcDbScale
 70
     0
300
1/128" = 1'-0"
140
0.0078125
141
12.0
290
     0
  0
SCALE
  5
5A
102
{ACAD_REACTORS
330
47
102
}
330
47
100
AcDbScale
 70
     0
300
1/64" = 1'-0"
140
0.015625
141
12.0
290
     0
  0
SCALE
  5
5B
102
{ACAD_REACTORS
330
47
102
}
330
47
100
AcDbScale
 70
     0
300
1/32" = 1'-0"
140
0.03125
141
12.0
290
     0
  0
SCALE
  5
5C
102
{ACAD_REACTORS
330
47
102
}
330
47
100
AcDbScale
 70
     0
300
1/16" = 1'-0"
140
0.0625
141
12.0
290
     0
  0
SCALE
  5
5D
102
{ACAD_REACTORS
330
47
102
}
330
47
100
AcDbScale
 70
     0
300
3/32" = 1'-0"
140
0.09375
141
12.0
290
     0
  0
SCALE
  5
5E
102
{ACAD_REACTORS
330
47
102
}
330
47
100
AcDbScale
 70
     0
300
1/8" = 1'-0"
140
0.125
141
12.0
290
     0
  0
SCALE
  5
5F
102
{ACAD_REACTORS
330
47
102
}
330
47
100
AcDbScale
 70
     0
300
3/16" = 1'-0"
140
0.1875
141
12.0
290
     0
  0
SCALE
  5
60
102
{ACAD_REACTORS
330
47
102
}
330
47
100
AcDbScale
 70
     0
300
1/4" = 1'-0"
140
0.25
141
12.0
290
     0
  0
SCALE
  5
61
102
{ACAD_REACTORS
330
47
102
}
330
47
100
AcDbScale
 70
     0
300
3/8" = 1'-0"
140
0.375
141
12.0
290
     0
  0
SCALE
  5
62
102
{ACAD_REACTORS
330
47
102
}
330
47
100
AcDbScale
 70
     0
300
1/2" = 1'-0"
140
0.5
141
12.0
290
     0
  0
SCALE
  5
63
102
{ACAD_REACTORS
330
47
102
}
330
47
100
AcDbScale
 70
     0
300
3/4" = 1'-0"
140
0.75
141
12.0
290
     0
  0
SCALE
  5
64
102
{ACAD_REACTORS
330
47
102
}
330
47
100
AcDbScale
 70
     0
300
1" = 1'-0"
140
1.0
141
12.0
290
     0
  0
SCALE
  5
65
102
{ACAD_REACTORS
330
47
102
}
330
47
100
AcDbScale
 70
     0
300
1-1/2" = 1'-0"
140
1.5
141
12.0
290
     0
  0
SCALE
  5
66
102
{ACAD_REACTORS
330
47
102
}
330
47
100
AcDbScale
 70
     0
300
3" = 1'-0"
140
3.0
141
12.0
290
     0
  0
SCALE
  5
67
102
{ACAD_REACTORS
330
47
102
}
330
47
100
AcDbScale
 70
     0
300
6" = 1'-0"
140
6.0
141
12.0
290
     0
  0
SCALE
  5
68
102
{ACAD_REACTORS
330
47
102
}
330
47
100
AcDbScale
 70
     0
300
1'-0" = 1'-0"
140
12.0
141
12.0
290
     0
  0
ENDSEC
  0
EOF
