  0
SECTION
  2
HEADER
  9
$ACADVER
  1
AC1015
  9
$ACADMAINTVER
 70
     6
  9
$DWGCODEPAGE
  3
ANSI_1251
  9
$INSBASE
 10
0.0
 20
0.0
 30
0.0
  9
$EXTMIN
 10
0.0
 20
0.0
 30
0.0
  9
$EXTMAX
 10
841.0
 20
594.0
 30
0.0
  9
$LIMMIN
 10
0.0
 20
0.0
  9
$LIMMAX
 10
841.0
 20
594.0
  9
$ORTHOMODE
 70
     0
  9
$REGENMODE
 70
     1
  9
$FILLMODE
 70
     1
  9
$QTEXTMODE
 70
     0
  9
$MIRRTEXT
 70
     1
  9
$LTSCALE
 40
1.0
  9
$ATTMODE
 70
     1
  9
$TEXTSIZE
 40
3.5
  9
$TRACEWID
 40
1.0
  9
$TEXTSTYLE
  7
Standard
  9
$CLAYER
  8
0
  9
$CELTYPE
  6
ByLayer
  9
$CECOLOR
 62
   256
  9
$CELTSCALE
 40
1.0
  9
$DISPSILH
 70
     0
  9
$DIMSCALE
 40
1.0
  9
$DIMASZ
 40
3.5
  9
$DIMEXO
 40
0.01
  9
$DIMDLI
 40
3.75
  9
$DIMRND
 40
0.0
  9
$DIMDLE
 40
0.0
  9
$DIMEXE
 40
1.0
  9
$DIMTP
 40
0.0
  9
$DIMTM
 40
0.0
  9
$DIMTXT
 40
3.5
  9
$DIMCEN
 40
2.5
  9
$DIMTSZ
 40
0.0
  9
$DIMTOL
 70
     0
  9
$DIMLIM
 70
     0
  9
$DIMTIH
 70
     1
  9
$DIMTOH
 70
     1
  9
$DIMSE1
 70
     0
  9
$DIMSE2
 70
     0
  9
$DIMTAD
 70
     1
  9
$DIMZIN
 70
     0
  9
$DIMBLK
  1

  9
$DIMASO
 70
     1
  9
$DIMSHO
 70
     1
  9
$DIMPOST
  1

  9
$DIMAPOST
  1

  9
$DIMALT
 70
     0
  9
$DIMALTD
 70
     3
  9
$DIMALTF
 40
0.0393700787
  9
$DIMLFAC
 40
1.0
  9
$DIMTOFL
 70
     1
  9
$DIMTVP
 40
0.0
  9
$DIMTIX
 70
     0
  9
$DIMSOXD
 70
     0
  9
$DIMSAH
 70
     0
  9
$DIMBLK1
  1

  9
$DIMBLK2
  1

  9
$DIMSTYLE
  2
ISO-25
  9
$DIMCLRD
 70
     0
  9
$DIMCLRE
 70
     0
  9
$DIMCLRT
 70
     0
  9
$DIMTFAC
 40
1.0
  9
$DIMGAP
 40
3.0
  9
$DIMJUST
 70
     0
  9
$DIMSD1
 70
     0
  9
$DIMSD2
 70
     0
  9
$DIMTOLJ
 70
     0
  9
$DIMTZIN
 70
     0
  9
$DIMALTZ
 70
     0
  9
$DIMALTTZ
 70
     0
  9
$DIMUPT
 70
     0
  9
$DIMDEC
 70
     2
  9
$DIMTDEC
 70
     3
  9
$DIMALTU
 70
     2
  9
$DIMALTTD
 70
     3
  9
$DIMTXSTY
  7
Standard
  9
$DIMAUNIT
 70
     0
  9
$DIMADEC
 70
     2
  9
$DIMALTRND
 40
0.0
  9
$DIMAZIN
 70
     0
  9
$DIMDSEP
 70
    44
  9
$DIMATFIT
 70
     3
  9
$DIMFRAC
 70
     0
  9
$DIMLDRBLK
  1

  9
$DIMLUNIT
 70
     2
  9
$DIMLWD
 70
    -2
  9
$DIMLWE
 70
    -2
  9
$DIMTMOVE
 70
     0
  9
$LUNITS
 70
     2
  9
$LUPREC
 70
     2
  9
$SKETCHINC
 40
1.0
  9
$FILLETRAD
 40
10.0
  9
$AUNITS
 70
     0
  9
$AUPREC
 70
     2
  9
$MENU
  1
.
  9
$ELEVATION
 40
0.0
  9
$PELEVATION
 40
0.0
  9
$THICKNESS
 40
0.0
  9
$LIMCHECK
 70
     0
  9
$CHAMFERA
 40
0.0
  9
$CHAMFERB
 40
0.0
  9
$CHAMFERC
 40
0.0
  9
$CHAMFERD
 40
0.0
  9
$SKPOLY
 70
     0
  9
$TDCREATE
 40
2459732.515348125
  9
$TDUCREATE
 40
2459732.390348125
  9
$TDUPDATE
 40
2459732.515349166
  9
$TDUUPDATE
 40
2459732.390349166
  9
$TDINDWG
 40
0.0000000116
  9
$TDUSRTIMER
 40
0.0000000116
  9
$USRTIMER
 70
     1
  9
$ANGBASE
 50
0.0
  9
$ANGDIR
 70
     0
  9
$PDMODE
 70
     0
  9
$PDSIZE
 40
-1.0
  9
$PLINEWID
 40
0.0
  9
$SPLFRAME
 70
     0
  9
$SPLINETYPE
 70
     6
  9
$SPLINESEGS
 70
     8
  9
$HANDSEED
  5
43A
  9
$SURFTAB1
 70
     6
  9
$SURFTAB2
 70
     6
  9
$SURFTYPE
 70
     6
  9
$SURFU
 70
     6
  9
$SURFV
 70
     6
  9
$UCSBASE
  2

  9
$UCSNAME
  2

  9
$UCSORG
 10
0.0
 20
0.0
 30
0.0
  9
$UCSXDIR
 10
1.0
 20
0.0
 30
0.0
  9
$UCSYDIR
 10
0.0
 20
1.0
 30
0.0
  9
$UCSORTHOREF
  2

  9
$UCSORTHOVIEW
 70
     0
  9
$UCSORGTOP
 10
0.0
 20
0.0
 30
0.0
  9
$UCSORGBOTTOM
 10
0.0
 20
0.0
 30
0.0
  9
$UCSORGLEFT
 10
0.0
 20
0.0
 30
0.0
  9
$UCSORGRIGHT
 10
0.0
 20
0.0
 30
0.0
  9
$UCSORGFRONT
 10
0.0
 20
0.0
 30
0.0
  9
$UCSORGBACK
 10
0.0
 20
0.0
 30
0.0
  9
$PUCSBASE
  2

  9
$PUCSNAME
  2

  9
$PUCSORG
 10
0.0
 20
0.0
 30
0.0
  9
$PUCSXDIR
 10
1.0
 20
0.0
 30
0.0
  9
$PUCSYDIR
 10
0.0
 20
1.0
 30
0.0
  9
$PUCSORTHOREF
  2

  9
$PUCSORTHOVIEW
 70
     0
  9
$PUCSORGTOP
 10
0.0
 20
0.0
 30
0.0
  9
$PUCSORGBOTTOM
 10
0.0
 20
0.0
 30
0.0
  9
$PUCSORGLEFT
 10
0.0
 20
0.0
 30
0.0
  9
$PUCSORGRIGHT
 10
0.0
 20
0.0
 30
0.0
  9
$PUCSORGFRONT
 10
0.0
 20
0.0
 30
0.0
  9
$PUCSORGBACK
 10
0.0
 20
0.0
 30
0.0
  9
$USERI1
 70
     0
  9
$USERI2
 70
     0
  9
$USERI3
 70
     0
  9
$USERI4
 70
     0
  9
$USERI5
 70
     0
  9
$USERR1
 40
0.0
  9
$USERR2
 40
0.0
  9
$USERR3
 40
0.0
  9
$USERR4
 40
0.0
  9
$USERR5
 40
0.0
  9
$WORLDVIEW
 70
     1
  9
$SHADEDGE
 70
     3
  9
$SHADEDIF
 70
    70
  9
$TILEMODE
 70
     1
  9
$MAXACTVP
 70
    64
  9
$PINSBASE
 10
0.0
 20
0.0
 30
0.0
  9
$PLIMCHECK
 70
     0
  9
$PEXTMIN
 10
1.0000000000E+20
 20
1.0000000000E+20
 30
1.0000000000E+20
  9
$PEXTMAX
 10
-1.0000000000E+20
 20
-1.0000000000E+20
 30
-1.0000000000E+20
  9
$PLIMMIN
 10
0.0
 20
0.0
  9
$PLIMMAX
 10
420.0
 20
297.0
  9
$UNITMODE
 70
     0
  9
$VISRETAIN
 70
     1
  9
$PLINEGEN
 70
     0
  9
$PSLTSCALE
 70
     1
  9
$TREEDEPTH
 70
  3020
  9
$CMLSTYLE
  2
Standard
  9
$CMLJUST
 70
     0
  9
$CMLSCALE
 40
20.0
  9
$PROXYGRAPHICS
 70
     1
  9
$MEASUREMENT
 70
     1
  9
$CELWEIGHT
370
    -1
  9
$ENDCAPS
280
     0
  9
$JOINSTYLE
280
     0
  9
$LWDISPLAY
290
     1
  9
$INSUNITS
 70
     4
  9
$HYPERLINKBASE
  1

  9
$STYLESHEET
  1

  9
$XEDIT
290
     1
  9
$CEPSNTYPE
380
     0
  9
$PSTYLEMODE
290
     1
  9
$FINGERPRINTGUID
  2
{F1893795-4914-4CB6-9547-C464D88D37B2}
  9
$VERSIONGUID
  2
{FAEB1C32-E019-11D5-929B-00C0DF256EC4}
  9
$EXTNAMES
290
     1
  9
$PSVPSCALE
 40
0.0
  9
$OLESTARTUP
290
     0
  0
ENDSEC
  0
SECTION
  2
CLASSES
  0
CLASS
  1
ACDBDICTIONARYWDFLT
  2
AcDbDictionaryWithDefault
  3
ObjectDBX Classes
 90
        0
280
     0
281
     0
  0
CLASS
  1
VISUALSTYLE
  2
AcDbVisualStyle
  3
ObjectDBX Classes
 90
     4095
280
     0
281
     0
  0
CLASS
  1
MATERIAL
  2
AcDbMaterial
  3
ObjectDBX Classes
 90
     1153
280
     0
281
     0
  0
CLASS
  1
SCALE
  2
AcDbScale
  3
ObjectDBX Classes
 90
     1153
280
     0
281
     0
  0
CLASS
  1
TABLESTYLE
  2
AcDbTableStyle
  3
ObjectDBX Classes
 90
     4095
280
     0
281
     0
  0
CLASS
  1
MLEADERSTYLE
  2
AcDbMLeaderStyle
  3
ACDB_MLEADERSTYLE_CLASS
 90
     4095
280
     0
281
     0
  0
CLASS
  1
SUN
  2
AcDbSun
  3
SCENEOE
 90
     1153
280
     0
281
     0
  0
CLASS
  1
ACDBPLACEHOLDER
  2
AcDbPlaceHolder
  3
ObjectDBX Classes
 90
        0
280
     0
281
     0
  0
CLASS
  1
LAYOUT
  2
AcDbLayout
  3
ObjectDBX Classes
 90
        0
280
     0
281
     0
  0
ENDSEC
  0
SECTION
  2
TABLES
  0
TABLE
  2
VPORT
  5
8
330
0
100
AcDbSymbolTable
 70
     1
  0
VPORT
  5
29
330
8
100
AcDbSymbolTableRecord
100
AcDbViewportTableRecord
  2
*Active
 70
     0
 10
0.0
 20
0.0
 11
1.0
 21
1.0
 12
420.5
 22
297.0
 13
0.0
 23
0.0
 14
10.0
 24
10.0
 15
10.0
 25
10.0
 16
0.0
 26
0.0
 36
1.0
 17
0.0
 27
0.0
 37
0.0
 40
594.0
 41
1.4158249158
 42
50.0
 43
0.0
 44
0.0
 50
0.0
 51
0.0
 71
     0
 72
  2000
 73
     1
 74
     3
 75
     0
 76
     0
 77
     0
 78
     0
281
     0
 65
     1
110
0.0
120
0.0
130
0.0
111
1.0
121
0.0
131
0.0
112
0.0
122
1.0
132
0.0
 79
     0
146
0.0
  0
ENDTAB
  0
TABLE
  2
LTYPE
  5
5
330
0
100
AcDbSymbolTable
 70
     6
  0
LTYPE
  5
14
330
5
100
AcDbSymbolTableRecord
100
AcDbLinetypeTableRecord
  2
ByBlock
 70
     0
  3

 72
    65
 73
     0
 40
0.0
  0
LTYPE
  5
15
330
5
100
AcDbSymbolTableRecord
100
AcDbLinetypeTableRecord
  2
ByLayer
 70
     0
  3

 72
    65
 73
     0
 40
0.0
  0
LTYPE
  5
16
330
5
100
AcDbSymbolTableRecord
100
AcDbLinetypeTableRecord
  2
Continuous
 70
     0
  3
Solid line
 72
    65
 73
     0
 40
0.0
  0
LTYPE
  5
6E
330
5
100
AcDbSymbolTableRecord
100
AcDbLinetypeTableRecord
  2
HIDDEN
 70
     0
  3
Hidden __ __ __ __ __ __ __ __ __ __ __ __ __ __
 72
    65
 73
     2
 40
1.905
 49
1.27
 74
     0
 49
-0.635
 74
     0
  0
LTYPE
  5
6F
330
5
100
AcDbSymbolTableRecord
100
AcDbLinetypeTableRecord
  2
PHANTOM
 70
     0
  3
Phantom ______  __  __  ______  __  __  ______
 72
    65
 73
     6
 40
12.7
 49
6.35
 74
     0
 49
-1.27
 74
     0
 49
1.27
 74
     0
 49
-1.27
 74
     0
 49
1.27
 74
     0
 49
-1.27
 74
     0
  0
LTYPE
  5
70
330
5
100
AcDbSymbolTableRecord
100
AcDbLinetypeTableRecord
  2
CENTER
 70
     0
  3
Center ____ _ ____ _ ____ _ ____ _ ____ _ ____
 72
    65
 73
     4
 40
10.16
 49
6.35
 74
     0
 49
-1.27
 74
     0
 49
1.27
 74
     0
 49
-1.27
 74
     0
  0
LTYPE
  5
71
330
5
100
AcDbSymbolTableRecord
100
AcDbLinetypeTableRecord
  2
CENTERX2
 70
     0
  3
Center (2x) ________  __  ________  __  _____
 72
    65
 73
     4
 40
20.32
 49
12.7
 74
     0
 49
-2.54
 74
     0
 49
2.54
 74
     0
 49
-2.54
 74
     0
  0
LTYPE
  5
72
330
5
100
AcDbSymbolTableRecord
100
AcDbLinetypeTableRecord
  2
DOT2
 70
     0
  3
Dot (.5x) ........................................
 72
    65
 73
     2
 40
0.635
 49
0.0
 74
     0
 49
-0.635
 74
     0
  0
ENDTAB
  0
TABLE
  2
LAYER
  5
2
330
0
100
AcDbSymbolTable
 70
     1
  0
LAYER
  5
10
330
2
100
AcDbSymbolTableRecord
100
AcDbLayerTableRecord
  2
0
 70
     0
 62
     7
  6
Continuous
370
    -3
390
F
  0
ENDTAB
  0
TABLE
  2
STYLE
  5
3
330
0
100
AcDbSymbolTable
 70
     1
  0
STYLE
  5
11
330
3
100
AcDbSymbolTableRecord
100
AcDbTextStyleTableRecord
  2
Standard
 70
     0
 40
0.0
 41
1.0
 50
0.0
 71
     0
 42
3.5
  3
txt
  4

  0
ENDTAB
  0
TABLE
  2
VIEW
  5
6
330
0
100
AcDbSymbolTable
 70
     0
  0
ENDTAB
  0
TABLE
  2
UCS
  5
7
330
0
100
AcDbSymbolTable
 70
     0
  0
ENDTAB
  0
TABLE
  2
APPID
  5
9
330
0
100
AcDbSymbolTable
 70
     1
  0
APPID
  5
12
330
9
100
AcDbSymbolTableRecord
100
AcDbRegAppTableRecord
  2
ACAD
 70
     0
  0
ENDTAB
  0
TABLE
  2
DIMSTYLE
  5
A
330
0
100
AcDbSymbolTable
 70
     1
100
AcDbDimStyleTable
  0
DIMSTYLE
105
27
330
A
100
AcDbSymbolTableRecord
100
AcDbDimStyleTableRecord
  2
ISO-25
 70
     0
 41
2.5
 42
0.625
 43
3.75
 44
1.25
 73
     0
 74
     0
 77
     1
 78
     8
140
2.5
141
2.5
143
0.0393700787
147
0.625
171
     3
172
     1
178
     0
271
     2
272
     2
274
     3
278
    44
283
     0
284
     8
340
11
  0
ENDTAB
  0
TABLE
  2
BLOCK_RECORD
  5
1
330
0
100
AcDbSymbolTable
 70
     1
  0
BLOCK_RECORD
  5
1F
330
1
100
AcDbSymbolTableRecord
100
AcDbBlockTableRecord
  2
*Model_Space
340
22
  0
BLOCK_RECORD
  5
1B
330
1
100
AcDbSymbolTableRecord
100
AcDbBlockTableRecord
  2
*Paper_Space
340
1E
  0
BLOCK_RECORD
  5
23
330
1
100
AcDbSymbolTableRecord
100
AcDbBlockTableRecord
  2
*Paper_Space0
340
26
  0
ENDTAB
  0
ENDSEC
  0
SECTION
  2
BLOCKS
  0
BLOCK
  5
20
330
1F
100
AcDbEntity
  8
0
100
AcDbBlockBegin
  2
*Model_Space
 70
     0
 10
0.0
 20
0.0
 30
0.0
  3
*Model_Space
  1

  0
ENDBLK
  5
21
330
1F
100
AcDbEntity
  8
0
100
AcDbBlockEnd
  0
BLOCK
  5
1C
330
1B
100
AcDbEntity
 67
     1
  8
0
100
AcDbBlockBegin
  2
*Paper_Space
 70
     0
 10
0.0
 20
0.0
 30
0.0
  3
*Paper_Space
  1

  0
ENDBLK
  5
1D
330
1B
100
AcDbEntity
 67
     1
  8
0
100
AcDbBlockEnd
  0
BLOCK
  5
24
330
23
100
AcDbEntity
  8
0
100
AcDbBlockBegin
  2
*Paper_Space0
 70
     0
 10
0.0
 20
0.0
 30
0.0
  3
*Paper_Space0
  1

  0
ENDBLK
  5
25
330
23
100
AcDbEntity
  8
0
100
AcDbBlockEnd
  0
ENDSEC
  0
SECTION
  2
ENTITIES
  0
ARC
  5
73
330
1F
100
AcDbEntity
  8
0
  6
Continuous
 62
     7
370
    25
100
AcDbCircle
 10
564.4433501725
 20
363.028893827
 30
0.0
 40
0.5000000000001137
100
AcDbArc
 50
180.0
 51
0.0
  0
ARC
  5
74
330
1F
100
AcDbEntity
  8
0
  6
Continuous
 62
     7
370
    25
100
AcDbCircle
 10
564.4433501725
 20
374.6288938272
 30
0.0
 40
0.5
100
AcDbArc
 50
0.0
 51
180.0
  0
LINE
  5
75
330
1F
100
AcDbEntity
  8
0
  6
Continuous
 62
     7
370
    25
100
AcDbLine
 10
559.9433501725
 20
363.8288938271
 30
0.0
 11
560.1539292274
 21
363.4641602049
 31
0.0
  0
LINE
  5
76
330
1F
100
AcDbEntity
  8
0
  6
Continuous
 62
     7
370
    25
100
AcDbLine
 10
574.4021001725
 20
371.8288938271
 30
0.0
 11
565.7433501725
 21
371.8288938271
 31
0.0
  0
LINE
  5
77
330
1F
100
AcDbEntity
  8
0
  6
Continuous
 62
     7
370
    25
100
AcDbLine
 10
565.7433501725
 20
365.8288938271
 30
0.0
 11
574.4021001725
 21
365.8288938271
 31
0.0
  0
LINE
  5
78
330
1F
100
AcDbEntity
  8
0
  6
Continuous
 62
     7
370
    25
100
AcDbLine
 10
574.4021001725
 20
365.8288938271
 30
0.0
 11
574.9433501724
 21
366.3701438271
 31
0.0
  0
LINE
  5
79
330
1F
100
AcDbEntity
  8
0
  6
Continuous
 62
     7
370
    25
100
AcDbLine
 10
574.9433501724
 20
371.2876438271
 30
0.0
 11
574.4021001725
 21
371.8288938271
 31
0.0
  0
LINE
  5
7A
330
1F
100
AcDbEntity
  8
0
  6
Continuous
 62
     7
370
    25
100
AcDbLine
 10
560.1539292274
 20
374.1936274493
 30
0.0
 11
559.9433501725
 21
373.8288938271
 31
0.0
  0
ARC
  5
7B
330
1F
100
AcDbEntity
  8
0
  6
Continuous
 62
     7
370
    25
100
AcDbCircle
 10
564.4433501725
 20
349.6288938272
 30
0.0
 40
0.5000000000000135
100
AcDbArc
 50
360.0
 51
113.5781784757
  0
LINE
  5
7C
330
1F
100
AcDbEntity
  8
0
  6
Continuous
 62
     7
370
    25
100
AcDbLine
 10
574.4021001725
 20
346.8288938271
 30
0.0
 11
565.7433501725
 21
346.8288938271
 31
0.0
  0
LINE
  5
7D
330
1F
100
AcDbEntity
  8
0
  6
Continuous
 62
     7
370
    25
100
AcDbLine
 10
574.4021001725
 20
340.8288938271
 30
0.0
 11
574.9433501724
 21
341.3701438271
 31
0.0
  0
LINE
  5
7E
330
1F
100
AcDbEntity
  8
0
  6
Continuous
 62
     7
370
    25
100
AcDbLine
 10
574.9433501724
 20
346.2876438271
 30
0.0
 11
574.4021001725
 21
346.8288938271
 31
0.0
  0
ARC
  5
7F
330
1F
100
AcDbEntity
  8
0
  6
Continuous
 62
     7
370
    25
100
AcDbCircle
 10
261.0433501725
 20
349.6288938272
 30
0.0
 40
0.5
100
AcDbArc
 50
66.4218215217
 51
180.0
  0
LINE
  5
80
330
1F
100
AcDbEntity
  8
0
  6
Continuous
 62
     7
370
    25
100
AcDbLine
 10
259.7433501725
 20
346.8288938271
 30
0.0
 11
251.0846001725
 21
346.8288938271
 31
0.0
  0
LINE
  5
81
330
1F
100
AcDbEntity
  8
0
  6
Continuous
 62
     7
370
    25
100
AcDbLine
 10
251.0846001725
 20
346.8288938271
 30
0.0
 11
250.5433501725
 21
346.2876438271
 31
0.0
  0
LINE
  5
82
330
1F
100
AcDbEntity
  8
0
  6
Continuous
 62
     7
370
    25
100
AcDbLine
 10
250.5433501725
 20
341.3701438271
 30
0.0
 11
251.0846001725
 21
340.8288938271
 31
0.0
  0
ARC
  5
83
330
1F
100
AcDbEntity
  8
0
  6
Continuous
 62
     7
370
    25
100
AcDbCircle
 10
261.0433501725
 20
374.6288938272
 30
0.0
 40
0.5
100
AcDbArc
 50
0.0
 51
180.0
  0
ARC
  5
84
330
1F
100
AcDbEntity
  8
0
  6
Continuous
 62
     7
370
    25
100
AcDbCircle
 10
261.0433501725
 20
363.028893827
 30
0.0
 40
0.5
100
AcDbArc
 50
180.0
 51
0.0
  0
LINE
  5
85
330
1F
100
AcDbEntity
  8
0
  6
Continuous
 62
     7
370
    25
100
AcDbLine
 10
251.0846001725
 20
365.8288938271
 30
0.0
 11
259.7433501725
 21
365.8288938271
 31
0.0
  0
LINE
  5
86
330
1F
100
AcDbEntity
  8
0
  6
Continuous
 62
     7
370
    25
100
AcDbLine
 10
259.7433501725
 20
371.8288938271
 30
0.0
 11
251.0846001725
 21
371.8288938271
 31
0.0
  0
LINE
  5
87
330
1F
100
AcDbEntity
  8
0
  6
Continuous
 62
     7
370
    25
100
AcDbLine
 10
251.0846001725
 20
371.8288938271
 30
0.0
 11
250.5433501725
 21
371.2876438271
 31
0.0
  0
LINE
  5
88
330
1F
100
AcDbEntity
  8
0
  6
Continuous
 62
     7
370
    25
100
AcDbLine
 10
250.5433501725
 20
366.3701438271
 30
0.0
 11
251.0846001725
 21
365.8288938271
 31
0.0
  0
SPLINE
  5
89
330
1F
100
AcDbEntity
  8
0
  6
Continuous
 62
     7
370
    25
100
AcDbSpline
210
0.0
220
0.0
230
1.0
 70
    24
 71
     3
 72
    16
 73
    12
 74
     0
 42
0.000000001
 43
0.00000001
 40
0.0
 40
0.0
 40
0.0
 40
0.0
 40
0.1658292928977499
 40
0.2550981074401236
 40
0.3462613343064168
 40
0.4374245611727107
 40
0.5266933757150836
 40
0.6925226686128337
 40
0.8583519615105838
 40
0.9476207760529565
 40
1.0
 40
1.0
 40
1.0
 40
1.0
 10
563.9433501724516
 20
372.5545834517292
 30
0.0
 10
563.9433501724515
 20
371.9456756540542
 30
0.0
 10
563.9433501724515
 20
371.0089821177186
 30
0.0
 10
563.9433501724516
 20
369.5091834264827
 30
0.0
 10
563.9433501724516
 20
368.3172263466676
 30
0.0
 10
563.9433501724516
 20
367.1427980724612
 30
0.0
 10
563.9433501724516
 20
365.739184779174
 30
0.0
 10
563.9433501724516
 20
364.2718416983919
 30
0.0
 10
563.9433501724516
 20
363.3726543475711
 30
0.0
 10
563.9433501724516
 20
363.0448230204568
 30
0.0
 10
563.9433501724516
 20
363.0552134358971
 30
0.0
 10
563.9433501724516
 20
363.0590556486313
 30
0.0
  0
SPLINE
  5
8A
330
1F
100
AcDbEntity
  8
0
  6
Continuous
 62
     7
370
    25
100
AcDbSpline
210
0.0
220
0.0
230
1.0
 70
     8
 71
     3
 72
     8
 73
     4
 74
     0
 42
0.000000001
 43
0.00000001
 40
0.0
 40
0.0
 40
0.0
 40
0.0
 40
1.0
 40
1.0
 40
1.0
 40
1.0
 10
559.9433501724586
 20
369.6943883977125
 30
0.0
 10
559.9433501724586
 20
368.7239824618223
 30
0.0
 10
560.1176654728381
 20
367.7801361198913
 30
0.0
 10
560.38993215985
 20
366.8512141652646
 30
0.0
  0
SPLINE
  5
8B
330
1F
100
AcDbEntity
  8
0
  6
Continuous
 62
     7
370
    25
100
AcDbSpline
210
0.0
220
0.0
230
1.0
 70
     8
 71
     3
 72
     8
 73
     4
 74
     0
 42
0.000000001
 43
0.00000001
 40
0.0
 40
0.0
 40
0.0
 40
0.0
 40
1.0
 40
1.0
 40
1.0
 40
1.0
 10
560.38993215985
 20
372.5375626301606
 30
0.0
 10
560.1176654728386
 20
371.6086406755356
 30
0.0
 10
559.9433501724586
 20
370.664794333601
 30
0.0
 10
559.9433501724586
 20
369.6943883977125
 30
0.0
  0
LINE
  5
8C
330
1F
100
AcDbEntity
  8
0
  6
Continuous
 62
     7
370
    25
100
AcDbLine
 10
563.9433501725
 20
372.5375626302
 30
0.0
 11
560.3899321598
 21
372.5375626302
 31
0.0
  0
LINE
  5
8D
330
1F
100
AcDbEntity
  8
0
  6
Continuous
 62
     7
370
    25
100
AcDbLine
 10
563.9433501725
 20
366.8512141653
 30
0.0
 11
560.3899321598
 21
366.8512141653
 31
0.0
  0
LINE
  5
8E
330
1F
100
AcDbEntity
  8
0
  6
Continuous
 62
     7
370
    25
100
AcDbLine
 10
559.9433501725
 20
369.6943883977
 30
0.0
 11
559.9433501725
 21
364.9968797637
 31
0.0
  0
SPLINE
  5
8F
330
1F
100
AcDbEntity
  8
0
  6
Continuous
 62
     7
370
    25
100
AcDbSpline
210
0.0
220
0.0
230
1.0
 70
     8
 71
     3
 72
     8
 73
     4
 74
     0
 42
0.000000001
 43
0.00000001
 40
0.0
 40
0.0
 40
0.0
 40
0.0
 40
1.0
 40
1.0
 40
1.0
 40
1.0
 10
560.38993215985
 20
366.8512141652583
 30
0.0
 10
560.1176654728386
 20
366.2453659843272
 30
0.0
 10
559.9433501724586
 20
365.6297840331282
 30
0.0
 10
559.9433501724586
 20
364.9968797637268
 30
0.0
  0
SPLINE
  5
90
330
1F
100
AcDbEntity
  8
0
  6
Continuous
 62
     7
370
    25
100
AcDbSpline
210
0.0
220
0.0
230
1.0
 70
     8
 71
     3
 72
     8
 73
     4
 74
     0
 42
0.000000001
 43
0.00000001
 40
0.0
 40
0.0
 40
0.0
 40
0.0
 40
1.0
 40
1.0
 40
1.0
 40
1.0
 10
559.9433501724586
 20
364.9968797637268
 30
0.0
 10
559.9433501724586
 20
364.3639754943244
 30
0.0
 10
560.1176654728381
 20
363.7483935431277
 30
0.0
 10
560.38993215985
 20
363.1425453621955
 30
0.0
  0
LINE
  5
91
330
1F
100
AcDbEntity
  8
0
  6
Continuous
 62
     7
370
    25
100
AcDbLine
 10
563.9433501725
 20
363.1425453622
 30
0.0
 11
560.3899321598
 21
363.1425453622
 31
0.0
  0
LINE
  5
92
330
1F
100
AcDbEntity
  8
0
  6
Continuous
 62
     7
370
    25
100
AcDbLine
 10
559.9433501725
 20
373.5264024611
 30
0.0
 11
559.9433501725
 21
369.6943883977
 31
0.0
  0
SPLINE
  5
93
330
1F
100
AcDbEntity
  8
0
  6
Continuous
 62
     7
370
    25
100
AcDbSpline
210
0.0
220
0.0
230
1.0
 70
     8
 71
     3
 72
     8
 73
     4
 74
     0
 42
0.000000001
 43
0.00000001
 40
0.0
 40
0.0
 40
0.0
 40
0.0
 40
1.0
 40
1.0
 40
1.0
 40
1.0
 10
559.9433501724585
 20
373.5264024610821
 30
0.0
 10
559.9433501724585
 20
373.1889007945944
 30
0.0
 10
560.1176654728379
 20
372.86063640386
 30
0.0
 10
560.3899321598499
 20
372.5375626301656
 30
0.0
  0
SPLINE
  5
94
330
1F
100
AcDbEntity
  8
0
  6
Continuous
 62
     7
370
    25
100
AcDbSpline
210
0.0
220
0.0
230
1.0
 70
     8
 71
     3
 72
     8
 73
     4
 74
     0
 42
0.000000001
 43
0.00000001
 40
0.0
 40
0.0
 40
0.0
 40
0.0
 40
1.0
 40
1.0
 40
1.0
 40
1.0
 10
560.3899321598499
 20
374.5152422919984
 30
0.0
 10
560.1176654728383
 20
374.1921685183047
 30
0.0
 10
559.9433501724585
 20
373.8639041275691
 30
0.0
 10
559.9433501724585
 20
373.5264024610821
 30
0.0
  0
LINE
  5
95
330
1F
100
AcDbEntity
  8
0
  6
Continuous
 62
     7
370
    25
100
AcDbLine
 10
563.9433501725
 20
374.515242292
 30
0.0
 11
560.3899321598
 21
374.515242292
 31
0.0
  0
LINE
  5
96
330
1F
100
AcDbEntity
  8
0
  6
Continuous
 62
     7
370
    25
100
AcDbLine
 10
560.3899321598
 20
363.1425453622
 30
0.0
 11
560.2259141246
 21
363.5057207047
 31
0.0
  0
LINE
  5
97
330
1F
100
AcDbEntity
  8
0
  6
Continuous
 62
     7
370
    25
100
AcDbLine
 10
559.9433501725
 20
364.9968797637
 30
0.0
 11
559.9433501725
 21
363.8288938271
 31
0.0
  0
LINE
  5
98
330
1F
100
AcDbEntity
  8
0
  6
Continuous
 62
     7
370
    25
100
AcDbLine
 10
574.4021001725
 20
365.8288938271
 30
0.0
 11
574.4021001725
 21
371.8288938271
 31
0.0
  0
LINE
  5
99
330
1F
100
AcDbEntity
  8
0
  6
Continuous
 62
     7
370
    25
100
AcDbLine
 10
574.9433501724
 20
366.9445009114
 30
0.0
 11
574.9433501724
 21
371.2876438271
 31
0.0
  0
LINE
  5
9A
330
1F
100
AcDbEntity
  8
0
  6
Continuous
 62
     7
370
    25
100
AcDbLine
 10
574.9433501724
 20
366.3701438271
 30
0.0
 11
574.9433501724
 21
366.9445009114
 31
0.0
  0
LINE
  5
9B
330
1F
100
AcDbEntity
  8
0
  6
Continuous
 62
     7
370
    25
100
AcDbLine
 10
559.9433501725
 20
373.8288938271
 30
0.0
 11
559.9433501725
 21
373.5264024611
 31
0.0
  0
CIRCLE
  5
9C
330
1F
100
AcDbEntity
  8
0
  6
Continuous
 62
     7
370
    25
100
AcDbCircle
 10
315.2433501725
 20
315.8288938271
 30
0.0
 40
0.5
  0
SPLINE
  5
9D
330
1F
100
AcDbEntity
  8
0
  6
Continuous
 62
     7
370
    25
100
AcDbSpline
210
0.0
220
0.0
230
1.0
 70
     8
 71
     3
 72
    20
 73
    16
 74
     0
 42
0.000000001
 43
0.00000001
 40
0.0
 40
0.0
 40
0.0
 40
0.0
 40
0.1249999999999993
 40
0.1249999999999993
 40
0.2499999999999987
 40
0.2499999999999987
 40
0.374999999999998
 40
0.374999999999998
 40
0.4999999999999973
 40
0.4999999999999973
 40
0.7500000000000012
 40
0.7500000000000012
 40
0.8750000000000007
 40
0.8750000000000007
 40
1.0
 40
1.0
 40
1.0
 40
1.0
 10
607.8433501724775
 20
197.2288938270943
 30
0.0
 10
607.882390903332
 20
197.0705146394435
 30
0.0
 10
607.9209096075318
 20
196.9142689147518
 30
0.0
 10
607.9983163588398
 20
196.6062770653352
 30
0.0
 10
608.0374607768264
 20
196.4536329578641
 30
0.0
 10
608.1146115307416
 20
196.164548668677
 30
0.0
 10
608.1529391124827
 20
196.026744130493
 30
0.0
 10
608.2304854329593
 20
195.765125454854
 30
0.0
 10
608.2694616406279
 20
195.6423791481714
 30
0.0
 10
608.384956497073
 20
195.3110547712238
 30
0.0
 10
608.462868940743
 20
195.1320436471955
 30
0.0
 10
608.5783488661439
 20
194.9524285478146
 30
0.0
 10
608.6172146620089
 20
194.9061841989468
 30
0.0
 10
608.6949889956775
 20
194.8444308929356
 30
0.0
 10
608.7335987626323
 20
194.8288938270942
 30
0.0
 10
608.7726394943589
 20
194.8288938270942
 30
0.0
  0
LINE
  5
9E
330
1F
100
AcDbEntity
  8
0
  6
Continuous
 62
     7
370
    25
100
AcDbLine
 10
216.7140608506
 20
194.8288938271
 30
0.0
 11
608.7726394944
 21
194.8288938271
 31
0.0
  0
SPLINE
  5
9F
330
1F
100
AcDbEntity
  8
0
  6
Continuous
 62
     7
370
    25
100
AcDbSpline
210
0.0
220
0.0
230
1.0
 70
     8
 71
     3
 72
    20
 73
    16
 74
     0
 42
0.000000001
 43
0.00000001
 40
0.0
 40
0.0
 40
0.0
 40
0.0
 40
0.1250000000000026
 40
0.1250000000000026
 40
0.2500000000000051
 40
0.2500000000000051
 40
0.3750000000000075
 40
0.3750000000000075
 40
0.5000000000000101
 40
0.5000000000000101
 40
0.7500000000000099
 40
0.7500000000000099
 40
0.875000000000005
 40
0.875000000000005
 40
1.0
 40
1.0
 40
1.0
 40
1.0
 10
216.7140608505961
 20
194.8288938270942
 30
0.0
 10
216.7531015814506
 20
194.8288938270942
 30
0.0
 10
216.7916202856504
 20
194.8444303875691
 30
0.0
 10
216.8690270369584
 20
194.9057487395297
 30
0.0
 10
216.908171454945
 20
194.9521724851165
 30
0.0
 10
216.9853222088602
 20
195.0721233552706
 30
0.0
 10
217.0236497906014
 20
195.145727999554
 30
0.0
 10
217.1011961110778
 20
195.3204583656496
 30
0.0
 10
217.1401723187464
 20
195.4213089945511
 30
0.0
 10
217.2556671751914
 20
195.7525942745351
 30
0.0
 10
217.3335796188615
 20
196.020274435919
 30
0.0
 10
217.4490595442625
 20
196.4529484619744
 30
0.0
 10
217.4879253401275
 20
196.6044665488255
 30
0.0
 10
217.565699673796
 20
196.9138923062116
 30
0.0
 10
217.6043094407509
 20
197.0705146359054
 30
0.0
 10
217.6433501724775
 20
197.2288938270941
 30
0.0
  0
SPLINE
  5
A0
330
1F
100
AcDbEntity
  8
0
  6
Continuous
 62
     7
370
    25
100
AcDbSpline
210
0.0
220
0.0
230
1.0
 70
     8
 71
     3
 72
    20
 73
    16
 74
     0
 42
0.000000001
 43
0.00000001
 40
0.0
 40
0.0
 40
0.0
 40
0.0
 40
0.1250000000000031
 40
0.1250000000000031
 40
0.2500000000000063
 40
0.2500000000000063
 40
0.3750000000000094
 40
0.3750000000000094
 40
0.5000000000000125
 40
0.5000000000000125
 40
0.7500000000000061
 40
0.7500000000000061
 40
0.8750000000000031
 40
0.8750000000000031
 40
1.0
 40
1.0
 40
1.0
 40
1.0
 10
217.6433501724775
 20
338.428893827094
 30
0.0
 10
217.6043094416229
 20
338.5872730147448
 30
0.0
 10
217.5657907374232
 20
338.7435187394365
 30
0.0
 10
217.4883839861153
 20
339.0515105888531
 30
0.0
 10
217.4492395681285
 20
339.2041546963243
 30
0.0
 10
217.3720888142133
 20
339.4932389855113
 30
0.0
 10
217.3337612324723
 20
339.6310435236953
 30
0.0
 10
217.2562149119958
 20
339.8926621993342
 30
0.0
 10
217.2172387043271
 20
340.0154085060169
 30
0.0
 10
217.1017438478821
 20
340.3467328829646
 30
0.0
 10
217.0238314042119
 20
340.5257440069929
 30
0.0
 10
216.908351478811
 20
340.7053591063738
 30
0.0
 10
216.869485682946
 20
340.7516034552415
 30
0.0
 10
216.7917113492775
 20
340.8133567612527
 30
0.0
 10
216.7531015823227
 20
340.8288938270941
 30
0.0
 10
216.7140608505961
 20
340.8288938270941
 30
0.0
  0
LINE
  5
A1
330
1F
100
AcDbEntity
  8
0
  6
Continuous
 62
     7
370
    25
100
AcDbLine
 10
608.7726394944
 20
340.8288938271
 30
0.0
 11
216.7140608506
 21
340.8288938271
 31
0.0
  0
SPLINE
  5
A2
330
1F
100
AcDbEntity
  8
0
  6
Continuous
 62
     7
370
    25
100
AcDbSpline
210
0.0
220
0.0
230
1.0
 70
     8
 71
     3
 72
    20
 73
    16
 74
     0
 42
0.000000001
 43
0.00000001
 40
0.0
 40
0.0
 40
0.0
 40
0.0
 40
0.1249999999999988
 40
0.1249999999999988
 40
0.2499999999999976
 40
0.2499999999999976
 40
0.3749999999999964
 40
0.3749999999999964
 40
0.4999999999999952
 40
0.4999999999999952
 40
0.7500000000000001
 40
0.7500000000000001
 40
0.8750000000000001
 40
0.8750000000000001
 40
1.0
 40
1.0
 40
1.0
 40
1.0
 10
608.7726394943589
 20
340.8288938270941
 30
0.0
 10
608.7335987635045
 20
340.8288938270941
 30
0.0
 10
608.6950800593046
 20
340.8133572666193
 30
0.0
 10
608.6176733079967
 20
340.7520389146587
 30
0.0
 10
608.5785288900099
 20
340.705615169072
 30
0.0
 10
608.5013781360947
 20
340.5856642989178
 30
0.0
 10
608.4630505543538
 20
340.5120596546343
 30
0.0
 10
608.3855042338772
 20
340.3373292885387
 30
0.0
 10
608.3465280262085
 20
340.2364786596372
 30
0.0
 10
608.2310331697634
 20
339.9051933796532
 30
0.0
 10
608.1531207260933
 20
339.6375132182694
 30
0.0
 10
608.0376408006924
 20
339.204839192214
 30
0.0
 10
607.9987750048275
 20
339.0533211053628
 30
0.0
 10
607.9210006711589
 20
338.7438953479767
 30
0.0
 10
607.8823909042042
 20
338.5872730182829
 30
0.0
 10
607.8433501724775
 20
338.4288938270942
 30
0.0
  0
SPLINE
  5
A3
330
1F
100
AcDbEntity
  8
0
  6
Continuous
 62
     7
370
    25
100
AcDbSpline
210
0.0
220
0.0
230
1.0
 70
     8
 71
     3
 72
    20
 73
    16
 74
     0
 42
0.000000001
 43
0.00000001
 40
0.0
 40
0.0
 40
0.0
 40
0.0
 40
0.1250000000000002
 40
0.1250000000000002
 40
0.2500000000000002
 40
0.2500000000000002
 40
0.3750000000000002
 40
0.3750000000000002
 40
0.5000000000000001
 40
0.5000000000000001
 40
0.7500000000000001
 40
0.7500000000000001
 40
0.875
 40
0.875
 40
1.0
 40
1.0
 40
1.0
 40
1.0
 10
215.2433501724775
 20
339.3581831489755
 30
0.0
 10
215.2433501724775
 20
339.3191424181209
 30
0.0
 10
215.2588867329524
 20
339.2806237139212
 30
0.0
 10
215.320205084913
 20
339.2032169626132
 30
0.0
 10
215.3666288304998
 20
339.1640725446265
 30
0.0
 10
215.4865797006539
 20
339.0869217907114
 30
0.0
 10
215.5601843449372
 20
339.0485942089704
 30
0.0
 10
215.734914711033
 20
338.9710478884937
 30
0.0
 10
215.8357653399344
 20
338.9320716808251
 30
0.0
 10
216.1670506199183
 20
338.81657682438
 30
0.0
 10
216.4347307813023
 20
338.73866438071
 30
0.0
 10
216.8674048073576
 20
338.6231844553091
 30
0.0
 10
217.0189228942088
 20
338.584318659444
 30
0.0
 10
217.3283486515949
 20
338.5065443257755
 30
0.0
 10
217.4849709812887
 20
338.4679345588207
 30
0.0
 10
217.6433501724775
 20
338.428893827094
 30
0.0
  0
LINE
  5
A4
330
1F
100
AcDbEntity
  8
0
  6
Continuous
 62
     7
370
    25
100
AcDbLine
 10
215.2433501725
 20
339.358183149
 30
0.0
 11
216.6433501725
 21
339.358183149
 31
0.0
  0
SPLINE
  5
A5
330
1F
100
AcDbEntity
  8
0
  6
Continuous
 62
     7
370
    25
100
AcDbSpline
210
0.0
220
0.0
230
1.0
 70
     8
 71
     3
 72
    14
 73
    10
 74
     0
 42
0.000000001
 43
0.00000001
 40
0.0
 40
0.0
 40
0.0
 40
0.0
 40
0.25
 40
0.25
 40
0.5
 40
0.5
 40
0.75
 40
0.75
 40
1.0
 40
1.0
 40
1.0
 40
1.0
 10
216.6433501724775
 20
339.3581831489755
 30
0.0
 10
216.6433501724775
 20
339.2799817339538
 30
0.0
 10
216.6689088371576
 20
339.204271786657
 30
0.0
 10
216.7690368657543
 20
339.0489913750098
 30
0.0
 10
216.8426010450588
 20
338.9719815254269
 30
0.0
 10
217.0281386807506
 20
338.8165580393994
 30
0.0
 10
217.1383036017102
 20
338.739608322481
 30
0.0
 10
217.3809153583995
 20
338.5841783432318
 30
0.0
 10
217.5111647692226
 20
338.5070952346592
 30
0.0
 10
217.6433501724775
 20
338.428893827094
 30
0.0
  0
SPLINE
  5
A6
330
1F
100
AcDbEntity
  8
0
  6
Continuous
 62
     7
370
    25
100
AcDbSpline
210
0.0
220
0.0
230
1.0
 70
     8
 71
     3
 72
    20
 73
    16
 74
     0
 42
0.000000001
 43
0.00000001
 40
0.0
 40
0.0
 40
0.0
 40
0.0
 40
0.1249999999999997
 40
0.1249999999999997
 40
0.2499999999999994
 40
0.2499999999999994
 40
0.3749999999999991
 40
0.3749999999999991
 40
0.4999999999999988
 40
0.4999999999999988
 40
0.7500000000000008
 40
0.7500000000000008
 40
0.8750000000000006
 40
0.8750000000000006
 40
1.0
 40
1.0
 40
1.0
 40
1.0
 10
217.6433501724775
 20
197.2288938270942
 30
0.0
 10
217.4849709848268
 20
197.1898530962397
 30
0.0
 10
217.3287252601351
 20
197.1513343920398
 30
0.0
 10
217.0207334107185
 20
197.073927640732
 30
0.0
 10
216.8680893032473
 20
197.0347832227452
 30
0.0
 10
216.5790050140602
 20
196.95763246883
 30
0.0
 10
216.4412004758762
 20
196.919304887089
 30
0.0
 10
216.1795818002373
 20
196.8417585666125
 30
0.0
 10
216.0568354935547
 20
196.8027823589438
 30
0.0
 10
215.7255111166071
 20
196.6872875024987
 30
0.0
 10
215.5464999925788
 20
196.6093750588286
 30
0.0
 10
215.3668848931979
 20
196.4938951334278
 30
0.0
 10
215.3206405443302
 20
196.4550293375628
 30
0.0
 10
215.258887238319
 20
196.3772550038942
 30
0.0
 10
215.2433501724775
 20
196.3386452369395
 30
0.0
 10
215.2433501724775
 20
196.2996045052128
 30
0.0
  0
LINE
  5
A7
330
1F
100
AcDbEntity
  8
0
  6
Continuous
 62
     7
370
    25
100
AcDbLine
 10
215.2433501725
 20
339.358183149
 30
0.0
 11
215.2433501725
 21
196.2996045052
 31
0.0
  0
SPLINE
  5
A8
330
1F
100
AcDbEntity
  8
0
  6
Continuous
 62
     7
370
    25
100
AcDbSpline
210
0.0
220
0.0
230
1.0
 70
     8
 71
     3
 72
    20
 73
    16
 74
     0
 42
0.000000001
 43
0.00000001
 40
0.0
 40
0.0
 40
0.0
 40
0.0
 40
0.124999999999999
 40
0.124999999999999
 40
0.2499999999999981
 40
0.2499999999999981
 40
0.3749999999999971
 40
0.3749999999999971
 40
0.4999999999999961
 40
0.4999999999999961
 40
0.7499999999999968
 40
0.7499999999999968
 40
0.8749999999999984
 40
0.8749999999999984
 40
1.0
 40
1.0
 40
1.0
 40
1.0
 10
607.8433501724775
 20
338.4288938270942
 30
0.0
 10
608.0017293601283
 20
338.4679345579487
 30
0.0
 10
608.1579750848198
 20
338.5064532621485
 30
0.0
 10
608.4659669342365
 20
338.5838600134564
 30
0.0
 10
608.6186110417077
 20
338.6230044314431
 30
0.0
 10
608.9076953308947
 20
338.7001551853583
 30
0.0
 10
609.0454998690788
 20
338.7384827670993
 30
0.0
 10
609.3071185447176
 20
338.8160290875758
 30
0.0
 10
609.4298648514002
 20
338.8550052952446
 30
0.0
 10
609.7611892283479
 20
338.9705001516896
 30
0.0
 10
609.9402003523765
 20
339.0484125953597
 30
0.0
 10
610.1198154517573
 20
339.1638925207605
 30
0.0
 10
610.1660598006248
 20
339.2027583166255
 30
0.0
 10
610.227813106636
 20
339.2805326502941
 30
0.0
 10
610.2433501724776
 20
339.3191424172489
 30
0.0
 10
610.2433501724776
 20
339.3581831489755
 30
0.0
  0
SPLINE
  5
A9
330
1F
100
AcDbEntity
  8
0
  6
Continuous
 62
     7
370
    25
100
AcDbSpline
210
0.0
220
0.0
230
1.0
 70
     8
 71
     3
 72
    14
 73
    10
 74
     0
 42
0.000000001
 43
0.00000001
 40
0.0
 40
0.0
 40
0.0
 40
0.0
 40
0.2500000000000001
 40
0.2500000000000001
 40
0.5000000000000001
 40
0.5000000000000001
 40
0.7500000000000002
 40
0.7500000000000002
 40
1.0
 40
1.0
 40
1.0
 40
1.0
 10
607.8433501724775
 20
338.4288938270942
 30
0.0
 10
607.9755355883365
 20
338.5070952421158
 30
0.0
 10
608.10351760687
 20
338.5828051894127
 30
0.0
 10
608.3461416318173
 20
338.7380856010597
 30
0.0
 10
608.4565838962272
 20
338.8150954506427
 30
0.0
 10
608.6425807934206
 20
338.9705189366702
 30
0.0
 10
608.716381772259
 20
339.0474686535886
 30
0.0
 10
608.817200356654
 20
339.2028986328378
 30
0.0
 10
608.8433501724775
 20
339.2799817414104
 30
0.0
 10
608.8433501724775
 20
339.3581831489755
 30
0.0
  0
LINE
  5
AA
330
1F
100
AcDbEntity
  8
0
  6
Continuous
 62
     7
370
    25
100
AcDbLine
 10
610.2433501725
 20
339.358183149
 30
0.0
 11
608.8433501725
 21
339.358183149
 31
0.0
  0
SPLINE
  5
AB
330
1F
100
AcDbEntity
  8
0
  6
Continuous
 62
     7
370
    25
100
AcDbSpline
210
0.0
220
0.0
230
1.0
 70
     8
 71
     3
 72
    14
 73
    10
 74
     0
 42
0.000000001
 43
0.00000001
 40
0.0
 40
0.0
 40
0.0
 40
0.0
 40
0.2499999999999999
 40
0.2499999999999999
 40
0.4999999999999999
 40
0.4999999999999999
 40
0.7499999999999998
 40
0.7499999999999998
 40
1.0
 40
1.0
 40
1.0
 40
1.0
 10
607.8433501724775
 20
197.2288938270942
 30
0.0
 10
607.9215515874992
 20
197.0967084112353
 30
0.0
 10
607.997261534796
 20
196.9687263927017
 30
0.0
 10
608.1525419464431
 20
196.7261023677544
 30
0.0
 10
608.2295517960262
 20
196.6156601033444
 30
0.0
 10
608.3849752820536
 20
196.4296632061511
 30
0.0
 10
608.461924998972
 20
196.3558622273127
 30
0.0
 10
608.617354978221
 20
196.2550436429176
 30
0.0
 10
608.6944380867936
 20
196.2288938270942
 30
0.0
 10
608.7726394943589
 20
196.2288938270942
 30
0.0
  0
LINE
  5
AC
330
1F
100
AcDbEntity
  8
0
  6
Continuous
 62
     7
370
    25
100
AcDbLine
 10
608.7726394944
 20
194.8288938271
 30
0.0
 11
608.7726394944
 21
196.2288938271
 31
0.0
  0
LINE
  5
AD
330
1F
100
AcDbEntity
  8
0
  6
Continuous
 62
     7
370
    25
100
AcDbLine
 10
610.2433501725
 20
196.2996045052
 30
0.0
 11
610.2433501725
 21
339.358183149
 31
0.0
  0
SPLINE
  5
AE
330
1F
100
AcDbEntity
  8
0
  6
Continuous
 62
     7
370
    25
100
AcDbSpline
210
0.0
220
0.0
230
1.0
 70
     8
 71
     3
 72
    20
 73
    16
 74
     0
 42
0.000000001
 43
0.00000001
 40
0.0
 40
0.0
 40
0.0
 40
0.0
 40
0.1249999999999994
 40
0.1249999999999994
 40
0.2499999999999987
 40
0.2499999999999987
 40
0.3749999999999981
 40
0.3749999999999981
 40
0.4999999999999974
 40
0.4999999999999974
 40
0.7499999999999987
 40
0.7499999999999987
 40
0.8749999999999993
 40
0.8749999999999993
 40
1.0
 40
1.0
 40
1.0
 40
1.0
 10
610.2433501724776
 20
196.2996045052129
 30
0.0
 10
610.2433501724776
 20
196.3386452360674
 30
0.0
 10
610.2278136120026
 20
196.3771639402672
 30
0.0
 10
610.1664952600421
 20
196.4545706915751
 30
0.0
 10
610.1200715144553
 20
196.4937151095618
 30
0.0
 10
610.0001206443011
 20
196.570865863477
 30
0.0
 10
609.9265160000178
 20
196.609193445218
 30
0.0
 10
609.751785633922
 20
196.6867397656946
 30
0.0
 10
609.6509350050205
 20
196.7257159733632
 30
0.0
 10
609.3196497250365
 20
196.8412108298083
 30
0.0
 10
609.0519695636527
 20
196.9191232734784
 30
0.0
 10
608.6192955375973
 20
197.0346031988793
 30
0.0
 10
608.4677774507461
 20
197.0734689947443
 30
0.0
 10
608.1583516933599
 20
197.1512433284128
 30
0.0
 10
608.0017293636663
 20
197.1898530953676
 30
0.0
 10
607.8433501724775
 20
197.2288938270943
 30
0.0
  0
SPLINE
  5
AF
330
1F
100
AcDbEntity
  8
0
  6
Continuous
 62
     7
370
    25
100
AcDbSpline
210
0.0
220
0.0
230
1.0
 70
     8
 71
     3
 72
    14
 73
    10
 74
     0
 42
0.000000001
 43
0.00000001
 40
0.0
 40
0.0
 40
0.0
 40
0.0
 40
0.2499999999999999
 40
0.2499999999999999
 40
0.4999999999999999
 40
0.4999999999999999
 40
0.7499999999999998
 40
0.7499999999999998
 40
1.0
 40
1.0
 40
1.0
 40
1.0
 10
217.6433501724775
 20
338.428893827094
 30
0.0
 10
217.5651487574558
 20
338.561079242953
 30
0.0
 10
217.4894388101589
 20
338.6890612614866
 30
0.0
 10
217.3341583985119
 20
338.9316852864339
 30
0.0
 10
217.2571485489288
 20
339.0421275508439
 30
0.0
 10
217.1017250629015
 20
339.2281244480372
 30
0.0
 10
217.024775345983
 20
339.3019254268755
 30
0.0
 10
216.8693453667339
 20
339.4027440112706
 30
0.0
 10
216.7922622581612
 20
339.428893827094
 30
0.0
 10
216.7140608505961
 20
339.428893827094
 30
0.0
  0
LINE
  5
B0
330
1F
100
AcDbEntity
  8
0
  6
Continuous
 62
     7
370
    25
100
AcDbLine
 10
216.7140608506
 20
340.8288938271
 30
0.0
 11
216.7140608506
 21
339.4288938271
 31
0.0
  0
SPLINE
  5
B1
330
1F
100
AcDbEntity
  8
0
  6
Continuous
 62
     7
370
    25
100
AcDbSpline
210
0.0
220
0.0
230
1.0
 70
     8
 71
     3
 72
    14
 73
    10
 74
     0
 42
0.000000001
 43
0.00000001
 40
0.0
 40
0.0
 40
0.0
 40
0.0
 40
0.2499999999999999
 40
0.2499999999999999
 40
0.4999999999999999
 40
0.4999999999999999
 40
0.7499999999999998
 40
0.7499999999999998
 40
1.0
 40
1.0
 40
1.0
 40
1.0
 10
217.6433501724775
 20
197.2288938270942
 30
0.0
 10
217.5111647566185
 20
197.1506924120726
 30
0.0
 10
217.383182738085
 20
197.0749824647756
 30
0.0
 10
217.1405587131376
 20
196.9197020531286
 30
0.0
 10
217.0301164487275
 20
196.8426922035456
 30
0.0
 10
216.8441195515343
 20
196.6872687175181
 30
0.0
 10
216.7703185726961
 20
196.6103190005997
 30
0.0
 10
216.669499988301
 20
196.4548890213505
 30
0.0
 10
216.6433501724776
 20
196.3778059127779
 30
0.0
 10
216.6433501724775
 20
196.2996045052128
 30
0.0
  0
LINE
  5
B2
330
1F
100
AcDbEntity
  8
0
  6
Continuous
 62
     7
370
    25
100
AcDbLine
 10
215.2433501725
 20
196.2996045052
 30
0.0
 11
216.6433501725
 21
196.2996045052
 31
0.0
  0
LINE
  5
B3
330
1F
100
AcDbEntity
  8
0
  6
Continuous
 62
     7
370
    25
100
AcDbLine
 10
610.2433501725
 20
196.2996045052
 30
0.0
 11
608.8433501725
 21
196.2996045052
 31
0.0
  0
SPLINE
  5
B4
330
1F
100
AcDbEntity
  8
0
  6
Continuous
 62
     7
370
    25
100
AcDbSpline
210
0.0
220
0.0
230
1.0
 70
     8
 71
     3
 72
    14
 73
    10
 74
     0
 42
0.000000001
 43
0.00000001
 40
0.0
 40
0.0
 40
0.0
 40
0.0
 40
0.2499999999999998
 40
0.2499999999999998
 40
0.4999999999999999
 40
0.4999999999999999
 40
0.7499999999999999
 40
0.7499999999999999
 40
1.0
 40
1.0
 40
1.0
 40
1.0
 10
608.8433501724775
 20
196.2996045052129
 30
0.0
 10
608.8433501724775
 20
196.3778059202345
 30
0.0
 10
608.8177915077972
 20
196.4535158675314
 30
0.0
 10
608.7176634792004
 20
196.6087962791784
 30
0.0
 10
608.6440992998961
 20
196.6858061287615
 30
0.0
 10
608.4585616642042
 20
196.8412296147889
 30
0.0
 10
608.3483967432448
 20
196.9181793317073
 30
0.0
 10
608.1057849865555
 20
197.0736093109565
 30
0.0
 10
607.9755355757325
 20
197.1506924195292
 30
0.0
 10
607.8433501724775
 20
197.2288938270943
 30
0.0
  0
LINE
  5
B5
330
1F
100
AcDbEntity
  8
0
  6
Continuous
 62
     7
370
    25
100
AcDbLine
 10
216.7140608506
 20
194.8288938271
 30
0.0
 11
216.7140608506
 21
196.2288938271
 31
0.0
  0
SPLINE
  5
B6
330
1F
100
AcDbEntity
  8
0
  6
Continuous
 62
     7
370
    25
100
AcDbSpline
210
0.0
220
0.0
230
1.0
 70
     8
 71
     3
 72
    14
 73
    10
 74
     0
 42
0.000000001
 43
0.00000001
 40
0.0
 40
0.0
 40
0.0
 40
0.0
 40
0.2500000000000002
 40
0.2500000000000002
 40
0.5000000000000001
 40
0.5000000000000001
 40
0.7500000000000001
 40
0.7500000000000001
 40
1.0
 40
1.0
 40
1.0
 40
1.0
 10
216.7140608505961
 20
196.2288938270942
 30
0.0
 10
216.7922622656177
 20
196.2288938270942
 30
0.0
 10
216.8679722129147
 20
196.2544524917745
 30
0.0
 10
217.0232526245617
 20
196.3545805203712
 30
0.0
 10
217.1002624741447
 20
196.4281446996755
 30
0.0
 10
217.2556859601721
 20
196.6136823353673
 30
0.0
 10
217.3326356770905
 20
196.7238472563268
 30
0.0
 10
217.4880656563398
 20
196.9664590130162
 30
0.0
 10
217.5651487649125
 20
197.0967084238393
 30
0.0
 10
217.6433501724775
 20
197.2288938270942
 30
0.0
  0
LINE
  5
B7
330
1F
100
AcDbEntity
  8
0
  6
Continuous
 62
     7
370
    25
100
AcDbLine
 10
608.7726394944
 20
340.8288938271
 30
0.0
 11
608.7726394944
 21
339.4288938271
 31
0.0
  0
SPLINE
  5
B8
330
1F
100
AcDbEntity
  8
0
  6
Continuous
 62
     7
370
    25
100
AcDbSpline
210
0.0
220
0.0
230
1.0
 70
     8
 71
     3
 72
    14
 73
    10
 74
     0
 42
0.000000001
 43
0.00000001
 40
0.0
 40
0.0
 40
0.0
 40
0.0
 40
0.25
 40
0.25
 40
0.5
 40
0.5
 40
0.75
 40
0.75
 40
1.0
 40
1.0
 40
1.0
 40
1.0
 10
608.7726394943589
 20
339.428893827094
 30
0.0
 10
608.6944380793373
 20
339.428893827094
 30
0.0
 10
608.6187281320404
 20
339.4033351624138
 30
0.0
 10
608.4634477203933
 20
339.3032071338171
 30
0.0
 10
608.3864378708103
 20
339.2296429545129
 30
0.0
 10
608.2310143847827
 20
339.044105318821
 30
0.0
 10
608.1540646678645
 20
338.9339403978615
 30
0.0
 10
607.9986346886152
 20
338.6913286411721
 30
0.0
 10
607.9215515800425
 20
338.561079230349
 30
0.0
 10
607.8433501724775
 20
338.4288938270942
 30
0.0
  0
CIRCLE
  5
B9
330
1F
100
AcDbEntity
  8
0
  6
Continuous
 62
     7
370
    25
100
AcDbCircle
 10
271.2433501725
 20
267.8288938271
 30
0.0
 40
5.500000000000119
  0
ARC
  5
BA
330
1F
100
AcDbEntity
  8
0
  6
Continuous
 62
     7
370
    25
100
AcDbCircle
 10
273.4233600741
 20
268.8858299419
 30
0.0
 40
0.5050994627335083
100
AcDbArc
 50
298.8005827702
 51
112.9304972368
  0
ARC
  5
BB
330
1F
100
AcDbEntity
  8
0
  6
Continuous
 62
     7
370
    25
100
AcDbCircle
 10
271.2433501725
 20
267.8288938271
 30
0.0
 40
2.500000000000008
100
AcDbArc
 50
37.506301084
 51
74.2247789229
  0
ARC
  5
BC
330
1F
100
AcDbEntity
  8
0
  6
Continuous
 62
     7
370
    25
100
AcDbCircle
 10
271.4180215977
 20
270.2453058398
 30
0.0
 40
0.5050994627349636
100
AcDbArc
 50
358.800582771
 51
172.930497236
  0
ARC
  5
BD
330
1F
100
AcDbEntity
  8
0
  6
Continuous
 62
     7
370
    25
100
AcDbCircle
 10
271.2433501725
 20
267.8288938271
 30
0.0
 40
2.499999999999943
100
AcDbArc
 50
97.5063010841
 51
134.2247789229
  0
ARC
  5
BE
330
1F
100
AcDbEntity
  8
0
  6
Continuous
 62
     7
370
    25
100
AcDbCircle
 10
269.2380116961
 20
269.188369725
 30
0.0
 40
0.5050994627351415
100
AcDbArc
 50
58.8005827697
 51
232.9304972372
  0
ARC
  5
BF
330
1F
100
AcDbEntity
  8
0
  6
Continuous
 62
     7
370
    25
100
AcDbCircle
 10
271.2433501725
 20
267.8288938271
 30
0.0
 40
2.499999999999907
100
AcDbArc
 50
157.5063010841
 51
194.2247789229
  0
ARC
  5
C0
330
1F
100
AcDbEntity
  8
0
  6
Continuous
 62
     7
370
    25
100
AcDbCircle
 10
269.0633402709
 20
266.7719577123
 30
0.0
 40
0.5050994627333474
100
AcDbArc
 50
118.8005827707
 51
292.9304972361
  0
ARC
  5
C1
330
1F
100
AcDbEntity
  8
0
  6
Continuous
 62
     7
370
    25
100
AcDbCircle
 10
271.2433501725
 20
267.8288938271
 30
0.0
 40
2.499999999999968
100
AcDbArc
 50
217.506301084
 51
254.2247789229
  0
ARC
  5
C2
330
1F
100
AcDbEntity
  8
0
  6
Continuous
 62
     7
370
    25
100
AcDbCircle
 10
271.0686787473
 20
265.4124818144
 30
0.0
 40
0.5050994627366077
100
AcDbArc
 50
178.8005827716
 51
352.9304972354
  0
ARC
  5
C3
330
1F
100
AcDbEntity
  8
0
  6
Continuous
 62
     7
370
    25
100
AcDbCircle
 10
271.2433501725
 20
267.8288938271
 30
0.0
 40
2.499999999999995
100
AcDbArc
 50
277.5063010841
 51
314.2247789229
  0
ARC
  5
C4
330
1F
100
AcDbEntity
  8
0
  6
Continuous
 62
     7
370
    25
100
AcDbCircle
 10
273.2486886489
 20
266.4694179292
 30
0.0
 40
0.5050994627355169
100
AcDbArc
 50
238.8005827701
 51
52.9304972368
  0
ARC
  5
C5
330
1F
100
AcDbEntity
  8
0
  6
Continuous
 62
     7
370
    25
100
AcDbCircle
 10
271.2433501725
 20
267.8288938271
 30
0.0
 40
2.499999999999968
100
AcDbArc
 50
337.5063010841
 51
14.2247789229
  0
CIRCLE
  5
C6
330
1F
100
AcDbEntity
  8
0
  6
Continuous
 62
     7
370
    25
100
AcDbCircle
 10
554.2433501725
 20
267.8288938271
 30
0.0
 40
5.500000000000139
  0
ARC
  5
C7
330
1F
100
AcDbEntity
  8
0
  6
Continuous
 62
     7
370
    25
100
AcDbCircle
 10
554.27601703
 20
270.2513904728
 30
0.0
 40
0.5050994627334843
100
AcDbArc
 50
2.1624680629
 51
176.2923825295
  0
ARC
  5
C8
330
1F
100
AcDbEntity
  8
0
  6
Continuous
 62
     7
370
    25
100
AcDbCircle
 10
554.2433501725
 20
267.8288938271
 30
0.0
 40
2.499999999999936
100
AcDbArc
 50
100.8681863767
 51
137.5866642156
  0
ARC
  5
C9
330
1F
100
AcDbEntity
  8
0
  6
Continuous
 62
     7
370
    25
100
AcDbCircle
 10
552.1617399655
 20
269.0684324784
 30
0.0
 40
0.5050994627349373
100
AcDbArc
 50
62.1624680637
 51
236.2923825287
  0
ARC
  5
CA
330
1F
100
AcDbEntity
  8
0
  6
Continuous
 62
     7
370
    25
100
AcDbCircle
 10
554.2433501725
 20
267.8288938271
 30
0.0
 40
2.499999999999921
100
AcDbArc
 50
160.8681863768
 51
197.5866642156
  0
ARC
  5
CB
330
1F
100
AcDbEntity
  8
0
  6
Continuous
 62
     7
370
    25
100
AcDbCircle
 10
552.129073108
 20
266.6459358327
 30
0.0
 40
0.5050994627351924
100
AcDbArc
 50
122.1624680624
 51
296.2923825299
  0
ARC
  5
CC
330
1F
100
AcDbEntity
  8
0
  6
Continuous
 62
     7
370
    25
100
AcDbCircle
 10
554.2433501725
 20
267.8288938271
 30
0.0
 40
2.499999999999941
100
AcDbArc
 50
220.8681863768
 51
257.5866642156
  0
ARC
  5
CD
330
1F
100
AcDbEntity
  8
0
  6
Continuous
 62
     7
370
    25
100
AcDbCircle
 10
554.210683315
 20
265.4063971814
 30
0.0
 40
0.5050994627333789
100
AcDbArc
 50
182.1624680634
 51
356.2923825288
  0
ARC
  5
CE
330
1F
100
AcDbEntity
  8
0
  6
Continuous
 62
     7
370
    25
100
AcDbCircle
 10
554.2433501725
 20
267.8288938271
 30
0.0
 40
2.499999999999967
100
AcDbArc
 50
280.8681863767
 51
317.5866642156
  0
ARC
  5
CF
330
1F
100
AcDbEntity
  8
0
  6
Continuous
 62
     7
370
    25
100
AcDbCircle
 10
556.3249603795
 20
266.5893551758
 30
0.0
 40
0.50509946273661
100
AcDbArc
 50
242.1624680643
 51
56.2923825281
  0
ARC
  5
D0
330
1F
100
AcDbEntity
  8
0
  6
Continuous
 62
     7
370
    25
100
AcDbCircle
 10
556.357627237
 20
269.0118518215
 30
0.0
 40
0.505099462735479
100
AcDbArc
 50
302.1624680628
 51
116.2923825295
  0
ARC
  5
D1
330
1F
100
AcDbEntity
  8
0
  6
Continuous
 62
     7
370
    25
100
AcDbCircle
 10
554.2433501725
 20
267.8288938271
 30
0.0
 40
2.500000000000023
100
AcDbArc
 50
40.8681863768
 51
77.5866642156
  0
ARC
  5
D2
330
1F
100
AcDbEntity
  8
0
  6
Continuous
 62
     7
370
    25
100
AcDbCircle
 10
554.2433501725
 20
267.8288938271
 30
0.0
 40
2.499999999999999
100
AcDbArc
 50
340.8681863768
 51
17.5866642156
  0
LINE
  5
D3
330
1F
100
AcDbEntity
  8
0
  6
Continuous
 62
     7
370
    25
100
AcDbLine
 10
259.7433501725
 20
375.3288938271
 30
0.0
 11
260.5433501725
 21
375.3288938271
 31
0.0
  0
LINE
  5
D4
330
1F
100
AcDbEntity
  8
0
  6
Continuous
 62
     7
370
    25
100
AcDbLine
 10
259.7433501725
 20
372.3288938271
 30
0.0
 11
259.7433501725
 21
375.3288938271
 31
0.0
  0
LINE
  5
D5
330
1F
100
AcDbEntity
  8
0
  6
Continuous
 62
     7
370
    25
100
AcDbLine
 10
260.5433501725
 20
375.3288938271
 30
0.0
 11
260.5433501725
 21
372.3288938271
 31
0.0
  0
LINE
  5
D6
330
1F
100
AcDbEntity
  8
0
  6
Continuous
 62
     7
370
    25
100
AcDbLine
 10
259.7433501725
 20
355.3288938271
 30
0.0
 11
260.5433501725
 21
355.3288938271
 31
0.0
  0
LINE
  5
D7
330
1F
100
AcDbEntity
  8
0
  6
Continuous
 62
     7
370
    25
100
AcDbLine
 10
259.7433501725
 20
355.3288938271
 30
0.0
 11
259.7433501725
 21
372.3288938271
 31
0.0
  0
LINE
  5
D8
330
1F
100
AcDbEntity
  8
0
  6
Continuous
 62
     7
370
    25
100
AcDbLine
 10
260.5433501725
 20
355.3288938271
 30
0.0
 11
260.5433501725
 21
372.3288938271
 31
0.0
  0
LINE
  5
D9
330
1F
100
AcDbEntity
  8
0
  6
Continuous
 62
     7
370
    25
100
AcDbLine
 10
564.9433501725
 20
372.3288938271
 30
0.0
 11
564.9433501725
 21
375.3288938271
 31
0.0
  0
LINE
  5
DA
330
1F
100
AcDbEntity
  8
0
  6
Continuous
 62
     7
370
    25
100
AcDbLine
 10
564.9433501725
 20
375.3288938271
 30
0.0
 11
565.7433501725
 21
375.3288938271
 31
0.0
  0
LINE
  5
DB
330
1F
100
AcDbEntity
  8
0
  6
Continuous
 62
     7
370
    25
100
AcDbLine
 10
565.7433501725
 20
375.3288938271
 30
0.0
 11
565.7433501725
 21
372.3288938271
 31
0.0
  0
LINE
  5
DC
330
1F
100
AcDbEntity
  8
0
  6
Continuous
 62
     7
370
    25
100
AcDbLine
 10
564.9433501725
 20
372.3288938271
 30
0.0
 11
564.9433501725
 21
355.3288938271
 31
0.0
  0
LINE
  5
DD
330
1F
100
AcDbEntity
  8
0
  6
Continuous
 62
     7
370
    25
100
AcDbLine
 10
565.7433501725
 20
372.3288938271
 30
0.0
 11
565.7433501725
 21
355.3288938271
 31
0.0
  0
LINE
  5
DE
330
1F
100
AcDbEntity
  8
0
  6
Continuous
 62
     7
370
    25
100
AcDbLine
 10
565.7433501725
 20
355.3288938271
 30
0.0
 11
564.9433501725
 21
355.3288938271
 31
0.0
  0
LINE
  5
DF
330
1F
100
AcDbEntity
  8
0
  6
Continuous
 62
     7
370
    25
100
AcDbLine
 10
259.7433501725
 20
340.8288938271
 30
0.0
 11
259.7433501725
 21
355.3288938271
 31
0.0
  0
LINE
  5
E0
330
1F
100
AcDbEntity
  8
0
  6
Continuous
 62
     7
370
    25
100
AcDbLine
 10
260.5433501725
 20
340.8288938271
 30
0.0
 11
260.5433501725
 21
352.1288938271
 31
0.0
  0
LINE
  5
E1
330
1F
100
AcDbEntity
  8
0
  6
Continuous
 62
     7
370
    25
100
AcDbLine
 10
260.5433501725
 20
353.8288938271
 30
0.0
 11
260.5433501725
 21
355.3288938271
 31
0.0
  0
LINE
  5
E2
330
1F
100
AcDbEntity
  8
0
  6
Continuous
 62
     7
370
    25
100
AcDbLine
 10
564.9433501725
 20
355.3288938271
 30
0.0
 11
564.9433501725
 21
353.8288938271
 31
0.0
  0
LINE
  5
E3
330
1F
100
AcDbEntity
  8
0
  6
Continuous
 62
     7
370
    25
100
AcDbLine
 10
564.9433501725
 20
352.1288938271
 30
0.0
 11
564.9433501725
 21
340.8288938271
 31
0.0
  0
LINE
  5
E4
330
1F
100
AcDbEntity
  8
0
  6
Continuous
 62
     7
370
    25
100
AcDbLine
 10
565.7433501725
 20
355.3288938271
 30
0.0
 11
565.7433501725
 21
340.8288938271
 31
0.0
  0
LINE
  5
E5
330
1F
100
AcDbEntity
  8
0
  6
Continuous
 62
     7
370
    25
100
AcDbLine
 10
574.4021001725
 20
340.8288938271
 30
0.0
 11
574.4021001725
 21
346.8288938271
 31
0.0
  0
LINE
  5
E6
330
1F
100
AcDbEntity
  8
0
  6
Continuous
 62
     7
370
    25
100
AcDbLine
 10
574.9433501724
 20
341.9445009114
 30
0.0
 11
574.9433501724
 21
346.2876438271
 31
0.0
  0
LINE
  5
E7
330
1F
100
AcDbEntity
  8
0
  6
Continuous
 62
     7
370
    25
100
AcDbLine
 10
574.9433501724
 20
341.3701438271
 30
0.0
 11
574.9433501724
 21
341.9445009114
 31
0.0
  0
LINE
  5
E8
330
1F
100
AcDbEntity
  8
0
  6
Continuous
 62
     7
370
    25
100
AcDbLine
 10
260.3224199399
 20
353.8288938271
 30
0.0
 11
565.164280405
 21
353.8288938271
 31
0.0
  0
LINE
  5
E9
330
1F
100
AcDbEntity
  8
0
  6
Continuous
 62
     7
370
    25
100
AcDbLine
 10
260.3224199399
 20
352.1288938271
 30
0.0
 11
565.164280405
 21
352.1288938271
 31
0.0
  0
ELLIPSE
  5
EA
330
1F
100
AcDbEntity
  8
0
  6
Continuous
 62
     7
370
    25
100
AcDbEllipse
 10
260.3224199399
 20
352.9788938271
 30
0.0
 11
0.0
 21
0.8500000000000227
 31
0.0
210
0.0
220
0.0
230
1.0
 40
0.0930232558
 41
0.0
 42
3.141592653589792
  0
ELLIPSE
  5
EB
330
1F
100
AcDbEntity
  8
0
  6
Continuous
 62
     7
370
    25
100
AcDbEllipse
 10
565.164280405
 20
352.9788938271
 30
0.0
 11
0.0
 21
0.8500000000000227
 31
0.0
210
0.0
220
0.0
230
1.0
 40
0.0930232558
 41
3.141592653589792
 42
6.283185307179586
  0
LINE
  5
EC
330
1F
100
AcDbEntity
  8
0
  6
Continuous
 62
     7
370
    25
100
AcDbLine
 10
564.2433501725
 20
352.0288938271
 30
0.0
 11
564.2433501725
 21
352.1288938271
 31
0.0
  0
LINE
  5
ED
330
1F
100
AcDbEntity
  8
0
  6
Continuous
 62
     7
370
    25
100
AcDbLine
 10
261.2433501725
 20
352.1288938271
 30
0.0
 11
261.2433501725
 21
352.0288938271
 31
0.0
  0
LINE
  5
EE
330
1F
100
AcDbEntity
  8
0
  6
Continuous
 62
     7
370
    25
100
AcDbLine
 10
564.2433501725
 20
340.8288938271
 30
0.0
 11
564.2433501725
 21
352.0288938271
 31
0.0
  0
LINE
  5
EF
330
1F
100
AcDbEntity
  8
0
  6
Continuous
 62
     7
370
    25
100
AcDbLine
 10
261.2433501725
 20
352.0288938271
 30
0.0
 11
261.2433501725
 21
340.8288938271
 31
0.0
  0
LINE
  5
F0
330
1F
100
AcDbEntity
  8
0
  6
Continuous
 62
     7
370
    25
100
AcDbLine
 10
251.0846001725
 20
345.1252596734
 30
0.0
 11
251.0846001725
 21
340.8288938271
 31
0.0
  0
LINE
  5
F1
330
1F
100
AcDbEntity
  8
0
  6
Continuous
 62
     7
370
    25
100
AcDbLine
 10
251.0846001725
 20
346.8288938271
 30
0.0
 11
251.0846001725
 21
345.1252596734
 31
0.0
  0
LINE
  5
F2
330
1F
100
AcDbEntity
  8
0
  6
Continuous
 62
     7
370
    25
100
AcDbLine
 10
250.5433501725
 20
346.2876438271
 30
0.0
 11
250.5433501725
 21
341.3701438271
 31
0.0
  0
ARC
  5
F3
330
1F
100
AcDbEntity
  8
0
  6
Continuous
 62
     7
370
    25
100
AcDbCircle
 10
554.0688164876
 20
345.4051078378
 30
0.0
 40
12.03669752943415
100
AcDbArc
 50
186.2565722694
 51
191.9710500657
  0
ARC
  5
F4
330
1F
100
AcDbEntity
  8
0
  6
Continuous
 62
     7
370
    25
100
AcDbCircle
 10
542.6671361618
 20
353.6543601421
 30
0.0
 40
12.03669752934491
100
AcDbArc
 50
276.2565722694
 51
281.9710500657
  0
ARC
  5
F5
330
1F
100
AcDbEntity
  8
0
  6
Continuous
 62
     7
370
    25
100
AcDbCircle
 10
534.4178838574
 20
342.2526798165
 30
0.0
 40
12.03669752932848
100
AcDbArc
 50
6.2565722693
 51
11.9710500657
  0
LINE
  5
F6
330
1F
100
AcDbEntity
  8
0
  6
Continuous
 62
     7
370
    25
100
AcDbLine
 10
544.5077940522
 20
345.9684325909
 30
0.0
 11
544.7407379174
 21
344.516356867
 31
0.0
  0
ARC
  5
F7
330
1F
100
AcDbEntity
  8
0
  6
Continuous
 62
     7
370
    25
100
AcDbCircle
 10
545.8195641831
 20
334.003427512
 30
0.0
 40
12.03669752936343
100
AcDbArc
 50
96.2565722694
 51
101.9710500657
  0
ARC
  5
F8
330
1F
100
AcDbEntity
  8
0
  6
Continuous
 62
     7
370
    25
100
AcDbCircle
 10
544.2433501725
 20
343.8288938271
 30
0.0
 40
4.000000000000017
100
AcDbArc
 50
311.4096221093
 51
99.1138111675
  0
ARC
  5
F9
330
1F
100
AcDbEntity
  8
0
  6
Continuous
 62
     7
370
    25
100
AcDbCircle
 10
544.2433501725
 20
343.8288938271
 30
0.0
 40
4.000000000000091
100
AcDbArc
 50
99.1138111675
 51
228.5903778907
  0
LINE
  5
FA
330
1F
100
AcDbEntity
  8
0
  6
Continuous
 62
     7
370
    25
100
AcDbLine
 10
544.7407379174
 20
344.516356867
 30
0.0
 11
546.1928136414
 21
344.7493007321
 31
0.0
  0
LINE
  5
FB
330
1F
100
AcDbEntity
  8
0
  6
Continuous
 62
     7
370
    25
100
AcDbLine
 10
543.3229432674
 20
345.778357296
 30
0.0
 11
543.5558871326
 21
344.326281572
 31
0.0
  0
LINE
  5
FC
330
1F
100
AcDbEntity
  8
0
  6
Continuous
 62
     7
370
    25
100
AcDbLine
 10
543.7459624275
 20
343.1414307872
 30
0.0
 11
543.9789062927
 21
341.6893550633
 31
0.0
  0
LINE
  5
FD
330
1F
100
AcDbEntity
  8
0
  6
Continuous
 62
     7
370
    25
100
AcDbLine
 10
542.2938867036
 20
342.9084869221
 30
0.0
 11
543.7459624275
 21
343.1414307872
 31
0.0
  0
LINE
  5
FE
330
1F
100
AcDbEntity
  8
0
  6
Continuous
 62
     7
370
    25
100
AcDbLine
 10
542.1038114087
 20
344.0933377069
 30
0.0
 11
543.5558871326
 21
344.326281572
 31
0.0
  0
LINE
  5
FF
330
1F
100
AcDbEntity
  8
0
  6
Continuous
 62
     7
370
    25
100
AcDbLine
 10
544.9308132123
 20
343.3315060821
 30
0.0
 11
546.3828889363
 21
343.5644499473
 31
0.0
  0
LINE
  5
100
330
1F
100
AcDbEntity
  8
0
  6
Continuous
 62
     7
370
    25
100
AcDbLine
 10
544.9308132123
 20
343.3315060821
 30
0.0
 11
545.1637570775
 21
341.8794303582
 31
0.0
  0
LINE
  5
101
330
1F
100
AcDbEntity
  8
0
  6
Continuous
 62
     7
370
    25
100
AcDbLine
 10
544.8888442655
 20
344.5401162788
 30
0.0
 11
545.0789195604
 21
343.355265494
 31
0.0
  0
LINE
  5
102
330
1F
100
AcDbEntity
  8
0
  6
Continuous
 62
     7
370
    25
100
AcDbLine
 10
544.7169785056
 20
344.6644632151
 30
0.0
 11
543.5321277208
 21
344.4743879201
 31
0.0
  0
LINE
  5
103
330
1F
100
AcDbEntity
  8
0
  6
Continuous
 62
     7
370
    25
100
AcDbLine
 10
544.9545726242
 20
343.183399734
 30
0.0
 11
543.7697218394
 21
342.9933244391
 31
0.0
  0
LINE
  5
104
330
1F
100
AcDbEntity
  8
0
  6
Continuous
 62
     7
370
    25
100
AcDbLine
 10
543.4077807845
 20
344.3025221602
 30
0.0
 11
543.5978560794
 21
343.1176713754
 31
0.0
  0
ARC
  5
105
330
1F
100
AcDbEntity
  8
0
  6
Continuous
 62
     7
370
    25
100
AcDbCircle
 10
422.5688164875
 20
344.4051078377
 30
0.0
 40
12.03669752932624
100
AcDbArc
 50
186.2565722693
 51
191.9710500657
  0
LWPOLYLINE
  5
106
330
1F
100
AcDbEntity
  8
0
  6
Continuous
 62
     7
370
    25
100
AcDbPolyline
 90
        3
 70
   128
 43
0.0
 10
413.4122361971
 20
340.8288938271
 10
413.516901794
 20
340.8492445809
 10
413.6637570775
 20
340.8794303582
  0
LINE
  5
107
330
1F
100
AcDbEntity
  8
0
  6
Continuous
 62
     7
370
    25
100
AcDbLine
 10
413.4308132123
 20
342.3315060821
 30
0.0
 11
414.8828889363
 21
342.5644499473
 31
0.0
  0
ARC
  5
108
330
1F
100
AcDbEntity
  8
0
  6
Continuous
 62
     7
370
    25
100
AcDbCircle
 10
402.9178838575
 20
341.2526798165
 30
0.0
 40
12.03669752930117
100
AcDbArc
 50
6.2565722693
 51
11.9710500657
  0
LINE
  5
109
330
1F
100
AcDbEntity
  8
0
  6
Continuous
 62
     7
370
    25
100
AcDbLine
 10
413.2407379174
 20
343.516356867
 30
0.0
 11
414.6928136414
 21
343.7493007321
 31
0.0
  0
ARC
  5
10A
330
1F
100
AcDbEntity
  8
0
  6
Continuous
 62
     7
370
    25
100
AcDbCircle
 10
414.3195641831
 20
333.003427512
 30
0.0
 40
12.03669752935474
100
AcDbArc
 50
96.2565722694
 51
101.9710500657
  0
ARC
  5
10B
330
1F
100
AcDbEntity
  8
0
  6
Continuous
 62
     7
370
    25
100
AcDbCircle
 10
412.7433501725
 20
342.8288938271
 30
0.0
 40
4.000000000000007
100
AcDbArc
 50
330.0
 51
99.1138111675
  0
ARC
  5
10C
330
1F
100
AcDbEntity
  8
0
  6
Continuous
 62
     7
370
    25
100
AcDbCircle
 10
412.7433501725
 20
342.8288938271
 30
0.0
 40
4.000000000000007
100
AcDbArc
 50
99.1138111675
 51
210.0
  0
LINE
  5
10D
330
1F
100
AcDbEntity
  8
0
  6
Continuous
 62
     7
370
    25
100
AcDbLine
 10
411.8229432674
 20
344.778357296
 30
0.0
 11
412.0558871326
 21
343.326281572
 31
0.0
  0
LINE
  5
10E
330
1F
100
AcDbEntity
  8
0
  6
Continuous
 62
     7
370
    25
100
AcDbLine
 10
412.2459624275
 20
342.1414307872
 30
0.0
 11
412.4789062927
 21
340.6893550633
 31
0.0
  0
LINE
  5
10F
330
1F
100
AcDbEntity
  8
0
  6
Continuous
 62
     7
370
    25
100
AcDbLine
 10
413.0077940522
 20
344.9684325909
 30
0.0
 11
413.2407379174
 21
343.516356867
 31
0.0
  0
LINE
  5
110
330
1F
100
AcDbEntity
  8
0
  6
Continuous
 62
     7
370
    25
100
AcDbLine
 10
410.7938867036
 20
341.9084869221
 30
0.0
 11
412.2459624275
 21
342.1414307872
 31
0.0
  0
LINE
  5
111
330
1F
100
AcDbEntity
  8
0
  6
Continuous
 62
     7
370
    25
100
AcDbLine
 10
413.4308132123
 20
342.3315060821
 30
0.0
 11
413.6637570775
 21
340.8794303582
 31
0.0
  0
LINE
  5
112
330
1F
100
AcDbEntity
  8
0
  6
Continuous
 62
     7
370
    25
100
AcDbLine
 10
410.6038114087
 20
343.0933377069
 30
0.0
 11
412.0558871326
 21
343.326281572
 31
0.0
  0
LINE
  5
113
330
1F
100
AcDbEntity
  8
0
  6
Continuous
 62
     7
370
    25
100
AcDbLine
 10
413.3888442655
 20
343.5401162788
 30
0.0
 11
413.5789195604
 21
342.355265494
 31
0.0
  0
LINE
  5
114
330
1F
100
AcDbEntity
  8
0
  6
Continuous
 62
     7
370
    25
100
AcDbLine
 10
413.4545726242
 20
342.183399734
 30
0.0
 11
412.2697218394
 21
341.9933244391
 31
0.0
  0
LINE
  5
115
330
1F
100
AcDbEntity
  8
0
  6
Continuous
 62
     7
370
    25
100
AcDbLine
 10
413.2169785056
 20
343.6644632151
 30
0.0
 11
412.0321277208
 21
343.4743879201
 31
0.0
  0
LINE
  5
116
330
1F
100
AcDbEntity
  8
0
  6
Continuous
 62
     7
370
    25
100
AcDbLine
 10
411.9077807845
 20
343.3025221602
 30
0.0
 11
412.0978560794
 21
342.1176713754
 31
0.0
  0
LINE
  5
117
330
1F
100
AcDbEntity
  8
0
  6
Continuous
 62
     7
370
    25
100
AcDbLine
 10
279.1038114087
 20
344.0933377069
 30
0.0
 11
280.5558871326
 21
344.326281572
 31
0.0
  0
ARC
  5
118
330
1F
100
AcDbEntity
  8
0
  6
Continuous
 62
     7
370
    25
100
AcDbCircle
 10
291.0688164875
 20
345.4051078377
 30
0.0
 40
12.03669752935303
100
AcDbArc
 50
186.2565722694
 51
191.9710500657
  0
LINE
  5
119
330
1F
100
AcDbEntity
  8
0
  6
Continuous
 62
     7
370
    25
100
AcDbLine
 10
279.2938867036
 20
342.9084869221
 30
0.0
 11
280.7459624275
 21
343.1414307872
 31
0.0
  0
LINE
  5
11A
330
1F
100
AcDbEntity
  8
0
  6
Continuous
 62
     7
370
    25
100
AcDbLine
 10
280.7459624275
 20
343.1414307872
 30
0.0
 11
280.9789062927
 21
341.6893550633
 31
0.0
  0
ARC
  5
11B
330
1F
100
AcDbEntity
  8
0
  6
Continuous
 62
     7
370
    25
100
AcDbCircle
 10
279.6671361618
 20
353.6543601421
 30
0.0
 40
12.03669752935112
100
AcDbArc
 50
276.2565722694
 51
281.9710500657
  0
LINE
  5
11C
330
1F
100
AcDbEntity
  8
0
  6
Continuous
 62
     7
370
    25
100
AcDbLine
 10
281.9308132123
 20
343.3315060821
 30
0.0
 11
282.1637570775
 21
341.8794303582
 31
0.0
  0
LINE
  5
11D
330
1F
100
AcDbEntity
  8
0
  6
Continuous
 62
     7
370
    25
100
AcDbLine
 10
281.9308132123
 20
343.3315060821
 30
0.0
 11
283.3828889363
 21
343.5644499473
 31
0.0
  0
ARC
  5
11E
330
1F
100
AcDbEntity
  8
0
  6
Continuous
 62
     7
370
    25
100
AcDbCircle
 10
271.4178838575
 20
342.2526798165
 30
0.0
 40
12.03669752931894
100
AcDbArc
 50
6.2565722693
 51
11.9710500657
  0
LINE
  5
11F
330
1F
100
AcDbEntity
  8
0
  6
Continuous
 62
     7
370
    25
100
AcDbLine
 10
281.5077940522
 20
345.9684325909
 30
0.0
 11
281.7407379174
 21
344.516356867
 31
0.0
  0
ARC
  5
120
330
1F
100
AcDbEntity
  8
0
  6
Continuous
 62
     7
370
    25
100
AcDbCircle
 10
282.8195641831
 20
334.0034275121
 30
0.0
 40
12.03669752934336
100
AcDbArc
 50
96.2565722694
 51
101.9710500657
  0
ARC
  5
121
330
1F
100
AcDbEntity
  8
0
  6
Continuous
 62
     7
370
    25
100
AcDbCircle
 10
281.2433501725
 20
343.8288938271
 30
0.0
 40
4.000000000000063
100
AcDbArc
 50
311.4096221093
 51
99.1138111675
  0
ARC
  5
122
330
1F
100
AcDbEntity
  8
0
  6
Continuous
 62
     7
370
    25
100
AcDbCircle
 10
281.2433501725
 20
343.8288938271
 30
0.0
 40
4.000000000000063
100
AcDbArc
 50
99.1138111675
 51
228.5903778907
  0
LINE
  5
123
330
1F
100
AcDbEntity
  8
0
  6
Continuous
 62
     7
370
    25
100
AcDbLine
 10
280.3229432674
 20
345.778357296
 30
0.0
 11
280.5558871326
 21
344.326281572
 31
0.0
  0
LINE
  5
124
330
1F
100
AcDbEntity
  8
0
  6
Continuous
 62
     7
370
    25
100
AcDbLine
 10
281.7407379174
 20
344.516356867
 30
0.0
 11
283.1928136414
 21
344.7493007321
 31
0.0
  0
LINE
  5
125
330
1F
100
AcDbEntity
  8
0
  6
Continuous
 62
     7
370
    25
100
AcDbLine
 10
281.8888442655
 20
344.5401162788
 30
0.0
 11
282.0789195604
 21
343.355265494
 31
0.0
  0
LINE
  5
126
330
1F
100
AcDbEntity
  8
0
  6
Continuous
 62
     7
370
    25
100
AcDbLine
 10
281.9545726242
 20
343.183399734
 30
0.0
 11
280.7697218394
 21
342.9933244391
 31
0.0
  0
LINE
  5
127
330
1F
100
AcDbEntity
  8
0
  6
Continuous
 62
     7
370
    25
100
AcDbLine
 10
281.7169785056
 20
344.6644632151
 30
0.0
 11
280.5321277208
 21
344.4743879201
 31
0.0
  0
LINE
  5
128
330
1F
100
AcDbEntity
  8
0
  6
Continuous
 62
     7
370
    25
100
AcDbLine
 10
280.4077807845
 20
344.3025221602
 30
0.0
 11
280.5978560794
 21
343.1176713754
 31
0.0
  0
SPLINE
  5
129
330
1F
100
AcDbEntity
  8
0
  6
Continuous
 62
     7
370
    25
100
AcDbSpline
210
0.0
220
0.0
230
1.0
 70
    24
 71
     3
 72
    18
 73
    14
 74
     0
 42
0.000000001
 43
0.00000001
 40
0.0
 40
0.0
 40
0.0
 40
0.0
 40
0.1395442450004754
 40
0.2146633576115612
 40
0.291376605570159
 40
0.3680898535287573
 40
0.4432089661398436
 40
0.5827532111403181
 40
0.722297456140793
 40
0.7974165687518793
 40
0.8741298167104771
 40
0.950843064669075
 40
1.0
 40
1.0
 40
1.0
 40
1.0
 10
261.5433501724768
 20
363.598365770327
 30
0.0
 10
261.5433501724768
 20
363.9834966622527
 30
0.0
 10
261.5433501724768
 20
364.5759502627606
 30
0.0
 10
261.5433501724768
 20
365.8118644441457
 30
0.0
 10
261.5433501724767
 20
366.8878940565004
 30
0.0
 10
261.5433501724768
 20
368.0514221770493
 30
0.0
 10
261.5433501724768
 20
369.5718693680674
 30
0.0
 10
261.5433501724768
 20
371.3960593660742
 30
0.0
 10
261.5433501724768
 20
372.9112943206667
 30
0.0
 10
261.5433501724769
 20
373.8290416190966
 30
0.0
 10
261.5433501724768
 20
374.3326584374503
 30
0.0
 10
261.5433501724768
 20
374.6047955621902
 30
0.0
 10
261.5433501724768
 20
374.6028877193043
 30
0.0
 10
261.5433501724768
 20
374.6021426364982
 30
0.0
  0
SPLINE
  5
12A
330
1F
100
AcDbEntity
  8
0
  6
Continuous
 62
     7
370
    25
100
AcDbSpline
210
0.0
220
0.0
230
1.0
 70
     8
 71
     3
 72
     8
 73
     4
 74
     0
 42
0.000000001
 43
0.00000001
 40
0.0
 40
0.0
 40
0.0
 40
0.0
 40
1.0
 40
1.0
 40
1.0
 40
1.0
 10
265.5433501724696
 20
370.9895035709075
 30
0.0
 10
265.5433501724696
 20
371.8780433774633
 30
0.0
 10
265.3690348720903
 20
372.7422642308824
 30
0.0
 10
265.0967681850783
 20
373.5928197595975
 30
0.0
  0
SPLINE
  5
12B
330
1F
100
AcDbEntity
  8
0
  6
Continuous
 62
     7
370
    25
100
AcDbSpline
210
0.0
220
0.0
230
1.0
 70
     8
 71
     3
 72
     8
 73
     4
 74
     0
 42
0.000000001
 43
0.00000001
 40
0.0
 40
0.0
 40
0.0
 40
0.0
 40
1.0
 40
1.0
 40
1.0
 40
1.0
 10
265.0967681850783
 20
368.3861873822175
 30
0.0
 10
265.3690348720898
 20
369.2367429109314
 30
0.0
 10
265.5433501724696
 20
370.1009637643531
 30
0.0
 10
265.5433501724696
 20
370.9895035709075
 30
0.0
  0
LINE
  5
12C
330
1F
100
AcDbEntity
  8
0
  6
Continuous
 62
     7
370
    25
100
AcDbLine
 10
265.0967681851
 20
368.3861873822
 30
0.0
 11
261.5433501725
 21
368.3861873822
 31
0.0
  0
LINE
  5
12D
330
1F
100
AcDbEntity
  8
0
  6
Continuous
 62
     7
370
    25
100
AcDbLine
 10
261.5433501725
 20
373.5928197596
 30
0.0
 11
265.0967681851
 21
373.5928197596
 31
0.0
  0
SPLINE
  5
12E
330
1F
100
AcDbEntity
  8
0
  6
Continuous
 62
     7
370
    25
100
AcDbSpline
210
0.0
220
0.0
230
1.0
 70
     8
 71
     3
 72
     8
 73
     4
 74
     0
 42
0.000000001
 43
0.00000001
 40
0.0
 40
0.0
 40
0.0
 40
0.0
 40
1.0
 40
1.0
 40
1.0
 40
1.0
 10
265.5433501724697
 20
366.004224415961
 30
0.0
 10
265.5433501724697
 20
366.8172139876662
 30
0.0
 10
265.3690348720904
 20
367.607952383734
 30
0.0
 10
265.0967681850783
 20
368.3861873822108
 30
0.0
  0
SPLINE
  5
12F
330
1F
100
AcDbEntity
  8
0
  6
Continuous
 62
     7
370
    25
100
AcDbSpline
210
0.0
220
0.0
230
1.0
 70
     8
 71
     3
 72
     8
 73
     4
 74
     0
 42
0.000000001
 43
0.00000001
 40
0.0
 40
0.0
 40
0.0
 40
0.0
 40
1.0
 40
1.0
 40
1.0
 40
1.0
 10
265.0967681850783
 20
363.6222614497113
 30
0.0
 10
265.3690348720897
 20
364.4004964481862
 30
0.0
 10
265.5433501724697
 20
365.191234844258
 30
0.0
 10
265.5433501724697
 20
366.004224415961
 30
0.0
  0
LINE
  5
130
330
1F
100
AcDbEntity
  8
0
  6
Continuous
 62
     7
370
    25
100
AcDbLine
 10
261.5433501725
 20
363.6222614497
 30
0.0
 11
265.0967681851
 21
363.6222614497
 31
0.0
  0
LINE
  5
131
330
1F
100
AcDbEntity
  8
0
  6
Continuous
 62
     7
370
    25
100
AcDbLine
 10
265.5433501725
 20
366.004224416
 30
0.0
 11
265.5433501725
 21
370.9895035709
 31
0.0
  0
SPLINE
  5
132
330
1F
100
AcDbEntity
  8
0
  6
Continuous
 62
     7
370
    25
100
AcDbSpline
210
0.0
220
0.0
230
1.0
 70
     8
 71
     3
 72
     8
 73
     4
 74
     0
 42
0.000000001
 43
0.00000001
 40
0.0
 40
0.0
 40
0.0
 40
0.0
 40
1.0
 40
1.0
 40
1.0
 40
1.0
 10
265.0967681850784
 20
373.5928197596012
 30
0.0
 10
265.3690348720899
 20
373.66514028984
 30
0.0
 10
265.5433501724698
 20
373.7386227471905
 30
0.0
 10
265.5433501724698
 20
373.8141729820417
 30
0.0
  0
LINE
  5
133
330
1F
100
AcDbEntity
  8
0
  6
Continuous
 62
     7
370
    25
100
AcDbLine
 10
265.5433501725
 20
370.9895035709
 30
0.0
 11
265.5433501725
 21
373.814172982
 31
0.0
  0
SPLINE
  5
134
330
1F
100
AcDbEntity
  8
0
  6
Continuous
 62
     7
370
    25
100
AcDbSpline
210
0.0
220
0.0
230
1.0
 70
     8
 71
     3
 72
     8
 73
     4
 74
     0
 42
0.000000001
 43
0.00000001
 40
0.0
 40
0.0
 40
0.0
 40
0.0
 40
1.0
 40
1.0
 40
1.0
 40
1.0
 10
265.5433501724698
 20
363.843614672149
 30
0.0
 10
265.5433501724698
 20
363.7680644372977
 30
0.0
 10
265.3690348720903
 20
363.6945819799474
 30
0.0
 10
265.0967681850784
 20
363.6222614497085
 30
0.0
  0
LINE
  5
135
330
1F
100
AcDbEntity
  8
0
  6
Continuous
 62
     7
370
    25
100
AcDbLine
 10
265.5433501725
 20
366.004224416
 30
0.0
 11
265.5433501725
 21
363.8362213333
 31
0.0
  0
SPLINE
  5
136
330
1F
100
AcDbEntity
  8
0
  6
Continuous
 62
     7
370
    25
100
AcDbSpline
210
0.0
220
0.0
230
1.0
 70
     8
 71
     3
 72
     8
 73
     4
 74
     0
 42
0.000000001
 43
0.00000001
 40
0.0
 40
0.0
 40
0.0
 40
0.0
 40
1.0
 40
1.0
 40
1.0
 40
1.0
 10
265.5433501724698
 20
373.8141729820417
 30
0.0
 10
265.5433501724698
 20
373.889723216893
 30
0.0
 10
265.3690348720903
 20
373.9632056742432
 30
0.0
 10
265.0967681850783
 20
374.0355262044822
 30
0.0
  0
LINE
  5
137
330
1F
100
AcDbEntity
  8
0
  6
Continuous
 62
     7
370
    25
100
AcDbLine
 10
261.5433501725
 20
374.0355262045
 30
0.0
 11
265.0967681851
 21
374.0355262045
 31
0.0
  0
LINE
  5
138
330
1F
100
AcDbEntity
  8
0
  6
Continuous
 62
     7
370
    25
100
AcDbLine
 10
251.0846001725
 20
370.1252596734
 30
0.0
 11
251.0846001725
 21
365.8288938271
 31
0.0
  0
LINE
  5
139
330
1F
100
AcDbEntity
  8
0
  6
Continuous
 62
     7
370
    25
100
AcDbLine
 10
251.0846001725
 20
371.8288938271
 30
0.0
 11
251.0846001725
 21
370.1252596734
 31
0.0
  0
LINE
  5
13A
330
1F
100
AcDbEntity
  8
0
  6
Continuous
 62
     7
370
    25
100
AcDbLine
 10
250.5433501725
 20
371.2876438271
 30
0.0
 11
250.5433501725
 21
366.3701438271
 31
0.0
  0
LINE
  5
13B
330
1F
100
AcDbEntity
  8
0
  6
Continuous
 62
     7
370
    25
100
AcDbLine
 10
715.5900943451
 20
339.050267155
 30
0.0
 11
715.9530321234
 21
339.6788938271
 31
0.0
  0
LINE
  5
13C
330
1F
100
AcDbEntity
  8
0
  6
Continuous
 62
     7
370
    25
100
AcDbLine
 10
715.5900943451
 20
340.050267155
 30
0.0
 11
715.9530321234
 21
340.6788938271
 31
0.0
  0
LINE
  5
13D
330
1F
100
AcDbEntity
  8
0
  6
Continuous
 62
     7
370
    25
100
AcDbLine
 10
715.9530321234
 20
346.9788938271
 30
0.0
 11
715.5900943451
 21
347.6075204992
 31
0.0
  0
LINE
  5
13E
330
1F
100
AcDbEntity
  8
0
  6
Continuous
 62
     7
370
    25
100
AcDbLine
 10
717.6530321234
 20
338.8288938271
 30
0.0
 11
719.6530321234
 21
338.8288938271
 31
0.0
  0
ARC
  5
13F
330
1F
100
AcDbEntity
  8
0
  6
Continuous
 62
     7
370
    25
100
AcDbCircle
 10
712.7248288931
 20
342.8288938271
 30
0.0
 40
8.00000000000006
100
AcDbArc
 50
330.0
 51
344.7252520003
  0
LINE
  5
140
330
1F
100
AcDbEntity
  8
0
  6
Continuous
 62
     7
370
    25
100
AcDbLine
 10
715.9530321234
 20
340.8288938271
 30
0.0
 11
716.0530321234
 21
340.8288938271
 31
0.0
  0
LINE
  5
141
330
1F
100
AcDbEntity
  8
0
  6
Continuous
 62
     7
370
    25
100
AcDbLine
 10
717.6530321234
 20
339.8288938271
 30
0.0
 11
719.6530321234
 21
339.8288938271
 31
0.0
  0
LINE
  5
142
330
1F
100
AcDbEntity
  8
0
  6
Continuous
 62
     7
370
    25
100
AcDbLine
 10
719.6530321234
 20
347.8288938271
 30
0.0
 11
717.6530321234
 21
347.8288938271
 31
0.0
  0
ARC
  5
143
330
1F
100
AcDbEntity
  8
0
  6
Continuous
 62
     7
370
    25
100
AcDbCircle
 10
712.7248288931
 20
343.8288938271
 30
0.0
 40
7.999999999999939
100
AcDbArc
 50
330.0
 51
344.7252520003
  0
ARC
  5
144
330
1F
100
AcDbEntity
  8
0
  6
Continuous
 62
     7
370
    25
100
AcDbCircle
 10
712.7248288931
 20
343.8288938271
 30
0.0
 40
7.999999999999967
100
AcDbArc
 50
15.2747479997
 51
30.0
  0
LINE
  5
145
330
1F
100
AcDbEntity
  8
0
  6
Continuous
 62
     7
370
    25
100
AcDbLine
 10
715.9530321234
 20
341.8288938271
 30
0.0
 11
716.0530321234
 21
341.8288938271
 31
0.0
  0
LINE
  5
146
330
1F
100
AcDbEntity
  8
0
  6
Continuous
 62
     7
370
    25
100
AcDbLine
 10
716.0530321234
 20
345.8288938271
 30
0.0
 11
715.9530321234
 21
345.8288938271
 31
0.0
  0
LINE
  5
147
330
1F
100
AcDbEntity
  8
0
  6
Continuous
 62
     7
370
    25
100
AcDbLine
 10
722.9530321234
 20
339.358183149
 30
0.0
 11
722.9530321234
 21
196.2996045052
 31
0.0
  0
LINE
  5
148
330
1F
100
AcDbEntity
  8
0
  6
Continuous
 62
     7
370
    25
100
AcDbLine
 10
732.5530321234
 20
339.358183149
 30
0.0
 11
722.9530321234
 21
339.358183149
 31
0.0
  0
LINE
  5
149
330
1F
100
AcDbEntity
  8
0
  6
Continuous
 62
     7
370
    25
100
AcDbLine
 10
732.5530321234
 20
196.2996045052
 30
0.0
 11
722.9530321234
 21
196.2996045052
 31
0.0
  0
SPLINE
  5
14A
330
1F
100
AcDbEntity
  8
0
  6
Continuous
 62
     7
370
    25
100
AcDbSpline
210
0.0
220
0.0
230
1.0
 70
     8
 71
     3
 72
    20
 73
    16
 74
     0
 42
0.000000001
 43
0.00000001
 40
0.0
 40
0.0
 40
0.0
 40
0.0
 40
0.1249999999999997
 40
0.1249999999999997
 40
0.2499999999999994
 40
0.2499999999999994
 40
0.3749999999999991
 40
0.3749999999999991
 40
0.4999999999999988
 40
0.4999999999999988
 40
0.7500000000000008
 40
0.7500000000000008
 40
0.8750000000000006
 40
0.8750000000000006
 40
1.0
 40
1.0
 40
1.0
 40
1.0
 10
734.9530321234156
 20
197.2288938270942
 30
0.0
 10
734.9530321234156
 20
197.1898530962397
 30
0.0
 10
734.9374955629407
 20
197.1513343920398
 30
0.0
 10
734.8761772109801
 20
197.073927640732
 30
0.0
 10
734.8297534653933
 20
197.0347832227452
 30
0.0
 10
734.7098025952392
 20
196.95763246883
 30
0.0
 10
734.6361979509558
 20
196.919304887089
 30
0.0
 10
734.4614675848602
 20
196.8417585666125
 30
0.0
 10
734.3606169559586
 20
196.8027823589438
 30
0.0
 10
734.0293316759746
 20
196.6872875024987
 30
0.0
 10
733.7616515145908
 20
196.6093750588286
 30
0.0
 10
733.3289774885353
 20
196.4938951334278
 30
0.0
 10
733.1774594016842
 20
196.4550293375628
 30
0.0
 10
732.8680336442981
 20
196.3772550038942
 30
0.0
 10
732.7114113146043
 20
196.3386452369395
 30
0.0
 10
732.5530321234156
 20
196.2996045052128
 30
0.0
  0
SPLINE
  5
14B
330
1F
100
AcDbEntity
  8
0
  6
Continuous
 62
     7
370
    25
100
AcDbSpline
210
0.0
220
0.0
230
1.0
 70
     8
 71
     3
 72
    20
 73
    16
 74
     0
 42
0.000000001
 43
0.00000001
 40
0.0
 40
0.0
 40
0.0
 40
0.0
 40
0.1250000000000002
 40
0.1250000000000002
 40
0.2500000000000002
 40
0.2500000000000002
 40
0.3750000000000002
 40
0.3750000000000002
 40
0.5000000000000001
 40
0.5000000000000001
 40
0.7500000000000001
 40
0.7500000000000001
 40
0.875
 40
0.875
 40
1.0
 40
1.0
 40
1.0
 40
1.0
 10
732.5530321234156
 20
339.3581831489755
 30
0.0
 10
732.7114113110663
 20
339.3191424181209
 30
0.0
 10
732.8676570357579
 20
339.2806237139212
 30
0.0
 10
733.1756488851746
 20
339.2032169626132
 30
0.0
 10
733.3282929926456
 20
339.1640725446265
 30
0.0
 10
733.6173772818328
 20
339.0869217907114
 30
0.0
 10
733.7551818200169
 20
339.0485942089704
 30
0.0
 10
734.0168004956557
 20
338.9710478884937
 30
0.0
 10
734.1395468023384
 20
338.9320716808251
 30
0.0
 10
734.4708711792861
 20
338.81657682438
 30
0.0
 10
734.6498823033143
 20
338.73866438071
 30
0.0
 10
734.8294974026952
 20
338.6231844553091
 30
0.0
 10
734.8757417515629
 20
338.584318659444
 30
0.0
 10
734.9374950575741
 20
338.5065443257755
 30
0.0
 10
734.9530321234156
 20
338.4679345588207
 30
0.0
 10
734.9530321234156
 20
338.428893827094
 30
0.0
  0
LINE
  5
14C
330
1F
100
AcDbEntity
  8
0
  6
Continuous
 62
     7
370
    25
100
AcDbLine
 10
734.9530321234
 20
338.4288938271
 30
0.0
 11
734.9530321234
 21
197.2288938271
 31
0.0
  0
SPLINE
  5
14D
330
1F
100
AcDbEntity
  8
0
  6
Continuous
 62
     7
370
    25
100
AcDbSpline
210
0.0
220
0.0
230
1.0
 70
     8
 71
     3
 72
    20
 73
    16
 74
     0
 42
0.000000001
 43
0.00000001
 40
0.0
 40
0.0
 40
0.0
 40
0.0
 40
0.1250000000000031
 40
0.1250000000000031
 40
0.2500000000000063
 40
0.2500000000000063
 40
0.3750000000000094
 40
0.3750000000000094
 40
0.5000000000000125
 40
0.5000000000000125
 40
0.7500000000000061
 40
0.7500000000000061
 40
0.8750000000000031
 40
0.8750000000000031
 40
1.0
 40
1.0
 40
1.0
 40
1.0
 10
734.9530321234156
 20
338.428893827094
 30
0.0
 10
734.9530321234156
 20
338.5872730147448
 30
0.0
 10
734.9374955629407
 20
338.7435187394365
 30
0.0
 10
734.8761772109801
 20
339.0515105888531
 30
0.0
 10
734.8297534653933
 20
339.2041546963243
 30
0.0
 10
734.7098025952392
 20
339.4932389855113
 30
0.0
 10
734.6361979509558
 20
339.6310435236953
 30
0.0
 10
734.4614675848602
 20
339.8926621993342
 30
0.0
 10
734.3606169559586
 20
340.0154085060169
 30
0.0
 10
734.0293316759746
 20
340.3467328829646
 30
0.0
 10
733.7616515145909
 20
340.5257440069929
 30
0.0
 10
733.3289774885354
 20
340.7053591063738
 30
0.0
 10
733.1774594016842
 20
340.7516034552415
 30
0.0
 10
732.8680336442981
 20
340.8133567612527
 30
0.0
 10
732.7114113146043
 20
340.8288938270941
 30
0.0
 10
732.5530321234156
 20
340.8288938270941
 30
0.0
  0
SPLINE
  5
14E
330
1F
100
AcDbEntity
  8
0
  6
Continuous
 62
     7
370
    25
100
AcDbSpline
210
0.0
220
0.0
230
1.0
 70
     8
 71
     3
 72
     9
 73
     5
 74
     0
 42
0.000000001
 43
0.00000001
 40
0.0
 40
0.0
 40
0.0
 40
0.0
 40
0.482578428729187
 40
1.0
 40
1.0
 40
1.0
 40
1.0
 10
733.1655718625935
 20
339.2050640590405
 30
0.0
 10
733.0774375212771
 20
339.268872252102
 30
0.0
 10
732.8948053602243
 20
339.4010957193411
 30
0.0
 10
732.6695724761797
 20
339.4194150237976
 30
0.0
 10
732.5530321234156
 20
339.428893827094
 30
0.0
  0
LINE
  5
14F
330
1F
100
AcDbEntity
  8
0
  6
Continuous
 62
     7
370
    25
100
AcDbLine
 10
732.5530321234
 20
340.8288938271
 30
0.0
 11
732.5530321234
 21
339.4288938271
 31
0.0
  0
LINE
  5
150
330
1F
100
AcDbEntity
  8
0
  6
Continuous
 62
     7
370
    25
100
AcDbLine
 10
732.5530321234
 20
194.8288938271
 30
0.0
 11
732.5530321234
 21
196.2288938271
 31
0.0
  0
SPLINE
  5
151
330
1F
100
AcDbEntity
  8
0
  6
Continuous
 62
     7
370
    25
100
AcDbSpline
210
0.0
220
0.0
230
1.0
 70
     8
 71
     3
 72
     9
 73
     5
 74
     0
 42
0.000000001
 43
0.00000001
 40
0.0
 40
0.0
 40
0.0
 40
0.0
 40
0.7329379507270618
 40
1.0
 40
1.0
 40
1.0
 40
1.0
 10
732.5530321234156
 20
196.2288938270942
 30
0.0
 10
732.7044207650715
 20
196.2406484766119
 30
0.0
 10
732.9109711852068
 20
196.2566861909997
 30
0.0
 10
733.0663315273254
 20
196.3850234974936
 30
0.0
 10
733.1078223786673
 20
196.419297521564
 30
0.0
  0
SPLINE
  5
152
330
1F
100
AcDbEntity
  8
0
  6
Continuous
 62
     7
370
    25
100
AcDbSpline
210
0.0
220
0.0
230
1.0
 70
     8
 71
     3
 72
    20
 73
    16
 74
     0
 42
0.000000001
 43
0.00000001
 40
0.0
 40
0.0
 40
0.0
 40
0.0
 40
0.1250000000000026
 40
0.1250000000000026
 40
0.2500000000000051
 40
0.2500000000000051
 40
0.3750000000000075
 40
0.3750000000000075
 40
0.5000000000000101
 40
0.5000000000000101
 40
0.7500000000000099
 40
0.7500000000000099
 40
0.875000000000005
 40
0.875000000000005
 40
1.0
 40
1.0
 40
1.0
 40
1.0
 10
732.5530321234156
 20
194.8288938270942
 30
0.0
 10
732.7114113110663
 20
194.8288938270942
 30
0.0
 10
732.8676570357579
 20
194.8444303875691
 30
0.0
 10
733.1756488851746
 20
194.9057487395297
 30
0.0
 10
733.3282929926456
 20
194.9521724851165
 30
0.0
 10
733.6173772818328
 20
195.0721233552706
 30
0.0
 10
733.7551818200168
 20
195.145727999554
 30
0.0
 10
734.0168004956557
 20
195.3204583656496
 30
0.0
 10
734.1395468023384
 20
195.4213089945511
 30
0.0
 10
734.470871179286
 20
195.7525942745351
 30
0.0
 10
734.6498823033143
 20
196.020274435919
 30
0.0
 10
734.8294974026952
 20
196.4529484619744
 30
0.0
 10
734.8757417515629
 20
196.6044665488255
 30
0.0
 10
734.9374950575741
 20
196.9138923062116
 30
0.0
 10
734.9530321234156
 20
197.0705146359054
 30
0.0
 10
734.9530321234156
 20
197.2288938270941
 30
0.0
  0
LINE
  5
153
330
1F
100
AcDbEntity
  8
0
  6
Continuous
 62
     7
370
    25
100
AcDbLine
 10
732.5530321234
 20
339.4288938271
 30
0.0
 11
722.9530321234
 21
339.4288938271
 31
0.0
  0
LINE
  5
154
330
1F
100
AcDbEntity
  8
0
  6
Continuous
 62
     7
370
    25
100
AcDbLine
 10
722.9530321234
 20
340.8288938271
 30
0.0
 11
722.9530321234
 21
339.4288938271
 31
0.0
  0
LINE
  5
155
330
1F
100
AcDbEntity
  8
0
  6
Continuous
 62
     7
370
    25
100
AcDbLine
 10
732.5530321234
 20
340.8288938271
 30
0.0
 11
722.9530321234
 21
340.8288938271
 31
0.0
  0
LINE
  5
156
330
1F
100
AcDbEntity
  8
0
  6
Continuous
 62
     7
370
    25
100
AcDbLine
 10
732.5530321234
 20
194.8288938271
 30
0.0
 11
722.9530321234
 21
194.8288938271
 31
0.0
  0
LINE
  5
157
330
1F
100
AcDbEntity
  8
0
  6
Continuous
 62
     7
370
    25
100
AcDbLine
 10
722.9530321234
 20
194.8288938271
 30
0.0
 11
722.9530321234
 21
196.2288938271
 31
0.0
  0
LINE
  5
158
330
1F
100
AcDbEntity
  8
0
  6
Continuous
 62
     7
370
    25
100
AcDbLine
 10
732.5530321234
 20
196.2288938271
 30
0.0
 11
722.9530321234
 21
196.2288938271
 31
0.0
  0
LINE
  5
159
330
1F
100
AcDbEntity
  8
0
  6
Continuous
 62
     7
370
    25
100
AcDbLine
 10
714.8530321234
 20
355.3288938271
 30
0.0
 11
718.8530321234
 21
355.3288938271
 31
0.0
  0
LINE
  5
15A
330
1F
100
AcDbEntity
  8
0
  6
Continuous
 62
     7
370
    25
100
AcDbLine
 10
714.8530321234
 20
338.1288938271
 30
0.0
 11
714.8530321234
 21
355.3288938271
 31
0.0
  0
LINE
  5
15B
330
1F
100
AcDbEntity
  8
0
  6
Continuous
 62
     7
370
    25
100
AcDbLine
 10
695.8530321234
 20
372.3288938271
 30
0.0
 11
695.8530321234
 21
338.1288938271
 31
0.0
  0
ARC
  5
15C
330
1F
100
AcDbEntity
  8
0
  6
Continuous
 62
     7
370
    25
100
AcDbCircle
 10
698.8530321234
 20
372.3288938271
 30
0.0
 40
3.0
100
AcDbArc
 50
90.0
 51
180.0
  0
LINE
  5
15D
330
1F
100
AcDbEntity
  8
0
  6
Continuous
 62
     7
370
    25
100
AcDbLine
 10
715.8530321234
 20
375.3288938271
 30
0.0
 11
698.8530321234
 21
375.3288938271
 31
0.0
  0
ARC
  5
15E
330
1F
100
AcDbEntity
  8
0
  6
Continuous
 62
     7
370
    25
100
AcDbCircle
 10
715.8530321234
 20
372.3288938271
 30
0.0
 40
3.0
100
AcDbArc
 50
0.0
 51
90.0
  0
LINE
  5
15F
330
1F
100
AcDbEntity
  8
0
  6
Continuous
 62
     7
370
    25
100
AcDbLine
 10
718.8530321234
 20
355.3288938271
 30
0.0
 11
718.8530321234
 21
372.3288938271
 31
0.0
  0
CIRCLE
  5
160
330
1F
100
AcDbEntity
  8
0
  6
Continuous
 62
     7
370
    25
100
AcDbCircle
 10
704.3530321234
 20
368.8288938271
 30
0.0
 40
3.250000000000114
  0
CIRCLE
  5
161
330
1F
100
AcDbEntity
  8
0
  6
Continuous
 62
     7
370
    25
100
AcDbCircle
 10
704.3530321234
 20
343.8288938271
 30
0.0
 40
3.250000000000171
  0
LINE
  5
162
330
1F
100
AcDbEntity
  8
0
  6
Continuous
 62
     7
370
    25
100
AcDbLine
 10
695.8530321234
 20
336.3288938271
 30
0.0
 11
695.8530321234
 21
338.1288938271
 31
0.0
  0
LINE
  5
163
330
1F
100
AcDbEntity
  8
0
  6
Continuous
 62
     7
370
    25
100
AcDbLine
 10
714.8530321234
 20
338.1288938271
 30
0.0
 11
714.8530321234
 21
336.3288938271
 31
0.0
  0
LINE
  5
164
330
1F
100
AcDbEntity
  8
0
  6
Continuous
 62
     7
370
    25
100
AcDbLine
 10
714.8530321234
 20
336.3288938271
 30
0.0
 11
695.8530321234
 21
336.3288938271
 31
0.0
  0
ARC
  5
165
330
1F
100
AcDbEntity
  8
0
  6
Continuous
 62
     7
370
    25
100
AcDbCircle
 10
715.0530321234
 20
338.1288938271
 30
0.0
 40
1.799999999999955
100
AcDbArc
 50
270.0
 51
0.0
  0
ARC
  5
166
330
1F
100
AcDbEntity
  8
0
  6
Continuous
 62
     7
370
    25
100
AcDbCircle
 10
715.0530321234
 20
338.1288938271
 30
0.0
 40
1.0
100
AcDbArc
 50
270.0
 51
0.0
  0
LINE
  5
167
330
1F
100
AcDbEntity
  8
0
  6
Continuous
 62
     7
370
    25
100
AcDbLine
 10
714.8530321234
 20
337.1288938271
 30
0.0
 11
715.0530321234
 21
337.1288938271
 31
0.0
  0
LINE
  5
168
330
1F
100
AcDbEntity
  8
0
  6
Continuous
 62
     7
370
    25
100
AcDbLine
 10
714.8530321234
 20
336.3288938271
 30
0.0
 11
715.0530321234
 21
336.3288938271
 31
0.0
  0
LINE
  5
169
330
1F
100
AcDbEntity
  8
0
  6
Continuous
 62
     7
370
    25
100
AcDbLine
 10
716.0530321234
 20
348.3288938271
 30
0.0
 11
716.0530321234
 21
338.1288938271
 31
0.0
  0
LINE
  5
16A
330
1F
100
AcDbEntity
  8
0
  6
Continuous
 62
     7
370
    25
100
AcDbLine
 10
716.8530321234
 20
348.3288938271
 30
0.0
 11
716.0530321234
 21
348.3288938271
 31
0.0
  0
LINE
  5
16B
330
1F
100
AcDbEntity
  8
0
  6
Continuous
 62
     7
370
    25
100
AcDbLine
 10
671.8530321234
 20
336.3288938271
 30
0.0
 11
671.8530321234
 21
337.1288938271
 31
0.0
  0
LINE
  5
16C
330
1F
100
AcDbEntity
  8
0
  6
Continuous
 62
     7
370
    25
100
AcDbLine
 10
671.8530321234
 20
337.1288938271
 30
0.0
 11
674.8530321234
 21
337.1288938271
 31
0.0
  0
LINE
  5
16D
330
1F
100
AcDbEntity
  8
0
  6
Continuous
 62
     7
370
    25
100
AcDbLine
 10
674.8530321234
 20
336.3288938271
 30
0.0
 11
671.8530321234
 21
336.3288938271
 31
0.0
  0
LINE
  5
16E
330
1F
100
AcDbEntity
  8
0
  6
Continuous
 62
     7
370
    25
100
AcDbLine
 10
674.8530321234
 20
337.1288938271
 30
0.0
 11
695.8530321234
 21
337.1288938271
 31
0.0
  0
LINE
  5
16F
330
1F
100
AcDbEntity
  8
0
  6
Continuous
 62
     7
370
    25
100
AcDbLine
 10
674.8530321234
 20
336.3288938271
 30
0.0
 11
695.8530321234
 21
336.3288938271
 31
0.0
  0
LINE
  5
170
330
1F
100
AcDbEntity
  8
0
  6
Continuous
 62
     7
370
    25
100
AcDbLine
 10
675.9484187316
 20
340.5288938271
 30
0.0
 11
672.9484187316
 21
340.5288938271
 31
0.0
  0
LINE
  5
171
330
1F
100
AcDbEntity
  8
0
  6
Continuous
 62
     7
370
    25
100
AcDbLine
 10
672.9484187316
 20
340.5288938271
 30
0.0
 11
672.9484187316
 21
341.3288938271
 31
0.0
  0
LINE
  5
172
330
1F
100
AcDbEntity
  8
0
  6
Continuous
 62
     7
370
    25
100
AcDbLine
 10
672.9484187316
 20
341.3288938271
 30
0.0
 11
675.9484187316
 21
341.3288938271
 31
0.0
  0
LINE
  5
173
330
1F
100
AcDbEntity
  8
0
  6
Continuous
 62
     7
370
    25
100
AcDbLine
 10
675.9484187316
 20
340.5288938271
 30
0.0
 11
682.4661101852
 21
340.5288938271
 31
0.0
  0
LINE
  5
174
330
1F
100
AcDbEntity
  8
0
  6
Continuous
 62
     7
370
    25
100
AcDbLine
 10
675.9484187316
 20
341.3288938271
 30
0.0
 11
682.4661101852
 21
341.3288938271
 31
0.0
  0
LINE
  5
175
330
1F
100
AcDbEntity
  8
0
  6
Continuous
 62
     7
370
    25
100
AcDbLine
 10
689.9909813158
 20
337.2628684233
 30
0.0
 11
683.3661101852
 21
341.0877395539
 31
0.0
  0
LINE
  5
176
330
1F
100
AcDbEntity
  8
0
  6
Continuous
 62
     7
370
    25
100
AcDbLine
 10
688.6230321234
 20
337.1288938271
 30
0.0
 11
682.9661101852
 21
340.3949192309
 31
0.0
  0
ARC
  5
177
330
1F
100
AcDbEntity
  8
0
  6
Continuous
 62
     7
370
    25
100
AcDbCircle
 10
682.4661101852
 20
339.5288938271
 30
0.0
 40
0.9999999999999432
100
AcDbArc
 50
60.0
 51
90.0
  0
ARC
  5
178
330
1F
100
AcDbEntity
  8
0
  6
Continuous
 62
     7
370
    25
100
AcDbCircle
 10
682.4661101852
 20
339.5288938271
 30
0.0
 40
1.800000000000026
100
AcDbArc
 50
60.0
 51
90.0
  0
ARC
  5
179
330
1F
100
AcDbEntity
  8
0
  6
Continuous
 62
     7
370
    25
100
AcDbCircle
 10
690.4909813158
 20
338.1288938271
 30
0.0
 40
0.9999999999999432
100
AcDbArc
 50
240.0
 51
270.0
  0
SPLINE
  5
17A
330
1F
100
AcDbEntity
  8
0
  6
Continuous
 62
     7
370
    25
100
AcDbSpline
210
0.0
220
0.0
230
1.0
 70
     8
 71
     3
 72
     9
 73
     5
 74
     0
 42
0.000000001
 43
0.00000001
 40
0.0
 40
0.0
 40
0.0
 40
0.0
 40
0.6376152888993839
 40
1.0
 40
1.0
 40
1.0
 40
1.0
 10
715.4383521380296
 20
338.8384626296675
 30
0.0
 10
715.6129962517717
 20
339.0959361951795
 30
0.0
 10
715.8868982688385
 20
339.4997432713186
 30
0.0
 10
715.6368228285157
 20
339.9015456030677
 30
0.0
 10
715.5461993123209
 20
340.0471526249782
 30
0.0
  0
LINE
  5
17B
330
1F
100
AcDbEntity
  8
0
  6
Continuous
 62
     7
370
    25
100
AcDbLine
 10
715.9530321234
 20
340.6788938271
 30
0.0
 11
715.9530321234
 21
339.6788938271
 31
0.0
  0
LINE
  5
17C
330
1F
100
AcDbEntity
  8
0
  6
Continuous
 62
     7
370
    25
100
AcDbLine
 10
714.8530321234
 20
338.8384626297
 30
0.0
 11
715.438352138
 21
338.8384626297
 31
0.0
  0
SPLINE
  5
17D
330
1F
100
AcDbEntity
  8
0
  6
Continuous
 62
     7
370
    25
100
AcDbSpline
210
0.0
220
0.0
230
1.0
 70
     8
 71
     3
 72
    12
 73
     8
 74
     0
 42
0.000000001
 43
0.00000001
 40
0.0
 40
0.0
 40
0.0
 40
0.0
 40
0.5000000000000112
 40
0.5000000000000112
 40
0.7500000000000056
 40
0.7500000000000056
 40
1.0
 40
1.0
 40
1.0
 40
1.0
 10
715.4383521380306
 20
339.8384626296672
 30
0.0
 10
715.6288464274542
 20
340.0737224221103
 30
0.0
 10
715.7505208405165
 20
340.3125071149609
 30
0.0
 10
715.7511770310477
 20
340.6799986475178
 30
0.0
 10
715.7213430292534
 20
340.8023708421672
 30
0.0
 10
715.6124131591458
 20
341.0427545273267
 30
0.0
 10
715.5337179720829
 20
341.1615154743883
 30
0.0
 10
715.4383521380302
 20
341.2792919515379
 30
0.0
  0
SPLINE
  5
17E
330
1F
100
AcDbEntity
  8
0
  6
Continuous
 62
     7
370
    25
100
AcDbSpline
210
0.0
220
0.0
230
1.0
 70
     8
 71
     3
 72
    14
 73
    10
 74
     0
 42
0.000000001
 43
0.00000001
 40
0.0
 40
0.0
 40
0.0
 40
0.0
 40
0.25
 40
0.25
 40
0.5
 40
0.5
 40
0.75
 40
0.75
 40
1.0
 40
1.0
 40
1.0
 40
1.0
 10
715.4383521380296
 20
345.2697231489647
 30
0.0
 10
715.5332267473402
 20
344.9452169196761
 30
0.0
 10
715.612831672216
 20
344.6127576972817
 30
0.0
 10
715.7216682871102
 20
343.9461877823735
 30
0.0
 10
715.7509918928008
 20
343.6111115250982
 30
0.0
 10
715.7509271110551
 20
342.9367680548706
 30
0.0
 10
715.7207709177288
 20
342.5949886341916
 30
0.0
 10
715.611185716363
 20
341.9285747145869
 30
0.0
 10
715.5326427425609
 20
341.6018006686342
 30
0.0
 10
715.4383521380296
 20
341.2792919515379
 30
0.0
  0
SPLINE
  5
17F
330
1F
100
AcDbEntity
  8
0
  6
Continuous
 62
     7
370
    25
100
AcDbSpline
210
0.0
220
0.0
230
1.0
 70
     8
 71
     3
 72
    12
 73
     8
 74
     0
 42
0.000000001
 43
0.00000001
 40
0.0
 40
0.0
 40
0.0
 40
0.0
 40
0.4999999999999921
 40
0.4999999999999921
 40
0.749999999999996
 40
0.749999999999996
 40
1.0
 40
1.0
 40
1.0
 40
1.0
 10
715.4383521380306
 20
345.2697231489646
 30
0.0
 10
715.6288464274542
 20
345.6860242326191
 30
0.0
 10
715.7505208405165
 20
346.1085627606076
 30
0.0
 10
715.7511770310477
 20
346.7588529000683
 30
0.0
 10
715.7213430292534
 20
346.9753951179828
 30
0.0
 10
715.6124131591458
 20
347.4007631232231
 30
0.0
 10
715.5337179720829
 20
347.6109151022084
 30
0.0
 10
715.43835213803
 20
347.819325024521
 30
0.0
  0
LINE
  5
180
330
1F
100
AcDbEntity
  8
0
  6
Continuous
 62
     7
370
    25
100
AcDbLine
 10
715.438352138
 20
347.8193250245
 30
0.0
 11
715.5362271753
 21
347.5764202742
 31
0.0
  0
LINE
  5
181
330
1F
100
AcDbEntity
  8
0
  6
Continuous
 62
     7
370
    25
100
AcDbLine
 10
715.9530321234
 20
343.3299461779
 30
0.0
 11
715.9530321234
 21
340.6788938271
 31
0.0
  0
LINE
  5
182
330
1F
100
AcDbEntity
  8
0
  6
Continuous
 62
     7
370
    25
100
AcDbLine
 10
715.9530321234
 20
346.9788938271
 30
0.0
 11
715.9530321234
 21
343.3299461779
 31
0.0
  0
LINE
  5
183
330
1F
100
AcDbEntity
  8
0
  6
Continuous
 62
     7
370
    25
100
AcDbLine
 10
714.8530321234
 20
345.269723149
 30
0.0
 11
715.438352138
 21
345.269723149
 31
0.0
  0
LINE
  5
184
330
1F
100
AcDbEntity
  8
0
  6
Continuous
 62
     7
370
    25
100
AcDbLine
 10
714.8530321234
 20
341.2792919515
 30
0.0
 11
715.438352138
 21
341.2792919515
 31
0.0
  0
LINE
  5
185
330
1F
100
AcDbEntity
  8
0
  6
Continuous
 62
     7
370
    25
100
AcDbLine
 10
714.8530321234
 20
347.8193250245
 30
0.0
 11
715.438352138
 21
347.8193250245
 31
0.0
  0
LINE
  5
186
330
1F
100
AcDbEntity
  8
0
  6
Continuous
 62
     7
370
    25
100
AcDbLine
 10
714.8530321234
 20
339.8384626297
 30
0.0
 11
715.438352138
 21
339.8384626297
 31
0.0
  0
LINE
  5
187
330
1F
100
AcDbEntity
  8
0
  6
Continuous
 62
     7
370
    25
100
AcDbLine
 10
723.4030321234
 20
352.1288938271
 30
0.0
 11
728.5530321234
 21
352.1288938271
 31
0.0
  0
LINE
  5
188
330
1F
100
AcDbEntity
  8
0
  6
Continuous
 62
     7
370
    25
100
AcDbLine
 10
723.4030321234
 20
352.9288938271
 30
0.0
 11
723.4030321234
 21
352.1288938271
 31
0.0
  0
LINE
  5
189
330
1F
100
AcDbEntity
  8
0
  6
Continuous
 62
     7
370
    25
100
AcDbLine
 10
723.4030321234
 20
352.9288938271
 30
0.0
 11
728.5530321234
 21
352.9288938271
 31
0.0
  0
LINE
  5
18A
330
1F
100
AcDbEntity
  8
0
  6
Continuous
 62
     7
370
    25
100
AcDbLine
 10
728.5530321234
 20
352.9288938271
 30
0.0
 11
728.5530321234
 21
353.0288938271
 31
0.0
  0
LINE
  5
18B
330
1F
100
AcDbEntity
  8
0
  6
Continuous
 62
     7
370
    25
100
AcDbLine
 10
718.6530321234
 20
353.0288938271
 30
0.0
 11
728.5530321234
 21
353.0288938271
 31
0.0
  0
LINE
  5
18C
330
1F
100
AcDbEntity
  8
0
  6
Continuous
 62
     7
370
    25
100
AcDbLine
 10
718.6530321234
 20
353.0288938271
 30
0.0
 11
718.6530321234
 21
353.8288938271
 31
0.0
  0
LINE
  5
18D
330
1F
100
AcDbEntity
  8
0
  6
Continuous
 62
     7
370
    25
100
AcDbLine
 10
728.5530321234
 20
353.8288938271
 30
0.0
 11
718.6530321234
 21
353.8288938271
 31
0.0
  0
ARC
  5
18E
330
1F
100
AcDbEntity
  8
0
  6
Continuous
 62
     7
370
    25
100
AcDbCircle
 10
728.5530321234
 20
352.9788938271
 30
0.0
 40
0.8500000000000227
100
AcDbArc
 50
270.0
 51
90.0
  0
LINE
  5
18F
330
1F
100
AcDbEntity
  8
0
  6
Continuous
 62
     7
370
    25
100
AcDbLine
 10
718.6530321234
 20
333.8288938271
 30
0.0
 11
718.6530321234
 21
334.6288938271
 31
0.0
  0
LINE
  5
190
330
1F
100
AcDbEntity
  8
0
  6
Continuous
 62
     7
370
    25
100
AcDbLine
 10
722.9530321234
 20
334.6288938271
 30
0.0
 11
718.6530321234
 21
334.6288938271
 31
0.0
  0
LINE
  5
191
330
1F
100
AcDbEntity
  8
0
  6
Continuous
 62
     7
370
    25
100
AcDbLine
 10
722.9530321234
 20
333.8288938271
 30
0.0
 11
718.6530321234
 21
333.8288938271
 31
0.0
  0
LINE
  5
192
330
1F
100
AcDbEntity
  8
0
  6
Continuous
 62
     7
370
    25
100
AcDbLine
 10
717.6530321234
 20
352.0288938271
 30
0.0
 11
717.6530321234
 21
335.6288938271
 31
0.0
  0
ARC
  5
193
330
1F
100
AcDbEntity
  8
0
  6
Continuous
 62
     7
370
    25
100
AcDbCircle
 10
718.6530321234
 20
335.6288938271
 30
0.0
 40
1.800000000000125
100
AcDbArc
 50
180.0
 51
270.0
  0
ARC
  5
194
330
1F
100
AcDbEntity
  8
0
  6
Continuous
 62
     7
370
    25
100
AcDbCircle
 10
718.6530321234
 20
352.0288938271
 30
0.0
 40
1.800000000000068
100
AcDbArc
 50
90.0
 51
180.0
  0
ARC
  5
195
330
1F
100
AcDbEntity
  8
0
  6
Continuous
 62
     7
370
    25
100
AcDbCircle
 10
718.6530321234
 20
352.0288938271
 30
0.0
 40
1.0
100
AcDbArc
 50
90.0
 51
180.0
  0
ARC
  5
196
330
1F
100
AcDbEntity
  8
0
  6
Continuous
 62
     7
370
    25
100
AcDbCircle
 10
718.6530321234
 20
335.6288938271
 30
0.0
 40
1.0
100
AcDbArc
 50
180.0
 51
270.0
  0
LINE
  5
197
330
1F
100
AcDbEntity
  8
0
  6
Continuous
 62
     7
370
    25
100
AcDbLine
 10
716.8530321234
 20
335.6288938271
 30
0.0
 11
716.8530321234
 21
352.0288938271
 31
0.0
  0
CIRCLE
  5
198
330
1F
100
AcDbEntity
  8
0
  6
Continuous
 62
     7
370
    25
100
AcDbCircle
 10
704.3530321234
 20
343.8288938271
 30
0.0
 40
2.458750000016497
  0
CIRCLE
  5
199
330
1F
100
AcDbEntity
  8
0
  6
Continuous
 62
     7
370
    25
100
AcDbCircle
 10
704.3530321234
 20
343.8288938271
 30
0.0
 40
3.000000000000015
  0
LINE
  5
19A
330
1F
100
AcDbEntity
  8
0
  6
Continuous
 62
     7
370
    25
100
AcDbLine
 10
719.6530321234
 20
338.8288938271
 30
0.0
 11
719.6530321234
 21
339.8288938271
 31
0.0
  0
ARC
  5
19B
330
1F
100
AcDbEntity
  8
0
  6
Continuous
 62
     7
370
    25
100
AcDbCircle
 10
712.9197398808
 20
342.733426286
 30
0.0
 40
7.78257563315699
100
AcDbArc
 50
4.3688678554
 51
10.7722856322
  0
ARC
  5
19C
330
1F
100
AcDbEntity
  8
0
  6
Continuous
 62
     7
370
    25
100
AcDbCircle
 10
720.2300185415
 20
342.3911570255
 30
0.0
 40
0.5143715189311665
100
AcDbArc
 50
301.0221929337
 51
330.9549082647
  0
ARC
  5
19D
330
1F
100
AcDbEntity
  8
0
  6
Continuous
 62
     7
370
    25
100
AcDbCircle
 10
712.9160522257
 20
342.734756552
 30
0.0
 40
7.78628841509599
100
AcDbArc
 50
344.7700996206
 51
355.6297472936
  0
ARC
  5
19E
330
1F
100
AcDbEntity
  8
0
  6
Continuous
 62
     7
370
    25
100
AcDbCircle
 10
720.2957983448
 20
340.7632914503
 30
0.0
 40
0.1522432420638256
100
AcDbArc
 50
330.9451665858
 51
359.1449116557
  0
LWPOLYLINE
  5
19F
330
1F
100
AcDbEntity
  8
0
  6
Continuous
 62
     7
370
    25
100
AcDbPolyline
 90
        3
 70
   128
 43
0.0
 10
720.6797016137
 20
342.3315060821
 10
720.663476765
 20
342.1478077533
 10
720.662834622
 20
342.1414307872
  0
ARC
  5
1A0
330
1F
100
AcDbEntity
  8
0
  6
Continuous
 62
     7
370
    25
100
AcDbCircle
 10
720.3292346356
 20
342.1532693829
 30
0.0
 40
0.3931862455432356
100
AcDbArc
 50
26.9564850664
 51
47.5683402362
  0
ARC
  5
1A1
330
1F
100
AcDbEntity
  8
0
  6
Continuous
 62
     7
370
    25
100
AcDbCircle
 10
712.9205282084
 20
342.9235879922
 30
0.0
 40
7.781783013640725
100
AcDbArc
 50
4.3686756304
 51
9.5474944818
  0
LINE
  5
1A2
330
1F
100
AcDbEntity
  8
0
  6
Continuous
 62
     7
370
    25
100
AcDbLine
 10
720.6797016137
 20
342.1414307872
 30
0.0
 11
720.5375699038
 21
342.1414307872
 31
0.0
  0
LINE
  5
1A3
330
1F
100
AcDbEntity
  8
0
  6
Continuous
 62
     7
370
    25
100
AcDbLine
 10
720.6797016137
 20
343.516356867
 30
0.0
 11
720.662834622
 21
343.516356867
 31
0.0
  0
LINE
  5
1A4
330
1F
100
AcDbEntity
  8
0
  6
Continuous
 62
     7
370
    25
100
AcDbLine
 10
720.6797016137
 20
342.3315060821
 30
0.0
 11
720.5748482648
 21
342.3315060821
 31
0.0
  0
LINE
  5
1A5
330
1F
100
AcDbEntity
  8
0
  6
Continuous
 62
     7
370
    25
100
AcDbLine
 10
719.6530321234
 20
347.7783964431
 30
0.0
 11
719.6530321234
 21
347.8288938271
 31
0.0
  0
LINE
  5
1A6
330
1F
100
AcDbEntity
  8
0
  6
Continuous
 62
     7
370
    25
100
AcDbLine
 10
719.6530321234
 20
339.8288938271
 30
0.0
 11
719.6530321234
 21
347.7783964431
 31
0.0
  0
ARC
  5
1A7
330
1F
100
AcDbEntity
  8
0
  6
Continuous
 62
     7
370
    25
100
AcDbCircle
 10
712.9160522257
 20
343.7329558072
 30
0.0
 40
7.786288415104386
100
AcDbArc
 50
4.3702527064
 51
15.2299003794
  0
ARC
  5
1A8
330
1F
100
AcDbEntity
  8
0
  6
Continuous
 62
     7
370
    25
100
AcDbCircle
 10
720.1553086892
 20
344.6394094095
 30
0.0
 40
0.6107675350081145
100
AcDbArc
 50
296.6101963367
 51
329.1575418587
  0
ARC
  5
1A9
330
1F
100
AcDbEntity
  8
0
  6
Continuous
 62
     7
370
    25
100
AcDbCircle
 10
711.3492465477
 20
343.5009123145
 30
0.0
 40
9.098942710266282
100
AcDbArc
 50
356.2668736478
 51
3.7331263522
  0
ARC
  5
1AA
330
1F
100
AcDbEntity
  8
0
  6
Continuous
 62
     7
370
    25
100
AcDbCircle
 10
720.1553086892
 20
343.4545586247
 30
0.0
 40
0.6107675350087247
100
AcDbArc
 50
296.6101963367
 51
329.1575418587
  0
ARC
  5
1AB
330
1F
100
AcDbEntity
  8
0
  6
Continuous
 62
     7
370
    25
100
AcDbCircle
 10
712.9160522257
 20
343.734756552
 30
0.0
 40
7.786288415106217
100
AcDbArc
 50
344.7700996206
 51
355.6297472936
  0
ARC
  5
1AC
330
1F
100
AcDbEntity
  8
0
  6
Continuous
 62
     7
370
    25
100
AcDbCircle
 10
720.2957983448
 20
341.7632914503
 30
0.0
 40
0.1522432420624839
100
AcDbArc
 50
330.9451665858
 51
359.1449116556
  0
LWPOLYLINE
  5
1AD
330
1F
100
AcDbEntity
  8
0
  6
Continuous
 62
     7
370
    25
100
AcDbPolyline
 90
        3
 70
   128
 43
0.0
 10
720.6797016137
 20
343.3315060821
 10
720.663476765
 20
343.1478077533
 10
720.662834622
 20
343.1414307872
  0
ARC
  5
1AE
330
1F
100
AcDbEntity
  8
0
  6
Continuous
 62
     7
370
    25
100
AcDbCircle
 10
720.1553086892
 20
343.0183782446
 30
0.0
 40
0.6107675350080637
100
AcDbArc
 50
30.8424581413
 51
63.3898036633
  0
ARC
  5
1AF
330
1F
100
AcDbEntity
  8
0
  6
Continuous
 62
     7
370
    25
100
AcDbCircle
 10
711.2723747681
 20
344.159891196
 30
0.0
 40
9.175815043327578
100
AcDbArc
 50
357.932732127
 51
359.6562101045
  0
ARC
  5
1B0
330
1F
100
AcDbEntity
  8
0
  6
Continuous
 62
     7
370
    25
100
AcDbCircle
 10
712.9160522257
 20
343.9230311022
 30
0.0
 40
7.786288415107014
100
AcDbArc
 50
4.3702527064
 51
15.2299003794
  0
ARC
  5
1B1
330
1F
100
AcDbEntity
  8
0
  6
Continuous
 62
     7
370
    25
100
AcDbCircle
 10
720.2077605584
 20
345.8733949434
 30
0.0
 40
0.240680505672828
100
AcDbArc
 50
336.7420981705
 51
23.2579018295
  0
LINE
  5
1B2
330
1F
100
AcDbEntity
  8
0
  6
Continuous
 62
     7
370
    25
100
AcDbLine
 10
720.6797016137
 20
343.1414307872
 30
0.0
 11
720.4411459558
 21
343.1414307872
 31
0.0
  0
LINE
  5
1B3
330
1F
100
AcDbEntity
  8
0
  6
Continuous
 62
     7
370
    25
100
AcDbLine
 10
720.6797016137
 20
344.516356867
 30
0.0
 11
720.662834622
 21
344.516356867
 31
0.0
  0
LINE
  5
1B4
330
1F
100
AcDbEntity
  8
0
  6
Continuous
 62
     7
370
    25
100
AcDbLine
 10
720.6797016137
 20
343.3315060821
 30
0.0
 11
720.4466512973
 21
343.3315060821
 31
0.0
  0
LINE
  5
1B5
330
1F
100
AcDbEntity
  8
0
  6
Continuous
 62
     7
370
    25
100
AcDbLine
 10
696.4530321234
 20
254.338084141
 30
0.0
 11
696.4530321234
 21
255.0221244276
 31
0.0
  0
ARC
  5
1B6
330
1F
100
AcDbEntity
  8
0
  6
Continuous
 62
     7
370
    25
100
AcDbCircle
 10
698.3945432342
 20
255.0843670035
 30
0.0
 40
1.942508566655438
100
AcDbArc
 50
181.8362067977
 51
271.7254354149
  0
ARC
  5
1B7
330
1F
100
AcDbEntity
  8
0
  6
Continuous
 62
     7
370
    25
100
AcDbCircle
 10
698.3945432342
 20
254.4003267168
 30
0.0
 40
1.942508566655385
100
AcDbArc
 50
181.8362067977
 51
271.7254354149
  0
LINE
  5
1B8
330
1F
100
AcDbEntity
  8
0
  6
Continuous
 62
     7
370
    25
100
AcDbLine
 10
696.4530321234
 20
255.0221244276
 30
0.0
 11
696.4530321234
 21
260.1632006645
 31
0.0
  0
LINE
  5
1B9
330
1F
100
AcDbEntity
  8
0
  6
Continuous
 62
     7
370
    25
100
AcDbLine
 10
712.4530321234
 20
260.1632006645
 30
0.0
 11
712.4530321234
 21
255.0221244276
 31
0.0
  0
ARC
  5
1BA
330
1F
100
AcDbEntity
  8
0
  6
Continuous
 62
     7
370
    25
100
AcDbCircle
 10
710.5115210126
 20
255.0843670035
 30
0.0
 40
1.942508566655355
100
AcDbArc
 50
268.2745645851
 51
358.1637932023
  0
LINE
  5
1BB
330
1F
100
AcDbEntity
  8
0
  6
Continuous
 62
     7
370
    25
100
AcDbLine
 10
710.4530321234
 20
253.142739186
 30
0.0
 11
698.4530321234
 21
253.142739186
 31
0.0
  0
LINE
  5
1BC
330
1F
100
AcDbEntity
  8
0
  6
Continuous
 62
     7
370
    25
100
AcDbLine
 10
710.4530321234
 20
252.4586988994
 30
0.0
 11
698.4530321234
 21
252.4586988994
 31
0.0
  0
LINE
  5
1BD
330
1F
100
AcDbEntity
  8
0
  6
Continuous
 62
     7
370
    25
100
AcDbLine
 10
712.4530321234
 20
255.0221244276
 30
0.0
 11
712.4530321234
 21
254.338084141
 31
0.0
  0
ARC
  5
1BE
330
1F
100
AcDbEntity
  8
0
  6
Continuous
 62
     7
370
    25
100
AcDbCircle
 10
710.5115210126
 20
254.4003267168
 30
0.0
 40
1.94250856665519
100
AcDbArc
 50
268.2745645851
 51
358.1637932023
  0
LINE
  5
1BF
330
1F
100
AcDbEntity
  8
0
  6
Continuous
 62
     7
370
    25
100
AcDbLine
 10
712.4530321234
 20
260.1632006645
 30
0.0
 11
712.4530321234
 21
260.5052208078
 31
0.0
  0
LINE
  5
1C0
330
1F
100
AcDbEntity
  8
0
  6
Continuous
 62
     7
370
    25
100
AcDbLine
 10
696.4530321234
 20
260.5052208078
 30
0.0
 11
696.4530321234
 21
260.1632006645
 31
0.0
  0
LINE
  5
1C1
330
1F
100
AcDbEntity
  8
0
  6
Continuous
 62
     7
370
    25
100
AcDbLine
 10
712.4530321234
 20
260.3288938271
 30
0.0
 11
722.9530321234
 21
260.3288938271
 31
0.0
  0
LINE
  5
1C2
330
1F
100
AcDbEntity
  8
0
  6
Continuous
 62
     7
370
    25
100
AcDbLine
 10
722.9530321234
 20
275.3288938271
 30
0.0
 11
698.4530321234
 21
275.3288938271
 31
0.0
  0
CIRCLE
  5
1C3
330
1F
100
AcDbEntity
  8
0
  6
Continuous
 62
     7
370
    25
100
AcDbCircle
 10
704.3530321234
 20
267.8288938271
 30
0.0
 40
3.499999999999886
  0
ARC
  5
1C4
330
1F
100
AcDbEntity
  8
0
  6
Continuous
 62
     7
370
    25
100
AcDbCircle
 10
698.4530321234
 20
273.3288938271
 30
0.0
 40
2.0
100
AcDbArc
 50
90.0
 51
180.0
  0
LINE
  5
1C5
330
1F
100
AcDbEntity
  8
0
  6
Continuous
 62
     7
370
    25
100
AcDbLine
 10
696.4530321234
 20
273.3288938271
 30
0.0
 11
696.4530321234
 21
260.5052208078
 31
0.0
  0
CIRCLE
  5
1C6
330
1F
100
AcDbEntity
  8
0
  6
Continuous
 62
     7
370
    25
100
AcDbCircle
 10
704.3530321234
 20
368.8288938271
 30
0.0
 40
2.458750000016599
  0
CIRCLE
  5
1C7
330
1F
100
AcDbEntity
  8
0
  6
Continuous
 62
     7
370
    25
100
AcDbCircle
 10
704.3530321234
 20
368.8288938271
 30
0.0
 40
3.000000000000015
  0
CIRCLE
  5
1C8
330
1F
100
AcDbEntity
  8
0
  6
Continuous
 62
     7
370
    25
100
AcDbCircle
 10
704.3530321234
 20
267.8288938271
 30
0.0
 40
2.458750000016497
  0
CIRCLE
  5
1C9
330
1F
100
AcDbEntity
  8
0
  6
Continuous
 62
     7
370
    25
100
AcDbCircle
 10
704.3530321234
 20
267.8288938271
 30
0.0
 40
3.000000000000142
  0
LINE
  5
1CA
330
1F
100
AcDbEntity
  8
0
  6
Continuous
 62
     7
370
    25
100
AcDbLine
 10
273.5812351183
 20
479.7521437387
 30
0.0
 11
274.0812351183
 21
480.2521437387
 31
0.0
  0
LINE
  5
1CB
330
1F
100
AcDbEntity
  8
0
  6
Continuous
 62
     7
370
    25
100
AcDbLine
 10
274.0812351183
 20
480.2521437387
 30
0.0
 11
274.0812351183
 21
484.2521437387
 31
0.0
  0
LINE
  5
1CC
330
1F
100
AcDbEntity
  8
0
  6
Continuous
 62
     7
370
    25
100
AcDbLine
 10
268.351690434
 20
480.2521437387
 30
0.0
 11
268.851690434
 21
479.7521437387
 31
0.0
  0
LINE
  5
1CD
330
1F
100
AcDbEntity
  8
0
  6
Continuous
 62
     7
370
    25
100
AcDbLine
 10
268.351690434
 20
484.2521437387
 30
0.0
 11
268.351690434
 21
480.2521437387
 31
0.0
  0
LINE
  5
1CE
330
1F
100
AcDbEntity
  8
0
  6
Continuous
 62
     7
370
    25
100
AcDbLine
 10
551.3748974581
 20
480.2521437387
 30
0.0
 11
551.8748974581
 21
479.7521437387
 31
0.0
  0
LINE
  5
1CF
330
1F
100
AcDbEntity
  8
0
  6
Continuous
 62
     7
370
    25
100
AcDbLine
 10
551.3748974581
 20
484.2521437387
 30
0.0
 11
551.3748974581
 21
480.2521437387
 31
0.0
  0
LINE
  5
1D0
330
1F
100
AcDbEntity
  8
0
  6
Continuous
 62
     7
370
    25
100
AcDbLine
 10
556.6069276822
 20
479.7521437387
 30
0.0
 11
557.1069276822
 21
480.2521437387
 31
0.0
  0
LINE
  5
1D1
330
1F
100
AcDbEntity
  8
0
  6
Continuous
 62
     7
370
    25
100
AcDbLine
 10
557.1069276822
 20
480.2521437387
 30
0.0
 11
557.1069276822
 21
484.2521437387
 31
0.0
  0
LINE
  5
1D2
330
1F
100
AcDbEntity
  8
0
  6
Continuous
 62
     7
370
    25
100
AcDbLine
 10
574.4021001725
 20
469.1521437387
 30
0.0
 11
574.2021001725
 21
469.1521437387
 31
0.0
  0
LINE
  5
1D3
330
1F
100
AcDbEntity
  8
0
  6
Continuous
 62
     7
370
    25
100
AcDbLine
 10
574.2021001725
 20
463.1521437387
 30
0.0
 11
574.4021001725
 21
463.1521437387
 31
0.0
  0
LINE
  5
1D4
330
1F
100
AcDbEntity
  8
0
  6
Continuous
 62
     7
370
    25
100
AcDbLine
 10
574.4021001725
 20
463.1521437387
 30
0.0
 11
574.9433501724
 21
463.6933937387
 31
0.0
  0
LINE
  5
1D5
330
1F
100
AcDbEntity
  8
0
  6
Continuous
 62
     7
370
    25
100
AcDbLine
 10
574.9433501724
 20
468.6108937387
 30
0.0
 11
574.4021001725
 21
469.1521437387
 31
0.0
  0
LINE
  5
1D6
330
1F
100
AcDbEntity
  8
0
  6
Continuous
 62
     7
370
    25
100
AcDbLine
 10
251.0846001725
 20
463.1521437387
 30
0.0
 11
251.2846001725
 21
463.1521437387
 31
0.0
  0
LINE
  5
1D7
330
1F
100
AcDbEntity
  8
0
  6
Continuous
 62
     7
370
    25
100
AcDbLine
 10
251.2846001725
 20
469.1521437387
 30
0.0
 11
251.0846001725
 21
469.1521437387
 31
0.0
  0
LINE
  5
1D8
330
1F
100
AcDbEntity
  8
0
  6
Continuous
 62
     7
370
    25
100
AcDbLine
 10
251.0846001725
 20
469.1521437387
 30
0.0
 11
250.5433501725
 21
468.6108937387
 31
0.0
  0
LINE
  5
1D9
330
1F
100
AcDbEntity
  8
0
  6
Continuous
 62
     7
370
    25
100
AcDbLine
 10
250.5433501725
 20
463.6933937387
 30
0.0
 11
251.0846001725
 21
463.1521437387
 31
0.0
  0
ARC
  5
1DA
330
1F
100
AcDbEntity
  8
0
  6
Continuous
 62
     7
370
    25
100
AcDbCircle
 10
564.2433501725
 20
460.3521437386
 30
0.0
 40
0.5
100
AcDbArc
 50
180.0
 51
0.0
  0
ARC
  5
1DB
330
1F
100
AcDbEntity
  8
0
  6
Continuous
 62
     7
370
    25
100
AcDbCircle
 10
564.2433501725
 20
471.9521437388
 30
0.0
 40
0.5000000000001137
100
AcDbArc
 50
0.0
 51
180.0
  0
LINE
  5
1DC
330
1F
100
AcDbEntity
  8
0
  6
Continuous
 62
     7
370
    25
100
AcDbLine
 10
559.9709316097
 20
471.5463263508
 30
0.0
 11
559.7433501725
 21
471.1521437387
 31
0.0
  0
LINE
  5
1DD
330
1F
100
AcDbEntity
  8
0
  6
Continuous
 62
     7
370
    25
100
AcDbLine
 10
574.2021001725
 20
463.1521437387
 30
0.0
 11
574.7433501725
 21
463.6933937387
 31
0.0
  0
LINE
  5
1DE
330
1F
100
AcDbEntity
  8
0
  6
Continuous
 62
     7
370
    25
100
AcDbLine
 10
574.7433501725
 20
468.6108937387
 30
0.0
 11
574.2021001725
 21
469.1521437387
 31
0.0
  0
LINE
  5
1DF
330
1F
100
AcDbEntity
  8
0
  6
Continuous
 62
     7
370
    25
100
AcDbLine
 10
574.2021001725
 20
469.1521437387
 30
0.0
 11
569.3588965607
 21
469.1521437387
 31
0.0
  0
LINE
  5
1E0
330
1F
100
AcDbEntity
  8
0
  6
Continuous
 62
     7
370
    25
100
AcDbLine
 10
569.3588965607
 20
463.1521437387
 30
0.0
 11
574.2021001725
 21
463.1521437387
 31
0.0
  0
LINE
  5
1E1
330
1F
100
AcDbEntity
  8
0
  6
Continuous
 62
     7
370
    25
100
AcDbLine
 10
559.7433501725
 20
461.1521437387
 30
0.0
 11
559.9709316097
 21
460.7579611266
 31
0.0
  0
LINE
  5
1E2
330
1F
100
AcDbEntity
  8
0
  6
Continuous
 62
     7
370
    25
100
AcDbLine
 10
258.2433501725
 20
489.3521437387
 30
0.0
 11
261.1827378638
 21
489.3521437387
 31
0.0
  0
LINE
  5
1E3
330
1F
100
AcDbEntity
  8
0
  6
Continuous
 62
     7
370
    25
100
AcDbLine
 10
564.3039624811
 20
489.3521437387
 30
0.0
 11
567.2433501725
 21
489.3521437387
 31
0.0
  0
LINE
  5
1E4
330
1F
100
AcDbEntity
  8
0
  6
Continuous
 62
     7
370
    25
100
AcDbLine
 10
567.2433501725
 20
489.3521437387
 30
0.0
 11
573.2433501725
 21
489.3521437387
 31
0.0
  0
LINE
  5
1E5
330
1F
100
AcDbEntity
  8
0
  6
Continuous
 62
     7
370
    25
100
AcDbLine
 10
252.2433501725
 20
489.3521437387
 30
0.0
 11
258.2433501725
 21
489.3521437387
 31
0.0
  0
ARC
  5
1E6
330
1F
100
AcDbEntity
  8
0
  6
Continuous
 62
     7
370
    25
100
AcDbCircle
 10
261.2433501725
 20
471.9521437388
 30
0.0
 40
0.5000000000000568
100
AcDbArc
 50
0.0
 51
180.0
  0
ARC
  5
1E7
330
1F
100
AcDbEntity
  8
0
  6
Continuous
 62
     7
370
    25
100
AcDbCircle
 10
261.2433501725
 20
460.3521437386
 30
0.0
 40
0.5
100
AcDbArc
 50
180.0
 51
0.0
  0
LINE
  5
1E8
330
1F
100
AcDbEntity
  8
0
  6
Continuous
 62
     7
370
    25
100
AcDbLine
 10
251.2846001725
 20
463.1521437387
 30
0.0
 11
256.1278037843
 21
463.1521437387
 31
0.0
  0
LINE
  5
1E9
330
1F
100
AcDbEntity
  8
0
  6
Continuous
 62
     7
370
    25
100
AcDbLine
 10
256.1278037843
 20
469.1521437387
 30
0.0
 11
251.2846001725
 21
469.1521437387
 31
0.0
  0
LINE
  5
1EA
330
1F
100
AcDbEntity
  8
0
  6
Continuous
 62
     7
370
    25
100
AcDbLine
 10
251.2846001725
 20
469.1521437387
 30
0.0
 11
250.7433501725
 21
468.6108937387
 31
0.0
  0
LINE
  5
1EB
330
1F
100
AcDbEntity
  8
0
  6
Continuous
 62
     7
370
    25
100
AcDbLine
 10
250.7433501725
 20
463.6933937387
 30
0.0
 11
251.2846001725
 21
463.1521437387
 31
0.0
  0
LINE
  5
1EC
330
1F
100
AcDbEntity
  8
0
  6
Continuous
 62
     7
370
    25
100
AcDbLine
 10
265.7433501725
 20
471.1521437387
 30
0.0
 11
265.4138670767
 21
471.7228252008
 31
0.0
  0
LINE
  5
1ED
330
1F
100
AcDbEntity
  8
0
  6
Continuous
 62
     7
370
    25
100
AcDbLine
 10
265.4138670767
 20
460.5814622766
 30
0.0
 11
265.7433501725
 21
461.1521437387
 31
0.0
  0
ARC
  5
1EE
330
1F
100
AcDbEntity
  8
0
  6
Continuous
 62
     7
370
    25
100
AcDbCircle
 10
258.2433501725
 20
488.7521437387
 30
0.0
 40
3.0
100
AcDbArc
 50
0.0
 51
90.0
  0
LINE
  5
1EF
330
1F
100
AcDbEntity
  8
0
  6
Continuous
 62
     7
370
    25
100
AcDbLine
 10
246.2433501725
 20
491.7521437387
 30
0.0
 11
258.2433501725
 21
491.7521437387
 31
0.0
  0
ARC
  5
1F0
330
1F
100
AcDbEntity
  8
0
  6
Continuous
 62
     7
370
    25
100
AcDbCircle
 10
246.2433501725
 20
488.7521437387
 30
0.0
 40
3.0
100
AcDbArc
 50
90.0
 51
180.0
  0
LINE
  5
1F1
330
1F
100
AcDbEntity
  8
0
  6
Continuous
 62
     7
370
    25
100
AcDbLine
 10
243.2433501725
 20
487.7521437387
 30
0.0
 11
243.2433501725
 21
488.7521437387
 31
0.0
  0
ARC
  5
1F2
330
1F
100
AcDbEntity
  8
0
  6
Continuous
 62
     7
370
    25
100
AcDbCircle
 10
240.2433501725
 20
487.7521437387
 30
0.0
 40
3.0
100
AcDbArc
 50
270.0
 51
0.0
  0
LINE
  5
1F3
330
1F
100
AcDbEntity
  8
0
  6
Continuous
 62
     7
370
    25
100
AcDbLine
 10
608.7726394944
 20
494.3521437387
 30
0.0
 11
608.7726394944
 21
484.7521437387
 31
0.0
  0
LINE
  5
1F4
330
1F
100
AcDbEntity
  8
0
  6
Continuous
 62
     7
370
    25
100
AcDbLine
 10
585.2433501725
 20
484.7521437387
 30
0.0
 11
608.7726394944
 21
484.7521437387
 31
0.0
  0
ARC
  5
1F5
330
1F
100
AcDbEntity
  8
0
  6
Continuous
 62
     7
370
    25
100
AcDbCircle
 10
585.2433501725
 20
487.7521437387
 30
0.0
 40
3.0
100
AcDbArc
 50
180.0
 51
270.0
  0
LINE
  5
1F6
330
1F
100
AcDbEntity
  8
0
  6
Continuous
 62
     7
370
    25
100
AcDbLine
 10
582.2433501725
 20
487.7521437387
 30
0.0
 11
582.2433501725
 21
488.7521437387
 31
0.0
  0
ARC
  5
1F7
330
1F
100
AcDbEntity
  8
0
  6
Continuous
 62
     7
370
    25
100
AcDbCircle
 10
579.2433501725
 20
488.7521437387
 30
0.0
 40
3.000000000000114
100
AcDbArc
 50
0.0
 51
90.0
  0
LINE
  5
1F8
330
1F
100
AcDbEntity
  8
0
  6
Continuous
 62
     7
370
    25
100
AcDbLine
 10
579.2433501725
 20
491.7521437387
 30
0.0
 11
567.2433501725
 21
491.7521437387
 31
0.0
  0
ARC
  5
1F9
330
1F
100
AcDbEntity
  8
0
  6
Continuous
 62
     7
370
    25
100
AcDbCircle
 10
567.2433501725
 20
488.7521437387
 30
0.0
 40
3.0
100
AcDbArc
 50
90.0
 51
180.0
  0
LINE
  5
1FA
330
1F
100
AcDbEntity
  8
0
  6
Continuous
 62
     7
370
    25
100
AcDbLine
 10
564.2433501725
 20
487.7521437387
 30
0.0
 11
564.2433501725
 21
488.7521437387
 31
0.0
  0
ARC
  5
1FB
330
1F
100
AcDbEntity
  8
0
  6
Continuous
 62
     7
370
    25
100
AcDbCircle
 10
561.2433501725
 20
487.7521437387
 30
0.0
 40
3.000000000000114
100
AcDbArc
 50
270.0
 51
0.0
  0
LINE
  5
1FC
330
1F
100
AcDbEntity
  8
0
  6
Continuous
 62
     7
370
    25
100
AcDbLine
 10
264.2433501725
 20
484.7521437387
 30
0.0
 11
561.2433501725
 21
484.7521437387
 31
0.0
  0
ARC
  5
1FD
330
1F
100
AcDbEntity
  8
0
  6
Continuous
 62
     7
370
    25
100
AcDbCircle
 10
264.2433501725
 20
487.7521437387
 30
0.0
 40
3.0
100
AcDbArc
 50
180.0
 51
270.0
  0
LINE
  5
1FE
330
1F
100
AcDbEntity
  8
0
  6
Continuous
 62
     7
370
    25
100
AcDbLine
 10
261.2433501725
 20
487.7521437387
 30
0.0
 11
261.2433501725
 21
488.7521437387
 31
0.0
  0
LINE
  5
1FF
330
1F
100
AcDbEntity
  8
0
  6
Continuous
 62
     7
370
    25
100
AcDbLine
 10
216.7140608506
 20
494.3521437387
 30
0.0
 11
216.7140608506
 21
484.7521437387
 31
0.0
  0
LINE
  5
200
330
1F
100
AcDbEntity
  8
0
  6
Continuous
 62
     7
370
    25
100
AcDbLine
 10
216.7140608506
 20
484.7521437387
 30
0.0
 11
240.2433501725
 21
484.7521437387
 31
0.0
  0
SPLINE
  5
201
330
1F
100
AcDbEntity
  8
0
  6
Continuous
 62
     7
370
    25
100
AcDbSpline
210
0.0
220
0.0
230
1.0
 70
     8
 71
     3
 72
    20
 73
    16
 74
     0
 42
0.000000001
 43
0.00000001
 40
0.0
 40
0.0
 40
0.0
 40
0.0
 40
0.1249999999999993
 40
0.1249999999999993
 40
0.2499999999999987
 40
0.2499999999999987
 40
0.374999999999998
 40
0.374999999999998
 40
0.4999999999999973
 40
0.4999999999999973
 40
0.7500000000000012
 40
0.7500000000000012
 40
0.8750000000000007
 40
0.8750000000000007
 40
1.0
 40
1.0
 40
1.0
 40
1.0
 10
607.8433501724775
 20
496.752143738716
 30
0.0
 10
607.882390903332
 20
496.752143738716
 30
0.0
 10
607.9209096075318
 20
496.7366071782411
 30
0.0
 10
607.9983163588398
 20
496.6752888262806
 30
0.0
 10
608.0374607768264
 20
496.6288650806937
 30
0.0
 10
608.1146115307416
 20
496.5089142105396
 30
0.0
 10
608.1529391124827
 20
496.4353095662562
 30
0.0
 10
608.2304854329593
 20
496.2605792001606
 30
0.0
 10
608.2694616406279
 20
496.159728571259
 30
0.0
 10
608.384956497073
 20
495.8284432912751
 30
0.0
 10
608.462868940743
 20
495.5607631298912
 30
0.0
 10
608.5783488661439
 20
495.1280891038357
 30
0.0
 10
608.6172146620089
 20
494.9765710169847
 30
0.0
 10
608.6949889956775
 20
494.6671452595986
 30
0.0
 10
608.7335987626323
 20
494.5105229299048
 30
0.0
 10
608.7726394943589
 20
494.3521437387161
 30
0.0
  0
LINE
  5
202
330
1F
100
AcDbEntity
  8
0
  6
Continuous
 62
     7
370
    25
100
AcDbLine
 10
217.6433501725
 20
496.7521437387
 30
0.0
 11
607.8433501725
 21
496.7521437387
 31
0.0
  0
SPLINE
  5
203
330
1F
100
AcDbEntity
  8
0
  6
Continuous
 62
     7
370
    25
100
AcDbSpline
210
0.0
220
0.0
230
1.0
 70
     8
 71
     3
 72
    20
 73
    16
 74
     0
 42
0.000000001
 43
0.00000001
 40
0.0
 40
0.0
 40
0.0
 40
0.0
 40
0.1250000000000026
 40
0.1250000000000026
 40
0.2500000000000051
 40
0.2500000000000051
 40
0.3750000000000075
 40
0.3750000000000075
 40
0.5000000000000101
 40
0.5000000000000101
 40
0.7500000000000099
 40
0.7500000000000099
 40
0.875000000000005
 40
0.875000000000005
 40
1.0
 40
1.0
 40
1.0
 40
1.0
 10
216.7140608505961
 20
494.352143738716
 30
0.0
 10
216.7531015814506
 20
494.5105229263667
 30
0.0
 10
216.7916202856504
 20
494.6667686510584
 30
0.0
 10
216.8690270369584
 20
494.9747605004749
 30
0.0
 10
216.908171454945
 20
495.1274046079461
 30
0.0
 10
216.9853222088602
 20
495.4164888971332
 30
0.0
 10
217.0236497906014
 20
495.5542934353172
 30
0.0
 10
217.1011961110778
 20
495.8159121109561
 30
0.0
 10
217.1401723187464
 20
495.9386584176387
 30
0.0
 10
217.2556671751914
 20
496.2699827945864
 30
0.0
 10
217.3335796188615
 20
496.4489939186147
 30
0.0
 10
217.4490595442625
 20
496.6286090179956
 30
0.0
 10
217.4879253401275
 20
496.6748533668633
 30
0.0
 10
217.565699673796
 20
496.7366066728745
 30
0.0
 10
217.6043094407509
 20
496.752143738716
 30
0.0
 10
217.6433501724775
 20
496.752143738716
 30
0.0
  0
SPLINE
  5
204
330
1F
100
AcDbEntity
  8
0
  6
Continuous
 62
     7
370
    25
100
AcDbSpline
210
0.0
220
0.0
230
1.0
 70
     8
 71
     3
 72
    20
 73
    16
 74
     0
 42
0.000000001
 43
0.00000001
 40
0.0
 40
0.0
 40
0.0
 40
0.0
 40
0.1249999999999997
 40
0.1249999999999997
 40
0.2499999999999994
 40
0.2499999999999994
 40
0.3749999999999991
 40
0.3749999999999991
 40
0.4999999999999988
 40
0.4999999999999988
 40
0.7500000000000008
 40
0.7500000000000008
 40
0.8750000000000006
 40
0.8750000000000006
 40
1.0
 40
1.0
 40
1.0
 40
1.0
 10
217.6433501724775
 20
496.752143738716
 30
0.0
 10
217.4849709848268
 20
496.752143738716
 30
0.0
 10
217.3287252601351
 20
496.7366071782411
 30
0.0
 10
217.0207334107185
 20
496.6752888262806
 30
0.0
 10
216.8680893032473
 20
496.6288650806937
 30
0.0
 10
216.5790050140602
 20
496.5089142105396
 30
0.0
 10
216.4412004758762
 20
496.4353095662562
 30
0.0
 10
216.1795818002373
 20
496.2605792001605
 30
0.0
 10
216.0568354935547
 20
496.1597285712589
 30
0.0
 10
215.7255111166071
 20
495.828443291275
 30
0.0
 10
215.5464999925788
 20
495.5607631298911
 30
0.0
 10
215.3668848931979
 20
495.1280891038357
 30
0.0
 10
215.3206405443302
 20
494.9765710169846
 30
0.0
 10
215.258887238319
 20
494.6671452595986
 30
0.0
 10
215.2433501724775
 20
494.5105229299047
 30
0.0
 10
215.2433501724775
 20
494.352143738716
 30
0.0
  0
SPLINE
  5
205
330
1F
100
AcDbEntity
  8
0
  6
Continuous
 62
     7
370
    25
100
AcDbSpline
210
0.0
220
0.0
230
1.0
 70
     8
 71
     3
 72
     9
 73
     5
 74
     0
 42
0.000000001
 43
0.00000001
 40
0.0
 40
0.0
 40
0.0
 40
0.0
 40
0.4825784287291188
 40
1.0
 40
1.0
 40
1.0
 40
1.0
 10
216.867179940531
 20
494.9646834778939
 30
0.0
 10
216.8033717474697
 20
494.8765491365776
 30
0.0
 10
216.6711482802305
 20
494.6939169755246
 30
0.0
 10
216.652828975774
 20
494.4686840914802
 30
0.0
 10
216.6433501724775
 20
494.352143738716
 30
0.0
  0
LINE
  5
206
330
1F
100
AcDbEntity
  8
0
  6
Continuous
 62
     7
370
    25
100
AcDbLine
 10
215.2433501725
 20
494.3521437387
 30
0.0
 11
216.6433501725
 21
494.3521437387
 31
0.0
  0
LINE
  5
207
330
1F
100
AcDbEntity
  8
0
  6
Continuous
 62
     7
370
    25
100
AcDbLine
 10
610.2433501725
 20
494.3521437387
 30
0.0
 11
608.8433501725
 21
494.3521437387
 31
0.0
  0
SPLINE
  5
208
330
1F
100
AcDbEntity
  8
0
  6
Continuous
 62
     7
370
    25
100
AcDbSpline
210
0.0
220
0.0
230
1.0
 70
     8
 71
     3
 72
     9
 73
     5
 74
     0
 42
0.000000001
 43
0.00000001
 40
0.0
 40
0.0
 40
0.0
 40
0.0
 40
0.6784508005730578
 40
1.0
 40
1.0
 40
1.0
 40
1.0
 10
608.8433501724775
 20
494.352143738716
 30
0.0
 10
608.8301006020131
 20
494.5028509431693
 30
0.0
 10
608.8105714475729
 20
494.7249852590637
 30
0.0
 10
608.669723793934
 20
494.8918183639528
 30
0.0
 10
608.6244343436651
 20
494.9454634152679
 30
0.0
  0
SPLINE
  5
209
330
1F
100
AcDbEntity
  8
0
  6
Continuous
 62
     7
370
    25
100
AcDbSpline
210
0.0
220
0.0
230
1.0
 70
     8
 71
     3
 72
    20
 73
    16
 74
     0
 42
0.000000001
 43
0.00000001
 40
0.0
 40
0.0
 40
0.0
 40
0.0
 40
0.1249999999999994
 40
0.1249999999999994
 40
0.2499999999999987
 40
0.2499999999999987
 40
0.3749999999999981
 40
0.3749999999999981
 40
0.4999999999999974
 40
0.4999999999999974
 40
0.7499999999999987
 40
0.7499999999999987
 40
0.8749999999999993
 40
0.8749999999999993
 40
1.0
 40
1.0
 40
1.0
 40
1.0
 10
610.2433501724776
 20
494.352143738716
 30
0.0
 10
610.2433501724776
 20
494.5105229263667
 30
0.0
 10
610.2278136120026
 20
494.6667686510584
 30
0.0
 10
610.1664952600421
 20
494.974760500475
 30
0.0
 10
610.1200715144553
 20
495.1274046079461
 30
0.0
 10
610.0001206443011
 20
495.4164888971332
 30
0.0
 10
609.9265160000178
 20
495.5542934353173
 30
0.0
 10
609.751785633922
 20
495.8159121109562
 30
0.0
 10
609.6509350050205
 20
495.9386584176388
 30
0.0
 10
609.3196497250365
 20
496.2699827945865
 30
0.0
 10
609.0519695636527
 20
496.4489939186147
 30
0.0
 10
608.6192955375973
 20
496.6286090179956
 30
0.0
 10
608.4677774507461
 20
496.6748533668633
 30
0.0
 10
608.1583516933599
 20
496.7366066728746
 30
0.0
 10
608.0017293636663
 20
496.752143738716
 30
0.0
 10
607.8433501724775
 20
496.752143738716
 30
0.0
  0
LINE
  5
20A
330
1F
100
AcDbEntity
  8
0
  6
Continuous
 62
     7
370
    25
100
AcDbLine
 10
215.2433501725
 20
484.7521437387
 30
0.0
 11
216.6433501725
 21
484.7521437387
 31
0.0
  0
LINE
  5
20B
330
1F
100
AcDbEntity
  8
0
  6
Continuous
 62
     7
370
    25
100
AcDbLine
 10
215.2433501725
 20
494.3521437387
 30
0.0
 11
215.2433501725
 21
484.7521437387
 31
0.0
  0
LINE
  5
20C
330
1F
100
AcDbEntity
  8
0
  6
Continuous
 62
     7
370
    25
100
AcDbLine
 10
216.6433501725
 20
494.3521437387
 30
0.0
 11
216.6433501725
 21
484.7521437387
 31
0.0
  0
LINE
  5
20D
330
1F
100
AcDbEntity
  8
0
  6
Continuous
 62
     7
370
    25
100
AcDbLine
 10
610.2433501725
 20
494.3521437387
 30
0.0
 11
610.2433501725
 21
484.7521437387
 31
0.0
  0
LINE
  5
20E
330
1F
100
AcDbEntity
  8
0
  6
Continuous
 62
     7
370
    25
100
AcDbLine
 10
610.2433501725
 20
484.7521437387
 30
0.0
 11
608.8433501725
 21
484.7521437387
 31
0.0
  0
LINE
  5
20F
330
1F
100
AcDbEntity
  8
0
  6
Continuous
 62
     7
370
    25
100
AcDbLine
 10
608.8433501725
 20
494.3521437387
 30
0.0
 11
608.8433501725
 21
484.7521437387
 31
0.0
  0
LINE
  5
210
330
1F
100
AcDbEntity
  8
0
  6
Continuous
 62
     7
370
    25
100
AcDbLine
 10
273.5812351183
 20
479.7521437387
 30
0.0
 11
272.0005729294
 21
479.7521437387
 31
0.0
  0
LINE
  5
211
330
1F
100
AcDbEntity
  8
0
  6
Continuous
 62
     7
370
    25
100
AcDbLine
 10
271.9736855331
 20
480.2521437387
 30
0.0
 11
274.0812351183
 21
480.2521437387
 31
0.0
  0
LINE
  5
212
330
1F
100
AcDbEntity
  8
0
  6
Continuous
 62
     7
370
    25
100
AcDbLine
 10
272.0005729294
 20
479.7521437387
 30
0.0
 11
270.2710282451
 21
479.7521437387
 31
0.0
  0
LINE
  5
213
330
1F
100
AcDbEntity
  8
0
  6
Continuous
 62
     7
370
    25
100
AcDbLine
 10
270.2441408488
 20
480.2521437387
 30
0.0
 11
271.9736855331
 21
480.2521437387
 31
0.0
  0
LINE
  5
214
330
1F
100
AcDbEntity
  8
0
  6
Continuous
 62
     7
370
    25
100
AcDbLine
 10
270.2710282451
 20
479.7521437387
 30
0.0
 11
268.851690434
 21
479.7521437387
 31
0.0
  0
LINE
  5
215
330
1F
100
AcDbEntity
  8
0
  6
Continuous
 62
     7
370
    25
100
AcDbLine
 10
268.351690434
 20
480.2521437387
 30
0.0
 11
270.2441408488
 21
480.2521437387
 31
0.0
  0
LINE
  5
216
330
1F
100
AcDbEntity
  8
0
  6
Continuous
 62
     7
370
    25
100
AcDbLine
 10
555.5509044488
 20
479.7521437387
 30
0.0
 11
552.9528591127
 21
479.7521437387
 31
0.0
  0
LINE
  5
217
330
1F
100
AcDbEntity
  8
0
  6
Continuous
 62
     7
370
    25
100
AcDbLine
 10
552.5210703578
 20
480.2521437387
 30
0.0
 11
555.985130806
 21
480.2521437387
 31
0.0
  0
LINE
  5
218
330
1F
100
AcDbEntity
  8
0
  6
Continuous
 62
     7
370
    25
100
AcDbLine
 10
551.6477424387
 20
480.2521437387
 30
0.0
 11
552.5210703578
 21
480.2521437387
 31
0.0
  0
LINE
  5
219
330
1F
100
AcDbEntity
  8
0
  6
Continuous
 62
     7
370
    25
100
AcDbLine
 10
552.9528591127
 20
479.7521437387
 30
0.0
 11
552.0795311936
 21
479.7521437387
 31
0.0
  0
LINE
  5
21A
330
1F
100
AcDbEntity
  8
0
  6
Continuous
 62
     7
370
    25
100
AcDbLine
 10
555.985130806
 20
480.2521437387
 30
0.0
 11
556.843833111
 21
480.2521437387
 31
0.0
  0
LINE
  5
21B
330
1F
100
AcDbEntity
  8
0
  6
Continuous
 62
     7
370
    25
100
AcDbLine
 10
556.4096067538
 20
479.7521437387
 30
0.0
 11
555.5509044488
 21
479.7521437387
 31
0.0
  0
LINE
  5
21C
330
1F
100
AcDbEntity
  8
0
  6
Continuous
 62
     7
370
    25
100
AcDbLine
 10
551.3748974581
 20
480.2521437387
 30
0.0
 11
551.6477424387
 21
480.2521437387
 31
0.0
  0
LINE
  5
21D
330
1F
100
AcDbEntity
  8
0
  6
Continuous
 62
     7
370
    25
100
AcDbLine
 10
552.0795311936
 20
479.7521437387
 30
0.0
 11
551.8748974581
 21
479.7521437387
 31
0.0
  0
LINE
  5
21E
330
1F
100
AcDbEntity
  8
0
  6
Continuous
 62
     7
370
    25
100
AcDbLine
 10
556.843833111
 20
480.2521437387
 30
0.0
 11
557.1069276822
 21
480.2521437387
 31
0.0
  0
LINE
  5
21F
330
1F
100
AcDbEntity
  8
0
  6
Continuous
 62
     7
370
    25
100
AcDbLine
 10
556.6069276822
 20
479.7521437387
 30
0.0
 11
556.4096067538
 21
479.7521437387
 31
0.0
  0
ARC
  5
220
330
1F
100
AcDbEntity
  8
0
  6
Continuous
 62
     7
370
    25
100
AcDbCircle
 10
493.7433501725
 20
436.6521437387
 30
0.0
 40
3.0
100
AcDbArc
 50
180.0
 51
270.0
  0
LINE
  5
221
330
1F
100
AcDbEntity
  8
0
  6
Continuous
 62
     7
370
    25
100
AcDbLine
 10
490.7433501725
 20
436.6521437387
 30
0.0
 11
490.7433501725
 21
452.7821437387
 31
0.0
  0
LINE
  5
222
330
1F
100
AcDbEntity
  8
0
  6
Continuous
 62
     7
370
    25
100
AcDbLine
 10
490.7433501725
 20
452.7821437387
 30
0.0
 11
488.2433501725
 21
452.7821437387
 31
0.0
  0
LINE
  5
223
330
1F
100
AcDbEntity
  8
0
  6
Continuous
 62
     7
370
    25
100
AcDbLine
 10
488.2433501725
 20
452.2900929311
 30
0.0
 11
488.2433501725
 21
452.7821437387
 31
0.0
  0
LINE
  5
224
330
1F
100
AcDbEntity
  8
0
  6
Continuous
 62
     7
370
    25
100
AcDbLine
 10
338.2433501725
 20
452.2900929311
 30
0.0
 11
338.2433501725
 21
452.7821437387
 31
0.0
  0
LINE
  5
225
330
1F
100
AcDbEntity
  8
0
  6
Continuous
 62
     7
370
    25
100
AcDbLine
 10
338.2433501725
 20
452.7821437387
 30
0.0
 11
335.7433501725
 21
452.7821437387
 31
0.0
  0
LINE
  5
226
330
1F
100
AcDbEntity
  8
0
  6
Continuous
 62
     7
370
    25
100
AcDbLine
 10
335.7433501725
 20
452.7821437387
 30
0.0
 11
335.7433501725
 21
436.6521437387
 31
0.0
  0
ARC
  5
227
330
1F
100
AcDbEntity
  8
0
  6
Continuous
 62
     7
370
    25
100
AcDbCircle
 10
332.7433501725
 20
436.6521437387
 30
0.0
 40
3.0
100
AcDbArc
 50
270.0
 51
0.0
  0
LINE
  5
228
330
1F
100
AcDbEntity
  8
0
  6
Continuous
 62
     7
370
    25
100
AcDbLine
 10
332.7433501725
 20
433.6521437387
 30
0.0
 11
267.7433501725
 21
433.6521437387
 31
0.0
  0
ARC
  5
229
330
1F
100
AcDbEntity
  8
0
  6
Continuous
 62
     7
370
    25
100
AcDbCircle
 10
267.7433501725
 20
436.6521437387
 30
0.0
 40
3.0
100
AcDbArc
 50
180.0
 51
270.0
  0
LINE
  5
22A
330
1F
100
AcDbEntity
  8
0
  6
Continuous
 62
     7
370
    25
100
AcDbLine
 10
264.7433501725
 20
436.6521437387
 30
0.0
 11
264.7433501725
 21
457.6521437387
 31
0.0
  0
LINE
  5
22B
330
1F
100
AcDbEntity
  8
0
  6
Continuous
 62
     7
370
    25
100
AcDbLine
 10
264.7433501725
 20
457.6521437387
 30
0.0
 11
261.5433501725
 21
457.6521437387
 31
0.0
  0
LINE
  5
22C
330
1F
100
AcDbEntity
  8
0
  6
Continuous
 62
     7
370
    25
100
AcDbLine
 10
261.5433501725
 20
476.6521437387
 30
0.0
 11
262.7433501725
 21
476.6521437387
 31
0.0
  0
LINE
  5
22D
330
1F
100
AcDbEntity
  8
0
  6
Continuous
 62
     7
370
    25
100
AcDbLine
 10
262.7433501725
 20
476.6521437387
 30
0.0
 11
262.7433501725
 21
476.8521437387
 31
0.0
  0
LINE
  5
22E
330
1F
100
AcDbEntity
  8
0
  6
Continuous
 62
     7
370
    25
100
AcDbLine
 10
562.7433501725
 20
476.8521437387
 30
0.0
 11
562.7433501725
 21
476.6521437387
 31
0.0
  0
LINE
  5
22F
330
1F
100
AcDbEntity
  8
0
  6
Continuous
 62
     7
370
    25
100
AcDbLine
 10
562.7433501725
 20
476.6521437387
 30
0.0
 11
563.9433501725
 21
476.6521437387
 31
0.0
  0
LINE
  5
230
330
1F
100
AcDbEntity
  8
0
  6
Continuous
 62
     7
370
    25
100
AcDbLine
 10
563.9433501725
 20
457.6521437387
 30
0.0
 11
560.7433501725
 21
457.6521437387
 31
0.0
  0
LINE
  5
231
330
1F
100
AcDbEntity
  8
0
  6
Continuous
 62
     7
370
    25
100
AcDbLine
 10
560.7433501725
 20
457.6521437387
 30
0.0
 11
560.7433501725
 21
436.6521437387
 31
0.0
  0
ARC
  5
232
330
1F
100
AcDbEntity
  8
0
  6
Continuous
 62
     7
370
    25
100
AcDbCircle
 10
557.7433501725
 20
436.6521437387
 30
0.0
 40
3.000000000000114
100
AcDbArc
 50
270.0
 51
0.0
  0
LINE
  5
233
330
1F
100
AcDbEntity
  8
0
  6
Continuous
 62
     7
370
    25
100
AcDbLine
 10
557.7433501725
 20
433.6521437387
 30
0.0
 11
493.7433501725
 21
433.6521437387
 31
0.0
  0
LINE
  5
234
330
1F
100
AcDbEntity
  8
0
  6
Continuous
 62
     7
370
    25
100
AcDbLine
 10
338.2433501725
 20
451.3900929311
 30
0.0
 11
338.2433501725
 21
452.2900929311
 31
0.0
  0
LINE
  5
235
330
1F
100
AcDbEntity
  8
0
  6
Continuous
 62
     7
370
    25
100
AcDbLine
 10
488.2433501725
 20
452.2900929311
 30
0.0
 11
488.2433501725
 21
451.3900929311
 31
0.0
  0
LINE
  5
236
330
1F
100
AcDbEntity
  8
0
  6
Continuous
 62
     7
370
    25
100
AcDbLine
 10
563.9433501725
 20
476.6521437387
 30
0.0
 11
564.7433501725
 21
476.6521437387
 31
0.0
  0
LINE
  5
237
330
1F
100
AcDbEntity
  8
0
  6
Continuous
 62
     7
370
    25
100
AcDbLine
 10
565.7433501725
 20
457.6521437387
 30
0.0
 11
565.7433501725
 21
458.2521437387
 31
0.0
  0
LINE
  5
238
330
1F
100
AcDbEntity
  8
0
  6
Continuous
 62
     7
370
    25
100
AcDbLine
 10
565.7433501725
 20
457.6521437387
 30
0.0
 11
563.9433501725
 21
457.6521437387
 31
0.0
  0
LINE
  5
239
330
1F
100
AcDbEntity
  8
0
  6
Continuous
 62
     7
370
    25
100
AcDbLine
 10
261.5433501725
 20
457.6521437387
 30
0.0
 11
259.7433501725
 21
457.6521437387
 31
0.0
  0
LINE
  5
23A
330
1F
100
AcDbEntity
  8
0
  6
Continuous
 62
     7
370
    25
100
AcDbLine
 10
259.7433501725
 20
457.6521437387
 30
0.0
 11
259.7433501725
 21
458.2521437387
 31
0.0
  0
LINE
  5
23B
330
1F
100
AcDbEntity
  8
0
  6
Continuous
 62
     7
370
    25
100
AcDbLine
 10
260.7433501725
 20
476.6521437387
 30
0.0
 11
261.5433501725
 21
476.6521437387
 31
0.0
  0
LINE
  5
23C
330
1F
100
AcDbEntity
  8
0
  6
Continuous
 62
     7
370
    25
100
AcDbLine
 10
562.7433501725
 20
478.6521437387
 30
0.0
 11
562.7433501725
 21
476.8521437387
 31
0.0
  0
LINE
  5
23D
330
1F
100
AcDbEntity
  8
0
  6
Continuous
 62
     7
370
    25
100
AcDbLine
 10
262.7433501725
 20
476.8521437387
 30
0.0
 11
262.7433501725
 21
478.6521437387
 31
0.0
  0
LINE
  5
23E
330
1F
100
AcDbEntity
  8
0
  6
Continuous
 62
     7
370
    25
100
AcDbLine
 10
338.2433501725
 20
451.3900929311
 30
0.0
 11
338.2433501725
 21
444.7652218005
 31
0.0
  0
LINE
  5
23F
330
1F
100
AcDbEntity
  8
0
  6
Continuous
 62
     7
370
    25
100
AcDbLine
 10
488.2433501725
 20
444.7652218005
 30
0.0
 11
488.2433501725
 21
451.3900929311
 31
0.0
  0
LINE
  5
240
330
1F
100
AcDbEntity
  8
0
  6
Continuous
 62
     7
370
    25
100
AcDbLine
 10
338.2433501725
 20
444.7652218005
 30
0.0
 11
338.2433501725
 21
444.2652218005
 31
0.0
  0
LINE
  5
241
330
1F
100
AcDbEntity
  8
0
  6
Continuous
 62
     7
370
    25
100
AcDbLine
 10
488.2433501725
 20
444.2652218005
 30
0.0
 11
488.2433501725
 21
444.7652218005
 31
0.0
  0
ARC
  5
242
330
1F
100
AcDbEntity
  8
0
  6
Continuous
 62
     7
370
    25
100
AcDbCircle
 10
341.2433501725
 20
437.7475303469
 30
0.0
 40
3.0
100
AcDbArc
 50
180.0
 51
270.0
  0
LINE
  5
243
330
1F
100
AcDbEntity
  8
0
  6
Continuous
 62
     7
370
    25
100
AcDbLine
 10
338.2433501725
 20
437.7475303469
 30
0.0
 11
338.2433501725
 21
444.2652218005
 31
0.0
  0
LINE
  5
244
330
1F
100
AcDbEntity
  8
0
  6
Continuous
 62
     7
370
    25
100
AcDbLine
 10
488.2433501725
 20
444.2652218005
 30
0.0
 11
488.2433501725
 21
437.7475303469
 31
0.0
  0
ARC
  5
245
330
1F
100
AcDbEntity
  8
0
  6
Continuous
 62
     7
370
    25
100
AcDbCircle
 10
485.2433501725
 20
437.7475303469
 30
0.0
 40
3.000000000000057
100
AcDbArc
 50
270.0
 51
0.0
  0
LINE
  5
246
330
1F
100
AcDbEntity
  8
0
  6
Continuous
 62
     7
370
    25
100
AcDbLine
 10
485.2433501725
 20
434.7475303469
 30
0.0
 11
341.2433501725
 21
434.7475303469
 31
0.0
  0
LINE
  5
247
330
1F
100
AcDbEntity
  8
0
  6
Continuous
 62
     7
370
    25
100
AcDbLine
 10
549.4933501725
 20
484.2521437387
 30
0.0
 11
549.4933501725
 21
484.7521437387
 31
0.0
  0
LINE
  5
248
330
1F
100
AcDbEntity
  8
0
  6
Continuous
 62
     7
370
    25
100
AcDbLine
 10
558.9933501725
 20
484.7521437387
 30
0.0
 11
558.9933501725
 21
484.2521437387
 31
0.0
  0
LINE
  5
249
330
1F
100
AcDbEntity
  8
0
  6
Continuous
 62
     7
370
    25
100
AcDbLine
 10
558.9933501725
 20
484.2521437387
 30
0.0
 11
549.4933501725
 21
484.2521437387
 31
0.0
  0
ARC
  5
24A
330
1F
100
AcDbEntity
  8
0
  6
Continuous
 62
     7
370
    25
100
AcDbCircle
 10
559.7567501725
 20
485.4887437387
 30
0.0
 40
1.236600000000067
100
AcDbArc
 50
270.0
 51
323.4399088994
  0
LINE
  5
24B
330
1F
100
AcDbEntity
  8
0
  6
Continuous
 62
     7
370
    25
100
AcDbLine
 10
559.7567501725
 20
484.2521437387
 30
0.0
 11
558.9933501725
 21
484.2521437387
 31
0.0
  0
LINE
  5
24C
330
1F
100
AcDbEntity
  8
0
  6
Continuous
 62
     7
370
    25
100
AcDbLine
 10
549.4933501725
 20
484.2521437387
 30
0.0
 11
548.7299501725
 21
484.2521437387
 31
0.0
  0
ARC
  5
24D
330
1F
100
AcDbEntity
  8
0
  6
Continuous
 62
     7
370
    25
100
AcDbCircle
 10
548.7299501725
 20
485.4887437387
 30
0.0
 40
1.236600000000067
100
AcDbArc
 50
216.5600911006
 51
270.0
  0
LINE
  5
24E
330
1F
100
AcDbEntity
  8
0
  6
Continuous
 62
     7
370
    25
100
AcDbLine
 10
266.4933501725
 20
484.2521437387
 30
0.0
 11
266.4933501725
 21
484.7521437387
 31
0.0
  0
LINE
  5
24F
330
1F
100
AcDbEntity
  8
0
  6
Continuous
 62
     7
370
    25
100
AcDbLine
 10
275.9933501725
 20
484.2521437387
 30
0.0
 11
266.4933501725
 21
484.2521437387
 31
0.0
  0
LINE
  5
250
330
1F
100
AcDbEntity
  8
0
  6
Continuous
 62
     7
370
    25
100
AcDbLine
 10
275.9933501725
 20
484.7521437387
 30
0.0
 11
275.9933501725
 21
484.2521437387
 31
0.0
  0
ARC
  5
251
330
1F
100
AcDbEntity
  8
0
  6
Continuous
 62
     7
370
    25
100
AcDbCircle
 10
276.7567501725
 20
485.4887437387
 30
0.0
 40
1.236600000000067
100
AcDbArc
 50
270.0
 51
323.4399088994
  0
LINE
  5
252
330
1F
100
AcDbEntity
  8
0
  6
Continuous
 62
     7
370
    25
100
AcDbLine
 10
276.7567501725
 20
484.2521437387
 30
0.0
 11
275.9933501725
 21
484.2521437387
 31
0.0
  0
ARC
  5
253
330
1F
100
AcDbEntity
  8
0
  6
Continuous
 62
     7
370
    25
100
AcDbCircle
 10
265.7299501725
 20
485.4887437387
 30
0.0
 40
1.236600000000067
100
AcDbArc
 50
216.5600911006
 51
270.0
  0
LINE
  5
254
330
1F
100
AcDbEntity
  8
0
  6
Continuous
 62
     7
370
    25
100
AcDbLine
 10
266.4933501725
 20
484.2521437387
 30
0.0
 11
265.7299501725
 21
484.2521437387
 31
0.0
  0
LINE
  5
255
330
1F
100
AcDbEntity
  8
0
  6
Continuous
 62
     7
370
    25
100
AcDbLine
 10
574.4021001725
 20
463.1521437387
 30
0.0
 11
574.4021001725
 21
463.3521437387
 31
0.0
  0
LINE
  5
256
330
1F
100
AcDbEntity
  8
0
  6
Continuous
 62
     7
370
    25
100
AcDbLine
 10
574.4021001725
 20
468.9521437387
 30
0.0
 11
574.4021001725
 21
469.1521437387
 31
0.0
  0
LINE
  5
257
330
1F
100
AcDbEntity
  8
0
  6
Continuous
 62
     7
370
    25
100
AcDbLine
 10
574.9433501724
 20
467.731547076
 30
0.0
 11
574.9433501724
 21
468.6108937387
 31
0.0
  0
LINE
  5
258
330
1F
100
AcDbEntity
  8
0
  6
Continuous
 62
     7
370
    25
100
AcDbLine
 10
574.9433501724
 20
463.6933937387
 30
0.0
 11
574.9433501724
 21
467.731547076
 31
0.0
  0
LINE
  5
259
330
1F
100
AcDbEntity
  8
0
  6
Continuous
 62
     7
370
    25
100
AcDbLine
 10
564.2433501725
 20
480.4521437387
 30
0.0
 11
564.2433501725
 21
478.6521437387
 31
0.0
  0
LINE
  5
25A
330
1F
100
AcDbEntity
  8
0
  6
Continuous
 62
     7
370
    25
100
AcDbLine
 10
564.2433501725
 20
478.6521437387
 30
0.0
 11
261.2433501725
 21
478.6521437387
 31
0.0
  0
LINE
  5
25B
330
1F
100
AcDbEntity
  8
0
  6
Continuous
 62
     7
370
    25
100
AcDbLine
 10
261.2433501725
 20
478.6521437387
 30
0.0
 11
261.2433501725
 21
480.4521437387
 31
0.0
  0
LINE
  5
25C
330
1F
100
AcDbEntity
  8
0
  6
Continuous
 62
     7
370
    25
100
AcDbLine
 10
564.2433501725
 20
480.4521437387
 30
0.0
 11
564.7433501725
 21
485.8271437387
 31
0.0
  0
LINE
  5
25D
330
1F
100
AcDbEntity
  8
0
  6
Continuous
 62
     7
370
    25
100
AcDbLine
 10
260.7433501725
 20
485.8271437387
 30
0.0
 11
261.2433501725
 21
480.4521437387
 31
0.0
  0
LINE
  5
25E
330
1F
100
AcDbEntity
  8
0
  6
Continuous
 62
     7
370
    25
100
AcDbLine
 10
251.0846001725
 20
469.1521437387
 30
0.0
 11
251.0846001725
 21
468.9521437387
 31
0.0
  0
LINE
  5
25F
330
1F
100
AcDbEntity
  8
0
  6
Continuous
 62
     7
370
    25
100
AcDbLine
 10
251.0846001725
 20
463.3521437387
 30
0.0
 11
251.0846001725
 21
463.1521437387
 31
0.0
  0
LINE
  5
260
330
1F
100
AcDbEntity
  8
0
  6
Continuous
 62
     7
370
    25
100
AcDbLine
 10
250.5433501725
 20
463.9348056614
 30
0.0
 11
250.5433501725
 21
463.6933937387
 31
0.0
  0
LINE
  5
261
330
1F
100
AcDbEntity
  8
0
  6
Continuous
 62
     7
370
    25
100
AcDbLine
 10
250.5433501725
 20
468.6108937387
 30
0.0
 11
250.5433501725
 21
463.9348056614
 31
0.0
  0
LWPOLYLINE
  5
262
330
1F
100
AcDbEntity
  8
0
  6
Continuous
 62
     7
370
    25
100
AcDbPolyline
 90
        9
 70
   128
 43
0.0
 10
566.7954710324
 20
458.2521437387
 10
566.9289206722
 20
458.2905731779
 10
567.0572419172
 20
458.4043846737
 10
567.1755034539
 20
458.5892045141
 10
567.2791605577
 20
458.8379301763
 10
567.3642297444
 20
459.1410032727
 10
567.4274418527
 20
459.486776874
 10
567.4663676768
 20
459.8619630947
 10
567.4795113191
 20
460.2521437387
  0
LINE
  5
263
330
1F
100
AcDbEntity
  8
0
  6
Continuous
 62
     7
370
    25
100
AcDbLine
 10
564.9242723101
 20
458.2521437387
 30
0.0
 11
566.7954710324
 21
458.2521437387
 31
0.0
  0
LINE
  5
264
330
1F
100
AcDbEntity
  8
0
  6
Continuous
 62
     7
370
    25
100
AcDbLine
 10
566.7954710324
 20
474.2521437387
 30
0.0
 11
564.9242723101
 21
474.2521437387
 31
0.0
  0
LWPOLYLINE
  5
265
330
1F
100
AcDbEntity
  8
0
  6
Continuous
 62
     7
370
    25
100
AcDbPolyline
 90
        9
 70
   128
 43
0.0
 10
567.4795113191
 20
472.2521437387
 10
567.4663676768
 20
472.6423243827
 10
567.4274418527
 20
473.0175106034
 10
567.3642297444
 20
473.3632842047
 10
567.2791605577
 20
473.6663573011
 10
567.1755034539
 20
473.9150829633
 10
567.0572419172
 20
474.0999028037
 10
566.9289206722
 20
474.2137142995
 10
566.7954710324
 20
474.2521437387
  0
LINE
  5
266
330
1F
100
AcDbEntity
  8
0
  6
Continuous
 62
     7
370
    25
100
AcDbLine
 10
567.4795113191
 20
460.2521437387
 30
0.0
 11
567.4795113191
 21
472.2521437387
 31
0.0
  0
LWPOLYLINE
  5
267
330
1F
100
AcDbEntity
  8
0
  6
Continuous
 62
     7
370
    25
100
AcDbPolyline
 90
        9
 70
   128
 43
0.0
 10
569.3588965607
 20
460.2521437387
 10
569.3457529184
 20
459.8619630947
 10
569.3068270943
 20
459.486776874
 10
569.2436149859
 20
459.1410032727
 10
569.1585457993
 20
458.8379301763
 10
569.0548886955
 20
458.5892045141
 10
568.9366271588
 20
458.4043846737
 10
568.8083059138
 20
458.2905731779
 10
568.674856274
 20
458.2521437387
  0
LINE
  5
268
330
1F
100
AcDbEntity
  8
0
  6
Continuous
 62
     7
370
    25
100
AcDbLine
 10
568.674856274
 20
458.2521437387
 30
0.0
 11
566.7954710324
 21
458.2521437387
 31
0.0
  0
LINE
  5
269
330
1F
100
AcDbEntity
  8
0
  6
Continuous
 62
     7
370
    25
100
AcDbLine
 10
569.3588965607
 20
460.2521437387
 30
0.0
 11
569.3588965607
 21
472.2521437387
 31
0.0
  0
LINE
  5
26A
330
1F
100
AcDbEntity
  8
0
  6
Continuous
 62
     7
370
    25
100
AcDbLine
 10
566.7954710324
 20
474.2521437387
 30
0.0
 11
568.674856274
 21
474.2521437387
 31
0.0
  0
LWPOLYLINE
  5
26B
330
1F
100
AcDbEntity
  8
0
  6
Continuous
 62
     7
370
    25
100
AcDbPolyline
 90
        9
 70
   128
 43
0.0
 10
568.674856274
 20
474.2521437387
 10
568.8083059138
 20
474.2137142995
 10
568.9366271588
 20
474.0999028037
 10
569.0548886955
 20
473.9150829633
 10
569.1585457993
 20
473.6663573011
 10
569.2436149859
 20
473.3632842047
 10
569.3068270943
 20
473.0175106034
 10
569.3457529184
 20
472.6423243827
 10
569.3588965607
 20
472.2521437387
  0
LINE
  5
26C
330
1F
100
AcDbEntity
  8
0
  6
Continuous
 62
     7
370
    25
100
AcDbLine
 10
564.7485365229
 20
474.2521437387
 30
0.0
 11
564.9242723101
 21
474.2521437387
 31
0.0
  0
LINE
  5
26D
330
1F
100
AcDbEntity
  8
0
  6
Continuous
 62
     7
370
    25
100
AcDbLine
 10
564.9242723101
 20
458.2521437387
 30
0.0
 11
564.7433501725
 21
458.2521437387
 31
0.0
  0
LINE
  5
26E
330
1F
100
AcDbEntity
  8
0
  6
Continuous
 62
     7
370
    25
100
AcDbLine
 10
564.7433501725
 20
458.2521437387
 30
0.0
 11
564.7433501725
 21
474.2521437387
 31
0.0
  0
LINE
  5
26F
330
1F
100
AcDbEntity
  8
0
  6
Continuous
 62
     7
370
    25
100
AcDbLine
 10
564.7485365229
 20
474.2521437387
 30
0.0
 11
564.7433501725
 21
474.2521437387
 31
0.0
  0
LINE
  5
270
330
1F
100
AcDbEntity
  8
0
  6
Continuous
 62
     7
370
    25
100
AcDbLine
 10
566.7433501725
 20
489.2521437387
 30
0.0
 11
566.7433501725
 21
474.2521437387
 31
0.0
  0
LINE
  5
271
330
1F
100
AcDbEntity
  8
0
  6
Continuous
 62
     7
370
    25
100
AcDbLine
 10
564.7433501725
 20
489.2521437387
 30
0.0
 11
564.7433501725
 21
474.2521437387
 31
0.0
  0
LINE
  5
272
330
1F
100
AcDbEntity
  8
0
  6
Continuous
 62
     7
370
    25
100
AcDbLine
 10
564.7433501725
 20
489.2521437387
 30
0.0
 11
564.7383376096
 21
489.3521437387
 31
0.0
  0
LINE
  5
273
330
1F
100
AcDbEntity
  8
0
  6
Continuous
 62
     7
370
    25
100
AcDbLine
 10
566.7433501725
 20
489.2521437387
 30
0.0
 11
566.7416830426
 21
489.3521437387
 31
0.0
  0
LINE
  5
274
330
1F
100
AcDbEntity
  8
0
  6
Continuous
 62
     7
370
    25
100
AcDbLine
 10
258.6912293125
 20
458.2521437387
 30
0.0
 11
260.5624280348
 21
458.2521437387
 31
0.0
  0
LWPOLYLINE
  5
275
330
1F
100
AcDbEntity
  8
0
  6
Continuous
 62
     7
370
    25
100
AcDbPolyline
 90
        9
 70
   128
 43
0.0
 10
258.0071890259
 20
460.2521437387
 10
258.0203326682
 20
459.8619630947
 10
258.0592584923
 20
459.486776874
 10
258.1224706006
 20
459.1410032727
 10
258.2075397872
 20
458.8379301763
 10
258.3111968911
 20
458.5892045141
 10
258.4294584278
 20
458.4043846737
 10
258.5577796727
 20
458.2905731779
 10
258.6912293125
 20
458.2521437387
  0
LINE
  5
276
330
1F
100
AcDbEntity
  8
0
  6
Continuous
 62
     7
370
    25
100
AcDbLine
 10
258.0071890259
 20
472.2521437387
 30
0.0
 11
258.0071890259
 21
460.2521437387
 31
0.0
  0
LWPOLYLINE
  5
277
330
1F
100
AcDbEntity
  8
0
  6
Continuous
 62
     7
370
    25
100
AcDbPolyline
 90
        9
 70
   128
 43
0.0
 10
258.6912293125
 20
474.2521437387
 10
258.5577796727
 20
474.2137142995
 10
258.4294584278
 20
474.0999028037
 10
258.3111968911
 20
473.9150829633
 10
258.2075397872
 20
473.6663573011
 10
258.1224706006
 20
473.3632842048
 10
258.0592584923
 20
473.0175106034
 10
258.0203326682
 20
472.6423243827
 10
258.0071890259
 20
472.2521437387
  0
LINE
  5
278
330
1F
100
AcDbEntity
  8
0
  6
Continuous
 62
     7
370
    25
100
AcDbLine
 10
260.5624280348
 20
474.2521437387
 30
0.0
 11
258.6912293125
 21
474.2521437387
 31
0.0
  0
LINE
  5
279
330
1F
100
AcDbEntity
  8
0
  6
Continuous
 62
     7
370
    25
100
AcDbLine
 10
258.6912293125
 20
458.2521437387
 30
0.0
 11
256.811844071
 21
458.2521437387
 31
0.0
  0
LWPOLYLINE
  5
27A
330
1F
100
AcDbEntity
  8
0
  6
Continuous
 62
     7
370
    25
100
AcDbPolyline
 90
        9
 70
   128
 43
0.0
 10
256.811844071
 20
458.2521437387
 10
256.6783944312
 20
458.2905731779
 10
256.5500731862
 20
458.4043846737
 10
256.4318116495
 20
458.5892045141
 10
256.3281545457
 20
458.8379301763
 10
256.243085359
 20
459.1410032727
 10
256.1798732507
 20
459.486776874
 10
256.1409474266
 20
459.8619630947
 10
256.1278037843
 20
460.2521437387
  0
LINE
  5
27B
330
1F
100
AcDbEntity
  8
0
  6
Continuous
 62
     7
370
    25
100
AcDbLine
 10
256.1278037843
 20
472.2521437387
 30
0.0
 11
256.1278037843
 21
460.2521437387
 31
0.0
  0
LWPOLYLINE
  5
27C
330
1F
100
AcDbEntity
  8
0
  6
Continuous
 62
     7
370
    25
100
AcDbPolyline
 90
        9
 70
   128
 43
0.0
 10
256.1278037843
 20
472.2521437387
 10
256.1409474266
 20
472.6423243827
 10
256.1798732507
 20
473.0175106034
 10
256.243085359
 20
473.3632842048
 10
256.3281545457
 20
473.6663573011
 10
256.4318116495
 20
473.9150829633
 10
256.5500731862
 20
474.0999028037
 10
256.6783944312
 20
474.2137142995
 10
256.811844071
 20
474.2521437387
  0
LINE
  5
27D
330
1F
100
AcDbEntity
  8
0
  6
Continuous
 62
     7
370
    25
100
AcDbLine
 10
256.811844071
 20
474.2521437387
 30
0.0
 11
258.6912293125
 21
474.2521437387
 31
0.0
  0
LINE
  5
27E
330
1F
100
AcDbEntity
  8
0
  6
Continuous
 62
     7
370
    25
100
AcDbLine
 10
260.7433501725
 20
458.2521437387
 30
0.0
 11
260.5624280348
 21
458.2521437387
 31
0.0
  0
LINE
  5
27F
330
1F
100
AcDbEntity
  8
0
  6
Continuous
 62
     7
370
    25
100
AcDbLine
 10
260.5624280348
 20
474.2521437387
 30
0.0
 11
260.7381638221
 21
474.2521437387
 31
0.0
  0
LINE
  5
280
330
1F
100
AcDbEntity
  8
0
  6
Continuous
 62
     7
370
    25
100
AcDbLine
 10
260.7433501725
 20
474.2521437387
 30
0.0
 11
260.7433501725
 21
458.2521437387
 31
0.0
  0
LINE
  5
281
330
1F
100
AcDbEntity
  8
0
  6
Continuous
 62
     7
370
    25
100
AcDbLine
 10
260.7381638221
 20
474.2521437387
 30
0.0
 11
260.7433501725
 21
474.2521437387
 31
0.0
  0
LINE
  5
282
330
1F
100
AcDbEntity
  8
0
  6
Continuous
 62
     7
370
    25
100
AcDbLine
 10
260.7433501725
 20
474.2521437387
 30
0.0
 11
260.7433501725
 21
489.2521437387
 31
0.0
  0
LINE
  5
283
330
1F
100
AcDbEntity
  8
0
  6
Continuous
 62
     7
370
    25
100
AcDbLine
 10
258.7433501725
 20
474.2521437387
 30
0.0
 11
258.7433501725
 21
489.2521437387
 31
0.0
  0
LINE
  5
284
330
1F
100
AcDbEntity
  8
0
  6
Continuous
 62
     7
370
    25
100
AcDbLine
 10
258.7450173024
 20
489.3521437387
 30
0.0
 11
258.7433501725
 21
489.2521437387
 31
0.0
  0
LINE
  5
285
330
1F
100
AcDbEntity
  8
0
  6
Continuous
 62
     7
370
    25
100
AcDbLine
 10
260.7483627354
 20
489.3521437387
 30
0.0
 11
260.7433501725
 21
489.2521437387
 31
0.0
  0
SPLINE
  5
286
330
1F
100
AcDbEntity
  8
0
  6
Continuous
 62
     7
370
    25
100
AcDbSpline
210
0.0
220
0.0
230
1.0
 70
    24
 71
     3
 72
    19
 73
    15
 74
     0
 42
0.000000001
 43
0.00000001
 40
0.0
 40
0.0
 40
0.0
 40
0.0
 40
0.1260638187928848
 40
0.1939261817305607
 40
0.2632286813759842
 40
0.3325311810214078
 40
0.4003935439590837
 40
0.5264573627519686
 40
0.6525211815448532
 40
0.7203835444825295
 40
0.7896860441279526
 40
0.8589885437733761
 40
0.9268509067110522
 40
1.0
 40
1.0
 40
1.0
 40
1.0
 10
563.7433501724719
 20
471.8795320940795
 30
0.0
 10
563.7433501724719
 20
471.6879441831432
 30
0.0
 10
563.7433501724719
 20
471.393221142152
 30
0.0
 10
563.743350172472
 20
470.4659666193114
 30
0.0
 10
563.7433501724719
 20
469.5804105787788
 30
0.0
 10
563.743350172472
 20
468.5440093692436
 30
0.0
 10
563.7433501724719
 20
467.1000559965942
 30
0.0
 10
563.7433501724719
 20
465.2152284138856
 30
0.0
 10
563.743350172472
 20
463.442218212059
 30
0.0
 10
563.7433501724719
 20
462.2199145903188
 30
0.0
 10
563.743350172472
 20
461.4192278751007
 30
0.0
 10
563.7433501724719
 20
460.8337372923276
 30
0.0
 10
563.743350172472
 20
460.4058511537747
 30
0.0
 10
563.743350172472
 20
460.4363634056773
 30
0.0
 10
563.743350172472
 20
460.4521915066033
 30
0.0
  0
SPLINE
  5
287
330
1F
100
AcDbEntity
  8
0
  6
Continuous
 62
     7
370
    25
100
AcDbSpline
210
0.0
220
0.0
230
1.0
 70
     8
 71
     3
 72
     8
 73
     4
 74
     0
 42
0.000000001
 43
0.00000001
 40
0.0
 40
0.0
 40
0.0
 40
0.0
 40
1.0
 40
1.0
 40
1.0
 40
1.0
 10
559.7433501724792
 20
465.3634459466435
 30
0.0
 10
559.7433501724792
 20
464.3905016308639
 30
0.0
 10
559.9176654728585
 20
463.4441863834114
 30
0.0
 10
560.1899321598703
 20
462.5128345623532
 30
0.0
  0
SPLINE
  5
288
330
1F
100
AcDbEntity
  8
0
  6
Continuous
 62
     7
370
    25
100
AcDbSpline
210
0.0
220
0.0
230
1.0
 70
     8
 71
     3
 72
     8
 73
     4
 74
     0
 42
0.000000001
 43
0.00000001
 40
0.0
 40
0.0
 40
0.0
 40
0.0
 40
1.0
 40
1.0
 40
1.0
 40
1.0
 10
560.1899321598704
 20
468.2140573309338
 30
0.0
 10
559.9176654728591
 20
467.2827055098774
 30
0.0
 10
559.7433501724792
 20
466.3363902624214
 30
0.0
 10
559.7433501724792
 20
465.3634459466435
 30
0.0
  0
LINE
  5
289
330
1F
100
AcDbEntity
  8
0
  6
Continuous
 62
     7
370
    25
100
AcDbLine
 10
563.7433501725
 20
468.2140573309
 30
0.0
 11
560.1899321599
 21
468.2140573309
 31
0.0
  0
LINE
  5
28A
330
1F
100
AcDbEntity
  8
0
  6
Continuous
 62
     7
370
    25
100
AcDbLine
 10
563.7433501725
 20
462.5128345623
 30
0.0
 11
560.1899321599
 21
462.5128345624
 31
0.0
  0
LINE
  5
28B
330
1F
100
AcDbEntity
  8
0
  6
Continuous
 62
     7
370
    25
100
AcDbLine
 10
559.7433501725
 20
470.0337119191
 30
0.0
 11
559.7433501725
 21
465.3634459466
 31
0.0
  0
SPLINE
  5
28C
330
1F
100
AcDbEntity
  8
0
  6
Continuous
 62
     7
370
    25
100
AcDbSpline
210
0.0
220
0.0
230
1.0
 70
     8
 71
     3
 72
     8
 73
     4
 74
     0
 42
0.000000001
 43
0.00000001
 40
0.0
 40
0.0
 40
0.0
 40
0.0
 40
1.0
 40
1.0
 40
1.0
 40
1.0
 10
559.7433501724792
 20
470.0337119191132
 30
0.0
 10
559.7433501724792
 20
469.4126442428939
 30
0.0
 10
559.9176654728585
 20
468.8085749224054
 30
0.0
 10
560.1899321598704
 20
468.2140573309401
 30
0.0
  0
SPLINE
  5
28D
330
1F
100
AcDbEntity
  8
0
  6
Continuous
 62
     7
370
    25
100
AcDbSpline
210
0.0
220
0.0
230
1.0
 70
     8
 71
     3
 72
     8
 73
     4
 74
     0
 42
0.000000001
 43
0.00000001
 40
0.0
 40
0.0
 40
0.0
 40
0.0
 40
1.0
 40
1.0
 40
1.0
 40
1.0
 10
560.1899321598703
 20
471.8533665072862
 30
0.0
 10
559.917665472859
 20
471.2588489158221
 30
0.0
 10
559.7433501724792
 20
470.6547795953313
 30
0.0
 10
559.7433501724792
 20
470.0337119191132
 30
0.0
  0
LINE
  5
28E
330
1F
100
AcDbEntity
  8
0
  6
Continuous
 62
     7
370
    25
100
AcDbLine
 10
563.7433501725
 20
471.8533665073
 30
0.0
 11
560.1899321599
 21
471.8533665073
 31
0.0
  0
LINE
  5
28F
330
1F
100
AcDbEntity
  8
0
  6
Continuous
 62
     7
370
    25
100
AcDbLine
 10
559.7433501725
 20
465.3634459466
 30
0.0
 11
559.7433501725
 21
461.4818777662
 31
0.0
  0
SPLINE
  5
290
330
1F
100
AcDbEntity
  8
0
  6
Continuous
 62
     7
370
    25
100
AcDbSpline
210
0.0
220
0.0
230
1.0
 70
     8
 71
     3
 72
     8
 73
     4
 74
     0
 42
0.000000001
 43
0.00000001
 40
0.0
 40
0.0
 40
0.0
 40
0.0
 40
1.0
 40
1.0
 40
1.0
 40
1.0
 10
560.1899321598703
 20
462.5128345623481
 30
0.0
 10
559.9176654728589
 20
462.1760003327558
 30
0.0
 10
559.7433501724789
 20
461.8337544057905
 30
0.0
 10
559.7433501724789
 20
461.4818777662307
 30
0.0
  0
SPLINE
  5
291
330
1F
100
AcDbEntity
  8
0
  6
Continuous
 62
     7
370
    25
100
AcDbSpline
210
0.0
220
0.0
230
1.0
 70
     8
 71
     3
 72
     8
 73
     4
 74
     0
 42
0.000000001
 43
0.00000001
 40
0.0
 40
0.0
 40
0.0
 40
0.0
 40
1.0
 40
1.0
 40
1.0
 40
1.0
 10
559.7433501724789
 20
461.4818777662307
 30
0.0
 10
559.7433501724789
 20
461.1300011266702
 30
0.0
 10
559.9176654728584
 20
460.7877551997061
 30
0.0
 10
560.1899321598703
 20
460.4509209701131
 30
0.0
  0
LINE
  5
292
330
1F
100
AcDbEntity
  8
0
  6
Continuous
 62
     7
370
    25
100
AcDbLine
 10
563.7433501725
 20
460.4509209701
 30
0.0
 11
560.1899321599
 21
460.4509209701
 31
0.0
  0
LINE
  5
293
330
1F
100
AcDbEntity
  8
0
  6
Continuous
 62
     7
370
    25
100
AcDbLine
 10
560.0397259296
 20
471.5066079316
 30
0.0
 11
560.1899321599
 21
471.8533665073
 31
0.0
  0
LINE
  5
294
330
1F
100
AcDbEntity
  8
0
  6
Continuous
 62
     7
370
    25
100
AcDbLine
 10
559.7433501725
 20
471.1521437387
 30
0.0
 11
559.7433501725
 21
470.0337119191
 31
0.0
  0
LINE
  5
295
330
1F
100
AcDbEntity
  8
0
  6
Continuous
 62
     7
370
    25
100
AcDbLine
 10
574.7433501725
 20
465.7643015995
 30
0.0
 11
574.7433501725
 21
468.6108937387
 31
0.0
  0
LINE
  5
296
330
1F
100
AcDbEntity
  8
0
  6
Continuous
 62
     7
370
    25
100
AcDbLine
 10
574.7433501725
 20
463.6933937387
 30
0.0
 11
574.7433501725
 21
465.7643015995
 31
0.0
  0
LINE
  5
297
330
1F
100
AcDbEntity
  8
0
  6
Continuous
 62
     7
370
    25
100
AcDbLine
 10
574.2021001725
 20
463.1521437387
 30
0.0
 11
574.2021001725
 21
469.1521437387
 31
0.0
  0
LINE
  5
298
330
1F
100
AcDbEntity
  8
0
  6
Continuous
 62
     7
370
    25
100
AcDbLine
 10
559.7433501725
 20
461.4818777662
 30
0.0
 11
559.7433501725
 21
461.1521437387
 31
0.0
  0
ARC
  5
299
330
1F
100
AcDbEntity
  8
0
  6
Continuous
 62
     7
370
    25
100
AcDbCircle
 10
573.2433501725
 20
495.3521437387
 30
0.0
 40
6.0
100
AcDbArc
 50
270.0
 51
323.1301023541
  0
ARC
  5
29A
330
1F
100
AcDbEntity
  8
0
  6
Continuous
 62
     7
370
    25
100
AcDbCircle
 10
252.2433501725
 20
495.3521437387
 30
0.0
 40
6.0
100
AcDbArc
 50
216.8698976459
 51
270.0
  0
SPLINE
  5
29B
330
1F
100
AcDbEntity
  8
0
  6
Continuous
 62
     7
370
    25
100
AcDbSpline
210
0.0
220
0.0
230
1.0
 70
    24
 71
     3
 72
    15
 73
    11
 74
     0
 42
0.000000001
 43
0.00000001
 40
0.0
 40
0.0
 40
0.0
 40
0.0
 40
0.0346967497918683
 40
0.2211884951269672
 40
0.4076802404620663
 40
0.5080720152630804
 40
0.6105942475634838
 40
0.7131164798638874
 40
0.8135082546649011
 40
1.0
 40
1.0
 40
1.0
 40
1.0
 10
261.7433501724773
 20
460.3788949293121
 30
0.0
 10
261.7433501724773
 20
460.3721738256806
 30
0.0
 10
261.7433501724773
 20
460.3293274263278
 30
0.0
 10
261.7433501724773
 20
460.8173683890863
 30
0.0
 10
261.7433501724773
 20
461.9132794465549
 30
0.0
 10
261.7433501724773
 20
463.1321765790024
 30
0.0
 10
261.7433501724773
 20
464.2123518068593
 30
0.0
 10
261.7433501724773
 20
465.372828709325
 30
0.0
 10
261.7433501724773
 20
466.9034036044401
 30
0.0
 10
261.7433501724773
 20
467.9670294930902
 30
0.0
 10
261.7433501724773
 20
468.6584510437734
 30
0.0
  0
SPLINE
  5
29C
330
1F
100
AcDbEntity
  8
0
  6
Continuous
 62
     7
370
    25
100
AcDbSpline
210
0.0
220
0.0
230
1.0
 70
    24
 71
     3
 72
    12
 73
     8
 74
     0
 42
0.000000001
 43
0.00000001
 40
0.0
 40
0.0
 40
0.0
 40
0.0
 40
0.3344405486782636
 40
0.5144757571369876
 40
0.6983315710265378
 40
0.8821873849160878
 40
1.0
 40
1.0
 40
1.0
 40
1.0
 10
261.7433501724773
 20
468.6584510437734
 30
0.0
 10
261.7433501724773
 20
469.2825965792752
 30
0.0
 10
261.7433501724773
 20
470.2427305947527
 30
0.0
 10
261.7433501724773
 20
471.1506415010481
 30
0.0
 10
261.7433501724774
 20
471.6563588389642
 30
0.0
 10
261.7433501724773
 20
471.9279785731024
 30
0.0
 10
261.7433501724773
 20
471.9261188416427
 30
0.0
 10
261.7433501724773
 20
471.9253925481178
 30
0.0
  0
SPLINE
  5
29D
330
1F
100
AcDbEntity
  8
0
  6
Continuous
 62
     7
370
    25
100
AcDbSpline
210
0.0
220
0.0
230
1.0
 70
     8
 71
     3
 72
     8
 73
     4
 74
     0
 42
0.000000001
 43
0.00000001
 40
0.0
 40
0.0
 40
0.0
 40
0.0
 40
1.0
 40
1.0
 40
1.0
 40
1.0
 10
265.7433501724703
 20
465.7687487110284
 30
0.0
 10
265.7433501724703
 20
466.7511271556012
 30
0.0
 10
265.5690348720909
 20
467.7066183237909
 30
0.0
 10
265.296768185079
 20
468.6470009731185
 30
0.0
  0
SPLINE
  5
29E
330
1F
100
AcDbEntity
  8
0
  6
Continuous
 62
     7
370
    25
100
AcDbSpline
210
0.0
220
0.0
230
1.0
 70
     8
 71
     3
 72
     8
 73
     4
 74
     0
 42
0.000000001
 43
0.00000001
 40
0.0
 40
0.0
 40
0.0
 40
0.0
 40
1.0
 40
1.0
 40
1.0
 40
1.0
 10
265.296768185079
 20
462.8904964489384
 30
0.0
 10
265.5690348720904
 20
463.8308790982642
 30
0.0
 10
265.7433501724703
 20
464.7863702664575
 30
0.0
 10
265.7433501724703
 20
465.7687487110284
 30
0.0
  0
LINE
  5
29F
330
1F
100
AcDbEntity
  8
0
  6
Continuous
 62
     7
370
    25
100
AcDbLine
 10
261.7433501725
 20
462.8904964489
 30
0.0
 11
265.2967681851
 21
462.8904964489
 31
0.0
  0
LINE
  5
2A0
330
1F
100
AcDbEntity
  8
0
  6
Continuous
 62
     7
370
    25
100
AcDbLine
 10
261.7433501725
 20
468.6470009731
 30
0.0
 11
265.2967681851
 21
468.6470009731
 31
0.0
  0
LINE
  5
2A1
330
1F
100
AcDbEntity
  8
0
  6
Continuous
 62
     7
370
    25
100
AcDbLine
 10
265.7433501725
 20
465.768748711
 30
0.0
 11
265.7433501725
 21
470.277824618
 31
0.0
  0
SPLINE
  5
2A2
330
1F
100
AcDbEntity
  8
0
  6
Continuous
 62
     7
370
    25
100
AcDbSpline
210
0.0
220
0.0
230
1.0
 70
     8
 71
     3
 72
     8
 73
     4
 74
     0
 42
0.000000001
 43
0.00000001
 40
0.0
 40
0.0
 40
0.0
 40
0.0
 40
1.0
 40
1.0
 40
1.0
 40
1.0
 10
265.2967681850789
 20
468.6470009731246
 30
0.0
 10
265.5690348720902
 20
469.1798237141894
 30
0.0
 10
265.7433501724702
 20
469.7212069730841
 30
0.0
 10
265.7433501724702
 20
470.2778246180125
 30
0.0
  0
LINE
  5
2A3
330
1F
100
AcDbEntity
  8
0
  6
Continuous
 62
     7
370
    25
100
AcDbLine
 10
265.7433501725
 20
461.6430678317
 30
0.0
 11
265.7433501725
 21
465.768748711
 31
0.0
  0
SPLINE
  5
2A4
330
1F
100
AcDbEntity
  8
0
  6
Continuous
 62
     7
370
    25
100
AcDbSpline
210
0.0
220
0.0
230
1.0
 70
     8
 71
     3
 72
     8
 73
     4
 74
     0
 42
0.000000001
 43
0.00000001
 40
0.0
 40
0.0
 40
0.0
 40
0.0
 40
1.0
 40
1.0
 40
1.0
 40
1.0
 10
265.7433501724701
 20
461.6430678317309
 30
0.0
 10
265.7433501724701
 20
462.0688286313741
 30
0.0
 10
265.5690348720908
 20
462.4829365406712
 30
0.0
 10
265.2967681850789
 20
462.8904964489328
 30
0.0
  0
SPLINE
  5
2A5
330
1F
100
AcDbEntity
  8
0
  6
Continuous
 62
     7
370
    25
100
AcDbSpline
210
0.0
220
0.0
230
1.0
 70
     8
 71
     3
 72
     8
 73
     4
 74
     0
 42
0.000000001
 43
0.00000001
 40
0.0
 40
0.0
 40
0.0
 40
0.0
 40
1.0
 40
1.0
 40
1.0
 40
1.0
 10
265.7433501724702
 20
470.2778246180125
 30
0.0
 10
265.7433501724702
 20
470.8344422629423
 30
0.0
 10
265.569034872091
 20
471.3758255218342
 30
0.0
 10
265.2967681850789
 20
471.9086482629003
 30
0.0
  0
LINE
  5
2A6
330
1F
100
AcDbEntity
  8
0
  6
Continuous
 62
     7
370
    25
100
AcDbLine
 10
265.2967681851
 20
471.9086482629
 30
0.0
 11
261.7433501725
 21
471.9086482629
 31
0.0
  0
SPLINE
  5
2A7
330
1F
100
AcDbEntity
  8
0
  6
Continuous
 62
     7
370
    25
100
AcDbSpline
210
0.0
220
0.0
230
1.0
 70
     8
 71
     3
 72
     8
 73
     4
 74
     0
 42
0.000000001
 43
0.00000001
 40
0.0
 40
0.0
 40
0.0
 40
0.0
 40
1.0
 40
1.0
 40
1.0
 40
1.0
 10
265.2967681850789
 20
460.3956392145288
 30
0.0
 10
265.5690348720902
 20
460.8031991227898
 30
0.0
 10
265.7433501724701
 20
461.2173070320884
 30
0.0
 10
265.7433501724701
 20
461.6430678317309
 30
0.0
  0
LINE
  5
2A8
330
1F
100
AcDbEntity
  8
0
  6
Continuous
 62
     7
370
    25
100
AcDbLine
 10
261.7433501725
 20
460.3956392145
 30
0.0
 11
265.2967681851
 21
460.3956392145
 31
0.0
  0
LINE
  5
2A9
330
1F
100
AcDbEntity
  8
0
  6
Continuous
 62
     7
370
    25
100
AcDbLine
 10
251.2846001725
 20
469.1521437387
 30
0.0
 11
251.2846001725
 21
463.1521437387
 31
0.0
  0
LINE
  5
2AA
330
1F
100
AcDbEntity
  8
0
  6
Continuous
 62
     7
370
    25
100
AcDbLine
 10
250.7433501725
 20
463.9348056614
 30
0.0
 11
250.7433501725
 21
463.6933937387
 31
0.0
  0
LINE
  5
2AB
330
1F
100
AcDbEntity
  8
0
  6
Continuous
 62
     7
370
    25
100
AcDbLine
 10
250.7433501725
 20
468.6108937387
 30
0.0
 11
250.7433501725
 21
463.9348056614
 31
0.0
  0
LINE
  5
2AC
330
1F
100
AcDbEntity
  8
0
  6
Continuous
 62
     7
370
    25
100
AcDbLine
 10
265.2967681851
 20
471.9086482629
 30
0.0
 11
265.3719559406
 21
471.6986277951
 31
0.0
  0
LINE
  5
2AD
330
1F
100
AcDbEntity
  8
0
  6
Continuous
 62
     7
370
    25
100
AcDbLine
 10
265.7433501725
 20
470.277824618
 30
0.0
 11
265.7433501725
 21
471.1521437387
 31
0.0
  0
LINE
  5
2AE
330
1F
100
AcDbEntity
  8
0
  6
Continuous
 62
     7
370
    25
100
AcDbLine
 10
265.7433501725
 20
461.1521437387
 30
0.0
 11
265.7433501725
 21
461.6430678317
 31
0.0
  0
ARC
  5
2AF
330
1F
100
AcDbEntity
  8
0
  6
Continuous
 62
     7
370
    25
100
AcDbCircle
 10
564.4433501725
 20
107.2463019205
 30
0.0
 40
0.5000000000001137
100
AcDbArc
 50
180.0
 51
0.0
  0
ARC
  5
2B0
330
1F
100
AcDbEntity
  8
0
  6
Continuous
 62
     7
370
    25
100
AcDbCircle
 10
564.4433501725
 20
118.8463019207
 30
0.0
 40
0.5
100
AcDbArc
 50
0.0
 51
180.0
  0
LINE
  5
2B1
330
1F
100
AcDbEntity
  8
0
  6
Continuous
 62
     7
370
    25
100
AcDbLine
 10
574.4021001725
 20
116.0463019206
 30
0.0
 11
565.7433501725
 21
116.0463019206
 31
0.0
  0
LINE
  5
2B2
330
1F
100
AcDbEntity
  8
0
  6
Continuous
 62
     7
370
    25
100
AcDbLine
 10
565.7433501725
 20
110.0463019206
 30
0.0
 11
574.4021001725
 21
110.0463019206
 31
0.0
  0
LINE
  5
2B3
330
1F
100
AcDbEntity
  8
0
  6
Continuous
 62
     7
370
    25
100
AcDbLine
 10
574.4021001725
 20
110.0463019206
 30
0.0
 11
574.9433501724
 21
110.5875519206
 31
0.0
  0
LINE
  5
2B4
330
1F
100
AcDbEntity
  8
0
  6
Continuous
 62
     7
370
    25
100
AcDbLine
 10
574.9433501724
 20
115.5050519206
 30
0.0
 11
574.4021001725
 21
116.0463019206
 31
0.0
  0
LINE
  5
2B5
330
1F
100
AcDbEntity
  8
0
  6
Continuous
 62
     7
370
    25
100
AcDbLine
 10
547.7885647581
 20
104.4181246732
 30
0.0
 11
547.3933501725
 21
104.6463019206
 31
0.0
  0
LINE
  5
2B6
330
1F
100
AcDbEntity
  8
0
  6
Continuous
 62
     7
370
    25
100
AcDbLine
 10
541.0933501725
 20
104.6463019206
 30
0.0
 11
540.6628118775
 21
104.3977305201
 31
0.0
  0
LINE
  5
2B7
330
1F
100
AcDbEntity
  8
0
  6
Continuous
 62
     7
370
    25
100
AcDbLine
 10
540.6628118775
 20
101.6948733211
 30
0.0
 11
541.0933501725
 21
101.4463019206
 31
0.0
  0
LINE
  5
2B8
330
1F
100
AcDbEntity
  8
0
  6
Continuous
 62
     7
370
    25
100
AcDbLine
 10
547.3933501725
 20
101.4463019206
 30
0.0
 11
547.7885647581
 21
101.674479168
 31
0.0
  0
LINE
  5
2B9
330
1F
100
AcDbEntity
  8
0
  6
Continuous
 62
     7
370
    25
100
AcDbLine
 10
416.2885647581
 20
104.4181246732
 30
0.0
 11
415.8933501725
 21
104.6463019206
 31
0.0
  0
LINE
  5
2BA
330
1F
100
AcDbEntity
  8
0
  6
Continuous
 62
     7
370
    25
100
AcDbLine
 10
409.5933501725
 20
104.6463019206
 30
0.0
 11
409.1628118775
 21
104.3977305201
 31
0.0
  0
LINE
  5
2BB
330
1F
100
AcDbEntity
  8
0
  6
Continuous
 62
     7
370
    25
100
AcDbLine
 10
409.1628118775
 20
101.6948733211
 30
0.0
 11
409.5933501725
 21
101.4463019206
 31
0.0
  0
LINE
  5
2BC
330
1F
100
AcDbEntity
  8
0
  6
Continuous
 62
     7
370
    25
100
AcDbLine
 10
415.8933501725
 20
101.4463019206
 30
0.0
 11
416.2885647581
 21
101.674479168
 31
0.0
  0
LINE
  5
2BD
330
1F
100
AcDbEntity
  8
0
  6
Continuous
 62
     7
370
    25
100
AcDbLine
 10
284.7885647581
 20
104.4181246732
 30
0.0
 11
284.3933501725
 21
104.6463019206
 31
0.0
  0
LINE
  5
2BE
330
1F
100
AcDbEntity
  8
0
  6
Continuous
 62
     7
370
    25
100
AcDbLine
 10
278.0933501725
 20
104.6463019206
 30
0.0
 11
277.6628118775
 21
104.3977305201
 31
0.0
  0
LINE
  5
2BF
330
1F
100
AcDbEntity
  8
0
  6
Continuous
 62
     7
370
    25
100
AcDbLine
 10
277.6628118775
 20
101.6948733211
 30
0.0
 11
278.0933501725
 21
101.4463019206
 31
0.0
  0
LINE
  5
2C0
330
1F
100
AcDbEntity
  8
0
  6
Continuous
 62
     7
370
    25
100
AcDbLine
 10
284.3933501725
 20
101.4463019206
 30
0.0
 11
284.7885647581
 21
101.674479168
 31
0.0
  0
LINE
  5
2C1
330
1F
100
AcDbEntity
  8
0
  6
Continuous
 62
     7
370
    25
100
AcDbLine
 10
260.2433501725
 20
87.9963019206
 30
0.0
 11
565.2433501725
 21
87.9963019206
 31
0.0
  0
LINE
  5
2C2
330
1F
100
AcDbEntity
  8
0
  6
Continuous
 62
     7
370
    25
100
AcDbLine
 10
542.2433501725
 20
109.7463019206
 30
0.0
 11
542.2433501725
 21
104.6463019206
 31
0.0
  0
LINE
  5
2C3
330
1F
100
AcDbEntity
  8
0
  6
Continuous
 62
     7
370
    25
100
AcDbLine
 10
542.2433501725
 20
101.4463019206
 30
0.0
 11
542.2433501725
 21
101.3463019206
 31
0.0
  0
LINE
  5
2C4
330
1F
100
AcDbEntity
  8
0
  6
Continuous
 62
     7
370
    25
100
AcDbLine
 10
546.2433501725
 20
101.3463019206
 30
0.0
 11
546.2433501725
 21
101.4463019206
 31
0.0
  0
LINE
  5
2C5
330
1F
100
AcDbEntity
  8
0
  6
Continuous
 62
     7
370
    25
100
AcDbLine
 10
546.2433501725
 20
104.6463019206
 30
0.0
 11
546.2433501725
 21
109.7463019206
 31
0.0
  0
LINE
  5
2C6
330
1F
100
AcDbEntity
  8
0
  6
Continuous
 62
     7
370
    25
100
AcDbLine
 10
410.7433501725
 20
109.7463019206
 30
0.0
 11
410.7433501725
 21
104.6463019206
 31
0.0
  0
LINE
  5
2C7
330
1F
100
AcDbEntity
  8
0
  6
Continuous
 62
     7
370
    25
100
AcDbLine
 10
410.7433501725
 20
101.4463019206
 30
0.0
 11
410.7433501725
 21
101.3463019206
 31
0.0
  0
LINE
  5
2C8
330
1F
100
AcDbEntity
  8
0
  6
Continuous
 62
     7
370
    25
100
AcDbLine
 10
414.7433501725
 20
101.3463019206
 30
0.0
 11
414.7433501725
 21
101.4463019206
 31
0.0
  0
LINE
  5
2C9
330
1F
100
AcDbEntity
  8
0
  6
Continuous
 62
     7
370
    25
100
AcDbLine
 10
414.7433501725
 20
104.6463019206
 30
0.0
 11
414.7433501725
 21
109.7463019206
 31
0.0
  0
LINE
  5
2CA
330
1F
100
AcDbEntity
  8
0
  6
Continuous
 62
     7
370
    25
100
AcDbLine
 10
279.2433501725
 20
109.7463019206
 30
0.0
 11
279.2433501725
 21
104.6463019206
 31
0.0
  0
LINE
  5
2CB
330
1F
100
AcDbEntity
  8
0
  6
Continuous
 62
     7
370
    25
100
AcDbLine
 10
279.2433501725
 20
101.4463019206
 30
0.0
 11
279.2433501725
 21
101.3463019206
 31
0.0
  0
LINE
  5
2CC
330
1F
100
AcDbEntity
  8
0
  6
Continuous
 62
     7
370
    25
100
AcDbLine
 10
283.2433501725
 20
101.3463019206
 30
0.0
 11
283.2433501725
 21
101.4463019206
 31
0.0
  0
LINE
  5
2CD
330
1F
100
AcDbEntity
  8
0
  6
Continuous
 62
     7
370
    25
100
AcDbLine
 10
283.2433501725
 20
104.6463019206
 30
0.0
 11
283.2433501725
 21
109.7463019206
 31
0.0
  0
ARC
  5
2CE
330
1F
100
AcDbEntity
  8
0
  6
Continuous
 62
     7
370
    25
100
AcDbCircle
 10
261.0433501725
 20
118.8463019207
 30
0.0
 40
0.5000000000000568
100
AcDbArc
 50
0.0
 51
180.0
  0
ARC
  5
2CF
330
1F
100
AcDbEntity
  8
0
  6
Continuous
 62
     7
370
    25
100
AcDbCircle
 10
261.0433501725
 20
107.2463019205
 30
0.0
 40
0.5
100
AcDbArc
 50
180.0
 51
360.0
  0
LINE
  5
2D0
330
1F
100
AcDbEntity
  8
0
  6
Continuous
 62
     7
370
    25
100
AcDbLine
 10
251.0846001725
 20
110.0463019206
 30
0.0
 11
259.7433501725
 21
110.0463019206
 31
0.0
  0
LINE
  5
2D1
330
1F
100
AcDbEntity
  8
0
  6
Continuous
 62
     7
370
    25
100
AcDbLine
 10
259.7433501725
 20
116.0463019206
 30
0.0
 11
251.0846001725
 21
116.0463019206
 31
0.0
  0
LINE
  5
2D2
330
1F
100
AcDbEntity
  8
0
  6
Continuous
 62
     7
370
    25
100
AcDbLine
 10
251.0846001725
 20
116.0463019206
 30
0.0
 11
250.5433501725
 21
115.5050519206
 31
0.0
  0
LINE
  5
2D3
330
1F
100
AcDbEntity
  8
0
  6
Continuous
 62
     7
370
    25
100
AcDbLine
 10
250.5433501725
 20
110.5875519206
 30
0.0
 11
251.0846001725
 21
110.0463019206
 31
0.0
  0
LINE
  5
2D4
330
1F
100
AcDbEntity
  8
0
  6
Continuous
 62
     7
370
    25
100
AcDbLine
 10
265.5433501725
 20
118.0463019206
 30
0.0
 11
265.2138670767
 21
118.6169833827
 31
0.0
  0
LINE
  5
2D5
330
1F
100
AcDbEntity
  8
0
  6
Continuous
 62
     7
370
    25
100
AcDbLine
 10
265.2138670767
 20
107.4756204585
 30
0.0
 11
265.5433501725
 21
108.0463019206
 31
0.0
  0
LINE
  5
2D6
330
1F
100
AcDbEntity
  8
0
  6
Continuous
 62
     7
370
    25
100
AcDbLine
 10
258.2433501725
 20
89.8463019206
 30
0.0
 11
252.2433501725
 21
89.8463019206
 31
0.0
  0
LINE
  5
2D7
330
1F
100
AcDbEntity
  8
0
  6
Continuous
 62
     7
370
    25
100
AcDbLine
 10
567.2433501725
 20
89.8463019206
 30
0.0
 11
565.0712571492
 21
89.8463019206
 31
0.0
  0
LINE
  5
2D8
330
1F
100
AcDbEntity
  8
0
  6
Continuous
 62
     7
370
    25
100
AcDbLine
 10
260.4154431957
 20
89.8463019206
 30
0.0
 11
258.2433501725
 21
89.8463019206
 31
0.0
  0
LINE
  5
2D9
330
1F
100
AcDbEntity
  8
0
  6
Continuous
 62
     7
370
    25
100
AcDbLine
 10
573.2433501725
 20
89.8463019206
 30
0.0
 11
567.2433501725
 21
89.8463019206
 31
0.0
  0
SPLINE
  5
2DA
330
1F
100
AcDbEntity
  8
0
  6
Continuous
 62
     7
370
    25
100
AcDbSpline
210
0.0
220
0.0
230
1.0
 70
    24
 71
     3
 72
     9
 73
     5
 74
     0
 42
0.000000001
 43
0.00000001
 40
0.0
 40
0.0
 40
0.0
 40
0.0
 40
0.5153941859638861
 40
1.0
 40
1.0
 40
1.0
 40
1.0
 10
564.9433501724515
 20
118.721311920617
 30
0.0
 10
564.9433501724515
 20
118.7650537686727
 30
0.0
 10
564.9433501724516
 20
118.8499244351393
 30
0.0
 10
564.9433501724515
 20
118.8271679998958
 30
0.0
 10
564.9433501724516
 20
118.8161400990702
 30
0.0
  0
SPLINE
  5
2DB
330
1F
100
AcDbEntity
  8
0
  6
Continuous
 62
     7
370
    25
100
AcDbSpline
210
0.0
220
0.0
230
1.0
 70
    24
 71
     3
 72
    17
 73
    13
 74
     0
 42
0.000000001
 43
0.00000001
 40
0.0
 40
0.0
 40
0.0
 40
0.0
 40
0.0359921626376356
 40
0.120593066128043
 40
0.2034359252874601
 40
0.3573281084250905
 40
0.5112202915627205
 40
0.5940631507221372
 40
0.678664054212545
 40
0.7632649577029529
 40
0.8461078168623697
 40
1.0
 40
1.0
 40
1.0
 40
1.0
 10
563.9433501724516
 20
118.8161400990811
 30
0.0
 10
563.9433501724516
 20
118.8232914861224
 30
0.0
 10
563.9433501724516
 20
118.8472524717141
 30
0.0
 10
563.9433501724515
 20
118.6292475454785
 30
0.0
 10
563.9433501724516
 20
118.0574604483914
 30
0.0
 10
563.9433501724515
 20
116.8604438723011
 30
0.0
 10
563.9433501724516
 20
115.214387112424
 30
0.0
 10
563.9433501724516
 20
113.7291967602101
 30
0.0
 10
563.9433501724516
 20
112.5331686358359
 30
0.0
 10
563.9433501724515
 20
111.3634032230465
 30
0.0
 10
563.9433501724516
 20
109.9414560424627
 30
0.0
 10
563.9433501724516
 20
109.1291887626026
 30
0.0
 10
563.9433501724516
 20
108.601165603141
 30
0.0
  0
SPLINE
  5
2DC
330
1F
100
AcDbEntity
  8
0
  6
Continuous
 62
     7
370
    25
100
AcDbSpline
210
0.0
220
0.0
230
1.0
 70
     8
 71
     3
 72
     8
 73
     4
 74
     0
 42
0.000000001
 43
0.00000001
 40
0.0
 40
0.0
 40
0.0
 40
0.0
 40
1.0
 40
1.0
 40
1.0
 40
1.0
 10
559.9433501724586
 20
116.2581033182956
 30
0.0
 10
559.9433501724586
 20
115.5029825119877
 30
0.0
 10
560.117665472838
 20
114.7685290380443
 30
0.0
 10
560.38993215985
 20
114.0456889672739
 30
0.0
  0
SPLINE
  5
2DD
330
1F
100
AcDbEntity
  8
0
  6
Continuous
 62
     7
370
    25
100
AcDbSpline
210
0.0
220
0.0
230
1.0
 70
     8
 71
     3
 72
     8
 73
     4
 74
     0
 42
0.000000001
 43
0.00000001
 40
0.0
 40
0.0
 40
0.0
 40
0.0
 40
1.0
 40
1.0
 40
1.0
 40
1.0
 10
560.38993215985
 20
118.4705176693174
 30
0.0
 10
560.1176654728384
 20
117.7476775985482
 30
0.0
 10
559.9433501724586
 20
117.0132241246025
 30
0.0
 10
559.9433501724586
 20
116.2581033182956
 30
0.0
  0
LINE
  5
2DE
330
1F
100
AcDbEntity
  8
0
  6
Continuous
 62
     7
370
    25
100
AcDbLine
 10
560.3899321599
 20
118.4705176693
 30
0.0
 11
563.9433501725
 21
118.4705176693
 31
0.0
  0
LINE
  5
2DF
330
1F
100
AcDbEntity
  8
0
  6
Continuous
 62
     7
370
    25
100
AcDbLine
 10
563.9433501725
 20
114.0456889673
 30
0.0
 11
560.3899321598
 21
114.0456889673
 31
0.0
  0
SPLINE
  5
2E0
330
1F
100
AcDbEntity
  8
0
  6
Continuous
 62
     7
370
    25
100
AcDbSpline
210
0.0
220
0.0
230
1.0
 70
     8
 71
     3
 72
     8
 73
     4
 74
     0
 42
0.000000001
 43
0.00000001
 40
0.0
 40
0.0
 40
0.0
 40
0.0
 40
1.0
 40
1.0
 40
1.0
 40
1.0
 10
559.9433501724585
 20
111.3335810929186
 30
0.0
 10
559.9433501724585
 20
110.4079095142984
 30
0.0
 10
560.1176654728379
 20
109.5075731694791
 30
0.0
 10
560.3899321598499
 20
108.6214732185699
 30
0.0
  0
SPLINE
  5
2E1
330
1F
100
AcDbEntity
  8
0
  6
Continuous
 62
     7
370
    25
100
AcDbSpline
210
0.0
220
0.0
230
1.0
 70
     8
 71
     3
 72
     8
 73
     4
 74
     0
 42
0.000000001
 43
0.00000001
 40
0.0
 40
0.0
 40
0.0
 40
0.0
 40
1.0
 40
1.0
 40
1.0
 40
1.0
 10
560.3899321598499
 20
114.0456889672673
 30
0.0
 10
560.1176654728383
 20
113.1595890163598
 30
0.0
 10
559.9433501724585
 20
112.2592526715372
 30
0.0
 10
559.9433501724585
 20
111.3335810929186
 30
0.0
  0
LINE
  5
2E2
330
1F
100
AcDbEntity
  8
0
  6
Continuous
 62
     7
370
    25
100
AcDbLine
 10
563.9433501725
 20
108.6214732186
 30
0.0
 11
560.3899321598
 21
108.6214732186
 31
0.0
  0
LINE
  5
2E3
330
1F
100
AcDbEntity
  8
0
  6
Continuous
 62
     7
370
    25
100
AcDbLine
 10
559.9433501725
 20
116.2581033183
 30
0.0
 11
559.9433501725
 21
111.3335810929
 31
0.0
  0
SPLINE
  5
2E4
330
1F
100
AcDbEntity
  8
0
  6
Continuous
 62
     7
370
    25
100
AcDbSpline
210
0.0
220
0.0
230
1.0
 70
     8
 71
     3
 72
     8
 73
     4
 74
     0
 42
0.000000001
 43
0.00000001
 40
0.0
 40
0.0
 40
0.0
 40
0.0
 40
1.0
 40
1.0
 40
1.0
 40
1.0
 10
560.38993215985
 20
108.6214732185655
 30
0.0
 10
560.1176654728386
 20
108.458213338427
 30
0.0
 10
559.9433501724586
 20
108.2923304675506
 30
0.0
 10
559.9433501724586
 20
108.1217796952387
 30
0.0
  0
LINE
  5
2E5
330
1F
100
AcDbEntity
  8
0
  6
Continuous
 62
     7
370
    25
100
AcDbLine
 10
559.9433501725
 20
111.3335810929
 30
0.0
 11
559.9433501725
 21
108.1217796952
 31
0.0
  0
SPLINE
  5
2E6
330
1F
100
AcDbEntity
  8
0
  6
Continuous
 62
     7
370
    25
100
AcDbSpline
210
0.0
220
0.0
230
1.0
 70
     8
 71
     3
 72
     8
 73
     4
 74
     0
 42
0.000000001
 43
0.00000001
 40
0.0
 40
0.0
 40
0.0
 40
0.0
 40
1.0
 40
1.0
 40
1.0
 40
1.0
 10
559.9433501724586
 20
117.970824145993
 30
0.0
 10
559.9433501724586
 20
118.1413749183053
 30
0.0
 10
560.1176654728379
 20
118.3072577891809
 30
0.0
 10
560.38993215985
 20
118.4705176693197
 30
0.0
  0
LINE
  5
2E7
330
1F
100
AcDbEntity
  8
0
  6
Continuous
 62
     7
370
    25
100
AcDbLine
 10
559.9433501725
 20
116.2581033183
 30
0.0
 11
559.9433501725
 21
118.0416638864
 31
0.0
  0
SPLINE
  5
2E8
330
1F
100
AcDbEntity
  8
0
  6
Continuous
 62
     7
370
    25
100
AcDbSpline
210
0.0
220
0.0
230
1.0
 70
     8
 71
     3
 72
     8
 73
     4
 74
     0
 42
0.000000001
 43
0.00000001
 40
0.0
 40
0.0
 40
0.0
 40
0.0
 40
1.0
 40
1.0
 40
1.0
 40
1.0
 10
559.9433501724586
 20
108.1217796952387
 30
0.0
 10
559.9433501724586
 20
107.9512289229265
 30
0.0
 10
560.1176654728381
 20
107.7853460520508
 30
0.0
 10
560.38993215985
 20
107.622086171912
 30
0.0
  0
LINE
  5
2E9
330
1F
100
AcDbEntity
  8
0
  6
Continuous
 62
     7
370
    25
100
AcDbLine
 10
563.9433501725
 20
107.6220861719
 30
0.0
 11
560.3899321598
 21
107.6220861719
 31
0.0
  0
LINE
  5
2EA
330
1F
100
AcDbEntity
  8
0
  6
Continuous
 62
     7
370
    25
100
AcDbLine
 10
574.4021001725
 20
114.9733827592
 30
0.0
 11
574.4021001725
 21
116.0463019206
 31
0.0
  0
LINE
  5
2EB
330
1F
100
AcDbEntity
  8
0
  6
Continuous
 62
     7
370
    25
100
AcDbLine
 10
574.4021001725
 20
110.0463019206
 30
0.0
 11
574.4021001725
 21
114.9733827592
 31
0.0
  0
LINE
  5
2EC
330
1F
100
AcDbEntity
  8
0
  6
Continuous
 62
     7
370
    25
100
AcDbLine
 10
574.9433501724
 20
110.5875519206
 30
0.0
 11
574.9433501724
 21
115.5050519206
 31
0.0
  0
ARC
  5
2ED
330
1F
100
AcDbEntity
  8
0
  6
Continuous
 62
     7
370
    25
100
AcDbCircle
 10
567.2433501725
 20
90.4463019206
 30
0.0
 40
3.00000000000003
100
AcDbArc
 50
227.6305369016
 51
270.0
  0
LINE
  5
2EE
330
1F
100
AcDbEntity
  8
0
  6
Continuous
 62
     7
370
    25
100
AcDbLine
 10
579.2433501725
 20
87.4463019206
 30
0.0
 11
567.2433501725
 21
87.4463019206
 31
0.0
  0
ARC
  5
2EF
330
1F
100
AcDbEntity
  8
0
  6
Continuous
 62
     7
370
    25
100
AcDbCircle
 10
579.2433501725
 20
90.4463019206
 30
0.0
 40
3.0
100
AcDbArc
 50
270.0
 51
0.0
  0
LINE
  5
2F0
330
1F
100
AcDbEntity
  8
0
  6
Continuous
 62
     7
370
    25
100
AcDbLine
 10
582.2433501725
 20
91.4463019206
 30
0.0
 11
582.2433501725
 21
90.4463019206
 31
0.0
  0
ARC
  5
2F1
330
1F
100
AcDbEntity
  8
0
  6
Continuous
 62
     7
370
    25
100
AcDbCircle
 10
585.2433501725
 20
91.4463019206
 30
0.0
 40
3.0
100
AcDbArc
 50
90.0
 51
180.0
  0
LINE
  5
2F2
330
1F
100
AcDbEntity
  8
0
  6
Continuous
 62
     7
370
    25
100
AcDbLine
 10
608.7726394944
 20
94.4463019206
 30
0.0
 11
585.2433501725
 21
94.4463019206
 31
0.0
  0
LINE
  5
2F3
330
1F
100
AcDbEntity
  8
0
  6
Continuous
 62
     7
370
    25
100
AcDbLine
 10
608.7726394944
 20
84.8463019206
 30
0.0
 11
608.7726394944
 21
94.4463019206
 31
0.0
  0
LINE
  5
2F4
330
1F
100
AcDbEntity
  8
0
  6
Continuous
 62
     7
370
    25
100
AcDbLine
 10
216.7140608506
 20
84.8463019206
 30
0.0
 11
216.7140608506
 21
94.4463019206
 31
0.0
  0
LINE
  5
2F5
330
1F
100
AcDbEntity
  8
0
  6
Continuous
 62
     7
370
    25
100
AcDbLine
 10
240.2433501725
 20
94.4463019206
 30
0.0
 11
216.7140608506
 21
94.4463019206
 31
0.0
  0
ARC
  5
2F6
330
1F
100
AcDbEntity
  8
0
  6
Continuous
 62
     7
370
    25
100
AcDbCircle
 10
240.2433501725
 20
91.4463019206
 30
0.0
 40
3.0
100
AcDbArc
 50
0.0
 51
90.0
  0
LINE
  5
2F7
330
1F
100
AcDbEntity
  8
0
  6
Continuous
 62
     7
370
    25
100
AcDbLine
 10
243.2433501725
 20
91.4463019206
 30
0.0
 11
243.2433501725
 21
90.4463019206
 31
0.0
  0
ARC
  5
2F8
330
1F
100
AcDbEntity
  8
0
  6
Continuous
 62
     7
370
    25
100
AcDbCircle
 10
246.2433501725
 20
90.4463019206
 30
0.0
 40
3.0
100
AcDbArc
 50
180.0
 51
270.0
  0
LINE
  5
2F9
330
1F
100
AcDbEntity
  8
0
  6
Continuous
 62
     7
370
    25
100
AcDbLine
 10
246.2433501725
 20
87.4463019206
 30
0.0
 11
258.2433501725
 21
87.4463019206
 31
0.0
  0
ARC
  5
2FA
330
1F
100
AcDbEntity
  8
0
  6
Continuous
 62
     7
370
    25
100
AcDbCircle
 10
258.2433501725
 20
90.4463019206
 30
0.0
 40
3.000000000000026
100
AcDbArc
 50
270.0
 51
312.3694630983
  0
SPLINE
  5
2FB
330
1F
100
AcDbEntity
  8
0
  6
Continuous
 62
     7
370
    25
100
AcDbSpline
210
0.0
220
0.0
230
1.0
 70
     8
 71
     3
 72
    20
 73
    16
 74
     0
 42
0.000000001
 43
0.00000001
 40
0.0
 40
0.0
 40
0.0
 40
0.0
 40
0.1250000000000031
 40
0.1250000000000031
 40
0.2500000000000063
 40
0.2500000000000063
 40
0.3750000000000094
 40
0.3750000000000094
 40
0.5000000000000125
 40
0.5000000000000125
 40
0.7500000000000061
 40
0.7500000000000061
 40
0.8750000000000031
 40
0.8750000000000031
 40
1.0
 40
1.0
 40
1.0
 40
1.0
 10
217.6433501724775
 20
82.44630192061543
 30
0.0
 10
217.6043094416229
 20
82.44630192061543
 30
0.0
 10
217.5657907374232
 20
82.46183848109027
 30
0.0
 10
217.4883839861153
 20
82.52315683305086
 30
0.0
 10
217.4492395681285
 20
82.56958057863767
 30
0.0
 10
217.3720888142133
 20
82.6895314487918
 30
0.0
 10
217.3337612324723
 20
82.76313609307522
 30
0.0
 10
217.2562149119958
 20
82.93786645917085
 30
0.0
 10
217.2172387043271
 20
83.03871708807239
 30
0.0
 10
217.1017438478821
 20
83.37000236805635
 30
0.0
 10
217.0238314042119
 20
83.63768252944021
 30
0.0
 10
216.908351478811
 20
84.07035655549562
 30
0.0
 10
216.869485682946
 20
84.22187464234676
 30
0.0
 10
216.7917113492775
 20
84.53130039973286
 30
0.0
 10
216.7531015823227
 20
84.68792272942663
 30
0.0
 10
216.7140608505961
 20
84.84630192061536
 30
0.0
  0
SPLINE
  5
2FC
330
1F
100
AcDbEntity
  8
0
  6
Continuous
 62
     7
370
    25
100
AcDbSpline
210
0.0
220
0.0
230
1.0
 70
     8
 71
     3
 72
    20
 73
    16
 74
     0
 42
0.000000001
 43
0.00000001
 40
0.0
 40
0.0
 40
0.0
 40
0.0
 40
0.1249999999999988
 40
0.1249999999999988
 40
0.2499999999999976
 40
0.2499999999999976
 40
0.3749999999999964
 40
0.3749999999999964
 40
0.4999999999999952
 40
0.4999999999999952
 40
0.7500000000000001
 40
0.7500000000000001
 40
0.8750000000000001
 40
0.8750000000000001
 40
1.0
 40
1.0
 40
1.0
 40
1.0
 10
608.7726394943589
 20
84.84630192061543
 30
0.0
 10
608.7335987635045
 20
84.68792273296474
 30
0.0
 10
608.6950800593046
 20
84.53167700827305
 30
0.0
 10
608.6176733079967
 20
84.22368515885644
 30
0.0
 10
608.5785288900099
 20
84.07104105138531
 30
0.0
 10
608.5013781360947
 20
83.78195676219825
 30
0.0
 10
608.4630505543538
 20
83.64415222401419
 30
0.0
 10
608.3855042338772
 20
83.38253354837528
 30
0.0
 10
608.3465280262085
 20
83.25978724169264
 30
0.0
 10
608.2310331697634
 20
82.92846286474494
 30
0.0
 10
608.1531207260933
 20
82.74945174071671
 30
0.0
 10
608.0376408006924
 20
82.56983664133583
 30
0.0
 10
607.9987750048275
 20
82.52359229246811
 30
0.0
 10
607.9210006711589
 20
82.4618389864569
 30
0.0
 10
607.8823909042042
 20
82.44630192061544
 30
0.0
 10
607.8433501724775
 20
82.44630192061543
 30
0.0
  0
LINE
  5
2FD
330
1F
100
AcDbEntity
  8
0
  6
Continuous
 62
     7
370
    25
100
AcDbLine
 10
607.8433501725
 20
82.4463019206
 30
0.0
 11
217.6433501725
 21
82.4463019206
 31
0.0
  0
SPLINE
  5
2FE
330
1F
100
AcDbEntity
  8
0
  6
Continuous
 62
     7
370
    25
100
AcDbSpline
210
0.0
220
0.0
230
1.0
 70
     8
 71
     3
 72
     9
 73
     5
 74
     0
 42
0.000000001
 43
0.00000001
 40
0.0
 40
0.0
 40
0.0
 40
0.0
 40
0.4825784287291486
 40
1.0
 40
1.0
 40
1.0
 40
1.0
 10
608.6195204044241
 20
84.23376218143747
 30
0.0
 10
608.6833285974853
 20
84.32189652275382
 30
0.0
 10
608.8155520647244
 20
84.50452868380678
 30
0.0
 10
608.833871369181
 20
84.72976156785126
 30
0.0
 10
608.8433501724775
 20
84.8463019206154
 30
0.0
  0
LINE
  5
2FF
330
1F
100
AcDbEntity
  8
0
  6
Continuous
 62
     7
370
    25
100
AcDbLine
 10
610.2433501725
 20
84.8463019206
 30
0.0
 11
608.8433501725
 21
84.8463019206
 31
0.0
  0
SPLINE
  5
300
330
1F
100
AcDbEntity
  8
0
  6
Continuous
 62
     7
370
    25
100
AcDbSpline
210
0.0
220
0.0
230
1.0
 70
     8
 71
     3
 72
    20
 73
    16
 74
     0
 42
0.000000001
 43
0.00000001
 40
0.0
 40
0.0
 40
0.0
 40
0.0
 40
0.124999999999999
 40
0.124999999999999
 40
0.2499999999999981
 40
0.2499999999999981
 40
0.3749999999999971
 40
0.3749999999999971
 40
0.4999999999999961
 40
0.4999999999999961
 40
0.7499999999999968
 40
0.7499999999999968
 40
0.8749999999999984
 40
0.8749999999999984
 40
1.0
 40
1.0
 40
1.0
 40
1.0
 10
607.8433501724775
 20
82.4463019206154
 30
0.0
 10
608.0017293601283
 20
82.4463019206154
 30
0.0
 10
608.1579750848198
 20
82.46183848109025
 30
0.0
 10
608.4659669342365
 20
82.52315683305086
 30
0.0
 10
608.6186110417077
 20
82.56958057863767
 30
0.0
 10
608.9076953308947
 20
82.6895314487918
 30
0.0
 10
609.0454998690788
 20
82.76313609307523
 30
0.0
 10
609.3071185447176
 20
82.93786645917086
 30
0.0
 10
609.4298648514002
 20
83.0387170880724
 30
0.0
 10
609.7611892283479
 20
83.37000236805635
 30
0.0
 10
609.9402003523765
 20
83.6376825294402
 30
0.0
 10
610.1198154517573
 20
84.07035655549564
 30
0.0
 10
610.1660598006248
 20
84.22187464234676
 30
0.0
 10
610.227813106636
 20
84.53130039973288
 30
0.0
 10
610.2433501724776
 20
84.68792272942666
 30
0.0
 10
610.2433501724776
 20
84.8463019206154
 30
0.0
  0
SPLINE
  5
301
330
1F
100
AcDbEntity
  8
0
  6
Continuous
 62
     7
370
    25
100
AcDbSpline
210
0.0
220
0.0
230
1.0
 70
     8
 71
     3
 72
    20
 73
    16
 74
     0
 42
0.000000001
 43
0.00000001
 40
0.0
 40
0.0
 40
0.0
 40
0.0
 40
0.1250000000000002
 40
0.1250000000000002
 40
0.2500000000000002
 40
0.2500000000000002
 40
0.3750000000000002
 40
0.3750000000000002
 40
0.5000000000000001
 40
0.5000000000000001
 40
0.7500000000000001
 40
0.7500000000000001
 40
0.875
 40
0.875
 40
1.0
 40
1.0
 40
1.0
 40
1.0
 10
215.2433501724775
 20
84.8463019206154
 30
0.0
 10
215.2433501724775
 20
84.6879227329647
 30
0.0
 10
215.2588867329524
 20
84.53167700827302
 30
0.0
 10
215.320205084913
 20
84.2236851588564
 30
0.0
 10
215.3666288304998
 20
84.07104105138527
 30
0.0
 10
215.4865797006539
 20
83.7819567621982
 30
0.0
 10
215.5601843449372
 20
83.64415222401414
 30
0.0
 10
215.734914711033
 20
83.38253354837525
 30
0.0
 10
215.8357653399344
 20
83.25978724169258
 30
0.0
 10
216.1670506199183
 20
82.92846286474489
 30
0.0
 10
216.4347307813023
 20
82.74945174071667
 30
0.0
 10
216.8674048073576
 20
82.56983664133577
 30
0.0
 10
217.0189228942088
 20
82.52359229246805
 30
0.0
 10
217.3283486515949
 20
82.46183898645684
 30
0.0
 10
217.4849709812887
 20
82.4463019206154
 30
0.0
 10
217.6433501724775
 20
82.4463019206154
 30
0.0
  0
LINE
  5
302
330
1F
100
AcDbEntity
  8
0
  6
Continuous
 62
     7
370
    25
100
AcDbLine
 10
215.2433501725
 20
84.8463019206
 30
0.0
 11
216.6433501725
 21
84.8463019206
 31
0.0
  0
SPLINE
  5
303
330
1F
100
AcDbEntity
  8
0
  6
Continuous
 62
     7
370
    25
100
AcDbSpline
210
0.0
220
0.0
230
1.0
 70
     8
 71
     3
 72
     9
 73
     5
 74
     0
 42
0.000000001
 43
0.00000001
 40
0.0
 40
0.0
 40
0.0
 40
0.0
 40
0.6784508005728694
 40
1.0
 40
1.0
 40
1.0
 40
1.0
 10
216.6433501724775
 20
84.8463019206154
 30
0.0
 10
216.6565997429419
 20
84.69559471616212
 30
0.0
 10
216.6761288973821
 20
84.47346040026765
 30
0.0
 10
216.8169765510211
 20
84.30662729537849
 30
0.0
 10
216.8622660012898
 20
84.25298224406345
 30
0.0
  0
LINE
  5
304
330
1F
100
AcDbEntity
  8
0
  6
Continuous
 62
     7
370
    25
100
AcDbLine
 10
608.8433501725
 20
84.8463019206
 30
0.0
 11
608.8433501725
 21
94.4463019206
 31
0.0
  0
LINE
  5
305
330
1F
100
AcDbEntity
  8
0
  6
Continuous
 62
     7
370
    25
100
AcDbLine
 10
610.2433501725
 20
84.8463019206
 30
0.0
 11
610.2433501725
 21
94.4463019206
 31
0.0
  0
LINE
  5
306
330
1F
100
AcDbEntity
  8
0
  6
Continuous
 62
     7
370
    25
100
AcDbLine
 10
610.2433501725
 20
94.4463019206
 30
0.0
 11
608.8433501725
 21
94.4463019206
 31
0.0
  0
LINE
  5
307
330
1F
100
AcDbEntity
  8
0
  6
Continuous
 62
     7
370
    25
100
AcDbLine
 10
216.6433501725
 20
84.8463019206
 30
0.0
 11
216.6433501725
 21
94.4463019206
 31
0.0
  0
LINE
  5
308
330
1F
100
AcDbEntity
  8
0
  6
Continuous
 62
     7
370
    25
100
AcDbLine
 10
215.2433501725
 20
84.8463019206
 30
0.0
 11
215.2433501725
 21
94.4463019206
 31
0.0
  0
LINE
  5
309
330
1F
100
AcDbEntity
  8
0
  6
Continuous
 62
     7
370
    25
100
AcDbLine
 10
215.2433501725
 20
94.4463019206
 30
0.0
 11
216.6433501725
 21
94.4463019206
 31
0.0
  0
LINE
  5
30A
330
1F
100
AcDbEntity
  8
0
  6
Continuous
 62
     7
370
    25
100
AcDbLine
 10
259.7433501725
 20
121.5463019206
 30
0.0
 11
260.5433501725
 21
121.5463019206
 31
0.0
  0
LINE
  5
30B
330
1F
100
AcDbEntity
  8
0
  6
Continuous
 62
     7
370
    25
100
AcDbLine
 10
260.5433501725
 20
121.5463019206
 30
0.0
 11
260.5433501725
 21
118.5463019206
 31
0.0
  0
LINE
  5
30C
330
1F
100
AcDbEntity
  8
0
  6
Continuous
 62
     7
370
    25
100
AcDbLine
 10
259.7433501725
 20
118.5463019206
 30
0.0
 11
259.7433501725
 21
121.5463019206
 31
0.0
  0
LINE
  5
30D
330
1F
100
AcDbEntity
  8
0
  6
Continuous
 62
     7
370
    25
100
AcDbLine
 10
564.9433501725
 20
118.5463019206
 30
0.0
 11
564.9433501725
 21
121.5463019206
 31
0.0
  0
LINE
  5
30E
330
1F
100
AcDbEntity
  8
0
  6
Continuous
 62
     7
370
    25
100
AcDbLine
 10
564.9433501725
 20
121.5463019206
 30
0.0
 11
565.7433501725
 21
121.5463019206
 31
0.0
  0
LINE
  5
30F
330
1F
100
AcDbEntity
  8
0
  6
Continuous
 62
     7
370
    25
100
AcDbLine
 10
565.7433501725
 20
121.5463019206
 30
0.0
 11
565.7433501725
 21
118.5463019206
 31
0.0
  0
LINE
  5
310
330
1F
100
AcDbEntity
  8
0
  6
Continuous
 62
     7
370
    25
100
AcDbLine
 10
564.9433501725
 20
118.5463019206
 30
0.0
 11
564.9433501725
 21
101.5463019206
 31
0.0
  0
LINE
  5
311
330
1F
100
AcDbEntity
  8
0
  6
Continuous
 62
     7
370
    25
100
AcDbLine
 10
565.7433501725
 20
118.5463019206
 30
0.0
 11
565.7433501725
 21
101.5463019206
 31
0.0
  0
LINE
  5
312
330
1F
100
AcDbEntity
  8
0
  6
Continuous
 62
     7
370
    25
100
AcDbLine
 10
259.7433501725
 20
101.5463019206
 30
0.0
 11
259.7433501725
 21
118.5463019206
 31
0.0
  0
LINE
  5
313
330
1F
100
AcDbEntity
  8
0
  6
Continuous
 62
     7
370
    25
100
AcDbLine
 10
260.5433501725
 20
101.5463019206
 30
0.0
 11
260.5433501725
 21
118.5463019206
 31
0.0
  0
LINE
  5
314
330
1F
100
AcDbEntity
  8
0
  6
Continuous
 62
     7
370
    25
100
AcDbLine
 10
260.5433501725
 20
98.5463019206
 30
0.0
 11
259.7433501725
 21
98.5463019206
 31
0.0
  0
LINE
  5
315
330
1F
100
AcDbEntity
  8
0
  6
Continuous
 62
     7
370
    25
100
AcDbLine
 10
259.7433501725
 20
98.5463019206
 30
0.0
 11
259.7433501725
 21
101.5463019206
 31
0.0
  0
LINE
  5
316
330
1F
100
AcDbEntity
  8
0
  6
Continuous
 62
     7
370
    25
100
AcDbLine
 10
260.5433501725
 20
101.5463019206
 30
0.0
 11
260.5433501725
 21
98.5463019206
 31
0.0
  0
LINE
  5
317
330
1F
100
AcDbEntity
  8
0
  6
Continuous
 62
     7
370
    25
100
AcDbLine
 10
565.7433501725
 20
98.5463019206
 30
0.0
 11
564.9433501725
 21
98.5463019206
 31
0.0
  0
LINE
  5
318
330
1F
100
AcDbEntity
  8
0
  6
Continuous
 62
     7
370
    25
100
AcDbLine
 10
564.9433501725
 20
98.5463019206
 30
0.0
 11
564.9433501725
 21
101.5463019206
 31
0.0
  0
LINE
  5
319
330
1F
100
AcDbEntity
  8
0
  6
Continuous
 62
     7
370
    25
100
AcDbLine
 10
565.7433501725
 20
101.5463019206
 30
0.0
 11
565.7433501725
 21
98.5463019206
 31
0.0
  0
LINE
  5
31A
330
1F
100
AcDbEntity
  8
0
  6
Continuous
 62
     7
370
    25
100
AcDbLine
 10
562.7433501725
 20
100.5463019206
 30
0.0
 11
562.7433501725
 21
101.3463019206
 31
0.0
  0
LINE
  5
31B
330
1F
100
AcDbEntity
  8
0
  6
Continuous
 62
     7
370
    25
100
AcDbLine
 10
262.7433501725
 20
100.5463019206
 30
0.0
 11
262.7433501725
 21
101.3463019206
 31
0.0
  0
LINE
  5
31C
330
1F
100
AcDbEntity
  8
0
  6
Continuous
 62
     7
370
    25
100
AcDbLine
 10
562.7433501725
 20
101.3463019206
 30
0.0
 11
262.7433501725
 21
101.3463019206
 31
0.0
  0
LINE
  5
31D
330
1F
100
AcDbEntity
  8
0
  6
Continuous
 62
     7
370
    25
100
AcDbLine
 10
338.2433501725
 20
141.4509153124
 30
0.0
 11
338.2433501725
 21
134.9332238588
 31
0.0
  0
LINE
  5
31E
330
1F
100
AcDbEntity
  8
0
  6
Continuous
 62
     7
370
    25
100
AcDbLine
 10
488.2433501725
 20
134.9332238588
 30
0.0
 11
488.2433501725
 21
141.4509153124
 31
0.0
  0
ARC
  5
31F
330
1F
100
AcDbEntity
  8
0
  6
Continuous
 62
     7
370
    25
100
AcDbCircle
 10
341.2433501725
 20
141.4509153124
 30
0.0
 40
3.0
100
AcDbArc
 50
90.0
 51
180.0
  0
ARC
  5
320
330
1F
100
AcDbEntity
  8
0
  6
Continuous
 62
     7
370
    25
100
AcDbCircle
 10
485.2433501725
 20
141.4509153124
 30
0.0
 40
3.000000000000057
100
AcDbArc
 50
0.0
 51
90.0
  0
LINE
  5
321
330
1F
100
AcDbEntity
  8
0
  6
Continuous
 62
     7
370
    25
100
AcDbLine
 10
485.2433501725
 20
144.4509153124
 30
0.0
 11
341.2433501725
 21
144.4509153124
 31
0.0
  0
LINE
  5
322
330
1F
100
AcDbEntity
  8
0
  6
Continuous
 62
     7
370
    25
100
AcDbLine
 10
338.2433501725
 20
134.0332238588
 30
0.0
 11
338.2433501725
 21
134.9332238588
 31
0.0
  0
LINE
  5
323
330
1F
100
AcDbEntity
  8
0
  6
Continuous
 62
     7
370
    25
100
AcDbLine
 10
488.2433501725
 20
134.9332238588
 30
0.0
 11
488.2433501725
 21
134.0332238588
 31
0.0
  0
LINE
  5
324
330
1F
100
AcDbEntity
  8
0
  6
Continuous
 62
     7
370
    25
100
AcDbLine
 10
338.2433501725
 20
127.4083527282
 30
0.0
 11
338.2433501725
 21
134.0332238588
 31
0.0
  0
LINE
  5
325
330
1F
100
AcDbEntity
  8
0
  6
Continuous
 62
     7
370
    25
100
AcDbLine
 10
488.2433501725
 20
134.0332238588
 30
0.0
 11
488.2433501725
 21
127.4083527282
 31
0.0
  0
LINE
  5
326
330
1F
100
AcDbEntity
  8
0
  6
Continuous
 62
     7
370
    25
100
AcDbLine
 10
260.5433501725
 20
102.5463019206
 30
0.0
 11
261.5433501725
 21
102.5463019206
 31
0.0
  0
LINE
  5
327
330
1F
100
AcDbEntity
  8
0
  6
Continuous
 62
     7
370
    25
100
AcDbLine
 10
261.5433501725
 20
121.5463019206
 30
0.0
 11
260.5433501725
 21
121.5463019206
 31
0.0
  0
LINE
  5
328
330
1F
100
AcDbEntity
  8
0
  6
Continuous
 62
     7
370
    25
100
AcDbLine
 10
563.9433501725
 20
102.5463019206
 30
0.0
 11
564.9433501725
 21
102.5463019206
 31
0.0
  0
LINE
  5
329
330
1F
100
AcDbEntity
  8
0
  6
Continuous
 62
     7
370
    25
100
AcDbLine
 10
564.9433501725
 20
121.5463019206
 30
0.0
 11
563.9433501725
 21
121.5463019206
 31
0.0
  0
LINE
  5
32A
330
1F
100
AcDbEntity
  8
0
  6
Continuous
 62
     7
370
    25
100
AcDbLine
 10
262.7433501725
 20
102.3463019206
 30
0.0
 11
262.7433501725
 21
101.3463019206
 31
0.0
  0
LINE
  5
32B
330
1F
100
AcDbEntity
  8
0
  6
Continuous
 62
     7
370
    25
100
AcDbLine
 10
562.7433501725
 20
101.3463019206
 30
0.0
 11
562.7433501725
 21
102.3463019206
 31
0.0
  0
LINE
  5
32C
330
1F
100
AcDbEntity
  8
0
  6
Continuous
 62
     7
370
    25
100
AcDbLine
 10
488.2433501725
 20
126.9083527282
 30
0.0
 11
488.2433501725
 21
127.4083527282
 31
0.0
  0
LINE
  5
32D
330
1F
100
AcDbEntity
  8
0
  6
Continuous
 62
     7
370
    25
100
AcDbLine
 10
338.2433501725
 20
127.4083527282
 30
0.0
 11
338.2433501725
 21
126.9083527282
 31
0.0
  0
LINE
  5
32E
330
1F
100
AcDbEntity
  8
0
  6
Continuous
 62
     7
370
    25
100
AcDbLine
 10
563.9433501725
 20
121.5463019206
 30
0.0
 11
560.7433501725
 21
121.5463019206
 31
0.0
  0
LINE
  5
32F
330
1F
100
AcDbEntity
  8
0
  6
Continuous
 62
     7
370
    25
100
AcDbLine
 10
562.7433501725
 20
102.5463019206
 30
0.0
 11
563.9433501725
 21
102.5463019206
 31
0.0
  0
LINE
  5
330
330
1F
100
AcDbEntity
  8
0
  6
Continuous
 62
     7
370
    25
100
AcDbLine
 10
562.7433501725
 20
102.3463019206
 30
0.0
 11
562.7433501725
 21
102.5463019206
 31
0.0
  0
LINE
  5
331
330
1F
100
AcDbEntity
  8
0
  6
Continuous
 62
     7
370
    25
100
AcDbLine
 10
262.7433501725
 20
102.5463019206
 30
0.0
 11
262.7433501725
 21
102.3463019206
 31
0.0
  0
LINE
  5
332
330
1F
100
AcDbEntity
  8
0
  6
Continuous
 62
     7
370
    25
100
AcDbLine
 10
261.5433501725
 20
102.5463019206
 30
0.0
 11
262.7433501725
 21
102.5463019206
 31
0.0
  0
LINE
  5
333
330
1F
100
AcDbEntity
  8
0
  6
Continuous
 62
     7
370
    25
100
AcDbLine
 10
264.7433501725
 20
121.5463019206
 30
0.0
 11
261.5433501725
 21
121.5463019206
 31
0.0
  0
LINE
  5
334
330
1F
100
AcDbEntity
  8
0
  6
Continuous
 62
     7
370
    25
100
AcDbLine
 10
264.7433501725
 20
142.5463019206
 30
0.0
 11
264.7433501725
 21
121.5463019206
 31
0.0
  0
ARC
  5
335
330
1F
100
AcDbEntity
  8
0
  6
Continuous
 62
     7
370
    25
100
AcDbCircle
 10
267.7433501725
 20
142.5463019206
 30
0.0
 40
3.0
100
AcDbArc
 50
90.0
 51
180.0
  0
LINE
  5
336
330
1F
100
AcDbEntity
  8
0
  6
Continuous
 62
     7
370
    25
100
AcDbLine
 10
332.7433501725
 20
145.5463019206
 30
0.0
 11
267.7433501725
 21
145.5463019206
 31
0.0
  0
ARC
  5
337
330
1F
100
AcDbEntity
  8
0
  6
Continuous
 62
     7
370
    25
100
AcDbCircle
 10
332.7433501725
 20
142.5463019206
 30
0.0
 40
3.0
100
AcDbArc
 50
0.0
 51
90.0
  0
LINE
  5
338
330
1F
100
AcDbEntity
  8
0
  6
Continuous
 62
     7
370
    25
100
AcDbLine
 10
335.7433501725
 20
142.5463019206
 30
0.0
 11
335.7433501725
 21
126.4163019206
 31
0.0
  0
LINE
  5
339
330
1F
100
AcDbEntity
  8
0
  6
Continuous
 62
     7
370
    25
100
AcDbLine
 10
335.7433501725
 20
126.4163019206
 30
0.0
 11
338.2433501725
 21
126.4163019206
 31
0.0
  0
LINE
  5
33A
330
1F
100
AcDbEntity
  8
0
  6
Continuous
 62
     7
370
    25
100
AcDbLine
 10
338.2433501725
 20
126.9083527282
 30
0.0
 11
338.2433501725
 21
126.4163019206
 31
0.0
  0
LINE
  5
33B
330
1F
100
AcDbEntity
  8
0
  6
Continuous
 62
     7
370
    25
100
AcDbLine
 10
488.2433501725
 20
126.9083527282
 30
0.0
 11
488.2433501725
 21
126.4163019206
 31
0.0
  0
LINE
  5
33C
330
1F
100
AcDbEntity
  8
0
  6
Continuous
 62
     7
370
    25
100
AcDbLine
 10
488.2433501725
 20
126.4163019206
 30
0.0
 11
490.7433501725
 21
126.4163019206
 31
0.0
  0
LINE
  5
33D
330
1F
100
AcDbEntity
  8
0
  6
Continuous
 62
     7
370
    25
100
AcDbLine
 10
490.7433501725
 20
126.4163019206
 30
0.0
 11
490.7433501725
 21
142.5463019206
 31
0.0
  0
ARC
  5
33E
330
1F
100
AcDbEntity
  8
0
  6
Continuous
 62
     7
370
    25
100
AcDbCircle
 10
493.7433501725
 20
142.5463019206
 30
0.0
 40
3.0
100
AcDbArc
 50
90.0
 51
180.0
  0
LINE
  5
33F
330
1F
100
AcDbEntity
  8
0
  6
Continuous
 62
     7
370
    25
100
AcDbLine
 10
557.7433501725
 20
145.5463019206
 30
0.0
 11
493.7433501725
 21
145.5463019206
 31
0.0
  0
ARC
  5
340
330
1F
100
AcDbEntity
  8
0
  6
Continuous
 62
     7
370
    25
100
AcDbCircle
 10
557.7433501725
 20
142.5463019206
 30
0.0
 40
3.000000000000114
100
AcDbArc
 50
0.0
 51
90.0
  0
LINE
  5
341
330
1F
100
AcDbEntity
  8
0
  6
Continuous
 62
     7
370
    25
100
AcDbLine
 10
560.7433501725
 20
121.5463019206
 30
0.0
 11
560.7433501725
 21
142.5463019206
 31
0.0
  0
SPLINE
  5
342
330
1F
100
AcDbEntity
  8
0
  6
Continuous
 62
     7
370
    25
100
AcDbSpline
210
0.0
220
0.0
230
1.0
 70
     8
 71
     3
 72
    14
 73
    10
 74
     0
 42
0.000000001
 43
0.00000001
 40
0.0
 40
0.0
 40
0.0
 40
0.0
 40
0.25
 40
0.25
 40
0.5
 40
0.5
 40
0.75
 40
0.75
 40
1.0
 40
1.0
 40
1.0
 40
1.0
 10
547.3790898953335
 20
104.1316219352294
 30
0.0
 10
547.4311476042244
 20
104.22649654454
 30
0.0
 10
547.4844811425525
 20
104.3061014694158
 30
0.0
 10
547.5914131501805
 20
104.41493808431
 30
0.0
 10
547.6451665166283
 20
104.4442616900005
 30
0.0
 10
547.7533455680519
 20
104.4441969082549
 30
0.0
 10
547.8081742646398
 20
104.4140407149285
 30
0.0
 10
547.9150812472997
 20
104.3044555135628
 30
0.0
 10
547.967502762272
 20
104.2259125397606
 30
0.0
 10
548.0192400276742
 20
104.1316219352294
 30
0.0
  0
SPLINE
  5
343
330
1F
100
AcDbEntity
  8
0
  6
Continuous
 62
     7
370
    25
100
AcDbSpline
210
0.0
220
0.0
230
1.0
 70
     8
 71
     3
 72
    12
 73
     8
 74
     0
 42
0.000000001
 43
0.00000001
 40
0.0
 40
0.0
 40
0.0
 40
0.0
 40
0.4999999999999925
 40
0.4999999999999925
 40
0.7499999999999962
 40
0.7499999999999962
 40
1.0
 40
1.0
 40
1.0
 40
1.0
 10
547.3790898953337
 20
104.1316219352304
 30
0.0
 10
546.7625595054134
 20
104.3221162246539
 30
0.0
 10
546.1367916329635
 20
104.4437906377162
 30
0.0
 10
545.1737299235787
 20
104.4444468282475
 30
0.0
 10
544.8530368884491
 20
104.4146128264531
 30
0.0
 10
544.2230786384531
 20
104.3056829563455
 30
0.0
 10
543.9118493704223
 20
104.2269877692826
 30
0.0
 10
543.6032000401376
 20
104.1316219352299
 30
0.0
  0
SPLINE
  5
344
330
1F
100
AcDbEntity
  8
0
  6
Continuous
 62
     7
370
    25
100
AcDbSpline
210
0.0
220
0.0
230
1.0
 70
     8
 71
     3
 72
    12
 73
     8
 74
     0
 42
0.000000001
 43
0.00000001
 40
0.0
 40
0.0
 40
0.0
 40
0.0
 40
0.5000000000000078
 40
0.5000000000000078
 40
0.7500000000000039
 40
0.7500000000000039
 40
1.0
 40
1.0
 40
1.0
 40
1.0
 10
543.6032000401377
 20
104.1316219352304
 30
0.0
 10
543.0911938884328
 20
104.3221162246539
 30
0.0
 10
542.5715163421646
 20
104.4437906377162
 30
0.0
 10
541.7717284846021
 20
104.4444468282475
 30
0.0
 10
541.5054045377541
 20
104.4146128264531
 30
0.0
 10
540.9822470347526
 20
104.3056829563455
 30
0.0
 10
540.7237824036044
 20
104.2269877692826
 30
0.0
 10
540.4674603172823
 20
104.1316219352299
 30
0.0
  0
SPLINE
  5
345
330
1F
100
AcDbEntity
  8
0
  6
Continuous
 62
     7
370
    25
100
AcDbSpline
210
0.0
220
0.0
230
1.0
 70
     8
 71
     3
 72
     9
 73
     5
 74
     0
 42
0.000000001
 43
0.00000001
 40
0.0
 40
0.0
 40
0.0
 40
0.0
 40
0.3722348086954455
 40
1.0
 40
1.0
 40
1.0
 40
1.0
 10
540.4674603172823
 20
104.1316219352294
 30
0.0
 10
540.4954265509541
 20
104.183546244003
 30
0.0
 10
540.5705571755449
 20
104.3230396700895
 30
0.0
 10
540.6491010337015
 20
104.3310483961946
 30
0.0
 10
540.698408133843
 20
104.3360759956701
 30
0.0
  0
LINE
  5
346
330
1F
100
AcDbEntity
  8
0
  6
Continuous
 62
     7
370
    25
100
AcDbLine
 10
547.3933501725
 20
104.6463019206
 30
0.0
 11
541.0933501725
 21
104.6463019206
 31
0.0
  0
LINE
  5
347
330
1F
100
AcDbEntity
  8
0
  6
Continuous
 62
     7
370
    25
100
AcDbLine
 10
547.3790898953
 20
104.1316219352
 30
0.0
 11
547.3790898953
 21
101.960981906
 31
0.0
  0
SPLINE
  5
348
330
1F
100
AcDbEntity
  8
0
  6
Continuous
 62
     7
370
    25
100
AcDbSpline
210
0.0
220
0.0
230
1.0
 70
     8
 71
     3
 72
    12
 73
     8
 74
     0
 42
0.000000001
 43
0.00000001
 40
0.0
 40
0.0
 40
0.0
 40
0.0
 40
0.5000000000000112
 40
0.5000000000000112
 40
0.7500000000000056
 40
0.7500000000000056
 40
1.0
 40
1.0
 40
1.0
 40
1.0
 10
543.6032000401375
 20
101.9609819060004
 30
0.0
 10
544.2197304300578
 20
101.7704876165769
 30
0.0
 10
544.8454983025076
 20
101.6488132035145
 30
0.0
 10
545.8085600118925
 20
101.6481570129833
 30
0.0
 10
546.1292530470222
 20
101.6779910147777
 30
0.0
 10
546.759211297018
 20
101.7869208848853
 30
0.0
 10
547.070440565049
 20
101.8656160719482
 30
0.0
 10
547.3790898953337
 20
101.9609819060009
 30
0.0
  0
LINE
  5
349
330
1F
100
AcDbEntity
  8
0
  6
Continuous
 62
     7
370
    25
100
AcDbLine
 10
543.6032000401
 20
104.1316219352
 30
0.0
 11
543.6032000401
 21
101.960981906
 31
0.0
  0
SPLINE
  5
34A
330
1F
100
AcDbEntity
  8
0
  6
Continuous
 62
     7
370
    25
100
AcDbSpline
210
0.0
220
0.0
230
1.0
 70
     8
 71
     3
 72
     9
 73
     5
 74
     0
 42
0.000000001
 43
0.00000001
 40
0.0
 40
0.0
 40
0.0
 40
0.0
 40
0.6277651913045446
 40
1.0
 40
1.0
 40
1.0
 40
1.0
 10
540.698408133843
 20
101.7565278455607
 30
0.0
 10
540.6491010337015
 20
101.7615554450362
 30
0.0
 10
540.5705571755449
 20
101.7695641711413
 30
0.0
 10
540.4954265509541
 20
101.9090575972278
 30
0.0
 10
540.4674603172823
 20
101.9609819060014
 30
0.0
  0
SPLINE
  5
34B
330
1F
100
AcDbEntity
  8
0
  6
Continuous
 62
     7
370
    25
100
AcDbSpline
210
0.0
220
0.0
230
1.0
 70
     8
 71
     3
 72
    12
 73
     8
 74
     0
 42
0.000000001
 43
0.00000001
 40
0.0
 40
0.0
 40
0.0
 40
0.0
 40
0.4999999999999921
 40
0.4999999999999921
 40
0.749999999999996
 40
0.749999999999996
 40
1.0
 40
1.0
 40
1.0
 40
1.0
 10
540.4674603172822
 20
101.9609819060004
 30
0.0
 10
540.9794664689871
 20
101.7704876165769
 30
0.0
 10
541.4991440152553
 20
101.6488132035145
 30
0.0
 10
542.298931872818
 20
101.6481570129833
 30
0.0
 10
542.5652558196659
 20
101.6779910147777
 30
0.0
 10
543.0884133226674
 20
101.7869208848853
 30
0.0
 10
543.3468779538158
 20
101.8656160719482
 30
0.0
 10
543.6032000401377
 20
101.9609819060009
 30
0.0
  0
SPLINE
  5
34C
330
1F
100
AcDbEntity
  8
0
  6
Continuous
 62
     7
370
    25
100
AcDbSpline
210
0.0
220
0.0
230
1.0
 70
     8
 71
     3
 72
    14
 73
    10
 74
     0
 42
0.000000001
 43
0.00000001
 40
0.0
 40
0.0
 40
0.0
 40
0.0
 40
0.25
 40
0.25
 40
0.5
 40
0.5
 40
0.75
 40
0.75
 40
1.0
 40
1.0
 40
1.0
 40
1.0
 10
547.3790898953335
 20
101.9609819060014
 30
0.0
 10
547.4311476042244
 20
101.8661072966908
 30
0.0
 10
547.4844811425525
 20
101.786502371815
 30
0.0
 10
547.5914131501805
 20
101.6776657569208
 30
0.0
 10
547.6451665166283
 20
101.6483421512303
 30
0.0
 10
547.7533455680519
 20
101.6484069329759
 30
0.0
 10
547.8081742646398
 20
101.6785631263023
 30
0.0
 10
547.9150812472997
 20
101.788148327668
 30
0.0
 10
547.967502762272
 20
101.8666913014701
 30
0.0
 10
548.0192400276742
 20
101.9609819060014
 30
0.0
  0
LINE
  5
34D
330
1F
100
AcDbEntity
  8
0
  6
Continuous
 62
     7
370
    25
100
AcDbLine
 10
547.3933501725
 20
101.4463019206
 30
0.0
 11
541.0933501725
 21
101.4463019206
 31
0.0
  0
LINE
  5
34E
330
1F
100
AcDbEntity
  8
0
  6
Continuous
 62
     7
370
    25
100
AcDbLine
 10
540.4674603173
 20
104.1316219352
 30
0.0
 11
540.4674603173
 21
101.960981906
 31
0.0
  0
LINE
  5
34F
330
1F
100
AcDbEntity
  8
0
  6
Continuous
 62
     7
370
    25
100
AcDbLine
 10
548.0192400277
 20
104.1316219352
 30
0.0
 11
548.0192400277
 21
101.960981906
 31
0.0
  0
SPLINE
  5
350
330
1F
100
AcDbEntity
  8
0
  6
Continuous
 62
     7
370
    25
100
AcDbSpline
210
0.0
220
0.0
230
1.0
 70
     8
 71
     3
 72
    12
 73
     8
 74
     0
 42
0.000000001
 43
0.00000001
 40
0.0
 40
0.0
 40
0.0
 40
0.0
 40
0.4999999999999981
 40
0.4999999999999981
 40
0.749999999999999
 40
0.749999999999999
 40
1.0
 40
1.0
 40
1.0
 40
1.0
 10
415.8790898953334
 20
104.1316219352304
 30
0.0
 10
415.2625595054132
 20
104.3221162246539
 30
0.0
 10
414.6367916329634
 20
104.4437906377163
 30
0.0
 10
413.6737299235785
 20
104.4444468282475
 30
0.0
 10
413.3530368884488
 20
104.4146128264531
 30
0.0
 10
412.7230786384529
 20
104.3056829563455
 30
0.0
 10
412.411849370422
 20
104.2269877692827
 30
0.0
 10
412.1032000401373
 20
104.1316219352299
 30
0.0
  0
LINE
  5
351
330
1F
100
AcDbEntity
  8
0
  6
Continuous
 62
     7
370
    25
100
AcDbLine
 10
415.8790898953
 20
104.1316219352
 30
0.0
 11
415.8790898953
 21
101.960981906
 31
0.0
  0
SPLINE
  5
352
330
1F
100
AcDbEntity
  8
0
  6
Continuous
 62
     7
370
    25
100
AcDbSpline
210
0.0
220
0.0
230
1.0
 70
     8
 71
     3
 72
    12
 73
     8
 74
     0
 42
0.000000001
 43
0.00000001
 40
0.0
 40
0.0
 40
0.0
 40
0.0
 40
0.4999999999999982
 40
0.4999999999999982
 40
0.7499999999999991
 40
0.7499999999999991
 40
1.0
 40
1.0
 40
1.0
 40
1.0
 10
412.1032000401373
 20
101.9609819060004
 30
0.0
 10
412.7197304300576
 20
101.7704876165769
 30
0.0
 10
413.3454983025073
 20
101.6488132035145
 30
0.0
 10
414.3085600118922
 20
101.6481570129833
 30
0.0
 10
414.6292530470219
 20
101.6779910147777
 30
0.0
 10
415.2592112970179
 20
101.7869208848853
 30
0.0
 10
415.5704405650488
 20
101.8656160719482
 30
0.0
 10
415.8790898953334
 20
101.9609819060009
 30
0.0
  0
LINE
  5
353
330
1F
100
AcDbEntity
  8
0
  6
Continuous
 62
     7
370
    25
100
AcDbLine
 10
412.1032000401
 20
104.1316219352
 30
0.0
 11
412.1032000401
 21
101.960981906
 31
0.0
  0
SPLINE
  5
354
330
1F
100
AcDbEntity
  8
0
  6
Continuous
 62
     7
370
    25
100
AcDbSpline
210
0.0
220
0.0
230
1.0
 70
     8
 71
     3
 72
    14
 73
    10
 74
     0
 42
0.000000001
 43
0.00000001
 40
0.0
 40
0.0
 40
0.0
 40
0.0
 40
0.25
 40
0.25
 40
0.5
 40
0.5
 40
0.75
 40
0.75
 40
1.0
 40
1.0
 40
1.0
 40
1.0
 10
415.8790898953333
 20
104.1316219352294
 30
0.0
 10
415.9311476042241
 20
104.22649654454
 30
0.0
 10
415.9844811425522
 20
104.3061014694158
 30
0.0
 10
416.0914131501804
 20
104.41493808431
 30
0.0
 10
416.1451665166279
 20
104.4442616900005
 30
0.0
 10
416.2533455680516
 20
104.4441969082549
 30
0.0
 10
416.3081742646395
 20
104.4140407149285
 30
0.0
 10
416.4150812472994
 20
104.3044555135628
 30
0.0
 10
416.4675027622718
 20
104.2259125397607
 30
0.0
 10
416.519240027674
 20
104.1316219352294
 30
0.0
  0
SPLINE
  5
355
330
1F
100
AcDbEntity
  8
0
  6
Continuous
 62
     7
370
    25
100
AcDbSpline
210
0.0
220
0.0
230
1.0
 70
     8
 71
     3
 72
    12
 73
     8
 74
     0
 42
0.000000001
 43
0.00000001
 40
0.0
 40
0.0
 40
0.0
 40
0.0
 40
0.4999999999999968
 40
0.4999999999999968
 40
0.7499999999999983
 40
0.7499999999999983
 40
1.0
 40
1.0
 40
1.0
 40
1.0
 10
412.1032000401375
 20
104.1316219352304
 30
0.0
 10
411.5911938884326
 20
104.3221162246539
 30
0.0
 10
411.0715163421643
 20
104.4437906377163
 30
0.0
 10
410.2717284846018
 20
104.4444468282475
 30
0.0
 10
410.0054045377538
 20
104.4146128264531
 30
0.0
 10
409.4822470347523
 20
104.3056829563455
 30
0.0
 10
409.223782403604
 20
104.2269877692827
 30
0.0
 10
408.967460317282
 20
104.1316219352299
 30
0.0
  0
SPLINE
  5
356
330
1F
100
AcDbEntity
  8
0
  6
Continuous
 62
     7
370
    25
100
AcDbSpline
210
0.0
220
0.0
230
1.0
 70
     8
 71
     3
 72
     9
 73
     5
 74
     0
 42
0.000000001
 43
0.00000001
 40
0.0
 40
0.0
 40
0.0
 40
0.0
 40
0.3722348086954462
 40
1.0
 40
1.0
 40
1.0
 40
1.0
 10
408.967460317282
 20
104.1316219352294
 30
0.0
 10
408.9954265509538
 20
104.183546244003
 30
0.0
 10
409.0705571755447
 20
104.3230396700895
 30
0.0
 10
409.1491010337014
 20
104.3310483961946
 30
0.0
 10
409.1984081338428
 20
104.3360759956701
 30
0.0
  0
LINE
  5
357
330
1F
100
AcDbEntity
  8
0
  6
Continuous
 62
     7
370
    25
100
AcDbLine
 10
415.8933501725
 20
104.6463019206
 30
0.0
 11
409.5933501725
 21
104.6463019206
 31
0.0
  0
SPLINE
  5
358
330
1F
100
AcDbEntity
  8
0
  6
Continuous
 62
     7
370
    25
100
AcDbSpline
210
0.0
220
0.0
230
1.0
 70
     8
 71
     3
 72
     9
 73
     5
 74
     0
 42
0.000000001
 43
0.00000001
 40
0.0
 40
0.0
 40
0.0
 40
0.0
 40
0.6277651913045436
 40
0.9999999999999999
 40
0.9999999999999999
 40
0.9999999999999999
 40
0.9999999999999999
 10
409.1984081338428
 20
101.7565278455607
 30
0.0
 10
409.1491010337013
 20
101.7615554450362
 30
0.0
 10
409.0705571755447
 20
101.7695641711413
 30
0.0
 10
408.9954265509538
 20
101.9090575972278
 30
0.0
 10
408.967460317282
 20
101.9609819060014
 30
0.0
  0
SPLINE
  5
359
330
1F
100
AcDbEntity
  8
0
  6
Continuous
 62
     7
370
    25
100
AcDbSpline
210
0.0
220
0.0
230
1.0
 70
     8
 71
     3
 72
    12
 73
     8
 74
     0
 42
0.000000001
 43
0.00000001
 40
0.0
 40
0.0
 40
0.0
 40
0.0
 40
0.5000000000000032
 40
0.5000000000000032
 40
0.7500000000000016
 40
0.7500000000000016
 40
1.0
 40
1.0
 40
1.0
 40
1.0
 10
408.9674603172819
 20
101.9609819060004
 30
0.0
 10
409.4794664689869
 20
101.7704876165769
 30
0.0
 10
409.9991440152551
 20
101.6488132035146
 30
0.0
 10
410.7989318728176
 20
101.6481570129833
 30
0.0
 10
411.0652558196657
 20
101.6779910147777
 30
0.0
 10
411.5884133226671
 20
101.7869208848853
 30
0.0
 10
411.8468779538154
 20
101.8656160719482
 30
0.0
 10
412.1032000401374
 20
101.9609819060009
 30
0.0
  0
SPLINE
  5
35A
330
1F
100
AcDbEntity
  8
0
  6
Continuous
 62
     7
370
    25
100
AcDbSpline
210
0.0
220
0.0
230
1.0
 70
     8
 71
     3
 72
    14
 73
    10
 74
     0
 42
0.000000001
 43
0.00000001
 40
0.0
 40
0.0
 40
0.0
 40
0.0
 40
0.25
 40
0.25
 40
0.5
 40
0.5
 40
0.75
 40
0.75
 40
1.0
 40
1.0
 40
1.0
 40
1.0
 10
415.8790898953333
 20
101.9609819060014
 30
0.0
 10
415.9311476042241
 20
101.8661072966908
 30
0.0
 10
415.9844811425522
 20
101.7865023718151
 30
0.0
 10
416.0914131501804
 20
101.6776657569208
 30
0.0
 10
416.1451665166279
 20
101.6483421512303
 30
0.0
 10
416.2533455680516
 20
101.6484069329759
 30
0.0
 10
416.3081742646395
 20
101.6785631263023
 30
0.0
 10
416.4150812472994
 20
101.788148327668
 30
0.0
 10
416.4675027622718
 20
101.8666913014702
 30
0.0
 10
416.519240027674
 20
101.9609819060014
 30
0.0
  0
LINE
  5
35B
330
1F
100
AcDbEntity
  8
0
  6
Continuous
 62
     7
370
    25
100
AcDbLine
 10
415.8933501725
 20
101.4463019206
 30
0.0
 11
409.5933501725
 21
101.4463019206
 31
0.0
  0
LINE
  5
35C
330
1F
100
AcDbEntity
  8
0
  6
Continuous
 62
     7
370
    25
100
AcDbLine
 10
408.9674603173
 20
104.1316219352
 30
0.0
 11
408.9674603173
 21
101.960981906
 31
0.0
  0
LINE
  5
35D
330
1F
100
AcDbEntity
  8
0
  6
Continuous
 62
     7
370
    25
100
AcDbLine
 10
416.5192400277
 20
104.1316219352
 30
0.0
 11
416.5192400277
 21
101.960981906
 31
0.0
  0
SPLINE
  5
35E
330
1F
100
AcDbEntity
  8
0
  6
Continuous
 62
     7
370
    25
100
AcDbSpline
210
0.0
220
0.0
230
1.0
 70
     8
 71
     3
 72
    14
 73
    10
 74
     0
 42
0.000000001
 43
0.00000001
 40
0.0
 40
0.0
 40
0.0
 40
0.0
 40
0.25
 40
0.25
 40
0.5
 40
0.5
 40
0.75
 40
0.75
 40
1.0
 40
1.0
 40
1.0
 40
1.0
 10
284.3790898953335
 20
104.1316219352293
 30
0.0
 10
284.4311476042244
 20
104.22649654454
 30
0.0
 10
284.4844811425525
 20
104.3061014694157
 30
0.0
 10
284.5914131501806
 20
104.41493808431
 30
0.0
 10
284.6451665166281
 20
104.4442616900004
 30
0.0
 10
284.7533455680519
 20
104.4441969082548
 30
0.0
 10
284.8081742646398
 20
104.4140407149285
 30
0.0
 10
284.9150812472997
 20
104.3044555135628
 30
0.0
 10
284.967502762272
 20
104.2259125397606
 30
0.0
 10
285.0192400276741
 20
104.1316219352293
 30
0.0
  0
SPLINE
  5
35F
330
1F
100
AcDbEntity
  8
0
  6
Continuous
 62
     7
370
    25
100
AcDbSpline
210
0.0
220
0.0
230
1.0
 70
     8
 71
     3
 72
    12
 73
     8
 74
     0
 42
0.000000001
 43
0.00000001
 40
0.0
 40
0.0
 40
0.0
 40
0.0
 40
0.4999999999999925
 40
0.4999999999999925
 40
0.7499999999999962
 40
0.7499999999999962
 40
1.0
 40
1.0
 40
1.0
 40
1.0
 10
284.3790898953337
 20
104.1316219352303
 30
0.0
 10
283.7625595054134
 20
104.3221162246539
 30
0.0
 10
283.1367916329637
 20
104.4437906377162
 30
0.0
 10
282.1737299235788
 20
104.4444468282475
 30
0.0
 10
281.8530368884491
 20
104.4146128264531
 30
0.0
 10
281.2230786384531
 20
104.3056829563455
 30
0.0
 10
280.9118493704221
 20
104.2269877692826
 30
0.0
 10
280.6032000401376
 20
104.1316219352298
 30
0.0
  0
SPLINE
  5
360
330
1F
100
AcDbEntity
  8
0
  6
Continuous
 62
     7
370
    25
100
AcDbSpline
210
0.0
220
0.0
230
1.0
 70
     8
 71
     3
 72
    12
 73
     8
 74
     0
 42
0.000000001
 43
0.00000001
 40
0.0
 40
0.0
 40
0.0
 40
0.0
 40
0.5000000000000078
 40
0.5000000000000078
 40
0.7500000000000039
 40
0.7500000000000039
 40
1.0
 40
1.0
 40
1.0
 40
1.0
 10
280.6032000401377
 20
104.1316219352303
 30
0.0
 10
280.0911938884328
 20
104.3221162246539
 30
0.0
 10
279.5715163421646
 20
104.4437906377162
 30
0.0
 10
278.7717284846021
 20
104.4444468282475
 30
0.0
 10
278.505404537754
 20
104.4146128264531
 30
0.0
 10
277.9822470347526
 20
104.3056829563455
 30
0.0
 10
277.7237824036043
 20
104.2269877692826
 30
0.0
 10
277.4674603172822
 20
104.1316219352298
 30
0.0
  0
SPLINE
  5
361
330
1F
100
AcDbEntity
  8
0
  6
Continuous
 62
     7
370
    25
100
AcDbSpline
210
0.0
220
0.0
230
1.0
 70
     8
 71
     3
 72
     9
 73
     5
 74
     0
 42
0.000000001
 43
0.00000001
 40
0.0
 40
0.0
 40
0.0
 40
0.0
 40
0.3722348086954421
 40
1.0
 40
1.0
 40
1.0
 40
1.0
 10
277.4674603172823
 20
104.1316219352293
 30
0.0
 10
277.4954265509541
 20
104.1835462440029
 30
0.0
 10
277.5705571755449
 20
104.3230396700894
 30
0.0
 10
277.6491010337015
 20
104.3310483961946
 30
0.0
 10
277.698408133843
 20
104.33607599567
 30
0.0
  0
LINE
  5
362
330
1F
100
AcDbEntity
  8
0
  6
Continuous
 62
     7
370
    25
100
AcDbLine
 10
284.3933501725
 20
104.6463019206
 30
0.0
 11
278.0933501725
 21
104.6463019206
 31
0.0
  0
LINE
  5
363
330
1F
100
AcDbEntity
  8
0
  6
Continuous
 62
     7
370
    25
100
AcDbLine
 10
284.3790898953
 20
104.1316219352
 30
0.0
 11
284.3790898953
 21
101.960981906
 31
0.0
  0
SPLINE
  5
364
330
1F
100
AcDbEntity
  8
0
  6
Continuous
 62
     7
370
    25
100
AcDbSpline
210
0.0
220
0.0
230
1.0
 70
     8
 71
     3
 72
    12
 73
     8
 74
     0
 42
0.000000001
 43
0.00000001
 40
0.0
 40
0.0
 40
0.0
 40
0.0
 40
0.5000000000000112
 40
0.5000000000000112
 40
0.7500000000000056
 40
0.7500000000000056
 40
1.0
 40
1.0
 40
1.0
 40
1.0
 10
280.6032000401375
 20
101.9609819060004
 30
0.0
 10
281.2197304300577
 20
101.7704876165769
 30
0.0
 10
281.8454983025076
 20
101.6488132035145
 30
0.0
 10
282.8085600118924
 20
101.6481570129833
 30
0.0
 10
283.1292530470221
 20
101.6779910147776
 30
0.0
 10
283.7592112970181
 20
101.7869208848852
 30
0.0
 10
284.070440565049
 20
101.8656160719481
 30
0.0
 10
284.3790898953337
 20
101.9609819060009
 30
0.0
  0
LINE
  5
365
330
1F
100
AcDbEntity
  8
0
  6
Continuous
 62
     7
370
    25
100
AcDbLine
 10
280.6032000401
 20
104.1316219352
 30
0.0
 11
280.6032000401
 21
101.960981906
 31
0.0
  0
SPLINE
  5
366
330
1F
100
AcDbEntity
  8
0
  6
Continuous
 62
     7
370
    25
100
AcDbSpline
210
0.0
220
0.0
230
1.0
 70
     8
 71
     3
 72
     9
 73
     5
 74
     0
 42
0.000000001
 43
0.00000001
 40
0.0
 40
0.0
 40
0.0
 40
0.0
 40
0.6277651913045433
 40
1.0
 40
1.0
 40
1.0
 40
1.0
 10
277.698408133843
 20
101.7565278455607
 30
0.0
 10
277.6491010337015
 20
101.7615554450362
 30
0.0
 10
277.5705571755449
 20
101.7695641711413
 30
0.0
 10
277.4954265509541
 20
101.9090575972278
 30
0.0
 10
277.4674603172823
 20
101.9609819060014
 30
0.0
  0
SPLINE
  5
367
330
1F
100
AcDbEntity
  8
0
  6
Continuous
 62
     7
370
    25
100
AcDbSpline
210
0.0
220
0.0
230
1.0
 70
     8
 71
     3
 72
    12
 73
     8
 74
     0
 42
0.000000001
 43
0.00000001
 40
0.0
 40
0.0
 40
0.0
 40
0.0
 40
0.4999999999999921
 40
0.4999999999999921
 40
0.749999999999996
 40
0.749999999999996
 40
1.0
 40
1.0
 40
1.0
 40
1.0
 10
277.4674603172822
 20
101.9609819060004
 30
0.0
 10
277.9794664689871
 20
101.7704876165769
 30
0.0
 10
278.4991440152554
 20
101.6488132035145
 30
0.0
 10
279.2989318728179
 20
101.6481570129832
 30
0.0
 10
279.5652558196659
 20
101.6779910147776
 30
0.0
 10
280.0884133226673
 20
101.7869208848852
 30
0.0
 10
280.3468779538156
 20
101.8656160719481
 30
0.0
 10
280.6032000401377
 20
101.9609819060009
 30
0.0
  0
SPLINE
  5
368
330
1F
100
AcDbEntity
  8
0
  6
Continuous
 62
     7
370
    25
100
AcDbSpline
210
0.0
220
0.0
230
1.0
 70
     8
 71
     3
 72
    14
 73
    10
 74
     0
 42
0.000000001
 43
0.00000001
 40
0.0
 40
0.0
 40
0.0
 40
0.0
 40
0.25
 40
0.25
 40
0.5
 40
0.5
 40
0.75
 40
0.75
 40
1.0
 40
1.0
 40
1.0
 40
1.0
 10
284.3790898953335
 20
101.9609819060014
 30
0.0
 10
284.4311476042244
 20
101.8661072966907
 30
0.0
 10
284.4844811425525
 20
101.786502371815
 30
0.0
 10
284.5914131501806
 20
101.6776657569207
 30
0.0
 10
284.6451665166281
 20
101.6483421512303
 30
0.0
 10
284.7533455680519
 20
101.6484069329758
 30
0.0
 10
284.8081742646398
 20
101.6785631263022
 30
0.0
 10
284.9150812472997
 20
101.7881483276679
 30
0.0
 10
284.967502762272
 20
101.8666913014701
 30
0.0
 10
285.0192400276741
 20
101.9609819060014
 30
0.0
  0
LINE
  5
369
330
1F
100
AcDbEntity
  8
0
  6
Continuous
 62
     7
370
    25
100
AcDbLine
 10
284.3933501725
 20
101.4463019206
 30
0.0
 11
278.0933501725
 21
101.4463019206
 31
0.0
  0
LINE
  5
36A
330
1F
100
AcDbEntity
  8
0
  6
Continuous
 62
     7
370
    25
100
AcDbLine
 10
277.4674603173
 20
104.1316219352
 30
0.0
 11
277.4674603173
 21
101.960981906
 31
0.0
  0
LINE
  5
36B
330
1F
100
AcDbEntity
  8
0
  6
Continuous
 62
     7
370
    25
100
AcDbLine
 10
285.0192400277
 20
104.1316219352
 30
0.0
 11
285.0192400277
 21
101.960981906
 31
0.0
  0
LINE
  5
36C
330
1F
100
AcDbEntity
  8
0
  6
Continuous
 62
     7
370
    25
100
AcDbLine
 10
564.2433501725
 20
98.7463019206
 30
0.0
 11
565.164280405
 21
88.8463019206
 31
0.0
  0
LINE
  5
36D
330
1F
100
AcDbEntity
  8
0
  6
Continuous
 62
     7
370
    25
100
AcDbLine
 10
260.3224199399
 20
88.8463019206
 30
0.0
 11
261.2433501725
 21
98.7463019206
 31
0.0
  0
LINE
  5
36E
330
1F
100
AcDbEntity
  8
0
  6
Continuous
 62
     7
370
    25
100
AcDbLine
 10
261.2433501725
 20
100.5463019206
 30
0.0
 11
564.2433501725
 21
100.5463019206
 31
0.0
  0
LINE
  5
36F
330
1F
100
AcDbEntity
  8
0
  6
Continuous
 62
     7
370
    25
100
AcDbLine
 10
564.2433501725
 20
100.5463019206
 30
0.0
 11
564.2433501725
 21
98.7463019206
 31
0.0
  0
LINE
  5
370
330
1F
100
AcDbEntity
  8
0
  6
Continuous
 62
     7
370
    25
100
AcDbLine
 10
261.2433501725
 20
98.7463019206
 30
0.0
 11
261.2433501725
 21
100.5463019206
 31
0.0
  0
LINE
  5
371
330
1F
100
AcDbEntity
  8
0
  6
Continuous
 62
     7
370
    25
100
AcDbLine
 10
260.2433501725
 20
87.9963019206
 30
0.0
 11
260.3224199399
 21
88.8463019206
 31
0.0
  0
LINE
  5
372
330
1F
100
AcDbEntity
  8
0
  6
Continuous
 62
     7
370
    25
100
AcDbLine
 10
565.164280405
 20
88.8463019206
 30
0.0
 11
565.2433501725
 21
87.9963019206
 31
0.0
  0
LINE
  5
373
330
1F
100
AcDbEntity
  8
0
  6
Continuous
 62
     7
370
    25
100
AcDbLine
 10
543.9265580143
 20
109.7463019206
 30
0.0
 11
546.2433501725
 21
109.7463019206
 31
0.0
  0
LINE
  5
374
330
1F
100
AcDbEntity
  8
0
  6
Continuous
 62
     7
370
    25
100
AcDbLine
 10
542.2433501725
 20
109.7463019206
 30
0.0
 11
543.9265580143
 21
109.7463019206
 31
0.0
  0
LINE
  5
375
330
1F
100
AcDbEntity
  8
0
  6
Continuous
 62
     7
370
    25
100
AcDbLine
 10
412.4265580143
 20
109.7463019206
 30
0.0
 11
414.7433501725
 21
109.7463019206
 31
0.0
  0
LINE
  5
376
330
1F
100
AcDbEntity
  8
0
  6
Continuous
 62
     7
370
    25
100
AcDbLine
 10
410.7433501725
 20
109.7463019206
 30
0.0
 11
412.4265580143
 21
109.7463019206
 31
0.0
  0
LINE
  5
377
330
1F
100
AcDbEntity
  8
0
  6
Continuous
 62
     7
370
    25
100
AcDbLine
 10
280.9265580143
 20
109.7463019206
 30
0.0
 11
283.2433501725
 21
109.7463019206
 31
0.0
  0
LINE
  5
378
330
1F
100
AcDbEntity
  8
0
  6
Continuous
 62
     7
370
    25
100
AcDbLine
 10
279.2433501725
 20
109.7463019206
 30
0.0
 11
280.9265580143
 21
109.7463019206
 31
0.0
  0
LINE
  5
379
330
1F
100
AcDbEntity
  8
0
  6
Continuous
 62
     7
370
    25
100
AcDbLine
 10
565.7433501725
 20
120.9463019206
 30
0.0
 11
566.7433501725
 21
120.9463019206
 31
0.0
  0
LINE
  5
37A
330
1F
100
AcDbEntity
  8
0
  6
Continuous
 62
     7
370
    25
100
AcDbLine
 10
566.7433501725
 20
120.9463019206
 30
0.0
 11
566.7433501725
 21
118.9463019206
 31
0.0
  0
LINE
  5
37B
330
1F
100
AcDbEntity
  8
0
  6
Continuous
 62
     7
370
    25
100
AcDbLine
 10
566.7433501725
 20
118.9463019206
 30
0.0
 11
566.7433501725
 21
116.0463019206
 31
0.0
  0
LINE
  5
37C
330
1F
100
AcDbEntity
  8
0
  6
Continuous
 62
     7
370
    25
100
AcDbLine
 10
566.7433501725
 20
110.0463019206
 30
0.0
 11
566.7433501725
 21
89.9463019206
 31
0.0
  0
LINE
  5
37D
330
1F
100
AcDbEntity
  8
0
  6
Continuous
 62
     7
370
    25
100
AcDbLine
 10
564.7433501725
 20
102.5463019206
 30
0.0
 11
564.7433501725
 21
93.3713019206
 31
0.0
  0
LINE
  5
37E
330
1F
100
AcDbEntity
  8
0
  6
Continuous
 62
     7
370
    25
100
AcDbLine
 10
566.7416830426
 20
89.8463019206
 30
0.0
 11
566.7433501725
 21
89.9463019206
 31
0.0
  0
LINE
  5
37F
330
1F
100
AcDbEntity
  8
0
  6
Continuous
 62
     7
370
    25
100
AcDbLine
 10
566.8036575517
 20
120.9463019206
 30
0.0
 11
566.7433501725
 21
120.9463019206
 31
0.0
  0
LINE
  5
380
330
1F
100
AcDbEntity
  8
0
  6
Continuous
 62
     7
370
    25
100
AcDbLine
 10
566.7433501725
 20
104.9463019206
 30
0.0
 11
566.8036575517
 21
104.9463019206
 31
0.0
  0
LINE
  5
381
330
1F
100
AcDbEntity
  8
0
  6
Continuous
 62
     7
370
    25
100
AcDbLine
 10
566.8036575517
 20
120.9463019206
 30
0.0
 11
568.674856274
 21
120.9463019206
 31
0.0
  0
LWPOLYLINE
  5
382
330
1F
100
AcDbEntity
  8
0
  6
Continuous
 62
     7
370
    25
100
AcDbPolyline
 90
        9
 70
   128
 43
0.0
 10
569.3588965607
 20
118.9463019206
 10
569.3457529184
 20
119.3364825647
 10
569.3068270943
 20
119.7116687854
 10
569.2436149859
 20
120.0574423867
 10
569.1585457993
 20
120.360515483
 10
569.0548886955
 20
120.6092411452
 10
568.9366271588
 20
120.7940609857
 10
568.8083059138
 20
120.9078724814
 10
568.674856274
 20
120.9463019206
  0
LINE
  5
383
330
1F
100
AcDbEntity
  8
0
  6
Continuous
 62
     7
370
    25
100
AcDbLine
 10
569.3588965607
 20
118.9463019206
 30
0.0
 11
569.3588965607
 21
116.0463019206
 31
0.0
  0
LINE
  5
384
330
1F
100
AcDbEntity
  8
0
  6
Continuous
 62
     7
370
    25
100
AcDbLine
 10
569.3588965607
 20
110.0463019206
 30
0.0
 11
569.3588965607
 21
106.9463019206
 31
0.0
  0
LWPOLYLINE
  5
385
330
1F
100
AcDbEntity
  8
0
  6
Continuous
 62
     7
370
    25
100
AcDbPolyline
 90
        9
 70
   128
 43
0.0
 10
568.674856274
 20
104.9463019206
 10
568.8083059138
 20
104.9847313598
 10
568.9366271588
 20
105.0985428556
 10
569.0548886955
 20
105.283362696
 10
569.1585457993
 20
105.5320883583
 10
569.2436149859
 20
105.8351614546
 10
569.3068270943
 20
106.1809350559
 10
569.3457529184
 20
106.5561212766
 10
569.3588965607
 20
106.9463019206
  0
LINE
  5
386
330
1F
100
AcDbEntity
  8
0
  6
Continuous
 62
     7
370
    25
100
AcDbLine
 10
568.674856274
 20
104.9463019206
 30
0.0
 11
566.8036575517
 21
104.9463019206
 31
0.0
  0
LINE
  5
387
330
1F
100
AcDbEntity
  8
0
  6
Continuous
 62
     7
370
    25
100
AcDbLine
 10
258.7433501725
 20
120.9463019206
 30
0.0
 11
259.7433501725
 21
120.9463019206
 31
0.0
  0
LINE
  5
388
330
1F
100
AcDbEntity
  8
0
  6
Continuous
 62
     7
370
    25
100
AcDbLine
 10
258.7433501725
 20
118.9463019206
 30
0.0
 11
258.7433501725
 21
120.9463019206
 31
0.0
  0
LINE
  5
389
330
1F
100
AcDbEntity
  8
0
  6
Continuous
 62
     7
370
    25
100
AcDbLine
 10
258.7433501725
 20
89.9463019206
 30
0.0
 11
258.7433501725
 21
110.0463019206
 31
0.0
  0
LINE
  5
38A
330
1F
100
AcDbEntity
  8
0
  6
Continuous
 62
     7
370
    25
100
AcDbLine
 10
258.7433501725
 20
116.0463019206
 30
0.0
 11
258.7433501725
 21
118.9463019206
 31
0.0
  0
LINE
  5
38B
330
1F
100
AcDbEntity
  8
0
  6
Continuous
 62
     7
370
    25
100
AcDbLine
 10
260.7433501725
 20
93.3713019206
 30
0.0
 11
260.7433501725
 21
102.5463019206
 31
0.0
  0
LINE
  5
38C
330
1F
100
AcDbEntity
  8
0
  6
Continuous
 62
     7
370
    25
100
AcDbLine
 10
258.7433501725
 20
89.9463019206
 30
0.0
 11
258.7450173024
 21
89.8463019206
 31
0.0
  0
LINE
  5
38D
330
1F
100
AcDbEntity
  8
0
  6
Continuous
 62
     7
370
    25
100
AcDbLine
 10
258.6830427933
 20
104.9463019206
 30
0.0
 11
258.7433501725
 21
104.9463019206
 31
0.0
  0
LINE
  5
38E
330
1F
100
AcDbEntity
  8
0
  6
Continuous
 62
     7
370
    25
100
AcDbLine
 10
258.7433501725
 20
120.9463019206
 30
0.0
 11
258.6830427933
 21
120.9463019206
 31
0.0
  0
LWPOLYLINE
  5
38F
330
1F
100
AcDbEntity
  8
0
  6
Continuous
 62
     7
370
    25
100
AcDbPolyline
 90
        9
 70
   128
 43
0.0
 10
256.811844071
 20
120.9463019206
 10
256.6783944312
 20
120.9078724814
 10
256.5500731862
 20
120.7940609856
 10
256.4318116495
 20
120.6092411452
 10
256.3281545457
 20
120.360515483
 10
256.243085359
 20
120.0574423867
 10
256.1798732507
 20
119.7116687853
 10
256.1409474266
 20
119.3364825646
 10
256.1278037843
 20
118.9463019206
  0
LINE
  5
390
330
1F
100
AcDbEntity
  8
0
  6
Continuous
 62
     7
370
    25
100
AcDbLine
 10
256.811844071
 20
120.9463019206
 30
0.0
 11
258.6830427933
 21
120.9463019206
 31
0.0
  0
LINE
  5
391
330
1F
100
AcDbEntity
  8
0
  6
Continuous
 62
     7
370
    25
100
AcDbLine
 10
258.6830427933
 20
104.9463019206
 30
0.0
 11
256.811844071
 21
104.9463019206
 31
0.0
  0
LWPOLYLINE
  5
392
330
1F
100
AcDbEntity
  8
0
  6
Continuous
 62
     7
370
    25
100
AcDbPolyline
 90
        9
 70
   128
 43
0.0
 10
256.1278037843
 20
106.9463019206
 10
256.1409474266
 20
106.5561212766
 10
256.1798732507
 20
106.1809350559
 10
256.243085359
 20
105.8351614546
 10
256.3281545457
 20
105.5320883582
 10
256.4318116495
 20
105.283362696
 10
256.5500731862
 20
105.0985428556
 10
256.6783944312
 20
104.9847313598
 10
256.811844071
 20
104.9463019206
  0
LINE
  5
393
330
1F
100
AcDbEntity
  8
0
  6
Continuous
 62
     7
370
    25
100
AcDbLine
 10
256.1278037843
 20
106.9463019206
 30
0.0
 11
256.1278037843
 21
110.0463019206
 31
0.0
  0
LINE
  5
394
330
1F
100
AcDbEntity
  8
0
  6
Continuous
 62
     7
370
    25
100
AcDbLine
 10
256.1278037843
 20
116.0463019206
 30
0.0
 11
256.1278037843
 21
118.9463019206
 31
0.0
  0
SPLINE
  5
395
330
1F
100
AcDbEntity
  8
0
  6
Continuous
 62
     7
370
    25
100
AcDbSpline
210
0.0
220
0.0
230
1.0
 70
    24
 71
     3
 72
     9
 73
     5
 74
     0
 42
0.000000001
 43
0.00000001
 40
0.0
 40
0.0
 40
0.0
 40
0.0
 40
0.7059102712369583
 40
1.0
 40
1.0
 40
1.0
 40
1.0
 10
260.5433501724768
 20
118.8195507300082
 30
0.0
 10
260.5433501724768
 20
118.8298034993046
 30
0.0
 10
260.5433501724768
 20
118.8443276813632
 30
0.0
 10
260.5433501724768
 20
118.7492757247544
 30
0.0
 10
260.5433501724768
 20
118.7213219206169
 30
0.0
  0
SPLINE
  5
396
330
1F
100
AcDbEntity
  8
0
  6
Continuous
 62
     7
370
    25
100
AcDbSpline
210
0.0
220
0.0
230
1.0
 70
    24
 71
     3
 72
    12
 73
     8
 74
     0
 42
0.000000001
 43
0.00000001
 40
0.0
 40
0.0
 40
0.0
 40
0.0
 40
0.3344405486782609
 40
0.5144757571369836
 40
0.698331571026532
 40
0.8821873849160816
 40
1.0
 40
1.0
 40
1.0
 40
1.0
 10
261.5433501724768
 20
115.5526092256747
 30
0.0
 10
261.5433501724768
 20
116.1767547611765
 30
0.0
 10
261.5433501724768
 20
117.1368887766541
 30
0.0
 10
261.5433501724768
 20
118.0447996829494
 30
0.0
 10
261.5433501724768
 20
118.5505170208656
 30
0.0
 10
261.5433501724768
 20
118.8221367550037
 30
0.0
 10
261.5433501724768
 20
118.820277023544
 30
0.0
 10
261.5433501724768
 20
118.8195507300191
 30
0.0
  0
SPLINE
  5
397
330
1F
100
AcDbEntity
  8
0
  6
Continuous
 62
     7
370
    25
100
AcDbSpline
210
0.0
220
0.0
230
1.0
 70
    24
 71
     3
 72
    15
 73
    11
 74
     0
 42
0.000000001
 43
0.00000001
 40
0.0
 40
0.0
 40
0.0
 40
0.0
 40
0.034696749791865
 40
0.2211884951269639
 40
0.4076802404620632
 40
0.5080720152630783
 40
0.6105942475634821
 40
0.7131164798638862
 40
0.8135082546649006
 40
1.0
 40
1.0
 40
1.0
 40
1.0
 10
261.5433501724768
 20
107.2730531112134
 30
0.0
 10
261.5433501724768
 20
107.266332007582
 30
0.0
 10
261.5433501724768
 20
107.2234856082292
 30
0.0
 10
261.5433501724768
 20
107.7115265709877
 30
0.0
 10
261.5433501724768
 20
108.8074376284562
 30
0.0
 10
261.5433501724768
 20
110.0263347609037
 30
0.0
 10
261.5433501724768
 20
111.1065099887607
 30
0.0
 10
261.5433501724768
 20
112.2669868912264
 30
0.0
 10
261.5433501724768
 20
113.7975617863415
 30
0.0
 10
261.5433501724768
 20
114.8611876749915
 30
0.0
 10
261.5433501724768
 20
115.5526092256747
 30
0.0
  0
LINE
  5
398
330
1F
100
AcDbEntity
  8
0
  6
Continuous
 62
     7
370
    25
100
AcDbLine
 10
265.5433501725
 20
112.6629068929
 30
0.0
 11
265.5433501725
 21
117.1719827999
 31
0.0
  0
SPLINE
  5
399
330
1F
100
AcDbEntity
  8
0
  6
Continuous
 62
     7
370
    25
100
AcDbSpline
210
0.0
220
0.0
230
1.0
 70
     8
 71
     3
 72
     8
 73
     4
 74
     0
 42
0.000000001
 43
0.00000001
 40
0.0
 40
0.0
 40
0.0
 40
0.0
 40
1.0
 40
1.0
 40
1.0
 40
1.0
 10
265.5433501724698
 20
112.6629068929298
 30
0.0
 10
265.5433501724698
 20
113.6452853375026
 30
0.0
 10
265.3690348720903
 20
114.6007765056923
 30
0.0
 10
265.0967681850783
 20
115.5411591550199
 30
0.0
  0
SPLINE
  5
39A
330
1F
100
AcDbEntity
  8
0
  6
Continuous
 62
     7
370
    25
100
AcDbSpline
210
0.0
220
0.0
230
1.0
 70
     8
 71
     3
 72
     8
 73
     4
 74
     0
 42
0.000000001
 43
0.00000001
 40
0.0
 40
0.0
 40
0.0
 40
0.0
 40
1.0
 40
1.0
 40
1.0
 40
1.0
 10
265.0967681850783
 20
115.541159155026
 30
0.0
 10
265.3690348720897
 20
116.0739818960908
 30
0.0
 10
265.5433501724696
 20
116.6153651549854
 30
0.0
 10
265.5433501724696
 20
117.1719827999139
 30
0.0
  0
SPLINE
  5
39B
330
1F
100
AcDbEntity
  8
0
  6
Continuous
 62
     7
370
    25
100
AcDbSpline
210
0.0
220
0.0
230
1.0
 70
     8
 71
     3
 72
     8
 73
     4
 74
     0
 42
0.000000001
 43
0.00000001
 40
0.0
 40
0.0
 40
0.0
 40
0.0
 40
1.0
 40
1.0
 40
1.0
 40
1.0
 10
265.0967681850784
 20
109.7846546308398
 30
0.0
 10
265.3690348720899
 20
110.7250372801656
 30
0.0
 10
265.5433501724698
 20
111.6805284483589
 30
0.0
 10
265.5433501724698
 20
112.6629068929298
 30
0.0
  0
LINE
  5
39C
330
1F
100
AcDbEntity
  8
0
  6
Continuous
 62
     7
370
    25
100
AcDbLine
 10
261.5433501725
 20
109.7846546308
 30
0.0
 11
265.0967681851
 21
109.7846546308
 31
0.0
  0
LINE
  5
39D
330
1F
100
AcDbEntity
  8
0
  6
Continuous
 62
     7
370
    25
100
AcDbLine
 10
261.5433501725
 20
115.541159155
 30
0.0
 11
265.0967681851
 21
115.541159155
 31
0.0
  0
LINE
  5
39E
330
1F
100
AcDbEntity
  8
0
  6
Continuous
 62
     7
370
    25
100
AcDbLine
 10
265.5433501725
 20
108.5372260136
 30
0.0
 11
265.5433501725
 21
112.6629068929
 31
0.0
  0
SPLINE
  5
39F
330
1F
100
AcDbEntity
  8
0
  6
Continuous
 62
     7
370
    25
100
AcDbSpline
210
0.0
220
0.0
230
1.0
 70
     8
 71
     3
 72
     8
 73
     4
 74
     0
 42
0.000000001
 43
0.00000001
 40
0.0
 40
0.0
 40
0.0
 40
0.0
 40
1.0
 40
1.0
 40
1.0
 40
1.0
 10
265.5433501724696
 20
108.5372260136323
 30
0.0
 10
265.5433501724696
 20
108.9629868132755
 30
0.0
 10
265.3690348720903
 20
109.3770947225725
 30
0.0
 10
265.0967681850783
 20
109.7846546308342
 30
0.0
  0
SPLINE
  5
3A0
330
1F
100
AcDbEntity
  8
0
  6
Continuous
 62
     7
370
    25
100
AcDbSpline
210
0.0
220
0.0
230
1.0
 70
     8
 71
     3
 72
     8
 73
     4
 74
     0
 42
0.000000001
 43
0.00000001
 40
0.0
 40
0.0
 40
0.0
 40
0.0
 40
1.0
 40
1.0
 40
1.0
 40
1.0
 10
265.5433501724696
 20
117.1719827999139
 30
0.0
 10
265.5433501724696
 20
117.7286004448433
 30
0.0
 10
265.3690348720902
 20
118.2699837037359
 30
0.0
 10
265.0967681850782
 20
118.8028064448017
 30
0.0
  0
LINE
  5
3A1
330
1F
100
AcDbEntity
  8
0
  6
Continuous
 62
     7
370
    25
100
AcDbLine
 10
261.5433501725
 20
118.8028064448
 30
0.0
 11
265.0967681851
 21
118.8028064448
 31
0.0
  0
SPLINE
  5
3A2
330
1F
100
AcDbEntity
  8
0
  6
Continuous
 62
     7
370
    25
100
AcDbSpline
210
0.0
220
0.0
230
1.0
 70
     8
 71
     3
 72
     8
 73
     4
 74
     0
 42
0.000000001
 43
0.00000001
 40
0.0
 40
0.0
 40
0.0
 40
0.0
 40
1.0
 40
1.0
 40
1.0
 40
1.0
 10
265.0967681850783
 20
107.2897973964303
 30
0.0
 10
265.3690348720898
 20
107.6973573046913
 30
0.0
 10
265.5433501724696
 20
108.1114652139897
 30
0.0
 10
265.5433501724696
 20
108.5372260136323
 30
0.0
  0
LINE
  5
3A3
330
1F
100
AcDbEntity
  8
0
  6
Continuous
 62
     7
370
    25
100
AcDbLine
 10
265.0967681851
 20
107.2897973964
 30
0.0
 11
261.5433501725
 21
107.2897973964
 31
0.0
  0
LINE
  5
3A4
330
1F
100
AcDbEntity
  8
0
  6
Continuous
 62
     7
370
    25
100
AcDbLine
 10
251.0846001725
 20
110.3408563764
 30
0.0
 11
251.0846001725
 21
110.0463019206
 31
0.0
  0
LINE
  5
3A5
330
1F
100
AcDbEntity
  8
0
  6
Continuous
 62
     7
370
    25
100
AcDbLine
 10
251.0846001725
 20
116.0463019206
 30
0.0
 11
251.0846001725
 21
110.3408563764
 31
0.0
  0
LINE
  5
3A6
330
1F
100
AcDbEntity
  8
0
  6
Continuous
 62
     7
370
    25
100
AcDbLine
 10
250.5433501725
 20
115.5050519206
 30
0.0
 11
250.5433501725
 21
110.5875519206
 31
0.0
  0
LINE
  5
3A7
330
1F
100
AcDbEntity
  8
0
  6
Continuous
 62
     7
370
    25
100
AcDbLine
 10
265.0967681851
 20
118.8028064448
 30
0.0
 11
265.1719559406
 21
118.592785977
 31
0.0
  0
LINE
  5
3A8
330
1F
100
AcDbEntity
  8
0
  6
Continuous
 62
     7
370
    25
100
AcDbLine
 10
265.5433501725
 20
117.1719827999
 30
0.0
 11
265.5433501725
 21
118.0463019206
 31
0.0
  0
LINE
  5
3A9
330
1F
100
AcDbEntity
  8
0
  6
Continuous
 62
     7
370
    25
100
AcDbLine
 10
265.5433501725
 20
108.0463019206
 30
0.0
 11
265.5433501725
 21
108.5372260136
 31
0.0
  0
ARC
  5
3AA
330
1F
100
AcDbEntity
  8
0
  6
Continuous
 62
     7
370
    25
100
AcDbCircle
 10
252.2433501725
 20
83.8463019206
 30
0.0
 40
6.000000000000006
100
AcDbArc
 50
90.0
 51
143.1301023542
  0
ARC
  5
3AB
330
1F
100
AcDbEntity
  8
0
  6
Continuous
 62
     7
370
    25
100
AcDbCircle
 10
573.2433501725
 20
83.8463019206
 30
0.0
 40
6.0
100
AcDbArc
 50
36.8698976458
 51
90.0
  0
LINE
  5
3AC
330
1F
100
AcDbEntity
  8
0
  6
Continuous
 62
     7
370
    25
100
AcDbLine
 10
108.2718900766
 20
347.6075204992
 30
0.0
 11
107.9089522983
 21
346.9788938271
 31
0.0
  0
LINE
  5
3AD
330
1F
100
AcDbEntity
  8
0
  6
Continuous
 62
     7
370
    25
100
AcDbLine
 10
107.9089522983
 20
340.6788938271
 30
0.0
 11
108.2718900766
 21
340.050267155
 31
0.0
  0
LINE
  5
3AE
330
1F
100
AcDbEntity
  8
0
  6
Continuous
 62
     7
370
    25
100
AcDbLine
 10
107.9089522983
 20
339.6788938271
 30
0.0
 11
108.2718900766
 21
339.050267155
 31
0.0
  0
ARC
  5
3AF
330
1F
100
AcDbEntity
  8
0
  6
Continuous
 62
     7
370
    25
100
AcDbCircle
 10
111.1371555286
 20
343.8288938271
 30
0.0
 40
8.000000000000016
100
AcDbArc
 50
195.2747479997
 51
210.0
  0
ARC
  5
3B0
330
1F
100
AcDbEntity
  8
0
  6
Continuous
 62
     7
370
    25
100
AcDbCircle
 10
111.1371555286
 20
343.8288938271
 30
0.0
 40
7.99999999999999
100
AcDbArc
 50
150.0
 51
164.7252520003
  0
LINE
  5
3B1
330
1F
100
AcDbEntity
  8
0
  6
Continuous
 62
     7
370
    25
100
AcDbLine
 10
106.2089522983
 20
347.8288938271
 30
0.0
 11
104.2089522983
 21
347.8288938271
 31
0.0
  0
LINE
  5
3B2
330
1F
100
AcDbEntity
  8
0
  6
Continuous
 62
     7
370
    25
100
AcDbLine
 10
104.2089522983
 20
339.8288938271
 30
0.0
 11
106.2089522983
 21
339.8288938271
 31
0.0
  0
LINE
  5
3B3
330
1F
100
AcDbEntity
  8
0
  6
Continuous
 62
     7
370
    25
100
AcDbLine
 10
107.9089522983
 20
345.8288938271
 30
0.0
 11
107.8089522983
 21
345.8288938271
 31
0.0
  0
LINE
  5
3B4
330
1F
100
AcDbEntity
  8
0
  6
Continuous
 62
     7
370
    25
100
AcDbLine
 10
107.8089522983
 20
341.8288938271
 30
0.0
 11
107.9089522983
 21
341.8288938271
 31
0.0
  0
LINE
  5
3B5
330
1F
100
AcDbEntity
  8
0
  6
Continuous
 62
     7
370
    25
100
AcDbLine
 10
104.2089522983
 20
338.8288938271
 30
0.0
 11
106.2089522983
 21
338.8288938271
 31
0.0
  0
ARC
  5
3B6
330
1F
100
AcDbEntity
  8
0
  6
Continuous
 62
     7
370
    25
100
AcDbCircle
 10
111.1371555286
 20
342.8288938271
 30
0.0
 40
8.000000000000005
100
AcDbArc
 50
195.2747479997
 51
210.0
  0
LINE
  5
3B7
330
1F
100
AcDbEntity
  8
0
  6
Continuous
 62
     7
370
    25
100
AcDbLine
 10
107.8089522983
 20
340.8288938271
 30
0.0
 11
107.9089522983
 21
340.8288938271
 31
0.0
  0
CIRCLE
  5
3B8
330
1F
100
AcDbEntity
  8
0
  6
Continuous
 62
     7
370
    25
100
AcDbCircle
 10
119.5089522983
 20
368.8288938271
 30
0.0
 40
2.458750000016604
  0
CIRCLE
  5
3B9
330
1F
100
AcDbEntity
  8
0
  6
Continuous
 62
     7
370
    25
100
AcDbCircle
 10
119.5089522983
 20
368.8288938271
 30
0.0
 40
2.999999999999994
  0
LINE
  5
3BA
330
1F
100
AcDbEntity
  8
0
  6
Continuous
 62
     7
370
    25
100
AcDbLine
 10
100.9089522983
 20
196.2996045052
 30
0.0
 11
100.9089522983
 21
339.358183149
 31
0.0
  0
LINE
  5
3BB
330
1F
100
AcDbEntity
  8
0
  6
Continuous
 62
     7
370
    25
100
AcDbLine
 10
91.3089522983
 20
196.2996045052
 30
0.0
 11
100.9089522983
 21
196.2996045052
 31
0.0
  0
LINE
  5
3BC
330
1F
100
AcDbEntity
  8
0
  6
Continuous
 62
     7
370
    25
100
AcDbLine
 10
91.3089522983
 20
339.358183149
 30
0.0
 11
100.9089522983
 21
339.358183149
 31
0.0
  0
SPLINE
  5
3BD
330
1F
100
AcDbEntity
  8
0
  6
Continuous
 62
     7
370
    25
100
AcDbSpline
210
0.0
220
0.0
230
1.0
 70
     8
 71
     3
 72
    20
 73
    16
 74
     0
 42
0.000000001
 43
0.00000001
 40
0.0
 40
0.0
 40
0.0
 40
0.0
 40
0.124999999999999
 40
0.124999999999999
 40
0.2499999999999981
 40
0.2499999999999981
 40
0.3749999999999971
 40
0.3749999999999971
 40
0.4999999999999961
 40
0.4999999999999961
 40
0.7499999999999968
 40
0.7499999999999968
 40
0.8749999999999984
 40
0.8749999999999984
 40
1.0
 40
1.0
 40
1.0
 40
1.0
 10
88.90895229829185
 20
338.4288938270942
 30
0.0
 10
88.90895229829185
 20
338.4679345579487
 30
0.0
 10
88.9244888587667
 20
338.5064532621485
 30
0.0
 10
88.9858072107273
 20
338.5838600134564
 30
0.0
 10
89.0322309563141
 20
338.6230044314431
 30
0.0
 10
89.15218182646824
 20
338.7001551853583
 30
0.0
 10
89.22578647075166
 20
338.7384827670993
 30
0.0
 10
89.4005168368473
 20
338.8160290875758
 30
0.0
 10
89.50136746574886
 20
338.8550052952446
 30
0.0
 10
89.83265274573279
 20
338.9705001516896
 30
0.0
 10
90.10033290711664
 20
339.0484125953597
 30
0.0
 10
90.53300693317206
 20
339.1638925207605
 30
0.0
 10
90.6845250200232
 20
339.2027583166255
 30
0.0
 10
90.99395077740932
 20
339.2805326502941
 30
0.0
 10
91.1505731071031
 20
339.3191424172489
 30
0.0
 10
91.30895229829183
 20
339.3581831489755
 30
0.0
  0
SPLINE
  5
3BE
330
1F
100
AcDbEntity
  8
0
  6
Continuous
 62
     7
370
    25
100
AcDbSpline
210
0.0
220
0.0
230
1.0
 70
     8
 71
     3
 72
    20
 73
    16
 74
     0
 42
0.000000001
 43
0.00000001
 40
0.0
 40
0.0
 40
0.0
 40
0.0
 40
0.1249999999999994
 40
0.1249999999999994
 40
0.2499999999999987
 40
0.2499999999999987
 40
0.3749999999999981
 40
0.3749999999999981
 40
0.4999999999999974
 40
0.4999999999999974
 40
0.7499999999999987
 40
0.7499999999999987
 40
0.8749999999999993
 40
0.8749999999999993
 40
1.0
 40
1.0
 40
1.0
 40
1.0
 10
91.30895229829183
 20
196.2996045052129
 30
0.0
 10
91.15057311064113
 20
196.3386452360674
 30
0.0
 10
90.99432738594946
 20
196.3771639402672
 30
0.0
 10
90.68633553653284
 20
196.4545706915751
 30
0.0
 10
90.53369142906172
 20
196.4937151095618
 30
0.0
 10
90.24460713987465
 20
196.570865863477
 30
0.0
 10
90.10680260169059
 20
196.609193445218
 30
0.0
 10
89.84518392605167
 20
196.6867397656946
 30
0.0
 10
89.72243761936903
 20
196.7257159733632
 30
0.0
 10
89.39111324242134
 20
196.8412108298083
 30
0.0
 10
89.2121021183931
 20
196.9191232734784
 30
0.0
 10
89.03248701901222
 20
197.0346031988793
 30
0.0
 10
88.98624267014452
 20
197.0734689947443
 30
0.0
 10
88.92448936413331
 20
197.1512433284128
 30
0.0
 10
88.90895229829185
 20
197.1898530953676
 30
0.0
 10
88.90895229829185
 20
197.2288938270943
 30
0.0
  0
LINE
  5
3BF
330
1F
100
AcDbEntity
  8
0
  6
Continuous
 62
     7
370
    25
100
AcDbLine
 10
88.9089522983
 20
197.2288938271
 30
0.0
 11
88.9089522983
 21
338.4288938271
 31
0.0
  0
LINE
  5
3C0
330
1F
100
AcDbEntity
  8
0
  6
Continuous
 62
     7
370
    25
100
AcDbLine
 10
91.3089522983
 20
340.8288938271
 30
0.0
 11
91.3089522983
 21
339.4288938271
 31
0.0
  0
SPLINE
  5
3C1
330
1F
100
AcDbEntity
  8
0
  6
Continuous
 62
     7
370
    25
100
AcDbSpline
210
0.0
220
0.0
230
1.0
 70
     8
 71
     3
 72
     9
 73
     5
 74
     0
 42
0.000000001
 43
0.00000001
 40
0.0
 40
0.0
 40
0.0
 40
0.0
 40
0.7584558214377994
 40
1.0
 40
1.0
 40
1.0
 40
1.0
 10
91.30895229829183
 20
339.428893827094
 30
0.0
 10
91.15724452035559
 20
339.4178392912607
 30
0.0
 10
90.9572226157855
 20
339.4032642355739
 30
0.0
 10
90.80666852439408
 20
339.2801678519741
 30
0.0
 10
90.77030306005977
 20
339.2504346371136
 30
0.0
  0
SPLINE
  5
3C2
330
1F
100
AcDbEntity
  8
0
  6
Continuous
 62
     7
370
    25
100
AcDbSpline
210
0.0
220
0.0
230
1.0
 70
     8
 71
     3
 72
    20
 73
    16
 74
     0
 42
0.000000001
 43
0.00000001
 40
0.0
 40
0.0
 40
0.0
 40
0.0
 40
0.1249999999999988
 40
0.1249999999999988
 40
0.2499999999999976
 40
0.2499999999999976
 40
0.3749999999999964
 40
0.3749999999999964
 40
0.4999999999999952
 40
0.4999999999999952
 40
0.7500000000000001
 40
0.7500000000000001
 40
0.8750000000000001
 40
0.8750000000000001
 40
1.0
 40
1.0
 40
1.0
 40
1.0
 10
91.30895229829186
 20
340.8288938270941
 30
0.0
 10
91.15057311064118
 20
340.8288938270941
 30
0.0
 10
90.99432738594948
 20
340.8133572666193
 30
0.0
 10
90.68633553653287
 20
340.7520389146587
 30
0.0
 10
90.53369142906176
 20
340.705615169072
 30
0.0
 10
90.24460713987469
 20
340.5856642989178
 30
0.0
 10
90.10680260169065
 20
340.5120596546343
 30
0.0
 10
89.84518392605173
 20
340.3373292885387
 30
0.0
 10
89.72243761936907
 20
340.2364786596372
 30
0.0
 10
89.39111324242138
 20
339.9051933796532
 30
0.0
 10
89.21210211839315
 20
339.6375132182694
 30
0.0
 10
89.03248701901225
 20
339.204839192214
 30
0.0
 10
88.98624267014455
 20
339.0533211053628
 30
0.0
 10
88.92448936413334
 20
338.7438953479767
 30
0.0
 10
88.90895229829188
 20
338.5872730182829
 30
0.0
 10
88.90895229829188
 20
338.4288938270942
 30
0.0
  0
SPLINE
  5
3C3
330
1F
100
AcDbEntity
  8
0
  6
Continuous
 62
     7
370
    25
100
AcDbSpline
210
0.0
220
0.0
230
1.0
 70
     8
 71
     3
 72
    20
 73
    16
 74
     0
 42
0.000000001
 43
0.00000001
 40
0.0
 40
0.0
 40
0.0
 40
0.0
 40
0.1249999999999993
 40
0.1249999999999993
 40
0.2499999999999987
 40
0.2499999999999987
 40
0.374999999999998
 40
0.374999999999998
 40
0.4999999999999973
 40
0.4999999999999973
 40
0.7500000000000012
 40
0.7500000000000012
 40
0.8750000000000007
 40
0.8750000000000007
 40
1.0
 40
1.0
 40
1.0
 40
1.0
 10
88.90895229829187
 20
197.2288938270943
 30
0.0
 10
88.90895229829187
 20
197.0705146394435
 30
0.0
 10
88.92448885876671
 20
196.9142689147518
 30
0.0
 10
88.98580721072732
 20
196.6062770653352
 30
0.0
 10
89.0322309563141
 20
196.4536329578641
 30
0.0
 10
89.15218182646822
 20
196.164548668677
 30
0.0
 10
89.22578647075163
 20
196.026744130493
 30
0.0
 10
89.40051683684727
 20
195.765125454854
 30
0.0
 10
89.50136746574884
 20
195.6423791481714
 30
0.0
 10
89.83265274573277
 20
195.3110547712238
 30
0.0
 10
90.10033290711664
 20
195.1320436471955
 30
0.0
 10
90.53300693317205
 20
194.9524285478146
 30
0.0
 10
90.68452502002319
 20
194.9061841989468
 30
0.0
 10
90.9939507774093
 20
194.8444308929356
 30
0.0
 10
91.15057310710307
 20
194.8288938270942
 30
0.0
 10
91.3089522982918
 20
194.8288938270942
 30
0.0
  0
SPLINE
  5
3C4
330
1F
100
AcDbEntity
  8
0
  6
Continuous
 62
     7
370
    25
100
AcDbSpline
210
0.0
220
0.0
230
1.0
 70
     8
 71
     3
 72
     9
 73
     5
 74
     0
 42
0.000000001
 43
0.00000001
 40
0.0
 40
0.0
 40
0.0
 40
0.0
 40
0.4258694941524719
 40
1.0
 40
1.0
 40
1.0
 40
1.0
 10
90.7525608712827
 20
196.4189723897715
 30
0.0
 10
90.82296504788756
 20
196.369050764927
 30
0.0
 10
90.98828371375015
 20
196.2518279407285
 30
0.0
 10
91.19199527600657
 20
196.2372585555669
 30
0.0
 10
91.30895229829183
 20
196.2288938270942
 30
0.0
  0
LINE
  5
3C5
330
1F
100
AcDbEntity
  8
0
  6
Continuous
 62
     7
370
    25
100
AcDbLine
 10
91.3089522983
 20
194.8288938271
 30
0.0
 11
91.3089522983
 21
196.2288938271
 31
0.0
  0
LINE
  5
3C6
330
1F
100
AcDbEntity
  8
0
  6
Continuous
 62
     7
370
    25
100
AcDbLine
 10
91.3089522983
 20
196.2288938271
 30
0.0
 11
100.9089522983
 21
196.2288938271
 31
0.0
  0
LINE
  5
3C7
330
1F
100
AcDbEntity
  8
0
  6
Continuous
 62
     7
370
    25
100
AcDbLine
 10
100.9089522983
 20
194.8288938271
 30
0.0
 11
100.9089522983
 21
196.2288938271
 31
0.0
  0
LINE
  5
3C8
330
1F
100
AcDbEntity
  8
0
  6
Continuous
 62
     7
370
    25
100
AcDbLine
 10
91.3089522983
 20
194.8288938271
 30
0.0
 11
100.9089522983
 21
194.8288938271
 31
0.0
  0
LINE
  5
3C9
330
1F
100
AcDbEntity
  8
0
  6
Continuous
 62
     7
370
    25
100
AcDbLine
 10
100.9089522983
 20
340.8288938271
 30
0.0
 11
100.9089522983
 21
339.4288938271
 31
0.0
  0
LINE
  5
3CA
330
1F
100
AcDbEntity
  8
0
  6
Continuous
 62
     7
370
    25
100
AcDbLine
 10
91.3089522983
 20
340.8288938271
 30
0.0
 11
100.9089522983
 21
340.8288938271
 31
0.0
  0
LINE
  5
3CB
330
1F
100
AcDbEntity
  8
0
  6
Continuous
 62
     7
370
    25
100
AcDbLine
 10
91.3089522983
 20
339.4288938271
 30
0.0
 11
100.9089522983
 21
339.4288938271
 31
0.0
  0
LINE
  5
3CC
330
1F
100
AcDbEntity
  8
0
  6
Continuous
 62
     7
370
    25
100
AcDbLine
 10
109.0089522983
 20
355.3288938271
 30
0.0
 11
109.0089522983
 21
338.1288938271
 31
0.0
  0
LINE
  5
3CD
330
1F
100
AcDbEntity
  8
0
  6
Continuous
 62
     7
370
    25
100
AcDbLine
 10
105.0089522983
 20
355.3288938271
 30
0.0
 11
109.0089522983
 21
355.3288938271
 31
0.0
  0
LINE
  5
3CE
330
1F
100
AcDbEntity
  8
0
  6
Continuous
 62
     7
370
    25
100
AcDbLine
 10
105.0089522983
 20
372.3288938271
 30
0.0
 11
105.0089522983
 21
355.3288938271
 31
0.0
  0
ARC
  5
3CF
330
1F
100
AcDbEntity
  8
0
  6
Continuous
 62
     7
370
    25
100
AcDbCircle
 10
108.0089522983
 20
372.3288938271
 30
0.0
 40
3.0
100
AcDbArc
 50
90.0
 51
180.0
  0
LINE
  5
3D0
330
1F
100
AcDbEntity
  8
0
  6
Continuous
 62
     7
370
    25
100
AcDbLine
 10
125.0089522983
 20
375.3288938271
 30
0.0
 11
108.0089522983
 21
375.3288938271
 31
0.0
  0
ARC
  5
3D1
330
1F
100
AcDbEntity
  8
0
  6
Continuous
 62
     7
370
    25
100
AcDbCircle
 10
125.0089522983
 20
372.3288938271
 30
0.0
 40
3.0
100
AcDbArc
 50
0.0
 51
90.0
  0
LINE
  5
3D2
330
1F
100
AcDbEntity
  8
0
  6
Continuous
 62
     7
370
    25
100
AcDbLine
 10
128.0089522983
 20
338.1288938271
 30
0.0
 11
128.0089522983
 21
372.3288938271
 31
0.0
  0
CIRCLE
  5
3D3
330
1F
100
AcDbEntity
  8
0
  6
Continuous
 62
     7
370
    25
100
AcDbCircle
 10
119.5089522983
 20
368.8288938271
 30
0.0
 40
3.250000000000114
  0
CIRCLE
  5
3D4
330
1F
100
AcDbEntity
  8
0
  6
Continuous
 62
     7
370
    25
100
AcDbCircle
 10
119.5089522983
 20
343.8288938271
 30
0.0
 40
3.250000000000114
  0
LINE
  5
3D5
330
1F
100
AcDbEntity
  8
0
  6
Continuous
 62
     7
370
    25
100
AcDbLine
 10
109.0089522983
 20
336.3288938271
 30
0.0
 11
109.0089522983
 21
338.1288938271
 31
0.0
  0
LINE
  5
3D6
330
1F
100
AcDbEntity
  8
0
  6
Continuous
 62
     7
370
    25
100
AcDbLine
 10
128.0089522983
 20
338.1288938271
 30
0.0
 11
128.0089522983
 21
336.3288938271
 31
0.0
  0
LINE
  5
3D7
330
1F
100
AcDbEntity
  8
0
  6
Continuous
 62
     7
370
    25
100
AcDbLine
 10
128.0089522983
 20
336.3288938271
 30
0.0
 11
109.0089522983
 21
336.3288938271
 31
0.0
  0
LINE
  5
3D8
330
1F
100
AcDbEntity
  8
0
  6
Continuous
 62
     7
370
    25
100
AcDbLine
 10
108.8089522983
 20
336.3288938271
 30
0.0
 11
109.0089522983
 21
336.3288938271
 31
0.0
  0
LINE
  5
3D9
330
1F
100
AcDbEntity
  8
0
  6
Continuous
 62
     7
370
    25
100
AcDbLine
 10
108.8089522983
 20
337.1288938271
 30
0.0
 11
109.0089522983
 21
337.1288938271
 31
0.0
  0
ARC
  5
3DA
330
1F
100
AcDbEntity
  8
0
  6
Continuous
 62
     7
370
    25
100
AcDbCircle
 10
108.8089522983
 20
338.1288938271
 30
0.0
 40
1.799999999999997
100
AcDbArc
 50
180.0
 51
270.0
  0
ARC
  5
3DB
330
1F
100
AcDbEntity
  8
0
  6
Continuous
 62
     7
370
    25
100
AcDbCircle
 10
108.8089522983
 20
338.1288938271
 30
0.0
 40
1.0
100
AcDbArc
 50
180.0
 51
270.0
  0
LINE
  5
3DC
330
1F
100
AcDbEntity
  8
0
  6
Continuous
 62
     7
370
    25
100
AcDbLine
 10
107.0089522983
 20
348.3288938271
 30
0.0
 11
107.8089522983
 21
348.3288938271
 31
0.0
  0
LINE
  5
3DD
330
1F
100
AcDbEntity
  8
0
  6
Continuous
 62
     7
370
    25
100
AcDbLine
 10
107.8089522983
 20
338.1288938271
 30
0.0
 11
107.8089522983
 21
348.3288938271
 31
0.0
  0
LINE
  5
3DE
330
1F
100
AcDbEntity
  8
0
  6
Continuous
 62
     7
370
    25
100
AcDbLine
 10
128.0089522983
 20
336.3288938271
 30
0.0
 11
149.0089522983
 21
336.3288938271
 31
0.0
  0
LINE
  5
3DF
330
1F
100
AcDbEntity
  8
0
  6
Continuous
 62
     7
370
    25
100
AcDbLine
 10
128.0089522983
 20
337.1288938271
 30
0.0
 11
149.0089522983
 21
337.1288938271
 31
0.0
  0
LINE
  5
3E0
330
1F
100
AcDbEntity
  8
0
  6
Continuous
 62
     7
370
    25
100
AcDbLine
 10
152.0089522983
 20
337.1288938271
 30
0.0
 11
152.0089522983
 21
336.3288938271
 31
0.0
  0
LINE
  5
3E1
330
1F
100
AcDbEntity
  8
0
  6
Continuous
 62
     7
370
    25
100
AcDbLine
 10
152.0089522983
 20
336.3288938271
 30
0.0
 11
149.0089522983
 21
336.3288938271
 31
0.0
  0
LINE
  5
3E2
330
1F
100
AcDbEntity
  8
0
  6
Continuous
 62
     7
370
    25
100
AcDbLine
 10
149.0089522983
 20
337.1288938271
 30
0.0
 11
152.0089522983
 21
337.1288938271
 31
0.0
  0
LINE
  5
3E3
330
1F
100
AcDbEntity
  8
0
  6
Continuous
 62
     7
370
    25
100
AcDbLine
 10
150.9135656901
 20
341.3288938271
 30
0.0
 11
150.9135656901
 21
340.5288938271
 31
0.0
  0
LINE
  5
3E4
330
1F
100
AcDbEntity
  8
0
  6
Continuous
 62
     7
370
    25
100
AcDbLine
 10
150.9135656901
 20
340.5288938271
 30
0.0
 11
147.9135656901
 21
340.5288938271
 31
0.0
  0
LINE
  5
3E5
330
1F
100
AcDbEntity
  8
0
  6
Continuous
 62
     7
370
    25
100
AcDbLine
 10
147.9135656901
 20
341.3288938271
 30
0.0
 11
150.9135656901
 21
341.3288938271
 31
0.0
  0
LINE
  5
3E6
330
1F
100
AcDbEntity
  8
0
  6
Continuous
 62
     7
370
    25
100
AcDbLine
 10
141.3958742365
 20
340.5288938271
 30
0.0
 11
147.9135656901
 21
340.5288938271
 31
0.0
  0
LINE
  5
3E7
330
1F
100
AcDbEntity
  8
0
  6
Continuous
 62
     7
370
    25
100
AcDbLine
 10
141.3958742365
 20
341.3288938271
 30
0.0
 11
147.9135656901
 21
341.3288938271
 31
0.0
  0
LINE
  5
3E8
330
1F
100
AcDbEntity
  8
0
  6
Continuous
 62
     7
370
    25
100
AcDbLine
 10
140.8958742365
 20
340.3949192309
 30
0.0
 11
135.2389522983
 21
337.1288938271
 31
0.0
  0
LINE
  5
3E9
330
1F
100
AcDbEntity
  8
0
  6
Continuous
 62
     7
370
    25
100
AcDbLine
 10
140.4958742365
 20
341.0877395539
 30
0.0
 11
133.8710031059
 21
337.2628684233
 31
0.0
  0
ARC
  5
3EA
330
1F
100
AcDbEntity
  8
0
  6
Continuous
 62
     7
370
    25
100
AcDbCircle
 10
141.3958742365
 20
339.5288938271
 30
0.0
 40
0.9999999999999432
100
AcDbArc
 50
90.0
 51
120.0
  0
ARC
  5
3EB
330
1F
100
AcDbEntity
  8
0
  6
Continuous
 62
     7
370
    25
100
AcDbCircle
 10
141.3958742365
 20
339.5288938271
 30
0.0
 40
1.800000000000011
100
AcDbArc
 50
90.0
 51
120.0
  0
ARC
  5
3EC
330
1F
100
AcDbEntity
  8
0
  6
Continuous
 62
     7
370
    25
100
AcDbCircle
 10
133.3710031059
 20
338.1288938271
 30
0.0
 40
1.0
100
AcDbArc
 50
270.0
 51
300.0
  0
CIRCLE
  5
3ED
330
1F
100
AcDbEntity
  8
0
  6
Continuous
 62
     7
370
    25
100
AcDbCircle
 10
119.5089522983
 20
343.8288938271
 30
0.0
 40
2.458750000016629
  0
CIRCLE
  5
3EE
330
1F
100
AcDbEntity
  8
0
  6
Continuous
 62
     7
370
    25
100
AcDbCircle
 10
119.5089522983
 20
343.8288938271
 30
0.0
 40
2.999999999999968
  0
SPLINE
  5
3EF
330
1F
100
AcDbEntity
  8
0
  6
Continuous
 62
     7
370
    25
100
AcDbSpline
210
0.0
220
0.0
230
1.0
 70
     8
 71
     3
 72
    12
 73
     8
 74
     0
 42
0.000000001
 43
0.00000001
 40
0.0
 40
0.0
 40
0.0
 40
0.0
 40
0.4999999999999921
 40
0.4999999999999921
 40
0.749999999999996
 40
0.749999999999996
 40
1.0
 40
1.0
 40
1.0
 40
1.0
 10
108.4236322836768
 20
342.3880645052238
 30
0.0
 10
108.2331379942533
 20
341.9717634215693
 30
0.0
 10
108.111463581191
 20
341.5492248935809
 30
0.0
 10
108.1108073906597
 20
340.89893475412
 30
0.0
 10
108.1406413924541
 20
340.6823925362056
 30
0.0
 10
108.2495712625617
 20
340.2570245309653
 30
0.0
 10
108.3282664496246
 20
340.0468725519801
 30
0.0
 10
108.4236322836773
 20
339.8384626296673
 30
0.0
  0
LINE
  5
3F0
330
1F
100
AcDbEntity
  8
0
  6
Continuous
 62
     7
370
    25
100
AcDbLine
 10
108.4236322837
 20
339.8384626297
 30
0.0
 11
108.3257572464
 21
340.08136738
 31
0.0
  0
SPLINE
  5
3F1
330
1F
100
AcDbEntity
  8
0
  6
Continuous
 62
     7
370
    25
100
AcDbSpline
210
0.0
220
0.0
230
1.0
 70
     8
 71
     3
 72
    12
 73
     8
 74
     0
 42
0.000000001
 43
0.00000001
 40
0.0
 40
0.0
 40
0.0
 40
0.0
 40
0.5000000000000112
 40
0.5000000000000112
 40
0.7500000000000056
 40
0.7500000000000056
 40
1.0
 40
1.0
 40
1.0
 40
1.0
 10
108.4236322836769
 20
347.8193250245212
 30
0.0
 10
108.2331379942533
 20
347.5840652320781
 30
0.0
 10
108.111463581191
 20
347.3452805392276
 30
0.0
 10
108.1108073906597
 20
346.9777890066705
 30
0.0
 10
108.1406413924541
 20
346.8554168120212
 30
0.0
 10
108.2495712625617
 20
346.6150331268617
 30
0.0
 10
108.3282664496246
 20
346.4962721798001
 30
0.0
 10
108.4236322836773
 20
346.3784957026506
 30
0.0
  0
SPLINE
  5
3F2
330
1F
100
AcDbEntity
  8
0
  6
Continuous
 62
     7
370
    25
100
AcDbSpline
210
0.0
220
0.0
230
1.0
 70
     8
 71
     3
 72
    14
 73
    10
 74
     0
 42
0.000000001
 43
0.00000001
 40
0.0
 40
0.0
 40
0.0
 40
0.0
 40
0.25
 40
0.25
 40
0.5
 40
0.5
 40
0.75
 40
0.75
 40
1.0
 40
1.0
 40
1.0
 40
1.0
 10
108.4236322836778
 20
346.3784957026506
 30
0.0
 10
108.3287576743672
 20
346.053989473362
 30
0.0
 10
108.2491527494915
 20
345.7215302509676
 30
0.0
 10
108.1403161345972
 20
345.0549603360594
 30
0.0
 10
108.1109925289067
 20
344.7198840787842
 30
0.0
 10
108.1110573106523
 20
344.0455406085565
 30
0.0
 10
108.1412135039787
 20
343.7037611878776
 30
0.0
 10
108.2507987053444
 20
343.0373472682729
 30
0.0
 10
108.3293416791466
 20
342.7105732223201
 30
0.0
 10
108.4236322836778
 20
342.3880645052237
 30
0.0
  0
LINE
  5
3F3
330
1F
100
AcDbEntity
  8
0
  6
Continuous
 62
     7
370
    25
100
AcDbLine
 10
107.9089522983
 20
340.6788938271
 30
0.0
 11
107.9089522983
 21
346.9788938271
 31
0.0
  0
LINE
  5
3F4
330
1F
100
AcDbEntity
  8
0
  6
Continuous
 62
     7
370
    25
100
AcDbLine
 10
109.0089522983
 20
342.3880645052
 30
0.0
 11
108.4236322837
 21
342.3880645052
 31
0.0
  0
LINE
  5
3F5
330
1F
100
AcDbEntity
  8
0
  6
Continuous
 62
     7
370
    25
100
AcDbLine
 10
109.0089522983
 20
346.3784957027
 30
0.0
 11
108.4236322837
 21
346.3784957027
 31
0.0
  0
LINE
  5
3F6
330
1F
100
AcDbEntity
  8
0
  6
Continuous
 62
     7
370
    25
100
AcDbLine
 10
109.0089522983
 20
339.8384626297
 30
0.0
 11
108.4236322837
 21
339.8384626297
 31
0.0
  0
LINE
  5
3F7
330
1F
100
AcDbEntity
  8
0
  6
Continuous
 62
     7
370
    25
100
AcDbLine
 10
109.0089522983
 20
347.8193250245
 30
0.0
 11
108.4236322837
 21
347.8193250245
 31
0.0
  0
SPLINE
  5
3F8
330
1F
100
AcDbEntity
  8
0
  6
Continuous
 62
     7
370
    25
100
AcDbSpline
210
0.0
220
0.0
230
1.0
 70
     8
 71
     3
 72
     9
 73
     5
 74
     0
 42
0.000000001
 43
0.00000001
 40
0.0
 40
0.0
 40
0.0
 40
0.0
 40
0.1547274116026919
 40
0.9999999999999999
 40
0.9999999999999999
 40
0.9999999999999999
 40
0.9999999999999999
 10
108.1622490591706
 20
340.2401709678588
 30
0.0
 10
108.142996170243
 20
340.1676551157985
 30
0.0
 10
108.0185651548963
 20
339.6989866923495
 30
0.0
 10
108.2380813019027
 20
339.2326468853786
 30
0.0
 10
108.4236322836779
 20
338.8384626296675
 30
0.0
  0
LINE
  5
3F9
330
1F
100
AcDbEntity
  8
0
  6
Continuous
 62
     7
370
    25
100
AcDbLine
 10
108.4236322837
 20
338.8384626297
 30
0.0
 11
108.3257572464
 21
339.08136738
 31
0.0
  0
LINE
  5
3FA
330
1F
100
AcDbEntity
  8
0
  6
Continuous
 62
     7
370
    25
100
AcDbLine
 10
107.9089522983
 20
339.6788938271
 30
0.0
 11
107.9089522983
 21
340.6788938271
 31
0.0
  0
LINE
  5
3FB
330
1F
100
AcDbEntity
  8
0
  6
Continuous
 62
     7
370
    25
100
AcDbLine
 10
109.0089522983
 20
338.8384626297
 30
0.0
 11
108.4236322837
 21
338.8384626297
 31
0.0
  0
LINE
  5
3FC
330
1F
100
AcDbEntity
  8
0
  6
Continuous
 62
     7
370
    25
100
AcDbLine
 10
105.2089522983
 20
334.6288938271
 30
0.0
 11
100.9089522983
 21
334.6288938271
 31
0.0
  0
LINE
  5
3FD
330
1F
100
AcDbEntity
  8
0
  6
Continuous
 62
     7
370
    25
100
AcDbLine
 10
105.2089522983
 20
333.8288938271
 30
0.0
 11
105.2089522983
 21
334.6288938271
 31
0.0
  0
LINE
  5
3FE
330
1F
100
AcDbEntity
  8
0
  6
Continuous
 62
     7
370
    25
100
AcDbLine
 10
105.2089522983
 20
333.8288938271
 30
0.0
 11
100.9089522983
 21
333.8288938271
 31
0.0
  0
LINE
  5
3FF
330
1F
100
AcDbEntity
  8
0
  6
Continuous
 62
     7
370
    25
100
AcDbLine
 10
105.2089522983
 20
353.8288938271
 30
0.0
 11
95.3089522983
 21
353.8288938271
 31
0.0
  0
LINE
  5
400
330
1F
100
AcDbEntity
  8
0
  6
Continuous
 62
     7
370
    25
100
AcDbLine
 10
105.2089522983
 20
353.0288938271
 30
0.0
 11
105.2089522983
 21
353.8288938271
 31
0.0
  0
LINE
  5
401
330
1F
100
AcDbEntity
  8
0
  6
Continuous
 62
     7
370
    25
100
AcDbLine
 10
95.3089522983
 20
353.0288938271
 30
0.0
 11
105.2089522983
 21
353.0288938271
 31
0.0
  0
LINE
  5
402
330
1F
100
AcDbEntity
  8
0
  6
Continuous
 62
     7
370
    25
100
AcDbLine
 10
95.3089522983
 20
353.0288938271
 30
0.0
 11
95.3089522983
 21
352.9288938271
 31
0.0
  0
LINE
  5
403
330
1F
100
AcDbEntity
  8
0
  6
Continuous
 62
     7
370
    25
100
AcDbLine
 10
95.3089522983
 20
352.9288938271
 30
0.0
 11
100.4589522983
 21
352.9288938271
 31
0.0
  0
LINE
  5
404
330
1F
100
AcDbEntity
  8
0
  6
Continuous
 62
     7
370
    25
100
AcDbLine
 10
100.4589522983
 20
352.1288938271
 30
0.0
 11
100.4589522983
 21
352.9288938271
 31
0.0
  0
LINE
  5
405
330
1F
100
AcDbEntity
  8
0
  6
Continuous
 62
     7
370
    25
100
AcDbLine
 10
95.3089522983
 20
352.1288938271
 30
0.0
 11
100.4589522983
 21
352.1288938271
 31
0.0
  0
ARC
  5
406
330
1F
100
AcDbEntity
  8
0
  6
Continuous
 62
     7
370
    25
100
AcDbCircle
 10
95.3089522983
 20
352.9788938271
 30
0.0
 40
0.8500000000000227
100
AcDbArc
 50
90.0
 51
270.0
  0
LINE
  5
407
330
1F
100
AcDbEntity
  8
0
  6
Continuous
 62
     7
370
    25
100
AcDbLine
 10
107.0089522983
 20
335.6288938271
 30
0.0
 11
107.0089522983
 21
352.0288938271
 31
0.0
  0
ARC
  5
408
330
1F
100
AcDbEntity
  8
0
  6
Continuous
 62
     7
370
    25
100
AcDbCircle
 10
105.2089522983
 20
335.6288938271
 30
0.0
 40
1.000000000000028
100
AcDbArc
 50
270.0
 51
0.0
  0
ARC
  5
409
330
1F
100
AcDbEntity
  8
0
  6
Continuous
 62
     7
370
    25
100
AcDbCircle
 10
105.2089522983
 20
352.0288938271
 30
0.0
 40
1.000000000000057
100
AcDbArc
 50
360.0
 51
90.0
  0
ARC
  5
40A
330
1F
100
AcDbEntity
  8
0
  6
Continuous
 62
     7
370
    25
100
AcDbCircle
 10
105.2089522983
 20
352.0288938271
 30
0.0
 40
1.800000000000026
100
AcDbArc
 50
0.0
 51
90.0
  0
LINE
  5
40B
330
1F
100
AcDbEntity
  8
0
  6
Continuous
 62
     7
370
    25
100
AcDbLine
 10
106.2089522983
 20
335.6288938271
 30
0.0
 11
106.2089522983
 21
352.0288938271
 31
0.0
  0
ARC
  5
40C
330
1F
100
AcDbEntity
  8
0
  6
Continuous
 62
     7
370
    25
100
AcDbCircle
 10
105.2089522983
 20
335.6288938271
 30
0.0
 40
1.800000000000068
100
AcDbArc
 50
270.0
 51
0.0
  0
LWPOLYLINE
  5
40D
330
1F
100
AcDbEntity
  8
0
  6
Continuous
 62
     7
370
    25
100
AcDbPolyline
 90
        3
 70
   128
 43
0.0
 10
103.2029081817
 20
344.5526752301
 10
103.1985076567
 20
344.5099799009
 10
103.182282808
 20
344.326281572
  0
ARC
  5
40E
330
1F
100
AcDbEntity
  8
0
  6
Continuous
 62
     7
370
    25
100
AcDbCircle
 10
103.7066757325
 20
344.6394094095
 30
0.0
 40
0.6107675350074151
100
AcDbArc
 50
210.8424581413
 51
243.3898036634
  0
LWPOLYLINE
  5
40F
330
1F
100
AcDbEntity
  8
0
  6
Continuous
 62
     7
370
    25
100
AcDbPolyline
 90
        3
 70
   128
 43
0.0
 10
103.4169800287
 20
343.7396476682
 10
103.4150044901
 20
343.6469504097
 10
103.413959789
 20
343.5529534553
  0
ARC
  5
410
330
1F
100
AcDbEntity
  8
0
  6
Continuous
 62
     7
370
    25
100
AcDbCircle
 10
110.945932196
 20
343.734756552
 30
0.0
 40
7.786288415100651
100
AcDbArc
 50
184.3702527064
 51
195.2299003794
  0
ARC
  5
411
330
1F
100
AcDbEntity
  8
0
  6
Continuous
 62
     7
370
    25
100
AcDbCircle
 10
103.6542238633
 20
341.7843927108
 30
0.0
 40
0.2406805056724587
100
AcDbArc
 50
156.7420981705
 51
203.2579018295
  0
ARC
  5
412
330
1F
100
AcDbEntity
  8
0
  6
Continuous
 62
     7
370
    25
100
AcDbCircle
 10
110.945932196
 20
343.9248318469
 30
0.0
 40
7.786288415099609
100
AcDbArc
 50
184.3702527064
 51
195.2299003794
  0
ARC
  5
413
330
1F
100
AcDbEntity
  8
0
  6
Continuous
 62
     7
370
    25
100
AcDbCircle
 10
103.7066757325
 20
343.0183782446
 30
0.0
 40
0.6107675350088582
100
AcDbArc
 50
116.6101963367
 51
149.1575418587
  0
ARC
  5
414
330
1F
100
AcDbEntity
  8
0
  6
Continuous
 62
     7
370
    25
100
AcDbCircle
 10
112.5127378739
 20
344.1568753397
 30
0.0
 40
9.09894271025186
100
AcDbArc
 50
176.2668736478
 51
183.7331263522
  0
ARC
  5
415
330
1F
100
AcDbEntity
  8
0
  6
Continuous
 62
     7
370
    25
100
AcDbCircle
 10
103.7066757325
 20
344.2032290294
 30
0.0
 40
0.6107675350087332
100
AcDbArc
 50
116.6101963367
 51
149.1575418587
  0
ARC
  5
416
330
1F
100
AcDbEntity
  8
0
  6
Continuous
 62
     7
370
    25
100
AcDbCircle
 10
110.945932196
 20
343.9230311022
 30
0.0
 40
7.78628841509991
100
AcDbArc
 50
164.7700996206
 51
175.6297472936
  0
ARC
  5
417
330
1F
100
AcDbEntity
  8
0
  6
Continuous
 62
     7
370
    25
100
AcDbCircle
 10
103.5661860769
 20
345.8944962039
 30
0.0
 40
0.1522432420602479
100
AcDbArc
 50
150.9451665855
 51
179.1449116556
  0
LINE
  5
418
330
1F
100
AcDbEntity
  8
0
  6
Continuous
 62
     7
370
    25
100
AcDbLine
 10
104.2089522983
 20
347.8288938271
 30
0.0
 11
104.2089522983
 21
339.8288938271
 31
0.0
  0
LINE
  5
419
330
1F
100
AcDbEntity
  8
0
  6
Continuous
 62
     7
370
    25
100
AcDbLine
 10
103.182282808
 20
344.516356867
 30
0.0
 11
103.4208384659
 21
344.516356867
 31
0.0
  0
LINE
  5
41A
330
1F
100
AcDbEntity
  8
0
  6
Continuous
 62
     7
370
    25
100
AcDbLine
 10
103.182282808
 20
343.1414307872
 30
0.0
 11
103.1991497998
 21
343.1414307872
 31
0.0
  0
LINE
  5
41B
330
1F
100
AcDbEntity
  8
0
  6
Continuous
 62
     7
370
    25
100
AcDbLine
 10
103.182282808
 20
344.326281572
 30
0.0
 11
103.4153331244
 21
344.326281572
 31
0.0
  0
LINE
  5
41C
330
1F
100
AcDbEntity
  8
0
  6
Continuous
 62
     7
370
    25
100
AcDbLine
 10
104.2089522983
 20
339.8288938271
 30
0.0
 11
104.2089522983
 21
338.8288938271
 31
0.0
  0
LWPOLYLINE
  5
41D
330
1F
100
AcDbEntity
  8
0
  6
Continuous
 62
     7
370
    25
100
AcDbPolyline
 90
        3
 70
   128
 43
0.0
 10
103.1991497998
 20
343.516356867
 10
103.1985076567
 20
343.5099799009
 10
103.182282808
 20
343.326281572
  0
ARC
  5
41E
330
1F
100
AcDbEntity
  8
0
  6
Continuous
 62
     7
370
    25
100
AcDbCircle
 10
110.945932196
 20
342.734756552
 30
0.0
 40
7.786288415098213
100
AcDbArc
 50
184.3702527064
 51
195.2299003794
  0
ARC
  5
41F
330
1F
100
AcDbEntity
  8
0
  6
Continuous
 62
     7
370
    25
100
AcDbCircle
 10
103.6542238633
 20
340.7843927108
 30
0.0
 40
0.2406805056723057
100
AcDbArc
 50
156.7420981705
 51
203.2579018295
  0
ARC
  5
420
330
1F
100
AcDbEntity
  8
0
  6
Continuous
 62
     7
370
    25
100
AcDbCircle
 10
110.945932196
 20
342.9248318469
 30
0.0
 40
7.786288415095765
100
AcDbArc
 50
184.3702527064
 51
195.2299003794
  0
ARC
  5
421
330
1F
100
AcDbEntity
  8
0
  6
Continuous
 62
     7
370
    25
100
AcDbCircle
 10
103.5327497861
 20
342.1532693829
 30
0.0
 40
0.3931862455457938
100
AcDbArc
 50
132.4316597639
 51
153.0435149335
  0
ARC
  5
422
330
1F
100
AcDbEntity
  8
0
  6
Continuous
 62
     7
370
    25
100
AcDbCircle
 10
103.7066757325
 20
343.2032290294
 30
0.0
 40
0.6107675350081387
100
AcDbArc
 50
116.6101963367
 51
149.1575418587
  0
ARC
  5
423
330
1F
100
AcDbEntity
  8
0
  6
Continuous
 62
     7
370
    25
100
AcDbCircle
 10
110.9420573605
 20
342.9235212381
 30
0.0
 40
7.782387499226321
100
AcDbArc
 50
169.6157904358
 51
175.6311714676
  0
LINE
  5
424
330
1F
100
AcDbEntity
  8
0
  6
Continuous
 62
     7
370
    25
100
AcDbLine
 10
103.182282808
 20
343.516356867
 30
0.0
 11
103.3578461844
 21
343.516356867
 31
0.0
  0
LINE
  5
425
330
1F
100
AcDbEntity
  8
0
  6
Continuous
 62
     7
370
    25
100
AcDbLine
 10
103.182282808
 20
342.1414307872
 30
0.0
 11
103.1991497998
 21
342.1414307872
 31
0.0
  0
LINE
  5
426
330
1F
100
AcDbEntity
  8
0
  6
Continuous
 62
     7
370
    25
100
AcDbLine
 10
103.182282808
 20
343.326281572
 30
0.0
 11
103.1826836774
 21
343.326281572
 31
0.0
  0
LINE
  5
427
330
1F
100
AcDbEntity
  8
0
  6
Continuous
 62
     7
370
    25
100
AcDbLine
 10
125.4089522983
 20
252.4586988994
 30
0.0
 11
113.4089522983
 21
252.4586988994
 31
0.0
  0
LINE
  5
428
330
1F
100
AcDbEntity
  8
0
  6
Continuous
 62
     7
370
    25
100
AcDbLine
 10
125.4089522983
 20
253.142739186
 30
0.0
 11
113.4089522983
 21
253.142739186
 31
0.0
  0
LINE
  5
429
330
1F
100
AcDbEntity
  8
0
  6
Continuous
 62
     7
370
    25
100
AcDbLine
 10
127.4089522983
 20
260.1632006645
 30
0.0
 11
127.4089522983
 21
255.0221244276
 31
0.0
  0
ARC
  5
42A
330
1F
100
AcDbEntity
  8
0
  6
Continuous
 62
     7
370
    25
100
AcDbCircle
 10
125.4674411875
 20
255.0843670035
 30
0.0
 40
1.942508566655354
100
AcDbArc
 50
268.2745645851
 51
358.1637932023
  0
ARC
  5
42B
330
1F
100
AcDbEntity
  8
0
  6
Continuous
 62
     7
370
    25
100
AcDbCircle
 10
113.3504634091
 20
255.0843670035
 30
0.0
 40
1.942508566655302
100
AcDbArc
 50
181.8362067977
 51
271.7254354149
  0
LINE
  5
42C
330
1F
100
AcDbEntity
  8
0
  6
Continuous
 62
     7
370
    25
100
AcDbLine
 10
111.4089522983
 20
255.0221244276
 30
0.0
 11
111.4089522983
 21
260.1632006645
 31
0.0
  0
LINE
  5
42D
330
1F
100
AcDbEntity
  8
0
  6
Continuous
 62
     7
370
    25
100
AcDbLine
 10
127.4089522983
 20
255.0221244276
 30
0.0
 11
127.4089522983
 21
254.338084141
 31
0.0
  0
ARC
  5
42E
330
1F
100
AcDbEntity
  8
0
  6
Continuous
 62
     7
370
    25
100
AcDbCircle
 10
125.4674411875
 20
254.4003267168
 30
0.0
 40
1.942508566655299
100
AcDbArc
 50
268.2745645851
 51
358.1637932023
  0
LINE
  5
42F
330
1F
100
AcDbEntity
  8
0
  6
Continuous
 62
     7
370
    25
100
AcDbLine
 10
111.4089522983
 20
254.338084141
 30
0.0
 11
111.4089522983
 21
255.0221244276
 31
0.0
  0
ARC
  5
430
330
1F
100
AcDbEntity
  8
0
  6
Continuous
 62
     7
370
    25
100
AcDbCircle
 10
113.3504634091
 20
254.4003267168
 30
0.0
 40
1.942508566655298
100
AcDbArc
 50
181.8362067977
 51
271.7254354149
  0
LINE
  5
431
330
1F
100
AcDbEntity
  8
0
  6
Continuous
 62
     7
370
    25
100
AcDbLine
 10
111.4089522983
 20
260.5052208078
 30
0.0
 11
111.4089522983
 21
260.1632006645
 31
0.0
  0
LINE
  5
432
330
1F
100
AcDbEntity
  8
0
  6
Continuous
 62
     7
370
    25
100
AcDbLine
 10
127.4089522983
 20
260.1632006645
 30
0.0
 11
127.4089522983
 21
260.5052208078
 31
0.0
  0
LINE
  5
433
330
1F
100
AcDbEntity
  8
0
  6
Continuous
 62
     7
370
    25
100
AcDbLine
 10
100.9089522983
 20
260.3288938271
 30
0.0
 11
111.4089522983
 21
260.3288938271
 31
0.0
  0
CIRCLE
  5
434
330
1F
100
AcDbEntity
  8
0
  6
Continuous
 62
     7
370
    25
100
AcDbCircle
 10
119.5089522983
 20
267.8288938271
 30
0.0
 40
3.5
  0
ARC
  5
435
330
1F
100
AcDbEntity
  8
0
  6
Continuous
 62
     7
370
    25
100
AcDbCircle
 10
125.4089522983
 20
273.3288938271
 30
0.0
 40
2.0
100
AcDbArc
 50
0.0
 51
90.0
  0
LINE
  5
436
330
1F
100
AcDbEntity
  8
0
  6
Continuous
 62
     7
370
    25
100
AcDbLine
 10
125.4089522983
 20
275.3288938271
 30
0.0
 11
100.9089522983
 21
275.3288938271
 31
0.0
  0
LINE
  5
437
330
1F
100
AcDbEntity
  8
0
  6
Continuous
 62
     7
370
    25
100
AcDbLine
 10
127.4089522983
 20
260.5052208078
 30
0.0
 11
127.4089522983
 21
273.3288938271
 31
0.0
  0
CIRCLE
  5
438
330
1F
100
AcDbEntity
  8
0
  6
Continuous
 62
     7
370
    25
100
AcDbCircle
 10
119.5089522983
 20
267.8288938271
 30
0.0
 40
2.458750000016647
  0
CIRCLE
  5
439
330
1F
100
AcDbEntity
  8
0
  6
Continuous
 62
     7
370
    25
100
AcDbCircle
 10
119.5089522983
 20
267.8288938271
 30
0.0
 40
2.999999999999997
  0
ENDSEC
  0
SECTION
  2
OBJECTS
  0
DICTIONARY
  5
C
330
0
100
AcDbDictionary
281
     1
  3
ACAD_GROUP
350
D
  3
ACAD_LAYOUT
350
1A
  3
ACAD_MLINESTYLE
350
17
  3
ACAD_PLOTSETTINGS
350
19
  3
ACAD_PLOTSTYLENAME
350
E
  3
ACAD_SCALELIST
350
47
  0
DICTIONARY
  5
D
102
{ACAD_REACTORS
330
C
102
}
330
C
100
AcDbDictionary
281
     1
  0
DICTIONARY
  5
1A
102
{ACAD_REACTORS
330
C
102
}
330
C
100
AcDbDictionary
281
     1
  3
Layout1
350
1E
  3
Layout2
350
26
  3
Model
350
22
  0
DICTIONARY
  5
17
102
{ACAD_REACTORS
330
C
102
}
330
C
100
AcDbDictionary
281
     1
  3
Standard
350
18
  0
DICTIONARY
  5
19
102
{ACAD_REACTORS
330
C
102
}
330
C
100
AcDbDictionary
281
     1
  0
ACDBDICTIONARYWDFLT
  5
E
102
{ACAD_REACTORS
330
C
102
}
330
C
100
AcDbDictionary
281
     1
  3
Normal
350
F
100
AcDbDictionaryWithDefault
340
F
  0
DICTIONARY
  5
47
102
{ACAD_REACTORS
330
C
102
}
330
C
100
AcDbDictionary
281
     1
  3
A0
350
48
  3
A1
350
49
  3
A2
350
4A
  3
A3
350
4B
  3
A4
350
4C
  3
A5
350
4D
  3
A6
350
4E
  3
A7
350
4F
  3
A8
350
50
  3
A9
350
51
  3
B0
350
52
  3
B1
350
53
  3
B2
350
54
  3
B3
350
55
  3
B4
350
56
  3
B5
350
57
  3
B6
350
58
  3
B7
350
59
  3
B8
350
5A
  3
B9
350
5B
  3
C0
350
5C
  3
C1
350
5D
  3
C2
350
5E
  3
C3
350
5F
  3
C4
350
60
  3
C5
350
61
  3
C6
350
62
  3
C7
350
63
  3
C8
350
64
  3
C9
350
65
  3
D0
350
66
  3
D1
350
67
  3
D2
350
68
  0
LAYOUT
  5
1E
102
{ACAD_REACTORS
330
1A
102
}
330
1A
100
AcDbPlotSettings
  1

  2
none_device
  4

  6

 40
0.0
 41
0.0
 42
0.0
 43
0.0
 44
0.0
 45
0.0
 46
0.0
 47
0.0
 48
0.0
 49
0.0
140
0.0
141
0.0
142
1.0
143
1.0
 70
   688
 72
     1
 73
     0
 74
     5
  7

 75
    16
147
1.0
148
0.0
149
0.0
100
AcDbLayout
  1
Layout1
 70
     1
 71
     1
 10
0.0
 20
0.0
 11
420.0
 21
297.0
 12
0.0
 22
0.0
 32
0.0
 14
1.0000000000E+20
 24
1.0000000000E+20
 34
1.0000000000E+20
 15
-1.0000000000E+20
 25
-1.0000000000E+20
 35
-1.0000000000E+20
146
0.0
 13
0.0
 23
0.0
 33
0.0
 16
1.0
 26
0.0
 36
0.0
 17
0.0
 27
1.0
 37
0.0
 76
     0
330
1B
  0
LAYOUT
  5
26
102
{ACAD_REACTORS
330
1A
102
}
330
1A
100
AcDbPlotSettings
  1

  2
none_device
  4

  6

 40
0.0
 41
0.0
 42
0.0
 43
0.0
 44
0.0
 45
0.0
 46
0.0
 47
0.0
 48
0.0
 49
0.0
140
0.0
141
0.0
142
1.0
143
1.0
 70
   688
 72
     1
 73
     0
 74
     5
  7

 75
    16
147
1.0
148
0.0
149
0.0
100
AcDbLayout
  1
Layout2
 70
     1
 71
     2
 10
0.0
 20
0.0
 11
0.0
 21
0.0
 12
0.0
 22
0.0
 32
0.0
 14
0.0
 24
0.0
 34
0.0
 15
0.0
 25
0.0
 35
0.0
146
0.0
 13
0.0
 23
0.0
 33
0.0
 16
1.0
 26
0.0
 36
0.0
 17
0.0
 27
1.0
 37
0.0
 76
     0
330
23
  0
LAYOUT
  5
22
102
{ACAD_REACTORS
330
1A
102
}
330
1A
100
AcDbPlotSettings
  1

  2
none_device
  4
Letter_(8.50_x_11.00_Inches)
  6

 40
6.35
 41
6.35
 42
6.35000508
 43
6.35000508
 44
215.9
 45
279.4
 46
0.0
 47
0.0
 48
0.0
 49
0.0
140
0.0
141
0.0
142
1.0
143
1.0
 70
  1712
 72
     1
 73
     0
 74
     0
  7

 75
     0
147
1.0
148
0.0
149
0.0
100
AcDbLayout
  1
Model
 70
     1
 71
     0
 10
0.0
 20
0.0
 11
841.0
 21
594.0
 12
0.0
 22
0.0
 32
0.0
 14
0.0
 24
0.0
 34
0.0
 15
841.0
 25
594.0
 35
0.0
146
0.0
 13
0.0
 23
0.0
 33
0.0
 16
1.0
 26
0.0
 36
0.0
 17
0.0
 27
1.0
 37
0.0
 76
     0
330
1F
331
29
  0
MLINESTYLE
  5
18
102
{ACAD_REACTORS
330
17
102
}
330
17
100
AcDbMlineStyle
  2
Standard
 70
     0
  3

 62
   256
 51
90.0
 52
90.0
 71
     2
 49
0.5
 62
   256
  6
BYLAYER
 49
-0.5
 62
   256
  6
BYLAYER
  0
ACDBPLACEHOLDER
  5
F
102
{ACAD_REACTORS
330
E
102
}
330
E
  0
SCALE
  5
48
102
{ACAD_REACTORS
330
47
102
}
330
47
100
AcDbScale
 70
     0
300
1:1
140
1.0
141
1.0
290
     1
  0
SCALE
  5
49
102
{ACAD_REACTORS
330
47
102
}
330
47
100
AcDbScale
 70
     0
300
1:2
140
1.0
141
2.0
290
     0
  0
SCALE
  5
4A
102
{ACAD_REACTORS
330
47
102
}
330
47
100
AcDbScale
 70
     0
300
1:4
140
1.0
141
4.0
290
     0
  0
SCALE
  5
4B
102
{ACAD_REACTORS
330
47
102
}
330
47
100
AcDbScale
 70
     0
300
1:5
140
1.0
141
5.0
290
     0
  0
SCALE
  5
4C
102
{ACAD_REACTORS
330
47
102
}
330
47
100
AcDbScale
 70
     0
300
1:8
140
1.0
141
8.0
290
     0
  0
SCALE
  5
4D
102
{ACAD_REACTORS
330
47
102
}
330
47
100
AcDbScale
 70
     0
300
1:10
140
1.0
141
10.0
290
     0
  0
SCALE
  5
4E
102
{ACAD_REACTORS
330
47
102
}
330
47
100
AcDbScale
 70
     0
300
1:16
140
1.0
141
16.0
290
     0
  0
SCALE
  5
4F
102
{ACAD_REACTORS
330
47
102
}
330
47
100
AcDbScale
 70
     0
300
1:20
140
1.0
141
20.0
290
     0
  0
SCALE
  5
50
102
{ACAD_REACTORS
330
47
102
}
330
47
100
AcDbScale
 70
     0
300
1:30
140
1.0
141
30.0
290
     0
  0
SCALE
  5
51
102
{ACAD_REACTORS
330
47
102
}
330
47
100
AcDbScale
 70
     0
300
1:40
140
1.0
141
40.0
290
     0
  0
SCALE
  5
52
102
{ACAD_REACTORS
330
47
102
}
330
47
100
AcDbScale
 70
     0
300
1:50
140
1.0
141
50.0
290
     0
  0
SCALE
  5
53
102
{ACAD_REACTORS
330
47
102
}
330
47
100
AcDbScale
 70
     0
300
1:100
140
1.0
141
100.0
290
     0
  0
SCALE
  5
54
102
{ACAD_REACTORS
330
47
102
}
330
47
100
AcDbScale
 70
     0
300
2:1
140
2.0
141
1.0
290
     0
  0
SCALE
  5
55
102
{ACAD_REACTORS
330
47
102
}
330
47
100
AcDbScale
 70
     0
300
4:1
140
4.0
141
1.0
290
     0
  0
SCALE
  5
56
102
{ACAD_REACTORS
330
47
102
}
330
47
100
AcDbScale
 70
     0
300
8:1
140
8.0
141
1.0
290
     0
  0
SCALE
  5
57
102
{ACAD_REACTORS
330
47
102
}
330
47
100
AcDbScale
 70
     0
300
10:1
140
10.0
141
1.0
290
     0
  0
SCALE
  5
58
102
{ACAD_REACTORS
330
47
102
}
330
47
100
AcDbScale
 70
     0
300
100:1
140
100.0
141
1.0
290
     0
  0
SCALE
  5
59
102
{ACAD_REACTORS
330
47
102
}
330
47
100
AcDbScale
 70
     0
300
1/128" = 1'-0"
140
0.0078125
141
12.0
290
     0
  0
SCALE
  5
5A
102
{ACAD_REACTORS
330
47
102
}
330
47
100
AcDbScale
 70
     0
300
1/64" = 1'-0"
140
0.015625
141
12.0
290
     0
  0
SCALE
  5
5B
102
{ACAD_REACTORS
330
47
102
}
330
47
100
AcDbScale
 70
     0
300
1/32" = 1'-0"
140
0.03125
141
12.0
290
     0
  0
SCALE
  5
5C
102
{ACAD_REACTORS
330
47
102
}
330
47
100
AcDbScale
 70
     0
300
1/16" = 1'-0"
140
0.0625
141
12.0
290
     0
  0
SCALE
  5
5D
102
{ACAD_REACTORS
330
47
102
}
330
47
100
AcDbScale
 70
     0
300
3/32" = 1'-0"
140
0.09375
141
12.0
290
     0
  0
SCALE
  5
5E
102
{ACAD_REACTORS
330
47
102
}
330
47
100
AcDbScale
 70
     0
300
1/8" = 1'-0"
140
0.125
141
12.0
290
     0
  0
SCALE
  5
5F
102
{ACAD_REACTORS
330
47
102
}
330
47
100
AcDbScale
 70
     0
300
3/16" = 1'-0"
140
0.1875
141
12.0
290
     0
  0
SCALE
  5
60
102
{ACAD_REACTORS
330
47
102
}
330
47
100
AcDbScale
 70
     0
300
1/4" = 1'-0"
140
0.25
141
12.0
290
     0
  0
SCALE
  5
61
102
{ACAD_REACTORS
330
47
102
}
330
47
100
AcDbScale
 70
     0
300
3/8" = 1'-0"
140
0.375
141
12.0
290
     0
  0
SCALE
  5
62
102
{ACAD_REACTORS
330
47
102
}
330
47
100
AcDbScale
 70
     0
300
1/2" = 1'-0"
140
0.5
141
12.0
290
     0
  0
SCALE
  5
63
102
{ACAD_REACTORS
330
47
102
}
330
47
100
AcDbScale
 70
     0
300
3/4" = 1'-0"
140
0.75
141
12.0
290
     0
  0
SCALE
  5
64
102
{ACAD_REACTORS
330
47
102
}
330
47
100
AcDbScale
 70
     0
300
1" = 1'-0"
140
1.0
141
12.0
290
     0
  0
SCALE
  5
65
102
{ACAD_REACTORS
330
47
102
}
330
47
100
AcDbScale
 70
     0
300
1-1/2" = 1'-0"
140
1.5
141
12.0
290
     0
  0
SCALE
  5
66
102
{ACAD_REACTORS
330
47
102
}
330
47
100
AcDbScale
 70
     0
300
3" = 1'-0"
140
3.0
141
12.0
290
     0
  0
SCALE
  5
67
102
{ACAD_REACTORS
330
47
102
}
330
47
100
AcDbScale
 70
     0
300
6" = 1'-0"
140
6.0
141
12.0
290
     0
  0
SCALE
  5
68
102
{ACAD_REACTORS
330
47
102
}
330
47
100
AcDbScale
 70
     0
300
1'-0" = 1'-0"
140
12.0
141
12.0
290
     0
  0
ENDSEC
  0
EOF
