  0
SECTION
  2
HEADER
  9
$ACADVER
  1
AC1015
  9
$ACADMAINTVER
 70
     6
  9
$DWGCODEPAGE
  3
ANSI_1251
  9
$INSBASE
 10
0.0
 20
0.0
 30
0.0
  9
$EXTMIN
 10
0.0
 20
0.0
 30
0.0
  9
$EXTMAX
 10
841.0
 20
594.0
 30
0.0
  9
$LIMMIN
 10
0.0
 20
0.0
  9
$LIMMAX
 10
841.0
 20
594.0
  9
$ORTHOMODE
 70
     0
  9
$REGENMODE
 70
     1
  9
$FILLMODE
 70
     1
  9
$QTEXTMODE
 70
     0
  9
$MIRRTEXT
 70
     1
  9
$LTSCALE
 40
1.0
  9
$ATTMODE
 70
     1
  9
$TEXTSIZE
 40
3.5
  9
$TRACEWID
 40
1.0
  9
$TEXTSTYLE
  7
Standard
  9
$CLAYER
  8
0
  9
$CELTYPE
  6
ByLayer
  9
$CECOLOR
 62
   256
  9
$CELTSCALE
 40
1.0
  9
$DISPSILH
 70
     0
  9
$DIMSCALE
 40
1.0
  9
$DIMASZ
 40
3.5
  9
$DIMEXO
 40
0.01
  9
$DIMDLI
 40
3.75
  9
$DIMRND
 40
0.0
  9
$DIMDLE
 40
0.0
  9
$DIMEXE
 40
1.0
  9
$DIMTP
 40
0.0
  9
$DIMTM
 40
0.0
  9
$DIMTXT
 40
3.5
  9
$DIMCEN
 40
2.5
  9
$DIMTSZ
 40
0.0
  9
$DIMTOL
 70
     0
  9
$DIMLIM
 70
     0
  9
$DIMTIH
 70
     1
  9
$DIMTOH
 70
     1
  9
$DIMSE1
 70
     0
  9
$DIMSE2
 70
     0
  9
$DIMTAD
 70
     1
  9
$DIMZIN
 70
     0
  9
$DIMBLK
  1

  9
$DIMASO
 70
     1
  9
$DIMSHO
 70
     1
  9
$DIMPOST
  1

  9
$DIMAPOST
  1

  9
$DIMALT
 70
     0
  9
$DIMALTD
 70
     3
  9
$DIMALTF
 40
0.0393700787
  9
$DIMLFAC
 40
1.0
  9
$DIMTOFL
 70
     1
  9
$DIMTVP
 40
0.0
  9
$DIMTIX
 70
     0
  9
$DIMSOXD
 70
     0
  9
$DIMSAH
 70
     0
  9
$DIMBLK1
  1

  9
$DIMBLK2
  1

  9
$DIMSTYLE
  2
ISO-25
  9
$DIMCLRD
 70
     0
  9
$DIMCLRE
 70
     0
  9
$DIMCLRT
 70
     0
  9
$DIMTFAC
 40
1.0
  9
$DIMGAP
 40
3.0
  9
$DIMJUST
 70
     0
  9
$DIMSD1
 70
     0
  9
$DIMSD2
 70
     0
  9
$DIMTOLJ
 70
     0
  9
$DIMTZIN
 70
     0
  9
$DIMALTZ
 70
     0
  9
$DIMALTTZ
 70
     0
  9
$DIMUPT
 70
     0
  9
$DIMDEC
 70
     2
  9
$DIMTDEC
 70
     3
  9
$DIMALTU
 70
     2
  9
$DIMALTTD
 70
     3
  9
$DIMTXSTY
  7
Standard
  9
$DIMAUNIT
 70
     0
  9
$DIMADEC
 70
     2
  9
$DIMALTRND
 40
0.0
  9
$DIMAZIN
 70
     0
  9
$DIMDSEP
 70
    44
  9
$DIMATFIT
 70
     3
  9
$DIMFRAC
 70
     0
  9
$DIMLDRBLK
  1

  9
$DIMLUNIT
 70
     2
  9
$DIMLWD
 70
    -2
  9
$DIMLWE
 70
    -2
  9
$DIMTMOVE
 70
     0
  9
$LUNITS
 70
     2
  9
$LUPREC
 70
     2
  9
$SKETCHINC
 40
1.0
  9
$FILLETRAD
 40
10.0
  9
$AUNITS
 70
     0
  9
$AUPREC
 70
     2
  9
$MENU
  1
.
  9
$ELEVATION
 40
0.0
  9
$PELEVATION
 40
0.0
  9
$THICKNESS
 40
0.0
  9
$LIMCHECK
 70
     0
  9
$CHAMFERA
 40
0.0
  9
$CHAMFERB
 40
0.0
  9
$CHAMFERC
 40
0.0
  9
$CHAMFERD
 40
0.0
  9
$SKPOLY
 70
     0
  9
$TDCREATE
 40
2459732.595537789
  9
$TDUCREATE
 40
2459732.470537789
  9
$TDUPDATE
 40
2459732.595538924
  9
$TDUUPDATE
 40
2459732.470538924
  9
$TDINDWG
 40
0.0000000116
  9
$TDUSRTIMER
 40
0.0000000116
  9
$USRTIMER
 70
     1
  9
$ANGBASE
 50
0.0
  9
$ANGDIR
 70
     0
  9
$PDMODE
 70
     0
  9
$PDSIZE
 40
-1.0
  9
$PLINEWID
 40
0.0
  9
$SPLFRAME
 70
     0
  9
$SPLINETYPE
 70
     6
  9
$SPLINESEGS
 70
     8
  9
$HANDSEED
  5
4CD
  9
$SURFTAB1
 70
     6
  9
$SURFTAB2
 70
     6
  9
$SURFTYPE
 70
     6
  9
$SURFU
 70
     6
  9
$SURFV
 70
     6
  9
$UCSBASE
  2

  9
$UCSNAME
  2

  9
$UCSORG
 10
0.0
 20
0.0
 30
0.0
  9
$UCSXDIR
 10
1.0
 20
0.0
 30
0.0
  9
$UCSYDIR
 10
0.0
 20
1.0
 30
0.0
  9
$UCSORTHOREF
  2

  9
$UCSORTHOVIEW
 70
     0
  9
$UCSORGTOP
 10
0.0
 20
0.0
 30
0.0
  9
$UCSORGBOTTOM
 10
0.0
 20
0.0
 30
0.0
  9
$UCSORGLEFT
 10
0.0
 20
0.0
 30
0.0
  9
$UCSORGRIGHT
 10
0.0
 20
0.0
 30
0.0
  9
$UCSORGFRONT
 10
0.0
 20
0.0
 30
0.0
  9
$UCSORGBACK
 10
0.0
 20
0.0
 30
0.0
  9
$PUCSBASE
  2

  9
$PUCSNAME
  2

  9
$PUCSORG
 10
0.0
 20
0.0
 30
0.0
  9
$PUCSXDIR
 10
1.0
 20
0.0
 30
0.0
  9
$PUCSYDIR
 10
0.0
 20
1.0
 30
0.0
  9
$PUCSORTHOREF
  2

  9
$PUCSORTHOVIEW
 70
     0
  9
$PUCSORGTOP
 10
0.0
 20
0.0
 30
0.0
  9
$PUCSORGBOTTOM
 10
0.0
 20
0.0
 30
0.0
  9
$PUCSORGLEFT
 10
0.0
 20
0.0
 30
0.0
  9
$PUCSORGRIGHT
 10
0.0
 20
0.0
 30
0.0
  9
$PUCSORGFRONT
 10
0.0
 20
0.0
 30
0.0
  9
$PUCSORGBACK
 10
0.0
 20
0.0
 30
0.0
  9
$USERI1
 70
     0
  9
$USERI2
 70
     0
  9
$USERI3
 70
     0
  9
$USERI4
 70
     0
  9
$USERI5
 70
     0
  9
$USERR1
 40
0.0
  9
$USERR2
 40
0.0
  9
$USERR3
 40
0.0
  9
$USERR4
 40
0.0
  9
$USERR5
 40
0.0
  9
$WORLDVIEW
 70
     1
  9
$SHADEDGE
 70
     3
  9
$SHADEDIF
 70
    70
  9
$TILEMODE
 70
     1
  9
$MAXACTVP
 70
    64
  9
$PINSBASE
 10
0.0
 20
0.0
 30
0.0
  9
$PLIMCHECK
 70
     0
  9
$PEXTMIN
 10
1.0000000000E+20
 20
1.0000000000E+20
 30
1.0000000000E+20
  9
$PEXTMAX
 10
-1.0000000000E+20
 20
-1.0000000000E+20
 30
-1.0000000000E+20
  9
$PLIMMIN
 10
0.0
 20
0.0
  9
$PLIMMAX
 10
420.0
 20
297.0
  9
$UNITMODE
 70
     0
  9
$VISRETAIN
 70
     1
  9
$PLINEGEN
 70
     0
  9
$PSLTSCALE
 70
     1
  9
$TREEDEPTH
 70
  3020
  9
$CMLSTYLE
  2
Standard
  9
$CMLJUST
 70
     0
  9
$CMLSCALE
 40
20.0
  9
$PROXYGRAPHICS
 70
     1
  9
$MEASUREMENT
 70
     1
  9
$CELWEIGHT
370
    -1
  9
$ENDCAPS
280
     0
  9
$JOINSTYLE
280
     0
  9
$LWDISPLAY
290
     1
  9
$INSUNITS
 70
     4
  9
$HYPERLINKBASE
  1

  9
$STYLESHEET
  1

  9
$XEDIT
290
     1
  9
$CEPSNTYPE
380
     0
  9
$PSTYLEMODE
290
     1
  9
$FINGERPRINTGUID
  2
{97B68572-E1D8-4BDF-BFD7-17F217C2457F}
  9
$VERSIONGUID
  2
{FAEB1C32-E019-11D5-929B-00C0DF256EC4}
  9
$EXTNAMES
290
     1
  9
$PSVPSCALE
 40
0.0
  9
$OLESTARTUP
290
     0
  0
ENDSEC
  0
SECTION
  2
CLASSES
  0
CLASS
  1
ACDBDICTIONARYWDFLT
  2
AcDbDictionaryWithDefault
  3
ObjectDBX Classes
 90
        0
280
     0
281
     0
  0
CLASS
  1
VISUALSTYLE
  2
AcDbVisualStyle
  3
ObjectDBX Classes
 90
     4095
280
     0
281
     0
  0
CLASS
  1
MATERIAL
  2
AcDbMaterial
  3
ObjectDBX Classes
 90
     1153
280
     0
281
     0
  0
CLASS
  1
SCALE
  2
AcDbScale
  3
ObjectDBX Classes
 90
     1153
280
     0
281
     0
  0
CLASS
  1
TABLESTYLE
  2
AcDbTableStyle
  3
ObjectDBX Classes
 90
     4095
280
     0
281
     0
  0
CLASS
  1
MLEADERSTYLE
  2
AcDbMLeaderStyle
  3
ACDB_MLEADERSTYLE_CLASS
 90
     4095
280
     0
281
     0
  0
CLASS
  1
SUN
  2
AcDbSun
  3
SCENEOE
 90
     1153
280
     0
281
     0
  0
CLASS
  1
ACDBPLACEHOLDER
  2
AcDbPlaceHolder
  3
ObjectDBX Classes
 90
        0
280
     0
281
     0
  0
CLASS
  1
LAYOUT
  2
AcDbLayout
  3
ObjectDBX Classes
 90
        0
280
     0
281
     0
  0
ENDSEC
  0
SECTION
  2
TABLES
  0
TABLE
  2
VPORT
  5
8
330
0
100
AcDbSymbolTable
 70
     1
  0
VPORT
  5
29
330
8
100
AcDbSymbolTableRecord
100
AcDbViewportTableRecord
  2
*Active
 70
     0
 10
0.0
 20
0.0
 11
1.0
 21
1.0
 12
420.5
 22
297.0
 13
0.0
 23
0.0
 14
10.0
 24
10.0
 15
10.0
 25
10.0
 16
0.0
 26
0.0
 36
1.0
 17
0.0
 27
0.0
 37
0.0
 40
594.0
 41
1.4158249158
 42
50.0
 43
0.0
 44
0.0
 50
0.0
 51
0.0
 71
     0
 72
  2000
 73
     1
 74
     3
 75
     0
 76
     0
 77
     0
 78
     0
281
     0
 65
     1
110
0.0
120
0.0
130
0.0
111
1.0
121
0.0
131
0.0
112
0.0
122
1.0
132
0.0
 79
     0
146
0.0
  0
ENDTAB
  0
TABLE
  2
LTYPE
  5
5
330
0
100
AcDbSymbolTable
 70
     6
  0
LTYPE
  5
14
330
5
100
AcDbSymbolTableRecord
100
AcDbLinetypeTableRecord
  2
ByBlock
 70
     0
  3

 72
    65
 73
     0
 40
0.0
  0
LTYPE
  5
15
330
5
100
AcDbSymbolTableRecord
100
AcDbLinetypeTableRecord
  2
ByLayer
 70
     0
  3

 72
    65
 73
     0
 40
0.0
  0
LTYPE
  5
16
330
5
100
AcDbSymbolTableRecord
100
AcDbLinetypeTableRecord
  2
Continuous
 70
     0
  3
Solid line
 72
    65
 73
     0
 40
0.0
  0
LTYPE
  5
6E
330
5
100
AcDbSymbolTableRecord
100
AcDbLinetypeTableRecord
  2
HIDDEN
 70
     0
  3
Hidden __ __ __ __ __ __ __ __ __ __ __ __ __ __
 72
    65
 73
     2
 40
1.905
 49
1.27
 74
     0
 49
-0.635
 74
     0
  0
LTYPE
  5
6F
330
5
100
AcDbSymbolTableRecord
100
AcDbLinetypeTableRecord
  2
PHANTOM
 70
     0
  3
Phantom ______  __  __  ______  __  __  ______
 72
    65
 73
     6
 40
12.7
 49
6.35
 74
     0
 49
-1.27
 74
     0
 49
1.27
 74
     0
 49
-1.27
 74
     0
 49
1.27
 74
     0
 49
-1.27
 74
     0
  0
LTYPE
  5
70
330
5
100
AcDbSymbolTableRecord
100
AcDbLinetypeTableRecord
  2
CENTER
 70
     0
  3
Center ____ _ ____ _ ____ _ ____ _ ____ _ ____
 72
    65
 73
     4
 40
10.16
 49
6.35
 74
     0
 49
-1.27
 74
     0
 49
1.27
 74
     0
 49
-1.27
 74
     0
  0
LTYPE
  5
71
330
5
100
AcDbSymbolTableRecord
100
AcDbLinetypeTableRecord
  2
CENTERX2
 70
     0
  3
Center (2x) ________  __  ________  __  _____
 72
    65
 73
     4
 40
20.32
 49
12.7
 74
     0
 49
-2.54
 74
     0
 49
2.54
 74
     0
 49
-2.54
 74
     0
  0
LTYPE
  5
72
330
5
100
AcDbSymbolTableRecord
100
AcDbLinetypeTableRecord
  2
DOT2
 70
     0
  3
Dot (.5x) ........................................
 72
    65
 73
     2
 40
0.635
 49
0.0
 74
     0
 49
-0.635
 74
     0
  0
ENDTAB
  0
TABLE
  2
LAYER
  5
2
330
0
100
AcDbSymbolTable
 70
     1
  0
LAYER
  5
10
330
2
100
AcDbSymbolTableRecord
100
AcDbLayerTableRecord
  2
0
 70
     0
 62
     7
  6
Continuous
370
    -3
390
F
  0
ENDTAB
  0
TABLE
  2
STYLE
  5
3
330
0
100
AcDbSymbolTable
 70
     1
  0
STYLE
  5
11
330
3
100
AcDbSymbolTableRecord
100
AcDbTextStyleTableRecord
  2
Standard
 70
     0
 40
0.0
 41
1.0
 50
0.0
 71
     0
 42
3.5
  3
txt
  4

  0
ENDTAB
  0
TABLE
  2
VIEW
  5
6
330
0
100
AcDbSymbolTable
 70
     0
  0
ENDTAB
  0
TABLE
  2
UCS
  5
7
330
0
100
AcDbSymbolTable
 70
     0
  0
ENDTAB
  0
TABLE
  2
APPID
  5
9
330
0
100
AcDbSymbolTable
 70
     1
  0
APPID
  5
12
330
9
100
AcDbSymbolTableRecord
100
AcDbRegAppTableRecord
  2
ACAD
 70
     0
  0
ENDTAB
  0
TABLE
  2
DIMSTYLE
  5
A
330
0
100
AcDbSymbolTable
 70
     1
100
AcDbDimStyleTable
  0
DIMSTYLE
105
27
330
A
100
AcDbSymbolTableRecord
100
AcDbDimStyleTableRecord
  2
ISO-25
 70
     0
 41
2.5
 42
0.625
 43
3.75
 44
1.25
 73
     0
 74
     0
 77
     1
 78
     8
140
2.5
141
2.5
143
0.0393700787
147
0.625
171
     3
172
     1
178
     0
271
     2
272
     2
274
     3
278
    44
283
     0
284
     8
340
11
  0
ENDTAB
  0
TABLE
  2
BLOCK_RECORD
  5
1
330
0
100
AcDbSymbolTable
 70
     1
  0
BLOCK_RECORD
  5
1F
330
1
100
AcDbSymbolTableRecord
100
AcDbBlockTableRecord
  2
*Model_Space
340
22
  0
BLOCK_RECORD
  5
1B
330
1
100
AcDbSymbolTableRecord
100
AcDbBlockTableRecord
  2
*Paper_Space
340
1E
  0
BLOCK_RECORD
  5
23
330
1
100
AcDbSymbolTableRecord
100
AcDbBlockTableRecord
  2
*Paper_Space0
340
26
  0
ENDTAB
  0
ENDSEC
  0
SECTION
  2
BLOCKS
  0
BLOCK
  5
20
330
1F
100
AcDbEntity
  8
0
100
AcDbBlockBegin
  2
*Model_Space
 70
     0
 10
0.0
 20
0.0
 30
0.0
  3
*Model_Space
  1

  0
ENDBLK
  5
21
330
1F
100
AcDbEntity
  8
0
100
AcDbBlockEnd
  0
BLOCK
  5
1C
330
1B
100
AcDbEntity
 67
     1
  8
0
100
AcDbBlockBegin
  2
*Paper_Space
 70
     0
 10
0.0
 20
0.0
 30
0.0
  3
*Paper_Space
  1

  0
ENDBLK
  5
1D
330
1B
100
AcDbEntity
 67
     1
  8
0
100
AcDbBlockEnd
  0
BLOCK
  5
24
330
23
100
AcDbEntity
  8
0
100
AcDbBlockBegin
  2
*Paper_Space0
 70
     0
 10
0.0
 20
0.0
 30
0.0
  3
*Paper_Space0
  1

  0
ENDBLK
  5
25
330
23
100
AcDbEntity
  8
0
100
AcDbBlockEnd
  0
ENDSEC
  0
SECTION
  2
ENTITIES
  0
ARC
  5
73
330
1F
100
AcDbEntity
  8
0
  6
Continuous
 62
     7
370
    25
100
AcDbCircle
 10
764.4433501725
 20
438.028893827
 30
0.0
 40
0.5000000000001137
100
AcDbArc
 50
180.0
 51
0.0
  0
ARC
  5
74
330
1F
100
AcDbEntity
  8
0
  6
Continuous
 62
     7
370
    25
100
AcDbCircle
 10
764.4433501725
 20
449.6288938272
 30
0.0
 40
0.5
100
AcDbArc
 50
0.0
 51
180.0
  0
LINE
  5
75
330
1F
100
AcDbEntity
  8
0
  6
Continuous
 62
     7
370
    25
100
AcDbLine
 10
759.9433501725
 20
438.8288938271
 30
0.0
 11
760.1539292275
 21
438.4641602049
 31
0.0
  0
LINE
  5
76
330
1F
100
AcDbEntity
  8
0
  6
Continuous
 62
     7
370
    25
100
AcDbLine
 10
774.4021001725
 20
446.8288938271
 30
0.0
 11
765.7433501725
 21
446.8288938271
 31
0.0
  0
LINE
  5
77
330
1F
100
AcDbEntity
  8
0
  6
Continuous
 62
     7
370
    25
100
AcDbLine
 10
765.7433501725
 20
440.8288938271
 30
0.0
 11
774.4021001725
 21
440.8288938271
 31
0.0
  0
LINE
  5
78
330
1F
100
AcDbEntity
  8
0
  6
Continuous
 62
     7
370
    25
100
AcDbLine
 10
774.4021001725
 20
440.8288938271
 30
0.0
 11
774.9433501725
 21
441.3701438271
 31
0.0
  0
LINE
  5
79
330
1F
100
AcDbEntity
  8
0
  6
Continuous
 62
     7
370
    25
100
AcDbLine
 10
774.9433501725
 20
446.2876438271
 30
0.0
 11
774.4021001725
 21
446.8288938271
 31
0.0
  0
LINE
  5
7A
330
1F
100
AcDbEntity
  8
0
  6
Continuous
 62
     7
370
    25
100
AcDbLine
 10
760.1539292275
 20
449.1936274493
 30
0.0
 11
759.9433501725
 21
448.8288938271
 31
0.0
  0
ARC
  5
7B
330
1F
100
AcDbEntity
  8
0
  6
Continuous
 62
     7
370
    25
100
AcDbCircle
 10
764.4433501725
 20
424.6288938272
 30
0.0
 40
0.5000000000000339
100
AcDbArc
 50
360.0
 51
113.5781784781
  0
LINE
  5
7C
330
1F
100
AcDbEntity
  8
0
  6
Continuous
 62
     7
370
    25
100
AcDbLine
 10
774.4021001725
 20
421.8288938271
 30
0.0
 11
765.7433501725
 21
421.8288938271
 31
0.0
  0
LINE
  5
7D
330
1F
100
AcDbEntity
  8
0
  6
Continuous
 62
     7
370
    25
100
AcDbLine
 10
774.4021001725
 20
415.8288938271
 30
0.0
 11
774.9433501725
 21
416.3701438271
 31
0.0
  0
LINE
  5
7E
330
1F
100
AcDbEntity
  8
0
  6
Continuous
 62
     7
370
    25
100
AcDbLine
 10
774.9433501725
 20
421.2876438271
 30
0.0
 11
774.4021001725
 21
421.8288938271
 31
0.0
  0
ARC
  5
7F
330
1F
100
AcDbEntity
  8
0
  6
Continuous
 62
     7
370
    25
100
AcDbCircle
 10
61.0433501725
 20
424.6288938272
 30
0.0
 40
0.500000000000031
100
AcDbArc
 50
66.4218215218
 51
180.0
  0
LINE
  5
80
330
1F
100
AcDbEntity
  8
0
  6
Continuous
 62
     7
370
    25
100
AcDbLine
 10
51.0846001725
 20
421.8288938271
 30
0.0
 11
50.5433501725
 21
421.2876438271
 31
0.0
  0
LINE
  5
81
330
1F
100
AcDbEntity
  8
0
  6
Continuous
 62
     7
370
    25
100
AcDbLine
 10
50.5433501725
 20
416.3701438271
 30
0.0
 11
51.0846001725
 21
415.8288938271
 31
0.0
  0
LINE
  5
82
330
1F
100
AcDbEntity
  8
0
  6
Continuous
 62
     7
370
    25
100
AcDbLine
 10
59.7433501725
 20
421.8288938271
 30
0.0
 11
51.0846001725
 21
421.8288938271
 31
0.0
  0
ARC
  5
83
330
1F
100
AcDbEntity
  8
0
  6
Continuous
 62
     7
370
    25
100
AcDbCircle
 10
61.0433501725
 20
449.6288938272
 30
0.0
 40
0.5
100
AcDbArc
 50
0.0
 51
180.0
  0
ARC
  5
84
330
1F
100
AcDbEntity
  8
0
  6
Continuous
 62
     7
370
    25
100
AcDbCircle
 10
61.0433501725
 20
438.028893827
 30
0.0
 40
0.5000000000000071
100
AcDbArc
 50
180.0
 51
360.0
  0
LINE
  5
85
330
1F
100
AcDbEntity
  8
0
  6
Continuous
 62
     7
370
    25
100
AcDbLine
 10
51.0846001725
 20
440.8288938271
 30
0.0
 11
59.7433501725
 21
440.8288938271
 31
0.0
  0
LINE
  5
86
330
1F
100
AcDbEntity
  8
0
  6
Continuous
 62
     7
370
    25
100
AcDbLine
 10
59.7433501725
 20
446.8288938271
 30
0.0
 11
51.0846001725
 21
446.8288938271
 31
0.0
  0
LINE
  5
87
330
1F
100
AcDbEntity
  8
0
  6
Continuous
 62
     7
370
    25
100
AcDbLine
 10
51.0846001725
 20
446.8288938271
 30
0.0
 11
50.5433501725
 21
446.2876438271
 31
0.0
  0
LINE
  5
88
330
1F
100
AcDbEntity
  8
0
  6
Continuous
 62
     7
370
    25
100
AcDbLine
 10
50.5433501725
 20
441.3701438271
 30
0.0
 11
51.0846001725
 21
440.8288938271
 31
0.0
  0
SPLINE
  5
89
330
1F
100
AcDbEntity
  8
0
  6
Continuous
 62
     7
370
    25
100
AcDbSpline
210
0.0
220
0.0
230
1.0
 70
    24
 71
     3
 72
    16
 73
    12
 74
     0
 42
0.000000001
 43
0.00000001
 40
0.0
 40
0.0
 40
0.0
 40
0.0
 40
0.1658292928977489
 40
0.2550981074401226
 40
0.3462613343064169
 40
0.4374245611727098
 40
0.5266933757150838
 40
0.692522668612833
 40
0.8583519615105835
 40
0.9476207760529559
 40
0.9999999999999999
 40
0.9999999999999999
 40
0.9999999999999999
 40
0.9999999999999999
 10
763.9433501724768
 20
447.5545834517303
 30
0.0
 10
763.9433501724768
 20
446.9456756540553
 30
0.0
 10
763.9433501724768
 20
446.0089821177197
 30
0.0
 10
763.9433501724768
 20
444.5091834264837
 30
0.0
 10
763.9433501724767
 20
443.3172263466687
 30
0.0
 10
763.9433501724769
 20
442.1427980724624
 30
0.0
 10
763.9433501724768
 20
440.739184779175
 30
0.0
 10
763.9433501724768
 20
439.271841698393
 30
0.0
 10
763.9433501724768
 20
438.3726543475722
 30
0.0
 10
763.9433501724768
 20
438.0448230204579
 30
0.0
 10
763.9433501724768
 20
438.0552134358983
 30
0.0
 10
763.9433501724768
 20
438.0590556486324
 30
0.0
  0
SPLINE
  5
8A
330
1F
100
AcDbEntity
  8
0
  6
Continuous
 62
     7
370
    25
100
AcDbSpline
210
0.0
220
0.0
230
1.0
 70
     8
 71
     3
 72
     8
 73
     4
 74
     0
 42
0.000000001
 43
0.00000001
 40
0.0
 40
0.0
 40
0.0
 40
0.0
 40
1.0
 40
1.0
 40
1.0
 40
1.0
 10
759.943350172484
 20
444.6943883977137
 30
0.0
 10
759.943350172484
 20
443.7239824618235
 30
0.0
 10
760.1176654728635
 20
442.7801361198923
 30
0.0
 10
760.3899321598752
 20
441.8512141652657
 30
0.0
  0
SPLINE
  5
8B
330
1F
100
AcDbEntity
  8
0
  6
Continuous
 62
     7
370
    25
100
AcDbSpline
210
0.0
220
0.0
230
1.0
 70
     8
 71
     3
 72
     8
 73
     4
 74
     0
 42
0.000000001
 43
0.00000001
 40
0.0
 40
0.0
 40
0.0
 40
0.0
 40
1.0
 40
1.0
 40
1.0
 40
1.0
 10
760.3899321598752
 20
447.5375626301616
 30
0.0
 10
760.1176654728639
 20
446.6086406755367
 30
0.0
 10
759.943350172484
 20
445.6647943336021
 30
0.0
 10
759.943350172484
 20
444.6943883977137
 30
0.0
  0
LINE
  5
8C
330
1F
100
AcDbEntity
  8
0
  6
Continuous
 62
     7
370
    25
100
AcDbLine
 10
763.9433501725
 20
447.5375626302
 30
0.0
 11
760.3899321599
 21
447.5375626302
 31
0.0
  0
LINE
  5
8D
330
1F
100
AcDbEntity
  8
0
  6
Continuous
 62
     7
370
    25
100
AcDbLine
 10
763.9433501725
 20
441.8512141653
 30
0.0
 11
760.3899321599
 21
441.8512141653
 31
0.0
  0
LINE
  5
8E
330
1F
100
AcDbEntity
  8
0
  6
Continuous
 62
     7
370
    25
100
AcDbLine
 10
759.9433501725
 20
444.6943883977
 30
0.0
 11
759.9433501725
 21
439.9968797637
 31
0.0
  0
SPLINE
  5
8F
330
1F
100
AcDbEntity
  8
0
  6
Continuous
 62
     7
370
    25
100
AcDbSpline
210
0.0
220
0.0
230
1.0
 70
     8
 71
     3
 72
     8
 73
     4
 74
     0
 42
0.000000001
 43
0.00000001
 40
0.0
 40
0.0
 40
0.0
 40
0.0
 40
1.0
 40
1.0
 40
1.0
 40
1.0
 10
760.3899321598752
 20
441.8512141652594
 30
0.0
 10
760.1176654728639
 20
441.2453659843283
 30
0.0
 10
759.9433501724841
 20
440.6297840331293
 30
0.0
 10
759.9433501724841
 20
439.9968797637279
 30
0.0
  0
SPLINE
  5
90
330
1F
100
AcDbEntity
  8
0
  6
Continuous
 62
     7
370
    25
100
AcDbSpline
210
0.0
220
0.0
230
1.0
 70
     8
 71
     3
 72
     8
 73
     4
 74
     0
 42
0.000000001
 43
0.00000001
 40
0.0
 40
0.0
 40
0.0
 40
0.0
 40
1.0
 40
1.0
 40
1.0
 40
1.0
 10
759.9433501724841
 20
439.9968797637279
 30
0.0
 10
759.9433501724841
 20
439.3639754943255
 30
0.0
 10
760.1176654728635
 20
438.7483935431288
 30
0.0
 10
760.3899321598752
 20
438.1425453621966
 30
0.0
  0
LINE
  5
91
330
1F
100
AcDbEntity
  8
0
  6
Continuous
 62
     7
370
    25
100
AcDbLine
 10
763.9433501725
 20
438.1425453622
 30
0.0
 11
760.3899321599
 21
438.1425453622
 31
0.0
  0
LINE
  5
92
330
1F
100
AcDbEntity
  8
0
  6
Continuous
 62
     7
370
    25
100
AcDbLine
 10
759.9433501725
 20
448.5264024611
 30
0.0
 11
759.9433501725
 21
444.6943883977
 31
0.0
  0
SPLINE
  5
93
330
1F
100
AcDbEntity
  8
0
  6
Continuous
 62
     7
370
    25
100
AcDbSpline
210
0.0
220
0.0
230
1.0
 70
     8
 71
     3
 72
     8
 73
     4
 74
     0
 42
0.000000001
 43
0.00000001
 40
0.0
 40
0.0
 40
0.0
 40
0.0
 40
1.0
 40
1.0
 40
1.0
 40
1.0
 10
759.9433501724839
 20
448.5264024610831
 30
0.0
 10
759.9433501724839
 20
448.1889007945955
 30
0.0
 10
760.1176654728632
 20
447.8606364038611
 30
0.0
 10
760.3899321598752
 20
447.5375626301667
 30
0.0
  0
SPLINE
  5
94
330
1F
100
AcDbEntity
  8
0
  6
Continuous
 62
     7
370
    25
100
AcDbSpline
210
0.0
220
0.0
230
1.0
 70
     8
 71
     3
 72
     8
 73
     4
 74
     0
 42
0.000000001
 43
0.00000001
 40
0.0
 40
0.0
 40
0.0
 40
0.0
 40
1.0
 40
1.0
 40
1.0
 40
1.0
 10
760.3899321598751
 20
449.5152422919996
 30
0.0
 10
760.1176654728638
 20
449.1921685183058
 30
0.0
 10
759.9433501724839
 20
448.8639041275702
 30
0.0
 10
759.9433501724839
 20
448.5264024610831
 30
0.0
  0
LINE
  5
95
330
1F
100
AcDbEntity
  8
0
  6
Continuous
 62
     7
370
    25
100
AcDbLine
 10
763.9433501725
 20
449.515242292
 30
0.0
 11
760.3899321599
 21
449.515242292
 31
0.0
  0
LINE
  5
96
330
1F
100
AcDbEntity
  8
0
  6
Continuous
 62
     7
370
    25
100
AcDbLine
 10
760.3899321599
 20
438.1425453622
 30
0.0
 11
760.2259141247
 21
438.5057207047
 31
0.0
  0
LINE
  5
97
330
1F
100
AcDbEntity
  8
0
  6
Continuous
 62
     7
370
    25
100
AcDbLine
 10
759.9433501725
 20
439.9968797637
 30
0.0
 11
759.9433501725
 21
438.8288938271
 31
0.0
  0
LINE
  5
98
330
1F
100
AcDbEntity
  8
0
  6
Continuous
 62
     7
370
    25
100
AcDbLine
 10
774.4021001725
 20
440.8288938271
 30
0.0
 11
774.4021001725
 21
446.8288938271
 31
0.0
  0
LINE
  5
99
330
1F
100
AcDbEntity
  8
0
  6
Continuous
 62
     7
370
    25
100
AcDbLine
 10
774.9433501725
 20
441.9445009114
 30
0.0
 11
774.9433501725
 21
446.2876438271
 31
0.0
  0
LINE
  5
9A
330
1F
100
AcDbEntity
  8
0
  6
Continuous
 62
     7
370
    25
100
AcDbLine
 10
774.9433501725
 20
441.3701438271
 30
0.0
 11
774.9433501725
 21
441.9445009114
 31
0.0
  0
LINE
  5
9B
330
1F
100
AcDbEntity
  8
0
  6
Continuous
 62
     7
370
    25
100
AcDbLine
 10
759.9433501725
 20
448.8288938271
 30
0.0
 11
759.9433501725
 21
448.5264024611
 31
0.0
  0
CIRCLE
  5
9C
330
1F
100
AcDbEntity
  8
0
  6
Continuous
 62
     7
370
    25
100
AcDbCircle
 10
115.2433501725
 20
390.8288938271
 30
0.0
 40
0.5
  0
SPLINE
  5
9D
330
1F
100
AcDbEntity
  8
0
  6
Continuous
 62
     7
370
    25
100
AcDbSpline
210
0.0
220
0.0
230
1.0
 70
     8
 71
     3
 72
    20
 73
    16
 74
     0
 42
0.000000001
 43
0.00000001
 40
0.0
 40
0.0
 40
0.0
 40
0.0
 40
0.1249999999999952
 40
0.1249999999999952
 40
0.2499999999999904
 40
0.2499999999999904
 40
0.3749999999999856
 40
0.3749999999999856
 40
0.4999999999999808
 40
0.4999999999999808
 40
0.7500000000000008
 40
0.7500000000000008
 40
0.8750000000000003
 40
0.8750000000000003
 40
1.0
 40
1.0
 40
1.0
 40
1.0
 10
807.8433501724776
 20
413.4288938270933
 30
0.0
 10
808.0017293601283
 20
413.4679345579478
 30
0.0
 10
808.1579750848198
 20
413.5064532621477
 30
0.0
 10
808.4659669342363
 20
413.5838600134555
 30
0.0
 10
808.6186110417075
 20
413.6230044314422
 30
0.0
 10
808.9076953308947
 20
413.7001551853574
 30
0.0
 10
809.0454998690789
 20
413.7384827670985
 30
0.0
 10
809.3071185447176
 20
413.816029087575
 30
0.0
 10
809.4298648514002
 20
413.8550052952436
 30
0.0
 10
809.7611892283478
 20
413.9705001516887
 30
0.0
 10
809.9402003523761
 20
414.0484125953588
 30
0.0
 10
810.1198154517571
 20
414.1638925207597
 30
0.0
 10
810.1660598006248
 20
414.2027583166247
 30
0.0
 10
810.2278131066361
 20
414.2805326502933
 30
0.0
 10
810.2433501724776
 20
414.319142417248
 30
0.0
 10
810.2433501724774
 20
414.3581831489747
 30
0.0
  0
LINE
  5
9E
330
1F
100
AcDbEntity
  8
0
  6
Continuous
 62
     7
370
    25
100
AcDbLine
 10
810.2433501725
 20
121.2996045052
 30
0.0
 11
810.2433501725
 21
414.358183149
 31
0.0
  0
SPLINE
  5
9F
330
1F
100
AcDbEntity
  8
0
  6
Continuous
 62
     7
370
    25
100
AcDbSpline
210
0.0
220
0.0
230
1.0
 70
     8
 71
     3
 72
    20
 73
    16
 74
     0
 42
0.000000001
 43
0.00000001
 40
0.0
 40
0.0
 40
0.0
 40
0.0
 40
0.1250000000000001
 40
0.1250000000000001
 40
0.2500000000000001
 40
0.2500000000000001
 40
0.3750000000000001
 40
0.3750000000000001
 40
0.5
 40
0.5
 40
0.7499999999999999
 40
0.7499999999999999
 40
0.875
 40
0.875
 40
1.0
 40
1.0
 40
1.0
 40
1.0
 10
810.2433501724774
 20
121.2996045052118
 30
0.0
 10
810.2433501724774
 20
121.3386452360663
 30
0.0
 10
810.2278136120027
 20
121.3771639402661
 30
0.0
 10
810.166495260042
 20
121.4545706915739
 30
0.0
 10
810.1200715144553
 20
121.4937151095608
 30
0.0
 10
810.0001206443013
 20
121.5708658634759
 30
0.0
 10
809.9265160000176
 20
121.609193445217
 30
0.0
 10
809.751785633922
 20
121.6867397656935
 30
0.0
 10
809.6509350050205
 20
121.7257159733622
 30
0.0
 10
809.3196497250366
 20
121.8412108298072
 30
0.0
 10
809.0519695636526
 20
121.9191232734773
 30
0.0
 10
808.619295537597
 20
122.0346031988781
 30
0.0
 10
808.4677774507461
 20
122.0734689947433
 30
0.0
 10
808.1583516933599
 20
122.1512433284117
 30
0.0
 10
808.0017293636663
 20
122.1898530953665
 30
0.0
 10
807.8433501724776
 20
122.2288938270931
 30
0.0
  0
SPLINE
  5
A0
330
1F
100
AcDbEntity
  8
0
  6
Continuous
 62
     7
370
    25
100
AcDbSpline
210
0.0
220
0.0
230
1.0
 70
     8
 71
     3
 72
    20
 73
    16
 74
     0
 42
0.000000001
 43
0.00000001
 40
0.0
 40
0.0
 40
0.0
 40
0.0
 40
0.1250000000000001
 40
0.1250000000000001
 40
0.2500000000000001
 40
0.2500000000000001
 40
0.3750000000000002
 40
0.3750000000000002
 40
0.5000000000000002
 40
0.5000000000000002
 40
0.7500000000000003
 40
0.7500000000000003
 40
0.8750000000000002
 40
0.8750000000000002
 40
1.0
 40
1.0
 40
1.0
 40
1.0
 10
807.8433501724776
 20
122.2288938270932
 30
0.0
 10
807.8823909033322
 20
122.0705146394425
 30
0.0
 10
807.9209096075319
 20
121.9142689147507
 30
0.0
 10
807.9983163588398
 20
121.6062770653341
 30
0.0
 10
808.0374607768264
 20
121.453632957863
 30
0.0
 10
808.1146115307416
 20
121.164548668676
 30
0.0
 10
808.1529391124827
 20
121.0267441304919
 30
0.0
 10
808.2304854329592
 20
120.7651254548529
 30
0.0
 10
808.2694616406278
 20
120.6423791481703
 30
0.0
 10
808.3849564970728
 20
120.3110547712226
 30
0.0
 10
808.4628689407431
 20
120.1320436471944
 30
0.0
 10
808.578348866144
 20
119.9524285478135
 30
0.0
 10
808.617214662009
 20
119.9061841989459
 30
0.0
 10
808.6949889956774
 20
119.8444308929347
 30
0.0
 10
808.7335987626321
 20
119.8288938270931
 30
0.0
 10
808.7726394943588
 20
119.8288938270932
 30
0.0
  0
LINE
  5
A1
330
1F
100
AcDbEntity
  8
0
  6
Continuous
 62
     7
370
    25
100
AcDbLine
 10
16.7140608506
 20
119.8288938271
 30
0.0
 11
808.7726394944
 21
119.8288938271
 31
0.0
  0
SPLINE
  5
A2
330
1F
100
AcDbEntity
  8
0
  6
Continuous
 62
     7
370
    25
100
AcDbSpline
210
0.0
220
0.0
230
1.0
 70
     8
 71
     3
 72
    20
 73
    16
 74
     0
 42
0.000000001
 43
0.00000001
 40
0.0
 40
0.0
 40
0.0
 40
0.0
 40
0.1249999999999976
 40
0.1249999999999976
 40
0.2499999999999949
 40
0.2499999999999949
 40
0.3749999999999923
 40
0.3749999999999923
 40
0.4999999999999897
 40
0.4999999999999897
 40
0.7499999999999949
 40
0.7499999999999949
 40
0.8749999999999974
 40
0.8749999999999974
 40
1.0
 40
1.0
 40
1.0
 40
1.0
 10
16.71406085059618
 20
119.8288938270932
 30
0.0
 10
16.75310158145066
 20
119.8288938270931
 30
0.0
 10
16.79162028565046
 20
119.844430387568
 30
0.0
 10
16.86902703695847
 20
119.9057487395287
 30
0.0
 10
16.90817145494506
 20
119.9521724851154
 30
0.0
 10
16.98532220886018
 20
120.0721233552696
 30
0.0
 10
17.02364979060134
 20
120.1457279995529
 30
0.0
 10
17.1011961110778
 20
120.3204583656485
 30
0.0
 10
17.14017231874659
 20
120.4213089945501
 30
0.0
 10
17.25566717519139
 20
120.752594274534
 30
0.0
 10
17.33357961886167
 20
121.0202744359179
 30
0.0
 10
17.44905954426246
 20
121.4529484619733
 30
0.0
 10
17.48792534012761
 20
121.6044665488244
 30
0.0
 10
17.56569967379601
 20
121.9138923062106
 30
0.0
 10
17.60430944075075
 20
122.0705146359043
 30
0.0
 10
17.64335017247742
 20
122.2288938270931
 30
0.0
  0
SPLINE
  5
A3
330
1F
100
AcDbEntity
  8
0
  6
Continuous
 62
     7
370
    25
100
AcDbSpline
210
0.0
220
0.0
230
1.0
 70
     8
 71
     3
 72
    14
 73
    10
 74
     0
 42
0.000000001
 43
0.00000001
 40
0.0
 40
0.0
 40
0.0
 40
0.0
 40
0.25
 40
0.25
 40
0.5
 40
0.5
 40
0.75
 40
0.75
 40
1.0
 40
1.0
 40
1.0
 40
1.0
 10
807.8433501724776
 20
122.2288938270932
 30
0.0
 10
807.921551587499
 20
122.0967084112342
 30
0.0
 10
807.9972615347963
 20
121.9687263927005
 30
0.0
 10
808.1525419464433
 20
121.7261023677533
 30
0.0
 10
808.2295517960263
 20
121.6156601033433
 30
0.0
 10
808.3849752820536
 20
121.4296632061501
 30
0.0
 10
808.461924998972
 20
121.3558622273116
 30
0.0
 10
808.6173549782212
 20
121.2550436429165
 30
0.0
 10
808.6944380867938
 20
121.2288938270932
 30
0.0
 10
808.7726394943588
 20
121.2288938270932
 30
0.0
  0
LINE
  5
A4
330
1F
100
AcDbEntity
  8
0
  6
Continuous
 62
     7
370
    25
100
AcDbLine
 10
808.7726394944
 20
119.8288938271
 30
0.0
 11
808.7726394944
 21
121.2288938271
 31
0.0
  0
SPLINE
  5
A5
330
1F
100
AcDbEntity
  8
0
  6
Continuous
 62
     7
370
    25
100
AcDbSpline
210
0.0
220
0.0
230
1.0
 70
     8
 71
     3
 72
    14
 73
    10
 74
     0
 42
0.000000001
 43
0.00000001
 40
0.0
 40
0.0
 40
0.0
 40
0.0
 40
0.2500000000000001
 40
0.2500000000000001
 40
0.5000000000000002
 40
0.5000000000000002
 40
0.7500000000000003
 40
0.7500000000000003
 40
1.0
 40
1.0
 40
1.0
 40
1.0
 10
807.8433501724776
 20
413.4288938270933
 30
0.0
 10
807.9755355883365
 20
413.5070952421149
 30
0.0
 10
808.1035176068699
 20
413.5828051894119
 30
0.0
 10
808.3461416318174
 20
413.7380856010589
 30
0.0
 10
808.4565838962274
 20
413.8150954506419
 30
0.0
 10
808.6425807934207
 20
413.9705189366694
 30
0.0
 10
808.7163817722592
 20
414.0474686535878
 30
0.0
 10
808.8172003566543
 20
414.2028986328369
 30
0.0
 10
808.8433501724775
 20
414.2799817414096
 30
0.0
 10
808.8433501724775
 20
414.3581831489747
 30
0.0
  0
LINE
  5
A6
330
1F
100
AcDbEntity
  8
0
  6
Continuous
 62
     7
370
    25
100
AcDbLine
 10
810.2433501725
 20
414.358183149
 30
0.0
 11
808.8433501725
 21
414.358183149
 31
0.0
  0
LINE
  5
A7
330
1F
100
AcDbEntity
  8
0
  6
Continuous
 62
     7
370
    25
100
AcDbLine
 10
810.2433501725
 20
121.2996045052
 30
0.0
 11
808.8433501725
 21
121.2996045052
 31
0.0
  0
SPLINE
  5
A8
330
1F
100
AcDbEntity
  8
0
  6
Continuous
 62
     7
370
    25
100
AcDbSpline
210
0.0
220
0.0
230
1.0
 70
     8
 71
     3
 72
    14
 73
    10
 74
     0
 42
0.000000001
 43
0.00000001
 40
0.0
 40
0.0
 40
0.0
 40
0.0
 40
0.25
 40
0.25
 40
0.5
 40
0.5
 40
0.75
 40
0.75
 40
1.0
 40
1.0
 40
1.0
 40
1.0
 10
808.8433501724775
 20
121.2996045052118
 30
0.0
 10
808.8433501724775
 20
121.3778059202335
 30
0.0
 10
808.8177915077974
 20
121.4535158675303
 30
0.0
 10
808.7176634792005
 20
121.6087962791775
 30
0.0
 10
808.6440992998962
 20
121.6858061287603
 30
0.0
 10
808.4585616642044
 20
121.8412296147878
 30
0.0
 10
808.3483967432448
 20
121.9181793317063
 30
0.0
 10
808.1057849865554
 20
122.0736093109554
 30
0.0
 10
807.9755355757326
 20
122.1506924195281
 30
0.0
 10
807.8433501724776
 20
122.2288938270931
 30
0.0
  0
SPLINE
  5
A9
330
1F
100
AcDbEntity
  8
0
  6
Continuous
 62
     7
370
    25
100
AcDbSpline
210
0.0
220
0.0
230
1.0
 70
     8
 71
     3
 72
    20
 73
    16
 74
     0
 42
0.000000001
 43
0.00000001
 40
0.0
 40
0.0
 40
0.0
 40
0.0
 40
0.1250000000000037
 40
0.1250000000000037
 40
0.2500000000000074
 40
0.2500000000000074
 40
0.3750000000000112
 40
0.3750000000000112
 40
0.5000000000000149
 40
0.5000000000000149
 40
0.7500000000000074
 40
0.7500000000000074
 40
0.8750000000000036
 40
0.8750000000000036
 40
1.0
 40
1.0
 40
1.0
 40
1.0
 10
17.64335017247753
 20
413.428893827093
 30
0.0
 10
17.60430944162306
 20
413.5872730147437
 30
0.0
 10
17.56579073742315
 20
413.7435187394355
 30
0.0
 10
17.48838398611541
 20
414.0515105888521
 30
0.0
 10
17.44923956812855
 20
414.2041546963234
 30
0.0
 10
17.3720888142132
 20
414.4932389855105
 30
0.0
 10
17.33376123247227
 20
414.6310435236944
 30
0.0
 10
17.25621491199581
 20
414.8926621993334
 30
0.0
 10
17.21723870432701
 20
415.015408506016
 30
0.0
 10
17.10174384788249
 20
415.3467328829637
 30
0.0
 10
17.0238314042121
 20
415.5257440069919
 30
0.0
 10
16.90835147881115
 20
415.7053591063727
 30
0.0
 10
16.86948568294616
 20
415.7516034552403
 30
0.0
 10
16.79171134927776
 20
415.8133567612516
 30
0.0
 10
16.75310158232279
 20
415.8288938270931
 30
0.0
 10
16.71406085059612
 20
415.8288938270932
 30
0.0
  0
SPLINE
  5
AA
330
1F
100
AcDbEntity
  8
0
  6
Continuous
 62
     7
370
    25
100
AcDbSpline
210
0.0
220
0.0
230
1.0
 70
     8
 71
     3
 72
    14
 73
    10
 74
     0
 42
0.000000001
 43
0.00000001
 40
0.0
 40
0.0
 40
0.0
 40
0.0
 40
0.2500000000000001
 40
0.2500000000000001
 40
0.5000000000000001
 40
0.5000000000000001
 40
0.7500000000000002
 40
0.7500000000000002
 40
1.0
 40
1.0
 40
1.0
 40
1.0
 10
17.64335017247753
 20
413.4288938270931
 30
0.0
 10
17.5651487574559
 20
413.5610792429521
 30
0.0
 10
17.48943881015891
 20
413.6890612614857
 30
0.0
 10
17.33415839851193
 20
413.931685286433
 30
0.0
 10
17.25714854892896
 20
414.0421275508431
 30
0.0
 10
17.1017250629012
 20
414.2281244480363
 30
0.0
 10
17.02477534598301
 20
414.3019254268747
 30
0.0
 10
16.86934536673396
 20
414.4027440112698
 30
0.0
 10
16.79226225816116
 20
414.4288938270931
 30
0.0
 10
16.71406085059612
 20
414.4288938270931
 30
0.0
  0
LINE
  5
AB
330
1F
100
AcDbEntity
  8
0
  6
Continuous
 62
     7
370
    25
100
AcDbLine
 10
16.7140608506
 20
415.8288938271
 30
0.0
 11
16.7140608506
 21
414.4288938271
 31
0.0
  0
LINE
  5
AC
330
1F
100
AcDbEntity
  8
0
  6
Continuous
 62
     7
370
    25
100
AcDbLine
 10
808.7726394944
 20
415.8288938271
 30
0.0
 11
16.7140608506
 21
415.8288938271
 31
0.0
  0
SPLINE
  5
AD
330
1F
100
AcDbEntity
  8
0
  6
Continuous
 62
     7
370
    25
100
AcDbSpline
210
0.0
220
0.0
230
1.0
 70
     8
 71
     3
 72
    20
 73
    16
 74
     0
 42
0.000000001
 43
0.00000001
 40
0.0
 40
0.0
 40
0.0
 40
0.0
 40
0.1249999999999999
 40
0.1249999999999999
 40
0.2499999999999997
 40
0.2499999999999997
 40
0.3749999999999994
 40
0.3749999999999994
 40
0.4999999999999993
 40
0.4999999999999993
 40
0.7500000000000092
 40
0.7500000000000092
 40
0.8750000000000047
 40
0.8750000000000047
 40
1.0
 40
1.0
 40
1.0
 40
1.0
 10
808.7726394943588
 20
415.8288938270932
 30
0.0
 10
808.7335987635043
 20
415.8288938270932
 30
0.0
 10
808.6950800593045
 20
415.8133572666183
 30
0.0
 10
808.6176733079966
 20
415.7520389146576
 30
0.0
 10
808.5785288900098
 20
415.7056151690708
 30
0.0
 10
808.5013781360948
 20
415.5856642989168
 30
0.0
 10
808.4630505543538
 20
415.5120596546333
 30
0.0
 10
808.3855042338771
 20
415.3373292885377
 30
0.0
 10
808.3465280262084
 20
415.2364786596362
 30
0.0
 10
808.2310331697636
 20
414.9051933796521
 30
0.0
 10
808.1531207260933
 20
414.6375132182683
 30
0.0
 10
808.0376408006924
 20
414.2048391922129
 30
0.0
 10
807.9987750048274
 20
414.053321105362
 30
0.0
 10
807.921000671159
 20
413.7438953479759
 30
0.0
 10
807.8823909042042
 20
413.5872730182821
 30
0.0
 10
807.8433501724776
 20
413.4288938270934
 30
0.0
  0
SPLINE
  5
AE
330
1F
100
AcDbEntity
  8
0
  6
Continuous
 62
     7
370
    25
100
AcDbSpline
210
0.0
220
0.0
230
1.0
 70
     8
 71
     3
 72
    20
 73
    16
 74
     0
 42
0.000000001
 43
0.00000001
 40
0.0
 40
0.0
 40
0.0
 40
0.0
 40
0.1249999999999906
 40
0.1249999999999906
 40
0.2499999999999812
 40
0.2499999999999812
 40
0.3749999999999719
 40
0.3749999999999719
 40
0.4999999999999625
 40
0.4999999999999625
 40
0.7499999999999732
 40
0.7499999999999732
 40
0.8749999999999866
 40
0.8749999999999866
 40
1.0
 40
1.0
 40
1.0
 40
1.0
 10
17.64335017247748
 20
122.2288938270931
 30
0.0
 10
17.48497098482665
 20
122.1898530962385
 30
0.0
 10
17.32872526013501
 20
122.1513343920387
 30
0.0
 10
17.02073341071841
 20
122.0739276407308
 30
0.0
 10
16.86808930324746
 20
122.0347832227441
 30
0.0
 10
16.5790050140604
 20
121.9576324688289
 30
0.0
 10
16.44120047587605
 20
121.9193048870879
 30
0.0
 10
16.1795818002371
 20
121.8417585666114
 30
0.0
 10
16.05683549355458
 20
121.8027823589427
 30
0.0
 10
15.72551111660686
 20
121.6872875024976
 30
0.0
 10
15.54649999257895
 20
121.6093750588276
 30
0.0
 10
15.36688489319793
 20
121.4938951334267
 30
0.0
 10
15.32064054433008
 20
121.4550293375617
 30
0.0
 10
15.25888723831886
 20
121.3772550038932
 30
0.0
 10
15.24335017247741
 20
121.3386452369384
 30
0.0
 10
15.24335017247747
 20
121.2996045052118
 30
0.0
  0
SPLINE
  5
AF
330
1F
100
AcDbEntity
  8
0
  6
Continuous
 62
     7
370
    25
100
AcDbSpline
210
0.0
220
0.0
230
1.0
 70
     8
 71
     3
 72
    14
 73
    10
 74
     0
 42
0.000000001
 43
0.00000001
 40
0.0
 40
0.0
 40
0.0
 40
0.0
 40
0.2500000000000001
 40
0.2500000000000001
 40
0.5000000000000002
 40
0.5000000000000002
 40
0.7500000000000003
 40
0.7500000000000003
 40
1.0
 40
1.0
 40
1.0
 40
1.0
 10
17.64335017247748
 20
122.2288938270931
 30
0.0
 10
17.5111647566184
 20
122.1506924120715
 30
0.0
 10
17.38318273808503
 20
122.0749824647745
 30
0.0
 10
17.14055871313763
 20
121.9197020531275
 30
0.0
 10
17.03011644872771
 20
121.8426922035445
 30
0.0
 10
16.8441195515342
 20
121.687268717517
 30
0.0
 10
16.77031857269595
 20
121.6103190005987
 30
0.0
 10
16.66949998830086
 20
121.4548890213494
 30
0.0
 10
16.64335017247748
 20
121.3778059127768
 30
0.0
 10
16.64335017247748
 20
121.2996045052118
 30
0.0
  0
LINE
  5
B0
330
1F
100
AcDbEntity
  8
0
  6
Continuous
 62
     7
370
    25
100
AcDbLine
 10
15.2433501725
 20
121.2996045052
 30
0.0
 11
16.6433501725
 21
121.2996045052
 31
0.0
  0
SPLINE
  5
B1
330
1F
100
AcDbEntity
  8
0
  6
Continuous
 62
     7
370
    25
100
AcDbSpline
210
0.0
220
0.0
230
1.0
 70
     8
 71
     3
 72
    20
 73
    16
 74
     0
 42
0.000000001
 43
0.00000001
 40
0.0
 40
0.0
 40
0.0
 40
0.0
 40
0.1249999999999981
 40
0.1249999999999981
 40
0.2499999999999962
 40
0.2499999999999962
 40
0.3749999999999943
 40
0.3749999999999943
 40
0.4999999999999924
 40
0.4999999999999924
 40
0.7499999999999936
 40
0.7499999999999936
 40
0.8749999999999968
 40
0.8749999999999968
 40
1.0
 40
1.0
 40
1.0
 40
1.0
 10
15.24335017247747
 20
414.3581831489745
 30
0.0
 10
15.24335017247741
 20
414.31914241812
 30
0.0
 10
15.25888673295239
 20
414.2806237139201
 30
0.0
 10
15.32020508491294
 20
414.2032169626123
 30
0.0
 10
15.36662883049983
 20
414.1640725446255
 30
0.0
 10
15.48657970065387
 20
414.0869217907104
 30
0.0
 10
15.56018434493739
 20
414.0485942089693
 30
0.0
 10
15.73491471103283
 20
413.9710478884928
 30
0.0
 10
15.83576533993436
 20
413.9320716808242
 30
0.0
 10
16.16705061991836
 20
413.8165768243791
 30
0.0
 10
16.43473078130225
 20
413.7386643807091
 30
0.0
 10
16.86740480735782
 20
413.6231844553081
 30
0.0
 10
17.0189228942087
 20
413.5843186594431
 30
0.0
 10
17.32834865159488
 20
413.5065443257746
 30
0.0
 10
17.4849709812887
 20
413.4679345588198
 30
0.0
 10
17.64335017247748
 20
413.4288938270931
 30
0.0
  0
LINE
  5
B2
330
1F
100
AcDbEntity
  8
0
  6
Continuous
 62
     7
370
    25
100
AcDbLine
 10
15.2433501725
 20
414.358183149
 30
0.0
 11
16.6433501725
 21
414.358183149
 31
0.0
  0
SPLINE
  5
B3
330
1F
100
AcDbEntity
  8
0
  6
Continuous
 62
     7
370
    25
100
AcDbSpline
210
0.0
220
0.0
230
1.0
 70
     8
 71
     3
 72
    14
 73
    10
 74
     0
 42
0.000000001
 43
0.00000001
 40
0.0
 40
0.0
 40
0.0
 40
0.0
 40
0.25
 40
0.25
 40
0.5
 40
0.5
 40
0.75
 40
0.75
 40
1.0
 40
1.0
 40
1.0
 40
1.0
 10
16.64335017247748
 20
414.3581831489745
 30
0.0
 10
16.64335017247759
 20
414.2799817339529
 30
0.0
 10
16.66890883715788
 20
414.204271786656
 30
0.0
 10
16.76903686575471
 20
414.0489913750087
 30
0.0
 10
16.84260104505864
 20
413.971981525426
 30
0.0
 10
17.02813868075048
 20
413.8165580393984
 30
0.0
 10
17.13830360171009
 20
413.7396083224801
 30
0.0
 10
17.38091535839947
 20
413.5841783432309
 30
0.0
 10
17.51116476922254
 20
413.5070952346582
 30
0.0
 10
17.64335017247748
 20
413.4288938270931
 30
0.0
  0
LINE
  5
B4
330
1F
100
AcDbEntity
  8
0
  6
Continuous
 62
     7
370
    25
100
AcDbLine
 10
15.2433501725
 20
414.358183149
 30
0.0
 11
15.2433501725
 21
121.2996045052
 31
0.0
  0
LINE
  5
B5
330
1F
100
AcDbEntity
  8
0
  6
Continuous
 62
     7
370
    25
100
AcDbLine
 10
808.7726394944
 20
415.8288938271
 30
0.0
 11
808.7726394944
 21
414.4288938271
 31
0.0
  0
SPLINE
  5
B6
330
1F
100
AcDbEntity
  8
0
  6
Continuous
 62
     7
370
    25
100
AcDbSpline
210
0.0
220
0.0
230
1.0
 70
     8
 71
     3
 72
    14
 73
    10
 74
     0
 42
0.000000001
 43
0.00000001
 40
0.0
 40
0.0
 40
0.0
 40
0.0
 40
0.25
 40
0.25
 40
0.5
 40
0.5
 40
0.75
 40
0.75
 40
1.0
 40
1.0
 40
1.0
 40
1.0
 10
808.7726394943588
 20
414.4288938270931
 30
0.0
 10
808.6944380793373
 20
414.4288938270931
 30
0.0
 10
808.6187281320402
 20
414.4033351624129
 30
0.0
 10
808.4634477203932
 20
414.3032071338162
 30
0.0
 10
808.3864378708104
 20
414.2296429545118
 30
0.0
 10
808.2310143847827
 20
414.0441053188201
 30
0.0
 10
808.1540646678644
 20
413.9339403978606
 30
0.0
 10
807.9986346886154
 20
413.6913286411711
 30
0.0
 10
807.9215515800427
 20
413.5610792303481
 30
0.0
 10
807.8433501724776
 20
413.4288938270932
 30
0.0
  0
LINE
  5
B7
330
1F
100
AcDbEntity
  8
0
  6
Continuous
 62
     7
370
    25
100
AcDbLine
 10
16.7140608506
 20
119.8288938271
 30
0.0
 11
16.7140608506
 21
121.2288938271
 31
0.0
  0
SPLINE
  5
B8
330
1F
100
AcDbEntity
  8
0
  6
Continuous
 62
     7
370
    25
100
AcDbSpline
210
0.0
220
0.0
230
1.0
 70
     8
 71
     3
 72
    14
 73
    10
 74
     0
 42
0.000000001
 43
0.00000001
 40
0.0
 40
0.0
 40
0.0
 40
0.0
 40
0.25
 40
0.25
 40
0.5
 40
0.5
 40
0.75
 40
0.75
 40
1.0
 40
1.0
 40
1.0
 40
1.0
 10
16.71406085059618
 20
121.2288938270932
 30
0.0
 10
16.79226226561786
 20
121.2288938270931
 30
0.0
 10
16.86797221291469
 20
121.2544524917734
 30
0.0
 10
17.02325262456178
 20
121.3545805203701
 30
0.0
 10
17.1002624741447
 20
121.4281446996745
 30
0.0
 10
17.2556859601723
 20
121.6136823353663
 30
0.0
 10
17.33263567709054
 20
121.7238472563257
 30
0.0
 10
17.48806565633965
 20
121.9664590130152
 30
0.0
 10
17.56514876491233
 20
122.0967084238382
 30
0.0
 10
17.64335017247742
 20
122.2288938270931
 30
0.0
  0
ARC
  5
B9
330
1F
100
AcDbEntity
  8
0
  6
Continuous
 62
     7
370
    25
100
AcDbCircle
 10
73.4233600741
 20
368.8858299419
 30
0.0
 40
0.5050994627335359
100
AcDbArc
 50
298.8005827702
 51
112.9304972368
  0
ARC
  5
BA
330
1F
100
AcDbEntity
  8
0
  6
Continuous
 62
     7
370
    25
100
AcDbCircle
 10
71.2433501725
 20
367.8288938271
 30
0.0
 40
2.500000000000002
100
AcDbArc
 50
37.506301084
 51
74.2247789229
  0
ARC
  5
BB
330
1F
100
AcDbEntity
  8
0
  6
Continuous
 62
     7
370
    25
100
AcDbCircle
 10
71.4180215977
 20
370.2453058398
 30
0.0
 40
0.5050994627349636
100
AcDbArc
 50
358.800582771
 51
172.930497236
  0
ARC
  5
BC
330
1F
100
AcDbEntity
  8
0
  6
Continuous
 62
     7
370
    25
100
AcDbCircle
 10
71.2433501725
 20
367.8288938271
 30
0.0
 40
2.500000000000001
100
AcDbArc
 50
97.5063010841
 51
134.2247789229
  0
ARC
  5
BD
330
1F
100
AcDbEntity
  8
0
  6
Continuous
 62
     7
370
    25
100
AcDbCircle
 10
69.2380116961
 20
369.188369725
 30
0.0
 40
0.5050994627351895
100
AcDbArc
 50
58.8005827697
 51
232.9304972372
  0
ARC
  5
BE
330
1F
100
AcDbEntity
  8
0
  6
Continuous
 62
     7
370
    25
100
AcDbCircle
 10
71.2433501725
 20
367.8288938271
 30
0.0
 40
2.499999999999968
100
AcDbArc
 50
157.5063010841
 51
194.2247789229
  0
ARC
  5
BF
330
1F
100
AcDbEntity
  8
0
  6
Continuous
 62
     7
370
    25
100
AcDbCircle
 10
69.0633402709
 20
366.7719577123
 30
0.0
 40
0.5050994627332784
100
AcDbArc
 50
118.8005827707
 51
292.9304972361
  0
ARC
  5
C0
330
1F
100
AcDbEntity
  8
0
  6
Continuous
 62
     7
370
    25
100
AcDbCircle
 10
71.2433501725
 20
367.8288938271
 30
0.0
 40
2.499999999999944
100
AcDbArc
 50
217.506301084
 51
254.2247789229
  0
ARC
  5
C1
330
1F
100
AcDbEntity
  8
0
  6
Continuous
 62
     7
370
    25
100
AcDbCircle
 10
71.0686787473
 20
365.4124818144
 30
0.0
 40
0.5050994627366089
100
AcDbArc
 50
178.8005827716
 51
352.9304972354
  0
ARC
  5
C2
330
1F
100
AcDbEntity
  8
0
  6
Continuous
 62
     7
370
    25
100
AcDbCircle
 10
71.2433501725
 20
367.8288938271
 30
0.0
 40
2.49999999999994
100
AcDbArc
 50
277.5063010841
 51
314.2247789229
  0
ARC
  5
C3
330
1F
100
AcDbEntity
  8
0
  6
Continuous
 62
     7
370
    25
100
AcDbCircle
 10
73.2486886489
 20
366.4694179292
 30
0.0
 40
0.5050994627355243
100
AcDbArc
 50
238.8005827701
 51
52.9304972368
  0
ARC
  5
C4
330
1F
100
AcDbEntity
  8
0
  6
Continuous
 62
     7
370
    25
100
AcDbCircle
 10
71.2433501725
 20
367.8288938271
 30
0.0
 40
2.499999999999984
100
AcDbArc
 50
337.5063010841
 51
14.2247789229
  0
CIRCLE
  5
C5
330
1F
100
AcDbEntity
  8
0
  6
Continuous
 62
     7
370
    25
100
AcDbCircle
 10
71.2433501725
 20
367.8288938271
 30
0.0
 40
5.500000000000111
  0
CIRCLE
  5
C6
330
1F
100
AcDbEntity
  8
0
  6
Continuous
 62
     7
370
    25
100
AcDbCircle
 10
754.2433501725
 20
367.8288938271
 30
0.0
 40
5.500000000000082
  0
ARC
  5
C7
330
1F
100
AcDbEntity
  8
0
  6
Continuous
 62
     7
370
    25
100
AcDbCircle
 10
754.2433501725
 20
367.8288938271
 30
0.0
 40
2.50000000000002
100
AcDbArc
 50
100.8681863767
 51
137.5866642156
  0
ARC
  5
C8
330
1F
100
AcDbEntity
  8
0
  6
Continuous
 62
     7
370
    25
100
AcDbCircle
 10
752.1617399655
 20
369.0684324784
 30
0.0
 40
0.5050994627349373
100
AcDbArc
 50
62.1624680637
 51
236.2923825287
  0
ARC
  5
C9
330
1F
100
AcDbEntity
  8
0
  6
Continuous
 62
     7
370
    25
100
AcDbCircle
 10
752.129073108
 20
366.6459358327
 30
0.0
 40
0.5050994627351374
100
AcDbArc
 50
122.1624680624
 51
296.2923825299
  0
ARC
  5
CA
330
1F
100
AcDbEntity
  8
0
  6
Continuous
 62
     7
370
    25
100
AcDbCircle
 10
754.2433501725
 20
367.8288938271
 30
0.0
 40
2.500000000000035
100
AcDbArc
 50
220.8681863768
 51
257.5866642156
  0
ARC
  5
CB
330
1F
100
AcDbEntity
  8
0
  6
Continuous
 62
     7
370
    25
100
AcDbCircle
 10
754.210683315
 20
365.4063971814
 30
0.0
 40
0.5050994627334479
100
AcDbArc
 50
182.1624680634
 51
356.2923825288
  0
ARC
  5
CC
330
1F
100
AcDbEntity
  8
0
  6
Continuous
 62
     7
370
    25
100
AcDbCircle
 10
754.2433501725
 20
367.8288938271
 30
0.0
 40
2.499999999999913
100
AcDbArc
 50
280.8681863767
 51
317.5866642156
  0
ARC
  5
CD
330
1F
100
AcDbEntity
  8
0
  6
Continuous
 62
     7
370
    25
100
AcDbCircle
 10
756.3249603795
 20
366.5893551758
 30
0.0
 40
0.50509946273661
100
AcDbArc
 50
242.1624680643
 51
56.2923825281
  0
ARC
  5
CE
330
1F
100
AcDbEntity
  8
0
  6
Continuous
 62
     7
370
    25
100
AcDbCircle
 10
754.2433501725
 20
367.8288938271
 30
0.0
 40
2.499999999999961
100
AcDbArc
 50
40.8681863768
 51
77.5866642156
  0
ARC
  5
CF
330
1F
100
AcDbEntity
  8
0
  6
Continuous
 62
     7
370
    25
100
AcDbCircle
 10
754.2433501725
 20
367.8288938271
 30
0.0
 40
2.500000000000034
100
AcDbArc
 50
160.8681863768
 51
197.5866642156
  0
ARC
  5
D0
330
1F
100
AcDbEntity
  8
0
  6
Continuous
 62
     7
370
    25
100
AcDbCircle
 10
754.2433501725
 20
367.8288938271
 30
0.0
 40
2.499999999999874
100
AcDbArc
 50
340.8681863768
 51
17.5866642156
  0
ARC
  5
D1
330
1F
100
AcDbEntity
  8
0
  6
Continuous
 62
     7
370
    25
100
AcDbCircle
 10
756.357627237
 20
369.0118518215
 30
0.0
 40
0.5050994627356112
100
AcDbArc
 50
302.1624680628
 51
116.2923825295
  0
ARC
  5
D2
330
1F
100
AcDbEntity
  8
0
  6
Continuous
 62
     7
370
    25
100
AcDbCircle
 10
754.27601703
 20
370.2513904728
 30
0.0
 40
0.5050994627335896
100
AcDbArc
 50
2.1624680629
 51
176.2923825295
  0
CIRCLE
  5
D3
330
1F
100
AcDbEntity
  8
0
  6
Continuous
 62
     7
370
    25
100
AcDbCircle
 10
754.2433501725
 20
167.8288938271
 30
0.0
 40
5.500000000000046
  0
ARC
  5
D4
330
1F
100
AcDbEntity
  8
0
  6
Continuous
 62
     7
370
    25
100
AcDbCircle
 10
756.184580767
 20
166.3793487603
 30
0.0
 40
0.5050994627351528
100
AcDbArc
 50
236.1858115763
 51
50.3157260438
  0
ARC
  5
D5
330
1F
100
AcDbEntity
  8
0
  6
Continuous
 62
     7
370
    25
100
AcDbCircle
 10
754.2433501725
 20
167.8288938271
 30
0.0
 40
2.499999999999936
100
AcDbArc
 50
334.8915298906
 51
11.6100077295
  0
ARC
  5
D6
330
1F
100
AcDbEntity
  8
0
  6
Continuous
 62
     7
370
    25
100
AcDbCircle
 10
756.4693083215
 20
168.7852763032
 30
0.0
 40
0.5050994627332835
100
AcDbArc
 50
296.1858115773
 51
110.3157260427
  0
ARC
  5
D7
330
1F
100
AcDbEntity
  8
0
  6
Continuous
 62
     7
370
    25
100
AcDbCircle
 10
754.2433501725
 20
167.8288938271
 30
0.0
 40
2.499999999999944
100
AcDbArc
 50
154.8915298906
 51
191.6100077295
  0
ARC
  5
D8
330
1F
100
AcDbEntity
  8
0
  6
Continuous
 62
     7
370
    25
100
AcDbCircle
 10
754.2433501725
 20
167.8288938271
 30
0.0
 40
2.499999999999961
100
AcDbArc
 50
94.8915298907
 51
131.6100077294
  0
ARC
  5
D9
330
1F
100
AcDbEntity
  8
0
  6
Continuous
 62
     7
370
    25
100
AcDbCircle
 10
752.3021195779
 20
169.2784388939
 30
0.0
 40
0.505099462735536
100
AcDbArc
 50
56.1858115767
 51
230.3157260434
  0
ARC
  5
DA
330
1F
100
AcDbEntity
  8
0
  6
Continuous
 62
     7
370
    25
100
AcDbCircle
 10
752.0173920234
 20
166.872511351
 30
0.0
 40
0.5050994627335086
100
AcDbArc
 50
116.1858115767
 51
290.3157260433
  0
ARC
  5
DB
330
1F
100
AcDbEntity
  8
0
  6
Continuous
 62
     7
370
    25
100
AcDbCircle
 10
753.958622618
 20
165.4229662842
 30
0.0
 40
0.5050994627349299
100
AcDbArc
 50
176.1858115776
 51
350.3157260426
  0
ARC
  5
DC
330
1F
100
AcDbEntity
  8
0
  6
Continuous
 62
     7
370
    25
100
AcDbCircle
 10
754.2433501725
 20
167.8288938271
 30
0.0
 40
2.500000000000021
100
AcDbArc
 50
214.8915298906
 51
251.6100077295
  0
ARC
  5
DD
330
1F
100
AcDbEntity
  8
0
  6
Continuous
 62
     7
370
    25
100
AcDbCircle
 10
754.2433501725
 20
167.8288938271
 30
0.0
 40
2.499999999999954
100
AcDbArc
 50
34.8915298906
 51
71.6100077295
  0
ARC
  5
DE
330
1F
100
AcDbEntity
  8
0
  6
Continuous
 62
     7
370
    25
100
AcDbCircle
 10
754.2433501725
 20
167.8288938271
 30
0.0
 40
2.499999999999956
100
AcDbArc
 50
274.8915298907
 51
311.6100077294
  0
ARC
  5
DF
330
1F
100
AcDbEntity
  8
0
  6
Continuous
 62
     7
370
    25
100
AcDbCircle
 10
754.528077727
 20
170.23482137
 30
0.0
 40
0.5050994627367397
100
AcDbArc
 50
356.1858115782
 51
170.315726042
  0
CIRCLE
  5
E0
330
1F
100
AcDbEntity
  8
0
  6
Continuous
 62
     7
370
    25
100
AcDbCircle
 10
71.2433501725
 20
167.8288938271
 30
0.0
 40
5.500000000000079
  0
ARC
  5
E1
330
1F
100
AcDbEntity
  8
0
  6
Continuous
 62
     7
370
    25
100
AcDbCircle
 10
73.4233600741
 20
168.8858299419
 30
0.0
 40
0.5050994627335154
100
AcDbArc
 50
298.8005827702
 51
112.9304972368
  0
ARC
  5
E2
330
1F
100
AcDbEntity
  8
0
  6
Continuous
 62
     7
370
    25
100
AcDbCircle
 10
71.2433501725
 20
167.8288938271
 30
0.0
 40
2.499999999999934
100
AcDbArc
 50
37.506301084
 51
74.2247789229
  0
ARC
  5
E3
330
1F
100
AcDbEntity
  8
0
  6
Continuous
 62
     7
370
    25
100
AcDbCircle
 10
71.4180215977
 20
170.2453058398
 30
0.0
 40
0.5050994627349643
100
AcDbArc
 50
358.800582771
 51
172.930497236
  0
ARC
  5
E4
330
1F
100
AcDbEntity
  8
0
  6
Continuous
 62
     7
370
    25
100
AcDbCircle
 10
71.2433501725
 20
167.8288938271
 30
0.0
 40
2.499999999999938
100
AcDbArc
 50
97.5063010841
 51
134.2247789229
  0
ARC
  5
E5
330
1F
100
AcDbEntity
  8
0
  6
Continuous
 62
     7
370
    25
100
AcDbCircle
 10
69.2380116961
 20
169.188369725
 30
0.0
 40
0.5050994627351981
100
AcDbArc
 50
58.8005827697
 51
232.9304972372
  0
ARC
  5
E6
330
1F
100
AcDbEntity
  8
0
  6
Continuous
 62
     7
370
    25
100
AcDbCircle
 10
71.2433501725
 20
167.8288938271
 30
0.0
 40
2.499999999999948
100
AcDbArc
 50
157.5063010841
 51
194.2247789229
  0
ARC
  5
E7
330
1F
100
AcDbEntity
  8
0
  6
Continuous
 62
     7
370
    25
100
AcDbCircle
 10
69.0633402709
 20
166.7719577123
 30
0.0
 40
0.5050994627332623
100
AcDbArc
 50
118.8005827707
 51
292.9304972361
  0
ARC
  5
E8
330
1F
100
AcDbEntity
  8
0
  6
Continuous
 62
     7
370
    25
100
AcDbCircle
 10
71.2433501725
 20
167.8288938271
 30
0.0
 40
2.499999999999978
100
AcDbArc
 50
217.506301084
 51
254.2247789229
  0
ARC
  5
E9
330
1F
100
AcDbEntity
  8
0
  6
Continuous
 62
     7
370
    25
100
AcDbCircle
 10
71.0686787473
 20
165.4124818144
 30
0.0
 40
0.5050994627366077
100
AcDbArc
 50
178.8005827716
 51
352.9304972354
  0
ARC
  5
EA
330
1F
100
AcDbEntity
  8
0
  6
Continuous
 62
     7
370
    25
100
AcDbCircle
 10
71.2433501725
 20
167.8288938271
 30
0.0
 40
2.499999999999997
100
AcDbArc
 50
277.5063010841
 51
314.2247789229
  0
ARC
  5
EB
330
1F
100
AcDbEntity
  8
0
  6
Continuous
 62
     7
370
    25
100
AcDbCircle
 10
73.2486886489
 20
166.4694179292
 30
0.0
 40
0.5050994627354999
100
AcDbArc
 50
238.8005827701
 51
52.9304972368
  0
ARC
  5
EC
330
1F
100
AcDbEntity
  8
0
  6
Continuous
 62
     7
370
    25
100
AcDbCircle
 10
71.2433501725
 20
167.8288938271
 30
0.0
 40
2.499999999999968
100
AcDbArc
 50
337.5063010841
 51
14.2247789229
  0
LINE
  5
ED
330
1F
100
AcDbEntity
  8
0
  6
Continuous
 62
     7
370
    25
100
AcDbLine
 10
59.7433501725
 20
430.3288938271
 30
0.0
 11
60.5433501725
 21
430.3288938271
 31
0.0
  0
LINE
  5
EE
330
1F
100
AcDbEntity
  8
0
  6
Continuous
 62
     7
370
    25
100
AcDbLine
 10
59.7433501725
 20
430.3288938271
 30
0.0
 11
59.7433501725
 21
447.3288938271
 31
0.0
  0
LINE
  5
EF
330
1F
100
AcDbEntity
  8
0
  6
Continuous
 62
     7
370
    25
100
AcDbLine
 10
60.5433501725
 20
430.3288938271
 30
0.0
 11
60.5433501725
 21
447.3288938271
 31
0.0
  0
LINE
  5
F0
330
1F
100
AcDbEntity
  8
0
  6
Continuous
 62
     7
370
    25
100
AcDbLine
 10
59.7433501725
 20
450.3288938271
 30
0.0
 11
60.5433501725
 21
450.3288938271
 31
0.0
  0
LINE
  5
F1
330
1F
100
AcDbEntity
  8
0
  6
Continuous
 62
     7
370
    25
100
AcDbLine
 10
60.5433501725
 20
450.3288938271
 30
0.0
 11
60.5433501725
 21
447.3288938271
 31
0.0
  0
LINE
  5
F2
330
1F
100
AcDbEntity
  8
0
  6
Continuous
 62
     7
370
    25
100
AcDbLine
 10
59.7433501725
 20
447.3288938271
 30
0.0
 11
59.7433501725
 21
450.3288938271
 31
0.0
  0
LINE
  5
F3
330
1F
100
AcDbEntity
  8
0
  6
Continuous
 62
     7
370
    25
100
AcDbLine
 10
764.9433501725
 20
447.3288938271
 30
0.0
 11
764.9433501725
 21
450.3288938271
 31
0.0
  0
LINE
  5
F4
330
1F
100
AcDbEntity
  8
0
  6
Continuous
 62
     7
370
    25
100
AcDbLine
 10
764.9433501725
 20
450.3288938271
 30
0.0
 11
765.7433501725
 21
450.3288938271
 31
0.0
  0
LINE
  5
F5
330
1F
100
AcDbEntity
  8
0
  6
Continuous
 62
     7
370
    25
100
AcDbLine
 10
765.7433501725
 20
450.3288938271
 30
0.0
 11
765.7433501725
 21
447.3288938271
 31
0.0
  0
LINE
  5
F6
330
1F
100
AcDbEntity
  8
0
  6
Continuous
 62
     7
370
    25
100
AcDbLine
 10
765.7433501725
 20
430.3288938271
 30
0.0
 11
764.9433501725
 21
430.3288938271
 31
0.0
  0
LINE
  5
F7
330
1F
100
AcDbEntity
  8
0
  6
Continuous
 62
     7
370
    25
100
AcDbLine
 10
765.7433501725
 20
447.3288938271
 30
0.0
 11
765.7433501725
 21
430.3288938271
 31
0.0
  0
LINE
  5
F8
330
1F
100
AcDbEntity
  8
0
  6
Continuous
 62
     7
370
    25
100
AcDbLine
 10
764.9433501725
 20
447.3288938271
 30
0.0
 11
764.9433501725
 21
430.3288938271
 31
0.0
  0
LINE
  5
F9
330
1F
100
AcDbEntity
  8
0
  6
Continuous
 62
     7
370
    25
100
AcDbLine
 10
60.5433501725
 20
415.8288938271
 30
0.0
 11
60.5433501725
 21
427.1288938271
 31
0.0
  0
LINE
  5
FA
330
1F
100
AcDbEntity
  8
0
  6
Continuous
 62
     7
370
    25
100
AcDbLine
 10
60.5433501725
 20
428.8288938271
 30
0.0
 11
60.5433501725
 21
430.3288938271
 31
0.0
  0
LINE
  5
FB
330
1F
100
AcDbEntity
  8
0
  6
Continuous
 62
     7
370
    25
100
AcDbLine
 10
59.7433501725
 20
415.8288938271
 30
0.0
 11
59.7433501725
 21
430.3288938271
 31
0.0
  0
LINE
  5
FC
330
1F
100
AcDbEntity
  8
0
  6
Continuous
 62
     7
370
    25
100
AcDbLine
 10
765.7433501725
 20
430.3288938271
 30
0.0
 11
765.7433501725
 21
415.8288938271
 31
0.0
  0
LINE
  5
FD
330
1F
100
AcDbEntity
  8
0
  6
Continuous
 62
     7
370
    25
100
AcDbLine
 10
764.9433501725
 20
430.3288938271
 30
0.0
 11
764.9433501725
 21
428.8288938271
 31
0.0
  0
LINE
  5
FE
330
1F
100
AcDbEntity
  8
0
  6
Continuous
 62
     7
370
    25
100
AcDbLine
 10
764.9433501725
 20
427.1288938271
 30
0.0
 11
764.9433501725
 21
415.8288938271
 31
0.0
  0
LINE
  5
FF
330
1F
100
AcDbEntity
  8
0
  6
Continuous
 62
     7
370
    25
100
AcDbLine
 10
774.4021001725
 20
415.8288938271
 30
0.0
 11
774.4021001725
 21
421.8288938271
 31
0.0
  0
LINE
  5
100
330
1F
100
AcDbEntity
  8
0
  6
Continuous
 62
     7
370
    25
100
AcDbLine
 10
774.9433501725
 20
416.9445009114
 30
0.0
 11
774.9433501725
 21
421.2876438271
 31
0.0
  0
LINE
  5
101
330
1F
100
AcDbEntity
  8
0
  6
Continuous
 62
     7
370
    25
100
AcDbLine
 10
774.9433501725
 20
416.3701438271
 30
0.0
 11
774.9433501725
 21
416.9445009114
 31
0.0
  0
LINE
  5
102
330
1F
100
AcDbEntity
  8
0
  6
Continuous
 62
     7
370
    25
100
AcDbLine
 10
60.3224199399
 20
428.8288938271
 30
0.0
 11
765.164280405
 21
428.8288938271
 31
0.0
  0
LINE
  5
103
330
1F
100
AcDbEntity
  8
0
  6
Continuous
 62
     7
370
    25
100
AcDbLine
 10
60.3224199399
 20
427.1288938271
 30
0.0
 11
765.164280405
 21
427.1288938271
 31
0.0
  0
ELLIPSE
  5
104
330
1F
100
AcDbEntity
  8
0
  6
Continuous
 62
     7
370
    25
100
AcDbEllipse
 10
60.3224199399
 20
427.9788938271
 30
0.0
 11
0.0
 21
0.8500000000000227
 31
0.0
210
0.0
220
0.0
230
1.0
 40
0.0930232558
 41
0.0
 42
3.141592653589792
  0
ELLIPSE
  5
105
330
1F
100
AcDbEntity
  8
0
  6
Continuous
 62
     7
370
    25
100
AcDbEllipse
 10
765.164280405
 20
427.9788938271
 30
0.0
 11
0.0
 21
0.8499999999999658
 31
0.0
210
0.0
220
0.0
230
1.0
 40
0.0930232558
 41
3.141592653588355
 42
6.283185307179586
  0
LINE
  5
106
330
1F
100
AcDbEntity
  8
0
  6
Continuous
 62
     7
370
    25
100
AcDbLine
 10
764.2433501725
 20
427.0288938271
 30
0.0
 11
764.2433501725
 21
427.1288938271
 31
0.0
  0
LINE
  5
107
330
1F
100
AcDbEntity
  8
0
  6
Continuous
 62
     7
370
    25
100
AcDbLine
 10
61.2433501725
 20
427.1288938271
 30
0.0
 11
61.2433501725
 21
427.0288938271
 31
0.0
  0
LINE
  5
108
330
1F
100
AcDbEntity
  8
0
  6
Continuous
 62
     7
370
    25
100
AcDbLine
 10
764.2433501725
 20
415.8288938271
 30
0.0
 11
764.2433501725
 21
427.0288938271
 31
0.0
  0
LINE
  5
109
330
1F
100
AcDbEntity
  8
0
  6
Continuous
 62
     7
370
    25
100
AcDbLine
 10
61.2433501725
 20
427.0288938271
 30
0.0
 11
61.2433501725
 21
415.8288938271
 31
0.0
  0
LINE
  5
10A
330
1F
100
AcDbEntity
  8
0
  6
Continuous
 62
     7
370
    25
100
AcDbLine
 10
50.5433501725
 20
421.2876438271
 30
0.0
 11
50.5433501725
 21
416.3701438271
 31
0.0
  0
LINE
  5
10B
330
1F
100
AcDbEntity
  8
0
  6
Continuous
 62
     7
370
    25
100
AcDbLine
 10
51.0846001725
 20
420.1252596734
 30
0.0
 11
51.0846001725
 21
415.8288938271
 31
0.0
  0
LINE
  5
10C
330
1F
100
AcDbEntity
  8
0
  6
Continuous
 62
     7
370
    25
100
AcDbLine
 10
51.0846001725
 20
421.8288938271
 30
0.0
 11
51.0846001725
 21
420.1252596734
 31
0.0
  0
LINE
  5
10D
330
1F
100
AcDbEntity
  8
0
  6
Continuous
 62
     7
370
    25
100
AcDbLine
 10
742.1038114087
 20
419.0933377069
 30
0.0
 11
743.5558871326
 21
419.326281572
 31
0.0
  0
ARC
  5
10E
330
1F
100
AcDbEntity
  8
0
  6
Continuous
 62
     7
370
    25
100
AcDbCircle
 10
754.0688164874
 20
420.4051078377
 30
0.0
 40
12.03669752923855
100
AcDbArc
 50
186.2565722693
 51
191.9710500657
  0
LINE
  5
10F
330
1F
100
AcDbEntity
  8
0
  6
Continuous
 62
     7
370
    25
100
AcDbLine
 10
742.2938867036
 20
417.9084869221
 30
0.0
 11
743.7459624275
 21
418.1414307872
 31
0.0
  0
LINE
  5
110
330
1F
100
AcDbEntity
  8
0
  6
Continuous
 62
     7
370
    25
100
AcDbLine
 10
743.7459624275
 20
418.1414307872
 30
0.0
 11
743.9789062927
 21
416.6893550633
 31
0.0
  0
ARC
  5
111
330
1F
100
AcDbEntity
  8
0
  6
Continuous
 62
     7
370
    25
100
AcDbCircle
 10
742.6671361618
 20
428.6543601421
 30
0.0
 40
12.03669752932217
100
AcDbArc
 50
276.2565722693
 51
281.9710500657
  0
LINE
  5
112
330
1F
100
AcDbEntity
  8
0
  6
Continuous
 62
     7
370
    25
100
AcDbLine
 10
744.9308132123
 20
418.3315060821
 30
0.0
 11
745.1637570775
 21
416.8794303582
 31
0.0
  0
ARC
  5
113
330
1F
100
AcDbEntity
  8
0
  6
Continuous
 62
     7
370
    25
100
AcDbCircle
 10
734.4178838574
 20
417.2526798164
 30
0.0
 40
12.03669752942483
100
AcDbArc
 50
6.2565722694
 51
11.9710500657
  0
LINE
  5
114
330
1F
100
AcDbEntity
  8
0
  6
Continuous
 62
     7
370
    25
100
AcDbLine
 10
744.7407379174
 20
419.516356867
 30
0.0
 11
746.1928136414
 21
419.7493007321
 31
0.0
  0
ARC
  5
115
330
1F
100
AcDbEntity
  8
0
  6
Continuous
 62
     7
370
    25
100
AcDbCircle
 10
745.8195641831
 20
409.003427512
 30
0.0
 40
12.03669752935138
100
AcDbArc
 50
96.2565722693
 51
101.9710500657
  0
ARC
  5
116
330
1F
100
AcDbEntity
  8
0
  6
Continuous
 62
     7
370
    25
100
AcDbCircle
 10
744.2433501725
 20
418.8288938271
 30
0.0
 40
3.999999999999964
100
AcDbArc
 50
311.4096221093
 51
99.1138111675
  0
ARC
  5
117
330
1F
100
AcDbEntity
  8
0
  6
Continuous
 62
     7
370
    25
100
AcDbCircle
 10
744.2433501725
 20
418.8288938271
 30
0.0
 40
4.000000000000039
100
AcDbArc
 50
99.1138111675
 51
228.5903778907
  0
LINE
  5
118
330
1F
100
AcDbEntity
  8
0
  6
Continuous
 62
     7
370
    25
100
AcDbLine
 10
744.9308132123
 20
418.3315060821
 30
0.0
 11
746.3828889363
 21
418.5644499473
 31
0.0
  0
LINE
  5
119
330
1F
100
AcDbEntity
  8
0
  6
Continuous
 62
     7
370
    25
100
AcDbLine
 10
743.3229432674
 20
420.778357296
 30
0.0
 11
743.5558871326
 21
419.326281572
 31
0.0
  0
LINE
  5
11A
330
1F
100
AcDbEntity
  8
0
  6
Continuous
 62
     7
370
    25
100
AcDbLine
 10
744.5077940522
 20
420.9684325909
 30
0.0
 11
744.7407379174
 21
419.516356867
 31
0.0
  0
LINE
  5
11B
330
1F
100
AcDbEntity
  8
0
  6
Continuous
 62
     7
370
    25
100
AcDbLine
 10
744.8888442655
 20
419.5401162788
 30
0.0
 11
745.0789195604
 21
418.355265494
 31
0.0
  0
LINE
  5
11C
330
1F
100
AcDbEntity
  8
0
  6
Continuous
 62
     7
370
    25
100
AcDbLine
 10
744.9545726242
 20
418.183399734
 30
0.0
 11
743.7697218394
 21
417.9933244391
 31
0.0
  0
LINE
  5
11D
330
1F
100
AcDbEntity
  8
0
  6
Continuous
 62
     7
370
    25
100
AcDbLine
 10
744.7169785056
 20
419.6644632151
 30
0.0
 11
743.5321277207
 21
419.4743879201
 31
0.0
  0
LINE
  5
11E
330
1F
100
AcDbEntity
  8
0
  6
Continuous
 62
     7
370
    25
100
AcDbLine
 10
743.4077807845
 20
419.3025221602
 30
0.0
 11
743.5978560794
 21
418.1176713754
 31
0.0
  0
LINE
  5
11F
330
1F
100
AcDbEntity
  8
0
  6
Continuous
 62
     7
370
    25
100
AcDbLine
 10
299.1038114087
 20
419.0933377069
 30
0.0
 11
300.5558871326
 21
419.326281572
 31
0.0
  0
ARC
  5
120
330
1F
100
AcDbEntity
  8
0
  6
Continuous
 62
     7
370
    25
100
AcDbCircle
 10
311.0688164875
 20
420.4051078377
 30
0.0
 40
12.03669752933624
100
AcDbArc
 50
186.2565722693
 51
191.9710500657
  0
LINE
  5
121
330
1F
100
AcDbEntity
  8
0
  6
Continuous
 62
     7
370
    25
100
AcDbLine
 10
299.2938867036
 20
417.9084869221
 30
0.0
 11
300.7459624275
 21
418.1414307872
 31
0.0
  0
LINE
  5
122
330
1F
100
AcDbEntity
  8
0
  6
Continuous
 62
     7
370
    25
100
AcDbLine
 10
300.7459624275
 20
418.1414307872
 30
0.0
 11
300.9789062927
 21
416.6893550633
 31
0.0
  0
ARC
  5
123
330
1F
100
AcDbEntity
  8
0
  6
Continuous
 62
     7
370
    25
100
AcDbCircle
 10
299.6671361618
 20
428.6543601421
 30
0.0
 40
12.0366975293161
100
AcDbArc
 50
276.2565722693
 51
281.9710500657
  0
LINE
  5
124
330
1F
100
AcDbEntity
  8
0
  6
Continuous
 62
     7
370
    25
100
AcDbLine
 10
301.9308132123
 20
418.3315060821
 30
0.0
 11
302.1637570775
 21
416.8794303582
 31
0.0
  0
ARC
  5
125
330
1F
100
AcDbEntity
  8
0
  6
Continuous
 62
     7
370
    25
100
AcDbCircle
 10
291.4178838574
 20
417.2526798164
 30
0.0
 40
12.03669752936445
100
AcDbArc
 50
6.2565722694
 51
11.9710500657
  0
LINE
  5
126
330
1F
100
AcDbEntity
  8
0
  6
Continuous
 62
     7
370
    25
100
AcDbLine
 10
301.7407379174
 20
419.516356867
 30
0.0
 11
303.1928136414
 21
419.7493007321
 31
0.0
  0
ARC
  5
127
330
1F
100
AcDbEntity
  8
0
  6
Continuous
 62
     7
370
    25
100
AcDbCircle
 10
302.8195641831
 20
409.003427512
 30
0.0
 40
12.0366975293487
100
AcDbArc
 50
96.2565722693
 51
101.9710500657
  0
ARC
  5
128
330
1F
100
AcDbEntity
  8
0
  6
Continuous
 62
     7
370
    25
100
AcDbCircle
 10
301.2433501725
 20
418.8288938271
 30
0.0
 40
4.000000000000006
100
AcDbArc
 50
311.4096221093
 51
99.1138111675
  0
ARC
  5
129
330
1F
100
AcDbEntity
  8
0
  6
Continuous
 62
     7
370
    25
100
AcDbCircle
 10
301.2433501725
 20
418.8288938271
 30
0.0
 40
3.999999999999969
100
AcDbArc
 50
99.1138111675
 51
228.5903778907
  0
LINE
  5
12A
330
1F
100
AcDbEntity
  8
0
  6
Continuous
 62
     7
370
    25
100
AcDbLine
 10
300.3229432674
 20
420.778357296
 30
0.0
 11
300.5558871326
 21
419.326281572
 31
0.0
  0
LINE
  5
12B
330
1F
100
AcDbEntity
  8
0
  6
Continuous
 62
     7
370
    25
100
AcDbLine
 10
301.5077940522
 20
420.9684325909
 30
0.0
 11
301.7407379174
 21
419.516356867
 31
0.0
  0
LINE
  5
12C
330
1F
100
AcDbEntity
  8
0
  6
Continuous
 62
     7
370
    25
100
AcDbLine
 10
301.9308132123
 20
418.3315060821
 30
0.0
 11
303.3828889363
 21
418.5644499473
 31
0.0
  0
LINE
  5
12D
330
1F
100
AcDbEntity
  8
0
  6
Continuous
 62
     7
370
    25
100
AcDbLine
 10
301.8888442655
 20
419.5401162788
 30
0.0
 11
302.0789195604
 21
418.355265494
 31
0.0
  0
LINE
  5
12E
330
1F
100
AcDbEntity
  8
0
  6
Continuous
 62
     7
370
    25
100
AcDbLine
 10
301.9545726242
 20
418.183399734
 30
0.0
 11
300.7697218394
 21
417.9933244391
 31
0.0
  0
LINE
  5
12F
330
1F
100
AcDbEntity
  8
0
  6
Continuous
 62
     7
370
    25
100
AcDbLine
 10
301.7169785056
 20
419.6644632151
 30
0.0
 11
300.5321277207
 21
419.4743879201
 31
0.0
  0
LINE
  5
130
330
1F
100
AcDbEntity
  8
0
  6
Continuous
 62
     7
370
    25
100
AcDbLine
 10
300.4077807845
 20
419.3025221602
 30
0.0
 11
300.5978560794
 21
418.1176713754
 31
0.0
  0
LINE
  5
131
330
1F
100
AcDbEntity
  8
0
  6
Continuous
 62
     7
370
    25
100
AcDbLine
 10
522.1038114087
 20
419.0933377069
 30
0.0
 11
523.5558871326
 21
419.326281572
 31
0.0
  0
ARC
  5
132
330
1F
100
AcDbEntity
  8
0
  6
Continuous
 62
     7
370
    25
100
AcDbCircle
 10
534.0688164875
 20
420.4051078377
 30
0.0
 40
12.03669752936425
100
AcDbArc
 50
186.2565722694
 51
191.9710500657
  0
LINE
  5
133
330
1F
100
AcDbEntity
  8
0
  6
Continuous
 62
     7
370
    25
100
AcDbLine
 10
522.2938867036
 20
417.9084869221
 30
0.0
 11
523.7459624275
 21
418.1414307872
 31
0.0
  0
ARC
  5
134
330
1F
100
AcDbEntity
  8
0
  6
Continuous
 62
     7
370
    25
100
AcDbCircle
 10
522.6671361618
 20
428.6543601421
 30
0.0
 40
12.03669752931271
100
AcDbArc
 50
276.2565722693
 51
281.9710500657
  0
ARC
  5
135
330
1F
100
AcDbEntity
  8
0
  6
Continuous
 62
     7
370
    25
100
AcDbCircle
 10
514.4178838574
 20
417.2526798165
 30
0.0
 40
12.03669752932926
100
AcDbArc
 50
6.2565722693
 51
11.9710500657
  0
ARC
  5
136
330
1F
100
AcDbEntity
  8
0
  6
Continuous
 62
     7
370
    25
100
AcDbCircle
 10
525.8195641831
 20
409.003427512
 30
0.0
 40
12.03669752935038
100
AcDbArc
 50
96.2565722693
 51
101.9710500657
  0
ARC
  5
137
330
1F
100
AcDbEntity
  8
0
  6
Continuous
 62
     7
370
    25
100
AcDbCircle
 10
524.2433501725
 20
418.8288938271
 30
0.0
 40
4.000000000000006
100
AcDbArc
 50
311.4096221093
 51
99.1138111675
  0
ARC
  5
138
330
1F
100
AcDbEntity
  8
0
  6
Continuous
 62
     7
370
    25
100
AcDbCircle
 10
524.2433501725
 20
418.8288938271
 30
0.0
 40
4.000000000000006
100
AcDbArc
 50
99.1138111675
 51
228.5903778907
  0
LINE
  5
139
330
1F
100
AcDbEntity
  8
0
  6
Continuous
 62
     7
370
    25
100
AcDbLine
 10
524.7407379174
 20
419.516356867
 30
0.0
 11
526.1928136414
 21
419.7493007321
 31
0.0
  0
LINE
  5
13A
330
1F
100
AcDbEntity
  8
0
  6
Continuous
 62
     7
370
    25
100
AcDbLine
 10
524.9308132123
 20
418.3315060821
 30
0.0
 11
525.1637570775
 21
416.8794303582
 31
0.0
  0
LINE
  5
13B
330
1F
100
AcDbEntity
  8
0
  6
Continuous
 62
     7
370
    25
100
AcDbLine
 10
524.5077940522
 20
420.9684325909
 30
0.0
 11
524.7407379174
 21
419.516356867
 31
0.0
  0
LINE
  5
13C
330
1F
100
AcDbEntity
  8
0
  6
Continuous
 62
     7
370
    25
100
AcDbLine
 10
523.3229432674
 20
420.778357296
 30
0.0
 11
523.5558871326
 21
419.326281572
 31
0.0
  0
LINE
  5
13D
330
1F
100
AcDbEntity
  8
0
  6
Continuous
 62
     7
370
    25
100
AcDbLine
 10
523.7459624275
 20
418.1414307872
 30
0.0
 11
523.9789062927
 21
416.6893550633
 31
0.0
  0
LINE
  5
13E
330
1F
100
AcDbEntity
  8
0
  6
Continuous
 62
     7
370
    25
100
AcDbLine
 10
524.9308132123
 20
418.3315060821
 30
0.0
 11
526.3828889363
 21
418.5644499473
 31
0.0
  0
LINE
  5
13F
330
1F
100
AcDbEntity
  8
0
  6
Continuous
 62
     7
370
    25
100
AcDbLine
 10
524.8888442655
 20
419.5401162788
 30
0.0
 11
525.0789195604
 21
418.355265494
 31
0.0
  0
LINE
  5
140
330
1F
100
AcDbEntity
  8
0
  6
Continuous
 62
     7
370
    25
100
AcDbLine
 10
524.7169785056
 20
419.6644632151
 30
0.0
 11
523.5321277207
 21
419.4743879201
 31
0.0
  0
LINE
  5
141
330
1F
100
AcDbEntity
  8
0
  6
Continuous
 62
     7
370
    25
100
AcDbLine
 10
524.9545726242
 20
418.183399734
 30
0.0
 11
523.7697218394
 21
417.9933244391
 31
0.0
  0
LINE
  5
142
330
1F
100
AcDbEntity
  8
0
  6
Continuous
 62
     7
370
    25
100
AcDbLine
 10
523.4077807845
 20
419.3025221602
 30
0.0
 11
523.5978560794
 21
418.1176713754
 31
0.0
  0
LINE
  5
143
330
1F
100
AcDbEntity
  8
0
  6
Continuous
 62
     7
370
    25
100
AcDbLine
 10
80.3229432674
 20
420.778357296
 30
0.0
 11
80.5558871326
 21
419.326281572
 31
0.0
  0
ARC
  5
144
330
1F
100
AcDbEntity
  8
0
  6
Continuous
 62
     7
370
    25
100
AcDbCircle
 10
91.0688164875
 20
420.4051078377
 30
0.0
 40
12.03669752934674
100
AcDbArc
 50
186.2565722694
 51
191.9710500657
  0
LINE
  5
145
330
1F
100
AcDbEntity
  8
0
  6
Continuous
 62
     7
370
    25
100
AcDbLine
 10
80.7459624275
 20
418.1414307872
 30
0.0
 11
80.9789062927
 21
416.6893550633
 31
0.0
  0
ARC
  5
146
330
1F
100
AcDbEntity
  8
0
  6
Continuous
 62
     7
370
    25
100
AcDbCircle
 10
79.6671361618
 20
428.6543601421
 30
0.0
 40
12.0366975293195
100
AcDbArc
 50
276.2565722693
 51
281.9710500657
  0
LINE
  5
147
330
1F
100
AcDbEntity
  8
0
  6
Continuous
 62
     7
370
    25
100
AcDbLine
 10
81.9308132123
 20
418.3315060821
 30
0.0
 11
82.1637570775
 21
416.8794303582
 31
0.0
  0
LINE
  5
148
330
1F
100
AcDbEntity
  8
0
  6
Continuous
 62
     7
370
    25
100
AcDbLine
 10
81.9308132123
 20
418.3315060821
 30
0.0
 11
83.3828889363
 21
418.5644499473
 31
0.0
  0
ARC
  5
149
330
1F
100
AcDbEntity
  8
0
  6
Continuous
 62
     7
370
    25
100
AcDbCircle
 10
71.4178838574
 20
417.2526798165
 30
0.0
 40
12.03669752935741
100
AcDbArc
 50
6.2565722694
 51
11.9710500657
  0
LINE
  5
14A
330
1F
100
AcDbEntity
  8
0
  6
Continuous
 62
     7
370
    25
100
AcDbLine
 10
81.7407379174
 20
419.516356867
 30
0.0
 11
83.1928136414
 21
419.7493007321
 31
0.0
  0
LINE
  5
14B
330
1F
100
AcDbEntity
  8
0
  6
Continuous
 62
     7
370
    25
100
AcDbLine
 10
81.5077940522
 20
420.9684325909
 30
0.0
 11
81.7407379174
 21
419.516356867
 31
0.0
  0
ARC
  5
14C
330
1F
100
AcDbEntity
  8
0
  6
Continuous
 62
     7
370
    25
100
AcDbCircle
 10
82.8195641831
 20
409.003427512
 30
0.0
 40
12.03669752934703
100
AcDbArc
 50
96.2565722693
 51
101.9710500657
  0
ARC
  5
14D
330
1F
100
AcDbEntity
  8
0
  6
Continuous
 62
     7
370
    25
100
AcDbCircle
 10
81.2433501725
 20
418.8288938271
 30
0.0
 40
3.999999999999969
100
AcDbArc
 50
311.4096221093
 51
99.1138111675
  0
ARC
  5
14E
330
1F
100
AcDbEntity
  8
0
  6
Continuous
 62
     7
370
    25
100
AcDbCircle
 10
81.2433501725
 20
418.8288938271
 30
0.0
 40
4.000000000000002
100
AcDbArc
 50
99.1138111675
 51
228.5903778907
  0
LINE
  5
14F
330
1F
100
AcDbEntity
  8
0
  6
Continuous
 62
     7
370
    25
100
AcDbLine
 10
79.2938867036
 20
417.9084869221
 30
0.0
 11
80.7459624275
 21
418.1414307872
 31
0.0
  0
LINE
  5
150
330
1F
100
AcDbEntity
  8
0
  6
Continuous
 62
     7
370
    25
100
AcDbLine
 10
79.1038114087
 20
419.0933377069
 30
0.0
 11
80.5558871326
 21
419.326281572
 31
0.0
  0
LINE
  5
151
330
1F
100
AcDbEntity
  8
0
  6
Continuous
 62
     7
370
    25
100
AcDbLine
 10
81.8888442655
 20
419.5401162788
 30
0.0
 11
82.0789195604
 21
418.355265494
 31
0.0
  0
LINE
  5
152
330
1F
100
AcDbEntity
  8
0
  6
Continuous
 62
     7
370
    25
100
AcDbLine
 10
81.7169785056
 20
419.6644632151
 30
0.0
 11
80.5321277207
 21
419.4743879201
 31
0.0
  0
LINE
  5
153
330
1F
100
AcDbEntity
  8
0
  6
Continuous
 62
     7
370
    25
100
AcDbLine
 10
81.9545726242
 20
418.183399734
 30
0.0
 11
80.7697218394
 21
417.9933244391
 31
0.0
  0
LINE
  5
154
330
1F
100
AcDbEntity
  8
0
  6
Continuous
 62
     7
370
    25
100
AcDbLine
 10
80.4077807845
 20
419.3025221602
 30
0.0
 11
80.5978560794
 21
418.1176713754
 31
0.0
  0
SPLINE
  5
155
330
1F
100
AcDbEntity
  8
0
  6
Continuous
 62
     7
370
    25
100
AcDbSpline
210
0.0
220
0.0
230
1.0
 70
    24
 71
     3
 72
    18
 73
    14
 74
     0
 42
0.000000001
 43
0.00000001
 40
0.0
 40
0.0
 40
0.0
 40
0.0
 40
0.1395442450004755
 40
0.2146633576115607
 40
0.2913766055701594
 40
0.3680898535287578
 40
0.4432089661398433
 40
0.582753211140318
 40
0.7222974561407931
 40
0.7974165687518794
 40
0.874129816710477
 40
0.9508430646690749
 40
1.0
 40
1.0
 40
1.0
 40
1.0
 10
61.54335017247747
 20
438.5983657703269
 30
0.0
 10
61.54335017247747
 20
438.9834966622525
 30
0.0
 10
61.54335017247742
 20
439.5759502627606
 30
0.0
 10
61.54335017247753
 20
440.8118644441456
 30
0.0
 10
61.54335017247753
 20
441.8878940565004
 30
0.0
 10
61.54335017247753
 20
443.0514221770492
 30
0.0
 10
61.54335017247742
 20
444.5718693680674
 30
0.0
 10
61.54335017247742
 20
446.3960593660742
 30
0.0
 10
61.54335017247753
 20
447.9112943206666
 30
0.0
 10
61.54335017247742
 20
448.8290416190965
 30
0.0
 10
61.54335017247753
 20
449.3326584374502
 30
0.0
 10
61.54335017247753
 20
449.60479556219
 30
0.0
 10
61.54335017247753
 20
449.6028877193041
 30
0.0
 10
61.54335017247747
 20
449.6021426364981
 30
0.0
  0
SPLINE
  5
156
330
1F
100
AcDbEntity
  8
0
  6
Continuous
 62
     7
370
    25
100
AcDbSpline
210
0.0
220
0.0
230
1.0
 70
     8
 71
     3
 72
     8
 73
     4
 74
     0
 42
0.000000001
 43
0.00000001
 40
0.0
 40
0.0
 40
0.0
 40
0.0
 40
1.0
 40
1.0
 40
1.0
 40
1.0
 10
65.54335017247037
 20
441.004224415961
 30
0.0
 10
65.54335017247037
 20
441.8172139876661
 30
0.0
 10
65.36903487209112
 20
442.6079523837339
 30
0.0
 10
65.09676818507903
 20
443.3861873822107
 30
0.0
  0
SPLINE
  5
157
330
1F
100
AcDbEntity
  8
0
  6
Continuous
 62
     7
370
    25
100
AcDbSpline
210
0.0
220
0.0
230
1.0
 70
     8
 71
     3
 72
     8
 73
     4
 74
     0
 42
0.000000001
 43
0.00000001
 40
0.0
 40
0.0
 40
0.0
 40
0.0
 40
1.0
 40
1.0
 40
1.0
 40
1.0
 10
65.09676818507903
 20
438.6222614497112
 30
0.0
 10
65.36903487209045
 20
439.4004964481861
 30
0.0
 10
65.54335017247037
 20
440.1912348442578
 30
0.0
 10
65.54335017247037
 20
441.004224415961
 30
0.0
  0
LINE
  5
158
330
1F
100
AcDbEntity
  8
0
  6
Continuous
 62
     7
370
    25
100
AcDbLine
 10
61.5433501725
 20
438.6222614497
 30
0.0
 11
65.0967681851
 21
438.6222614497
 31
0.0
  0
LINE
  5
159
330
1F
100
AcDbEntity
  8
0
  6
Continuous
 62
     7
370
    25
100
AcDbLine
 10
65.0967681851
 20
443.3861873822
 30
0.0
 11
61.5433501725
 21
443.3861873822
 31
0.0
  0
SPLINE
  5
15A
330
1F
100
AcDbEntity
  8
0
  6
Continuous
 62
     7
370
    25
100
AcDbSpline
210
0.0
220
0.0
230
1.0
 70
     8
 71
     3
 72
     8
 73
     4
 74
     0
 42
0.000000001
 43
0.00000001
 40
0.0
 40
0.0
 40
0.0
 40
0.0
 40
1.0
 40
1.0
 40
1.0
 40
1.0
 10
65.54335017247031
 20
445.9895035709075
 30
0.0
 10
65.54335017247031
 20
446.8780433774633
 30
0.0
 10
65.3690348720909
 20
447.7422642308823
 30
0.0
 10
65.09676818507903
 20
448.5928197595974
 30
0.0
  0
SPLINE
  5
15B
330
1F
100
AcDbEntity
  8
0
  6
Continuous
 62
     7
370
    25
100
AcDbSpline
210
0.0
220
0.0
230
1.0
 70
     8
 71
     3
 72
     8
 73
     4
 74
     0
 42
0.000000001
 43
0.00000001
 40
0.0
 40
0.0
 40
0.0
 40
0.0
 40
1.0
 40
1.0
 40
1.0
 40
1.0
 10
65.09676818507903
 20
443.3861873822175
 30
0.0
 10
65.36903487209051
 20
444.2367429109313
 30
0.0
 10
65.54335017247031
 20
445.100963764353
 30
0.0
 10
65.54335017247031
 20
445.9895035709075
 30
0.0
  0
LINE
  5
15C
330
1F
100
AcDbEntity
  8
0
  6
Continuous
 62
     7
370
    25
100
AcDbLine
 10
61.5433501725
 20
448.5928197596
 30
0.0
 11
65.0967681851
 21
448.5928197596
 31
0.0
  0
LINE
  5
15D
330
1F
100
AcDbEntity
  8
0
  6
Continuous
 62
     7
370
    25
100
AcDbLine
 10
65.5433501725
 20
441.004224416
 30
0.0
 11
65.5433501725
 21
445.9895035709
 31
0.0
  0
SPLINE
  5
15E
330
1F
100
AcDbEntity
  8
0
  6
Continuous
 62
     7
370
    25
100
AcDbSpline
210
0.0
220
0.0
230
1.0
 70
     8
 71
     3
 72
     8
 73
     4
 74
     0
 42
0.000000001
 43
0.00000001
 40
0.0
 40
0.0
 40
0.0
 40
0.0
 40
1.0
 40
1.0
 40
1.0
 40
1.0
 10
65.09676818507914
 20
448.5928197596011
 30
0.0
 10
65.36903487209057
 20
448.6651402898399
 30
0.0
 10
65.54335017247048
 20
448.7386227471904
 30
0.0
 10
65.54335017247048
 20
448.8141729820416
 30
0.0
  0
LINE
  5
15F
330
1F
100
AcDbEntity
  8
0
  6
Continuous
 62
     7
370
    25
100
AcDbLine
 10
65.5433501725
 20
445.9895035709
 30
0.0
 11
65.5433501725
 21
448.814172982
 31
0.0
  0
SPLINE
  5
160
330
1F
100
AcDbEntity
  8
0
  6
Continuous
 62
     7
370
    25
100
AcDbSpline
210
0.0
220
0.0
230
1.0
 70
     8
 71
     3
 72
     8
 73
     4
 74
     0
 42
0.000000001
 43
0.00000001
 40
0.0
 40
0.0
 40
0.0
 40
0.0
 40
1.0
 40
1.0
 40
1.0
 40
1.0
 10
65.54335017247048
 20
438.8436146721489
 30
0.0
 10
65.54335017247048
 20
438.7680644372975
 30
0.0
 10
65.36903487209106
 20
438.6945819799474
 30
0.0
 10
65.09676818507909
 20
438.6222614497084
 30
0.0
  0
LINE
  5
161
330
1F
100
AcDbEntity
  8
0
  6
Continuous
 62
     7
370
    25
100
AcDbLine
 10
65.5433501725
 20
441.004224416
 30
0.0
 11
65.5433501725
 21
438.8362213333
 31
0.0
  0
SPLINE
  5
162
330
1F
100
AcDbEntity
  8
0
  6
Continuous
 62
     7
370
    25
100
AcDbSpline
210
0.0
220
0.0
230
1.0
 70
     8
 71
     3
 72
     8
 73
     4
 74
     0
 42
0.000000001
 43
0.00000001
 40
0.0
 40
0.0
 40
0.0
 40
0.0
 40
1.0
 40
1.0
 40
1.0
 40
1.0
 10
65.54335017247048
 20
448.8141729820416
 30
0.0
 10
65.54335017247048
 20
448.8897232168929
 30
0.0
 10
65.36903487209106
 20
448.9632056742431
 30
0.0
 10
65.09676818507909
 20
449.035526204482
 30
0.0
  0
LINE
  5
163
330
1F
100
AcDbEntity
  8
0
  6
Continuous
 62
     7
370
    25
100
AcDbLine
 10
61.5433501725
 20
449.0355262045
 30
0.0
 11
65.0967681851
 21
449.0355262045
 31
0.0
  0
LINE
  5
164
330
1F
100
AcDbEntity
  8
0
  6
Continuous
 62
     7
370
    25
100
AcDbLine
 10
51.0846001725
 20
445.1252596734
 30
0.0
 11
51.0846001725
 21
440.8288938271
 31
0.0
  0
LINE
  5
165
330
1F
100
AcDbEntity
  8
0
  6
Continuous
 62
     7
370
    25
100
AcDbLine
 10
51.0846001725
 20
446.8288938271
 30
0.0
 11
51.0846001725
 21
445.1252596734
 31
0.0
  0
LINE
  5
166
330
1F
100
AcDbEntity
  8
0
  6
Continuous
 62
     7
370
    25
100
AcDbLine
 10
50.5433501725
 20
446.2876438271
 30
0.0
 11
50.5433501725
 21
441.3701438271
 31
0.0
  0
LINE
  5
167
330
1F
100
AcDbEntity
  8
0
  6
Continuous
 62
     7
370
    25
100
AcDbLine
 10
917.8324411911
 20
415.050267155
 30
0.0
 11
918.1953789695
 21
415.6788938271
 31
0.0
  0
LINE
  5
168
330
1F
100
AcDbEntity
  8
0
  6
Continuous
 62
     7
370
    25
100
AcDbLine
 10
918.1953789695
 20
421.9788938271
 30
0.0
 11
917.8324411911
 21
422.6075204992
 31
0.0
  0
ARC
  5
169
330
1F
100
AcDbEntity
  8
0
  6
Continuous
 62
     7
370
    25
100
AcDbCircle
 10
914.9671757392
 20
418.8288938271
 30
0.0
 40
8.000000000000066
100
AcDbArc
 50
330.0
 51
344.7252520003
  0
ARC
  5
16A
330
1F
100
AcDbEntity
  8
0
  6
Continuous
 62
     7
370
    25
100
AcDbCircle
 10
914.9671757392
 20
418.8288938271
 30
0.0
 40
8.000000000000066
100
AcDbArc
 50
15.2747479997
 51
30.0
  0
LINE
  5
16B
330
1F
100
AcDbEntity
  8
0
  6
Continuous
 62
     7
370
    25
100
AcDbLine
 10
919.8953789695
 20
414.8288938271
 30
0.0
 11
921.8953789695
 21
414.8288938271
 31
0.0
  0
LINE
  5
16C
330
1F
100
AcDbEntity
  8
0
  6
Continuous
 62
     7
370
    25
100
AcDbLine
 10
921.8953789695
 20
422.8288938271
 30
0.0
 11
919.8953789695
 21
422.8288938271
 31
0.0
  0
LINE
  5
16D
330
1F
100
AcDbEntity
  8
0
  6
Continuous
 62
     7
370
    25
100
AcDbLine
 10
918.1953789695
 20
416.8288938271
 30
0.0
 11
918.2953789695
 21
416.8288938271
 31
0.0
  0
LINE
  5
16E
330
1F
100
AcDbEntity
  8
0
  6
Continuous
 62
     7
370
    25
100
AcDbLine
 10
918.2953789695
 20
420.8288938271
 30
0.0
 11
918.1953789695
 21
420.8288938271
 31
0.0
  0
LINE
  5
16F
330
1F
100
AcDbEntity
  8
0
  6
Continuous
 62
     7
370
    25
100
AcDbLine
 10
925.1953789695
 20
414.358183149
 30
0.0
 11
925.1953789695
 21
121.2996045052
 31
0.0
  0
LINE
  5
170
330
1F
100
AcDbEntity
  8
0
  6
Continuous
 62
     7
370
    25
100
AcDbLine
 10
934.7953789695
 20
414.358183149
 30
0.0
 11
925.1953789695
 21
414.358183149
 31
0.0
  0
LINE
  5
171
330
1F
100
AcDbEntity
  8
0
  6
Continuous
 62
     7
370
    25
100
AcDbLine
 10
934.7953789695
 20
121.2996045052
 30
0.0
 11
925.1953789695
 21
121.2996045052
 31
0.0
  0
SPLINE
  5
172
330
1F
100
AcDbEntity
  8
0
  6
Continuous
 62
     7
370
    25
100
AcDbSpline
210
0.0
220
0.0
230
1.0
 70
     8
 71
     3
 72
    20
 73
    16
 74
     0
 42
0.000000001
 43
0.00000001
 40
0.0
 40
0.0
 40
0.0
 40
0.0
 40
0.1249999999999981
 40
0.1249999999999981
 40
0.2499999999999962
 40
0.2499999999999962
 40
0.3749999999999943
 40
0.3749999999999943
 40
0.4999999999999924
 40
0.4999999999999924
 40
0.7499999999999936
 40
0.7499999999999936
 40
0.8749999999999968
 40
0.8749999999999968
 40
1.0
 40
1.0
 40
1.0
 40
1.0
 10
934.7953789694661
 20
414.3581831489745
 30
0.0
 10
934.9537581571169
 20
414.31914241812
 30
0.0
 10
935.1100038818086
 20
414.2806237139201
 30
0.0
 10
935.4179957312252
 20
414.2032169626123
 30
0.0
 10
935.5706398386964
 20
414.1640725446255
 30
0.0
 10
935.8597241278834
 20
414.0869217907104
 30
0.0
 10
935.9975286660674
 20
414.0485942089693
 30
0.0
 10
936.2591473417064
 20
413.9710478884928
 30
0.0
 10
936.381893648389
 20
413.9320716808242
 30
0.0
 10
936.7132180253367
 20
413.8165768243791
 30
0.0
 10
936.8922291493649
 20
413.7386643807091
 30
0.0
 10
937.0718442487458
 20
413.6231844553081
 30
0.0
 10
937.1180885976135
 20
413.5843186594431
 30
0.0
 10
937.1798419036248
 20
413.5065443257746
 30
0.0
 10
937.1953789694661
 20
413.4679345588198
 30
0.0
 10
937.1953789694661
 20
413.4288938270931
 30
0.0
  0
LINE
  5
173
330
1F
100
AcDbEntity
  8
0
  6
Continuous
 62
     7
370
    25
100
AcDbLine
 10
937.1953789695
 20
413.4288938271
 30
0.0
 11
937.1953789695
 21
122.2288938271
 31
0.0
  0
SPLINE
  5
174
330
1F
100
AcDbEntity
  8
0
  6
Continuous
 62
     7
370
    25
100
AcDbSpline
210
0.0
220
0.0
230
1.0
 70
     8
 71
     3
 72
    20
 73
    16
 74
     0
 42
0.000000001
 43
0.00000001
 40
0.0
 40
0.0
 40
0.0
 40
0.0
 40
0.1249999999999906
 40
0.1249999999999906
 40
0.2499999999999812
 40
0.2499999999999812
 40
0.3749999999999719
 40
0.3749999999999719
 40
0.4999999999999625
 40
0.4999999999999625
 40
0.7499999999999732
 40
0.7499999999999732
 40
0.8749999999999866
 40
0.8749999999999866
 40
1.0
 40
1.0
 40
1.0
 40
1.0
 10
937.1953789694661
 20
122.2288938270931
 30
0.0
 10
937.1953789694661
 20
122.1898530962385
 30
0.0
 10
937.1798424089914
 20
122.1513343920387
 30
0.0
 10
937.1185240570306
 20
122.0739276407308
 30
0.0
 10
937.0721003114439
 20
122.0347832227441
 30
0.0
 10
936.9521494412897
 20
121.9576324688289
 30
0.0
 10
936.8785447970064
 20
121.9193048870879
 30
0.0
 10
936.7038144309108
 20
121.8417585666114
 30
0.0
 10
936.6029638020093
 20
121.8027823589427
 30
0.0
 10
936.2716785220254
 20
121.6872875024976
 30
0.0
 10
936.0039983606413
 20
121.6093750588276
 30
0.0
 10
935.5713243345859
 20
121.4938951334267
 30
0.0
 10
935.4198062477348
 20
121.4550293375617
 30
0.0
 10
935.1103804903487
 20
121.3772550038932
 30
0.0
 10
934.953758160655
 20
121.3386452369384
 30
0.0
 10
934.7953789694661
 20
121.2996045052118
 30
0.0
  0
SPLINE
  5
175
330
1F
100
AcDbEntity
  8
0
  6
Continuous
 62
     7
370
    25
100
AcDbSpline
210
0.0
220
0.0
230
1.0
 70
     8
 71
     3
 72
    20
 73
    16
 74
     0
 42
0.000000001
 43
0.00000001
 40
0.0
 40
0.0
 40
0.0
 40
0.0
 40
0.1250000000000037
 40
0.1250000000000037
 40
0.2500000000000074
 40
0.2500000000000074
 40
0.3750000000000112
 40
0.3750000000000112
 40
0.5000000000000149
 40
0.5000000000000149
 40
0.7500000000000074
 40
0.7500000000000074
 40
0.8750000000000036
 40
0.8750000000000036
 40
1.0
 40
1.0
 40
1.0
 40
1.0
 10
937.1953789694661
 20
413.428893827093
 30
0.0
 10
937.1953789694661
 20
413.5872730147437
 30
0.0
 10
937.1798424089914
 20
413.7435187394355
 30
0.0
 10
937.1185240570306
 20
414.0515105888521
 30
0.0
 10
937.0721003114439
 20
414.2041546963234
 30
0.0
 10
936.9521494412897
 20
414.4932389855105
 30
0.0
 10
936.8785447970064
 20
414.6310435236944
 30
0.0
 10
936.7038144309108
 20
414.8926621993334
 30
0.0
 10
936.6029638020093
 20
415.015408506016
 30
0.0
 10
936.2716785220252
 20
415.3467328829637
 30
0.0
 10
936.0039983606414
 20
415.5257440069919
 30
0.0
 10
935.571324334586
 20
415.7053591063727
 30
0.0
 10
935.4198062477348
 20
415.7516034552403
 30
0.0
 10
935.1103804903487
 20
415.8133567612516
 30
0.0
 10
934.9537581606548
 20
415.8288938270931
 30
0.0
 10
934.7953789694661
 20
415.8288938270932
 30
0.0
  0
SPLINE
  5
176
330
1F
100
AcDbEntity
  8
0
  6
Continuous
 62
     7
370
    25
100
AcDbSpline
210
0.0
220
0.0
230
1.0
 70
     8
 71
     3
 72
     9
 73
     5
 74
     0
 42
0.000000001
 43
0.00000001
 40
0.0
 40
0.0
 40
0.0
 40
0.0
 40
0.4825784287290348
 40
1.0
 40
1.0
 40
1.0
 40
1.0
 10
935.4079187086442
 20
414.2050640590396
 30
0.0
 10
935.3197843673278
 20
414.2688722521009
 30
0.0
 10
935.1371522062748
 20
414.4010957193402
 30
0.0
 10
934.9119193222303
 20
414.4194150237967
 30
0.0
 10
934.7953789694661
 20
414.4288938270931
 30
0.0
  0
LINE
  5
177
330
1F
100
AcDbEntity
  8
0
  6
Continuous
 62
     7
370
    25
100
AcDbLine
 10
934.7953789695
 20
415.8288938271
 30
0.0
 11
934.7953789695
 21
414.4288938271
 31
0.0
  0
LINE
  5
178
330
1F
100
AcDbEntity
  8
0
  6
Continuous
 62
     7
370
    25
100
AcDbLine
 10
934.7953789695
 20
119.8288938271
 30
0.0
 11
934.7953789695
 21
121.2288938271
 31
0.0
  0
SPLINE
  5
179
330
1F
100
AcDbEntity
  8
0
  6
Continuous
 62
     7
370
    25
100
AcDbSpline
210
0.0
220
0.0
230
1.0
 70
     8
 71
     3
 72
     9
 73
     5
 74
     0
 42
0.000000001
 43
0.00000001
 40
0.0
 40
0.0
 40
0.0
 40
0.0
 40
0.7329379507266304
 40
0.9999999999999999
 40
0.9999999999999999
 40
0.9999999999999999
 40
0.9999999999999999
 10
934.7953789694661
 20
121.2288938270931
 30
0.0
 10
934.9467676111219
 20
121.2406484766109
 30
0.0
 10
935.1533180312574
 20
121.2566861909987
 30
0.0
 10
935.3086783733762
 20
121.3850234974927
 30
0.0
 10
935.3501692247181
 20
121.4192975215632
 30
0.0
  0
SPLINE
  5
17A
330
1F
100
AcDbEntity
  8
0
  6
Continuous
 62
     7
370
    25
100
AcDbSpline
210
0.0
220
0.0
230
1.0
 70
     8
 71
     3
 72
    20
 73
    16
 74
     0
 42
0.000000001
 43
0.00000001
 40
0.0
 40
0.0
 40
0.0
 40
0.0
 40
0.1249999999999976
 40
0.1249999999999976
 40
0.2499999999999949
 40
0.2499999999999949
 40
0.3749999999999923
 40
0.3749999999999923
 40
0.4999999999999897
 40
0.4999999999999897
 40
0.7499999999999949
 40
0.7499999999999949
 40
0.8749999999999974
 40
0.8749999999999974
 40
1.0
 40
1.0
 40
1.0
 40
1.0
 10
934.7953789694661
 20
119.8288938270932
 30
0.0
 10
934.9537581571169
 20
119.8288938270931
 30
0.0
 10
935.1100038818086
 20
119.844430387568
 30
0.0
 10
935.4179957312252
 20
119.9057487395287
 30
0.0
 10
935.5706398386963
 20
119.9521724851154
 30
0.0
 10
935.8597241278833
 20
120.0721233552696
 30
0.0
 10
935.9975286660674
 20
120.1457279995529
 30
0.0
 10
936.2591473417064
 20
120.3204583656485
 30
0.0
 10
936.381893648389
 20
120.4213089945501
 30
0.0
 10
936.7132180253367
 20
120.752594274534
 30
0.0
 10
936.8922291493649
 20
121.0202744359179
 30
0.0
 10
937.0718442487458
 20
121.4529484619733
 30
0.0
 10
937.1180885976135
 20
121.6044665488244
 30
0.0
 10
937.1798419036247
 20
121.9138923062106
 30
0.0
 10
937.1953789694661
 20
122.0705146359043
 30
0.0
 10
937.1953789694661
 20
122.2288938270931
 30
0.0
  0
LINE
  5
17B
330
1F
100
AcDbEntity
  8
0
  6
Continuous
 62
     7
370
    25
100
AcDbLine
 10
934.7953789695
 20
415.8288938271
 30
0.0
 11
925.1953789695
 21
415.8288938271
 31
0.0
  0
LINE
  5
17C
330
1F
100
AcDbEntity
  8
0
  6
Continuous
 62
     7
370
    25
100
AcDbLine
 10
934.7953789695
 20
414.4288938271
 30
0.0
 11
925.1953789695
 21
414.4288938271
 31
0.0
  0
LINE
  5
17D
330
1F
100
AcDbEntity
  8
0
  6
Continuous
 62
     7
370
    25
100
AcDbLine
 10
925.1953789695
 20
415.8288938271
 30
0.0
 11
925.1953789695
 21
414.4288938271
 31
0.0
  0
LINE
  5
17E
330
1F
100
AcDbEntity
  8
0
  6
Continuous
 62
     7
370
    25
100
AcDbLine
 10
934.7953789695
 20
121.2288938271
 30
0.0
 11
925.1953789695
 21
121.2288938271
 31
0.0
  0
LINE
  5
17F
330
1F
100
AcDbEntity
  8
0
  6
Continuous
 62
     7
370
    25
100
AcDbLine
 10
934.7953789695
 20
119.8288938271
 30
0.0
 11
925.1953789695
 21
119.8288938271
 31
0.0
  0
LINE
  5
180
330
1F
100
AcDbEntity
  8
0
  6
Continuous
 62
     7
370
    25
100
AcDbLine
 10
925.1953789695
 20
119.8288938271
 30
0.0
 11
925.1953789695
 21
121.2288938271
 31
0.0
  0
LINE
  5
181
330
1F
100
AcDbEntity
  8
0
  6
Continuous
 62
     7
370
    25
100
AcDbLine
 10
917.0953789695
 20
430.3288938271
 30
0.0
 11
921.0953789695
 21
430.3288938271
 31
0.0
  0
LINE
  5
182
330
1F
100
AcDbEntity
  8
0
  6
Continuous
 62
     7
370
    25
100
AcDbLine
 10
917.0953789695
 20
413.1288938271
 30
0.0
 11
917.0953789695
 21
430.3288938271
 31
0.0
  0
LINE
  5
183
330
1F
100
AcDbEntity
  8
0
  6
Continuous
 62
     7
370
    25
100
AcDbLine
 10
898.0953789695
 20
447.3288938271
 30
0.0
 11
898.0953789695
 21
413.1288938271
 31
0.0
  0
ARC
  5
184
330
1F
100
AcDbEntity
  8
0
  6
Continuous
 62
     7
370
    25
100
AcDbCircle
 10
901.0953789695
 20
447.3288938271
 30
0.0
 40
3.0
100
AcDbArc
 50
90.0
 51
180.0
  0
LINE
  5
185
330
1F
100
AcDbEntity
  8
0
  6
Continuous
 62
     7
370
    25
100
AcDbLine
 10
918.0953789695
 20
450.3288938271
 30
0.0
 11
901.0953789695
 21
450.3288938271
 31
0.0
  0
ARC
  5
186
330
1F
100
AcDbEntity
  8
0
  6
Continuous
 62
     7
370
    25
100
AcDbCircle
 10
918.0953789695
 20
447.3288938271
 30
0.0
 40
3.0
100
AcDbArc
 50
0.0
 51
90.0
  0
LINE
  5
187
330
1F
100
AcDbEntity
  8
0
  6
Continuous
 62
     7
370
    25
100
AcDbLine
 10
921.0953789695
 20
430.3288938271
 30
0.0
 11
921.0953789695
 21
447.3288938271
 31
0.0
  0
CIRCLE
  5
188
330
1F
100
AcDbEntity
  8
0
  6
Continuous
 62
     7
370
    25
100
AcDbCircle
 10
906.5953789695
 20
443.8288938271
 30
0.0
 40
3.249999999999943
  0
CIRCLE
  5
189
330
1F
100
AcDbEntity
  8
0
  6
Continuous
 62
     7
370
    25
100
AcDbCircle
 10
906.5953789695
 20
418.8288938271
 30
0.0
 40
3.249999999999943
  0
LINE
  5
18A
330
1F
100
AcDbEntity
  8
0
  6
Continuous
 62
     7
370
    25
100
AcDbLine
 10
898.0953789695
 20
411.3288938271
 30
0.0
 11
898.0953789695
 21
413.1288938271
 31
0.0
  0
LINE
  5
18B
330
1F
100
AcDbEntity
  8
0
  6
Continuous
 62
     7
370
    25
100
AcDbLine
 10
917.0953789695
 20
413.1288938271
 30
0.0
 11
917.0953789695
 21
411.3288938271
 31
0.0
  0
LINE
  5
18C
330
1F
100
AcDbEntity
  8
0
  6
Continuous
 62
     7
370
    25
100
AcDbLine
 10
917.0953789695
 20
411.3288938271
 30
0.0
 11
898.0953789695
 21
411.3288938271
 31
0.0
  0
LINE
  5
18D
330
1F
100
AcDbEntity
  8
0
  6
Continuous
 62
     7
370
    25
100
AcDbLine
 10
918.2953789695
 20
423.3288938271
 30
0.0
 11
918.2953789695
 21
413.1288938271
 31
0.0
  0
LINE
  5
18E
330
1F
100
AcDbEntity
  8
0
  6
Continuous
 62
     7
370
    25
100
AcDbLine
 10
919.0953789695
 20
423.3288938271
 30
0.0
 11
918.2953789695
 21
423.3288938271
 31
0.0
  0
LINE
  5
18F
330
1F
100
AcDbEntity
  8
0
  6
Continuous
 62
     7
370
    25
100
AcDbLine
 10
917.0953789695
 20
411.3288938271
 30
0.0
 11
917.2953789695
 21
411.3288938271
 31
0.0
  0
LINE
  5
190
330
1F
100
AcDbEntity
  8
0
  6
Continuous
 62
     7
370
    25
100
AcDbLine
 10
917.0953789695
 20
412.1288938271
 30
0.0
 11
917.2953789695
 21
412.1288938271
 31
0.0
  0
ARC
  5
191
330
1F
100
AcDbEntity
  8
0
  6
Continuous
 62
     7
370
    25
100
AcDbCircle
 10
917.2953789695
 20
413.1288938271
 30
0.0
 40
1.800000000000011
100
AcDbArc
 50
270.0
 51
0.0
  0
ARC
  5
192
330
1F
100
AcDbEntity
  8
0
  6
Continuous
 62
     7
370
    25
100
AcDbCircle
 10
917.2953789695
 20
413.1288938271
 30
0.0
 40
1.0
100
AcDbArc
 50
270.0
 51
0.0
  0
LINE
  5
193
330
1F
100
AcDbEntity
  8
0
  6
Continuous
 62
     7
370
    25
100
AcDbLine
 10
874.0953789695
 20
411.3288938271
 30
0.0
 11
874.0953789695
 21
412.1288938271
 31
0.0
  0
LINE
  5
194
330
1F
100
AcDbEntity
  8
0
  6
Continuous
 62
     7
370
    25
100
AcDbLine
 10
877.0953789695
 20
411.3288938271
 30
0.0
 11
874.0953789695
 21
411.3288938271
 31
0.0
  0
LINE
  5
195
330
1F
100
AcDbEntity
  8
0
  6
Continuous
 62
     7
370
    25
100
AcDbLine
 10
874.0953789695
 20
412.1288938271
 30
0.0
 11
877.0953789695
 21
412.1288938271
 31
0.0
  0
LINE
  5
196
330
1F
100
AcDbEntity
  8
0
  6
Continuous
 62
     7
370
    25
100
AcDbLine
 10
877.0953789695
 20
411.3288938271
 30
0.0
 11
898.0953789695
 21
411.3288938271
 31
0.0
  0
LINE
  5
197
330
1F
100
AcDbEntity
  8
0
  6
Continuous
 62
     7
370
    25
100
AcDbLine
 10
877.0953789695
 20
412.1288938271
 30
0.0
 11
898.0953789695
 21
412.1288938271
 31
0.0
  0
LINE
  5
198
330
1F
100
AcDbEntity
  8
0
  6
Continuous
 62
     7
370
    25
100
AcDbLine
 10
878.1907655777
 20
415.5288938271
 30
0.0
 11
884.7084570313
 21
415.5288938271
 31
0.0
  0
LINE
  5
199
330
1F
100
AcDbEntity
  8
0
  6
Continuous
 62
     7
370
    25
100
AcDbLine
 10
878.1907655777
 20
416.3288938271
 30
0.0
 11
884.7084570313
 21
416.3288938271
 31
0.0
  0
LINE
  5
19A
330
1F
100
AcDbEntity
  8
0
  6
Continuous
 62
     7
370
    25
100
AcDbLine
 10
875.1907655777
 20
415.5288938271
 30
0.0
 11
875.1907655777
 21
416.3288938271
 31
0.0
  0
LINE
  5
19B
330
1F
100
AcDbEntity
  8
0
  6
Continuous
 62
     7
370
    25
100
AcDbLine
 10
875.1907655777
 20
416.3288938271
 30
0.0
 11
878.1907655777
 21
416.3288938271
 31
0.0
  0
LINE
  5
19C
330
1F
100
AcDbEntity
  8
0
  6
Continuous
 62
     7
370
    25
100
AcDbLine
 10
878.1907655777
 20
415.5288938271
 30
0.0
 11
875.1907655777
 21
415.5288938271
 31
0.0
  0
ARC
  5
19D
330
1F
100
AcDbEntity
  8
0
  6
Continuous
 62
     7
370
    25
100
AcDbCircle
 10
892.7333281619
 20
413.1288938271
 30
0.0
 40
1.000000000000033
100
AcDbArc
 50
240.0
 51
270.0
  0
LINE
  5
19E
330
1F
100
AcDbEntity
  8
0
  6
Continuous
 62
     7
370
    25
100
AcDbLine
 10
890.8653789695
 20
412.1288938271
 30
0.0
 11
885.2084570313
 21
415.3949192309
 31
0.0
  0
LINE
  5
19F
330
1F
100
AcDbEntity
  8
0
  6
Continuous
 62
     7
370
    25
100
AcDbLine
 10
892.2333281619
 20
412.2628684233
 30
0.0
 11
885.6084570313
 21
416.0877395539
 31
0.0
  0
ARC
  5
1A0
330
1F
100
AcDbEntity
  8
0
  6
Continuous
 62
     7
370
    25
100
AcDbCircle
 10
884.7084570313
 20
414.5288938271
 30
0.0
 40
1.799999999999969
100
AcDbArc
 50
60.0
 51
90.0
  0
ARC
  5
1A1
330
1F
100
AcDbEntity
  8
0
  6
Continuous
 62
     7
370
    25
100
AcDbCircle
 10
884.7084570313
 20
414.5288938271
 30
0.0
 40
0.9999999999999836
100
AcDbArc
 50
60.0
 51
90.0
  0
LINE
  5
1A2
330
1F
100
AcDbEntity
  8
0
  6
Continuous
 62
     7
370
    25
100
AcDbLine
 10
917.0953789695
 20
420.269723149
 30
0.0
 11
917.6806989841
 21
420.269723149
 31
0.0
  0
SPLINE
  5
1A3
330
1F
100
AcDbEntity
  8
0
  6
Continuous
 62
     7
370
    25
100
AcDbSpline
210
0.0
220
0.0
230
1.0
 70
     8
 71
     3
 72
    14
 73
    10
 74
     0
 42
0.000000001
 43
0.00000001
 40
0.0
 40
0.0
 40
0.0
 40
0.0
 40
0.25
 40
0.25
 40
0.5
 40
0.5
 40
0.75
 40
0.75
 40
1.0
 40
1.0
 40
1.0
 40
1.0
 10
917.6806989840801
 20
420.2697231489637
 30
0.0
 10
917.7755735933908
 20
419.9452169196751
 30
0.0
 10
917.8551785182665
 20
419.6127576972808
 30
0.0
 10
917.9640151331607
 20
418.9461877823725
 30
0.0
 10
917.9933387388512
 20
418.6111115250972
 30
0.0
 10
917.9932739571057
 20
417.9367680548696
 30
0.0
 10
917.9631177637792
 20
417.5949886341907
 30
0.0
 10
917.8535325624135
 20
416.9285747145859
 30
0.0
 10
917.7749895886113
 20
416.6018006686332
 30
0.0
 10
917.6806989840801
 20
416.2792919515368
 30
0.0
  0
LINE
  5
1A4
330
1F
100
AcDbEntity
  8
0
  6
Continuous
 62
     7
370
    25
100
AcDbLine
 10
917.0953789695
 20
416.2792919515
 30
0.0
 11
917.6806989841
 21
416.2792919515
 31
0.0
  0
SPLINE
  5
1A5
330
1F
100
AcDbEntity
  8
0
  6
Continuous
 62
     7
370
    25
100
AcDbSpline
210
0.0
220
0.0
230
1.0
 70
     8
 71
     3
 72
    12
 73
     8
 74
     0
 42
0.000000001
 43
0.00000001
 40
0.0
 40
0.0
 40
0.0
 40
0.0
 40
0.5000000000000152
 40
0.5000000000000152
 40
0.7500000000000075
 40
0.7500000000000075
 40
1.0
 40
1.0
 40
1.0
 40
1.0
 10
917.6806989840811
 20
414.8384626296663
 30
0.0
 10
917.8711932735047
 20
415.0737224221094
 30
0.0
 10
917.9928676865669
 20
415.3125071149599
 30
0.0
 10
917.9935238770983
 20
415.679998647517
 30
0.0
 10
917.9636898753039
 20
415.8023708421663
 30
0.0
 10
917.8547600051962
 20
416.0427545273258
 30
0.0
 10
917.7760648181334
 20
416.1615154743873
 30
0.0
 10
917.6806989840807
 20
416.2792919515369
 30
0.0
  0
SPLINE
  5
1A6
330
1F
100
AcDbEntity
  8
0
  6
Continuous
 62
     7
370
    25
100
AcDbSpline
210
0.0
220
0.0
230
1.0
 70
     8
 71
     3
 72
    12
 73
     8
 74
     0
 42
0.000000001
 43
0.00000001
 40
0.0
 40
0.0
 40
0.0
 40
0.0
 40
0.5000000000000064
 40
0.5000000000000064
 40
0.7500000000000032
 40
0.7500000000000032
 40
1.0
 40
1.0
 40
1.0
 40
1.0
 10
917.6806989840811
 20
420.2697231489636
 30
0.0
 10
917.8711932735047
 20
420.6860242326181
 30
0.0
 10
917.9928676865669
 20
421.1085627606066
 30
0.0
 10
917.9935238770983
 20
421.7588529000674
 30
0.0
 10
917.9636898753039
 20
421.9753951179818
 30
0.0
 10
917.8547600051962
 20
422.4007631232222
 30
0.0
 10
917.7760648181334
 20
422.6109151022074
 30
0.0
 10
917.6806989840807
 20
422.8193250245201
 30
0.0
  0
LINE
  5
1A7
330
1F
100
AcDbEntity
  8
0
  6
Continuous
 62
     7
370
    25
100
AcDbLine
 10
917.6806989841
 20
422.8193250245
 30
0.0
 11
917.7785740213
 21
422.5764202742
 31
0.0
  0
LINE
  5
1A8
330
1F
100
AcDbEntity
  8
0
  6
Continuous
 62
     7
370
    25
100
AcDbLine
 10
918.1953789695
 20
418.3299461779
 30
0.0
 11
918.1953789695
 21
415.6788938271
 31
0.0
  0
LINE
  5
1A9
330
1F
100
AcDbEntity
  8
0
  6
Continuous
 62
     7
370
    25
100
AcDbLine
 10
918.1953789695
 20
421.9788938271
 30
0.0
 11
918.1953789695
 21
418.3299461779
 31
0.0
  0
LINE
  5
1AA
330
1F
100
AcDbEntity
  8
0
  6
Continuous
 62
     7
370
    25
100
AcDbLine
 10
917.0953789695
 20
422.8193250245
 30
0.0
 11
917.6806989841
 21
422.8193250245
 31
0.0
  0
LINE
  5
1AB
330
1F
100
AcDbEntity
  8
0
  6
Continuous
 62
     7
370
    25
100
AcDbLine
 10
917.0953789695
 20
414.8384626297
 30
0.0
 11
917.6806989841
 21
414.8384626297
 31
0.0
  0
LINE
  5
1AC
330
1F
100
AcDbEntity
  8
0
  6
Continuous
 62
     7
370
    25
100
AcDbLine
 10
920.8953789695
 20
408.8288938271
 30
0.0
 11
920.8953789695
 21
409.6288938271
 31
0.0
  0
LINE
  5
1AD
330
1F
100
AcDbEntity
  8
0
  6
Continuous
 62
     7
370
    25
100
AcDbLine
 10
925.1953789695
 20
409.6288938271
 30
0.0
 11
920.8953789695
 21
409.6288938271
 31
0.0
  0
LINE
  5
1AE
330
1F
100
AcDbEntity
  8
0
  6
Continuous
 62
     7
370
    25
100
AcDbLine
 10
925.1953789695
 20
408.8288938271
 30
0.0
 11
920.8953789695
 21
408.8288938271
 31
0.0
  0
LINE
  5
1AF
330
1F
100
AcDbEntity
  8
0
  6
Continuous
 62
     7
370
    25
100
AcDbLine
 10
925.6453789695
 20
427.1288938271
 30
0.0
 11
930.7953789695
 21
427.1288938271
 31
0.0
  0
LINE
  5
1B0
330
1F
100
AcDbEntity
  8
0
  6
Continuous
 62
     7
370
    25
100
AcDbLine
 10
925.6453789695
 20
427.9288938271
 30
0.0
 11
925.6453789695
 21
427.1288938271
 31
0.0
  0
LINE
  5
1B1
330
1F
100
AcDbEntity
  8
0
  6
Continuous
 62
     7
370
    25
100
AcDbLine
 10
925.6453789695
 20
427.9288938271
 30
0.0
 11
930.7953789695
 21
427.9288938271
 31
0.0
  0
LINE
  5
1B2
330
1F
100
AcDbEntity
  8
0
  6
Continuous
 62
     7
370
    25
100
AcDbLine
 10
930.7953789695
 20
427.9288938271
 30
0.0
 11
930.7953789695
 21
428.0288938271
 31
0.0
  0
LINE
  5
1B3
330
1F
100
AcDbEntity
  8
0
  6
Continuous
 62
     7
370
    25
100
AcDbLine
 10
920.8953789695
 20
428.0288938271
 30
0.0
 11
930.7953789695
 21
428.0288938271
 31
0.0
  0
LINE
  5
1B4
330
1F
100
AcDbEntity
  8
0
  6
Continuous
 62
     7
370
    25
100
AcDbLine
 10
920.8953789695
 20
428.0288938271
 30
0.0
 11
920.8953789695
 21
428.8288938271
 31
0.0
  0
LINE
  5
1B5
330
1F
100
AcDbEntity
  8
0
  6
Continuous
 62
     7
370
    25
100
AcDbLine
 10
930.7953789695
 20
428.8288938271
 30
0.0
 11
920.8953789695
 21
428.8288938271
 31
0.0
  0
ARC
  5
1B6
330
1F
100
AcDbEntity
  8
0
  6
Continuous
 62
     7
370
    25
100
AcDbCircle
 10
930.7953789695
 20
427.9788938271
 30
0.0
 40
0.8500000000000227
100
AcDbArc
 50
270.0
 51
90.0
  0
ARC
  5
1B7
330
1F
100
AcDbEntity
  8
0
  6
Continuous
 62
     7
370
    25
100
AcDbCircle
 10
920.8953789695
 20
410.6288938271
 30
0.0
 40
1.800000000000239
100
AcDbArc
 50
180.0
 51
270.0
  0
ARC
  5
1B8
330
1F
100
AcDbEntity
  8
0
  6
Continuous
 62
     7
370
    25
100
AcDbCircle
 10
920.8953789695
 20
427.0288938271
 30
0.0
 40
1.800000000000068
100
AcDbArc
 50
90.0
 51
180.0
  0
LINE
  5
1B9
330
1F
100
AcDbEntity
  8
0
  6
Continuous
 62
     7
370
    25
100
AcDbLine
 10
919.0953789695
 20
410.6288938271
 30
0.0
 11
919.0953789695
 21
427.0288938271
 31
0.0
  0
ARC
  5
1BA
330
1F
100
AcDbEntity
  8
0
  6
Continuous
 62
     7
370
    25
100
AcDbCircle
 10
920.8953789695
 20
410.6288938271
 30
0.0
 40
1.000000000000114
100
AcDbArc
 50
180.0
 51
270.0
  0
ARC
  5
1BB
330
1F
100
AcDbEntity
  8
0
  6
Continuous
 62
     7
370
    25
100
AcDbCircle
 10
920.8953789695
 20
427.0288938271
 30
0.0
 40
1.000000000000114
100
AcDbArc
 50
90.0
 51
180.0
  0
LINE
  5
1BC
330
1F
100
AcDbEntity
  8
0
  6
Continuous
 62
     7
370
    25
100
AcDbLine
 10
919.8953789695
 20
427.0288938271
 30
0.0
 11
919.8953789695
 21
410.6288938271
 31
0.0
  0
CIRCLE
  5
1BD
330
1F
100
AcDbEntity
  8
0
  6
Continuous
 62
     7
370
    25
100
AcDbCircle
 10
906.5953789695
 20
418.8288938271
 30
0.0
 40
2.458750000016599
  0
CIRCLE
  5
1BE
330
1F
100
AcDbEntity
  8
0
  6
Continuous
 62
     7
370
    25
100
AcDbCircle
 10
906.5953789695
 20
418.8288938271
 30
0.0
 40
3.000000000000015
  0
ARC
  5
1BF
330
1F
100
AcDbEntity
  8
0
  6
Continuous
 62
     7
370
    25
100
AcDbCircle
 10
915.1583990717
 20
418.7329558072
 30
0.0
 40
7.786288415103551
100
AcDbArc
 50
4.3702527065
 51
15.2299003794
  0
ARC
  5
1C0
330
1F
100
AcDbEntity
  8
0
  6
Continuous
 62
     7
370
    25
100
AcDbCircle
 10
922.3976555353
 20
419.6394094095
 30
0.0
 40
0.6107675350093933
100
AcDbArc
 50
296.6101963367
 51
329.1575418586
  0
ARC
  5
1C1
330
1F
100
AcDbEntity
  8
0
  6
Continuous
 62
     7
370
    25
100
AcDbCircle
 10
913.5915933938
 20
418.5009123145
 30
0.0
 40
9.098942710230089
100
AcDbArc
 50
356.2668736477
 51
3.7331263523
  0
ARC
  5
1C2
330
1F
100
AcDbEntity
  8
0
  6
Continuous
 62
     7
370
    25
100
AcDbCircle
 10
922.3976555353
 20
418.4545586247
 30
0.0
 40
0.6107675350088864
100
AcDbArc
 50
296.6101963367
 51
329.1575418586
  0
ARC
  5
1C3
330
1F
100
AcDbEntity
  8
0
  6
Continuous
 62
     7
370
    25
100
AcDbCircle
 10
915.1583990717
 20
418.734756552
 30
0.0
 40
7.786288415100792
100
AcDbArc
 50
344.7700996206
 51
355.6297472936
  0
ARC
  5
1C4
330
1F
100
AcDbEntity
  8
0
  6
Continuous
 62
     7
370
    25
100
AcDbCircle
 10
922.5381451908
 20
416.7632914503
 30
0.0
 40
0.1522432420565984
100
AcDbArc
 50
330.9451665852
 51
359.1449116558
  0
LWPOLYLINE
  5
1C5
330
1F
100
AcDbEntity
  8
0
  6
Continuous
 62
     7
370
    25
100
AcDbPolyline
 90
        3
 70
   128
 43
0.0
 10
922.9220484597
 20
418.3315060821
 10
922.905823611
 20
418.1478077533
 10
922.905181468
 20
418.1414307872
  0
ARC
  5
1C6
330
1F
100
AcDbEntity
  8
0
  6
Continuous
 62
     7
370
    25
100
AcDbCircle
 10
922.3976555353
 20
418.0183782446
 30
0.0
 40
0.6107675350088572
100
AcDbArc
 50
30.8424581414
 51
63.3898036633
  0
ARC
  5
1C7
330
1F
100
AcDbEntity
  8
0
  6
Continuous
 62
     7
370
    25
100
AcDbCircle
 10
913.5147216132
 20
419.159891196
 30
0.0
 40
9.175815044325427
100
AcDbArc
 50
357.9327321265
 51
359.6562101032
  0
ARC
  5
1C8
330
1F
100
AcDbEntity
  8
0
  6
Continuous
 62
     7
370
    25
100
AcDbCircle
 10
915.1583990717
 20
418.9230311022
 30
0.0
 40
7.786288415101594
100
AcDbArc
 50
4.3702527065
 51
15.2299003794
  0
ARC
  5
1C9
330
1F
100
AcDbEntity
  8
0
  6
Continuous
 62
     7
370
    25
100
AcDbCircle
 10
922.4501074045
 20
420.8733949434
 30
0.0
 40
0.2406805056716566
100
AcDbArc
 50
336.7420981704
 51
23.2579018296
  0
LINE
  5
1CA
330
1F
100
AcDbEntity
  8
0
  6
Continuous
 62
     7
370
    25
100
AcDbLine
 10
921.8953789695
 20
422.7783964431
 30
0.0
 11
921.8953789695
 21
422.8288938271
 31
0.0
  0
LINE
  5
1CB
330
1F
100
AcDbEntity
  8
0
  6
Continuous
 62
     7
370
    25
100
AcDbLine
 10
921.8953789695
 20
414.8288938271
 30
0.0
 11
921.8953789695
 21
422.7783964431
 31
0.0
  0
LINE
  5
1CC
330
1F
100
AcDbEntity
  8
0
  6
Continuous
 62
     7
370
    25
100
AcDbLine
 10
922.9220484597
 20
418.1414307872
 30
0.0
 11
922.6834928019
 21
418.1414307872
 31
0.0
  0
LINE
  5
1CD
330
1F
100
AcDbEntity
  8
0
  6
Continuous
 62
     7
370
    25
100
AcDbLine
 10
922.9220484597
 20
419.516356867
 30
0.0
 11
922.905181468
 21
419.516356867
 31
0.0
  0
LINE
  5
1CE
330
1F
100
AcDbEntity
  8
0
  6
Continuous
 62
     7
370
    25
100
AcDbLine
 10
922.9220484597
 20
418.3315060821
 30
0.0
 11
922.6889981433
 21
418.3315060821
 31
0.0
  0
LINE
  5
1CF
330
1F
100
AcDbEntity
  8
0
  6
Continuous
 62
     7
370
    25
100
AcDbLine
 10
912.6953789695
 20
353.142739186
 30
0.0
 11
900.6953789695
 21
353.142739186
 31
0.0
  0
LINE
  5
1D0
330
1F
100
AcDbEntity
  8
0
  6
Continuous
 62
     7
370
    25
100
AcDbLine
 10
912.6953789695
 20
352.4586988994
 30
0.0
 11
900.6953789695
 21
352.4586988994
 31
0.0
  0
LINE
  5
1D1
330
1F
100
AcDbEntity
  8
0
  6
Continuous
 62
     7
370
    25
100
AcDbLine
 10
898.6953789695
 20
354.338084141
 30
0.0
 11
898.6953789695
 21
355.0221244276
 31
0.0
  0
ARC
  5
1D2
330
1F
100
AcDbEntity
  8
0
  6
Continuous
 62
     7
370
    25
100
AcDbCircle
 10
900.6368900802
 20
355.0843670035
 30
0.0
 40
1.942508566655079
100
AcDbArc
 50
181.8362067977
 51
271.7254354149
  0
ARC
  5
1D3
330
1F
100
AcDbEntity
  8
0
  6
Continuous
 62
     7
370
    25
100
AcDbCircle
 10
900.6368900802
 20
354.4003267168
 30
0.0
 40
1.942508566655136
100
AcDbArc
 50
181.8362067977
 51
271.7254354149
  0
LINE
  5
1D4
330
1F
100
AcDbEntity
  8
0
  6
Continuous
 62
     7
370
    25
100
AcDbLine
 10
898.6953789695
 20
355.0221244276
 30
0.0
 11
898.6953789695
 21
360.1632006645
 31
0.0
  0
LINE
  5
1D5
330
1F
100
AcDbEntity
  8
0
  6
Continuous
 62
     7
370
    25
100
AcDbLine
 10
914.6953789695
 20
360.1632006645
 30
0.0
 11
914.6953789695
 21
355.0221244276
 31
0.0
  0
ARC
  5
1D6
330
1F
100
AcDbEntity
  8
0
  6
Continuous
 62
     7
370
    25
100
AcDbCircle
 10
912.7538678587
 20
355.0843670035
 30
0.0
 40
1.942508566655474
100
AcDbArc
 50
268.2745645851
 51
358.1637932023
  0
LINE
  5
1D7
330
1F
100
AcDbEntity
  8
0
  6
Continuous
 62
     7
370
    25
100
AcDbLine
 10
914.6953789695
 20
355.0221244276
 30
0.0
 11
914.6953789695
 21
354.338084141
 31
0.0
  0
ARC
  5
1D8
330
1F
100
AcDbEntity
  8
0
  6
Continuous
 62
     7
370
    25
100
AcDbCircle
 10
912.7538678587
 20
354.4003267168
 30
0.0
 40
1.9425085666553
100
AcDbArc
 50
268.2745645851
 51
358.1637932023
  0
LINE
  5
1D9
330
1F
100
AcDbEntity
  8
0
  6
Continuous
 62
     7
370
    25
100
AcDbLine
 10
914.6953789695
 20
360.1632006645
 30
0.0
 11
914.6953789695
 21
360.5052208078
 31
0.0
  0
LINE
  5
1DA
330
1F
100
AcDbEntity
  8
0
  6
Continuous
 62
     7
370
    25
100
AcDbLine
 10
898.6953789695
 20
360.5052208078
 30
0.0
 11
898.6953789695
 21
360.1632006645
 31
0.0
  0
LINE
  5
1DB
330
1F
100
AcDbEntity
  8
0
  6
Continuous
 62
     7
370
    25
100
AcDbLine
 10
914.6953789695
 20
360.3288938271
 30
0.0
 11
925.1953789695
 21
360.3288938271
 31
0.0
  0
LINE
  5
1DC
330
1F
100
AcDbEntity
  8
0
  6
Continuous
 62
     7
370
    25
100
AcDbLine
 10
898.6953789695
 20
373.3288938271
 30
0.0
 11
898.6953789695
 21
360.5052208078
 31
0.0
  0
CIRCLE
  5
1DD
330
1F
100
AcDbEntity
  8
0
  6
Continuous
 62
     7
370
    25
100
AcDbCircle
 10
906.5953789695
 20
367.8288938271
 30
0.0
 40
3.5
  0
ARC
  5
1DE
330
1F
100
AcDbEntity
  8
0
  6
Continuous
 62
     7
370
    25
100
AcDbCircle
 10
900.6953789695
 20
373.3288938271
 30
0.0
 40
2.0
100
AcDbArc
 50
90.0
 51
180.0
  0
LINE
  5
1DF
330
1F
100
AcDbEntity
  8
0
  6
Continuous
 62
     7
370
    25
100
AcDbLine
 10
925.1953789695
 20
375.3288938271
 30
0.0
 11
900.6953789695
 21
375.3288938271
 31
0.0
  0
CIRCLE
  5
1E0
330
1F
100
AcDbEntity
  8
0
  6
Continuous
 62
     7
370
    25
100
AcDbCircle
 10
906.5953789695
 20
167.8288938271
 30
0.0
 40
2.458750000016599
  0
CIRCLE
  5
1E1
330
1F
100
AcDbEntity
  8
0
  6
Continuous
 62
     7
370
    25
100
AcDbCircle
 10
906.5953789695
 20
167.8288938271
 30
0.0
 40
3.000000000000015
  0
ARC
  5
1E2
330
1F
100
AcDbEntity
  8
0
  6
Continuous
 62
     7
370
    25
100
AcDbCircle
 10
900.6368900802
 20
180.5734206507
 30
0.0
 40
1.94250856665519
100
AcDbArc
 50
88.2745645851
 51
178.1637932023
  0
LINE
  5
1E3
330
1F
100
AcDbEntity
  8
0
  6
Continuous
 62
     7
370
    25
100
AcDbLine
 10
898.6953789695
 20
180.6356632266
 30
0.0
 11
898.6953789695
 21
181.3197035132
 31
0.0
  0
ARC
  5
1E4
330
1F
100
AcDbEntity
  8
0
  6
Continuous
 62
     7
370
    25
100
AcDbCircle
 10
900.6368900802
 20
181.2574609374
 30
0.0
 40
1.942508566655108
100
AcDbArc
 50
88.2745645851
 51
178.1637932023
  0
LINE
  5
1E5
330
1F
100
AcDbEntity
  8
0
  6
Continuous
 62
     7
370
    25
100
AcDbLine
 10
900.6953789695
 20
183.1990887548
 30
0.0
 11
912.6953789695
 21
183.1990887548
 31
0.0
  0
LINE
  5
1E6
330
1F
100
AcDbEntity
  8
0
  6
Continuous
 62
     7
370
    25
100
AcDbLine
 10
900.6953789695
 20
182.5150484681
 30
0.0
 11
912.6953789695
 21
182.5150484681
 31
0.0
  0
LINE
  5
1E7
330
1F
100
AcDbEntity
  8
0
  6
Continuous
 62
     7
370
    25
100
AcDbLine
 10
898.6953789695
 20
175.4945869897
 30
0.0
 11
898.6953789695
 21
180.6356632266
 31
0.0
  0
ARC
  5
1E8
330
1F
100
AcDbEntity
  8
0
  6
Continuous
 62
     7
370
    25
100
AcDbCircle
 10
912.7538678587
 20
180.5734206507
 30
0.0
 40
1.942508566655589
100
AcDbArc
 50
1.8362067977
 51
91.7254354149
  0
LINE
  5
1E9
330
1F
100
AcDbEntity
  8
0
  6
Continuous
 62
     7
370
    25
100
AcDbLine
 10
914.6953789695
 20
180.6356632266
 30
0.0
 11
914.6953789695
 21
175.4945869897
 31
0.0
  0
LINE
  5
1EA
330
1F
100
AcDbEntity
  8
0
  6
Continuous
 62
     7
370
    25
100
AcDbLine
 10
914.6953789695
 20
181.3197035132
 30
0.0
 11
914.6953789695
 21
180.6356632266
 31
0.0
  0
ARC
  5
1EB
330
1F
100
AcDbEntity
  8
0
  6
Continuous
 62
     7
370
    25
100
AcDbCircle
 10
912.7538678587
 20
181.2574609374
 30
0.0
 40
1.942508566655589
100
AcDbArc
 50
1.8362067977
 51
91.7254354149
  0
LINE
  5
1EC
330
1F
100
AcDbEntity
  8
0
  6
Continuous
 62
     7
370
    25
100
AcDbLine
 10
898.6953789695
 20
175.4945869897
 30
0.0
 11
898.6953789695
 21
175.1525668464
 31
0.0
  0
LINE
  5
1ED
330
1F
100
AcDbEntity
  8
0
  6
Continuous
 62
     7
370
    25
100
AcDbLine
 10
914.6953789695
 20
175.1525668464
 30
0.0
 11
914.6953789695
 21
175.4945869897
 31
0.0
  0
LINE
  5
1EE
330
1F
100
AcDbEntity
  8
0
  6
Continuous
 62
     7
370
    25
100
AcDbLine
 10
925.1953789695
 20
175.3288938271
 30
0.0
 11
914.6953789695
 21
175.3288938271
 31
0.0
  0
LINE
  5
1EF
330
1F
100
AcDbEntity
  8
0
  6
Continuous
 62
     7
370
    25
100
AcDbLine
 10
900.6953789695
 20
160.3288938271
 30
0.0
 11
925.1953789695
 21
160.3288938271
 31
0.0
  0
LINE
  5
1F0
330
1F
100
AcDbEntity
  8
0
  6
Continuous
 62
     7
370
    25
100
AcDbLine
 10
898.6953789695
 20
175.1525668464
 30
0.0
 11
898.6953789695
 21
162.3288938271
 31
0.0
  0
CIRCLE
  5
1F1
330
1F
100
AcDbEntity
  8
0
  6
Continuous
 62
     7
370
    25
100
AcDbCircle
 10
906.5953789695
 20
167.8288938271
 30
0.0
 40
3.500000000000114
  0
ARC
  5
1F2
330
1F
100
AcDbEntity
  8
0
  6
Continuous
 62
     7
370
    25
100
AcDbCircle
 10
900.6953789695
 20
162.3288938271
 30
0.0
 40
2.0
100
AcDbArc
 50
180.0
 51
270.0
  0
CIRCLE
  5
1F3
330
1F
100
AcDbEntity
  8
0
  6
Continuous
 62
     7
370
    25
100
AcDbCircle
 10
906.5953789695
 20
443.8288938271
 30
0.0
 40
2.458750000016702
  0
CIRCLE
  5
1F4
330
1F
100
AcDbEntity
  8
0
  6
Continuous
 62
     7
370
    25
100
AcDbCircle
 10
906.5953789695
 20
443.8288938271
 30
0.0
 40
2.999999999999912
  0
CIRCLE
  5
1F5
330
1F
100
AcDbEntity
  8
0
  6
Continuous
 62
     7
370
    25
100
AcDbCircle
 10
906.5953789695
 20
367.8288938271
 30
0.0
 40
2.458750000016702
  0
CIRCLE
  5
1F6
330
1F
100
AcDbEntity
  8
0
  6
Continuous
 62
     7
370
    25
100
AcDbCircle
 10
906.5953789695
 20
367.8288938271
 30
0.0
 40
3.000000000000015
  0
ARC
  5
1F7
330
1F
100
AcDbEntity
  8
0
  6
Continuous
 62
     7
370
    25
100
AcDbCircle
 10
764.2433501725
 20
542.0697198481
 30
0.0
 40
0.5000000000001137
100
AcDbArc
 50
180.0
 51
0.0
  0
ARC
  5
1F8
330
1F
100
AcDbEntity
  8
0
  6
Continuous
 62
     7
370
    25
100
AcDbCircle
 10
764.2433501725
 20
553.6697198482
 30
0.0
 40
0.5000000000001137
100
AcDbArc
 50
0.0
 51
180.0
  0
LINE
  5
1F9
330
1F
100
AcDbEntity
  8
0
  6
Continuous
 62
     7
370
    25
100
AcDbLine
 10
759.9709316097
 20
553.2639024602
 30
0.0
 11
759.7433501725
 21
552.8697198481
 31
0.0
  0
LINE
  5
1FA
330
1F
100
AcDbEntity
  8
0
  6
Continuous
 62
     7
370
    25
100
AcDbLine
 10
774.2021001725
 20
550.8697198482
 30
0.0
 11
766.7433501725
 21
550.8697198482
 31
0.0
  0
LINE
  5
1FB
330
1F
100
AcDbEntity
  8
0
  6
Continuous
 62
     7
370
    25
100
AcDbLine
 10
766.7433501725
 20
544.8697198482
 30
0.0
 11
774.2021001725
 21
544.8697198482
 31
0.0
  0
LINE
  5
1FC
330
1F
100
AcDbEntity
  8
0
  6
Continuous
 62
     7
370
    25
100
AcDbLine
 10
774.2021001725
 20
544.8697198481
 30
0.0
 11
774.7433501725
 21
545.4109698481
 31
0.0
  0
LINE
  5
1FD
330
1F
100
AcDbEntity
  8
0
  6
Continuous
 62
     7
370
    25
100
AcDbLine
 10
774.7433501725
 20
550.3284698482
 30
0.0
 11
774.2021001725
 21
550.8697198482
 31
0.0
  0
LINE
  5
1FE
330
1F
100
AcDbEntity
  8
0
  6
Continuous
 62
     7
370
    25
100
AcDbLine
 10
759.7433501725
 20
542.8697198482
 30
0.0
 11
759.9709316097
 21
542.4755372361
 31
0.0
  0
LINE
  5
1FF
330
1F
100
AcDbEntity
  8
0
  6
Continuous
 62
     7
370
    25
100
AcDbLine
 10
751.3748974581
 20
565.9697198481
 30
0.0
 11
751.3748974581
 21
561.9697198481
 31
0.0
  0
LINE
  5
200
330
1F
100
AcDbEntity
  8
0
  6
Continuous
 62
     7
370
    25
100
AcDbLine
 10
751.3748974581
 20
561.9697198481
 30
0.0
 11
751.8748974581
 21
561.4697198482
 31
0.0
  0
LINE
  5
201
330
1F
100
AcDbEntity
  8
0
  6
Continuous
 62
     7
370
    25
100
AcDbLine
 10
757.1547342479
 20
561.9697198481
 30
0.0
 11
757.1547342479
 21
565.9697198481
 31
0.0
  0
LINE
  5
202
330
1F
100
AcDbEntity
  8
0
  6
Continuous
 62
     7
370
    25
100
AcDbLine
 10
756.6547342479
 20
561.4697198482
 30
0.0
 11
757.1547342479
 21
561.9697198481
 31
0.0
  0
LINE
  5
203
330
1F
100
AcDbEntity
  8
0
  6
Continuous
 62
     7
370
    25
100
AcDbLine
 10
751.4312394199
 20
565.9697198481
 30
0.0
 11
751.4312394199
 21
561.9697198481
 31
0.0
  0
LINE
  5
204
330
1F
100
AcDbEntity
  8
0
  6
Continuous
 62
     7
370
    25
100
AcDbLine
 10
751.4312394199
 20
561.9697198481
 30
0.0
 11
751.9312394199
 21
561.4697198482
 31
0.0
  0
LINE
  5
205
330
1F
100
AcDbEntity
  8
0
  6
Continuous
 62
     7
370
    25
100
AcDbLine
 10
74.0812351183
 20
561.9697198481
 30
0.0
 11
74.0812351183
 21
565.9697198482
 31
0.0
  0
LINE
  5
206
330
1F
100
AcDbEntity
  8
0
  6
Continuous
 62
     7
370
    25
100
AcDbLine
 10
73.5812351183
 20
561.4697198482
 30
0.0
 11
74.0812351183
 21
561.9697198481
 31
0.0
  0
LINE
  5
207
330
1F
100
AcDbEntity
  8
0
  6
Continuous
 62
     7
370
    25
100
AcDbLine
 10
68.351690434
 20
561.9697198481
 30
0.0
 11
68.851690434
 21
561.4697198482
 31
0.0
  0
LINE
  5
208
330
1F
100
AcDbEntity
  8
0
  6
Continuous
 62
     7
370
    25
100
AcDbLine
 10
68.351690434
 20
565.9697198482
 30
0.0
 11
68.351690434
 21
561.9697198481
 31
0.0
  0
LINE
  5
209
330
1F
100
AcDbEntity
  8
0
  6
Continuous
 62
     7
370
    25
100
AcDbLine
 10
774.4021001725
 20
550.8697198482
 30
0.0
 11
774.2021001725
 21
550.8697198482
 31
0.0
  0
LINE
  5
20A
330
1F
100
AcDbEntity
  8
0
  6
Continuous
 62
     7
370
    25
100
AcDbLine
 10
774.2021001725
 20
544.8697198482
 30
0.0
 11
774.4021001725
 21
544.8697198482
 31
0.0
  0
LINE
  5
20B
330
1F
100
AcDbEntity
  8
0
  6
Continuous
 62
     7
370
    25
100
AcDbLine
 10
774.4021001725
 20
544.8697198481
 30
0.0
 11
774.9433501725
 21
545.4109698481
 31
0.0
  0
LINE
  5
20C
330
1F
100
AcDbEntity
  8
0
  6
Continuous
 62
     7
370
    25
100
AcDbLine
 10
774.9433501725
 20
550.3284698482
 30
0.0
 11
774.4021001725
 21
550.8697198482
 31
0.0
  0
LINE
  5
20D
330
1F
100
AcDbEntity
  8
0
  6
Continuous
 62
     7
370
    25
100
AcDbLine
 10
51.0846001725
 20
550.8697198482
 30
0.0
 11
50.5433501725
 21
550.3284698482
 31
0.0
  0
LINE
  5
20E
330
1F
100
AcDbEntity
  8
0
  6
Continuous
 62
     7
370
    25
100
AcDbLine
 10
50.5433501725
 20
545.4109698481
 30
0.0
 11
51.0846001725
 21
544.8697198481
 31
0.0
  0
LINE
  5
20F
330
1F
100
AcDbEntity
  8
0
  6
Continuous
 62
     7
370
    25
100
AcDbLine
 10
51.0846001725
 20
544.8697198482
 30
0.0
 11
51.2846001725
 21
544.8697198482
 31
0.0
  0
LINE
  5
210
330
1F
100
AcDbEntity
  8
0
  6
Continuous
 62
     7
370
    25
100
AcDbLine
 10
51.2846001725
 20
550.8697198482
 30
0.0
 11
51.0846001725
 21
550.8697198482
 31
0.0
  0
ARC
  5
211
330
1F
100
AcDbEntity
  8
0
  6
Continuous
 62
     7
370
    25
100
AcDbCircle
 10
61.2433501725
 20
553.6697198482
 30
0.0
 40
0.5
100
AcDbArc
 50
0.0
 51
180.0
  0
ARC
  5
212
330
1F
100
AcDbEntity
  8
0
  6
Continuous
 62
     7
370
    25
100
AcDbCircle
 10
61.2433501725
 20
542.0697198481
 30
0.0
 40
0.5
100
AcDbArc
 50
180.0
 51
0.0
  0
LINE
  5
213
330
1F
100
AcDbEntity
  8
0
  6
Continuous
 62
     7
370
    25
100
AcDbLine
 10
51.2846001725
 20
544.8697198482
 30
0.0
 11
58.7433501725
 21
544.8697198482
 31
0.0
  0
LINE
  5
214
330
1F
100
AcDbEntity
  8
0
  6
Continuous
 62
     7
370
    25
100
AcDbLine
 10
58.7433501725
 20
550.8697198482
 30
0.0
 11
51.2846001725
 21
550.8697198482
 31
0.0
  0
LINE
  5
215
330
1F
100
AcDbEntity
  8
0
  6
Continuous
 62
     7
370
    25
100
AcDbLine
 10
51.2846001725
 20
550.8697198482
 30
0.0
 11
50.7433501725
 21
550.3284698482
 31
0.0
  0
LINE
  5
216
330
1F
100
AcDbEntity
  8
0
  6
Continuous
 62
     7
370
    25
100
AcDbLine
 10
50.7433501725
 20
545.4109698481
 30
0.0
 11
51.2846001725
 21
544.8697198481
 31
0.0
  0
LINE
  5
217
330
1F
100
AcDbEntity
  8
0
  6
Continuous
 62
     7
370
    25
100
AcDbLine
 10
65.7433501725
 20
552.8697198481
 30
0.0
 11
65.4138670767
 21
553.4404013102
 31
0.0
  0
LINE
  5
218
330
1F
100
AcDbEntity
  8
0
  6
Continuous
 62
     7
370
    25
100
AcDbLine
 10
65.4138670767
 20
542.2990383861
 30
0.0
 11
65.7433501725
 21
542.8697198482
 31
0.0
  0
LINE
  5
219
330
1F
100
AcDbEntity
  8
0
  6
Continuous
 62
     7
370
    25
100
AcDbLine
 10
58.2433501725
 20
571.0697198482
 30
0.0
 11
61.1827378638
 21
571.0697198482
 31
0.0
  0
LINE
  5
21A
330
1F
100
AcDbEntity
  8
0
  6
Continuous
 62
     7
370
    25
100
AcDbLine
 10
764.3039624811
 20
571.0697198482
 30
0.0
 11
767.2433501725
 21
571.0697198482
 31
0.0
  0
LINE
  5
21B
330
1F
100
AcDbEntity
  8
0
  6
Continuous
 62
     7
370
    25
100
AcDbLine
 10
767.2433501725
 20
571.0697198482
 30
0.0
 11
773.2433501725
 21
571.0697198482
 31
0.0
  0
LINE
  5
21C
330
1F
100
AcDbEntity
  8
0
  6
Continuous
 62
     7
370
    25
100
AcDbLine
 10
52.2433501725
 20
571.0697198482
 30
0.0
 11
58.2433501725
 21
571.0697198482
 31
0.0
  0
SPLINE
  5
21D
330
1F
100
AcDbEntity
  8
0
  6
Continuous
 62
     7
370
    25
100
AcDbSpline
210
0.0
220
0.0
230
1.0
 70
    24
 71
     3
 72
    19
 73
    15
 74
     0
 42
0.000000001
 43
0.00000001
 40
0.0
 40
0.0
 40
0.0
 40
0.0
 40
0.1260638187928848
 40
0.1939261817305608
 40
0.2632286813759847
 40
0.3325311810214078
 40
0.4003935439590844
 40
0.5264573627519691
 40
0.6525211815448543
 40
0.7203835444825302
 40
0.7896860441279534
 40
0.8589885437733773
 40
0.9268509067110533
 40
1.0
 40
1.0
 40
1.0
 40
1.0
 10
763.7433501724778
 20
553.5971082035306
 30
0.0
 10
763.7433501724778
 20
553.4055202925942
 30
0.0
 10
763.7433501724778
 20
553.110797251603
 30
0.0
 10
763.7433501724778
 20
552.1835427287625
 30
0.0
 10
763.7433501724778
 20
551.2979866882299
 30
0.0
 10
763.7433501724777
 20
550.2615854786947
 30
0.0
 10
763.7433501724779
 20
548.8176321060453
 30
0.0
 10
763.7433501724778
 20
546.9328045233366
 30
0.0
 10
763.7433501724777
 20
545.15979432151
 30
0.0
 10
763.7433501724778
 20
543.9374906997698
 30
0.0
 10
763.7433501724778
 20
543.1368039845516
 30
0.0
 10
763.7433501724778
 20
542.5513134017787
 30
0.0
 10
763.7433501724778
 20
542.1234272632257
 30
0.0
 10
763.7433501724778
 20
542.1539395151284
 30
0.0
 10
763.7433501724778
 20
542.1697676160544
 30
0.0
  0
SPLINE
  5
21E
330
1F
100
AcDbEntity
  8
0
  6
Continuous
 62
     7
370
    25
100
AcDbSpline
210
0.0
220
0.0
230
1.0
 70
     8
 71
     3
 72
     8
 73
     4
 74
     0
 42
0.000000001
 43
0.00000001
 40
0.0
 40
0.0
 40
0.0
 40
0.0
 40
1.0
 40
1.0
 40
1.0
 40
1.0
 10
759.7433501724848
 20
547.0810220560945
 30
0.0
 10
759.7433501724848
 20
546.1080777403149
 30
0.0
 10
759.9176654728643
 20
545.1617624928624
 30
0.0
 10
760.1899321598762
 20
544.2304106718043
 30
0.0
  0
SPLINE
  5
21F
330
1F
100
AcDbEntity
  8
0
  6
Continuous
 62
     7
370
    25
100
AcDbSpline
210
0.0
220
0.0
230
1.0
 70
     8
 71
     3
 72
     8
 73
     4
 74
     0
 42
0.000000001
 43
0.00000001
 40
0.0
 40
0.0
 40
0.0
 40
0.0
 40
1.0
 40
1.0
 40
1.0
 40
1.0
 10
760.1899321598762
 20
549.9316334403849
 30
0.0
 10
759.9176654728648
 20
549.0002816193285
 30
0.0
 10
759.7433501724848
 20
548.0539663718724
 30
0.0
 10
759.7433501724848
 20
547.0810220560945
 30
0.0
  0
LINE
  5
220
330
1F
100
AcDbEntity
  8
0
  6
Continuous
 62
     7
370
    25
100
AcDbLine
 10
763.7433501725
 20
549.9316334404
 30
0.0
 11
760.1899321599
 21
549.9316334404
 31
0.0
  0
LINE
  5
221
330
1F
100
AcDbEntity
  8
0
  6
Continuous
 62
     7
370
    25
100
AcDbLine
 10
763.7433501725
 20
544.2304106718
 30
0.0
 11
760.1899321599
 21
544.2304106718
 31
0.0
  0
LINE
  5
222
330
1F
100
AcDbEntity
  8
0
  6
Continuous
 62
     7
370
    25
100
AcDbLine
 10
759.7433501725
 20
551.7512880286
 30
0.0
 11
759.7433501725
 21
547.0810220561
 31
0.0
  0
SPLINE
  5
223
330
1F
100
AcDbEntity
  8
0
  6
Continuous
 62
     7
370
    25
100
AcDbSpline
210
0.0
220
0.0
230
1.0
 70
     8
 71
     3
 72
     8
 73
     4
 74
     0
 42
0.000000001
 43
0.00000001
 40
0.0
 40
0.0
 40
0.0
 40
0.0
 40
1.0
 40
1.0
 40
1.0
 40
1.0
 10
759.7433501724848
 20
551.7512880285642
 30
0.0
 10
759.7433501724848
 20
551.130220352345
 30
0.0
 10
759.9176654728643
 20
550.5261510318564
 30
0.0
 10
760.1899321598762
 20
549.9316334403912
 30
0.0
  0
SPLINE
  5
224
330
1F
100
AcDbEntity
  8
0
  6
Continuous
 62
     7
370
    25
100
AcDbSpline
210
0.0
220
0.0
230
1.0
 70
     8
 71
     3
 72
     8
 73
     4
 74
     0
 42
0.000000001
 43
0.00000001
 40
0.0
 40
0.0
 40
0.0
 40
0.0
 40
1.0
 40
1.0
 40
1.0
 40
1.0
 10
760.1899321598762
 20
553.5709426167373
 30
0.0
 10
759.9176654728648
 20
552.9764250252731
 30
0.0
 10
759.7433501724848
 20
552.3723557047824
 30
0.0
 10
759.7433501724848
 20
551.7512880285642
 30
0.0
  0
LINE
  5
225
330
1F
100
AcDbEntity
  8
0
  6
Continuous
 62
     7
370
    25
100
AcDbLine
 10
763.7433501725
 20
553.5709426167
 30
0.0
 11
760.1899321599
 21
553.5709426167
 31
0.0
  0
LINE
  5
226
330
1F
100
AcDbEntity
  8
0
  6
Continuous
 62
     7
370
    25
100
AcDbLine
 10
759.7433501725
 20
547.0810220561
 30
0.0
 11
759.7433501725
 21
543.1994538757
 31
0.0
  0
SPLINE
  5
227
330
1F
100
AcDbEntity
  8
0
  6
Continuous
 62
     7
370
    25
100
AcDbSpline
210
0.0
220
0.0
230
1.0
 70
     8
 71
     3
 72
     8
 73
     4
 74
     0
 42
0.000000001
 43
0.00000001
 40
0.0
 40
0.0
 40
0.0
 40
0.0
 40
1.0
 40
1.0
 40
1.0
 40
1.0
 10
760.1899321598762
 20
544.2304106717992
 30
0.0
 10
759.9176654728648
 20
543.893576442207
 30
0.0
 10
759.7433501724848
 20
543.5513305152415
 30
0.0
 10
759.7433501724848
 20
543.1994538756817
 30
0.0
  0
SPLINE
  5
228
330
1F
100
AcDbEntity
  8
0
  6
Continuous
 62
     7
370
    25
100
AcDbSpline
210
0.0
220
0.0
230
1.0
 70
     8
 71
     3
 72
     8
 73
     4
 74
     0
 42
0.000000001
 43
0.00000001
 40
0.0
 40
0.0
 40
0.0
 40
0.0
 40
1.0
 40
1.0
 40
1.0
 40
1.0
 10
759.7433501724848
 20
543.1994538756817
 30
0.0
 10
759.7433501724848
 20
542.8475772361212
 30
0.0
 10
759.9176654728642
 20
542.5053313091571
 30
0.0
 10
760.1899321598762
 20
542.1684970795642
 30
0.0
  0
LINE
  5
229
330
1F
100
AcDbEntity
  8
0
  6
Continuous
 62
     7
370
    25
100
AcDbLine
 10
763.7433501725
 20
542.1684970796
 30
0.0
 11
760.1899321599
 21
542.1684970796
 31
0.0
  0
LINE
  5
22A
330
1F
100
AcDbEntity
  8
0
  6
Continuous
 62
     7
370
    25
100
AcDbLine
 10
760.0397259296
 20
553.2241840411
 30
0.0
 11
760.1899321599
 21
553.5709426167
 31
0.0
  0
LINE
  5
22B
330
1F
100
AcDbEntity
  8
0
  6
Continuous
 62
     7
370
    25
100
AcDbLine
 10
759.7433501725
 20
552.8697198481
 30
0.0
 11
759.7433501725
 21
551.7512880286
 31
0.0
  0
LINE
  5
22C
330
1F
100
AcDbEntity
  8
0
  6
Continuous
 62
     7
370
    25
100
AcDbLine
 10
774.2021001725
 20
544.8697198482
 30
0.0
 11
774.2021001725
 21
550.8697198482
 31
0.0
  0
LINE
  5
22D
330
1F
100
AcDbEntity
  8
0
  6
Continuous
 62
     7
370
    25
100
AcDbLine
 10
774.7433501725
 20
547.4818777089
 30
0.0
 11
774.7433501725
 21
550.3284698482
 31
0.0
  0
LINE
  5
22E
330
1F
100
AcDbEntity
  8
0
  6
Continuous
 62
     7
370
    25
100
AcDbLine
 10
774.7433501725
 20
545.4109698481
 30
0.0
 11
774.7433501725
 21
547.4818777089
 31
0.0
  0
LINE
  5
22F
330
1F
100
AcDbEntity
  8
0
  6
Continuous
 62
     7
370
    25
100
AcDbLine
 10
759.7433501725
 20
543.1994538757
 30
0.0
 11
759.7433501725
 21
542.8697198482
 31
0.0
  0
LINE
  5
230
330
1F
100
AcDbEntity
  8
0
  6
Continuous
 62
     7
370
    25
100
AcDbLine
 10
66.4933501725
 20
565.9697198482
 30
0.0
 11
66.4933501725
 21
566.4697198482
 31
0.0
  0
LINE
  5
231
330
1F
100
AcDbEntity
  8
0
  6
Continuous
 62
     7
370
    25
100
AcDbLine
 10
75.9933501725
 20
565.9697198482
 30
0.0
 11
66.4933501725
 21
565.9697198482
 31
0.0
  0
LINE
  5
232
330
1F
100
AcDbEntity
  8
0
  6
Continuous
 62
     7
370
    25
100
AcDbLine
 10
75.9933501725
 20
566.4697198482
 30
0.0
 11
75.9933501725
 21
565.9697198482
 31
0.0
  0
LINE
  5
233
330
1F
100
AcDbEntity
  8
0
  6
Continuous
 62
     7
370
    25
100
AcDbLine
 10
66.4933501725
 20
565.9697198482
 30
0.0
 11
65.7299501725
 21
565.9697198482
 31
0.0
  0
ARC
  5
234
330
1F
100
AcDbEntity
  8
0
  6
Continuous
 62
     7
370
    25
100
AcDbCircle
 10
65.7299501725
 20
567.2063198482
 30
0.0
 40
1.236600000000067
100
AcDbArc
 50
216.5600911005
 51
270.0
  0
ARC
  5
235
330
1F
100
AcDbEntity
  8
0
  6
Continuous
 62
     7
370
    25
100
AcDbCircle
 10
76.7567501725
 20
567.2063198482
 30
0.0
 40
1.236600000000067
100
AcDbArc
 50
270.0
 51
323.4399088995
  0
LINE
  5
236
330
1F
100
AcDbEntity
  8
0
  6
Continuous
 62
     7
370
    25
100
AcDbLine
 10
76.7567501725
 20
565.9697198482
 30
0.0
 11
75.9933501725
 21
565.9697198482
 31
0.0
  0
ARC
  5
237
330
1F
100
AcDbEntity
  8
0
  6
Continuous
 62
     7
370
    25
100
AcDbCircle
 10
58.2433501725
 20
570.4697198482
 30
0.0
 40
3.0
100
AcDbArc
 50
0.0
 51
90.0
  0
LINE
  5
238
330
1F
100
AcDbEntity
  8
0
  6
Continuous
 62
     7
370
    25
100
AcDbLine
 10
46.2433501725
 20
573.4697198482
 30
0.0
 11
58.2433501725
 21
573.4697198482
 31
0.0
  0
ARC
  5
239
330
1F
100
AcDbEntity
  8
0
  6
Continuous
 62
     7
370
    25
100
AcDbCircle
 10
46.2433501725
 20
570.4697198482
 30
0.0
 40
3.0
100
AcDbArc
 50
90.0
 51
180.0
  0
LINE
  5
23A
330
1F
100
AcDbEntity
  8
0
  6
Continuous
 62
     7
370
    25
100
AcDbLine
 10
43.2433501725
 20
569.4697198482
 30
0.0
 11
43.2433501725
 21
570.4697198482
 31
0.0
  0
ARC
  5
23B
330
1F
100
AcDbEntity
  8
0
  6
Continuous
 62
     7
370
    25
100
AcDbCircle
 10
40.2433501725
 20
569.4697198482
 30
0.0
 40
3.0
100
AcDbArc
 50
270.0
 51
0.0
  0
LINE
  5
23C
330
1F
100
AcDbEntity
  8
0
  6
Continuous
 62
     7
370
    25
100
AcDbLine
 10
16.7140608506
 20
566.4697198482
 30
0.0
 11
40.2433501725
 21
566.4697198482
 31
0.0
  0
LINE
  5
23D
330
1F
100
AcDbEntity
  8
0
  6
Continuous
 62
     7
370
    25
100
AcDbLine
 10
16.7140608506
 20
576.0697198482
 30
0.0
 11
16.7140608506
 21
566.4697198482
 31
0.0
  0
LINE
  5
23E
330
1F
100
AcDbEntity
  8
0
  6
Continuous
 62
     7
370
    25
100
AcDbLine
 10
808.7726394944
 20
576.0697198482
 30
0.0
 11
808.7726394944
 21
566.4697198482
 31
0.0
  0
LINE
  5
23F
330
1F
100
AcDbEntity
  8
0
  6
Continuous
 62
     7
370
    25
100
AcDbLine
 10
785.2433501725
 20
566.4697198482
 30
0.0
 11
808.7726394944
 21
566.4697198482
 31
0.0
  0
ARC
  5
240
330
1F
100
AcDbEntity
  8
0
  6
Continuous
 62
     7
370
    25
100
AcDbCircle
 10
785.2433501725
 20
569.4697198482
 30
0.0
 40
3.000000000000114
100
AcDbArc
 50
180.0
 51
270.0
  0
LINE
  5
241
330
1F
100
AcDbEntity
  8
0
  6
Continuous
 62
     7
370
    25
100
AcDbLine
 10
782.2433501725
 20
569.4697198482
 30
0.0
 11
782.2433501725
 21
570.4697198482
 31
0.0
  0
ARC
  5
242
330
1F
100
AcDbEntity
  8
0
  6
Continuous
 62
     7
370
    25
100
AcDbCircle
 10
779.2433501725
 20
570.4697198482
 30
0.0
 40
3.0
100
AcDbArc
 50
0.0
 51
90.0
  0
LINE
  5
243
330
1F
100
AcDbEntity
  8
0
  6
Continuous
 62
     7
370
    25
100
AcDbLine
 10
779.2433501725
 20
573.4697198482
 30
0.0
 11
767.2433501725
 21
573.4697198482
 31
0.0
  0
ARC
  5
244
330
1F
100
AcDbEntity
  8
0
  6
Continuous
 62
     7
370
    25
100
AcDbCircle
 10
767.2433501725
 20
570.4697198482
 30
0.0
 40
3.000000000000114
100
AcDbArc
 50
90.0
 51
180.0
  0
LINE
  5
245
330
1F
100
AcDbEntity
  8
0
  6
Continuous
 62
     7
370
    25
100
AcDbLine
 10
764.2433501725
 20
569.4697198482
 30
0.0
 11
764.2433501725
 21
570.4697198482
 31
0.0
  0
ARC
  5
246
330
1F
100
AcDbEntity
  8
0
  6
Continuous
 62
     7
370
    25
100
AcDbCircle
 10
761.2433501725
 20
569.4697198482
 30
0.0
 40
3.0
100
AcDbArc
 50
270.0
 51
0.0
  0
LINE
  5
247
330
1F
100
AcDbEntity
  8
0
  6
Continuous
 62
     7
370
    25
100
AcDbLine
 10
61.2433501725
 20
569.4697198482
 30
0.0
 11
61.2433501725
 21
570.4697198482
 31
0.0
  0
ARC
  5
248
330
1F
100
AcDbEntity
  8
0
  6
Continuous
 62
     7
370
    25
100
AcDbCircle
 10
64.2433501725
 20
569.4697198482
 30
0.0
 40
3.0
100
AcDbArc
 50
180.0
 51
270.0
  0
LINE
  5
249
330
1F
100
AcDbEntity
  8
0
  6
Continuous
 62
     7
370
    25
100
AcDbLine
 10
64.2433501725
 20
566.4697198482
 30
0.0
 11
761.2433501725
 21
566.4697198482
 31
0.0
  0
SPLINE
  5
24A
330
1F
100
AcDbEntity
  8
0
  6
Continuous
 62
     7
370
    25
100
AcDbSpline
210
0.0
220
0.0
230
1.0
 70
     8
 71
     3
 72
    20
 73
    16
 74
     0
 42
0.000000001
 43
0.00000001
 40
0.0
 40
0.0
 40
0.0
 40
0.0
 40
0.1250000000000001
 40
0.1250000000000001
 40
0.2500000000000001
 40
0.2500000000000001
 40
0.3750000000000002
 40
0.3750000000000002
 40
0.5000000000000002
 40
0.5000000000000002
 40
0.7500000000000003
 40
0.7500000000000003
 40
0.8750000000000002
 40
0.8750000000000002
 40
1.0
 40
1.0
 40
1.0
 40
1.0
 10
807.8433501724776
 20
578.4697198481512
 30
0.0
 10
807.8823909033322
 20
578.4697198481512
 30
0.0
 10
807.9209096075319
 20
578.4541832876763
 30
0.0
 10
807.9983163588398
 20
578.3928649357157
 30
0.0
 10
808.0374607768264
 20
578.3464411901289
 30
0.0
 10
808.1146115307416
 20
578.2264903199748
 30
0.0
 10
808.1529391124827
 20
578.1528856756913
 30
0.0
 10
808.2304854329592
 20
577.9781553095958
 30
0.0
 10
808.2694616406278
 20
577.8773046806942
 30
0.0
 10
808.3849564970728
 20
577.5460194007103
 30
0.0
 10
808.4628689407431
 20
577.2783392393263
 30
0.0
 10
808.578348866144
 20
576.845665213271
 30
0.0
 10
808.617214662009
 20
576.6941471264199
 30
0.0
 10
808.6949889956774
 20
576.3847213690337
 30
0.0
 10
808.7335987626321
 20
576.2280990393399
 30
0.0
 10
808.7726394943588
 20
576.0697198481513
 30
0.0
  0
SPLINE
  5
24B
330
1F
100
AcDbEntity
  8
0
  6
Continuous
 62
     7
370
    25
100
AcDbSpline
210
0.0
220
0.0
230
1.0
 70
     8
 71
     3
 72
    20
 73
    16
 74
     0
 42
0.000000001
 43
0.00000001
 40
0.0
 40
0.0
 40
0.0
 40
0.0
 40
0.1249999999999976
 40
0.1249999999999976
 40
0.2499999999999949
 40
0.2499999999999949
 40
0.3749999999999923
 40
0.3749999999999923
 40
0.4999999999999897
 40
0.4999999999999897
 40
0.7499999999999949
 40
0.7499999999999949
 40
0.8749999999999974
 40
0.8749999999999974
 40
1.0
 40
1.0
 40
1.0
 40
1.0
 10
16.71406085059618
 20
576.0697198481513
 30
0.0
 10
16.75310158145066
 20
576.2280990358018
 30
0.0
 10
16.79162028565046
 20
576.3843447604936
 30
0.0
 10
16.86902703695847
 20
576.6923366099102
 30
0.0
 10
16.90817145494506
 20
576.8449807173813
 30
0.0
 10
16.98532220886018
 20
577.1340650065683
 30
0.0
 10
17.02364979060134
 20
577.2718695447523
 30
0.0
 10
17.1011961110778
 20
577.5334882203913
 30
0.0
 10
17.14017231874659
 20
577.6562345270739
 30
0.0
 10
17.25566717519139
 20
577.9875589040216
 30
0.0
 10
17.33357961886167
 20
578.1665700280499
 30
0.0
 10
17.44905954426246
 20
578.3461851274308
 30
0.0
 10
17.48792534012761
 20
578.3924294762985
 30
0.0
 10
17.56569967379601
 20
578.4541827823098
 30
0.0
 10
17.60430944075075
 20
578.4697198481512
 30
0.0
 10
17.64335017247742
 20
578.4697198481512
 30
0.0
  0
LINE
  5
24C
330
1F
100
AcDbEntity
  8
0
  6
Continuous
 62
     7
370
    25
100
AcDbLine
 10
17.6433501725
 20
578.4697198482
 30
0.0
 11
807.8433501725
 21
578.4697198482
 31
0.0
  0
LINE
  5
24D
330
1F
100
AcDbEntity
  8
0
  6
Continuous
 62
     7
370
    25
100
AcDbLine
 10
810.2433501725
 20
576.0697198482
 30
0.0
 11
808.8433501725
 21
576.0697198482
 31
0.0
  0
SPLINE
  5
24E
330
1F
100
AcDbEntity
  8
0
  6
Continuous
 62
     7
370
    25
100
AcDbSpline
210
0.0
220
0.0
230
1.0
 70
     8
 71
     3
 72
     9
 73
     5
 74
     0
 42
0.000000001
 43
0.00000001
 40
0.0
 40
0.0
 40
0.0
 40
0.0
 40
0.678450800572632
 40
1.0
 40
1.0
 40
1.0
 40
1.0
 10
808.8433501724775
 20
576.0697198481513
 30
0.0
 10
808.8301006020131
 20
576.2204270526045
 30
0.0
 10
808.8105714475729
 20
576.442561368499
 30
0.0
 10
808.6697237939338
 20
576.6093944733882
 30
0.0
 10
808.624434343665
 20
576.6630395247033
 30
0.0
  0
SPLINE
  5
24F
330
1F
100
AcDbEntity
  8
0
  6
Continuous
 62
     7
370
    25
100
AcDbSpline
210
0.0
220
0.0
230
1.0
 70
     8
 71
     3
 72
    20
 73
    16
 74
     0
 42
0.000000001
 43
0.00000001
 40
0.0
 40
0.0
 40
0.0
 40
0.0
 40
0.1250000000000001
 40
0.1250000000000001
 40
0.2500000000000001
 40
0.2500000000000001
 40
0.3750000000000001
 40
0.3750000000000001
 40
0.5
 40
0.5
 40
0.7499999999999999
 40
0.7499999999999999
 40
0.875
 40
0.875
 40
1.0
 40
1.0
 40
1.0
 40
1.0
 10
810.2433501724774
 20
576.0697198481513
 30
0.0
 10
810.2433501724774
 20
576.2280990358018
 30
0.0
 10
810.2278136120027
 20
576.3843447604936
 30
0.0
 10
810.166495260042
 20
576.6923366099103
 30
0.0
 10
810.1200715144553
 20
576.8449807173813
 30
0.0
 10
810.0001206443013
 20
577.1340650065683
 30
0.0
 10
809.9265160000176
 20
577.2718695447523
 30
0.0
 10
809.751785633922
 20
577.5334882203913
 30
0.0
 10
809.6509350050205
 20
577.656234527074
 30
0.0
 10
809.3196497250366
 20
577.9875589040217
 30
0.0
 10
809.0519695636526
 20
578.1665700280499
 30
0.0
 10
808.619295537597
 20
578.3461851274309
 30
0.0
 10
808.4677774507461
 20
578.3924294762985
 30
0.0
 10
808.1583516933599
 20
578.4541827823098
 30
0.0
 10
808.0017293636663
 20
578.4697198481512
 30
0.0
 10
807.8433501724776
 20
578.4697198481512
 30
0.0
  0
SPLINE
  5
250
330
1F
100
AcDbEntity
  8
0
  6
Continuous
 62
     7
370
    25
100
AcDbSpline
210
0.0
220
0.0
230
1.0
 70
     8
 71
     3
 72
     9
 73
     5
 74
     0
 42
0.000000001
 43
0.00000001
 40
0.0
 40
0.0
 40
0.0
 40
0.0
 40
0.482578428729494
 40
0.9999999999999999
 40
0.9999999999999999
 40
0.9999999999999999
 40
0.9999999999999999
 10
16.86717994053127
 20
576.6822595873296
 30
0.0
 10
16.80337174746982
 20
576.594125246013
 30
0.0
 10
16.67114828023075
 20
576.41149308496
 30
0.0
 10
16.65282897577402
 20
576.1862602009154
 30
0.0
 10
16.64335017247748
 20
576.0697198481513
 30
0.0
  0
LINE
  5
251
330
1F
100
AcDbEntity
  8
0
  6
Continuous
 62
     7
370
    25
100
AcDbLine
 10
15.2433501725
 20
576.0697198482
 30
0.0
 11
16.6433501725
 21
576.0697198482
 31
0.0
  0
SPLINE
  5
252
330
1F
100
AcDbEntity
  8
0
  6
Continuous
 62
     7
370
    25
100
AcDbSpline
210
0.0
220
0.0
230
1.0
 70
     8
 71
     3
 72
    20
 73
    16
 74
     0
 42
0.000000001
 43
0.00000001
 40
0.0
 40
0.0
 40
0.0
 40
0.0
 40
0.1249999999999906
 40
0.1249999999999906
 40
0.2499999999999812
 40
0.2499999999999812
 40
0.3749999999999719
 40
0.3749999999999719
 40
0.4999999999999625
 40
0.4999999999999625
 40
0.7499999999999732
 40
0.7499999999999732
 40
0.8749999999999866
 40
0.8749999999999866
 40
1.0
 40
1.0
 40
1.0
 40
1.0
 10
17.64335017247748
 20
578.4697198481512
 30
0.0
 10
17.48497098482665
 20
578.4697198481512
 30
0.0
 10
17.32872526013501
 20
578.4541832876764
 30
0.0
 10
17.02073341071841
 20
578.3928649357157
 30
0.0
 10
16.86808930324746
 20
578.3464411901289
 30
0.0
 10
16.5790050140604
 20
578.2264903199748
 30
0.0
 10
16.44120047587605
 20
578.1528856756914
 30
0.0
 10
16.1795818002371
 20
577.9781553095958
 30
0.0
 10
16.05683549355458
 20
577.8773046806942
 30
0.0
 10
15.72551111660686
 20
577.5460194007103
 30
0.0
 10
15.54649999257895
 20
577.2783392393263
 30
0.0
 10
15.36688489319793
 20
576.845665213271
 30
0.0
 10
15.32064054433008
 20
576.6941471264199
 30
0.0
 10
15.25888723831886
 20
576.3847213690337
 30
0.0
 10
15.24335017247741
 20
576.2280990393399
 30
0.0
 10
15.24335017247747
 20
576.0697198481513
 30
0.0
  0
LINE
  5
253
330
1F
100
AcDbEntity
  8
0
  6
Continuous
 62
     7
370
    25
100
AcDbLine
 10
15.2433501725
 20
566.4697198482
 30
0.0
 11
16.6433501725
 21
566.4697198482
 31
0.0
  0
LINE
  5
254
330
1F
100
AcDbEntity
  8
0
  6
Continuous
 62
     7
370
    25
100
AcDbLine
 10
15.2433501725
 20
576.0697198482
 30
0.0
 11
15.2433501725
 21
566.4697198482
 31
0.0
  0
LINE
  5
255
330
1F
100
AcDbEntity
  8
0
  6
Continuous
 62
     7
370
    25
100
AcDbLine
 10
16.6433501725
 20
576.0697198482
 30
0.0
 11
16.6433501725
 21
566.4697198482
 31
0.0
  0
LINE
  5
256
330
1F
100
AcDbEntity
  8
0
  6
Continuous
 62
     7
370
    25
100
AcDbLine
 10
810.2433501725
 20
576.0697198482
 30
0.0
 11
810.2433501725
 21
566.4697198482
 31
0.0
  0
LINE
  5
257
330
1F
100
AcDbEntity
  8
0
  6
Continuous
 62
     7
370
    25
100
AcDbLine
 10
810.2433501725
 20
566.4697198482
 30
0.0
 11
808.8433501725
 21
566.4697198482
 31
0.0
  0
LINE
  5
258
330
1F
100
AcDbEntity
  8
0
  6
Continuous
 62
     7
370
    25
100
AcDbLine
 10
808.8433501725
 20
576.0697198482
 30
0.0
 11
808.8433501725
 21
566.4697198482
 31
0.0
  0
LINE
  5
259
330
1F
100
AcDbEntity
  8
0
  6
Continuous
 62
     7
370
    25
100
AcDbLine
 10
751.3748974581
 20
561.9697198481
 30
0.0
 11
751.4312394199
 21
561.9697198481
 31
0.0
  0
LINE
  5
25A
330
1F
100
AcDbEntity
  8
0
  6
Continuous
 62
     7
370
    25
100
AcDbLine
 10
751.9312394199
 20
561.4697198482
 30
0.0
 11
751.8748974581
 21
561.4697198482
 31
0.0
  0
LINE
  5
25B
330
1F
100
AcDbEntity
  8
0
  6
Continuous
 62
     7
370
    25
100
AcDbLine
 10
752.3213086987
 20
561.9697198481
 30
0.0
 11
755.7682983547
 21
561.9697198481
 31
0.0
  0
LINE
  5
25C
330
1F
100
AcDbEntity
  8
0
  6
Continuous
 62
     7
370
    25
100
AcDbLine
 10
755.3622429784
 20
561.4697198482
 30
0.0
 11
752.7770007364
 21
561.4697198482
 31
0.0
  0
LINE
  5
25D
330
1F
100
AcDbEntity
  8
0
  6
Continuous
 62
     7
370
    25
100
AcDbLine
 10
755.7682983547
 20
561.9697198481
 30
0.0
 11
756.778955753
 21
561.9697198481
 31
0.0
  0
LINE
  5
25E
330
1F
100
AcDbEntity
  8
0
  6
Continuous
 62
     7
370
    25
100
AcDbLine
 10
756.3729003767
 20
561.4697198482
 30
0.0
 11
755.3622429784
 21
561.4697198482
 31
0.0
  0
LINE
  5
25F
330
1F
100
AcDbEntity
  8
0
  6
Continuous
 62
     7
370
    25
100
AcDbLine
 10
751.6084712691
 20
561.9697198481
 30
0.0
 11
752.3213086987
 21
561.9697198481
 31
0.0
  0
LINE
  5
260
330
1F
100
AcDbEntity
  8
0
  6
Continuous
 62
     7
370
    25
100
AcDbLine
 10
752.7770007364
 20
561.4697198482
 30
0.0
 11
752.0641633068
 21
561.4697198482
 31
0.0
  0
LINE
  5
261
330
1F
100
AcDbEntity
  8
0
  6
Continuous
 62
     7
370
    25
100
AcDbLine
 10
756.778955753
 20
561.9697198481
 30
0.0
 11
757.1547342479
 21
561.9697198481
 31
0.0
  0
LINE
  5
262
330
1F
100
AcDbEntity
  8
0
  6
Continuous
 62
     7
370
    25
100
AcDbLine
 10
756.6547342479
 20
561.4697198482
 30
0.0
 11
756.3729003767
 21
561.4697198482
 31
0.0
  0
LINE
  5
263
330
1F
100
AcDbEntity
  8
0
  6
Continuous
 62
     7
370
    25
100
AcDbLine
 10
751.4312394199
 20
561.9697198481
 30
0.0
 11
751.6084712691
 21
561.9697198481
 31
0.0
  0
LINE
  5
264
330
1F
100
AcDbEntity
  8
0
  6
Continuous
 62
     7
370
    25
100
AcDbLine
 10
752.0641633068
 20
561.4697198482
 30
0.0
 11
751.9312394199
 21
561.4697198482
 31
0.0
  0
LINE
  5
265
330
1F
100
AcDbEntity
  8
0
  6
Continuous
 62
     7
370
    25
100
AcDbLine
 10
71.9736855331
 20
561.9697198481
 30
0.0
 11
74.0812351183
 21
561.9697198481
 31
0.0
  0
LINE
  5
266
330
1F
100
AcDbEntity
  8
0
  6
Continuous
 62
     7
370
    25
100
AcDbLine
 10
73.5812351183
 20
561.4697198482
 30
0.0
 11
72.0005729294
 21
561.4697198482
 31
0.0
  0
LINE
  5
267
330
1F
100
AcDbEntity
  8
0
  6
Continuous
 62
     7
370
    25
100
AcDbLine
 10
72.0005729294
 20
561.4697198482
 30
0.0
 11
70.2710282451
 21
561.4697198482
 31
0.0
  0
LINE
  5
268
330
1F
100
AcDbEntity
  8
0
  6
Continuous
 62
     7
370
    25
100
AcDbLine
 10
70.2441408488
 20
561.9697198481
 30
0.0
 11
71.9736855331
 21
561.9697198481
 31
0.0
  0
LINE
  5
269
330
1F
100
AcDbEntity
  8
0
  6
Continuous
 62
     7
370
    25
100
AcDbLine
 10
70.2710282451
 20
561.4697198482
 30
0.0
 11
68.851690434
 21
561.4697198482
 31
0.0
  0
LINE
  5
26A
330
1F
100
AcDbEntity
  8
0
  6
Continuous
 62
     7
370
    25
100
AcDbLine
 10
68.351690434
 20
561.9697198481
 30
0.0
 11
70.2441408488
 21
561.9697198481
 31
0.0
  0
LINE
  5
26B
330
1F
100
AcDbEntity
  8
0
  6
Continuous
 62
     7
370
    25
100
AcDbLine
 10
762.7433501725
 20
558.3697198482
 30
0.0
 11
763.9433501725
 21
558.3697198482
 31
0.0
  0
LINE
  5
26C
330
1F
100
AcDbEntity
  8
0
  6
Continuous
 62
     7
370
    25
100
AcDbLine
 10
763.9433501725
 20
539.3697198482
 30
0.0
 11
760.7433501725
 21
539.3697198482
 31
0.0
  0
LINE
  5
26D
330
1F
100
AcDbEntity
  8
0
  6
Continuous
 62
     7
370
    25
100
AcDbLine
 10
760.7433501725
 20
539.3697198482
 30
0.0
 11
760.7433501725
 21
518.3697198482
 31
0.0
  0
ARC
  5
26E
330
1F
100
AcDbEntity
  8
0
  6
Continuous
 62
     7
370
    25
100
AcDbCircle
 10
757.7433501725
 20
518.3697198482
 30
0.0
 40
3.0
100
AcDbArc
 50
270.0
 51
0.0
  0
ARC
  5
26F
330
1F
100
AcDbEntity
  8
0
  6
Continuous
 62
     7
370
    25
100
AcDbCircle
 10
713.7433501725
 20
518.3697198482
 30
0.0
 40
3.0
100
AcDbArc
 50
180.0
 51
270.0
  0
LINE
  5
270
330
1F
100
AcDbEntity
  8
0
  6
Continuous
 62
     7
370
    25
100
AcDbLine
 10
710.7433501725
 20
518.3697198482
 30
0.0
 11
710.7433501725
 21
534.4997198482
 31
0.0
  0
LINE
  5
271
330
1F
100
AcDbEntity
  8
0
  6
Continuous
 62
     7
370
    25
100
AcDbLine
 10
710.7433501725
 20
534.4997198482
 30
0.0
 11
708.2433501725
 21
534.4997198482
 31
0.0
  0
LINE
  5
272
330
1F
100
AcDbEntity
  8
0
  6
Continuous
 62
     7
370
    25
100
AcDbLine
 10
708.2433501725
 20
534.0076690406
 30
0.0
 11
708.2433501725
 21
534.4997198482
 31
0.0
  0
LINE
  5
273
330
1F
100
AcDbEntity
  8
0
  6
Continuous
 62
     7
370
    25
100
AcDbLine
 10
558.2433501725
 20
534.0076690406
 30
0.0
 11
558.2433501725
 21
534.4997198482
 31
0.0
  0
LINE
  5
274
330
1F
100
AcDbEntity
  8
0
  6
Continuous
 62
     7
370
    25
100
AcDbLine
 10
558.2433501725
 20
534.4997198482
 30
0.0
 11
555.7433501725
 21
534.4997198482
 31
0.0
  0
LINE
  5
275
330
1F
100
AcDbEntity
  8
0
  6
Continuous
 62
     7
370
    25
100
AcDbLine
 10
555.7433501725
 20
534.4997198482
 30
0.0
 11
555.7433501725
 21
518.3697198482
 31
0.0
  0
ARC
  5
276
330
1F
100
AcDbEntity
  8
0
  6
Continuous
 62
     7
370
    25
100
AcDbCircle
 10
552.7433501725
 20
518.3697198482
 30
0.0
 40
3.0
100
AcDbArc
 50
270.0
 51
0.0
  0
ARC
  5
277
330
1F
100
AcDbEntity
  8
0
  6
Continuous
 62
     7
370
    25
100
AcDbCircle
 10
493.2433501725
 20
518.3697198482
 30
0.0
 40
3.000000000000057
100
AcDbArc
 50
180.0
 51
270.0
  0
LINE
  5
278
330
1F
100
AcDbEntity
  8
0
  6
Continuous
 62
     7
370
    25
100
AcDbLine
 10
490.2433501725
 20
518.3697198482
 30
0.0
 11
490.2433501725
 21
534.4997198482
 31
0.0
  0
LINE
  5
279
330
1F
100
AcDbEntity
  8
0
  6
Continuous
 62
     7
370
    25
100
AcDbLine
 10
490.2433501725
 20
534.4997198482
 30
0.0
 11
487.7433501725
 21
534.4997198482
 31
0.0
  0
LINE
  5
27A
330
1F
100
AcDbEntity
  8
0
  6
Continuous
 62
     7
370
    25
100
AcDbLine
 10
487.7433501725
 20
534.0076690406
 30
0.0
 11
487.7433501725
 21
534.4997198482
 31
0.0
  0
LINE
  5
27B
330
1F
100
AcDbEntity
  8
0
  6
Continuous
 62
     7
370
    25
100
AcDbLine
 10
337.7433501725
 20
534.0076690406
 30
0.0
 11
337.7433501725
 21
534.4997198482
 31
0.0
  0
LINE
  5
27C
330
1F
100
AcDbEntity
  8
0
  6
Continuous
 62
     7
370
    25
100
AcDbLine
 10
337.7433501725
 20
534.4997198482
 30
0.0
 11
335.2433501725
 21
534.4997198482
 31
0.0
  0
LINE
  5
27D
330
1F
100
AcDbEntity
  8
0
  6
Continuous
 62
     7
370
    25
100
AcDbLine
 10
335.2433501725
 20
534.4997198482
 30
0.0
 11
335.2433501725
 21
518.3697198482
 31
0.0
  0
ARC
  5
27E
330
1F
100
AcDbEntity
  8
0
  6
Continuous
 62
     7
370
    25
100
AcDbCircle
 10
332.2433501725
 20
518.3697198482
 30
0.0
 40
3.0
100
AcDbArc
 50
270.0
 51
360.0
  0
LINE
  5
27F
330
1F
100
AcDbEntity
  8
0
  6
Continuous
 62
     7
370
    25
100
AcDbLine
 10
332.2433501725
 20
515.3697198482
 30
0.0
 11
272.7433501725
 21
515.3697198482
 31
0.0
  0
ARC
  5
280
330
1F
100
AcDbEntity
  8
0
  6
Continuous
 62
     7
370
    25
100
AcDbCircle
 10
272.7433501725
 20
518.3697198482
 30
0.0
 40
3.0
100
AcDbArc
 50
180.0
 51
270.0
  0
LINE
  5
281
330
1F
100
AcDbEntity
  8
0
  6
Continuous
 62
     7
370
    25
100
AcDbLine
 10
269.7433501725
 20
518.3697198482
 30
0.0
 11
269.7433501725
 21
534.4997198482
 31
0.0
  0
LINE
  5
282
330
1F
100
AcDbEntity
  8
0
  6
Continuous
 62
     7
370
    25
100
AcDbLine
 10
269.7433501725
 20
534.4997198482
 30
0.0
 11
267.2433501725
 21
534.4997198482
 31
0.0
  0
LINE
  5
283
330
1F
100
AcDbEntity
  8
0
  6
Continuous
 62
     7
370
    25
100
AcDbLine
 10
267.2433501725
 20
534.0076690406
 30
0.0
 11
267.2433501725
 21
534.4997198482
 31
0.0
  0
LINE
  5
284
330
1F
100
AcDbEntity
  8
0
  6
Continuous
 62
     7
370
    25
100
AcDbLine
 10
117.2433501725
 20
534.0076690406
 30
0.0
 11
117.2433501725
 21
534.4997198482
 31
0.0
  0
LINE
  5
285
330
1F
100
AcDbEntity
  8
0
  6
Continuous
 62
     7
370
    25
100
AcDbLine
 10
117.2433501725
 20
534.4997198482
 30
0.0
 11
114.7433501725
 21
534.4997198482
 31
0.0
  0
LINE
  5
286
330
1F
100
AcDbEntity
  8
0
  6
Continuous
 62
     7
370
    25
100
AcDbLine
 10
114.7433501725
 20
534.4997198482
 30
0.0
 11
114.7433501725
 21
518.3697198482
 31
0.0
  0
ARC
  5
287
330
1F
100
AcDbEntity
  8
0
  6
Continuous
 62
     7
370
    25
100
AcDbCircle
 10
111.7433501725
 20
518.3697198482
 30
0.0
 40
3.0
100
AcDbArc
 50
270.0
 51
0.0
  0
ARC
  5
288
330
1F
100
AcDbEntity
  8
0
  6
Continuous
 62
     7
370
    25
100
AcDbCircle
 10
67.7433501725
 20
518.3697198482
 30
0.0
 40
3.0
100
AcDbArc
 50
180.0
 51
270.0
  0
LINE
  5
289
330
1F
100
AcDbEntity
  8
0
  6
Continuous
 62
     7
370
    25
100
AcDbLine
 10
64.7433501725
 20
539.3697198482
 30
0.0
 11
61.5433501725
 21
539.3697198482
 31
0.0
  0
LINE
  5
28A
330
1F
100
AcDbEntity
  8
0
  6
Continuous
 62
     7
370
    25
100
AcDbLine
 10
61.5433501725
 20
558.3697198482
 30
0.0
 11
62.7433501725
 21
558.3697198482
 31
0.0
  0
LINE
  5
28B
330
1F
100
AcDbEntity
  8
0
  6
Continuous
 62
     7
370
    25
100
AcDbLine
 10
62.7433501725
 20
558.3697198482
 30
0.0
 11
62.7433501725
 21
558.5697198482
 31
0.0
  0
LINE
  5
28C
330
1F
100
AcDbEntity
  8
0
  6
Continuous
 62
     7
370
    25
100
AcDbLine
 10
762.7433501725
 20
558.5697198482
 30
0.0
 11
762.7433501725
 21
558.3697198482
 31
0.0
  0
LINE
  5
28D
330
1F
100
AcDbEntity
  8
0
  6
Continuous
 62
     7
370
    25
100
AcDbLine
 10
552.7433501725
 20
515.3697198482
 30
0.0
 11
493.2433501725
 21
515.3697198482
 31
0.0
  0
LINE
  5
28E
330
1F
100
AcDbEntity
  8
0
  6
Continuous
 62
     7
370
    25
100
AcDbLine
 10
64.7433501725
 20
518.3697198482
 30
0.0
 11
64.7433501725
 21
539.3697198482
 31
0.0
  0
LINE
  5
28F
330
1F
100
AcDbEntity
  8
0
  6
Continuous
 62
     7
370
    25
100
AcDbLine
 10
111.7433501725
 20
515.3697198482
 30
0.0
 11
67.7433501725
 21
515.3697198482
 31
0.0
  0
LINE
  5
290
330
1F
100
AcDbEntity
  8
0
  6
Continuous
 62
     7
370
    25
100
AcDbLine
 10
757.7433501725
 20
515.3697198482
 30
0.0
 11
713.7433501725
 21
515.3697198482
 31
0.0
  0
LINE
  5
291
330
1F
100
AcDbEntity
  8
0
  6
Continuous
 62
     7
370
    25
100
AcDbLine
 10
337.7433501725
 20
533.1076690406
 30
0.0
 11
337.7433501725
 21
534.0076690406
 31
0.0
  0
LINE
  5
292
330
1F
100
AcDbEntity
  8
0
  6
Continuous
 62
     7
370
    25
100
AcDbLine
 10
487.7433501725
 20
534.0076690406
 30
0.0
 11
487.7433501725
 21
533.1076690406
 31
0.0
  0
LINE
  5
293
330
1F
100
AcDbEntity
  8
0
  6
Continuous
 62
     7
370
    25
100
AcDbLine
 10
708.2433501725
 20
534.0076690406
 30
0.0
 11
708.2433501725
 21
533.1076690406
 31
0.0
  0
LINE
  5
294
330
1F
100
AcDbEntity
  8
0
  6
Continuous
 62
     7
370
    25
100
AcDbLine
 10
558.2433501725
 20
533.1076690406
 30
0.0
 11
558.2433501725
 21
534.0076690406
 31
0.0
  0
LINE
  5
295
330
1F
100
AcDbEntity
  8
0
  6
Continuous
 62
     7
370
    25
100
AcDbLine
 10
117.2433501725
 20
533.1076690406
 30
0.0
 11
117.2433501725
 21
534.0076690406
 31
0.0
  0
LINE
  5
296
330
1F
100
AcDbEntity
  8
0
  6
Continuous
 62
     7
370
    25
100
AcDbLine
 10
267.2433501725
 20
534.0076690406
 30
0.0
 11
267.2433501725
 21
533.1076690406
 31
0.0
  0
LINE
  5
297
330
1F
100
AcDbEntity
  8
0
  6
Continuous
 62
     7
370
    25
100
AcDbLine
 10
763.9433501725
 20
558.3697198482
 30
0.0
 11
764.7433501725
 21
558.3697198482
 31
0.0
  0
LINE
  5
298
330
1F
100
AcDbEntity
  8
0
  6
Continuous
 62
     7
370
    25
100
AcDbLine
 10
765.7433501725
 20
539.3697198482
 30
0.0
 11
765.7433501725
 21
539.9697198482
 31
0.0
  0
LINE
  5
299
330
1F
100
AcDbEntity
  8
0
  6
Continuous
 62
     7
370
    25
100
AcDbLine
 10
765.7433501725
 20
539.3697198482
 30
0.0
 11
763.9433501725
 21
539.3697198482
 31
0.0
  0
LINE
  5
29A
330
1F
100
AcDbEntity
  8
0
  6
Continuous
 62
     7
370
    25
100
AcDbLine
 10
59.7433501725
 20
539.3697198482
 30
0.0
 11
59.7433501725
 21
539.9697198482
 31
0.0
  0
LINE
  5
29B
330
1F
100
AcDbEntity
  8
0
  6
Continuous
 62
     7
370
    25
100
AcDbLine
 10
60.7433501725
 20
558.3697198482
 30
0.0
 11
61.5433501725
 21
558.3697198482
 31
0.0
  0
LINE
  5
29C
330
1F
100
AcDbEntity
  8
0
  6
Continuous
 62
     7
370
    25
100
AcDbLine
 10
61.5433501725
 20
539.3697198482
 30
0.0
 11
59.7433501725
 21
539.3697198482
 31
0.0
  0
LINE
  5
29D
330
1F
100
AcDbEntity
  8
0
  6
Continuous
 62
     7
370
    25
100
AcDbLine
 10
62.7433501725
 20
558.5697198482
 30
0.0
 11
62.7433501725
 21
560.3697198482
 31
0.0
  0
LINE
  5
29E
330
1F
100
AcDbEntity
  8
0
  6
Continuous
 62
     7
370
    25
100
AcDbLine
 10
762.7433501725
 20
560.3697198482
 30
0.0
 11
762.7433501725
 21
558.5697198482
 31
0.0
  0
LINE
  5
29F
330
1F
100
AcDbEntity
  8
0
  6
Continuous
 62
     7
370
    25
100
AcDbLine
 10
117.2433501725
 20
533.1076690406
 30
0.0
 11
117.2433501725
 21
526.48279791
 31
0.0
  0
LINE
  5
2A0
330
1F
100
AcDbEntity
  8
0
  6
Continuous
 62
     7
370
    25
100
AcDbLine
 10
267.2433501725
 20
526.48279791
 30
0.0
 11
267.2433501725
 21
533.1076690406
 31
0.0
  0
LINE
  5
2A1
330
1F
100
AcDbEntity
  8
0
  6
Continuous
 62
     7
370
    25
100
AcDbLine
 10
337.7433501725
 20
533.1076690406
 30
0.0
 11
337.7433501725
 21
526.48279791
 31
0.0
  0
LINE
  5
2A2
330
1F
100
AcDbEntity
  8
0
  6
Continuous
 62
     7
370
    25
100
AcDbLine
 10
487.7433501725
 20
526.48279791
 30
0.0
 11
487.7433501725
 21
533.1076690406
 31
0.0
  0
LINE
  5
2A3
330
1F
100
AcDbEntity
  8
0
  6
Continuous
 62
     7
370
    25
100
AcDbLine
 10
558.2433501725
 20
533.1076690406
 30
0.0
 11
558.2433501725
 21
526.48279791
 31
0.0
  0
LINE
  5
2A4
330
1F
100
AcDbEntity
  8
0
  6
Continuous
 62
     7
370
    25
100
AcDbLine
 10
708.2433501725
 20
526.48279791
 30
0.0
 11
708.2433501725
 21
533.1076690406
 31
0.0
  0
LINE
  5
2A5
330
1F
100
AcDbEntity
  8
0
  6
Continuous
 62
     7
370
    25
100
AcDbLine
 10
117.2433501725
 20
526.48279791
 30
0.0
 11
117.2433501725
 21
525.98279791
 31
0.0
  0
LINE
  5
2A6
330
1F
100
AcDbEntity
  8
0
  6
Continuous
 62
     7
370
    25
100
AcDbLine
 10
267.2433501725
 20
525.98279791
 30
0.0
 11
267.2433501725
 21
526.48279791
 31
0.0
  0
LINE
  5
2A7
330
1F
100
AcDbEntity
  8
0
  6
Continuous
 62
     7
370
    25
100
AcDbLine
 10
487.7433501725
 20
525.98279791
 30
0.0
 11
487.7433501725
 21
526.48279791
 31
0.0
  0
LINE
  5
2A8
330
1F
100
AcDbEntity
  8
0
  6
Continuous
 62
     7
370
    25
100
AcDbLine
 10
337.7433501725
 20
526.48279791
 30
0.0
 11
337.7433501725
 21
525.98279791
 31
0.0
  0
LINE
  5
2A9
330
1F
100
AcDbEntity
  8
0
  6
Continuous
 62
     7
370
    25
100
AcDbLine
 10
558.2433501725
 20
526.48279791
 30
0.0
 11
558.2433501725
 21
525.98279791
 31
0.0
  0
LINE
  5
2AA
330
1F
100
AcDbEntity
  8
0
  6
Continuous
 62
     7
370
    25
100
AcDbLine
 10
708.2433501725
 20
525.98279791
 30
0.0
 11
708.2433501725
 21
526.48279791
 31
0.0
  0
ARC
  5
2AB
330
1F
100
AcDbEntity
  8
0
  6
Continuous
 62
     7
370
    25
100
AcDbCircle
 10
120.2433501725
 20
519.4651064564
 30
0.0
 40
3.0
100
AcDbArc
 50
180.0
 51
270.0
  0
LINE
  5
2AC
330
1F
100
AcDbEntity
  8
0
  6
Continuous
 62
     7
370
    25
100
AcDbLine
 10
117.2433501725
 20
519.4651064564
 30
0.0
 11
117.2433501725
 21
525.98279791
 31
0.0
  0
LINE
  5
2AD
330
1F
100
AcDbEntity
  8
0
  6
Continuous
 62
     7
370
    25
100
AcDbLine
 10
267.2433501725
 20
525.98279791
 30
0.0
 11
267.2433501725
 21
519.4651064564
 31
0.0
  0
ARC
  5
2AE
330
1F
100
AcDbEntity
  8
0
  6
Continuous
 62
     7
370
    25
100
AcDbCircle
 10
264.2433501725
 20
519.4651064564
 30
0.0
 40
3.0
100
AcDbArc
 50
270.0
 51
0.0
  0
LINE
  5
2AF
330
1F
100
AcDbEntity
  8
0
  6
Continuous
 62
     7
370
    25
100
AcDbLine
 10
264.2433501725
 20
516.4651064564
 30
0.0
 11
120.2433501725
 21
516.4651064564
 31
0.0
  0
ARC
  5
2B0
330
1F
100
AcDbEntity
  8
0
  6
Continuous
 62
     7
370
    25
100
AcDbCircle
 10
561.2433501725
 20
519.4651064564
 30
0.0
 40
3.000000000000114
100
AcDbArc
 50
180.0
 51
270.0
  0
LINE
  5
2B1
330
1F
100
AcDbEntity
  8
0
  6
Continuous
 62
     7
370
    25
100
AcDbLine
 10
558.2433501725
 20
519.4651064564
 30
0.0
 11
558.2433501725
 21
525.98279791
 31
0.0
  0
LINE
  5
2B2
330
1F
100
AcDbEntity
  8
0
  6
Continuous
 62
     7
370
    25
100
AcDbLine
 10
708.2433501725
 20
525.98279791
 30
0.0
 11
708.2433501725
 21
519.4651064564
 31
0.0
  0
ARC
  5
2B3
330
1F
100
AcDbEntity
  8
0
  6
Continuous
 62
     7
370
    25
100
AcDbCircle
 10
705.2433501725
 20
519.4651064564
 30
0.0
 40
3.0
100
AcDbArc
 50
270.0
 51
0.0
  0
LINE
  5
2B4
330
1F
100
AcDbEntity
  8
0
  6
Continuous
 62
     7
370
    25
100
AcDbLine
 10
705.2433501725
 20
516.4651064564
 30
0.0
 11
561.2433501725
 21
516.4651064564
 31
0.0
  0
ARC
  5
2B5
330
1F
100
AcDbEntity
  8
0
  6
Continuous
 62
     7
370
    25
100
AcDbCircle
 10
340.7433501725
 20
519.4651064564
 30
0.0
 40
3.0
100
AcDbArc
 50
180.0
 51
270.0
  0
LINE
  5
2B6
330
1F
100
AcDbEntity
  8
0
  6
Continuous
 62
     7
370
    25
100
AcDbLine
 10
337.7433501725
 20
519.4651064564
 30
0.0
 11
337.7433501725
 21
525.98279791
 31
0.0
  0
LINE
  5
2B7
330
1F
100
AcDbEntity
  8
0
  6
Continuous
 62
     7
370
    25
100
AcDbLine
 10
487.7433501725
 20
525.98279791
 30
0.0
 11
487.7433501725
 21
519.4651064564
 31
0.0
  0
ARC
  5
2B8
330
1F
100
AcDbEntity
  8
0
  6
Continuous
 62
     7
370
    25
100
AcDbCircle
 10
484.7433501725
 20
519.4651064564
 30
0.0
 40
3.0
100
AcDbArc
 50
270.0
 51
0.0
  0
LINE
  5
2B9
330
1F
100
AcDbEntity
  8
0
  6
Continuous
 62
     7
370
    25
100
AcDbLine
 10
484.7433501725
 20
516.4651064564
 30
0.0
 11
340.7433501725
 21
516.4651064564
 31
0.0
  0
LINE
  5
2BA
330
1F
100
AcDbEntity
  8
0
  6
Continuous
 62
     7
370
    25
100
AcDbLine
 10
774.4021001725
 20
544.8697198482
 30
0.0
 11
774.4021001725
 21
545.0697198481
 31
0.0
  0
LINE
  5
2BB
330
1F
100
AcDbEntity
  8
0
  6
Continuous
 62
     7
370
    25
100
AcDbLine
 10
774.4021001725
 20
550.6697198482
 30
0.0
 11
774.4021001725
 21
550.8697198482
 31
0.0
  0
LINE
  5
2BC
330
1F
100
AcDbEntity
  8
0
  6
Continuous
 62
     7
370
    25
100
AcDbLine
 10
774.9433501725
 20
549.4491231855
 30
0.0
 11
774.9433501725
 21
550.3284698482
 31
0.0
  0
LINE
  5
2BD
330
1F
100
AcDbEntity
  8
0
  6
Continuous
 62
     7
370
    25
100
AcDbLine
 10
774.9433501725
 20
545.4109698481
 30
0.0
 11
774.9433501725
 21
549.4491231855
 31
0.0
  0
LINE
  5
2BE
330
1F
100
AcDbEntity
  8
0
  6
Continuous
 62
     7
370
    25
100
AcDbLine
 10
764.2433501725
 20
562.1697198482
 30
0.0
 11
764.2433501725
 21
560.3697198482
 31
0.0
  0
LINE
  5
2BF
330
1F
100
AcDbEntity
  8
0
  6
Continuous
 62
     7
370
    25
100
AcDbLine
 10
764.2433501725
 20
560.3697198482
 30
0.0
 11
61.2433501725
 21
560.3697198482
 31
0.0
  0
LINE
  5
2C0
330
1F
100
AcDbEntity
  8
0
  6
Continuous
 62
     7
370
    25
100
AcDbLine
 10
61.2433501725
 20
560.3697198482
 30
0.0
 11
61.2433501725
 21
562.1697198482
 31
0.0
  0
LINE
  5
2C1
330
1F
100
AcDbEntity
  8
0
  6
Continuous
 62
     7
370
    25
100
AcDbLine
 10
764.2433501725
 20
562.1697198482
 30
0.0
 11
764.7433501725
 21
567.5447198482
 31
0.0
  0
LINE
  5
2C2
330
1F
100
AcDbEntity
  8
0
  6
Continuous
 62
     7
370
    25
100
AcDbLine
 10
60.7433501725
 20
567.5447198481
 30
0.0
 11
61.2433501725
 21
562.1697198482
 31
0.0
  0
LINE
  5
2C3
330
1F
100
AcDbEntity
  8
0
  6
Continuous
 62
     7
370
    25
100
AcDbLine
 10
50.5433501725
 20
545.6523817709
 30
0.0
 11
50.5433501725
 21
545.4109698481
 31
0.0
  0
LINE
  5
2C4
330
1F
100
AcDbEntity
  8
0
  6
Continuous
 62
     7
370
    25
100
AcDbLine
 10
50.5433501725
 20
550.3284698482
 30
0.0
 11
50.5433501725
 21
545.6523817709
 31
0.0
  0
LINE
  5
2C5
330
1F
100
AcDbEntity
  8
0
  6
Continuous
 62
     7
370
    25
100
AcDbLine
 10
51.0846001725
 20
550.8697198482
 30
0.0
 11
51.0846001725
 21
550.6697198482
 31
0.0
  0
LINE
  5
2C6
330
1F
100
AcDbEntity
  8
0
  6
Continuous
 62
     7
370
    25
100
AcDbLine
 10
51.0846001725
 20
545.0697198481
 30
0.0
 11
51.0846001725
 21
544.8697198481
 31
0.0
  0
SPLINE
  5
2C7
330
1F
100
AcDbEntity
  8
0
  6
Continuous
 62
     7
370
    25
100
AcDbSpline
210
0.0
220
0.0
230
1.0
 70
    24
 71
     3
 72
    15
 73
    11
 74
     0
 42
0.000000001
 43
0.00000001
 40
0.0
 40
0.0
 40
0.0
 40
0.0
 40
0.0346967497918684
 40
0.2211884951269666
 40
0.4076802404620656
 40
0.5080720152630801
 40
0.6105942475634835
 40
0.7131164798638866
 40
0.8135082546649015
 40
0.9999999999999999
 40
0.9999999999999999
 40
0.9999999999999999
 40
0.9999999999999999
 10
61.74335017247756
 20
542.0964710387484
 30
0.0
 10
61.74335017247756
 20
542.089749935117
 30
0.0
 10
61.74335017247773
 20
542.0469035357642
 30
0.0
 10
61.74335017247745
 20
542.5349444985226
 30
0.0
 10
61.74335017247756
 20
543.6308555559913
 30
0.0
 10
61.74335017247762
 20
544.8497526884386
 30
0.0
 10
61.74335017247751
 20
545.9299279162956
 30
0.0
 10
61.74335017247756
 20
547.0904048187613
 30
0.0
 10
61.74335017247745
 20
548.6209797138764
 30
0.0
 10
61.74335017247756
 20
549.6846056025265
 30
0.0
 10
61.74335017247756
 20
550.3760271532096
 30
0.0
  0
SPLINE
  5
2C8
330
1F
100
AcDbEntity
  8
0
  6
Continuous
 62
     7
370
    25
100
AcDbSpline
210
0.0
220
0.0
230
1.0
 70
    24
 71
     3
 72
    12
 73
     8
 74
     0
 42
0.000000001
 43
0.00000001
 40
0.0
 40
0.0
 40
0.0
 40
0.0
 40
0.3344405486782632
 40
0.5144757571369869
 40
0.6983315710265365
 40
0.8821873849160873
 40
0.9999999999999999
 40
0.9999999999999999
 40
0.9999999999999999
 40
0.9999999999999999
 10
61.74335017247756
 20
550.3760271532096
 30
0.0
 10
61.74335017247762
 20
551.0001726887115
 30
0.0
 10
61.74335017247762
 20
551.9603067041891
 30
0.0
 10
61.74335017247751
 20
552.8682176104843
 30
0.0
 10
61.74335017247768
 20
553.3739349484005
 30
0.0
 10
61.74335017247756
 20
553.6455546825388
 30
0.0
 10
61.74335017247762
 20
553.6436949510789
 30
0.0
 10
61.74335017247756
 20
553.642968657554
 30
0.0
  0
SPLINE
  5
2C9
330
1F
100
AcDbEntity
  8
0
  6
Continuous
 62
     7
370
    25
100
AcDbSpline
210
0.0
220
0.0
230
1.0
 70
     8
 71
     3
 72
     8
 73
     4
 74
     0
 42
0.000000001
 43
0.00000001
 40
0.0
 40
0.0
 40
0.0
 40
0.0
 40
1.0
 40
1.0
 40
1.0
 40
1.0
 10
65.74335017247057
 20
547.4863248204647
 30
0.0
 10
65.74335017247057
 20
548.4687032650374
 30
0.0
 10
65.56903487209115
 20
549.4241944332272
 30
0.0
 10
65.29676818507917
 20
550.3645770825548
 30
0.0
  0
SPLINE
  5
2CA
330
1F
100
AcDbEntity
  8
0
  6
Continuous
 62
     7
370
    25
100
AcDbSpline
210
0.0
220
0.0
230
1.0
 70
     8
 71
     3
 72
     8
 73
     4
 74
     0
 42
0.000000001
 43
0.00000001
 40
0.0
 40
0.0
 40
0.0
 40
0.0
 40
1.0
 40
1.0
 40
1.0
 40
1.0
 10
65.29676818507917
 20
544.6080725583747
 30
0.0
 10
65.5690348720906
 20
545.5484552077005
 30
0.0
 10
65.74335017247057
 20
546.5039463758937
 30
0.0
 10
65.74335017247057
 20
547.4863248204647
 30
0.0
  0
LINE
  5
2CB
330
1F
100
AcDbEntity
  8
0
  6
Continuous
 62
     7
370
    25
100
AcDbLine
 10
61.7433501725
 20
544.6080725584
 30
0.0
 11
65.2967681851
 21
544.6080725584
 31
0.0
  0
LINE
  5
2CC
330
1F
100
AcDbEntity
  8
0
  6
Continuous
 62
     7
370
    25
100
AcDbLine
 10
61.7433501725
 20
550.3645770826
 30
0.0
 11
65.2967681851
 21
550.3645770826
 31
0.0
  0
LINE
  5
2CD
330
1F
100
AcDbEntity
  8
0
  6
Continuous
 62
     7
370
    25
100
AcDbLine
 10
65.7433501725
 20
547.4863248205
 30
0.0
 11
65.7433501725
 21
551.9954007274
 31
0.0
  0
SPLINE
  5
2CE
330
1F
100
AcDbEntity
  8
0
  6
Continuous
 62
     7
370
    25
100
AcDbSpline
210
0.0
220
0.0
230
1.0
 70
     8
 71
     3
 72
     8
 73
     4
 74
     0
 42
0.000000001
 43
0.00000001
 40
0.0
 40
0.0
 40
0.0
 40
0.0
 40
1.0
 40
1.0
 40
1.0
 40
1.0
 10
65.29676818507912
 20
550.3645770825609
 30
0.0
 10
65.56903487209054
 20
550.8973998236257
 30
0.0
 10
65.74335017247046
 20
551.4387830825203
 30
0.0
 10
65.74335017247046
 20
551.9954007274488
 30
0.0
  0
LINE
  5
2CF
330
1F
100
AcDbEntity
  8
0
  6
Continuous
 62
     7
370
    25
100
AcDbLine
 10
65.7433501725
 20
543.3606439412
 30
0.0
 11
65.7433501725
 21
547.4863248205
 31
0.0
  0
SPLINE
  5
2D0
330
1F
100
AcDbEntity
  8
0
  6
Continuous
 62
     7
370
    25
100
AcDbSpline
210
0.0
220
0.0
230
1.0
 70
     8
 71
     3
 72
     8
 73
     4
 74
     0
 42
0.000000001
 43
0.00000001
 40
0.0
 40
0.0
 40
0.0
 40
0.0
 40
1.0
 40
1.0
 40
1.0
 40
1.0
 10
65.74335017247034
 20
543.3606439411672
 30
0.0
 10
65.74335017247034
 20
543.7864047408104
 30
0.0
 10
65.56903487209098
 20
544.2005126501075
 30
0.0
 10
65.29676818507912
 20
544.608072558369
 30
0.0
  0
SPLINE
  5
2D1
330
1F
100
AcDbEntity
  8
0
  6
Continuous
 62
     7
370
    25
100
AcDbSpline
210
0.0
220
0.0
230
1.0
 70
     8
 71
     3
 72
     8
 73
     4
 74
     0
 42
0.000000001
 43
0.00000001
 40
0.0
 40
0.0
 40
0.0
 40
0.0
 40
1.0
 40
1.0
 40
1.0
 40
1.0
 10
65.74335017247046
 20
551.9954007274488
 30
0.0
 10
65.74335017247046
 20
552.5520183723786
 30
0.0
 10
65.56903487209121
 20
553.0934016312705
 30
0.0
 10
65.29676818507912
 20
553.6262243723367
 30
0.0
  0
LINE
  5
2D2
330
1F
100
AcDbEntity
  8
0
  6
Continuous
 62
     7
370
    25
100
AcDbLine
 10
65.2967681851
 20
553.6262243723
 30
0.0
 11
61.7433501725
 21
553.6262243723
 31
0.0
  0
SPLINE
  5
2D3
330
1F
100
AcDbEntity
  8
0
  6
Continuous
 62
     7
370
    25
100
AcDbSpline
210
0.0
220
0.0
230
1.0
 70
     8
 71
     3
 72
     8
 73
     4
 74
     0
 42
0.000000001
 43
0.00000001
 40
0.0
 40
0.0
 40
0.0
 40
0.0
 40
1.0
 40
1.0
 40
1.0
 40
1.0
 10
65.29676818507907
 20
542.1132153239652
 30
0.0
 10
65.56903487209048
 20
542.5207752322261
 30
0.0
 10
65.74335017247034
 20
542.9348831415247
 30
0.0
 10
65.74335017247034
 20
543.3606439411672
 30
0.0
  0
LINE
  5
2D4
330
1F
100
AcDbEntity
  8
0
  6
Continuous
 62
     7
370
    25
100
AcDbLine
 10
61.7433501725
 20
542.113215324
 30
0.0
 11
65.2967681851
 21
542.113215324
 31
0.0
  0
LINE
  5
2D5
330
1F
100
AcDbEntity
  8
0
  6
Continuous
 62
     7
370
    25
100
AcDbLine
 10
51.2846001725
 20
550.8697198482
 30
0.0
 11
51.2846001725
 21
544.8697198482
 31
0.0
  0
LINE
  5
2D6
330
1F
100
AcDbEntity
  8
0
  6
Continuous
 62
     7
370
    25
100
AcDbLine
 10
50.7433501725
 20
545.6523817709
 30
0.0
 11
50.7433501725
 21
545.4109698481
 31
0.0
  0
LINE
  5
2D7
330
1F
100
AcDbEntity
  8
0
  6
Continuous
 62
     7
370
    25
100
AcDbLine
 10
50.7433501725
 20
550.3284698482
 30
0.0
 11
50.7433501725
 21
545.6523817709
 31
0.0
  0
LINE
  5
2D8
330
1F
100
AcDbEntity
  8
0
  6
Continuous
 62
     7
370
    25
100
AcDbLine
 10
65.2967681851
 20
553.6262243723
 30
0.0
 11
65.3719559406
 21
553.4162039045
 31
0.0
  0
LINE
  5
2D9
330
1F
100
AcDbEntity
  8
0
  6
Continuous
 62
     7
370
    25
100
AcDbLine
 10
65.7433501725
 20
551.9954007274
 30
0.0
 11
65.7433501725
 21
552.8697198481
 31
0.0
  0
LINE
  5
2DA
330
1F
100
AcDbEntity
  8
0
  6
Continuous
 62
     7
370
    25
100
AcDbLine
 10
65.7433501725
 20
542.8697198482
 30
0.0
 11
65.7433501725
 21
543.3606439412
 31
0.0
  0
LINE
  5
2DB
330
1F
100
AcDbEntity
  8
0
  6
Continuous
 62
     7
370
    25
100
AcDbLine
 10
60.7433501725
 20
541.9697198482
 30
0.0
 11
60.7433501725
 21
539.9697198482
 31
0.0
  0
LINE
  5
2DC
330
1F
100
AcDbEntity
  8
0
  6
Continuous
 62
     7
370
    25
100
AcDbLine
 10
60.7433501725
 20
539.9697198482
 30
0.0
 11
58.7433501725
 21
539.9697198482
 31
0.0
  0
LINE
  5
2DD
330
1F
100
AcDbEntity
  8
0
  6
Continuous
 62
     7
370
    25
100
AcDbLine
 10
58.7433501725
 20
539.9697198482
 30
0.0
 11
58.7433501725
 21
541.9697198482
 31
0.0
  0
LINE
  5
2DE
330
1F
100
AcDbEntity
  8
0
  6
Continuous
 62
     7
370
    25
100
AcDbLine
 10
58.7433501725
 20
541.9697198482
 30
0.0
 11
58.7433501725
 21
570.9697198482
 31
0.0
  0
LINE
  5
2DF
330
1F
100
AcDbEntity
  8
0
  6
Continuous
 62
     7
370
    25
100
AcDbLine
 10
60.7433501725
 20
541.9697198482
 30
0.0
 11
60.7433501725
 21
570.9697198482
 31
0.0
  0
LINE
  5
2E0
330
1F
100
AcDbEntity
  8
0
  6
Continuous
 62
     7
370
    25
100
AcDbLine
 10
60.7483627354
 20
571.0697198482
 30
0.0
 11
60.7433501725
 21
570.9697198482
 31
0.0
  0
LINE
  5
2E1
330
1F
100
AcDbEntity
  8
0
  6
Continuous
 62
     7
370
    25
100
AcDbLine
 10
58.7450173024
 20
571.0697198482
 30
0.0
 11
58.7433501725
 21
570.9697198482
 31
0.0
  0
LINE
  5
2E2
330
1F
100
AcDbEntity
  8
0
  6
Continuous
 62
     7
370
    25
100
AcDbLine
 10
58.7433501725
 20
555.9697198482
 30
0.0
 11
58.6830427933
 21
555.9697198482
 31
0.0
  0
LINE
  5
2E3
330
1F
100
AcDbEntity
  8
0
  6
Continuous
 62
     7
370
    25
100
AcDbLine
 10
58.6830427933
 20
539.9697198482
 30
0.0
 11
58.7433501725
 21
539.9697198482
 31
0.0
  0
LWPOLYLINE
  5
2E4
330
1F
100
AcDbEntity
  8
0
  6
Continuous
 62
     7
370
    25
100
AcDbPolyline
 90
        9
 70
   128
 43
0.0
 10
56.1278037843
 20
541.9697198482
 10
56.1409474266
 20
541.5795392041
 10
56.1798732507
 20
541.2043529834
 10
56.243085359
 20
540.8585793821
 10
56.3281545457
 20
540.5555062858
 10
56.4318116495
 20
540.3067806235
 10
56.5500731862
 20
540.1219607831
 10
56.6783944312
 20
540.0081492873
 10
56.811844071
 20
539.9697198482
  0
LINE
  5
2E5
330
1F
100
AcDbEntity
  8
0
  6
Continuous
 62
     7
370
    25
100
AcDbLine
 10
56.1278037843
 20
541.9697198482
 30
0.0
 11
56.1278037843
 21
544.8697198482
 31
0.0
  0
LINE
  5
2E6
330
1F
100
AcDbEntity
  8
0
  6
Continuous
 62
     7
370
    25
100
AcDbLine
 10
56.1278037843
 20
550.8697198482
 30
0.0
 11
56.1278037843
 21
553.9697198482
 31
0.0
  0
LWPOLYLINE
  5
2E7
330
1F
100
AcDbEntity
  8
0
  6
Continuous
 62
     7
370
    25
100
AcDbPolyline
 90
        9
 70
   128
 43
0.0
 10
56.811844071
 20
555.9697198482
 10
56.6783944312
 20
555.931290409
 10
56.5500731862
 20
555.8174789132
 10
56.4318116495
 20
555.6326590728
 10
56.3281545457
 20
555.3839334105
 10
56.243085359
 20
555.0808603142
 10
56.1798732507
 20
554.7350867129
 10
56.1409474266
 20
554.3599004922
 10
56.1278037843
 20
553.9697198482
  0
LINE
  5
2E8
330
1F
100
AcDbEntity
  8
0
  6
Continuous
 62
     7
370
    25
100
AcDbLine
 10
56.811844071
 20
555.9697198482
 30
0.0
 11
58.6830427933
 21
555.9697198482
 31
0.0
  0
LINE
  5
2E9
330
1F
100
AcDbEntity
  8
0
  6
Continuous
 62
     7
370
    25
100
AcDbLine
 10
58.6830427933
 20
539.9697198482
 30
0.0
 11
56.811844071
 21
539.9697198482
 31
0.0
  0
LINE
  5
2EA
330
1F
100
AcDbEntity
  8
0
  6
Continuous
 62
     7
370
    25
100
AcDbLine
 10
766.7433501725
 20
539.9697198482
 30
0.0
 11
764.7433501725
 21
539.9697198482
 31
0.0
  0
LINE
  5
2EB
330
1F
100
AcDbEntity
  8
0
  6
Continuous
 62
     7
370
    25
100
AcDbLine
 10
764.7433501725
 20
539.9697198482
 30
0.0
 11
764.7433501725
 21
541.9697198482
 31
0.0
  0
LINE
  5
2EC
330
1F
100
AcDbEntity
  8
0
  6
Continuous
 62
     7
370
    25
100
AcDbLine
 10
766.7433501725
 20
541.9697198482
 30
0.0
 11
766.7433501725
 21
539.9697198482
 31
0.0
  0
LINE
  5
2ED
330
1F
100
AcDbEntity
  8
0
  6
Continuous
 62
     7
370
    25
100
AcDbLine
 10
764.7433501725
 20
570.9697198482
 30
0.0
 11
764.7433501725
 21
541.9697198482
 31
0.0
  0
LINE
  5
2EE
330
1F
100
AcDbEntity
  8
0
  6
Continuous
 62
     7
370
    25
100
AcDbLine
 10
766.7433501725
 20
570.9697198482
 30
0.0
 11
766.7433501725
 21
541.9697198482
 31
0.0
  0
LINE
  5
2EF
330
1F
100
AcDbEntity
  8
0
  6
Continuous
 62
     7
370
    25
100
AcDbLine
 10
766.7433501725
 20
570.9697198482
 30
0.0
 11
766.7416830426
 21
571.0697198482
 31
0.0
  0
LINE
  5
2F0
330
1F
100
AcDbEntity
  8
0
  6
Continuous
 62
     7
370
    25
100
AcDbLine
 10
764.7433501725
 20
570.9697198482
 30
0.0
 11
764.7383376096
 21
571.0697198482
 31
0.0
  0
LINE
  5
2F1
330
1F
100
AcDbEntity
  8
0
  6
Continuous
 62
     7
370
    25
100
AcDbLine
 10
766.8036575517
 20
555.9697198482
 30
0.0
 11
766.7433501725
 21
555.9697198482
 31
0.0
  0
LINE
  5
2F2
330
1F
100
AcDbEntity
  8
0
  6
Continuous
 62
     7
370
    25
100
AcDbLine
 10
766.7433501725
 20
539.9697198482
 30
0.0
 11
766.8036575517
 21
539.9697198482
 31
0.0
  0
LWPOLYLINE
  5
2F3
330
1F
100
AcDbEntity
  8
0
  6
Continuous
 62
     7
370
    25
100
AcDbPolyline
 90
        9
 70
   128
 43
0.0
 10
768.674856274
 20
539.9697198482
 10
768.8083059138
 20
540.0081492873
 10
768.9366271588
 20
540.1219607831
 10
769.0548886955
 20
540.3067806235
 10
769.1585457993
 20
540.5555062858
 10
769.2436149859
 20
540.8585793821
 10
769.3068270943
 20
541.2043529834
 10
769.3457529184
 20
541.5795392041
 10
769.3588965607
 20
541.9697198482
  0
LINE
  5
2F4
330
1F
100
AcDbEntity
  8
0
  6
Continuous
 62
     7
370
    25
100
AcDbLine
 10
766.8036575517
 20
555.9697198482
 30
0.0
 11
768.674856274
 21
555.9697198482
 31
0.0
  0
LWPOLYLINE
  5
2F5
330
1F
100
AcDbEntity
  8
0
  6
Continuous
 62
     7
370
    25
100
AcDbPolyline
 90
        9
 70
   128
 43
0.0
 10
769.3588965607
 20
553.9697198482
 10
769.3457529184
 20
554.3599004922
 10
769.3068270943
 20
554.7350867129
 10
769.2436149859
 20
555.0808603142
 10
769.1585457993
 20
555.3839334105
 10
769.0548886955
 20
555.6326590728
 10
768.9366271588
 20
555.8174789132
 10
768.8083059138
 20
555.931290409
 10
768.674856274
 20
555.9697198482
  0
LINE
  5
2F6
330
1F
100
AcDbEntity
  8
0
  6
Continuous
 62
     7
370
    25
100
AcDbLine
 10
769.3588965607
 20
553.9697198482
 30
0.0
 11
769.3588965607
 21
550.8697198482
 31
0.0
  0
LINE
  5
2F7
330
1F
100
AcDbEntity
  8
0
  6
Continuous
 62
     7
370
    25
100
AcDbLine
 10
769.3588965607
 20
544.8697198482
 30
0.0
 11
769.3588965607
 21
541.9697198482
 31
0.0
  0
LINE
  5
2F8
330
1F
100
AcDbEntity
  8
0
  6
Continuous
 62
     7
370
    25
100
AcDbLine
 10
768.674856274
 20
539.9697198482
 30
0.0
 11
766.8036575517
 21
539.9697198482
 31
0.0
  0
LINE
  5
2F9
330
1F
100
AcDbEntity
  8
0
  6
Continuous
 62
     7
370
    25
100
AcDbLine
 10
758.9933501725
 20
565.9697198481
 30
0.0
 11
749.4933501725
 21
565.9697198481
 31
0.0
  0
LINE
  5
2FA
330
1F
100
AcDbEntity
  8
0
  6
Continuous
 62
     7
370
    25
100
AcDbLine
 10
758.9933501725
 20
566.4697198482
 30
0.0
 11
758.9933501725
 21
565.9697198481
 31
0.0
  0
LINE
  5
2FB
330
1F
100
AcDbEntity
  8
0
  6
Continuous
 62
     7
370
    25
100
AcDbLine
 10
749.4933501725
 20
565.9697198481
 30
0.0
 11
749.4933501725
 21
566.4697198481
 31
0.0
  0
ARC
  5
2FC
330
1F
100
AcDbEntity
  8
0
  6
Continuous
 62
     7
370
    25
100
AcDbCircle
 10
748.7299501725
 20
567.2063198481
 30
0.0
 40
1.236599999999953
100
AcDbArc
 50
216.5600911005
 51
270.0
  0
LINE
  5
2FD
330
1F
100
AcDbEntity
  8
0
  6
Continuous
 62
     7
370
    25
100
AcDbLine
 10
749.4933501725
 20
565.9697198481
 30
0.0
 11
748.7299501725
 21
565.9697198481
 31
0.0
  0
ARC
  5
2FE
330
1F
100
AcDbEntity
  8
0
  6
Continuous
 62
     7
370
    25
100
AcDbCircle
 10
759.7567501725
 20
567.2063198481
 30
0.0
 40
1.236599999999989
100
AcDbArc
 50
270.0
 51
323.4399088996
  0
LINE
  5
2FF
330
1F
100
AcDbEntity
  8
0
  6
Continuous
 62
     7
370
    25
100
AcDbLine
 10
759.7567501725
 20
565.9697198481
 30
0.0
 11
758.9933501725
 21
565.9697198481
 31
0.0
  0
ARC
  5
300
330
1F
100
AcDbEntity
  8
0
  6
Continuous
 62
     7
370
    25
100
AcDbCircle
 10
773.2433501725
 20
577.0697198482
 30
0.0
 40
6.000000000000022
100
AcDbArc
 50
270.0
 51
323.1301023541
  0
ARC
  5
301
330
1F
100
AcDbEntity
  8
0
  6
Continuous
 62
     7
370
    25
100
AcDbCircle
 10
52.2433501725
 20
577.0697198482
 30
0.0
 40
6.000000000000022
100
AcDbArc
 50
216.8698976459
 51
270.0
  0
ARC
  5
302
330
1F
100
AcDbEntity
  8
0
  6
Continuous
 62
     7
370
    25
100
AcDbCircle
 10
764.4433501725
 20
22.8744142718
 30
0.0
 40
0.5
100
AcDbArc
 50
180.0
 51
0.0
  0
ARC
  5
303
330
1F
100
AcDbEntity
  8
0
  6
Continuous
 62
     7
370
    25
100
AcDbCircle
 10
764.4433501725
 20
34.474414272
 30
0.0
 40
0.5
100
AcDbArc
 50
0.0
 51
180.0
  0
LINE
  5
304
330
1F
100
AcDbEntity
  8
0
  6
Continuous
 62
     7
370
    25
100
AcDbLine
 10
774.4021001725
 20
25.6744142719
 30
0.0
 11
774.9433501725
 21
26.2156642719
 31
0.0
  0
LINE
  5
305
330
1F
100
AcDbEntity
  8
0
  6
Continuous
 62
     7
370
    25
100
AcDbLine
 10
774.9433501725
 20
31.1331642719
 30
0.0
 11
774.4021001725
 21
31.6744142719
 31
0.0
  0
LINE
  5
306
330
1F
100
AcDbEntity
  8
0
  6
Continuous
 62
     7
370
    25
100
AcDbLine
 10
774.4021001725
 20
31.6744142719
 30
0.0
 11
765.7433501725
 21
31.6744142719
 31
0.0
  0
LINE
  5
307
330
1F
100
AcDbEntity
  8
0
  6
Continuous
 62
     7
370
    25
100
AcDbLine
 10
765.7433501725
 20
25.6744142719
 30
0.0
 11
774.4021001725
 21
25.6744142719
 31
0.0
  0
LINE
  5
308
330
1F
100
AcDbEntity
  8
0
  6
Continuous
 62
     7
370
    25
100
AcDbLine
 10
740.6628118775
 20
17.3229856724
 30
0.0
 11
741.0933501725
 21
17.0744142719
 31
0.0
  0
LINE
  5
309
330
1F
100
AcDbEntity
  8
0
  6
Continuous
 62
     7
370
    25
100
AcDbLine
 10
747.3933501725
 20
17.0744142719
 30
0.0
 11
747.7885647581
 21
17.3025915193
 31
0.0
  0
LINE
  5
30A
330
1F
100
AcDbEntity
  8
0
  6
Continuous
 62
     7
370
    25
100
AcDbLine
 10
747.7885647581
 20
20.0462370245
 30
0.0
 11
747.3933501725
 21
20.2744142719
 31
0.0
  0
LINE
  5
30B
330
1F
100
AcDbEntity
  8
0
  6
Continuous
 62
     7
370
    25
100
AcDbLine
 10
741.0933501725
 20
20.2744142719
 30
0.0
 11
740.6628118775
 21
20.0258428714
 31
0.0
  0
LINE
  5
30C
330
1F
100
AcDbEntity
  8
0
  6
Continuous
 62
     7
370
    25
100
AcDbLine
 10
297.6628118775
 20
17.3229856724
 30
0.0
 11
298.0933501725
 21
17.0744142719
 31
0.0
  0
LINE
  5
30D
330
1F
100
AcDbEntity
  8
0
  6
Continuous
 62
     7
370
    25
100
AcDbLine
 10
304.3933501725
 20
17.0744142719
 30
0.0
 11
304.7885647581
 21
17.3025915193
 31
0.0
  0
LINE
  5
30E
330
1F
100
AcDbEntity
  8
0
  6
Continuous
 62
     7
370
    25
100
AcDbLine
 10
304.7885647581
 20
20.0462370245
 30
0.0
 11
304.3933501725
 21
20.2744142719
 31
0.0
  0
LINE
  5
30F
330
1F
100
AcDbEntity
  8
0
  6
Continuous
 62
     7
370
    25
100
AcDbLine
 10
298.0933501725
 20
20.2744142719
 30
0.0
 11
297.6628118775
 21
20.0258428714
 31
0.0
  0
LINE
  5
310
330
1F
100
AcDbEntity
  8
0
  6
Continuous
 62
     7
370
    25
100
AcDbLine
 10
527.7885647581
 20
20.0462370245
 30
0.0
 11
527.3933501725
 21
20.2744142719
 31
0.0
  0
LINE
  5
311
330
1F
100
AcDbEntity
  8
0
  6
Continuous
 62
     7
370
    25
100
AcDbLine
 10
521.0933501725
 20
20.2744142719
 30
0.0
 11
520.6628118775
 21
20.0258428714
 31
0.0
  0
LINE
  5
312
330
1F
100
AcDbEntity
  8
0
  6
Continuous
 62
     7
370
    25
100
AcDbLine
 10
520.6628118775
 20
17.3229856724
 30
0.0
 11
521.0933501725
 21
17.0744142719
 31
0.0
  0
LINE
  5
313
330
1F
100
AcDbEntity
  8
0
  6
Continuous
 62
     7
370
    25
100
AcDbLine
 10
527.3933501725
 20
17.0744142719
 30
0.0
 11
527.7885647581
 21
17.3025915193
 31
0.0
  0
LINE
  5
314
330
1F
100
AcDbEntity
  8
0
  6
Continuous
 62
     7
370
    25
100
AcDbLine
 10
77.6628118775
 20
17.3229856724
 30
0.0
 11
78.0933501725
 21
17.0744142719
 31
0.0
  0
LINE
  5
315
330
1F
100
AcDbEntity
  8
0
  6
Continuous
 62
     7
370
    25
100
AcDbLine
 10
84.3933501725
 20
17.0744142719
 30
0.0
 11
84.7885647581
 21
17.3025915193
 31
0.0
  0
LINE
  5
316
330
1F
100
AcDbEntity
  8
0
  6
Continuous
 62
     7
370
    25
100
AcDbLine
 10
84.7885647581
 20
20.0462370245
 30
0.0
 11
84.3933501725
 21
20.2744142719
 31
0.0
  0
LINE
  5
317
330
1F
100
AcDbEntity
  8
0
  6
Continuous
 62
     7
370
    25
100
AcDbLine
 10
78.0933501725
 20
20.2744142719
 30
0.0
 11
77.6628118775
 21
20.0258428714
 31
0.0
  0
LINE
  5
318
330
1F
100
AcDbEntity
  8
0
  6
Continuous
 62
     7
370
    25
100
AcDbLine
 10
60.2433501725
 20
3.6244142719
 30
0.0
 11
765.2433501725
 21
3.6244142719
 31
0.0
  0
LINE
  5
319
330
1F
100
AcDbEntity
  8
0
  6
Continuous
 62
     7
370
    25
100
AcDbLine
 10
742.2433501725
 20
25.3744142719
 30
0.0
 11
742.2433501725
 21
20.2744142719
 31
0.0
  0
LINE
  5
31A
330
1F
100
AcDbEntity
  8
0
  6
Continuous
 62
     7
370
    25
100
AcDbLine
 10
742.2433501725
 20
17.0744142719
 30
0.0
 11
742.2433501725
 21
16.9744142719
 31
0.0
  0
LINE
  5
31B
330
1F
100
AcDbEntity
  8
0
  6
Continuous
 62
     7
370
    25
100
AcDbLine
 10
746.2433501725
 20
16.9744142719
 30
0.0
 11
746.2433501725
 21
17.0744142719
 31
0.0
  0
LINE
  5
31C
330
1F
100
AcDbEntity
  8
0
  6
Continuous
 62
     7
370
    25
100
AcDbLine
 10
746.2433501725
 20
20.2744142719
 30
0.0
 11
746.2433501725
 21
25.3744142719
 31
0.0
  0
LINE
  5
31D
330
1F
100
AcDbEntity
  8
0
  6
Continuous
 62
     7
370
    25
100
AcDbLine
 10
299.2433501725
 20
25.3744142719
 30
0.0
 11
299.2433501725
 21
20.2744142719
 31
0.0
  0
LINE
  5
31E
330
1F
100
AcDbEntity
  8
0
  6
Continuous
 62
     7
370
    25
100
AcDbLine
 10
299.2433501725
 20
17.0744142719
 30
0.0
 11
299.2433501725
 21
16.9744142719
 31
0.0
  0
LINE
  5
31F
330
1F
100
AcDbEntity
  8
0
  6
Continuous
 62
     7
370
    25
100
AcDbLine
 10
303.2433501725
 20
16.9744142719
 30
0.0
 11
303.2433501725
 21
17.0744142719
 31
0.0
  0
LINE
  5
320
330
1F
100
AcDbEntity
  8
0
  6
Continuous
 62
     7
370
    25
100
AcDbLine
 10
303.2433501725
 20
20.2744142719
 30
0.0
 11
303.2433501725
 21
25.3744142719
 31
0.0
  0
LINE
  5
321
330
1F
100
AcDbEntity
  8
0
  6
Continuous
 62
     7
370
    25
100
AcDbLine
 10
522.2433501725
 20
25.3744142719
 30
0.0
 11
522.2433501725
 21
20.2744142719
 31
0.0
  0
LINE
  5
322
330
1F
100
AcDbEntity
  8
0
  6
Continuous
 62
     7
370
    25
100
AcDbLine
 10
522.2433501725
 20
17.0744142719
 30
0.0
 11
522.2433501725
 21
16.9744142719
 31
0.0
  0
LINE
  5
323
330
1F
100
AcDbEntity
  8
0
  6
Continuous
 62
     7
370
    25
100
AcDbLine
 10
526.2433501725
 20
16.9744142719
 30
0.0
 11
526.2433501725
 21
17.0744142719
 31
0.0
  0
LINE
  5
324
330
1F
100
AcDbEntity
  8
0
  6
Continuous
 62
     7
370
    25
100
AcDbLine
 10
526.2433501725
 20
20.2744142719
 30
0.0
 11
526.2433501725
 21
25.3744142719
 31
0.0
  0
LINE
  5
325
330
1F
100
AcDbEntity
  8
0
  6
Continuous
 62
     7
370
    25
100
AcDbLine
 10
79.2433501725
 20
25.3744142719
 30
0.0
 11
79.2433501725
 21
20.2744142719
 31
0.0
  0
LINE
  5
326
330
1F
100
AcDbEntity
  8
0
  6
Continuous
 62
     7
370
    25
100
AcDbLine
 10
79.2433501725
 20
17.0744142719
 30
0.0
 11
79.2433501725
 21
16.9744142719
 31
0.0
  0
LINE
  5
327
330
1F
100
AcDbEntity
  8
0
  6
Continuous
 62
     7
370
    25
100
AcDbLine
 10
83.2433501725
 20
16.9744142719
 30
0.0
 11
83.2433501725
 21
17.0744142719
 31
0.0
  0
LINE
  5
328
330
1F
100
AcDbEntity
  8
0
  6
Continuous
 62
     7
370
    25
100
AcDbLine
 10
83.2433501725
 20
20.2744142719
 30
0.0
 11
83.2433501725
 21
25.3744142719
 31
0.0
  0
ARC
  5
329
330
1F
100
AcDbEntity
  8
0
  6
Continuous
 62
     7
370
    25
100
AcDbCircle
 10
61.0433501725
 20
34.474414272
 30
0.0
 40
0.5
100
AcDbArc
 50
0.0
 51
180.0
  0
ARC
  5
32A
330
1F
100
AcDbEntity
  8
0
  6
Continuous
 62
     7
370
    25
100
AcDbCircle
 10
61.0433501725
 20
22.8744142718
 30
0.0
 40
0.5
100
AcDbArc
 50
180.0
 51
0.0
  0
LINE
  5
32B
330
1F
100
AcDbEntity
  8
0
  6
Continuous
 62
     7
370
    25
100
AcDbLine
 10
51.0846001725
 20
25.6744142719
 30
0.0
 11
59.7433501725
 21
25.6744142719
 31
0.0
  0
LINE
  5
32C
330
1F
100
AcDbEntity
  8
0
  6
Continuous
 62
     7
370
    25
100
AcDbLine
 10
59.7433501725
 20
31.6744142719
 30
0.0
 11
51.0846001725
 21
31.6744142719
 31
0.0
  0
LINE
  5
32D
330
1F
100
AcDbEntity
  8
0
  6
Continuous
 62
     7
370
    25
100
AcDbLine
 10
51.0846001725
 20
31.6744142719
 30
0.0
 11
50.5433501725
 21
31.1331642719
 31
0.0
  0
LINE
  5
32E
330
1F
100
AcDbEntity
  8
0
  6
Continuous
 62
     7
370
    25
100
AcDbLine
 10
50.5433501725
 20
26.2156642719
 30
0.0
 11
51.0846001725
 21
25.6744142719
 31
0.0
  0
LINE
  5
32F
330
1F
100
AcDbEntity
  8
0
  6
Continuous
 62
     7
370
    25
100
AcDbLine
 10
65.5433501725
 20
33.6744142719
 30
0.0
 11
65.2138670767
 21
34.245095734
 31
0.0
  0
LINE
  5
330
330
1F
100
AcDbEntity
  8
0
  6
Continuous
 62
     7
370
    25
100
AcDbLine
 10
65.2138670767
 20
23.1037328098
 30
0.0
 11
65.5433501725
 21
23.6744142719
 31
0.0
  0
LINE
  5
331
330
1F
100
AcDbEntity
  8
0
  6
Continuous
 62
     7
370
    25
100
AcDbLine
 10
767.2433501725
 20
5.4744142719
 30
0.0
 11
765.0712571492
 21
5.4744142719
 31
0.0
  0
LINE
  5
332
330
1F
100
AcDbEntity
  8
0
  6
Continuous
 62
     7
370
    25
100
AcDbLine
 10
60.4154431957
 20
5.4744142719
 30
0.0
 11
58.2433501725
 21
5.4744142719
 31
0.0
  0
LINE
  5
333
330
1F
100
AcDbEntity
  8
0
  6
Continuous
 62
     7
370
    25
100
AcDbLine
 10
58.2433501725
 20
5.4744142719
 30
0.0
 11
52.2433501725
 21
5.4744142719
 31
0.0
  0
LINE
  5
334
330
1F
100
AcDbEntity
  8
0
  6
Continuous
 62
     7
370
    25
100
AcDbLine
 10
773.2433501725
 20
5.4744142719
 30
0.0
 11
767.2433501725
 21
5.4744142719
 31
0.0
  0
SPLINE
  5
335
330
1F
100
AcDbEntity
  8
0
  6
Continuous
 62
     7
370
    25
100
AcDbSpline
210
0.0
220
0.0
230
1.0
 70
    24
 71
     3
 72
     9
 73
     5
 74
     0
 42
0.000000001
 43
0.00000001
 40
0.0
 40
0.0
 40
0.0
 40
0.0
 40
0.5153941859625923
 40
1.0
 40
1.0
 40
1.0
 40
1.0
 10
764.9433501724768
 20
34.34942427191675
 30
0.0
 10
764.9433501724769
 20
34.39316611997224
 30
0.0
 10
764.9433501724768
 20
34.4780367864385
 30
0.0
 10
764.9433501724767
 20
34.4552803511951
 30
0.0
 10
764.9433501724768
 20
34.44425245036939
 30
0.0
  0
SPLINE
  5
336
330
1F
100
AcDbEntity
  8
0
  6
Continuous
 62
     7
370
    25
100
AcDbSpline
210
0.0
220
0.0
230
1.0
 70
    24
 71
     3
 72
    17
 73
    13
 74
     0
 42
0.000000001
 43
0.00000001
 40
0.0
 40
0.0
 40
0.0
 40
0.0
 40
0.0359921626376374
 40
0.1205930661280436
 40
0.2034359252874614
 40
0.3573281084250907
 40
0.5112202915627208
 40
0.5940631507221377
 40
0.6786640542125447
 40
0.7632649577029526
 40
0.8461078168623681
 40
1.0
 40
1.0
 40
1.0
 40
1.0
 10
763.9433501724768
 20
34.44425245038033
 30
0.0
 10
763.9433501724768
 20
34.4514038374216
 30
0.0
 10
763.9433501724768
 20
34.47536482301333
 30
0.0
 10
763.9433501724768
 20
34.25735989677769
 30
0.0
 10
763.9433501724768
 20
33.6855727996906
 30
0.0
 10
763.9433501724766
 20
32.48855622360028
 30
0.0
 10
763.9433501724768
 20
30.84249946372319
 30
0.0
 10
763.9433501724768
 20
29.3573091115094
 30
0.0
 10
763.9433501724768
 20
28.16128098713517
 30
0.0
 10
763.9433501724768
 20
26.99151557434576
 30
0.0
 10
763.9433501724768
 20
25.56956839376195
 30
0.0
 10
763.9433501724768
 20
24.75730111390179
 30
0.0
 10
763.9433501724768
 20
24.22927795444026
 30
0.0
  0
SPLINE
  5
337
330
1F
100
AcDbEntity
  8
0
  6
Continuous
 62
     7
370
    25
100
AcDbSpline
210
0.0
220
0.0
230
1.0
 70
     8
 71
     3
 72
     8
 73
     4
 74
     0
 42
0.000000001
 43
0.00000001
 40
0.0
 40
0.0
 40
0.0
 40
0.0
 40
1.0
 40
1.0
 40
1.0
 40
1.0
 10
759.943350172484
 20
31.88621566959488
 30
0.0
 10
759.943350172484
 20
31.13109486328694
 30
0.0
 10
760.1176654728635
 20
30.3966413893435
 30
0.0
 10
760.3899321598752
 20
29.67380131857317
 30
0.0
  0
SPLINE
  5
338
330
1F
100
AcDbEntity
  8
0
  6
Continuous
 62
     7
370
    25
100
AcDbSpline
210
0.0
220
0.0
230
1.0
 70
     8
 71
     3
 72
     8
 73
     4
 74
     0
 42
0.000000001
 43
0.00000001
 40
0.0
 40
0.0
 40
0.0
 40
0.0
 40
1.0
 40
1.0
 40
1.0
 40
1.0
 10
760.3899321598752
 20
34.09863002061667
 30
0.0
 10
760.1176654728639
 20
33.37578994984739
 30
0.0
 10
759.943350172484
 20
32.6413364759017
 30
0.0
 10
759.943350172484
 20
31.88621566959488
 30
0.0
  0
LINE
  5
339
330
1F
100
AcDbEntity
  8
0
  6
Continuous
 62
     7
370
    25
100
AcDbLine
 10
760.3899321599
 20
34.0986300206
 30
0.0
 11
763.9433501725
 21
34.0986300206
 31
0.0
  0
LINE
  5
33A
330
1F
100
AcDbEntity
  8
0
  6
Continuous
 62
     7
370
    25
100
AcDbLine
 10
763.9433501725
 20
29.6738013186
 30
0.0
 11
760.3899321599
 21
29.6738013186
 31
0.0
  0
SPLINE
  5
33B
330
1F
100
AcDbEntity
  8
0
  6
Continuous
 62
     7
370
    25
100
AcDbSpline
210
0.0
220
0.0
230
1.0
 70
     8
 71
     3
 72
     8
 73
     4
 74
     0
 42
0.000000001
 43
0.00000001
 40
0.0
 40
0.0
 40
0.0
 40
0.0
 40
1.0
 40
1.0
 40
1.0
 40
1.0
 10
759.9433501724839
 20
26.96169344421788
 30
0.0
 10
759.9433501724839
 20
26.03602186559759
 30
0.0
 10
760.1176654728632
 20
25.13568552077829
 30
0.0
 10
760.3899321598752
 20
24.2495855698691
 30
0.0
  0
SPLINE
  5
33C
330
1F
100
AcDbEntity
  8
0
  6
Continuous
 62
     7
370
    25
100
AcDbSpline
210
0.0
220
0.0
230
1.0
 70
     8
 71
     3
 72
     8
 73
     4
 74
     0
 42
0.000000001
 43
0.00000001
 40
0.0
 40
0.0
 40
0.0
 40
0.0
 40
1.0
 40
1.0
 40
1.0
 40
1.0
 10
760.3899321598751
 20
29.67380131856655
 30
0.0
 10
760.1176654728638
 20
28.78770136765905
 30
0.0
 10
759.9433501724839
 20
27.88736502283641
 30
0.0
 10
759.9433501724839
 20
26.96169344421788
 30
0.0
  0
LINE
  5
33D
330
1F
100
AcDbEntity
  8
0
  6
Continuous
 62
     7
370
    25
100
AcDbLine
 10
763.9433501725
 20
24.2495855699
 30
0.0
 11
760.3899321599
 21
24.2495855699
 31
0.0
  0
LINE
  5
33E
330
1F
100
AcDbEntity
  8
0
  6
Continuous
 62
     7
370
    25
100
AcDbLine
 10
759.9433501725
 20
31.8862156696
 30
0.0
 11
759.9433501725
 21
26.9616934442
 31
0.0
  0
SPLINE
  5
33F
330
1F
100
AcDbEntity
  8
0
  6
Continuous
 62
     7
370
    25
100
AcDbSpline
210
0.0
220
0.0
230
1.0
 70
     8
 71
     3
 72
     8
 73
     4
 74
     0
 42
0.000000001
 43
0.00000001
 40
0.0
 40
0.0
 40
0.0
 40
0.0
 40
1.0
 40
1.0
 40
1.0
 40
1.0
 10
760.3899321598752
 20
24.24958556986469
 30
0.0
 10
760.1176654728639
 20
24.08632568972628
 30
0.0
 10
759.943350172484
 20
23.92044281884986
 30
0.0
 10
759.943350172484
 20
23.74989204653798
 30
0.0
  0
LINE
  5
340
330
1F
100
AcDbEntity
  8
0
  6
Continuous
 62
     7
370
    25
100
AcDbLine
 10
759.9433501725
 20
26.9616934442
 30
0.0
 11
759.9433501725
 21
23.7498920465
 31
0.0
  0
SPLINE
  5
341
330
1F
100
AcDbEntity
  8
0
  6
Continuous
 62
     7
370
    25
100
AcDbSpline
210
0.0
220
0.0
230
1.0
 70
     8
 71
     3
 72
     8
 73
     4
 74
     0
 42
0.000000001
 43
0.00000001
 40
0.0
 40
0.0
 40
0.0
 40
0.0
 40
1.0
 40
1.0
 40
1.0
 40
1.0
 10
759.943350172484
 20
33.59893649729226
 30
0.0
 10
759.943350172484
 20
33.76948726960457
 30
0.0
 10
760.1176654728632
 20
33.93537014048015
 30
0.0
 10
760.3899321598752
 20
34.09863002061898
 30
0.0
  0
LINE
  5
342
330
1F
100
AcDbEntity
  8
0
  6
Continuous
 62
     7
370
    25
100
AcDbLine
 10
759.9433501725
 20
31.8862156696
 30
0.0
 11
759.9433501725
 21
33.6697762377
 31
0.0
  0
SPLINE
  5
343
330
1F
100
AcDbEntity
  8
0
  6
Continuous
 62
     7
370
    25
100
AcDbSpline
210
0.0
220
0.0
230
1.0
 70
     8
 71
     3
 72
     8
 73
     4
 74
     0
 42
0.000000001
 43
0.00000001
 40
0.0
 40
0.0
 40
0.0
 40
0.0
 40
1.0
 40
1.0
 40
1.0
 40
1.0
 10
759.943350172484
 20
23.74989204653798
 30
0.0
 10
759.943350172484
 20
23.57934127422579
 30
0.0
 10
760.1176654728635
 20
23.41345840334998
 30
0.0
 10
760.3899321598752
 20
23.25019852321127
 30
0.0
  0
LINE
  5
344
330
1F
100
AcDbEntity
  8
0
  6
Continuous
 62
     7
370
    25
100
AcDbLine
 10
763.9433501725
 20
23.2501985232
 30
0.0
 11
760.3899321599
 21
23.2501985232
 31
0.0
  0
LINE
  5
345
330
1F
100
AcDbEntity
  8
0
  6
Continuous
 62
     7
370
    25
100
AcDbLine
 10
774.9433501725
 20
26.2156642719
 30
0.0
 11
774.9433501725
 21
31.1331642719
 31
0.0
  0
LINE
  5
346
330
1F
100
AcDbEntity
  8
0
  6
Continuous
 62
     7
370
    25
100
AcDbLine
 10
774.4021001725
 20
30.6014951105
 30
0.0
 11
774.4021001725
 21
31.6744142719
 31
0.0
  0
LINE
  5
347
330
1F
100
AcDbEntity
  8
0
  6
Continuous
 62
     7
370
    25
100
AcDbLine
 10
774.4021001725
 20
25.6744142719
 30
0.0
 11
774.4021001725
 21
30.6014951105
 31
0.0
  0
ARC
  5
348
330
1F
100
AcDbEntity
  8
0
  6
Continuous
 62
     7
370
    25
100
AcDbCircle
 10
767.2433501725
 20
6.0744142719
 30
0.0
 40
3.000000000000002
100
AcDbArc
 50
227.6305369016
 51
270.0
  0
LINE
  5
349
330
1F
100
AcDbEntity
  8
0
  6
Continuous
 62
     7
370
    25
100
AcDbLine
 10
779.2433501725
 20
3.0744142719
 30
0.0
 11
767.2433501725
 21
3.0744142719
 31
0.0
  0
ARC
  5
34A
330
1F
100
AcDbEntity
  8
0
  6
Continuous
 62
     7
370
    25
100
AcDbCircle
 10
779.2433501725
 20
6.0744142719
 30
0.0
 40
3.0
100
AcDbArc
 50
270.0
 51
0.0
  0
LINE
  5
34B
330
1F
100
AcDbEntity
  8
0
  6
Continuous
 62
     7
370
    25
100
AcDbLine
 10
782.2433501725
 20
7.0744142719
 30
0.0
 11
782.2433501725
 21
6.0744142719
 31
0.0
  0
LINE
  5
34C
330
1F
100
AcDbEntity
  8
0
  6
Continuous
 62
     7
370
    25
100
AcDbLine
 10
808.7726394944
 20
10.0744142719
 30
0.0
 11
785.2433501725
 21
10.0744142719
 31
0.0
  0
LINE
  5
34D
330
1F
100
AcDbEntity
  8
0
  6
Continuous
 62
     7
370
    25
100
AcDbLine
 10
808.7726394944
 20
0.4744142719
 30
0.0
 11
808.7726394944
 21
10.0744142719
 31
0.0
  0
LINE
  5
34E
330
1F
100
AcDbEntity
  8
0
  6
Continuous
 62
     7
370
    25
100
AcDbLine
 10
16.7140608506
 20
0.4744142719
 30
0.0
 11
16.7140608506
 21
10.0744142719
 31
0.0
  0
LINE
  5
34F
330
1F
100
AcDbEntity
  8
0
  6
Continuous
 62
     7
370
    25
100
AcDbLine
 10
40.2433501725
 20
10.0744142719
 30
0.0
 11
16.7140608506
 21
10.0744142719
 31
0.0
  0
ARC
  5
350
330
1F
100
AcDbEntity
  8
0
  6
Continuous
 62
     7
370
    25
100
AcDbCircle
 10
40.2433501725
 20
7.0744142719
 30
0.0
 40
3.0
100
AcDbArc
 50
0.0
 51
90.0
  0
LINE
  5
351
330
1F
100
AcDbEntity
  8
0
  6
Continuous
 62
     7
370
    25
100
AcDbLine
 10
43.2433501725
 20
7.0744142719
 30
0.0
 11
43.2433501725
 21
6.0744142719
 31
0.0
  0
ARC
  5
352
330
1F
100
AcDbEntity
  8
0
  6
Continuous
 62
     7
370
    25
100
AcDbCircle
 10
46.2433501725
 20
6.0744142719
 30
0.0
 40
3.000000000000007
100
AcDbArc
 50
180.0
 51
270.0
  0
LINE
  5
353
330
1F
100
AcDbEntity
  8
0
  6
Continuous
 62
     7
370
    25
100
AcDbLine
 10
46.2433501725
 20
3.0744142719
 30
0.0
 11
58.2433501725
 21
3.0744142719
 31
0.0
  0
ARC
  5
354
330
1F
100
AcDbEntity
  8
0
  6
Continuous
 62
     7
370
    25
100
AcDbCircle
 10
58.2433501725
 20
6.0744142719
 30
0.0
 40
2.999999999999996
100
AcDbArc
 50
270.0
 51
312.3694630984
  0
ARC
  5
355
330
1F
100
AcDbEntity
  8
0
  6
Continuous
 62
     7
370
    25
100
AcDbCircle
 10
785.2433501725
 20
7.0744142719
 30
0.0
 40
3.0
100
AcDbArc
 50
90.0
 51
180.0
  0
SPLINE
  5
356
330
1F
100
AcDbEntity
  8
0
  6
Continuous
 62
     7
370
    25
100
AcDbSpline
210
0.0
220
0.0
230
1.0
 70
     8
 71
     3
 72
    20
 73
    16
 74
     0
 42
0.000000001
 43
0.00000001
 40
0.0
 40
0.0
 40
0.0
 40
0.0
 40
0.1250000000000037
 40
0.1250000000000037
 40
0.2500000000000074
 40
0.2500000000000074
 40
0.3750000000000112
 40
0.3750000000000112
 40
0.5000000000000149
 40
0.5000000000000149
 40
0.7500000000000074
 40
0.7500000000000074
 40
0.8750000000000036
 40
0.8750000000000036
 40
1.0
 40
1.0
 40
1.0
 40
1.0
 10
17.64335017247753
 20
-1.925585728083247
 30
0.0
 10
17.60430944162306
 20
-1.925585728083254
 30
0.0
 10
17.56579073742315
 20
-1.910049167608403
 30
0.0
 10
17.48838398611541
 20
-1.848730815647799
 30
0.0
 10
17.44923956812855
 20
-1.802307070061009
 30
0.0
 10
17.3720888142132
 20
-1.682356199906886
 30
0.0
 10
17.33376123247227
 20
-1.608751555623466
 30
0.0
 10
17.25621491199581
 20
-1.434021189527818
 30
0.0
 10
17.21723870432701
 20
-1.333170560626294
 30
0.0
 10
17.10174384788249
 20
-1.001885280642306
 30
0.0
 10
17.0238314042121
 20
-0.7342051192584659
 30
0.0
 10
16.90835147881115
 20
-0.3015310932030918
 30
0.0
 10
16.86948568294616
 20
-0.1500130063519095
 30
0.0
 10
16.79171134927776
 20
0.1594127510342117
 30
0.0
 10
16.75310158232279
 20
0.3160350807280207
 30
0.0
 10
16.71406085059612
 20
0.4744142719167593
 30
0.0
  0
SPLINE
  5
357
330
1F
100
AcDbEntity
  8
0
  6
Continuous
 62
     7
370
    25
100
AcDbSpline
210
0.0
220
0.0
230
1.0
 70
     8
 71
     3
 72
    20
 73
    16
 74
     0
 42
0.000000001
 43
0.00000001
 40
0.0
 40
0.0
 40
0.0
 40
0.0
 40
0.1249999999999999
 40
0.1249999999999999
 40
0.2499999999999997
 40
0.2499999999999997
 40
0.3749999999999994
 40
0.3749999999999994
 40
0.4999999999999993
 40
0.4999999999999993
 40
0.7500000000000092
 40
0.7500000000000092
 40
0.8750000000000047
 40
0.8750000000000047
 40
1.0
 40
1.0
 40
1.0
 40
1.0
 10
808.7726394943588
 20
0.4744142719166275
 30
0.0
 10
808.7335987635043
 20
0.3160350842659337
 30
0.0
 10
808.6950800593045
 20
0.159789359574225
 30
0.0
 10
808.6176733079966
 20
-0.1482024898423438
 30
0.0
 10
808.5785288900098
 20
-0.3008465973134734
 30
0.0
 10
808.5013781360948
 20
-0.589930886500535
 30
0.0
 10
808.4630505543538
 20
-0.7277354246845551
 30
0.0
 10
808.3855042338771
 20
-0.9893541003234175
 30
0.0
 10
808.3465280262084
 20
-1.112100407006093
 30
0.0
 10
808.2310331697636
 20
-1.443424783953758
 30
0.0
 10
808.1531207260933
 20
-1.622435907981966
 30
0.0
 10
808.0376408006924
 20
-1.802051007362846
 30
0.0
 10
807.9987750048274
 20
-1.848295356230559
 30
0.0
 10
807.921000671159
 20
-1.910048662241794
 30
0.0
 10
807.8823909042042
 20
-1.92558572808324
 30
0.0
 10
807.8433501724776
 20
-1.925585728083247
 30
0.0
  0
LINE
  5
358
330
1F
100
AcDbEntity
  8
0
  6
Continuous
 62
     7
370
    25
100
AcDbLine
 10
807.8433501725
 20
-1.9255857281
 30
0.0
 11
17.6433501725
 21
-1.9255857281
 31
0.0
  0
SPLINE
  5
359
330
1F
100
AcDbEntity
  8
0
  6
Continuous
 62
     7
370
    25
100
AcDbSpline
210
0.0
220
0.0
230
1.0
 70
     8
 71
     3
 72
    20
 73
    16
 74
     0
 42
0.000000001
 43
0.00000001
 40
0.0
 40
0.0
 40
0.0
 40
0.0
 40
0.1249999999999952
 40
0.1249999999999952
 40
0.2499999999999904
 40
0.2499999999999904
 40
0.3749999999999856
 40
0.3749999999999856
 40
0.4999999999999808
 40
0.4999999999999808
 40
0.7500000000000008
 40
0.7500000000000008
 40
0.8750000000000003
 40
0.8750000000000003
 40
1.0
 40
1.0
 40
1.0
 40
1.0
 10
807.8433501724776
 20
-1.925585728083275
 30
0.0
 10
808.0017293601283
 20
-1.925585728083275
 30
0.0
 10
808.1579750848198
 20
-1.910049167608431
 30
0.0
 10
808.4659669342363
 20
-1.84873081564782
 30
0.0
 10
808.6186110417075
 20
-1.802307070061036
 30
0.0
 10
808.9076953308947
 20
-1.682356199906907
 30
0.0
 10
809.0454998690789
 20
-1.608751555623469
 30
0.0
 10
809.3071185447176
 20
-1.434021189527832
 30
0.0
 10
809.4298648514002
 20
-1.333170560626245
 30
0.0
 10
809.7611892283478
 20
-1.001885280642316
 30
0.0
 10
809.9402003523761
 20
-0.7342051192584416
 30
0.0
 10
810.1198154517571
 20
-0.3015310932030397
 30
0.0
 10
810.1660598006248
 20
-0.1500130063518887
 30
0.0
 10
810.2278131066361
 20
0.1594127510342082
 30
0.0
 10
810.2433501724776
 20
0.316035080727986
 30
0.0
 10
810.2433501724774
 20
0.4744142719167246
 30
0.0
  0
SPLINE
  5
35A
330
1F
100
AcDbEntity
  8
0
  6
Continuous
 62
     7
370
    25
100
AcDbSpline
210
0.0
220
0.0
230
1.0
 70
     8
 71
     3
 72
     9
 73
     5
 74
     0
 42
0.000000001
 43
0.00000001
 40
0.0
 40
0.0
 40
0.0
 40
0.0
 40
0.4825784287293312
 40
1.0
 40
1.0
 40
1.0
 40
1.0
 10
808.6195204044238
 20
-0.1381254672614719
 30
0.0
 10
808.6833285974852
 20
-0.0499911259450384
 30
0.0
 10
808.8155520647243
 20
0.1326410351080339
 30
0.0
 10
808.833871369181
 20
0.3578739191525751
 30
0.0
 10
808.8433501724775
 20
0.4744142719167246
 30
0.0
  0
LINE
  5
35B
330
1F
100
AcDbEntity
  8
0
  6
Continuous
 62
     7
370
    25
100
AcDbLine
 10
810.2433501725
 20
0.4744142719
 30
0.0
 11
808.8433501725
 21
0.4744142719
 31
0.0
  0
LINE
  5
35C
330
1F
100
AcDbEntity
  8
0
  6
Continuous
 62
     7
370
    25
100
AcDbLine
 10
15.2433501725
 20
0.4744142719
 30
0.0
 11
16.6433501725
 21
0.4744142719
 31
0.0
  0
SPLINE
  5
35D
330
1F
100
AcDbEntity
  8
0
  6
Continuous
 62
     7
370
    25
100
AcDbSpline
210
0.0
220
0.0
230
1.0
 70
     8
 71
     3
 72
     9
 73
     5
 74
     0
 42
0.000000001
 43
0.00000001
 40
0.0
 40
0.0
 40
0.0
 40
0.0
 40
0.6784508005729337
 40
0.9999999999999999
 40
0.9999999999999999
 40
0.9999999999999999
 40
0.9999999999999999
 10
16.64335017247748
 20
0.4744142719167246
 30
0.0
 10
16.65659974294187
 20
0.3237070674634267
 30
0.0
 10
16.67612889738212
 20
0.1015727515689922
 30
0.0
 10
16.81697655102105
 20
-0.0652603533201485
 30
0.0
 10
16.86226600128982
 20
-0.1189054046351855
 30
0.0
  0
SPLINE
  5
35E
330
1F
100
AcDbEntity
  8
0
  6
Continuous
 62
     7
370
    25
100
AcDbSpline
210
0.0
220
0.0
230
1.0
 70
     8
 71
     3
 72
    20
 73
    16
 74
     0
 42
0.000000001
 43
0.00000001
 40
0.0
 40
0.0
 40
0.0
 40
0.0
 40
0.1249999999999981
 40
0.1249999999999981
 40
0.2499999999999962
 40
0.2499999999999962
 40
0.3749999999999943
 40
0.3749999999999943
 40
0.4999999999999924
 40
0.4999999999999924
 40
0.7499999999999936
 40
0.7499999999999936
 40
0.8749999999999968
 40
0.8749999999999968
 40
1.0
 40
1.0
 40
1.0
 40
1.0
 10
15.24335017247747
 20
0.4744142719167177
 30
0.0
 10
15.24335017247741
 20
0.3160350842660136
 30
0.0
 10
15.25888673295239
 20
0.159789359574343
 30
0.0
 10
15.32020508491294
 20
-0.1482024898422814
 30
0.0
 10
15.36662883049983
 20
-0.3008465973134145
 30
0.0
 10
15.48657970065387
 20
-0.5899308865004831
 30
0.0
 10
15.56018434493739
 20
-0.7277354246845169
 30
0.0
 10
15.73491471103283
 20
-0.9893541003234141
 30
0.0
 10
15.83576533993436
 20
-1.112100407006097
 30
0.0
 10
16.16705061991836
 20
-1.443424783953786
 30
0.0
 10
16.43473078130225
 20
-1.622435907982018
 30
0.0
 10
16.86740480735782
 20
-1.802051007362894
 30
0.0
 10
17.0189228942087
 20
-1.848295356230607
 30
0.0
 10
17.32834865159488
 20
-1.910048662241835
 30
0.0
 10
17.4849709812887
 20
-1.925585728083268
 30
0.0
 10
17.64335017247748
 20
-1.925585728083268
 30
0.0
  0
LINE
  5
35F
330
1F
100
AcDbEntity
  8
0
  6
Continuous
 62
     7
370
    25
100
AcDbLine
 10
810.2433501725
 20
10.0744142719
 30
0.0
 11
808.8433501725
 21
10.0744142719
 31
0.0
  0
LINE
  5
360
330
1F
100
AcDbEntity
  8
0
  6
Continuous
 62
     7
370
    25
100
AcDbLine
 10
810.2433501725
 20
0.4744142719
 30
0.0
 11
810.2433501725
 21
10.0744142719
 31
0.0
  0
LINE
  5
361
330
1F
100
AcDbEntity
  8
0
  6
Continuous
 62
     7
370
    25
100
AcDbLine
 10
808.8433501725
 20
0.4744142719
 30
0.0
 11
808.8433501725
 21
10.0744142719
 31
0.0
  0
LINE
  5
362
330
1F
100
AcDbEntity
  8
0
  6
Continuous
 62
     7
370
    25
100
AcDbLine
 10
16.6433501725
 20
0.4744142719
 30
0.0
 11
16.6433501725
 21
10.0744142719
 31
0.0
  0
LINE
  5
363
330
1F
100
AcDbEntity
  8
0
  6
Continuous
 62
     7
370
    25
100
AcDbLine
 10
15.2433501725
 20
0.4744142719
 30
0.0
 11
15.2433501725
 21
10.0744142719
 31
0.0
  0
LINE
  5
364
330
1F
100
AcDbEntity
  8
0
  6
Continuous
 62
     7
370
    25
100
AcDbLine
 10
15.2433501725
 20
10.0744142719
 30
0.0
 11
16.6433501725
 21
10.0744142719
 31
0.0
  0
LINE
  5
365
330
1F
100
AcDbEntity
  8
0
  6
Continuous
 62
     7
370
    25
100
AcDbLine
 10
764.9433501725
 20
34.1744142719
 30
0.0
 11
764.9433501725
 21
17.1744142719
 31
0.0
  0
LINE
  5
366
330
1F
100
AcDbEntity
  8
0
  6
Continuous
 62
     7
370
    25
100
AcDbLine
 10
765.7433501725
 20
34.1744142719
 30
0.0
 11
765.7433501725
 21
17.1744142719
 31
0.0
  0
LINE
  5
367
330
1F
100
AcDbEntity
  8
0
  6
Continuous
 62
     7
370
    25
100
AcDbLine
 10
59.7433501725
 20
37.1744142719
 30
0.0
 11
60.5433501725
 21
37.1744142719
 31
0.0
  0
LINE
  5
368
330
1F
100
AcDbEntity
  8
0
  6
Continuous
 62
     7
370
    25
100
AcDbLine
 10
60.5433501725
 20
37.1744142719
 30
0.0
 11
60.5433501725
 21
34.1744142719
 31
0.0
  0
LINE
  5
369
330
1F
100
AcDbEntity
  8
0
  6
Continuous
 62
     7
370
    25
100
AcDbLine
 10
59.7433501725
 20
34.1744142719
 30
0.0
 11
59.7433501725
 21
37.1744142719
 31
0.0
  0
LINE
  5
36A
330
1F
100
AcDbEntity
  8
0
  6
Continuous
 62
     7
370
    25
100
AcDbLine
 10
59.7433501725
 20
17.1744142719
 30
0.0
 11
59.7433501725
 21
34.1744142719
 31
0.0
  0
LINE
  5
36B
330
1F
100
AcDbEntity
  8
0
  6
Continuous
 62
     7
370
    25
100
AcDbLine
 10
60.5433501725
 20
17.1744142719
 30
0.0
 11
60.5433501725
 21
34.1744142719
 31
0.0
  0
LINE
  5
36C
330
1F
100
AcDbEntity
  8
0
  6
Continuous
 62
     7
370
    25
100
AcDbLine
 10
764.9433501725
 20
37.1744142719
 30
0.0
 11
765.7433501725
 21
37.1744142719
 31
0.0
  0
LINE
  5
36D
330
1F
100
AcDbEntity
  8
0
  6
Continuous
 62
     7
370
    25
100
AcDbLine
 10
764.9433501725
 20
34.1744142719
 30
0.0
 11
764.9433501725
 21
37.1744142719
 31
0.0
  0
LINE
  5
36E
330
1F
100
AcDbEntity
  8
0
  6
Continuous
 62
     7
370
    25
100
AcDbLine
 10
765.7433501725
 20
37.1744142719
 30
0.0
 11
765.7433501725
 21
34.1744142719
 31
0.0
  0
LINE
  5
36F
330
1F
100
AcDbEntity
  8
0
  6
Continuous
 62
     7
370
    25
100
AcDbLine
 10
765.7433501725
 20
14.1744142719
 30
0.0
 11
764.9433501725
 21
14.1744142719
 31
0.0
  0
LINE
  5
370
330
1F
100
AcDbEntity
  8
0
  6
Continuous
 62
     7
370
    25
100
AcDbLine
 10
764.9433501725
 20
14.1744142719
 30
0.0
 11
764.9433501725
 21
17.1744142719
 31
0.0
  0
LINE
  5
371
330
1F
100
AcDbEntity
  8
0
  6
Continuous
 62
     7
370
    25
100
AcDbLine
 10
765.7433501725
 20
17.1744142719
 30
0.0
 11
765.7433501725
 21
14.1744142719
 31
0.0
  0
LINE
  5
372
330
1F
100
AcDbEntity
  8
0
  6
Continuous
 62
     7
370
    25
100
AcDbLine
 10
60.5433501725
 20
14.1744142719
 30
0.0
 11
59.7433501725
 21
14.1744142719
 31
0.0
  0
LINE
  5
373
330
1F
100
AcDbEntity
  8
0
  6
Continuous
 62
     7
370
    25
100
AcDbLine
 10
59.7433501725
 20
14.1744142719
 30
0.0
 11
59.7433501725
 21
17.1744142719
 31
0.0
  0
LINE
  5
374
330
1F
100
AcDbEntity
  8
0
  6
Continuous
 62
     7
370
    25
100
AcDbLine
 10
60.5433501725
 20
17.1744142719
 30
0.0
 11
60.5433501725
 21
14.1744142719
 31
0.0
  0
LINE
  5
375
330
1F
100
AcDbEntity
  8
0
  6
Continuous
 62
     7
370
    25
100
AcDbLine
 10
762.7433501725
 20
16.1744142719
 30
0.0
 11
762.7433501725
 21
16.9744142719
 31
0.0
  0
LINE
  5
376
330
1F
100
AcDbEntity
  8
0
  6
Continuous
 62
     7
370
    25
100
AcDbLine
 10
62.7433501725
 20
16.1744142719
 30
0.0
 11
62.7433501725
 21
16.9744142719
 31
0.0
  0
LINE
  5
377
330
1F
100
AcDbEntity
  8
0
  6
Continuous
 62
     7
370
    25
100
AcDbLine
 10
762.7433501725
 20
16.9744142719
 30
0.0
 11
62.7433501725
 21
16.9744142719
 31
0.0
  0
LINE
  5
378
330
1F
100
AcDbEntity
  8
0
  6
Continuous
 62
     7
370
    25
100
AcDbLine
 10
558.2433501725
 20
57.0790276637
 30
0.0
 11
558.2433501725
 21
50.5613362101
 31
0.0
  0
ARC
  5
379
330
1F
100
AcDbEntity
  8
0
  6
Continuous
 62
     7
370
    25
100
AcDbCircle
 10
561.2433501725
 20
57.0790276637
 30
0.0
 40
3.000000000000114
100
AcDbArc
 50
90.0
 51
180.0
  0
LINE
  5
37A
330
1F
100
AcDbEntity
  8
0
  6
Continuous
 62
     7
370
    25
100
AcDbLine
 10
705.2433501725
 20
60.0790276637
 30
0.0
 11
561.2433501725
 21
60.0790276637
 31
0.0
  0
ARC
  5
37B
330
1F
100
AcDbEntity
  8
0
  6
Continuous
 62
     7
370
    25
100
AcDbCircle
 10
705.2433501725
 20
57.0790276637
 30
0.0
 40
3.0
100
AcDbArc
 50
0.0
 51
90.0
  0
LINE
  5
37C
330
1F
100
AcDbEntity
  8
0
  6
Continuous
 62
     7
370
    25
100
AcDbLine
 10
708.2433501725
 20
50.5613362101
 30
0.0
 11
708.2433501725
 21
57.0790276637
 31
0.0
  0
LINE
  5
37D
330
1F
100
AcDbEntity
  8
0
  6
Continuous
 62
     7
370
    25
100
AcDbLine
 10
117.2433501725
 20
57.0790276637
 30
0.0
 11
117.2433501725
 21
50.5613362101
 31
0.0
  0
ARC
  5
37E
330
1F
100
AcDbEntity
  8
0
  6
Continuous
 62
     7
370
    25
100
AcDbCircle
 10
264.2433501725
 20
57.0790276637
 30
0.0
 40
3.0
100
AcDbArc
 50
0.0
 51
90.0
  0
LINE
  5
37F
330
1F
100
AcDbEntity
  8
0
  6
Continuous
 62
     7
370
    25
100
AcDbLine
 10
267.2433501725
 20
50.5613362101
 30
0.0
 11
267.2433501725
 21
57.0790276637
 31
0.0
  0
ARC
  5
380
330
1F
100
AcDbEntity
  8
0
  6
Continuous
 62
     7
370
    25
100
AcDbCircle
 10
120.2433501725
 20
57.0790276637
 30
0.0
 40
3.0
100
AcDbArc
 50
90.0
 51
180.0
  0
LINE
  5
381
330
1F
100
AcDbEntity
  8
0
  6
Continuous
 62
     7
370
    25
100
AcDbLine
 10
264.2433501725
 20
60.0790276637
 30
0.0
 11
120.2433501725
 21
60.0790276637
 31
0.0
  0
LINE
  5
382
330
1F
100
AcDbEntity
  8
0
  6
Continuous
 62
     7
370
    25
100
AcDbLine
 10
337.7433501725
 20
57.0790276637
 30
0.0
 11
337.7433501725
 21
50.5613362101
 31
0.0
  0
LINE
  5
383
330
1F
100
AcDbEntity
  8
0
  6
Continuous
 62
     7
370
    25
100
AcDbLine
 10
487.7433501725
 20
50.5613362101
 30
0.0
 11
487.7433501725
 21
57.0790276637
 31
0.0
  0
ARC
  5
384
330
1F
100
AcDbEntity
  8
0
  6
Continuous
 62
     7
370
    25
100
AcDbCircle
 10
340.7433501725
 20
57.0790276637
 30
0.0
 40
3.0
100
AcDbArc
 50
90.0
 51
180.0
  0
LINE
  5
385
330
1F
100
AcDbEntity
  8
0
  6
Continuous
 62
     7
370
    25
100
AcDbLine
 10
484.7433501725
 20
60.0790276637
 30
0.0
 11
340.7433501725
 21
60.0790276637
 31
0.0
  0
ARC
  5
386
330
1F
100
AcDbEntity
  8
0
  6
Continuous
 62
     7
370
    25
100
AcDbCircle
 10
484.7433501725
 20
57.0790276637
 30
0.0
 40
3.0
100
AcDbArc
 50
0.0
 51
90.0
  0
LINE
  5
387
330
1F
100
AcDbEntity
  8
0
  6
Continuous
 62
     7
370
    25
100
AcDbLine
 10
708.2433501725
 20
50.5613362101
 30
0.0
 11
708.2433501725
 21
49.6613362101
 31
0.0
  0
LINE
  5
388
330
1F
100
AcDbEntity
  8
0
  6
Continuous
 62
     7
370
    25
100
AcDbLine
 10
558.2433501725
 20
49.6613362101
 30
0.0
 11
558.2433501725
 21
50.5613362101
 31
0.0
  0
LINE
  5
389
330
1F
100
AcDbEntity
  8
0
  6
Continuous
 62
     7
370
    25
100
AcDbLine
 10
487.7433501725
 20
50.5613362101
 30
0.0
 11
487.7433501725
 21
49.6613362101
 31
0.0
  0
LINE
  5
38A
330
1F
100
AcDbEntity
  8
0
  6
Continuous
 62
     7
370
    25
100
AcDbLine
 10
337.7433501725
 20
49.6613362101
 30
0.0
 11
337.7433501725
 21
50.5613362101
 31
0.0
  0
LINE
  5
38B
330
1F
100
AcDbEntity
  8
0
  6
Continuous
 62
     7
370
    25
100
AcDbLine
 10
267.2433501725
 20
50.5613362101
 30
0.0
 11
267.2433501725
 21
49.6613362101
 31
0.0
  0
LINE
  5
38C
330
1F
100
AcDbEntity
  8
0
  6
Continuous
 62
     7
370
    25
100
AcDbLine
 10
117.2433501725
 20
49.6613362101
 30
0.0
 11
117.2433501725
 21
50.5613362101
 31
0.0
  0
LINE
  5
38D
330
1F
100
AcDbEntity
  8
0
  6
Continuous
 62
     7
370
    25
100
AcDbLine
 10
267.2433501725
 20
49.6613362101
 30
0.0
 11
267.2433501725
 21
43.0364650795
 31
0.0
  0
LINE
  5
38E
330
1F
100
AcDbEntity
  8
0
  6
Continuous
 62
     7
370
    25
100
AcDbLine
 10
117.2433501725
 20
43.0364650795
 30
0.0
 11
117.2433501725
 21
49.6613362101
 31
0.0
  0
LINE
  5
38F
330
1F
100
AcDbEntity
  8
0
  6
Continuous
 62
     7
370
    25
100
AcDbLine
 10
487.7433501725
 20
49.6613362101
 30
0.0
 11
487.7433501725
 21
43.0364650795
 31
0.0
  0
LINE
  5
390
330
1F
100
AcDbEntity
  8
0
  6
Continuous
 62
     7
370
    25
100
AcDbLine
 10
337.7433501725
 20
43.0364650795
 30
0.0
 11
337.7433501725
 21
49.6613362101
 31
0.0
  0
LINE
  5
391
330
1F
100
AcDbEntity
  8
0
  6
Continuous
 62
     7
370
    25
100
AcDbLine
 10
708.2433501725
 20
49.6613362101
 30
0.0
 11
708.2433501725
 21
43.0364650795
 31
0.0
  0
LINE
  5
392
330
1F
100
AcDbEntity
  8
0
  6
Continuous
 62
     7
370
    25
100
AcDbLine
 10
558.2433501725
 20
43.0364650795
 30
0.0
 11
558.2433501725
 21
49.6613362101
 31
0.0
  0
LINE
  5
393
330
1F
100
AcDbEntity
  8
0
  6
Continuous
 62
     7
370
    25
100
AcDbLine
 10
764.9433501725
 20
37.1744142719
 30
0.0
 11
763.9433501725
 21
37.1744142719
 31
0.0
  0
LINE
  5
394
330
1F
100
AcDbEntity
  8
0
  6
Continuous
 62
     7
370
    25
100
AcDbLine
 10
763.9433501725
 20
18.1744142719
 30
0.0
 11
764.9433501725
 21
18.1744142719
 31
0.0
  0
LINE
  5
395
330
1F
100
AcDbEntity
  8
0
  6
Continuous
 62
     7
370
    25
100
AcDbLine
 10
60.5433501725
 20
18.1744142719
 30
0.0
 11
61.5433501725
 21
18.1744142719
 31
0.0
  0
LINE
  5
396
330
1F
100
AcDbEntity
  8
0
  6
Continuous
 62
     7
370
    25
100
AcDbLine
 10
61.5433501725
 20
37.1744142719
 30
0.0
 11
60.5433501725
 21
37.1744142719
 31
0.0
  0
LINE
  5
397
330
1F
100
AcDbEntity
  8
0
  6
Continuous
 62
     7
370
    25
100
AcDbLine
 10
762.7433501725
 20
16.9744142719
 30
0.0
 11
762.7433501725
 21
17.9744142719
 31
0.0
  0
LINE
  5
398
330
1F
100
AcDbEntity
  8
0
  6
Continuous
 62
     7
370
    25
100
AcDbLine
 10
62.7433501725
 20
17.9744142719
 30
0.0
 11
62.7433501725
 21
16.9744142719
 31
0.0
  0
LINE
  5
399
330
1F
100
AcDbEntity
  8
0
  6
Continuous
 62
     7
370
    25
100
AcDbLine
 10
117.2433501725
 20
43.0364650795
 30
0.0
 11
117.2433501725
 21
42.5364650795
 31
0.0
  0
LINE
  5
39A
330
1F
100
AcDbEntity
  8
0
  6
Continuous
 62
     7
370
    25
100
AcDbLine
 10
267.2433501725
 20
42.5364650795
 30
0.0
 11
267.2433501725
 21
43.0364650795
 31
0.0
  0
LINE
  5
39B
330
1F
100
AcDbEntity
  8
0
  6
Continuous
 62
     7
370
    25
100
AcDbLine
 10
708.2433501725
 20
42.5364650795
 30
0.0
 11
708.2433501725
 21
43.0364650795
 31
0.0
  0
LINE
  5
39C
330
1F
100
AcDbEntity
  8
0
  6
Continuous
 62
     7
370
    25
100
AcDbLine
 10
558.2433501725
 20
43.0364650795
 30
0.0
 11
558.2433501725
 21
42.5364650795
 31
0.0
  0
LINE
  5
39D
330
1F
100
AcDbEntity
  8
0
  6
Continuous
 62
     7
370
    25
100
AcDbLine
 10
487.7433501725
 20
42.5364650795
 30
0.0
 11
487.7433501725
 21
43.0364650795
 31
0.0
  0
LINE
  5
39E
330
1F
100
AcDbEntity
  8
0
  6
Continuous
 62
     7
370
    25
100
AcDbLine
 10
337.7433501725
 20
43.0364650795
 30
0.0
 11
337.7433501725
 21
42.5364650795
 31
0.0
  0
LINE
  5
39F
330
1F
100
AcDbEntity
  8
0
  6
Continuous
 62
     7
370
    25
100
AcDbLine
 10
62.7433501725
 20
18.1744142719
 30
0.0
 11
62.7433501725
 21
17.9744142719
 31
0.0
  0
LINE
  5
3A0
330
1F
100
AcDbEntity
  8
0
  6
Continuous
 62
     7
370
    25
100
AcDbLine
 10
61.5433501725
 20
18.1744142719
 30
0.0
 11
62.7433501725
 21
18.1744142719
 31
0.0
  0
LINE
  5
3A1
330
1F
100
AcDbEntity
  8
0
  6
Continuous
 62
     7
370
    25
100
AcDbLine
 10
64.7433501725
 20
37.1744142719
 30
0.0
 11
61.5433501725
 21
37.1744142719
 31
0.0
  0
LINE
  5
3A2
330
1F
100
AcDbEntity
  8
0
  6
Continuous
 62
     7
370
    25
100
AcDbLine
 10
64.7433501725
 20
58.1744142719
 30
0.0
 11
64.7433501725
 21
37.1744142719
 31
0.0
  0
ARC
  5
3A3
330
1F
100
AcDbEntity
  8
0
  6
Continuous
 62
     7
370
    25
100
AcDbCircle
 10
67.7433501725
 20
58.1744142719
 30
0.0
 40
3.000000000000007
100
AcDbArc
 50
90.0
 51
180.0
  0
LINE
  5
3A4
330
1F
100
AcDbEntity
  8
0
  6
Continuous
 62
     7
370
    25
100
AcDbLine
 10
111.7433501725
 20
61.1744142719
 30
0.0
 11
67.7433501725
 21
61.1744142719
 31
0.0
  0
ARC
  5
3A5
330
1F
100
AcDbEntity
  8
0
  6
Continuous
 62
     7
370
    25
100
AcDbCircle
 10
111.7433501725
 20
58.1744142719
 30
0.0
 40
3.000000000000007
100
AcDbArc
 50
0.0
 51
90.0
  0
LINE
  5
3A6
330
1F
100
AcDbEntity
  8
0
  6
Continuous
 62
     7
370
    25
100
AcDbLine
 10
114.7433501725
 20
58.1744142719
 30
0.0
 11
114.7433501725
 21
42.0444142719
 31
0.0
  0
LINE
  5
3A7
330
1F
100
AcDbEntity
  8
0
  6
Continuous
 62
     7
370
    25
100
AcDbLine
 10
114.7433501725
 20
42.0444142719
 30
0.0
 11
117.2433501725
 21
42.0444142719
 31
0.0
  0
LINE
  5
3A8
330
1F
100
AcDbEntity
  8
0
  6
Continuous
 62
     7
370
    25
100
AcDbLine
 10
117.2433501725
 20
42.5364650795
 30
0.0
 11
117.2433501725
 21
42.0444142719
 31
0.0
  0
LINE
  5
3A9
330
1F
100
AcDbEntity
  8
0
  6
Continuous
 62
     7
370
    25
100
AcDbLine
 10
267.2433501725
 20
42.5364650795
 30
0.0
 11
267.2433501725
 21
42.0444142719
 31
0.0
  0
LINE
  5
3AA
330
1F
100
AcDbEntity
  8
0
  6
Continuous
 62
     7
370
    25
100
AcDbLine
 10
267.2433501725
 20
42.0444142719
 30
0.0
 11
269.7433501725
 21
42.0444142719
 31
0.0
  0
LINE
  5
3AB
330
1F
100
AcDbEntity
  8
0
  6
Continuous
 62
     7
370
    25
100
AcDbLine
 10
269.7433501725
 20
42.0444142719
 30
0.0
 11
269.7433501725
 21
58.1744142719
 31
0.0
  0
ARC
  5
3AC
330
1F
100
AcDbEntity
  8
0
  6
Continuous
 62
     7
370
    25
100
AcDbCircle
 10
272.7433501725
 20
58.1744142719
 30
0.0
 40
3.0
100
AcDbArc
 50
90.0
 51
180.0
  0
LINE
  5
3AD
330
1F
100
AcDbEntity
  8
0
  6
Continuous
 62
     7
370
    25
100
AcDbLine
 10
332.2433501725
 20
61.1744142719
 30
0.0
 11
272.7433501725
 21
61.1744142719
 31
0.0
  0
ARC
  5
3AE
330
1F
100
AcDbEntity
  8
0
  6
Continuous
 62
     7
370
    25
100
AcDbCircle
 10
332.2433501725
 20
58.1744142719
 30
0.0
 40
3.000000000000007
100
AcDbArc
 50
0.0
 51
90.0
  0
LINE
  5
3AF
330
1F
100
AcDbEntity
  8
0
  6
Continuous
 62
     7
370
    25
100
AcDbLine
 10
335.2433501725
 20
58.1744142719
 30
0.0
 11
335.2433501725
 21
42.0444142719
 31
0.0
  0
LINE
  5
3B0
330
1F
100
AcDbEntity
  8
0
  6
Continuous
 62
     7
370
    25
100
AcDbLine
 10
335.2433501725
 20
42.0444142719
 30
0.0
 11
337.7433501725
 21
42.0444142719
 31
0.0
  0
LINE
  5
3B1
330
1F
100
AcDbEntity
  8
0
  6
Continuous
 62
     7
370
    25
100
AcDbLine
 10
337.7433501725
 20
42.5364650795
 30
0.0
 11
337.7433501725
 21
42.0444142719
 31
0.0
  0
LINE
  5
3B2
330
1F
100
AcDbEntity
  8
0
  6
Continuous
 62
     7
370
    25
100
AcDbLine
 10
487.7433501725
 20
42.5364650795
 30
0.0
 11
487.7433501725
 21
42.0444142719
 31
0.0
  0
LINE
  5
3B3
330
1F
100
AcDbEntity
  8
0
  6
Continuous
 62
     7
370
    25
100
AcDbLine
 10
487.7433501725
 20
42.0444142719
 30
0.0
 11
490.2433501725
 21
42.0444142719
 31
0.0
  0
LINE
  5
3B4
330
1F
100
AcDbEntity
  8
0
  6
Continuous
 62
     7
370
    25
100
AcDbLine
 10
490.2433501725
 20
42.0444142719
 30
0.0
 11
490.2433501725
 21
58.1744142719
 31
0.0
  0
ARC
  5
3B5
330
1F
100
AcDbEntity
  8
0
  6
Continuous
 62
     7
370
    25
100
AcDbCircle
 10
493.2433501725
 20
58.1744142719
 30
0.0
 40
3.000000000000057
100
AcDbArc
 50
90.0
 51
180.0
  0
LINE
  5
3B6
330
1F
100
AcDbEntity
  8
0
  6
Continuous
 62
     7
370
    25
100
AcDbLine
 10
552.7433501725
 20
61.1744142719
 30
0.0
 11
493.2433501725
 21
61.1744142719
 31
0.0
  0
ARC
  5
3B7
330
1F
100
AcDbEntity
  8
0
  6
Continuous
 62
     7
370
    25
100
AcDbCircle
 10
552.7433501725
 20
58.1744142719
 30
0.0
 40
3.000000000000007
100
AcDbArc
 50
0.0
 51
90.0
  0
LINE
  5
3B8
330
1F
100
AcDbEntity
  8
0
  6
Continuous
 62
     7
370
    25
100
AcDbLine
 10
555.7433501725
 20
58.1744142719
 30
0.0
 11
555.7433501725
 21
42.0444142719
 31
0.0
  0
LINE
  5
3B9
330
1F
100
AcDbEntity
  8
0
  6
Continuous
 62
     7
370
    25
100
AcDbLine
 10
555.7433501725
 20
42.0444142719
 30
0.0
 11
558.2433501725
 21
42.0444142719
 31
0.0
  0
LINE
  5
3BA
330
1F
100
AcDbEntity
  8
0
  6
Continuous
 62
     7
370
    25
100
AcDbLine
 10
558.2433501725
 20
42.5364650795
 30
0.0
 11
558.2433501725
 21
42.0444142719
 31
0.0
  0
LINE
  5
3BB
330
1F
100
AcDbEntity
  8
0
  6
Continuous
 62
     7
370
    25
100
AcDbLine
 10
708.2433501725
 20
42.5364650795
 30
0.0
 11
708.2433501725
 21
42.0444142719
 31
0.0
  0
LINE
  5
3BC
330
1F
100
AcDbEntity
  8
0
  6
Continuous
 62
     7
370
    25
100
AcDbLine
 10
708.2433501725
 20
42.0444142719
 30
0.0
 11
710.7433501725
 21
42.0444142719
 31
0.0
  0
LINE
  5
3BD
330
1F
100
AcDbEntity
  8
0
  6
Continuous
 62
     7
370
    25
100
AcDbLine
 10
710.7433501725
 20
42.0444142719
 30
0.0
 11
710.7433501725
 21
58.1744142719
 31
0.0
  0
ARC
  5
3BE
330
1F
100
AcDbEntity
  8
0
  6
Continuous
 62
     7
370
    25
100
AcDbCircle
 10
713.7433501725
 20
58.1744142719
 30
0.0
 40
3.0
100
AcDbArc
 50
90.0
 51
180.0
  0
LINE
  5
3BF
330
1F
100
AcDbEntity
  8
0
  6
Continuous
 62
     7
370
    25
100
AcDbLine
 10
757.7433501725
 20
61.1744142719
 30
0.0
 11
713.7433501725
 21
61.1744142719
 31
0.0
  0
ARC
  5
3C0
330
1F
100
AcDbEntity
  8
0
  6
Continuous
 62
     7
370
    25
100
AcDbCircle
 10
757.7433501725
 20
58.1744142719
 30
0.0
 40
3.000000000000007
100
AcDbArc
 50
0.0
 51
90.0
  0
LINE
  5
3C1
330
1F
100
AcDbEntity
  8
0
  6
Continuous
 62
     7
370
    25
100
AcDbLine
 10
760.7433501725
 20
37.1744142719
 30
0.0
 11
760.7433501725
 21
58.1744142719
 31
0.0
  0
LINE
  5
3C2
330
1F
100
AcDbEntity
  8
0
  6
Continuous
 62
     7
370
    25
100
AcDbLine
 10
763.9433501725
 20
37.1744142719
 30
0.0
 11
760.7433501725
 21
37.1744142719
 31
0.0
  0
LINE
  5
3C3
330
1F
100
AcDbEntity
  8
0
  6
Continuous
 62
     7
370
    25
100
AcDbLine
 10
762.7433501725
 20
18.1744142719
 30
0.0
 11
763.9433501725
 21
18.1744142719
 31
0.0
  0
LINE
  5
3C4
330
1F
100
AcDbEntity
  8
0
  6
Continuous
 62
     7
370
    25
100
AcDbLine
 10
762.7433501725
 20
17.9744142719
 30
0.0
 11
762.7433501725
 21
18.1744142719
 31
0.0
  0
SPLINE
  5
3C5
330
1F
100
AcDbEntity
  8
0
  6
Continuous
 62
     7
370
    25
100
AcDbSpline
210
0.0
220
0.0
230
1.0
 70
     8
 71
     3
 72
     9
 73
     5
 74
     0
 42
0.000000001
 43
0.00000001
 40
0.0
 40
0.0
 40
0.0
 40
0.0
 40
0.6277651913045473
 40
1.0
 40
1.0
 40
1.0
 40
1.0
 10
740.6984081338421
 20
17.38464019686203
 30
0.0
 10
740.6491010337007
 20
17.38966779633752
 30
0.0
 10
740.5705571755441
 20
17.39767652244264
 30
0.0
 10
740.4954265509531
 20
17.53716994852914
 30
0.0
 10
740.4674603172814
 20
17.58909425730272
 30
0.0
  0
SPLINE
  5
3C6
330
1F
100
AcDbEntity
  8
0
  6
Continuous
 62
     7
370
    25
100
AcDbSpline
210
0.0
220
0.0
230
1.0
 70
     8
 71
     3
 72
    12
 73
     8
 74
     0
 42
0.000000001
 43
0.00000001
 40
0.0
 40
0.0
 40
0.0
 40
0.0
 40
0.5000000000000064
 40
0.5000000000000064
 40
0.7500000000000032
 40
0.7500000000000032
 40
1.0
 40
1.0
 40
1.0
 40
1.0
 10
740.4674603172814
 20
17.58909425730174
 30
0.0
 10
740.9794664689862
 20
17.39859996787822
 30
0.0
 10
741.4991440152545
 20
17.27692555481585
 30
0.0
 10
742.2989318728169
 20
17.27626936428461
 30
0.0
 10
742.565255819665
 20
17.30610336607901
 30
0.0
 10
743.0884133226666
 20
17.41503323618661
 30
0.0
 10
743.3468779538148
 20
17.49372842324948
 30
0.0
 10
743.6032000401369
 20
17.58909425730223
 30
0.0
  0
SPLINE
  5
3C7
330
1F
100
AcDbEntity
  8
0
  6
Continuous
 62
     7
370
    25
100
AcDbSpline
210
0.0
220
0.0
230
1.0
 70
     8
 71
     3
 72
    12
 73
     8
 74
     0
 42
0.000000001
 43
0.00000001
 40
0.0
 40
0.0
 40
0.0
 40
0.0
 40
0.5000000000000224
 40
0.5000000000000224
 40
0.7500000000000112
 40
0.7500000000000112
 40
1.0
 40
1.0
 40
1.0
 40
1.0
 10
743.6032000401367
 20
17.58909425730173
 30
0.0
 10
744.219730430057
 20
17.39859996787821
 30
0.0
 10
744.8454983025067
 20
17.27692555481584
 30
0.0
 10
745.8085600118917
 20
17.2762693642846
 30
0.0
 10
746.1292530470214
 20
17.30610336607901
 30
0.0
 10
746.7592112970173
 20
17.4150332361866
 30
0.0
 10
747.0704405650482
 20
17.49372842324948
 30
0.0
 10
747.3790898953328
 20
17.58909425730223
 30
0.0
  0
SPLINE
  5
3C8
330
1F
100
AcDbEntity
  8
0
  6
Continuous
 62
     7
370
    25
100
AcDbSpline
210
0.0
220
0.0
230
1.0
 70
     8
 71
     3
 72
    14
 73
    10
 74
     0
 42
0.000000001
 43
0.00000001
 40
0.0
 40
0.0
 40
0.0
 40
0.0
 40
0.25
 40
0.25
 40
0.5
 40
0.5
 40
0.75
 40
0.75
 40
1.0
 40
1.0
 40
1.0
 40
1.0
 10
747.3790898953328
 20
17.58909425730272
 30
0.0
 10
747.4311476042236
 20
17.49421964799212
 30
0.0
 10
747.4844811425517
 20
17.41461472311636
 30
0.0
 10
747.5914131501797
 20
17.30577810822213
 30
0.0
 10
747.6451665166272
 20
17.27645450253164
 30
0.0
 10
747.7533455680509
 20
17.27651928427723
 30
0.0
 10
747.8081742646391
 20
17.30667547760359
 30
0.0
 10
747.9150812472988
 20
17.4162606789693
 30
0.0
 10
747.9675027622712
 20
17.49480365277147
 30
0.0
 10
748.0192400276733
 20
17.58909425730272
 30
0.0
  0
LINE
  5
3C9
330
1F
100
AcDbEntity
  8
0
  6
Continuous
 62
     7
370
    25
100
AcDbLine
 10
747.3933501725
 20
17.0744142719
 30
0.0
 11
741.0933501725
 21
17.0744142719
 31
0.0
  0
SPLINE
  5
3CA
330
1F
100
AcDbEntity
  8
0
  6
Continuous
 62
     7
370
    25
100
AcDbSpline
210
0.0
220
0.0
230
1.0
 70
     8
 71
     3
 72
    12
 73
     8
 74
     0
 42
0.000000001
 43
0.00000001
 40
0.0
 40
0.0
 40
0.0
 40
0.0
 40
0.5000000000000224
 40
0.5000000000000224
 40
0.7500000000000112
 40
0.7500000000000112
 40
1.0
 40
1.0
 40
1.0
 40
1.0
 10
747.3790898953329
 20
19.75973428653168
 30
0.0
 10
746.7625595054126
 20
19.9502285759552
 30
0.0
 10
746.1367916329629
 20
20.07190298901758
 30
0.0
 10
745.173729923578
 20
20.07255917954881
 30
0.0
 10
744.8530368884483
 20
20.04272517775442
 30
0.0
 10
744.2230786384523
 20
19.93379530764683
 30
0.0
 10
743.9118493704216
 20
19.85510012058396
 30
0.0
 10
743.6032000401367
 20
19.7597342865312
 30
0.0
  0
LINE
  5
3CB
330
1F
100
AcDbEntity
  8
0
  6
Continuous
 62
     7
370
    25
100
AcDbLine
 10
747.3790898953
 20
19.7597342865
 30
0.0
 11
747.3790898953
 21
17.5890942573
 31
0.0
  0
LINE
  5
3CC
330
1F
100
AcDbEntity
  8
0
  6
Continuous
 62
     7
370
    25
100
AcDbLine
 10
743.6032000401
 20
19.7597342865
 30
0.0
 11
743.6032000401
 21
17.5890942573
 31
0.0
  0
SPLINE
  5
3CD
330
1F
100
AcDbEntity
  8
0
  6
Continuous
 62
     7
370
    25
100
AcDbSpline
210
0.0
220
0.0
230
1.0
 70
     8
 71
     3
 72
    14
 73
    10
 74
     0
 42
0.000000001
 43
0.00000001
 40
0.0
 40
0.0
 40
0.0
 40
0.0
 40
0.25
 40
0.25
 40
0.5
 40
0.5
 40
0.75
 40
0.75
 40
1.0
 40
1.0
 40
1.0
 40
1.0
 10
747.3790898953328
 20
19.7597342865307
 30
0.0
 10
747.4311476042236
 20
19.85460889584131
 30
0.0
 10
747.4844811425517
 20
19.93421382071706
 30
0.0
 10
747.5914131501797
 20
20.04305043561127
 30
0.0
 10
747.6451665166272
 20
20.07237404130179
 30
0.0
 10
747.7533455680509
 20
20.07230925955619
 30
0.0
 10
747.8081742646391
 20
20.04215306622983
 30
0.0
 10
747.9150812472988
 20
19.93256786486412
 30
0.0
 10
747.9675027622712
 20
19.85402489106195
 30
0.0
 10
748.0192400276733
 20
19.75973428653069
 30
0.0
  0
SPLINE
  5
3CE
330
1F
100
AcDbEntity
  8
0
  6
Continuous
 62
     7
370
    25
100
AcDbSpline
210
0.0
220
0.0
230
1.0
 70
     8
 71
     3
 72
    12
 73
     8
 74
     0
 42
0.000000001
 43
0.00000001
 40
0.0
 40
0.0
 40
0.0
 40
0.0
 40
0.5000000000000093
 40
0.5000000000000093
 40
0.7500000000000047
 40
0.7500000000000047
 40
1.0
 40
1.0
 40
1.0
 40
1.0
 10
743.6032000401369
 20
19.75973428653168
 30
0.0
 10
743.0911938884319
 20
19.9502285759552
 30
0.0
 10
742.5715163421638
 20
20.07190298901758
 30
0.0
 10
741.7717284846012
 20
20.0725591795488
 30
0.0
 10
741.5054045377532
 20
20.04272517775441
 30
0.0
 10
740.9822470347517
 20
19.93379530764681
 30
0.0
 10
740.7237824036035
 20
19.85510012058394
 30
0.0
 10
740.4674603172814
 20
19.75973428653119
 30
0.0
  0
SPLINE
  5
3CF
330
1F
100
AcDbEntity
  8
0
  6
Continuous
 62
     7
370
    25
100
AcDbSpline
210
0.0
220
0.0
230
1.0
 70
     8
 71
     3
 72
     9
 73
     5
 74
     0
 42
0.000000001
 43
0.00000001
 40
0.0
 40
0.0
 40
0.0
 40
0.0
 40
0.3722348086954393
 40
1.0
 40
1.0
 40
1.0
 40
1.0
 10
740.4674603172815
 20
19.7597342865307
 30
0.0
 10
740.4954265509532
 20
19.81165859530428
 30
0.0
 10
740.5705571755441
 20
19.95115202139079
 30
0.0
 10
740.6491010337007
 20
19.9591607474959
 30
0.0
 10
740.6984081338421
 20
19.96418834697139
 30
0.0
  0
LINE
  5
3D0
330
1F
100
AcDbEntity
  8
0
  6
Continuous
 62
     7
370
    25
100
AcDbLine
 10
747.3933501725
 20
20.2744142719
 30
0.0
 11
741.0933501725
 21
20.2744142719
 31
0.0
  0
LINE
  5
3D1
330
1F
100
AcDbEntity
  8
0
  6
Continuous
 62
     7
370
    25
100
AcDbLine
 10
740.4674603173
 20
19.7597342865
 30
0.0
 11
740.4674603173
 21
17.5890942573
 31
0.0
  0
LINE
  5
3D2
330
1F
100
AcDbEntity
  8
0
  6
Continuous
 62
     7
370
    25
100
AcDbLine
 10
748.0192400277
 20
19.7597342865
 30
0.0
 11
748.0192400277
 21
17.5890942573
 31
0.0
  0
SPLINE
  5
3D3
330
1F
100
AcDbEntity
  8
0
  6
Continuous
 62
     7
370
    25
100
AcDbSpline
210
0.0
220
0.0
230
1.0
 70
     8
 71
     3
 72
     9
 73
     5
 74
     0
 42
0.000000001
 43
0.00000001
 40
0.0
 40
0.0
 40
0.0
 40
0.0
 40
0.6277651913045496
 40
1.0
 40
1.0
 40
1.0
 40
1.0
 10
297.6984081338423
 20
17.38464019686206
 30
0.0
 10
297.6491010337008
 20
17.38966779633754
 30
0.0
 10
297.5705571755441
 20
17.39767652244266
 30
0.0
 10
297.4954265509534
 20
17.53716994852916
 30
0.0
 10
297.4674603172816
 20
17.58909425730275
 30
0.0
  0
SPLINE
  5
3D4
330
1F
100
AcDbEntity
  8
0
  6
Continuous
 62
     7
370
    25
100
AcDbSpline
210
0.0
220
0.0
230
1.0
 70
     8
 71
     3
 72
    12
 73
     8
 74
     0
 42
0.000000001
 43
0.00000001
 40
0.0
 40
0.0
 40
0.0
 40
0.0
 40
0.5000000000000063
 40
0.5000000000000063
 40
0.7500000000000031
 40
0.7500000000000031
 40
1.0
 40
1.0
 40
1.0
 40
1.0
 10
297.4674603172815
 20
17.58909425730176
 30
0.0
 10
297.9794664689865
 20
17.39859996787824
 30
0.0
 10
298.4991440152547
 20
17.27692555481586
 30
0.0
 10
299.2989318728172
 20
17.27626936428463
 30
0.0
 10
299.5652558196652
 20
17.30610336607903
 30
0.0
 10
300.0884133226667
 20
17.41503323618661
 30
0.0
 10
300.346877953815
 20
17.49372842324948
 30
0.0
 10
300.603200040137
 20
17.58909425730225
 30
0.0
  0
SPLINE
  5
3D5
330
1F
100
AcDbEntity
  8
0
  6
Continuous
 62
     7
370
    25
100
AcDbSpline
210
0.0
220
0.0
230
1.0
 70
     8
 71
     3
 72
    12
 73
     8
 74
     0
 42
0.000000001
 43
0.00000001
 40
0.0
 40
0.0
 40
0.0
 40
0.0
 40
0.5000000000000083
 40
0.5000000000000083
 40
0.7500000000000041
 40
0.7500000000000041
 40
1.0
 40
1.0
 40
1.0
 40
1.0
 10
300.6032000401368
 20
17.58909425730176
 30
0.0
 10
301.219730430057
 20
17.39859996787824
 30
0.0
 10
301.8454983025069
 20
17.27692555481586
 30
0.0
 10
302.8085600118917
 20
17.27626936428464
 30
0.0
 10
303.1292530470215
 20
17.30610336607903
 30
0.0
 10
303.7592112970174
 20
17.41503323618662
 30
0.0
 10
304.0704405650483
 20
17.49372842324948
 30
0.0
 10
304.3790898953329
 20
17.58909425730224
 30
0.0
  0
SPLINE
  5
3D6
330
1F
100
AcDbEntity
  8
0
  6
Continuous
 62
     7
370
    25
100
AcDbSpline
210
0.0
220
0.0
230
1.0
 70
     8
 71
     3
 72
    14
 73
    10
 74
     0
 42
0.000000001
 43
0.00000001
 40
0.0
 40
0.0
 40
0.0
 40
0.0
 40
0.25
 40
0.25
 40
0.5
 40
0.5
 40
0.75
 40
0.75
 40
1.0
 40
1.0
 40
1.0
 40
1.0
 10
304.3790898953329
 20
17.58909425730274
 30
0.0
 10
304.4311476042237
 20
17.49421964799213
 30
0.0
 10
304.4844811425517
 20
17.41461472311637
 30
0.0
 10
304.5914131501799
 20
17.30577810822214
 30
0.0
 10
304.6451665166274
 20
17.27645450253165
 30
0.0
 10
304.7533455680511
 20
17.27651928427725
 30
0.0
 10
304.8081742646391
 20
17.3066754776036
 30
0.0
 10
304.9150812472989
 20
17.41626067896931
 30
0.0
 10
304.9675027622713
 20
17.49480365277149
 30
0.0
 10
305.0192400276734
 20
17.58909425730274
 30
0.0
  0
LINE
  5
3D7
330
1F
100
AcDbEntity
  8
0
  6
Continuous
 62
     7
370
    25
100
AcDbLine
 10
304.3933501725
 20
17.0744142719
 30
0.0
 11
298.0933501725
 21
17.0744142719
 31
0.0
  0
SPLINE
  5
3D8
330
1F
100
AcDbEntity
  8
0
  6
Continuous
 62
     7
370
    25
100
AcDbSpline
210
0.0
220
0.0
230
1.0
 70
     8
 71
     3
 72
    12
 73
     8
 74
     0
 42
0.000000001
 43
0.00000001
 40
0.0
 40
0.0
 40
0.0
 40
0.0
 40
0.5000000000000083
 40
0.5000000000000083
 40
0.7500000000000041
 40
0.7500000000000041
 40
1.0
 40
1.0
 40
1.0
 40
1.0
 10
304.379089895333
 20
19.75973428653172
 30
0.0
 10
303.7625595054127
 20
19.95022857595523
 30
0.0
 10
303.1367916329629
 20
20.0719029890176
 30
0.0
 10
302.173729923578
 20
20.07255917954884
 30
0.0
 10
301.8530368884483
 20
20.04272517775445
 30
0.0
 10
301.2230786384524
 20
19.93379530764685
 30
0.0
 10
300.9118493704215
 20
19.85510012058398
 30
0.0
 10
300.6032000401369
 20
19.75973428653123
 30
0.0
  0
LINE
  5
3D9
330
1F
100
AcDbEntity
  8
0
  6
Continuous
 62
     7
370
    25
100
AcDbLine
 10
304.3790898953
 20
19.7597342865
 30
0.0
 11
304.3790898953
 21
17.5890942573
 31
0.0
  0
LINE
  5
3DA
330
1F
100
AcDbEntity
  8
0
  6
Continuous
 62
     7
370
    25
100
AcDbLine
 10
300.6032000401
 20
19.7597342865
 30
0.0
 11
300.6032000401
 21
17.5890942573
 31
0.0
  0
SPLINE
  5
3DB
330
1F
100
AcDbEntity
  8
0
  6
Continuous
 62
     7
370
    25
100
AcDbSpline
210
0.0
220
0.0
230
1.0
 70
     8
 71
     3
 72
    14
 73
    10
 74
     0
 42
0.000000001
 43
0.00000001
 40
0.0
 40
0.0
 40
0.0
 40
0.0
 40
0.25
 40
0.25
 40
0.5
 40
0.5
 40
0.75
 40
0.75
 40
1.0
 40
1.0
 40
1.0
 40
1.0
 10
304.3790898953329
 20
19.75973428653073
 30
0.0
 10
304.4311476042237
 20
19.85460889584134
 30
0.0
 10
304.4844811425517
 20
19.9342138207171
 30
0.0
 10
304.5914131501799
 20
20.04305043561132
 30
0.0
 10
304.6451665166275
 20
20.07237404130183
 30
0.0
 10
304.7533455680511
 20
20.07230925955623
 30
0.0
 10
304.8081742646391
 20
20.04215306622988
 30
0.0
 10
304.9150812472989
 20
19.93256786486415
 30
0.0
 10
304.9675027622713
 20
19.85402489106199
 30
0.0
 10
305.0192400276734
 20
19.75973428653073
 30
0.0
  0
SPLINE
  5
3DC
330
1F
100
AcDbEntity
  8
0
  6
Continuous
 62
     7
370
    25
100
AcDbSpline
210
0.0
220
0.0
230
1.0
 70
     8
 71
     3
 72
    12
 73
     8
 74
     0
 42
0.000000001
 43
0.00000001
 40
0.0
 40
0.0
 40
0.0
 40
0.0
 40
0.5000000000000063
 40
0.5000000000000063
 40
0.7500000000000031
 40
0.7500000000000031
 40
1.0
 40
1.0
 40
1.0
 40
1.0
 10
300.6032000401371
 20
19.75973428653172
 30
0.0
 10
300.0911938884321
 20
19.95022857595524
 30
0.0
 10
299.5715163421638
 20
20.07190298901761
 30
0.0
 10
298.7717284846014
 20
20.07255917954884
 30
0.0
 10
298.5054045377533
 20
20.04272517775445
 30
0.0
 10
297.9822470347519
 20
19.93379530764685
 30
0.0
 10
297.7237824036036
 20
19.85510012058398
 30
0.0
 10
297.4674603172816
 20
19.75973428653123
 30
0.0
  0
SPLINE
  5
3DD
330
1F
100
AcDbEntity
  8
0
  6
Continuous
 62
     7
370
    25
100
AcDbSpline
210
0.0
220
0.0
230
1.0
 70
     8
 71
     3
 72
     9
 73
     5
 74
     0
 42
0.000000001
 43
0.00000001
 40
0.0
 40
0.0
 40
0.0
 40
0.0
 40
0.3722348086954365
 40
1.0
 40
1.0
 40
1.0
 40
1.0
 10
297.4674603172816
 20
19.75973428653072
 30
0.0
 10
297.4954265509534
 20
19.8116585953043
 30
0.0
 10
297.5705571755441
 20
19.95115202139082
 30
0.0
 10
297.6491010337008
 20
19.95916074749593
 30
0.0
 10
297.6984081338423
 20
19.96418834697142
 30
0.0
  0
LINE
  5
3DE
330
1F
100
AcDbEntity
  8
0
  6
Continuous
 62
     7
370
    25
100
AcDbLine
 10
304.3933501725
 20
20.2744142719
 30
0.0
 11
298.0933501725
 21
20.2744142719
 31
0.0
  0
LINE
  5
3DF
330
1F
100
AcDbEntity
  8
0
  6
Continuous
 62
     7
370
    25
100
AcDbLine
 10
297.4674603173
 20
19.7597342865
 30
0.0
 11
297.4674603173
 21
17.5890942573
 31
0.0
  0
LINE
  5
3E0
330
1F
100
AcDbEntity
  8
0
  6
Continuous
 62
     7
370
    25
100
AcDbLine
 10
305.0192400277
 20
19.7597342865
 30
0.0
 11
305.0192400277
 21
17.5890942573
 31
0.0
  0
SPLINE
  5
3E1
330
1F
100
AcDbEntity
  8
0
  6
Continuous
 62
     7
370
    25
100
AcDbSpline
210
0.0
220
0.0
230
1.0
 70
     8
 71
     3
 72
    12
 73
     8
 74
     0
 42
0.000000001
 43
0.00000001
 40
0.0
 40
0.0
 40
0.0
 40
0.0
 40
0.5000000000000083
 40
0.5000000000000083
 40
0.7500000000000041
 40
0.7500000000000041
 40
1.0
 40
1.0
 40
1.0
 40
1.0
 10
527.3790898953329
 20
19.75973428653169
 30
0.0
 10
526.7625595054126
 20
19.95022857595521
 30
0.0
 10
526.1367916329629
 20
20.07190298901757
 30
0.0
 10
525.173729923578
 20
20.07255917954881
 30
0.0
 10
524.8530368884483
 20
20.04272517775442
 30
0.0
 10
524.2230786384523
 20
19.93379530764683
 30
0.0
 10
523.9118493704214
 20
19.85510012058395
 30
0.0
 10
523.6032000401367
 20
19.7597342865312
 30
0.0
  0
LINE
  5
3E2
330
1F
100
AcDbEntity
  8
0
  6
Continuous
 62
     7
370
    25
100
AcDbLine
 10
527.3790898953
 20
19.7597342865
 30
0.0
 11
527.3790898953
 21
17.5890942573
 31
0.0
  0
SPLINE
  5
3E3
330
1F
100
AcDbEntity
  8
0
  6
Continuous
 62
     7
370
    25
100
AcDbSpline
210
0.0
220
0.0
230
1.0
 70
     8
 71
     3
 72
    12
 73
     8
 74
     0
 42
0.000000001
 43
0.00000001
 40
0.0
 40
0.0
 40
0.0
 40
0.0
 40
0.5000000000000083
 40
0.5000000000000083
 40
0.7500000000000041
 40
0.7500000000000041
 40
1.0
 40
1.0
 40
1.0
 40
1.0
 10
523.6032000401367
 20
17.58909425730173
 30
0.0
 10
524.219730430057
 20
17.39859996787821
 30
0.0
 10
524.8454983025067
 20
17.27692555481584
 30
0.0
 10
525.8085600118917
 20
17.2762693642846
 30
0.0
 10
526.1292530470214
 20
17.306103366079
 30
0.0
 10
526.7592112970173
 20
17.41503323618659
 30
0.0
 10
527.0704405650481
 20
17.49372842324946
 30
0.0
 10
527.3790898953328
 20
17.58909425730221
 30
0.0
  0
LINE
  5
3E4
330
1F
100
AcDbEntity
  8
0
  6
Continuous
 62
     7
370
    25
100
AcDbLine
 10
523.6032000401
 20
19.7597342865
 30
0.0
 11
523.6032000401
 21
17.5890942573
 31
0.0
  0
SPLINE
  5
3E5
330
1F
100
AcDbEntity
  8
0
  6
Continuous
 62
     7
370
    25
100
AcDbSpline
210
0.0
220
0.0
230
1.0
 70
     8
 71
     3
 72
    14
 73
    10
 74
     0
 42
0.000000001
 43
0.00000001
 40
0.0
 40
0.0
 40
0.0
 40
0.0
 40
0.25
 40
0.25
 40
0.5
 40
0.5
 40
0.75
 40
0.75
 40
1.0
 40
1.0
 40
1.0
 40
1.0
 10
527.3790898953328
 20
19.7597342865307
 30
0.0
 10
527.4311476042236
 20
19.85460889584131
 30
0.0
 10
527.4844811425517
 20
19.93421382071708
 30
0.0
 10
527.5914131501797
 20
20.04305043561129
 30
0.0
 10
527.6451665166273
 20
20.0723740413018
 30
0.0
 10
527.753345568051
 20
20.0723092595562
 30
0.0
 10
527.808174264639
 20
20.04215306622984
 30
0.0
 10
527.9150812472988
 20
19.93256786486414
 30
0.0
 10
527.9675027622712
 20
19.85402489106196
 30
0.0
 10
528.0192400276733
 20
19.7597342865307
 30
0.0
  0
SPLINE
  5
3E6
330
1F
100
AcDbEntity
  8
0
  6
Continuous
 62
     7
370
    25
100
AcDbSpline
210
0.0
220
0.0
230
1.0
 70
     8
 71
     3
 72
    12
 73
     8
 74
     0
 42
0.000000001
 43
0.00000001
 40
0.0
 40
0.0
 40
0.0
 40
0.0
 40
0.5000000000000063
 40
0.5000000000000063
 40
0.7500000000000031
 40
0.7500000000000031
 40
1.0
 40
1.0
 40
1.0
 40
1.0
 10
523.6032000401369
 20
19.75973428653169
 30
0.0
 10
523.091193888432
 20
19.95022857595521
 30
0.0
 10
522.5715163421638
 20
20.07190298901758
 30
0.0
 10
521.7717284846013
 20
20.07255917954881
 30
0.0
 10
521.5054045377532
 20
20.04272517775442
 30
0.0
 10
520.9822470347518
 20
19.93379530764683
 30
0.0
 10
520.7237824036035
 20
19.85510012058395
 30
0.0
 10
520.4674603172814
 20
19.7597342865312
 30
0.0
  0
SPLINE
  5
3E7
330
1F
100
AcDbEntity
  8
0
  6
Continuous
 62
     7
370
    25
100
AcDbSpline
210
0.0
220
0.0
230
1.0
 70
     8
 71
     3
 72
     9
 73
     5
 74
     0
 42
0.000000001
 43
0.00000001
 40
0.0
 40
0.0
 40
0.0
 40
0.0
 40
0.372234808695437
 40
1.0
 40
1.0
 40
1.0
 40
1.0
 10
520.4674603172815
 20
19.7597342865307
 30
0.0
 10
520.4954265509533
 20
19.81165859530428
 30
0.0
 10
520.5705571755441
 20
19.95115202139079
 30
0.0
 10
520.6491010337007
 20
19.9591607474959
 30
0.0
 10
520.6984081338422
 20
19.96418834697139
 30
0.0
  0
LINE
  5
3E8
330
1F
100
AcDbEntity
  8
0
  6
Continuous
 62
     7
370
    25
100
AcDbLine
 10
527.3933501725
 20
20.2744142719
 30
0.0
 11
521.0933501725
 21
20.2744142719
 31
0.0
  0
SPLINE
  5
3E9
330
1F
100
AcDbEntity
  8
0
  6
Continuous
 62
     7
370
    25
100
AcDbSpline
210
0.0
220
0.0
230
1.0
 70
     8
 71
     3
 72
     9
 73
     5
 74
     0
 42
0.000000001
 43
0.00000001
 40
0.0
 40
0.0
 40
0.0
 40
0.0
 40
0.6277651913045496
 40
1.0
 40
1.0
 40
1.0
 40
1.0
 10
520.6984081338422
 20
17.38464019686203
 30
0.0
 10
520.6491010337007
 20
17.38966779633752
 30
0.0
 10
520.5705571755441
 20
17.39767652244264
 30
0.0
 10
520.4954265509533
 20
17.53716994852914
 30
0.0
 10
520.4674603172815
 20
17.58909425730272
 30
0.0
  0
SPLINE
  5
3EA
330
1F
100
AcDbEntity
  8
0
  6
Continuous
 62
     7
370
    25
100
AcDbSpline
210
0.0
220
0.0
230
1.0
 70
     8
 71
     3
 72
    12
 73
     8
 74
     0
 42
0.000000001
 43
0.00000001
 40
0.0
 40
0.0
 40
0.0
 40
0.0
 40
0.5000000000000063
 40
0.5000000000000063
 40
0.7500000000000031
 40
0.7500000000000031
 40
1.0
 40
1.0
 40
1.0
 40
1.0
 10
520.4674603172814
 20
17.58909425730173
 30
0.0
 10
520.9794664689863
 20
17.39859996787821
 30
0.0
 10
521.4991440152545
 20
17.27692555481584
 30
0.0
 10
522.2989318728171
 20
17.2762693642846
 30
0.0
 10
522.5652558196651
 20
17.306103366079
 30
0.0
 10
523.0884133226665
 20
17.41503323618659
 30
0.0
 10
523.3468779538149
 20
17.49372842324946
 30
0.0
 10
523.6032000401369
 20
17.58909425730222
 30
0.0
  0
SPLINE
  5
3EB
330
1F
100
AcDbEntity
  8
0
  6
Continuous
 62
     7
370
    25
100
AcDbSpline
210
0.0
220
0.0
230
1.0
 70
     8
 71
     3
 72
    14
 73
    10
 74
     0
 42
0.000000001
 43
0.00000001
 40
0.0
 40
0.0
 40
0.0
 40
0.0
 40
0.25
 40
0.25
 40
0.5
 40
0.5
 40
0.75
 40
0.75
 40
1.0
 40
1.0
 40
1.0
 40
1.0
 10
527.3790898953328
 20
17.58909425730271
 30
0.0
 10
527.4311476042236
 20
17.4942196479921
 30
0.0
 10
527.4844811425517
 20
17.41461472311635
 30
0.0
 10
527.5914131501797
 20
17.30577810822212
 30
0.0
 10
527.6451665166273
 20
17.27645450253162
 30
0.0
 10
527.753345568051
 20
17.27651928427721
 30
0.0
 10
527.808174264639
 20
17.30667547760358
 30
0.0
 10
527.9150812472988
 20
17.41626067896929
 30
0.0
 10
527.9675027622712
 20
17.49480365277146
 30
0.0
 10
528.0192400276733
 20
17.58909425730271
 30
0.0
  0
LINE
  5
3EC
330
1F
100
AcDbEntity
  8
0
  6
Continuous
 62
     7
370
    25
100
AcDbLine
 10
527.3933501725
 20
17.0744142719
 30
0.0
 11
521.0933501725
 21
17.0744142719
 31
0.0
  0
LINE
  5
3ED
330
1F
100
AcDbEntity
  8
0
  6
Continuous
 62
     7
370
    25
100
AcDbLine
 10
520.4674603173
 20
19.7597342865
 30
0.0
 11
520.4674603173
 21
17.5890942573
 31
0.0
  0
LINE
  5
3EE
330
1F
100
AcDbEntity
  8
0
  6
Continuous
 62
     7
370
    25
100
AcDbLine
 10
528.0192400277
 20
19.7597342865
 30
0.0
 11
528.0192400277
 21
17.5890942573
 31
0.0
  0
SPLINE
  5
3EF
330
1F
100
AcDbEntity
  8
0
  6
Continuous
 62
     7
370
    25
100
AcDbSpline
210
0.0
220
0.0
230
1.0
 70
     8
 71
     3
 72
    12
 73
     8
 74
     0
 42
0.000000001
 43
0.00000001
 40
0.0
 40
0.0
 40
0.0
 40
0.0
 40
0.5000000000000224
 40
0.5000000000000224
 40
0.7500000000000112
 40
0.7500000000000112
 40
1.0
 40
1.0
 40
1.0
 40
1.0
 10
84.37908989533294
 20
19.75973428653174
 30
0.0
 10
83.76255950541267
 20
19.95022857595526
 30
0.0
 10
83.13679163296284
 20
20.07190298901763
 30
0.0
 10
82.17372992357797
 20
20.07255917954887
 30
0.0
 10
81.85303688844819
 20
20.04272517775448
 30
0.0
 10
81.22307863845235
 20
19.93379530764688
 30
0.0
 10
80.9118493704214
 20
19.85510012058402
 30
0.0
 10
80.60320004013683
 20
19.75973428653126
 30
0.0
  0
LINE
  5
3F0
330
1F
100
AcDbEntity
  8
0
  6
Continuous
 62
     7
370
    25
100
AcDbLine
 10
84.3790898953
 20
19.7597342865
 30
0.0
 11
84.3790898953
 21
17.5890942573
 31
0.0
  0
SPLINE
  5
3F1
330
1F
100
AcDbEntity
  8
0
  6
Continuous
 62
     7
370
    25
100
AcDbSpline
210
0.0
220
0.0
230
1.0
 70
     8
 71
     3
 72
    12
 73
     8
 74
     0
 42
0.000000001
 43
0.00000001
 40
0.0
 40
0.0
 40
0.0
 40
0.0
 40
0.5000000000000224
 40
0.5000000000000224
 40
0.7500000000000112
 40
0.7500000000000112
 40
1.0
 40
1.0
 40
1.0
 40
1.0
 10
80.60320004013671
 20
17.58909425730178
 30
0.0
 10
81.21973043005687
 20
17.39859996787827
 30
0.0
 10
81.84549830250681
 20
17.27692555481589
 30
0.0
 10
82.80856001189169
 20
17.27626936428467
 30
0.0
 10
83.12925304702141
 20
17.30610336607906
 30
0.0
 10
83.7592112970173
 20
17.41503323618665
 30
0.0
 10
84.0704405650482
 20
17.49372842324953
 30
0.0
 10
84.37908989533288
 20
17.58909425730228
 30
0.0
  0
LINE
  5
3F2
330
1F
100
AcDbEntity
  8
0
  6
Continuous
 62
     7
370
    25
100
AcDbLine
 10
80.6032000401
 20
19.7597342865
 30
0.0
 11
80.6032000401
 21
17.5890942573
 31
0.0
  0
SPLINE
  5
3F3
330
1F
100
AcDbEntity
  8
0
  6
Continuous
 62
     7
370
    25
100
AcDbSpline
210
0.0
220
0.0
230
1.0
 70
     8
 71
     3
 72
     9
 73
     5
 74
     0
 42
0.000000001
 43
0.00000001
 40
0.0
 40
0.0
 40
0.0
 40
0.0
 40
0.6277651913045473
 40
1.0
 40
1.0
 40
1.0
 40
1.0
 10
77.69840813384226
 20
17.38464019686209
 30
0.0
 10
77.64910103370082
 20
17.38966779633757
 30
0.0
 10
77.57055717554418
 20
17.3976765224427
 30
0.0
 10
77.49542655095325
 20
17.53716994852919
 30
0.0
 10
77.46746031728152
 20
17.58909425730278
 30
0.0
  0
SPLINE
  5
3F4
330
1F
100
AcDbEntity
  8
0
  6
Continuous
 62
     7
370
    25
100
AcDbSpline
210
0.0
220
0.0
230
1.0
 70
     8
 71
     3
 72
    12
 73
     8
 74
     0
 42
0.000000001
 43
0.00000001
 40
0.0
 40
0.0
 40
0.0
 40
0.0
 40
0.5000000000000064
 40
0.5000000000000064
 40
0.7500000000000032
 40
0.7500000000000032
 40
1.0
 40
1.0
 40
1.0
 40
1.0
 10
77.46746031728141
 20
17.5890942573018
 30
0.0
 10
77.97946646898629
 20
17.39859996787827
 30
0.0
 10
78.4991440152546
 20
17.2769255548159
 30
0.0
 10
79.29893187281706
 20
17.27626936428466
 30
0.0
 10
79.56525581966511
 20
17.30610336607906
 30
0.0
 10
80.08841332266653
 20
17.41503323618665
 30
0.0
 10
80.34687795381484
 20
17.49372842324953
 30
0.0
 10
80.60320004013694
 20
17.58909425730227
 30
0.0
  0
SPLINE
  5
3F5
330
1F
100
AcDbEntity
  8
0
  6
Continuous
 62
     7
370
    25
100
AcDbSpline
210
0.0
220
0.0
230
1.0
 70
     8
 71
     3
 72
    14
 73
    10
 74
     0
 42
0.000000001
 43
0.00000001
 40
0.0
 40
0.0
 40
0.0
 40
0.0
 40
0.25
 40
0.25
 40
0.5
 40
0.5
 40
0.75
 40
0.75
 40
1.0
 40
1.0
 40
1.0
 40
1.0
 10
84.37908989533283
 20
17.58909425730278
 30
0.0
 10
84.4311476042236
 20
17.49421964799217
 30
0.0
 10
84.4844811425518
 20
17.41461472311641
 30
0.0
 10
84.59141315017993
 20
17.30577810822219
 30
0.0
 10
84.6451665166274
 20
17.27645450253168
 30
0.0
 10
84.75334556805115
 20
17.27651928427728
 30
0.0
 10
84.8081742646391
 20
17.30667547760364
 30
0.0
 10
84.9150812472989
 20
17.41626067896936
 30
0.0
 10
84.96750276227128
 20
17.49480365277152
 30
0.0
 10
85.01924002767342
 20
17.58909425730278
 30
0.0
  0
LINE
  5
3F6
330
1F
100
AcDbEntity
  8
0
  6
Continuous
 62
     7
370
    25
100
AcDbLine
 10
84.3933501725
 20
17.0744142719
 30
0.0
 11
78.0933501725
 21
17.0744142719
 31
0.0
  0
SPLINE
  5
3F7
330
1F
100
AcDbEntity
  8
0
  6
Continuous
 62
     7
370
    25
100
AcDbSpline
210
0.0
220
0.0
230
1.0
 70
     8
 71
     3
 72
    14
 73
    10
 74
     0
 42
0.000000001
 43
0.00000001
 40
0.0
 40
0.0
 40
0.0
 40
0.0
 40
0.25
 40
0.25
 40
0.5
 40
0.5
 40
0.75
 40
0.75
 40
1.0
 40
1.0
 40
1.0
 40
1.0
 10
84.37908989533283
 20
19.75973428653075
 30
0.0
 10
84.4311476042236
 20
19.85460889584136
 30
0.0
 10
84.4844811425518
 20
19.93421382071712
 30
0.0
 10
84.59141315017993
 20
20.04305043561134
 30
0.0
 10
84.6451665166274
 20
20.07237404130184
 30
0.0
 10
84.75334556805115
 20
20.07230925955624
 30
0.0
 10
84.8081742646391
 20
20.04215306622989
 30
0.0
 10
84.9150812472989
 20
19.93256786486417
 30
0.0
 10
84.96750276227128
 20
19.854024891062
 30
0.0
 10
85.01924002767342
 20
19.75973428653075
 30
0.0
  0
SPLINE
  5
3F8
330
1F
100
AcDbEntity
  8
0
  6
Continuous
 62
     7
370
    25
100
AcDbSpline
210
0.0
220
0.0
230
1.0
 70
     8
 71
     3
 72
    12
 73
     8
 74
     0
 42
0.000000001
 43
0.00000001
 40
0.0
 40
0.0
 40
0.0
 40
0.0
 40
0.5000000000000093
 40
0.5000000000000093
 40
0.7500000000000047
 40
0.7500000000000047
 40
1.0
 40
1.0
 40
1.0
 40
1.0
 10
80.603200040137
 20
19.75973428653174
 30
0.0
 10
80.09119388843212
 20
19.95022857595526
 30
0.0
 10
79.57151634216375
 20
20.07190298901763
 30
0.0
 10
78.77172848460128
 20
20.07255917954886
 30
0.0
 10
78.5054045377533
 20
20.04272517775447
 30
0.0
 10
77.98224703475171
 20
19.93379530764687
 30
0.0
 10
77.72378240360351
 20
19.855100120584
 30
0.0
 10
77.46746031728146
 20
19.75973428653125
 30
0.0
  0
SPLINE
  5
3F9
330
1F
100
AcDbEntity
  8
0
  6
Continuous
 62
     7
370
    25
100
AcDbSpline
210
0.0
220
0.0
230
1.0
 70
     8
 71
     3
 72
     9
 73
     5
 74
     0
 42
0.000000001
 43
0.00000001
 40
0.0
 40
0.0
 40
0.0
 40
0.0
 40
0.3722348086954393
 40
1.0
 40
1.0
 40
1.0
 40
1.0
 10
77.46746031728146
 20
19.75973428653075
 30
0.0
 10
77.49542655095321
 20
19.81165859530433
 30
0.0
 10
77.57055717554412
 20
19.95115202139084
 30
0.0
 10
77.64910103370082
 20
19.95916074749596
 30
0.0
 10
77.69840813384226
 20
19.96418834697145
 30
0.0
  0
LINE
  5
3FA
330
1F
100
AcDbEntity
  8
0
  6
Continuous
 62
     7
370
    25
100
AcDbLine
 10
84.3933501725
 20
20.2744142719
 30
0.0
 11
78.0933501725
 21
20.2744142719
 31
0.0
  0
LINE
  5
3FB
330
1F
100
AcDbEntity
  8
0
  6
Continuous
 62
     7
370
    25
100
AcDbLine
 10
77.4674603173
 20
19.7597342865
 30
0.0
 11
77.4674603173
 21
17.5890942573
 31
0.0
  0
LINE
  5
3FC
330
1F
100
AcDbEntity
  8
0
  6
Continuous
 62
     7
370
    25
100
AcDbLine
 10
85.0192400277
 20
19.7597342865
 30
0.0
 11
85.0192400277
 21
17.5890942573
 31
0.0
  0
LINE
  5
3FD
330
1F
100
AcDbEntity
  8
0
  6
Continuous
 62
     7
370
    25
100
AcDbLine
 10
764.2433501725
 20
14.3744142719
 30
0.0
 11
765.164280405
 21
4.4744142719
 31
0.0
  0
LINE
  5
3FE
330
1F
100
AcDbEntity
  8
0
  6
Continuous
 62
     7
370
    25
100
AcDbLine
 10
60.3224199399
 20
4.4744142719
 30
0.0
 11
61.2433501725
 21
14.3744142719
 31
0.0
  0
LINE
  5
3FF
330
1F
100
AcDbEntity
  8
0
  6
Continuous
 62
     7
370
    25
100
AcDbLine
 10
61.2433501725
 20
16.1744142719
 30
0.0
 11
764.2433501725
 21
16.1744142719
 31
0.0
  0
LINE
  5
400
330
1F
100
AcDbEntity
  8
0
  6
Continuous
 62
     7
370
    25
100
AcDbLine
 10
764.2433501725
 20
16.1744142719
 30
0.0
 11
764.2433501725
 21
14.3744142719
 31
0.0
  0
LINE
  5
401
330
1F
100
AcDbEntity
  8
0
  6
Continuous
 62
     7
370
    25
100
AcDbLine
 10
61.2433501725
 20
14.3744142719
 30
0.0
 11
61.2433501725
 21
16.1744142719
 31
0.0
  0
LINE
  5
402
330
1F
100
AcDbEntity
  8
0
  6
Continuous
 62
     7
370
    25
100
AcDbLine
 10
60.2433501725
 20
3.6244142719
 30
0.0
 11
60.3224199399
 21
4.4744142719
 31
0.0
  0
LINE
  5
403
330
1F
100
AcDbEntity
  8
0
  6
Continuous
 62
     7
370
    25
100
AcDbLine
 10
765.164280405
 20
4.4744142719
 30
0.0
 11
765.2433501725
 21
3.6244142719
 31
0.0
  0
LINE
  5
404
330
1F
100
AcDbEntity
  8
0
  6
Continuous
 62
     7
370
    25
100
AcDbLine
 10
743.9265580143
 20
25.3744142719
 30
0.0
 11
746.2433501725
 21
25.3744142719
 31
0.0
  0
LINE
  5
405
330
1F
100
AcDbEntity
  8
0
  6
Continuous
 62
     7
370
    25
100
AcDbLine
 10
742.2433501725
 20
25.3744142719
 30
0.0
 11
743.9265580143
 21
25.3744142719
 31
0.0
  0
LINE
  5
406
330
1F
100
AcDbEntity
  8
0
  6
Continuous
 62
     7
370
    25
100
AcDbLine
 10
300.9265580143
 20
25.3744142719
 30
0.0
 11
303.2433501725
 21
25.3744142719
 31
0.0
  0
LINE
  5
407
330
1F
100
AcDbEntity
  8
0
  6
Continuous
 62
     7
370
    25
100
AcDbLine
 10
299.2433501725
 20
25.3744142719
 30
0.0
 11
300.9265580143
 21
25.3744142719
 31
0.0
  0
LINE
  5
408
330
1F
100
AcDbEntity
  8
0
  6
Continuous
 62
     7
370
    25
100
AcDbLine
 10
523.9265580143
 20
25.3744142719
 30
0.0
 11
526.2433501725
 21
25.3744142719
 31
0.0
  0
LINE
  5
409
330
1F
100
AcDbEntity
  8
0
  6
Continuous
 62
     7
370
    25
100
AcDbLine
 10
522.2433501725
 20
25.3744142719
 30
0.0
 11
523.9265580143
 21
25.3744142719
 31
0.0
  0
LINE
  5
40A
330
1F
100
AcDbEntity
  8
0
  6
Continuous
 62
     7
370
    25
100
AcDbLine
 10
80.9265580143
 20
25.3744142719
 30
0.0
 11
83.2433501725
 21
25.3744142719
 31
0.0
  0
LINE
  5
40B
330
1F
100
AcDbEntity
  8
0
  6
Continuous
 62
     7
370
    25
100
AcDbLine
 10
79.2433501725
 20
25.3744142719
 30
0.0
 11
80.9265580143
 21
25.3744142719
 31
0.0
  0
LINE
  5
40C
330
1F
100
AcDbEntity
  8
0
  6
Continuous
 62
     7
370
    25
100
AcDbLine
 10
765.7433501725
 20
36.5744142719
 30
0.0
 11
766.7433501725
 21
36.5744142719
 31
0.0
  0
LINE
  5
40D
330
1F
100
AcDbEntity
  8
0
  6
Continuous
 62
     7
370
    25
100
AcDbLine
 10
766.7433501725
 20
36.5744142719
 30
0.0
 11
766.7433501725
 21
34.5744142719
 31
0.0
  0
LINE
  5
40E
330
1F
100
AcDbEntity
  8
0
  6
Continuous
 62
     7
370
    25
100
AcDbLine
 10
764.7433501725
 20
18.1744142719
 30
0.0
 11
764.7433501725
 21
8.9994142719
 31
0.0
  0
LINE
  5
40F
330
1F
100
AcDbEntity
  8
0
  6
Continuous
 62
     7
370
    25
100
AcDbLine
 10
766.7433501725
 20
34.5744142719
 30
0.0
 11
766.7433501725
 21
31.6744142719
 31
0.0
  0
LINE
  5
410
330
1F
100
AcDbEntity
  8
0
  6
Continuous
 62
     7
370
    25
100
AcDbLine
 10
766.7433501725
 20
25.6744142719
 30
0.0
 11
766.7433501725
 21
5.5744142719
 31
0.0
  0
LINE
  5
411
330
1F
100
AcDbEntity
  8
0
  6
Continuous
 62
     7
370
    25
100
AcDbLine
 10
766.7416830426
 20
5.4744142719
 30
0.0
 11
766.7433501725
 21
5.5744142719
 31
0.0
  0
LINE
  5
412
330
1F
100
AcDbEntity
  8
0
  6
Continuous
 62
     7
370
    25
100
AcDbLine
 10
766.8036575517
 20
36.5744142719
 30
0.0
 11
766.7433501725
 21
36.5744142719
 31
0.0
  0
LINE
  5
413
330
1F
100
AcDbEntity
  8
0
  6
Continuous
 62
     7
370
    25
100
AcDbLine
 10
766.7433501725
 20
20.5744142719
 30
0.0
 11
766.8036575517
 21
20.5744142719
 31
0.0
  0
LWPOLYLINE
  5
414
330
1F
100
AcDbEntity
  8
0
  6
Continuous
 62
     7
370
    25
100
AcDbPolyline
 90
        9
 70
   128
 43
0.0
 10
769.3588965607
 20
34.5744142719
 10
769.3457529184
 20
34.9645949159
 10
769.3068270943
 20
35.3397811366
 10
769.2436149859
 20
35.685554738
 10
769.1585457993
 20
35.9886278343
 10
769.0548886955
 20
36.2373534965
 10
768.9366271588
 20
36.4221733369
 10
768.8083059138
 20
36.5359848327
 10
768.674856274
 20
36.5744142719
  0
LINE
  5
415
330
1F
100
AcDbEntity
  8
0
  6
Continuous
 62
     7
370
    25
100
AcDbLine
 10
769.3588965607
 20
34.5744142719
 30
0.0
 11
769.3588965607
 21
31.6744142719
 31
0.0
  0
LINE
  5
416
330
1F
100
AcDbEntity
  8
0
  6
Continuous
 62
     7
370
    25
100
AcDbLine
 10
769.3588965607
 20
25.6744142719
 30
0.0
 11
769.3588965607
 21
22.5744142719
 31
0.0
  0
LWPOLYLINE
  5
417
330
1F
100
AcDbEntity
  8
0
  6
Continuous
 62
     7
370
    25
100
AcDbPolyline
 90
        9
 70
   128
 43
0.0
 10
768.674856274
 20
20.5744142719
 10
768.8083059138
 20
20.6128437111
 10
768.9366271588
 20
20.7266552069
 10
769.0548886955
 20
20.9114750473
 10
769.1585457993
 20
21.1602007095
 10
769.2436149859
 20
21.4632738059
 10
769.3068270943
 20
21.8090474072
 10
769.3457529184
 20
22.1842336279
 10
769.3588965607
 20
22.5744142719
  0
LINE
  5
418
330
1F
100
AcDbEntity
  8
0
  6
Continuous
 62
     7
370
    25
100
AcDbLine
 10
768.674856274
 20
20.5744142719
 30
0.0
 11
766.8036575517
 21
20.5744142719
 31
0.0
  0
LINE
  5
419
330
1F
100
AcDbEntity
  8
0
  6
Continuous
 62
     7
370
    25
100
AcDbLine
 10
766.8036575517
 20
36.5744142719
 30
0.0
 11
768.674856274
 21
36.5744142719
 31
0.0
  0
LINE
  5
41A
330
1F
100
AcDbEntity
  8
0
  6
Continuous
 62
     7
370
    25
100
AcDbLine
 10
58.7433501725
 20
36.5744142719
 30
0.0
 11
59.7433501725
 21
36.5744142719
 31
0.0
  0
LINE
  5
41B
330
1F
100
AcDbEntity
  8
0
  6
Continuous
 62
     7
370
    25
100
AcDbLine
 10
58.7433501725
 20
34.5744142719
 30
0.0
 11
58.7433501725
 21
36.5744142719
 31
0.0
  0
LINE
  5
41C
330
1F
100
AcDbEntity
  8
0
  6
Continuous
 62
     7
370
    25
100
AcDbLine
 10
60.7433501725
 20
8.9994142719
 30
0.0
 11
60.7433501725
 21
18.1744142719
 31
0.0
  0
LINE
  5
41D
330
1F
100
AcDbEntity
  8
0
  6
Continuous
 62
     7
370
    25
100
AcDbLine
 10
58.7433501725
 20
5.5744142719
 30
0.0
 11
58.7433501725
 21
25.6744142719
 31
0.0
  0
LINE
  5
41E
330
1F
100
AcDbEntity
  8
0
  6
Continuous
 62
     7
370
    25
100
AcDbLine
 10
58.7433501725
 20
31.6744142719
 30
0.0
 11
58.7433501725
 21
34.5744142719
 31
0.0
  0
LINE
  5
41F
330
1F
100
AcDbEntity
  8
0
  6
Continuous
 62
     7
370
    25
100
AcDbLine
 10
58.7433501725
 20
5.5744142719
 30
0.0
 11
58.7450173024
 21
5.4744142719
 31
0.0
  0
LINE
  5
420
330
1F
100
AcDbEntity
  8
0
  6
Continuous
 62
     7
370
    25
100
AcDbLine
 10
58.6830427933
 20
20.5744142719
 30
0.0
 11
58.7433501725
 21
20.5744142719
 31
0.0
  0
LINE
  5
421
330
1F
100
AcDbEntity
  8
0
  6
Continuous
 62
     7
370
    25
100
AcDbLine
 10
58.7433501725
 20
36.5744142719
 30
0.0
 11
58.6830427933
 21
36.5744142719
 31
0.0
  0
LWPOLYLINE
  5
422
330
1F
100
AcDbEntity
  8
0
  6
Continuous
 62
     7
370
    25
100
AcDbPolyline
 90
        9
 70
   128
 43
0.0
 10
56.811844071
 20
36.5744142719
 10
56.6783944312
 20
36.5359848327
 10
56.5500731862
 20
36.4221733369
 10
56.4318116495
 20
36.2373534965
 10
56.3281545457
 20
35.9886278343
 10
56.243085359
 20
35.685554738
 10
56.1798732507
 20
35.3397811366
 10
56.1409474266
 20
34.9645949159
 10
56.1278037843
 20
34.5744142719
  0
LINE
  5
423
330
1F
100
AcDbEntity
  8
0
  6
Continuous
 62
     7
370
    25
100
AcDbLine
 10
56.811844071
 20
36.5744142719
 30
0.0
 11
58.6830427933
 21
36.5744142719
 31
0.0
  0
LINE
  5
424
330
1F
100
AcDbEntity
  8
0
  6
Continuous
 62
     7
370
    25
100
AcDbLine
 10
58.6830427933
 20
20.5744142719
 30
0.0
 11
56.811844071
 21
20.5744142719
 31
0.0
  0
LWPOLYLINE
  5
425
330
1F
100
AcDbEntity
  8
0
  6
Continuous
 62
     7
370
    25
100
AcDbPolyline
 90
        9
 70
   128
 43
0.0
 10
56.1278037843
 20
22.5744142719
 10
56.1409474266
 20
22.1842336279
 10
56.1798732507
 20
21.8090474072
 10
56.243085359
 20
21.4632738059
 10
56.3281545457
 20
21.1602007095
 10
56.4318116495
 20
20.9114750473
 10
56.5500731862
 20
20.7266552069
 10
56.6783944312
 20
20.6128437111
 10
56.811844071
 20
20.5744142719
  0
LINE
  5
426
330
1F
100
AcDbEntity
  8
0
  6
Continuous
 62
     7
370
    25
100
AcDbLine
 10
56.1278037843
 20
22.5744142719
 30
0.0
 11
56.1278037843
 21
25.6744142719
 31
0.0
  0
LINE
  5
427
330
1F
100
AcDbEntity
  8
0
  6
Continuous
 62
     7
370
    25
100
AcDbLine
 10
56.1278037843
 20
31.6744142719
 30
0.0
 11
56.1278037843
 21
34.5744142719
 31
0.0
  0
SPLINE
  5
428
330
1F
100
AcDbEntity
  8
0
  6
Continuous
 62
     7
370
    25
100
AcDbSpline
210
0.0
220
0.0
230
1.0
 70
    24
 71
     3
 72
     9
 73
     5
 74
     0
 42
0.000000001
 43
0.00000001
 40
0.0
 40
0.0
 40
0.0
 40
0.0
 40
0.7059102712394396
 40
1.0
 40
1.0
 40
1.0
 40
1.0
 10
60.54335017247747
 20
34.44766308130703
 30
0.0
 10
60.54335017247753
 20
34.45791585060358
 30
0.0
 10
60.54335017247753
 20
34.47244003266223
 30
0.0
 10
60.54335017247736
 20
34.3773880760538
 30
0.0
 10
60.54335017247736
 20
34.34943427191667
 30
0.0
  0
SPLINE
  5
429
330
1F
100
AcDbEntity
  8
0
  6
Continuous
 62
     7
370
    25
100
AcDbSpline
210
0.0
220
0.0
230
1.0
 70
    24
 71
     3
 72
    12
 73
     8
 74
     0
 42
0.000000001
 43
0.00000001
 40
0.0
 40
0.0
 40
0.0
 40
0.0
 40
0.3344405486782614
 40
0.5144757571369826
 40
0.6983315710265336
 40
0.8821873849160836
 40
1.0
 40
1.0
 40
1.0
 40
1.0
 10
61.54335017247747
 20
31.18072157697355
 30
0.0
 10
61.54335017247747
 20
31.8048671124754
 30
0.0
 10
61.54335017247747
 20
32.76500112795297
 30
0.0
 10
61.54335017247747
 20
33.67291203424826
 30
0.0
 10
61.54335017247753
 20
34.17862937216441
 30
0.0
 10
61.54335017247736
 20
34.45024910630261
 30
0.0
 10
61.54335017247753
 20
34.44838937484285
 30
0.0
 10
61.54335017247747
 20
34.44766308131798
 30
0.0
  0
SPLINE
  5
42A
330
1F
100
AcDbEntity
  8
0
  6
Continuous
 62
     7
370
    25
100
AcDbSpline
210
0.0
220
0.0
230
1.0
 70
    24
 71
     3
 72
    15
 73
    11
 74
     0
 42
0.000000001
 43
0.00000001
 40
0.0
 40
0.0
 40
0.0
 40
0.0
 40
0.034696749791865
 40
0.2211884951269639
 40
0.4076802404620634
 40
0.5080720152630783
 40
0.6105942475634819
 40
0.7131164798638856
 40
0.8135082546649003
 40
1.0
 40
1.0
 40
1.0
 40
1.0
 10
61.54335017247747
 20
22.90116546251225
 30
0.0
 10
61.54335017247747
 20
22.89444435888083
 30
0.0
 10
61.54335017247747
 20
22.85159795952806
 30
0.0
 10
61.54335017247742
 20
23.33963892228652
 30
0.0
 10
61.54335017247759
 20
24.43554997975508
 30
0.0
 10
61.54335017247742
 20
25.65444711220258
 30
0.0
 10
61.54335017247753
 20
26.73462234005954
 30
0.0
 10
61.54335017247747
 20
27.89509924252523
 30
0.0
 10
61.54335017247753
 20
29.42567413764034
 30
0.0
 10
61.54335017247753
 20
30.48930002629041
 30
0.0
 10
61.54335017247747
 20
31.18072157697355
 30
0.0
  0
SPLINE
  5
42B
330
1F
100
AcDbEntity
  8
0
  6
Continuous
 62
     7
370
    25
100
AcDbSpline
210
0.0
220
0.0
230
1.0
 70
     8
 71
     3
 72
     8
 73
     4
 74
     0
 42
0.000000001
 43
0.00000001
 40
0.0
 40
0.0
 40
0.0
 40
0.0
 40
1.0
 40
1.0
 40
1.0
 40
1.0
 10
65.54335017247048
 20
28.29101924422865
 30
0.0
 10
65.54335017247048
 20
29.27339768880143
 30
0.0
 10
65.36903487209106
 20
30.22888885699116
 30
0.0
 10
65.09676818507909
 20
31.16927150631874
 30
0.0
  0
SPLINE
  5
42C
330
1F
100
AcDbEntity
  8
0
  6
Continuous
 62
     7
370
    25
100
AcDbSpline
210
0.0
220
0.0
230
1.0
 70
     8
 71
     3
 72
     8
 73
     4
 74
     0
 42
0.000000001
 43
0.00000001
 40
0.0
 40
0.0
 40
0.0
 40
0.0
 40
1.0
 40
1.0
 40
1.0
 40
1.0
 10
65.09676818507914
 20
25.41276698213866
 30
0.0
 10
65.36903487209057
 20
26.35314963146446
 30
0.0
 10
65.54335017247048
 20
27.30864079965773
 30
0.0
 10
65.54335017247048
 20
28.29101924422865
 30
0.0
  0
LINE
  5
42D
330
1F
100
AcDbEntity
  8
0
  6
Continuous
 62
     7
370
    25
100
AcDbLine
 10
61.5433501725
 20
25.4127669821
 30
0.0
 11
65.0967681851
 21
25.4127669821
 31
0.0
  0
LINE
  5
42E
330
1F
100
AcDbEntity
  8
0
  6
Continuous
 62
     7
370
    25
100
AcDbLine
 10
61.5433501725
 20
31.1692715063
 30
0.0
 11
65.0967681851
 21
31.1692715063
 31
0.0
  0
LINE
  5
42F
330
1F
100
AcDbEntity
  8
0
  6
Continuous
 62
     7
370
    25
100
AcDbLine
 10
65.5433501725
 20
28.2910192442
 30
0.0
 11
65.5433501725
 21
32.8000951512
 31
0.0
  0
SPLINE
  5
430
330
1F
100
AcDbEntity
  8
0
  6
Continuous
 62
     7
370
    25
100
AcDbSpline
210
0.0
220
0.0
230
1.0
 70
     8
 71
     3
 72
     8
 73
     4
 74
     0
 42
0.000000001
 43
0.00000001
 40
0.0
 40
0.0
 40
0.0
 40
0.0
 40
1.0
 40
1.0
 40
1.0
 40
1.0
 10
65.09676818507899
 20
31.16927150632485
 30
0.0
 10
65.3690348720904
 20
31.70209424738969
 30
0.0
 10
65.54335017247031
 20
32.24347750628429
 30
0.0
 10
65.54335017247031
 20
32.80009515121273
 30
0.0
  0
LINE
  5
431
330
1F
100
AcDbEntity
  8
0
  6
Continuous
 62
     7
370
    25
100
AcDbLine
 10
65.5433501725
 20
24.1653383649
 30
0.0
 11
65.5433501725
 21
28.2910192442
 31
0.0
  0
SPLINE
  5
432
330
1F
100
AcDbEntity
  8
0
  6
Continuous
 62
     7
370
    25
100
AcDbSpline
210
0.0
220
0.0
230
1.0
 70
     8
 71
     3
 72
     8
 73
     4
 74
     0
 42
0.000000001
 43
0.00000001
 40
0.0
 40
0.0
 40
0.0
 40
0.0
 40
1.0
 40
1.0
 40
1.0
 40
1.0
 10
65.54335017247031
 20
24.16533836493113
 30
0.0
 10
65.54335017247031
 20
24.59109916457435
 30
0.0
 10
65.3690348720909
 20
25.00520707387141
 30
0.0
 10
65.09676818507903
 20
25.41276698213307
 30
0.0
  0
SPLINE
  5
433
330
1F
100
AcDbEntity
  8
0
  6
Continuous
 62
     7
370
    25
100
AcDbSpline
210
0.0
220
0.0
230
1.0
 70
     8
 71
     3
 72
     8
 73
     4
 74
     0
 42
0.000000001
 43
0.00000001
 40
0.0
 40
0.0
 40
0.0
 40
0.0
 40
1.0
 40
1.0
 40
1.0
 40
1.0
 10
65.54335017247031
 20
32.80009515121273
 30
0.0
 10
65.54335017247031
 20
33.35671279614218
 30
0.0
 10
65.3690348720909
 20
33.89809605503479
 30
0.0
 10
65.09676818507899
 20
34.4309187961006
 30
0.0
  0
LINE
  5
434
330
1F
100
AcDbEntity
  8
0
  6
Continuous
 62
     7
370
    25
100
AcDbLine
 10
61.5433501725
 20
34.4309187961
 30
0.0
 11
65.0967681851
 21
34.4309187961
 31
0.0
  0
SPLINE
  5
435
330
1F
100
AcDbEntity
  8
0
  6
Continuous
 62
     7
370
    25
100
AcDbSpline
210
0.0
220
0.0
230
1.0
 70
     8
 71
     3
 72
     8
 73
     4
 74
     0
 42
0.000000001
 43
0.00000001
 40
0.0
 40
0.0
 40
0.0
 40
0.0
 40
1.0
 40
1.0
 40
1.0
 40
1.0
 10
65.09676818507903
 20
22.91790974772913
 30
0.0
 10
65.36903487209051
 20
23.32546965599019
 30
0.0
 10
65.54335017247031
 20
23.73957756528854
 30
0.0
 10
65.54335017247031
 20
24.16533836493113
 30
0.0
  0
LINE
  5
436
330
1F
100
AcDbEntity
  8
0
  6
Continuous
 62
     7
370
    25
100
AcDbLine
 10
65.0967681851
 20
22.9179097477
 30
0.0
 11
61.5433501725
 21
22.9179097477
 31
0.0
  0
LINE
  5
437
330
1F
100
AcDbEntity
  8
0
  6
Continuous
 62
     7
370
    25
100
AcDbLine
 10
51.0846001725
 20
25.9689687277
 30
0.0
 11
51.0846001725
 21
25.6744142719
 31
0.0
  0
LINE
  5
438
330
1F
100
AcDbEntity
  8
0
  6
Continuous
 62
     7
370
    25
100
AcDbLine
 10
51.0846001725
 20
31.6744142719
 30
0.0
 11
51.0846001725
 21
25.9689687277
 31
0.0
  0
LINE
  5
439
330
1F
100
AcDbEntity
  8
0
  6
Continuous
 62
     7
370
    25
100
AcDbLine
 10
50.5433501725
 20
31.1331642719
 30
0.0
 11
50.5433501725
 21
26.2156642719
 31
0.0
  0
LINE
  5
43A
330
1F
100
AcDbEntity
  8
0
  6
Continuous
 62
     7
370
    25
100
AcDbLine
 10
65.0967681851
 20
34.4309187961
 30
0.0
 11
65.1719559406
 21
34.2208983283
 31
0.0
  0
LINE
  5
43B
330
1F
100
AcDbEntity
  8
0
  6
Continuous
 62
     7
370
    25
100
AcDbLine
 10
65.5433501725
 20
32.8000951512
 30
0.0
 11
65.5433501725
 21
33.6744142719
 31
0.0
  0
LINE
  5
43C
330
1F
100
AcDbEntity
  8
0
  6
Continuous
 62
     7
370
    25
100
AcDbLine
 10
65.5433501725
 20
23.6744142719
 30
0.0
 11
65.5433501725
 21
24.1653383649
 31
0.0
  0
ARC
  5
43D
330
1F
100
AcDbEntity
  8
0
  6
Continuous
 62
     7
370
    25
100
AcDbCircle
 10
52.2433501725
 20
-0.5255857281
 30
0.0
 40
6.00000000000006
100
AcDbArc
 50
90.0
 51
143.1301023541
  0
ARC
  5
43E
330
1F
100
AcDbEntity
  8
0
  6
Continuous
 62
     7
370
    25
100
AcDbCircle
 10
773.2433501725
 20
-0.5255857281
 30
0.0
 40
6.00000000000006
100
AcDbArc
 50
36.8698976459
 51
90.0
  0
LINE
  5
43F
330
1F
100
AcDbEntity
  8
0
  6
Continuous
 62
     7
370
    25
100
AcDbLine
 10
-74.5942669895
 20
422.6075204992
 30
0.0
 11
-74.9572047679
 21
421.9788938271
 31
0.0
  0
LINE
  5
440
330
1F
100
AcDbEntity
  8
0
  6
Continuous
 62
     7
370
    25
100
AcDbLine
 10
-74.9572047679
 20
415.6788938271
 30
0.0
 11
-74.5942669895
 21
415.050267155
 31
0.0
  0
LINE
  5
441
330
1F
100
AcDbEntity
  8
0
  6
Continuous
 62
     7
370
    25
100
AcDbLine
 10
-76.6572047679
 20
422.8288938271
 30
0.0
 11
-78.6572047679
 21
422.8288938271
 31
0.0
  0
LINE
  5
442
330
1F
100
AcDbEntity
  8
0
  6
Continuous
 62
     7
370
    25
100
AcDbLine
 10
-78.6572047679
 20
414.8288938271
 30
0.0
 11
-76.6572047679
 21
414.8288938271
 31
0.0
  0
ARC
  5
443
330
1F
100
AcDbEntity
  8
0
  6
Continuous
 62
     7
370
    25
100
AcDbCircle
 10
-71.7290015376
 20
418.8288938271
 30
0.0
 40
8.00000000000002
100
AcDbArc
 50
195.2747479997
 51
210.0
  0
ARC
  5
444
330
1F
100
AcDbEntity
  8
0
  6
Continuous
 62
     7
370
    25
100
AcDbCircle
 10
-71.7290015376
 20
418.8288938271
 30
0.0
 40
8.000000000000016
100
AcDbArc
 50
150.0
 51
164.7252520003
  0
LINE
  5
445
330
1F
100
AcDbEntity
  8
0
  6
Continuous
 62
     7
370
    25
100
AcDbLine
 10
-74.9572047679
 20
420.8288938271
 30
0.0
 11
-75.0572047679
 21
420.8288938271
 31
0.0
  0
LINE
  5
446
330
1F
100
AcDbEntity
  8
0
  6
Continuous
 62
     7
370
    25
100
AcDbLine
 10
-75.0572047679
 20
416.8288938271
 30
0.0
 11
-74.9572047679
 21
416.8288938271
 31
0.0
  0
CIRCLE
  5
447
330
1F
100
AcDbEntity
  8
0
  6
Continuous
 62
     7
370
    25
100
AcDbCircle
 10
-63.3572047679
 20
167.8288938271
 30
0.0
 40
2.458750000016563
  0
CIRCLE
  5
448
330
1F
100
AcDbEntity
  8
0
  6
Continuous
 62
     7
370
    25
100
AcDbCircle
 10
-63.3572047679
 20
167.8288938271
 30
0.0
 40
3.000000000000021
  0
CIRCLE
  5
449
330
1F
100
AcDbEntity
  8
0
  6
Continuous
 62
     7
370
    25
100
AcDbCircle
 10
-63.3572047679
 20
443.8288938271
 30
0.0
 40
2.458750000016638
  0
CIRCLE
  5
44A
330
1F
100
AcDbEntity
  8
0
  6
Continuous
 62
     7
370
    25
100
AcDbCircle
 10
-63.3572047679
 20
443.8288938271
 30
0.0
 40
3.000000000000003
  0
LINE
  5
44B
330
1F
100
AcDbEntity
  8
0
  6
Continuous
 62
     7
370
    25
100
AcDbLine
 10
-81.9572047679
 20
121.2996045052
 30
0.0
 11
-81.9572047679
 21
414.358183149
 31
0.0
  0
LINE
  5
44C
330
1F
100
AcDbEntity
  8
0
  6
Continuous
 62
     7
370
    25
100
AcDbLine
 10
-91.5572047679
 20
121.2996045052
 30
0.0
 11
-81.9572047679
 21
121.2996045052
 31
0.0
  0
LINE
  5
44D
330
1F
100
AcDbEntity
  8
0
  6
Continuous
 62
     7
370
    25
100
AcDbLine
 10
-91.5572047679
 20
414.358183149
 30
0.0
 11
-81.9572047679
 21
414.358183149
 31
0.0
  0
SPLINE
  5
44E
330
1F
100
AcDbEntity
  8
0
  6
Continuous
 62
     7
370
    25
100
AcDbSpline
210
0.0
220
0.0
230
1.0
 70
     8
 71
     3
 72
    20
 73
    16
 74
     0
 42
0.000000001
 43
0.00000001
 40
0.0
 40
0.0
 40
0.0
 40
0.0
 40
0.1249999999999952
 40
0.1249999999999952
 40
0.2499999999999904
 40
0.2499999999999904
 40
0.3749999999999856
 40
0.3749999999999856
 40
0.4999999999999808
 40
0.4999999999999808
 40
0.7500000000000008
 40
0.7500000000000008
 40
0.8750000000000003
 40
0.8750000000000003
 40
1.0
 40
1.0
 40
1.0
 40
1.0
 10
-93.95720476787214
 20
413.4288938270933
 30
0.0
 10
-93.95720476787214
 20
413.4679345579478
 30
0.0
 10
-93.9416682073973
 20
413.5064532621477
 30
0.0
 10
-93.88034985543669
 20
413.5838600134555
 30
0.0
 10
-93.8339261098499
 20
413.6230044314422
 30
0.0
 10
-93.71397523969577
 20
413.7001551853574
 30
0.0
 10
-93.64037059541234
 20
413.7384827670985
 30
0.0
 10
-93.46564022931669
 20
413.816029087575
 30
0.0
 10
-93.36478960041511
 20
413.8550052952436
 30
0.0
 10
-93.03350432043119
 20
413.9705001516887
 30
0.0
 10
-92.76582415904731
 20
414.0484125953588
 30
0.0
 10
-92.33315013299192
 20
414.1638925207597
 30
0.0
 10
-92.18163204614076
 20
414.2027583166247
 30
0.0
 10
-91.87220628875465
 20
414.2805326502933
 30
0.0
 10
-91.71558395906088
 20
414.319142417248
 30
0.0
 10
-91.55720476787215
 20
414.3581831489747
 30
0.0
  0
SPLINE
  5
44F
330
1F
100
AcDbEntity
  8
0
  6
Continuous
 62
     7
370
    25
100
AcDbSpline
210
0.0
220
0.0
230
1.0
 70
     8
 71
     3
 72
    20
 73
    16
 74
     0
 42
0.000000001
 43
0.00000001
 40
0.0
 40
0.0
 40
0.0
 40
0.0
 40
0.1250000000000001
 40
0.1250000000000001
 40
0.2500000000000001
 40
0.2500000000000001
 40
0.3750000000000001
 40
0.3750000000000001
 40
0.5
 40
0.5
 40
0.7499999999999999
 40
0.7499999999999999
 40
0.875
 40
0.875
 40
1.0
 40
1.0
 40
1.0
 40
1.0
 10
-91.55720476787215
 20
121.2996045052118
 30
0.0
 10
-91.71558395552285
 20
121.3386452360663
 30
0.0
 10
-91.87182968021453
 20
121.3771639402661
 30
0.0
 10
-92.17982152963116
 20
121.4545706915739
 30
0.0
 10
-92.33246563710226
 20
121.4937151095608
 30
0.0
 10
-92.62154992628933
 20
121.5708658634759
 30
0.0
 10
-92.75935446447339
 20
121.609193445217
 30
0.0
 10
-93.02097314011229
 20
121.6867397656935
 30
0.0
 10
-93.14371944679499
 20
121.7257159733622
 30
0.0
 10
-93.47504382374268
 20
121.8412108298072
 30
0.0
 10
-93.65405494777089
 20
121.9191232734773
 30
0.0
 10
-93.83367004715178
 20
122.0346031988781
 30
0.0
 10
-93.87991439601949
 20
122.0734689947433
 30
0.0
 10
-93.9416677020307
 20
122.1512433284117
 30
0.0
 10
-93.95720476787214
 20
122.1898530953665
 30
0.0
 10
-93.95720476787214
 20
122.2288938270931
 30
0.0
  0
LINE
  5
450
330
1F
100
AcDbEntity
  8
0
  6
Continuous
 62
     7
370
    25
100
AcDbLine
 10
-93.9572047679
 20
122.2288938271
 30
0.0
 11
-93.9572047679
 21
413.4288938271
 31
0.0
  0
LINE
  5
451
330
1F
100
AcDbEntity
  8
0
  6
Continuous
 62
     7
370
    25
100
AcDbLine
 10
-91.5572047679
 20
415.8288938271
 30
0.0
 11
-91.5572047679
 21
414.4288938271
 31
0.0
  0
SPLINE
  5
452
330
1F
100
AcDbEntity
  8
0
  6
Continuous
 62
     7
370
    25
100
AcDbSpline
210
0.0
220
0.0
230
1.0
 70
     8
 71
     3
 72
     9
 73
     5
 74
     0
 42
0.000000001
 43
0.00000001
 40
0.0
 40
0.0
 40
0.0
 40
0.0
 40
0.758455821437826
 40
1.0
 40
1.0
 40
1.0
 40
1.0
 10
-91.55720476787218
 20
414.4288938270931
 30
0.0
 10
-91.70891254580843
 20
414.4178392912597
 30
0.0
 10
-91.90893445037851
 20
414.4032642355729
 30
0.0
 10
-92.05948854176992
 20
414.2801678519731
 30
0.0
 10
-92.09585400610425
 20
414.2504346371125
 30
0.0
  0
SPLINE
  5
453
330
1F
100
AcDbEntity
  8
0
  6
Continuous
 62
     7
370
    25
100
AcDbSpline
210
0.0
220
0.0
230
1.0
 70
     8
 71
     3
 72
    20
 73
    16
 74
     0
 42
0.000000001
 43
0.00000001
 40
0.0
 40
0.0
 40
0.0
 40
0.0
 40
0.1249999999999999
 40
0.1249999999999999
 40
0.2499999999999997
 40
0.2499999999999997
 40
0.3749999999999994
 40
0.3749999999999994
 40
0.4999999999999993
 40
0.4999999999999993
 40
0.7500000000000092
 40
0.7500000000000092
 40
0.8750000000000047
 40
0.8750000000000047
 40
1.0
 40
1.0
 40
1.0
 40
1.0
 10
-91.55720476787224
 20
415.8288938270932
 30
0.0
 10
-91.71558395552293
 20
415.8288938270932
 30
0.0
 10
-91.87182968021465
 20
415.8133572666183
 30
0.0
 10
-92.17982152963121
 20
415.7520389146576
 30
0.0
 10
-92.33246563710235
 20
415.7056151690708
 30
0.0
 10
-92.6215499262894
 20
415.5856642989168
 30
0.0
 10
-92.75935446447342
 20
415.5120596546333
 30
0.0
 10
-93.02097314011229
 20
415.3373292885377
 30
0.0
 10
-93.14371944679496
 20
415.2364786596362
 30
0.0
 10
-93.47504382374262
 20
414.9051933796521
 30
0.0
 10
-93.65405494777083
 20
414.6375132182683
 30
0.0
 10
-93.83367004715171
 20
414.2048391922129
 30
0.0
 10
-93.87991439601942
 20
414.053321105362
 30
0.0
 10
-93.94166770203066
 20
413.7438953479759
 30
0.0
 10
-93.95720476787211
 20
413.5872730182821
 30
0.0
 10
-93.95720476787211
 20
413.4288938270934
 30
0.0
  0
SPLINE
  5
454
330
1F
100
AcDbEntity
  8
0
  6
Continuous
 62
     7
370
    25
100
AcDbSpline
210
0.0
220
0.0
230
1.0
 70
     8
 71
     3
 72
    20
 73
    16
 74
     0
 42
0.000000001
 43
0.00000001
 40
0.0
 40
0.0
 40
0.0
 40
0.0
 40
0.1250000000000001
 40
0.1250000000000001
 40
0.2500000000000001
 40
0.2500000000000001
 40
0.3750000000000002
 40
0.3750000000000002
 40
0.5000000000000002
 40
0.5000000000000002
 40
0.7500000000000003
 40
0.7500000000000003
 40
0.8750000000000002
 40
0.8750000000000002
 40
1.0
 40
1.0
 40
1.0
 40
1.0
 10
-93.95720476787211
 20
122.2288938270932
 30
0.0
 10
-93.95720476787211
 20
122.0705146394425
 30
0.0
 10
-93.94166820739727
 20
121.9142689147507
 30
0.0
 10
-93.88034985543666
 20
121.6062770653341
 30
0.0
 10
-93.83392610984986
 20
121.453632957863
 30
0.0
 10
-93.71397523969573
 20
121.164548668676
 30
0.0
 10
-93.64037059541234
 20
121.0267441304919
 30
0.0
 10
-93.46564022931666
 20
120.7651254548529
 30
0.0
 10
-93.36478960041514
 20
120.6423791481703
 30
0.0
 10
-93.03350432043119
 20
120.3110547712226
 30
0.0
 10
-92.76582415904733
 20
120.1320436471944
 30
0.0
 10
-92.33315013299192
 20
119.9524285478135
 30
0.0
 10
-92.18163204614078
 20
119.9061841989459
 30
0.0
 10
-91.87220628875464
 20
119.8444308929347
 30
0.0
 10
-91.71558395906088
 20
119.8288938270931
 30
0.0
 10
-91.55720476787215
 20
119.8288938270932
 30
0.0
  0
SPLINE
  5
455
330
1F
100
AcDbEntity
  8
0
  6
Continuous
 62
     7
370
    25
100
AcDbSpline
210
0.0
220
0.0
230
1.0
 70
     8
 71
     3
 72
     9
 73
     5
 74
     0
 42
0.000000001
 43
0.00000001
 40
0.0
 40
0.0
 40
0.0
 40
0.0
 40
0.4258694941518108
 40
1.0
 40
1.0
 40
1.0
 40
1.0
 10
-92.11359619488083
 20
121.4189723897701
 30
0.0
 10
-92.04319201827614
 20
121.3690507649257
 30
0.0
 10
-91.87787335241369
 20
121.2518279407273
 30
0.0
 10
-91.67416179015744
 20
121.2372585555658
 30
0.0
 10
-91.55720476787215
 20
121.2288938270932
 30
0.0
  0
LINE
  5
456
330
1F
100
AcDbEntity
  8
0
  6
Continuous
 62
     7
370
    25
100
AcDbLine
 10
-91.5572047679
 20
119.8288938271
 30
0.0
 11
-91.5572047679
 21
121.2288938271
 31
0.0
  0
LINE
  5
457
330
1F
100
AcDbEntity
  8
0
  6
Continuous
 62
     7
370
    25
100
AcDbLine
 10
-91.5572047679
 20
415.8288938271
 30
0.0
 11
-81.9572047679
 21
415.8288938271
 31
0.0
  0
LINE
  5
458
330
1F
100
AcDbEntity
  8
0
  6
Continuous
 62
     7
370
    25
100
AcDbLine
 10
-91.5572047679
 20
414.4288938271
 30
0.0
 11
-81.9572047679
 21
414.4288938271
 31
0.0
  0
LINE
  5
459
330
1F
100
AcDbEntity
  8
0
  6
Continuous
 62
     7
370
    25
100
AcDbLine
 10
-81.9572047679
 20
415.8288938271
 30
0.0
 11
-81.9572047679
 21
414.4288938271
 31
0.0
  0
LINE
  5
45A
330
1F
100
AcDbEntity
  8
0
  6
Continuous
 62
     7
370
    25
100
AcDbLine
 10
-81.9572047679
 20
119.8288938271
 30
0.0
 11
-81.9572047679
 21
121.2288938271
 31
0.0
  0
LINE
  5
45B
330
1F
100
AcDbEntity
  8
0
  6
Continuous
 62
     7
370
    25
100
AcDbLine
 10
-91.5572047679
 20
121.2288938271
 30
0.0
 11
-81.9572047679
 21
121.2288938271
 31
0.0
  0
LINE
  5
45C
330
1F
100
AcDbEntity
  8
0
  6
Continuous
 62
     7
370
    25
100
AcDbLine
 10
-91.5572047679
 20
119.8288938271
 30
0.0
 11
-81.9572047679
 21
119.8288938271
 31
0.0
  0
ARC
  5
45D
330
1F
100
AcDbEntity
  8
0
  6
Continuous
 62
     7
370
    25
100
AcDbCircle
 10
-57.8572047679
 20
447.3288938271
 30
0.0
 40
3.000000000000007
100
AcDbArc
 50
0.0
 51
90.0
  0
LINE
  5
45E
330
1F
100
AcDbEntity
  8
0
  6
Continuous
 62
     7
370
    25
100
AcDbLine
 10
-54.8572047679
 20
413.1288938271
 30
0.0
 11
-54.8572047679
 21
447.3288938271
 31
0.0
  0
LINE
  5
45F
330
1F
100
AcDbEntity
  8
0
  6
Continuous
 62
     7
370
    25
100
AcDbLine
 10
-73.8572047679
 20
430.3288938271
 30
0.0
 11
-73.8572047679
 21
413.1288938271
 31
0.0
  0
LINE
  5
460
330
1F
100
AcDbEntity
  8
0
  6
Continuous
 62
     7
370
    25
100
AcDbLine
 10
-77.8572047679
 20
430.3288938271
 30
0.0
 11
-73.8572047679
 21
430.3288938271
 31
0.0
  0
LINE
  5
461
330
1F
100
AcDbEntity
  8
0
  6
Continuous
 62
     7
370
    25
100
AcDbLine
 10
-77.8572047679
 20
447.3288938271
 30
0.0
 11
-77.8572047679
 21
430.3288938271
 31
0.0
  0
ARC
  5
462
330
1F
100
AcDbEntity
  8
0
  6
Continuous
 62
     7
370
    25
100
AcDbCircle
 10
-74.8572047679
 20
447.3288938271
 30
0.0
 40
3.000000000000014
100
AcDbArc
 50
90.0
 51
180.0
  0
LINE
  5
463
330
1F
100
AcDbEntity
  8
0
  6
Continuous
 62
     7
370
    25
100
AcDbLine
 10
-57.8572047679
 20
450.3288938271
 30
0.0
 11
-74.8572047679
 21
450.3288938271
 31
0.0
  0
CIRCLE
  5
464
330
1F
100
AcDbEntity
  8
0
  6
Continuous
 62
     7
370
    25
100
AcDbCircle
 10
-63.3572047679
 20
443.8288938271
 30
0.0
 40
3.249999999999886
  0
CIRCLE
  5
465
330
1F
100
AcDbEntity
  8
0
  6
Continuous
 62
     7
370
    25
100
AcDbCircle
 10
-63.3572047679
 20
418.8288938271
 30
0.0
 40
3.249999999999943
  0
LINE
  5
466
330
1F
100
AcDbEntity
  8
0
  6
Continuous
 62
     7
370
    25
100
AcDbLine
 10
-73.8572047679
 20
411.3288938271
 30
0.0
 11
-73.8572047679
 21
413.1288938271
 31
0.0
  0
LINE
  5
467
330
1F
100
AcDbEntity
  8
0
  6
Continuous
 62
     7
370
    25
100
AcDbLine
 10
-54.8572047679
 20
411.3288938271
 30
0.0
 11
-73.8572047679
 21
411.3288938271
 31
0.0
  0
LINE
  5
468
330
1F
100
AcDbEntity
  8
0
  6
Continuous
 62
     7
370
    25
100
AcDbLine
 10
-54.8572047679
 20
413.1288938271
 30
0.0
 11
-54.8572047679
 21
411.3288938271
 31
0.0
  0
ARC
  5
469
330
1F
100
AcDbEntity
  8
0
  6
Continuous
 62
     7
370
    25
100
AcDbCircle
 10
-74.0572047679
 20
413.1288938271
 30
0.0
 40
1.800000000000011
100
AcDbArc
 50
180.0
 51
270.0
  0
ARC
  5
46A
330
1F
100
AcDbEntity
  8
0
  6
Continuous
 62
     7
370
    25
100
AcDbCircle
 10
-74.0572047679
 20
413.1288938271
 30
0.0
 40
1.0
100
AcDbArc
 50
180.0
 51
270.0
  0
LINE
  5
46B
330
1F
100
AcDbEntity
  8
0
  6
Continuous
 62
     7
370
    25
100
AcDbLine
 10
-74.0572047679
 20
411.3288938271
 30
0.0
 11
-73.8572047679
 21
411.3288938271
 31
0.0
  0
LINE
  5
46C
330
1F
100
AcDbEntity
  8
0
  6
Continuous
 62
     7
370
    25
100
AcDbLine
 10
-74.0572047679
 20
412.1288938271
 30
0.0
 11
-73.8572047679
 21
412.1288938271
 31
0.0
  0
LINE
  5
46D
330
1F
100
AcDbEntity
  8
0
  6
Continuous
 62
     7
370
    25
100
AcDbLine
 10
-75.8572047679
 20
423.3288938271
 30
0.0
 11
-75.0572047679
 21
423.3288938271
 31
0.0
  0
LINE
  5
46E
330
1F
100
AcDbEntity
  8
0
  6
Continuous
 62
     7
370
    25
100
AcDbLine
 10
-75.0572047679
 20
413.1288938271
 30
0.0
 11
-75.0572047679
 21
423.3288938271
 31
0.0
  0
LINE
  5
46F
330
1F
100
AcDbEntity
  8
0
  6
Continuous
 62
     7
370
    25
100
AcDbLine
 10
-30.8572047679
 20
412.1288938271
 30
0.0
 11
-30.8572047679
 21
411.3288938271
 31
0.0
  0
LINE
  5
470
330
1F
100
AcDbEntity
  8
0
  6
Continuous
 62
     7
370
    25
100
AcDbLine
 10
-30.8572047679
 20
411.3288938271
 30
0.0
 11
-33.8572047679
 21
411.3288938271
 31
0.0
  0
LINE
  5
471
330
1F
100
AcDbEntity
  8
0
  6
Continuous
 62
     7
370
    25
100
AcDbLine
 10
-33.8572047679
 20
412.1288938271
 30
0.0
 11
-30.8572047679
 21
412.1288938271
 31
0.0
  0
LINE
  5
472
330
1F
100
AcDbEntity
  8
0
  6
Continuous
 62
     7
370
    25
100
AcDbLine
 10
-54.8572047679
 20
411.3288938271
 30
0.0
 11
-33.8572047679
 21
411.3288938271
 31
0.0
  0
LINE
  5
473
330
1F
100
AcDbEntity
  8
0
  6
Continuous
 62
     7
370
    25
100
AcDbLine
 10
-54.8572047679
 20
412.1288938271
 30
0.0
 11
-33.8572047679
 21
412.1288938271
 31
0.0
  0
LINE
  5
474
330
1F
100
AcDbEntity
  8
0
  6
Continuous
 62
     7
370
    25
100
AcDbLine
 10
-41.4702828297
 20
416.3288938271
 30
0.0
 11
-34.9525913761
 21
416.3288938271
 31
0.0
  0
LINE
  5
475
330
1F
100
AcDbEntity
  8
0
  6
Continuous
 62
     7
370
    25
100
AcDbLine
 10
-41.4702828297
 20
415.5288938271
 30
0.0
 11
-34.9525913761
 21
415.5288938271
 31
0.0
  0
LINE
  5
476
330
1F
100
AcDbEntity
  8
0
  6
Continuous
 62
     7
370
    25
100
AcDbLine
 10
-31.9525913761
 20
416.3288938271
 30
0.0
 11
-31.9525913761
 21
415.5288938271
 31
0.0
  0
LINE
  5
477
330
1F
100
AcDbEntity
  8
0
  6
Continuous
 62
     7
370
    25
100
AcDbLine
 10
-34.9525913761
 20
416.3288938271
 30
0.0
 11
-31.9525913761
 21
416.3288938271
 31
0.0
  0
LINE
  5
478
330
1F
100
AcDbEntity
  8
0
  6
Continuous
 62
     7
370
    25
100
AcDbLine
 10
-31.9525913761
 20
415.5288938271
 30
0.0
 11
-34.9525913761
 21
415.5288938271
 31
0.0
  0
ARC
  5
479
330
1F
100
AcDbEntity
  8
0
  6
Continuous
 62
     7
370
    25
100
AcDbCircle
 10
-49.4951539603
 20
413.1288938271
 30
0.0
 40
0.9999999999999765
100
AcDbArc
 50
270.0
 51
300.0
  0
ARC
  5
47A
330
1F
100
AcDbEntity
  8
0
  6
Continuous
 62
     7
370
    25
100
AcDbCircle
 10
-41.4702828297
 20
414.5288938271
 30
0.0
 40
1.800000000000068
100
AcDbArc
 50
90.0
 51
120.0
  0
ARC
  5
47B
330
1F
100
AcDbEntity
  8
0
  6
Continuous
 62
     7
370
    25
100
AcDbCircle
 10
-41.4702828297
 20
414.5288938271
 30
0.0
 40
1.000000000000019
100
AcDbArc
 50
90.0
 51
120.0
  0
LINE
  5
47C
330
1F
100
AcDbEntity
  8
0
  6
Continuous
 62
     7
370
    25
100
AcDbLine
 10
-42.3702828297
 20
416.0877395539
 30
0.0
 11
-48.9951539603
 21
412.2628684233
 31
0.0
  0
LINE
  5
47D
330
1F
100
AcDbEntity
  8
0
  6
Continuous
 62
     7
370
    25
100
AcDbLine
 10
-41.9702828297
 20
415.3949192309
 30
0.0
 11
-47.6272047679
 21
412.1288938271
 31
0.0
  0
CIRCLE
  5
47E
330
1F
100
AcDbEntity
  8
0
  6
Continuous
 62
     7
370
    25
100
AcDbCircle
 10
-63.3572047679
 20
418.8288938271
 30
0.0
 40
2.458750000016595
  0
CIRCLE
  5
47F
330
1F
100
AcDbEntity
  8
0
  6
Continuous
 62
     7
370
    25
100
AcDbCircle
 10
-63.3572047679
 20
418.8288938271
 30
0.0
 40
2.999999999999955
  0
SPLINE
  5
480
330
1F
100
AcDbEntity
  8
0
  6
Continuous
 62
     7
370
    25
100
AcDbSpline
210
0.0
220
0.0
230
1.0
 70
     8
 71
     3
 72
    12
 73
     8
 74
     0
 42
0.000000001
 43
0.00000001
 40
0.0
 40
0.0
 40
0.0
 40
0.0
 40
0.4999999999999937
 40
0.4999999999999937
 40
0.7499999999999968
 40
0.7499999999999968
 40
1.0
 40
1.0
 40
1.0
 40
1.0
 10
-74.44252478248713
 20
417.3880645052228
 30
0.0
 10
-74.63301907191064
 20
416.9717634215683
 30
0.0
 10
-74.75469348497302
 20
416.5492248935799
 30
0.0
 10
-74.75534967550426
 20
415.898934754119
 30
0.0
 10
-74.72551567370986
 20
415.6823925362046
 30
0.0
 10
-74.61658580360228
 20
415.2570245309643
 30
0.0
 10
-74.5378906165394
 20
415.046872551979
 30
0.0
 10
-74.44252478248664
 20
414.8384626296663
 30
0.0
  0
LINE
  5
481
330
1F
100
AcDbEntity
  8
0
  6
Continuous
 62
     7
370
    25
100
AcDbLine
 10
-74.4425247825
 20
414.8384626297
 30
0.0
 11
-74.5403998197
 21
415.08136738
 31
0.0
  0
SPLINE
  5
482
330
1F
100
AcDbEntity
  8
0
  6
Continuous
 62
     7
370
    25
100
AcDbSpline
210
0.0
220
0.0
230
1.0
 70
     8
 71
     3
 72
    12
 73
     8
 74
     0
 42
0.000000001
 43
0.00000001
 40
0.0
 40
0.0
 40
0.0
 40
0.0
 40
0.5000000000000224
 40
0.5000000000000224
 40
0.7500000000000112
 40
0.7500000000000112
 40
1.0
 40
1.0
 40
1.0
 40
1.0
 10
-74.44252478248714
 20
422.8193250245201
 30
0.0
 10
-74.63301907191065
 20
422.5840652320771
 30
0.0
 10
-74.75469348497303
 20
422.3452805392266
 30
0.0
 10
-74.75534967550426
 20
421.9777890066696
 30
0.0
 10
-74.72551567370986
 20
421.8554168120202
 30
0.0
 10
-74.61658580360226
 20
421.6150331268607
 30
0.0
 10
-74.53789061653939
 20
421.4962721797991
 30
0.0
 10
-74.44252478248664
 20
421.3784957026495
 30
0.0
  0
SPLINE
  5
483
330
1F
100
AcDbEntity
  8
0
  6
Continuous
 62
     7
370
    25
100
AcDbSpline
210
0.0
220
0.0
230
1.0
 70
     8
 71
     3
 72
    14
 73
    10
 74
     0
 42
0.000000001
 43
0.00000001
 40
0.0
 40
0.0
 40
0.0
 40
0.0
 40
0.25
 40
0.25
 40
0.5
 40
0.5
 40
0.75
 40
0.75
 40
1.0
 40
1.0
 40
1.0
 40
1.0
 10
-74.44252478248615
 20
421.3784957026496
 30
0.0
 10
-74.53739939179675
 20
421.0539894733609
 30
0.0
 10
-74.6170043166725
 20
420.7215302509666
 30
0.0
 10
-74.72584093156674
 20
420.0549603360584
 30
0.0
 10
-74.75516453725723
 20
419.7198840787831
 30
0.0
 10
-74.75509975551165
 20
419.0455406085555
 30
0.0
 10
-74.72494356218529
 20
418.7037611878766
 30
0.0
 10
-74.61535836081956
 20
418.0373472682718
 30
0.0
 10
-74.5368153870174
 20
417.7105732223191
 30
0.0
 10
-74.44252478248615
 20
417.3880645052227
 30
0.0
  0
LINE
  5
484
330
1F
100
AcDbEntity
  8
0
  6
Continuous
 62
     7
370
    25
100
AcDbLine
 10
-74.9572047679
 20
415.6788938271
 30
0.0
 11
-74.9572047679
 21
421.9788938271
 31
0.0
  0
LINE
  5
485
330
1F
100
AcDbEntity
  8
0
  6
Continuous
 62
     7
370
    25
100
AcDbLine
 10
-73.8572047679
 20
417.3880645052
 30
0.0
 11
-74.4425247825
 21
417.3880645052
 31
0.0
  0
LINE
  5
486
330
1F
100
AcDbEntity
  8
0
  6
Continuous
 62
     7
370
    25
100
AcDbLine
 10
-73.8572047679
 20
421.3784957026
 30
0.0
 11
-74.4425247825
 21
421.3784957026
 31
0.0
  0
LINE
  5
487
330
1F
100
AcDbEntity
  8
0
  6
Continuous
 62
     7
370
    25
100
AcDbLine
 10
-73.8572047679
 20
414.8384626297
 30
0.0
 11
-74.4425247825
 21
414.8384626297
 31
0.0
  0
LINE
  5
488
330
1F
100
AcDbEntity
  8
0
  6
Continuous
 62
     7
370
    25
100
AcDbLine
 10
-73.8572047679
 20
422.8193250245
 30
0.0
 11
-74.4425247825
 21
422.8193250245
 31
0.0
  0
LINE
  5
489
330
1F
100
AcDbEntity
  8
0
  6
Continuous
 62
     7
370
    25
100
AcDbLine
 10
-77.6572047679
 20
428.8288938271
 30
0.0
 11
-87.5572047679
 21
428.8288938271
 31
0.0
  0
LINE
  5
48A
330
1F
100
AcDbEntity
  8
0
  6
Continuous
 62
     7
370
    25
100
AcDbLine
 10
-77.6572047679
 20
428.0288938271
 30
0.0
 11
-77.6572047679
 21
428.8288938271
 31
0.0
  0
LINE
  5
48B
330
1F
100
AcDbEntity
  8
0
  6
Continuous
 62
     7
370
    25
100
AcDbLine
 10
-87.5572047679
 20
428.0288938271
 30
0.0
 11
-77.6572047679
 21
428.0288938271
 31
0.0
  0
LINE
  5
48C
330
1F
100
AcDbEntity
  8
0
  6
Continuous
 62
     7
370
    25
100
AcDbLine
 10
-87.5572047679
 20
428.0288938271
 30
0.0
 11
-87.5572047679
 21
427.9288938271
 31
0.0
  0
LINE
  5
48D
330
1F
100
AcDbEntity
  8
0
  6
Continuous
 62
     7
370
    25
100
AcDbLine
 10
-87.5572047679
 20
427.9288938271
 30
0.0
 11
-82.4072047679
 21
427.9288938271
 31
0.0
  0
LINE
  5
48E
330
1F
100
AcDbEntity
  8
0
  6
Continuous
 62
     7
370
    25
100
AcDbLine
 10
-82.4072047679
 20
427.1288938271
 30
0.0
 11
-82.4072047679
 21
427.9288938271
 31
0.0
  0
LINE
  5
48F
330
1F
100
AcDbEntity
  8
0
  6
Continuous
 62
     7
370
    25
100
AcDbLine
 10
-87.5572047679
 20
427.1288938271
 30
0.0
 11
-82.4072047679
 21
427.1288938271
 31
0.0
  0
ARC
  5
490
330
1F
100
AcDbEntity
  8
0
  6
Continuous
 62
     7
370
    25
100
AcDbCircle
 10
-87.5572047679
 20
427.9788938271
 30
0.0
 40
0.8500000000000227
100
AcDbArc
 50
90.0
 51
270.0
  0
LINE
  5
491
330
1F
100
AcDbEntity
  8
0
  6
Continuous
 62
     7
370
    25
100
AcDbLine
 10
-77.6572047679
 20
409.6288938271
 30
0.0
 11
-81.9572047679
 21
409.6288938271
 31
0.0
  0
LINE
  5
492
330
1F
100
AcDbEntity
  8
0
  6
Continuous
 62
     7
370
    25
100
AcDbLine
 10
-77.6572047679
 20
408.8288938271
 30
0.0
 11
-77.6572047679
 21
409.6288938271
 31
0.0
  0
LINE
  5
493
330
1F
100
AcDbEntity
  8
0
  6
Continuous
 62
     7
370
    25
100
AcDbLine
 10
-77.6572047679
 20
408.8288938271
 30
0.0
 11
-81.9572047679
 21
408.8288938271
 31
0.0
  0
LINE
  5
494
330
1F
100
AcDbEntity
  8
0
  6
Continuous
 62
     7
370
    25
100
AcDbLine
 10
-75.8572047679
 20
410.6288938271
 30
0.0
 11
-75.8572047679
 21
427.0288938271
 31
0.0
  0
ARC
  5
495
330
1F
100
AcDbEntity
  8
0
  6
Continuous
 62
     7
370
    25
100
AcDbCircle
 10
-77.6572047679
 20
410.6288938271
 30
0.0
 40
1.800000000000125
100
AcDbArc
 50
270.0
 51
0.0
  0
LINE
  5
496
330
1F
100
AcDbEntity
  8
0
  6
Continuous
 62
     7
370
    25
100
AcDbLine
 10
-76.6572047679
 20
410.6288938271
 30
0.0
 11
-76.6572047679
 21
427.0288938271
 31
0.0
  0
ARC
  5
497
330
1F
100
AcDbEntity
  8
0
  6
Continuous
 62
     7
370
    25
100
AcDbCircle
 10
-77.6572047679
 20
427.0288938271
 30
0.0
 40
1.000000000000114
100
AcDbArc
 50
0.0
 51
90.0
  0
ARC
  5
498
330
1F
100
AcDbEntity
  8
0
  6
Continuous
 62
     7
370
    25
100
AcDbCircle
 10
-77.6572047679
 20
427.0288938271
 30
0.0
 40
1.800000000000011
100
AcDbArc
 50
0.0
 51
90.0
  0
ARC
  5
499
330
1F
100
AcDbEntity
  8
0
  6
Continuous
 62
     7
370
    25
100
AcDbCircle
 10
-77.6572047679
 20
410.6288938271
 30
0.0
 40
1.000000000000043
100
AcDbArc
 50
270.0
 51
0.0
  0
LINE
  5
49A
330
1F
100
AcDbEntity
  8
0
  6
Continuous
 62
     7
370
    25
100
AcDbLine
 10
-78.6572047679
 20
422.8288938271
 30
0.0
 11
-78.6572047679
 21
414.8288938271
 31
0.0
  0
LWPOLYLINE
  5
49B
330
1F
100
AcDbEntity
  8
0
  6
Continuous
 62
     7
370
    25
100
AcDbPolyline
 90
        3
 70
   128
 43
0.0
 10
-79.6632488845
 20
419.5526752297
 10
-79.6676494095
 20
419.5099799009
 10
-79.6838742581
 20
419.326281572
  0
ARC
  5
49C
330
1F
100
AcDbEntity
  8
0
  6
Continuous
 62
     7
370
    25
100
AcDbCircle
 10
-79.1594813337
 20
419.6394094095
 30
0.0
 40
0.6107675350084641
100
AcDbArc
 50
210.8424581413
 51
243.3898036633
  0
ARC
  5
49D
330
1F
100
AcDbEntity
  8
0
  6
Continuous
 62
     7
370
    25
100
AcDbCircle
 10
-70.2765474122
 20
418.4978964582
 30
0.0
 40
9.175815043748615
100
AcDbArc
 50
177.9327321268
 51
179.6562101041
  0
ARC
  5
49E
330
1F
100
AcDbEntity
  8
0
  6
Continuous
 62
     7
370
    25
100
AcDbCircle
 10
-71.9202248701
 20
418.734756552
 30
0.0
 40
7.786288415096262
100
AcDbArc
 50
184.3702527064
 51
195.2299003794
  0
ARC
  5
49F
330
1F
100
AcDbEntity
  8
0
  6
Continuous
 62
     7
370
    25
100
AcDbCircle
 10
-79.2119332029
 20
416.7843927108
 30
0.0
 40
0.2406805056722013
100
AcDbArc
 50
156.7420981705
 51
203.2579018295
  0
ARC
  5
4A0
330
1F
100
AcDbEntity
  8
0
  6
Continuous
 62
     7
370
    25
100
AcDbCircle
 10
-71.9202248701
 20
418.9248318469
 30
0.0
 40
7.786288415096317
100
AcDbArc
 50
184.3702527064
 51
195.2299003794
  0
ARC
  5
4A1
330
1F
100
AcDbEntity
  8
0
  6
Continuous
 62
     7
370
    25
100
AcDbCircle
 10
-79.1594813337
 20
418.0183782446
 30
0.0
 40
0.61076753500793
100
AcDbArc
 50
116.6101963367
 51
149.1575418587
  0
ARC
  5
4A2
330
1F
100
AcDbEntity
  8
0
  6
Continuous
 62
     7
370
    25
100
AcDbCircle
 10
-70.3534191922
 20
419.1568753397
 30
0.0
 40
9.098942710247195
100
AcDbArc
 50
176.2668736478
 51
183.7331263522
  0
ARC
  5
4A3
330
1F
100
AcDbEntity
  8
0
  6
Continuous
 62
     7
370
    25
100
AcDbCircle
 10
-79.1594813337
 20
419.2032290294
 30
0.0
 40
0.6107675350083496
100
AcDbArc
 50
116.6101963367
 51
149.1575418587
  0
ARC
  5
4A4
330
1F
100
AcDbEntity
  8
0
  6
Continuous
 62
     7
370
    25
100
AcDbCircle
 10
-71.9202248701
 20
418.9230311022
 30
0.0
 40
7.786288415095622
100
AcDbArc
 50
164.7700996206
 51
175.6297472936
  0
ARC
  5
4A5
330
1F
100
AcDbEntity
  8
0
  6
Continuous
 62
     7
370
    25
100
AcDbCircle
 10
-79.2999709892
 20
420.8944962039
 30
0.0
 40
0.1522432420587475
100
AcDbArc
 50
150.9451665854
 51
179.1449116547
  0
LINE
  5
4A6
330
1F
100
AcDbEntity
  8
0
  6
Continuous
 62
     7
370
    25
100
AcDbLine
 10
-79.6838742581
 20
419.516356867
 30
0.0
 11
-79.4453186003
 21
419.516356867
 31
0.0
  0
LINE
  5
4A7
330
1F
100
AcDbEntity
  8
0
  6
Continuous
 62
     7
370
    25
100
AcDbLine
 10
-79.6838742581
 20
418.1414307872
 30
0.0
 11
-79.6670072664
 21
418.1414307872
 31
0.0
  0
LINE
  5
4A8
330
1F
100
AcDbEntity
  8
0
  6
Continuous
 62
     7
370
    25
100
AcDbLine
 10
-79.6838742581
 20
419.326281572
 30
0.0
 11
-79.4508239417
 21
419.326281572
 31
0.0
  0
LINE
  5
4A9
330
1F
100
AcDbEntity
  8
0
  6
Continuous
 62
     7
370
    25
100
AcDbLine
 10
-55.4572047679
 20
360.1632006645
 30
0.0
 11
-55.4572047679
 21
355.0221244276
 31
0.0
  0
ARC
  5
4AA
330
1F
100
AcDbEntity
  8
0
  6
Continuous
 62
     7
370
    25
100
AcDbCircle
 10
-57.3987158787
 20
355.0843670035
 30
0.0
 40
1.94250856665522
100
AcDbArc
 50
268.2745645851
 51
358.1637932023
  0
LINE
  5
4AB
330
1F
100
AcDbEntity
  8
0
  6
Continuous
 62
     7
370
    25
100
AcDbLine
 10
-57.4572047679
 20
353.142739186
 30
0.0
 11
-69.4572047679
 21
353.142739186
 31
0.0
  0
ARC
  5
4AC
330
1F
100
AcDbEntity
  8
0
  6
Continuous
 62
     7
370
    25
100
AcDbCircle
 10
-69.5156936571
 20
355.0843670035
 30
0.0
 40
1.942508566655259
100
AcDbArc
 50
181.8362067977
 51
271.7254354149
  0
LINE
  5
4AD
330
1F
100
AcDbEntity
  8
0
  6
Continuous
 62
     7
370
    25
100
AcDbLine
 10
-71.4572047679
 20
355.0221244276
 30
0.0
 11
-71.4572047679
 21
360.1632006645
 31
0.0
  0
LINE
  5
4AE
330
1F
100
AcDbEntity
  8
0
  6
Continuous
 62
     7
370
    25
100
AcDbLine
 10
-55.4572047679
 20
355.0221244276
 30
0.0
 11
-55.4572047679
 21
354.338084141
 31
0.0
  0
ARC
  5
4AF
330
1F
100
AcDbEntity
  8
0
  6
Continuous
 62
     7
370
    25
100
AcDbCircle
 10
-57.3987158787
 20
354.4003267168
 30
0.0
 40
1.942508566655236
100
AcDbArc
 50
268.2745645851
 51
358.1637932023
  0
LINE
  5
4B0
330
1F
100
AcDbEntity
  8
0
  6
Continuous
 62
     7
370
    25
100
AcDbLine
 10
-57.4572047679
 20
352.4586988994
 30
0.0
 11
-69.4572047679
 21
352.4586988994
 31
0.0
  0
LINE
  5
4B1
330
1F
100
AcDbEntity
  8
0
  6
Continuous
 62
     7
370
    25
100
AcDbLine
 10
-71.4572047679
 20
354.338084141
 30
0.0
 11
-71.4572047679
 21
355.0221244276
 31
0.0
  0
ARC
  5
4B2
330
1F
100
AcDbEntity
  8
0
  6
Continuous
 62
     7
370
    25
100
AcDbCircle
 10
-69.5156936571
 20
354.4003267168
 30
0.0
 40
1.942508566655275
100
AcDbArc
 50
181.8362067977
 51
271.7254354149
  0
LINE
  5
4B3
330
1F
100
AcDbEntity
  8
0
  6
Continuous
 62
     7
370
    25
100
AcDbLine
 10
-71.4572047679
 20
360.5052208078
 30
0.0
 11
-71.4572047679
 21
360.1632006645
 31
0.0
  0
LINE
  5
4B4
330
1F
100
AcDbEntity
  8
0
  6
Continuous
 62
     7
370
    25
100
AcDbLine
 10
-55.4572047679
 20
360.1632006645
 30
0.0
 11
-55.4572047679
 21
360.5052208078
 31
0.0
  0
LINE
  5
4B5
330
1F
100
AcDbEntity
  8
0
  6
Continuous
 62
     7
370
    25
100
AcDbLine
 10
-81.9572047679
 20
360.3288938271
 30
0.0
 11
-71.4572047679
 21
360.3288938271
 31
0.0
  0
LINE
  5
4B6
330
1F
100
AcDbEntity
  8
0
  6
Continuous
 62
     7
370
    25
100
AcDbLine
 10
-57.4572047679
 20
375.3288938271
 30
0.0
 11
-81.9572047679
 21
375.3288938271
 31
0.0
  0
CIRCLE
  5
4B7
330
1F
100
AcDbEntity
  8
0
  6
Continuous
 62
     7
370
    25
100
AcDbCircle
 10
-63.3572047679
 20
367.8288938271
 30
0.0
 40
3.5
  0
LINE
  5
4B8
330
1F
100
AcDbEntity
  8
0
  6
Continuous
 62
     7
370
    25
100
AcDbLine
 10
-55.4572047679
 20
360.5052208078
 30
0.0
 11
-55.4572047679
 21
373.3288938271
 31
0.0
  0
ARC
  5
4B9
330
1F
100
AcDbEntity
  8
0
  6
Continuous
 62
     7
370
    25
100
AcDbCircle
 10
-57.4572047679
 20
373.3288938271
 30
0.0
 40
2.000000000000007
100
AcDbArc
 50
0.0
 51
90.0
  0
LINE
  5
4BA
330
1F
100
AcDbEntity
  8
0
  6
Continuous
 62
     7
370
    25
100
AcDbLine
 10
-69.4572047679
 20
182.5150484681
 30
0.0
 11
-57.4572047679
 21
182.5150484681
 31
0.0
  0
LINE
  5
4BB
330
1F
100
AcDbEntity
  8
0
  6
Continuous
 62
     7
370
    25
100
AcDbLine
 10
-69.4572047679
 20
183.1990887548
 30
0.0
 11
-57.4572047679
 21
183.1990887548
 31
0.0
  0
LINE
  5
4BC
330
1F
100
AcDbEntity
  8
0
  6
Continuous
 62
     7
370
    25
100
AcDbLine
 10
-55.4572047679
 20
181.3197035132
 30
0.0
 11
-55.4572047679
 21
180.6356632266
 31
0.0
  0
ARC
  5
4BD
330
1F
100
AcDbEntity
  8
0
  6
Continuous
 62
     7
370
    25
100
AcDbCircle
 10
-57.3987158787
 20
180.5734206507
 30
0.0
 40
1.942508566655273
100
AcDbArc
 50
1.8362067977
 51
91.7254354149
  0
ARC
  5
4BE
330
1F
100
AcDbEntity
  8
0
  6
Continuous
 62
     7
370
    25
100
AcDbCircle
 10
-57.3987158787
 20
181.2574609374
 30
0.0
 40
1.94250856665528
100
AcDbArc
 50
1.8362067977
 51
91.7254354149
  0
LINE
  5
4BF
330
1F
100
AcDbEntity
  8
0
  6
Continuous
 62
     7
370
    25
100
AcDbLine
 10
-55.4572047679
 20
180.6356632266
 30
0.0
 11
-55.4572047679
 21
175.4945869897
 31
0.0
  0
LINE
  5
4C0
330
1F
100
AcDbEntity
  8
0
  6
Continuous
 62
     7
370
    25
100
AcDbLine
 10
-71.4572047679
 20
175.4945869897
 30
0.0
 11
-71.4572047679
 21
180.6356632266
 31
0.0
  0
ARC
  5
4C1
330
1F
100
AcDbEntity
  8
0
  6
Continuous
 62
     7
370
    25
100
AcDbCircle
 10
-69.5156936571
 20
180.5734206507
 30
0.0
 40
1.942508566655287
100
AcDbArc
 50
88.2745645851
 51
178.1637932023
  0
LINE
  5
4C2
330
1F
100
AcDbEntity
  8
0
  6
Continuous
 62
     7
370
    25
100
AcDbLine
 10
-71.4572047679
 20
180.6356632266
 30
0.0
 11
-71.4572047679
 21
181.3197035132
 31
0.0
  0
ARC
  5
4C3
330
1F
100
AcDbEntity
  8
0
  6
Continuous
 62
     7
370
    25
100
AcDbCircle
 10
-69.5156936571
 20
181.2574609374
 30
0.0
 40
1.942508566655287
100
AcDbArc
 50
88.2745645851
 51
178.1637932023
  0
LINE
  5
4C4
330
1F
100
AcDbEntity
  8
0
  6
Continuous
 62
     7
370
    25
100
AcDbLine
 10
-71.4572047679
 20
175.4945869897
 30
0.0
 11
-71.4572047679
 21
175.1525668464
 31
0.0
  0
LINE
  5
4C5
330
1F
100
AcDbEntity
  8
0
  6
Continuous
 62
     7
370
    25
100
AcDbLine
 10
-55.4572047679
 20
175.1525668464
 30
0.0
 11
-55.4572047679
 21
175.4945869897
 31
0.0
  0
LINE
  5
4C6
330
1F
100
AcDbEntity
  8
0
  6
Continuous
 62
     7
370
    25
100
AcDbLine
 10
-71.4572047679
 20
175.3288938271
 30
0.0
 11
-81.9572047679
 21
175.3288938271
 31
0.0
  0
ARC
  5
4C7
330
1F
100
AcDbEntity
  8
0
  6
Continuous
 62
     7
370
    25
100
AcDbCircle
 10
-57.4572047679
 20
162.3288938271
 30
0.0
 40
2.0
100
AcDbArc
 50
270.0
 51
0.0
  0
CIRCLE
  5
4C8
330
1F
100
AcDbEntity
  8
0
  6
Continuous
 62
     7
370
    25
100
AcDbCircle
 10
-63.3572047679
 20
167.8288938271
 30
0.0
 40
3.499999999999993
  0
LINE
  5
4C9
330
1F
100
AcDbEntity
  8
0
  6
Continuous
 62
     7
370
    25
100
AcDbLine
 10
-81.9572047679
 20
160.3288938271
 30
0.0
 11
-57.4572047679
 21
160.3288938271
 31
0.0
  0
LINE
  5
4CA
330
1F
100
AcDbEntity
  8
0
  6
Continuous
 62
     7
370
    25
100
AcDbLine
 10
-55.4572047679
 20
162.3288938271
 30
0.0
 11
-55.4572047679
 21
175.1525668464
 31
0.0
  0
CIRCLE
  5
4CB
330
1F
100
AcDbEntity
  8
0
  6
Continuous
 62
     7
370
    25
100
AcDbCircle
 10
-63.3572047679
 20
367.8288938271
 30
0.0
 40
2.458750000016645
  0
CIRCLE
  5
4CC
330
1F
100
AcDbEntity
  8
0
  6
Continuous
 62
     7
370
    25
100
AcDbCircle
 10
-63.3572047679
 20
367.8288938271
 30
0.0
 40
2.999999999999997
  0
ENDSEC
  0
SECTION
  2
OBJECTS
  0
DICTIONARY
  5
C
330
0
100
AcDbDictionary
281
     1
  3
ACAD_GROUP
350
D
  3
ACAD_LAYOUT
350
1A
  3
ACAD_MLINESTYLE
350
17
  3
ACAD_PLOTSETTINGS
350
19
  3
ACAD_PLOTSTYLENAME
350
E
  3
ACAD_SCALELIST
350
47
  0
DICTIONARY
  5
D
102
{ACAD_REACTORS
330
C
102
}
330
C
100
AcDbDictionary
281
     1
  0
DICTIONARY
  5
1A
102
{ACAD_REACTORS
330
C
102
}
330
C
100
AcDbDictionary
281
     1
  3
Layout1
350
1E
  3
Layout2
350
26
  3
Model
350
22
  0
DICTIONARY
  5
17
102
{ACAD_REACTORS
330
C
102
}
330
C
100
AcDbDictionary
281
     1
  3
Standard
350
18
  0
DICTIONARY
  5
19
102
{ACAD_REACTORS
330
C
102
}
330
C
100
AcDbDictionary
281
     1
  0
ACDBDICTIONARYWDFLT
  5
E
102
{ACAD_REACTORS
330
C
102
}
330
C
100
AcDbDictionary
281
     1
  3
Normal
350
F
100
AcDbDictionaryWithDefault
340
F
  0
DICTIONARY
  5
47
102
{ACAD_REACTORS
330
C
102
}
330
C
100
AcDbDictionary
281
     1
  3
A0
350
48
  3
A1
350
49
  3
A2
350
4A
  3
A3
350
4B
  3
A4
350
4C
  3
A5
350
4D
  3
A6
350
4E
  3
A7
350
4F
  3
A8
350
50
  3
A9
350
51
  3
B0
350
52
  3
B1
350
53
  3
B2
350
54
  3
B3
350
55
  3
B4
350
56
  3
B5
350
57
  3
B6
350
58
  3
B7
350
59
  3
B8
350
5A
  3
B9
350
5B
  3
C0
350
5C
  3
C1
350
5D
  3
C2
350
5E
  3
C3
350
5F
  3
C4
350
60
  3
C5
350
61
  3
C6
350
62
  3
C7
350
63
  3
C8
350
64
  3
C9
350
65
  3
D0
350
66
  3
D1
350
67
  3
D2
350
68
  0
LAYOUT
  5
1E
102
{ACAD_REACTORS
330
1A
102
}
330
1A
100
AcDbPlotSettings
  1

  2
none_device
  4

  6

 40
0.0
 41
0.0
 42
0.0
 43
0.0
 44
0.0
 45
0.0
 46
0.0
 47
0.0
 48
0.0
 49
0.0
140
0.0
141
0.0
142
1.0
143
1.0
 70
   688
 72
     1
 73
     0
 74
     5
  7

 75
    16
147
1.0
148
0.0
149
0.0
100
AcDbLayout
  1
Layout1
 70
     1
 71
     1
 10
0.0
 20
0.0
 11
420.0
 21
297.0
 12
0.0
 22
0.0
 32
0.0
 14
1.0000000000E+20
 24
1.0000000000E+20
 34
1.0000000000E+20
 15
-1.0000000000E+20
 25
-1.0000000000E+20
 35
-1.0000000000E+20
146
0.0
 13
0.0
 23
0.0
 33
0.0
 16
1.0
 26
0.0
 36
0.0
 17
0.0
 27
1.0
 37
0.0
 76
     0
330
1B
  0
LAYOUT
  5
26
102
{ACAD_REACTORS
330
1A
102
}
330
1A
100
AcDbPlotSettings
  1

  2
none_device
  4

  6

 40
0.0
 41
0.0
 42
0.0
 43
0.0
 44
0.0
 45
0.0
 46
0.0
 47
0.0
 48
0.0
 49
0.0
140
0.0
141
0.0
142
1.0
143
1.0
 70
   688
 72
     1
 73
     0
 74
     5
  7

 75
    16
147
1.0
148
0.0
149
0.0
100
AcDbLayout
  1
Layout2
 70
     1
 71
     2
 10
0.0
 20
0.0
 11
0.0
 21
0.0
 12
0.0
 22
0.0
 32
0.0
 14
0.0
 24
0.0
 34
0.0
 15
0.0
 25
0.0
 35
0.0
146
0.0
 13
0.0
 23
0.0
 33
0.0
 16
1.0
 26
0.0
 36
0.0
 17
0.0
 27
1.0
 37
0.0
 76
     0
330
23
  0
LAYOUT
  5
22
102
{ACAD_REACTORS
330
1A
102
}
330
1A
100
AcDbPlotSettings
  1

  2
none_device
  4
Letter_(8.50_x_11.00_Inches)
  6

 40
6.35
 41
6.35
 42
6.35000508
 43
6.35000508
 44
215.9
 45
279.4
 46
0.0
 47
0.0
 48
0.0
 49
0.0
140
0.0
141
0.0
142
1.0
143
1.0
 70
  1712
 72
     1
 73
     0
 74
     0
  7

 75
     0
147
1.0
148
0.0
149
0.0
100
AcDbLayout
  1
Model
 70
     1
 71
     0
 10
0.0
 20
0.0
 11
841.0
 21
594.0
 12
0.0
 22
0.0
 32
0.0
 14
0.0
 24
0.0
 34
0.0
 15
841.0
 25
594.0
 35
0.0
146
0.0
 13
0.0
 23
0.0
 33
0.0
 16
1.0
 26
0.0
 36
0.0
 17
0.0
 27
1.0
 37
0.0
 76
     0
330
1F
331
29
  0
MLINESTYLE
  5
18
102
{ACAD_REACTORS
330
17
102
}
330
17
100
AcDbMlineStyle
  2
Standard
 70
     0
  3

 62
   256
 51
90.0
 52
90.0
 71
     2
 49
0.5
 62
   256
  6
BYLAYER
 49
-0.5
 62
   256
  6
BYLAYER
  0
ACDBPLACEHOLDER
  5
F
102
{ACAD_REACTORS
330
E
102
}
330
E
  0
SCALE
  5
48
102
{ACAD_REACTORS
330
47
102
}
330
47
100
AcDbScale
 70
     0
300
1:1
140
1.0
141
1.0
290
     1
  0
SCALE
  5
49
102
{ACAD_REACTORS
330
47
102
}
330
47
100
AcDbScale
 70
     0
300
1:2
140
1.0
141
2.0
290
     0
  0
SCALE
  5
4A
102
{ACAD_REACTORS
330
47
102
}
330
47
100
AcDbScale
 70
     0
300
1:4
140
1.0
141
4.0
290
     0
  0
SCALE
  5
4B
102
{ACAD_REACTORS
330
47
102
}
330
47
100
AcDbScale
 70
     0
300
1:5
140
1.0
141
5.0
290
     0
  0
SCALE
  5
4C
102
{ACAD_REACTORS
330
47
102
}
330
47
100
AcDbScale
 70
     0
300
1:8
140
1.0
141
8.0
290
     0
  0
SCALE
  5
4D
102
{ACAD_REACTORS
330
47
102
}
330
47
100
AcDbScale
 70
     0
300
1:10
140
1.0
141
10.0
290
     0
  0
SCALE
  5
4E
102
{ACAD_REACTORS
330
47
102
}
330
47
100
AcDbScale
 70
     0
300
1:16
140
1.0
141
16.0
290
     0
  0
SCALE
  5
4F
102
{ACAD_REACTORS
330
47
102
}
330
47
100
AcDbScale
 70
     0
300
1:20
140
1.0
141
20.0
290
     0
  0
SCALE
  5
50
102
{ACAD_REACTORS
330
47
102
}
330
47
100
AcDbScale
 70
     0
300
1:30
140
1.0
141
30.0
290
     0
  0
SCALE
  5
51
102
{ACAD_REACTORS
330
47
102
}
330
47
100
AcDbScale
 70
     0
300
1:40
140
1.0
141
40.0
290
     0
  0
SCALE
  5
52
102
{ACAD_REACTORS
330
47
102
}
330
47
100
AcDbScale
 70
     0
300
1:50
140
1.0
141
50.0
290
     0
  0
SCALE
  5
53
102
{ACAD_REACTORS
330
47
102
}
330
47
100
AcDbScale
 70
     0
300
1:100
140
1.0
141
100.0
290
     0
  0
SCALE
  5
54
102
{ACAD_REACTORS
330
47
102
}
330
47
100
AcDbScale
 70
     0
300
2:1
140
2.0
141
1.0
290
     0
  0
SCALE
  5
55
102
{ACAD_REACTORS
330
47
102
}
330
47
100
AcDbScale
 70
     0
300
4:1
140
4.0
141
1.0
290
     0
  0
SCALE
  5
56
102
{ACAD_REACTORS
330
47
102
}
330
47
100
AcDbScale
 70
     0
300
8:1
140
8.0
141
1.0
290
     0
  0
SCALE
  5
57
102
{ACAD_REACTORS
330
47
102
}
330
47
100
AcDbScale
 70
     0
300
10:1
140
10.0
141
1.0
290
     0
  0
SCALE
  5
58
102
{ACAD_REACTORS
330
47
102
}
330
47
100
AcDbScale
 70
     0
300
100:1
140
100.0
141
1.0
290
     0
  0
SCALE
  5
59
102
{ACAD_REACTORS
330
47
102
}
330
47
100
AcDbScale
 70
     0
300
1/128" = 1'-0"
140
0.0078125
141
12.0
290
     0
  0
SCALE
  5
5A
102
{ACAD_REACTORS
330
47
102
}
330
47
100
AcDbScale
 70
     0
300
1/64" = 1'-0"
140
0.015625
141
12.0
290
     0
  0
SCALE
  5
5B
102
{ACAD_REACTORS
330
47
102
}
330
47
100
AcDbScale
 70
     0
300
1/32" = 1'-0"
140
0.03125
141
12.0
290
     0
  0
SCALE
  5
5C
102
{ACAD_REACTORS
330
47
102
}
330
47
100
AcDbScale
 70
     0
300
1/16" = 1'-0"
140
0.0625
141
12.0
290
     0
  0
SCALE
  5
5D
102
{ACAD_REACTORS
330
47
102
}
330
47
100
AcDbScale
 70
     0
300
3/32" = 1'-0"
140
0.09375
141
12.0
290
     0
  0
SCALE
  5
5E
102
{ACAD_REACTORS
330
47
102
}
330
47
100
AcDbScale
 70
     0
300
1/8" = 1'-0"
140
0.125
141
12.0
290
     0
  0
SCALE
  5
5F
102
{ACAD_REACTORS
330
47
102
}
330
47
100
AcDbScale
 70
     0
300
3/16" = 1'-0"
140
0.1875
141
12.0
290
     0
  0
SCALE
  5
60
102
{ACAD_REACTORS
330
47
102
}
330
47
100
AcDbScale
 70
     0
300
1/4" = 1'-0"
140
0.25
141
12.0
290
     0
  0
SCALE
  5
61
102
{ACAD_REACTORS
330
47
102
}
330
47
100
AcDbScale
 70
     0
300
3/8" = 1'-0"
140
0.375
141
12.0
290
     0
  0
SCALE
  5
62
102
{ACAD_REACTORS
330
47
102
}
330
47
100
AcDbScale
 70
     0
300
1/2" = 1'-0"
140
0.5
141
12.0
290
     0
  0
SCALE
  5
63
102
{ACAD_REACTORS
330
47
102
}
330
47
100
AcDbScale
 70
     0
300
3/4" = 1'-0"
140
0.75
141
12.0
290
     0
  0
SCALE
  5
64
102
{ACAD_REACTORS
330
47
102
}
330
47
100
AcDbScale
 70
     0
300
1" = 1'-0"
140
1.0
141
12.0
290
     0
  0
SCALE
  5
65
102
{ACAD_REACTORS
330
47
102
}
330
47
100
AcDbScale
 70
     0
300
1-1/2" = 1'-0"
140
1.5
141
12.0
290
     0
  0
SCALE
  5
66
102
{ACAD_REACTORS
330
47
102
}
330
47
100
AcDbScale
 70
     0
300
3" = 1'-0"
140
3.0
141
12.0
290
     0
  0
SCALE
  5
67
102
{ACAD_REACTORS
330
47
102
}
330
47
100
AcDbScale
 70
     0
300
6" = 1'-0"
140
6.0
141
12.0
290
     0
  0
SCALE
  5
68
102
{ACAD_REACTORS
330
47
102
}
330
47
100
AcDbScale
 70
     0
300
1'-0" = 1'-0"
140
12.0
141
12.0
290
     0
  0
ENDSEC
  0
EOF
