  0
SECTION
  2
HEADER
  9
$ACADVER
  1
AC1015
  9
$ACADMAINTVER
 70
     6
  9
$DWGCODEPAGE
  3
ANSI_1251
  9
$INSBASE
 10
0.0
 20
0.0
 30
0.0
  9
$EXTMIN
 10
0.0
 20
0.0
 30
0.0
  9
$EXTMAX
 10
431.8
 20
279.4
 30
0.0
  9
$LIMMIN
 10
0.0
 20
0.0
  9
$LIMMAX
 10
431.8
 20
279.4
  9
$ORTHOMODE
 70
     0
  9
$REGENMODE
 70
     1
  9
$FILLMODE
 70
     1
  9
$QTEXTMODE
 70
     0
  9
$MIRRTEXT
 70
     1
  9
$LTSCALE
 40
1.0
  9
$ATTMODE
 70
     1
  9
$TEXTSIZE
 40
3.5
  9
$TRACEWID
 40
1.0
  9
$TEXTSTYLE
  7
STANDARD
  9
$CLAYER
  8
0
  9
$CELTYPE
  6
ByLayer
  9
$CECOLOR
 62
   256
  9
$CELTSCALE
 40
1.0
  9
$DISPSILH
 70
     0
  9
$DIMSCALE
 40
1.0
  9
$DIMASZ
 40
5.0
  9
$DIMEXO
 40
0.0
  9
$DIMDLI
 40
3.75
  9
$DIMRND
 40
0.0
  9
$DIMDLE
 40
0.0
  9
$DIMEXE
 40
1.0
  9
$DIMTP
 40
0.0
  9
$DIMTM
 40
0.0
  9
$DIMTXT
 40
3.5
  9
$DIMCEN
 40
2.5
  9
$DIMTSZ
 40
0.0
  9
$DIMTOL
 70
     0
  9
$DIMLIM
 70
     0
  9
$DIMTIH
 70
     1
  9
$DIMTOH
 70
     1
  9
$DIMSE1
 70
     0
  9
$DIMSE2
 70
     0
  9
$DIMTAD
 70
     1
  9
$DIMZIN
 70
     0
  9
$DIMBLK
  1

  9
$DIMASO
 70
     1
  9
$DIMSHO
 70
     1
  9
$DIMPOST
  1

  9
$DIMAPOST
  1

  9
$DIMALT
 70
     0
  9
$DIMALTD
 70
     3
  9
$DIMALTF
 40
0.0393700787
  9
$DIMLFAC
 40
1.0
  9
$DIMTOFL
 70
     1
  9
$DIMTVP
 40
0.0
  9
$DIMTIX
 70
     0
  9
$DIMSOXD
 70
     0
  9
$DIMSAH
 70
     0
  9
$DIMBLK1
  1

  9
$DIMBLK2
  1

  9
$DIMSTYLE
  2
ISO-25
  9
$DIMCLRD
 70
     0
  9
$DIMCLRE
 70
     0
  9
$DIMCLRT
 70
     0
  9
$DIMTFAC
 40
1.0
  9
$DIMGAP
 40
1.5
  9
$DIMJUST
 70
     0
  9
$DIMSD1
 70
     0
  9
$DIMSD2
 70
     0
  9
$DIMTOLJ
 70
     0
  9
$DIMTZIN
 70
     0
  9
$DIMALTZ
 70
     0
  9
$DIMALTTZ
 70
     0
  9
$DIMUPT
 70
     0
  9
$DIMDEC
 70
     1
  9
$DIMTDEC
 70
     3
  9
$DIMALTU
 70
     2
  9
$DIMALTTD
 70
     3
  9
$DIMTXSTY
  7
STANDARD
  9
$DIMAUNIT
 70
     0
  9
$DIMADEC
 70
     2
  9
$DIMALTRND
 40
0.0
  9
$DIMAZIN
 70
     0
  9
$DIMDSEP
 70
    44
  9
$DIMATFIT
 70
     3
  9
$DIMFRAC
 70
     0
  9
$DIMLDRBLK
  1

  9
$DIMLUNIT
 70
     2
  9
$DIMLWD
 70
    -2
  9
$DIMLWE
 70
    -2
  9
$DIMTMOVE
 70
     0
  9
$LUNITS
 70
     2
  9
$LUPREC
 70
     1
  9
$SKETCHINC
 40
1.0
  9
$FILLETRAD
 40
0.0
  9
$AUNITS
 70
     0
  9
$AUPREC
 70
     2
  9
$MENU
  1
.
  9
$ELEVATION
 40
0.0
  9
$PELEVATION
 40
0.0
  9
$THICKNESS
 40
0.0
  9
$LIMCHECK
 70
     0
  9
$CHAMFERA
 40
0.0
  9
$CHAMFERB
 40
0.0
  9
$CHAMFERC
 40
0.0
  9
$CHAMFERD
 40
0.0
  9
$SKPOLY
 70
     0
  9
$TDCREATE
 40
2460920.717144931
  9
$TDUCREATE
 40
2460920.592144931
  9
$TDUPDATE
 40
2460920.717145914
  9
$TDUUPDATE
 40
2460920.592145914
  9
$TDINDWG
 40
0.0000000116
  9
$TDUSRTIMER
 40
0.0000000116
  9
$USRTIMER
 70
     1
  9
$ANGBASE
 50
0.0
  9
$ANGDIR
 70
     0
  9
$PDMODE
 70
     0
  9
$PDSIZE
 40
-1.0
  9
$PLINEWID
 40
0.0
  9
$SPLFRAME
 70
     0
  9
$SPLINETYPE
 70
     6
  9
$SPLINESEGS
 70
     8
  9
$HANDSEED
  5
3B5
  9
$SURFTAB1
 70
     6
  9
$SURFTAB2
 70
     6
  9
$SURFTYPE
 70
     6
  9
$SURFU
 70
     6
  9
$SURFV
 70
     6
  9
$UCSBASE
  2

  9
$UCSNAME
  2

  9
$UCSORG
 10
0.0
 20
0.0
 30
0.0
  9
$UCSXDIR
 10
1.0
 20
0.0
 30
0.0
  9
$UCSYDIR
 10
0.0
 20
1.0
 30
0.0
  9
$UCSORTHOREF
  2

  9
$UCSORTHOVIEW
 70
     0
  9
$UCSORGTOP
 10
0.0
 20
0.0
 30
0.0
  9
$UCSORGBOTTOM
 10
0.0
 20
0.0
 30
0.0
  9
$UCSORGLEFT
 10
0.0
 20
0.0
 30
0.0
  9
$UCSORGRIGHT
 10
0.0
 20
0.0
 30
0.0
  9
$UCSORGFRONT
 10
0.0
 20
0.0
 30
0.0
  9
$UCSORGBACK
 10
0.0
 20
0.0
 30
0.0
  9
$PUCSBASE
  2

  9
$PUCSNAME
  2

  9
$PUCSORG
 10
0.0
 20
0.0
 30
0.0
  9
$PUCSXDIR
 10
1.0
 20
0.0
 30
0.0
  9
$PUCSYDIR
 10
0.0
 20
1.0
 30
0.0
  9
$PUCSORTHOREF
  2

  9
$PUCSORTHOVIEW
 70
     0
  9
$PUCSORGTOP
 10
0.0
 20
0.0
 30
0.0
  9
$PUCSORGBOTTOM
 10
0.0
 20
0.0
 30
0.0
  9
$PUCSORGLEFT
 10
0.0
 20
0.0
 30
0.0
  9
$PUCSORGRIGHT
 10
0.0
 20
0.0
 30
0.0
  9
$PUCSORGFRONT
 10
0.0
 20
0.0
 30
0.0
  9
$PUCSORGBACK
 10
0.0
 20
0.0
 30
0.0
  9
$USERI1
 70
     0
  9
$USERI2
 70
     0
  9
$USERI3
 70
     0
  9
$USERI4
 70
     0
  9
$USERI5
 70
     0
  9
$USERR1
 40
0.0
  9
$USERR2
 40
0.0
  9
$USERR3
 40
0.0
  9
$USERR4
 40
0.0
  9
$USERR5
 40
0.0
  9
$WORLDVIEW
 70
     1
  9
$SHADEDGE
 70
     3
  9
$SHADEDIF
 70
    70
  9
$TILEMODE
 70
     1
  9
$MAXACTVP
 70
    64
  9
$PINSBASE
 10
0.0
 20
0.0
 30
0.0
  9
$PLIMCHECK
 70
     0
  9
$PEXTMIN
 10
1.0000000000E+20
 20
1.0000000000E+20
 30
1.0000000000E+20
  9
$PEXTMAX
 10
-1.0000000000E+20
 20
-1.0000000000E+20
 30
-1.0000000000E+20
  9
$PLIMMIN
 10
0.0
 20
0.0
  9
$PLIMMAX
 10
420.0
 20
297.0
  9
$UNITMODE
 70
     0
  9
$VISRETAIN
 70
     1
  9
$PLINEGEN
 70
     0
  9
$PSLTSCALE
 70
     1
  9
$TREEDEPTH
 70
  3020
  9
$CMLSTYLE
  2
Standard
  9
$CMLJUST
 70
     0
  9
$CMLSCALE
 40
20.0
  9
$PROXYGRAPHICS
 70
     1
  9
$MEASUREMENT
 70
     1
  9
$CELWEIGHT
370
    -1
  9
$ENDCAPS
280
     0
  9
$JOINSTYLE
280
     0
  9
$LWDISPLAY
290
     1
  9
$INSUNITS
 70
     4
  9
$HYPERLINKBASE
  1

  9
$STYLESHEET
  1

  9
$XEDIT
290
     1
  9
$CEPSNTYPE
380
     0
  9
$PSTYLEMODE
290
     1
  9
$FINGERPRINTGUID
  2
{271aca69-6bc5-4cb6-8f60-1036f2970091}
  9
$VERSIONGUID
  2
{FAEB1C32-E019-11D5-929B-00C0DF256EC4}
  9
$EXTNAMES
290
     1
  9
$PSVPSCALE
 40
0.0
  9
$OLESTARTUP
290
     0
  0
ENDSEC
  0
SECTION
  2
CLASSES
  0
CLASS
  1
ACDBDICTIONARYWDFLT
  2
AcDbDictionaryWithDefault
  3
ObjectDBX Classes
 90
        0
280
     0
281
     0
  0
CLASS
  1
VISUALSTYLE
  2
AcDbVisualStyle
  3
ObjectDBX Classes
 90
     4095
280
     0
281
     0
  0
CLASS
  1
MATERIAL
  2
AcDbMaterial
  3
ObjectDBX Classes
 90
     1153
280
     0
281
     0
  0
CLASS
  1
SCALE
  2
AcDbScale
  3
ObjectDBX Classes
 90
     1153
280
     0
281
     0
  0
CLASS
  1
TABLESTYLE
  2
AcDbTableStyle
  3
ObjectDBX Classes
 90
     4095
280
     0
281
     0
  0
CLASS
  1
MLEADERSTYLE
  2
AcDbMLeaderStyle
  3
ACDB_MLEADERSTYLE_CLASS
 90
     4095
280
     0
281
     0
  0
CLASS
  1
SUN
  2
AcDbSun
  3
SCENEOE
 90
     1153
280
     0
281
     0
  0
CLASS
  1
ACDBPLACEHOLDER
  2
AcDbPlaceHolder
  3
ObjectDBX Classes
 90
        0
280
     0
281
     0
  0
CLASS
  1
LAYOUT
  2
AcDbLayout
  3
ObjectDBX Classes
 90
        0
280
     0
281
     0
  0
ENDSEC
  0
SECTION
  2
TABLES
  0
TABLE
  2
VPORT
  5
8
330
0
100
AcDbSymbolTable
 70
     1
  0
VPORT
  5
29
330
8
100
AcDbSymbolTableRecord
100
AcDbViewportTableRecord
  2
*Active
 70
     0
 10
0.0
 20
0.0
 11
1.0
 21
1.0
 12
215.9
 22
139.7
 13
0.0
 23
0.0
 14
10.0
 24
10.0
 15
10.0
 25
10.0
 16
0.0
 26
0.0
 36
1.0
 17
0.0
 27
0.0
 37
0.0
 40
279.4
 41
1.5454545455
 42
50.0
 43
0.0
 44
0.0
 50
0.0
 51
0.0
 71
     0
 72
  2000
 73
     1
 74
     3
 75
     0
 76
     0
 77
     0
 78
     0
281
     0
 65
     1
110
0.0
120
0.0
130
0.0
111
1.0
121
0.0
131
0.0
112
0.0
122
1.0
132
0.0
 79
     0
146
0.0
  0
ENDTAB
  0
TABLE
  2
LTYPE
  5
5
330
0
100
AcDbSymbolTable
 70
     8
  0
LTYPE
  5
14
330
5
100
AcDbSymbolTableRecord
100
AcDbLinetypeTableRecord
  2
ByBlock
 70
     0
  3

 72
    65
 73
     0
 40
0.0
  0
LTYPE
  5
15
330
5
100
AcDbSymbolTableRecord
100
AcDbLinetypeTableRecord
  2
ByLayer
 70
     0
  3

 72
    65
 73
     0
 40
0.0
  0
LTYPE
  5
16
330
5
100
AcDbSymbolTableRecord
100
AcDbLinetypeTableRecord
  2
Continuous
 70
     0
  3
Solid line
 72
    65
 73
     0
 40
0.0
  0
LTYPE
  5
5E
330
5
100
AcDbSymbolTableRecord
100
AcDbLinetypeTableRecord
  2
SLD-Сплошная
 70
     0
  3
SolidWorks Line Style
 72
    65
 73
     0
 40
0.0
  0
LTYPE
  5
5F
330
5
100
AcDbSymbolTableRecord
100
AcDbLinetypeTableRecord
  2
SLD-Штриховая
 70
     0
  3
SolidWorks Line Style
 72
    65
 73
     2
 40
1.905
 49
1.27
 74
     0
 49
-0.635
 74
     0
  0
LTYPE
  5
60
330
5
100
AcDbSymbolTableRecord
100
AcDbLinetypeTableRecord
  2
SLD-Штрихпункт.-с-двумя-точками
 70
     0
  3
SolidWorks Line Style
 72
    65
 73
     6
 40
12.7
 49
6.35
 74
     0
 49
-1.27
 74
     0
 49
1.27
 74
     0
 49
-1.27
 74
     0
 49
1.27
 74
     0
 49
-1.27
 74
     0
  0
LTYPE
  5
61
330
5
100
AcDbSymbolTableRecord
100
AcDbLinetypeTableRecord
  2
SLD-Штрихпункт.-утолщ.
 70
     0
  3
SolidWorks Line Style
 72
    65
 73
     4
 40
10.16
 49
6.35
 74
     0
 49
-1.27
 74
     0
 49
1.27
 74
     0
 49
-1.27
 74
     0
  0
LTYPE
  5
62
330
5
100
AcDbSymbolTableRecord
100
AcDbLinetypeTableRecord
  2
SLD-Осевая
 70
     0
  3
SolidWorks Line Style
 72
    65
 73
     4
 40
19.05
 49
15.24
 74
     0
 49
-1.27
 74
     0
 49
1.27
 74
     0
 49
-1.27
 74
     0
  0
LTYPE
  5
63
330
5
100
AcDbSymbolTableRecord
100
AcDbLinetypeTableRecord
  2
SLD-Сшитая
 70
     0
  3
SolidWorks Line Style
 72
    65
 73
     2
 40
0.635
 49
0.0
 74
     0
 49
-0.635
 74
     0
  0
LTYPE
  5
64
330
5
100
AcDbSymbolTableRecord
100
AcDbLinetypeTableRecord
  2
SLD-Тонкая-Толстая
 70
     0
  3
SolidWorks Line Style
 72
    65
 73
     2
 40
5.080508
 49
0.000508
 74
     0
 49
-5.08
 74
     0
  0
ENDTAB
  0
TABLE
  2
LAYER
  5
2
330
0
100
AcDbSymbolTable
 70
     3
  0
LAYER
  5
10
330
2
100
AcDbSymbolTableRecord
100
AcDbLayerTableRecord
  2
0
 70
     0
 62
     7
  6
Continuous
370
    -3
390
F
  0
LAYER
  5
65
330
2
100
AcDbSymbolTableRecord
100
AcDbLayerTableRecord
  2
ВОДЯНОЙ_ЗНАК
 70
     0
 62
    11
  6
SLD-Сплошная
370
    -3
390
F
  0
LAYER
  5
66
330
2
100
AcDbSymbolTableRecord
100
AcDbLayerTableRecord
  2
ОСНОВНОЙ
 70
     0
 62
     7
  6
SLD-Сплошная
370
    -3
390
F
  0
ENDTAB
  0
TABLE
  2
STYLE
  5
3
330
0
100
AcDbSymbolTable
 70
     1
  0
STYLE
  5
11
330
3
100
AcDbSymbolTableRecord
100
AcDbTextStyleTableRecord
  2
STANDARD
 70
     0
 40
0.0
 41
1.0
 50
0.0
 71
     0
 42
3.5
  3
GOST-TYPE-A.TTF
  4

1001
ACAD
1000
GOST TYPE A
1071
 16777250
  0
ENDTAB
  0
TABLE
  2
VIEW
  5
6
330
0
100
AcDbSymbolTable
 70
     0
  0
ENDTAB
  0
TABLE
  2
UCS
  5
7
330
0
100
AcDbSymbolTable
 70
     0
  0
ENDTAB
  0
TABLE
  2
APPID
  5
9
330
0
100
AcDbSymbolTable
 70
     1
  0
APPID
  5
12
330
9
100
AcDbSymbolTableRecord
100
AcDbRegAppTableRecord
  2
ACAD
 70
     0
  0
ENDTAB
  0
TABLE
  2
DIMSTYLE
  5
A
330
0
100
AcDbSymbolTable
 70
     1
100
AcDbDimStyleTable
  0
DIMSTYLE
105
27
330
A
100
AcDbSymbolTableRecord
100
AcDbDimStyleTableRecord
  2
ISO-25
 70
     0
 41
2.5
 42
0.625
 43
3.75
 44
1.25
 73
     0
 74
     0
 77
     1
 78
     8
140
2.5
141
2.5
143
0.0393700787
147
0.625
171
     3
172
     1
178
     0
271
     2
272
     2
274
     3
278
    44
283
     0
284
     8
340
11
  0
ENDTAB
  0
TABLE
  2
BLOCK_RECORD
  5
1
330
0
100
AcDbSymbolTable
 70
     1
  0
BLOCK_RECORD
  5
1F
330
1
100
AcDbSymbolTableRecord
100
AcDbBlockTableRecord
  2
*Model_Space
340
22
  0
BLOCK_RECORD
  5
1B
330
1
100
AcDbSymbolTableRecord
100
AcDbBlockTableRecord
  2
*Paper_Space
340
1E
  0
BLOCK_RECORD
  5
23
330
1
100
AcDbSymbolTableRecord
100
AcDbBlockTableRecord
  2
*Paper_Space0
340
26
  0
ENDTAB
  0
ENDSEC
  0
SECTION
  2
BLOCKS
  0
BLOCK
  5
20
330
1F
100
AcDbEntity
  8
0
100
AcDbBlockBegin
  2
*Model_Space
 70
     0
 10
0.0
 20
0.0
 30
0.0
  3
*Model_Space
  1

  0
ENDBLK
  5
21
330
1F
100
AcDbEntity
  8
0
100
AcDbBlockEnd
  0
BLOCK
  5
1C
330
1B
100
AcDbEntity
 67
     1
  8
0
100
AcDbBlockBegin
  2
*Paper_Space
 70
     0
 10
0.0
 20
0.0
 30
0.0
  3
*Paper_Space
  1

  0
ENDBLK
  5
1D
330
1B
100
AcDbEntity
 67
     1
  8
0
100
AcDbBlockEnd
  0
BLOCK
  5
24
330
23
100
AcDbEntity
  8
0
100
AcDbBlockBegin
  2
*Paper_Space0
 70
     0
 10
0.0
 20
0.0
 30
0.0
  3
*Paper_Space0
  1

  0
ENDBLK
  5
25
330
23
100
AcDbEntity
  8
0
100
AcDbBlockEnd
  0
ENDSEC
  0
SECTION
  2
ENTITIES
  0
LINE
  5
67
330
1F
100
AcDbEntity
  8
0
  6
SLD-Сплошная
 62
     7
370
    25
100
AcDbLine
 10
159.0940431302
 20
188.667825644
 30
0.0
 11
151.5940431302
 21
188.667825644
 31
0.0
  0
LINE
  5
68
330
1F
100
AcDbEntity
  8
0
  6
SLD-Сплошная
 62
     7
370
    25
100
AcDbLine
 10
194.0940431302
 20
188.667825644
 30
0.0
 11
185.4864170575
 21
188.667825644
 31
0.0
  0
SPLINE
  5
69
330
1F
100
AcDbEntity
  8
0
  6
SLD-Сплошная
 62
     7
370
    25
100
AcDbSpline
210
0.0
220
0.0
230
1.0
 70
     8
 71
     3
 72
     9
 73
     5
 74
     0
 42
0.00000001
 43
0.00000001
 40
0.0
 40
0.0
 40
0.0
 40
0.0
 40
0.6215415423774436
 40
1.0
 40
1.0
 40
1.0
 40
1.0
 10
256.5694669342503
 20
146.9886047684866
 30
0.0
 10
256.5368827929207
 20
147.7759566959777
 30
0.0
 10
256.4844580729172
 20
149.0427295081045
 30
0.0
 10
256.1461521554343
 20
150.3151499858987
 30
0.0
 10
256.0181174196992
 20
150.7967082773721
 30
0.0
  0
LINE
  5
6A
330
1F
100
AcDbEntity
  8
0
  6
SLD-Сплошная
 62
     7
370
    25
100
AcDbLine
 10
194.0940431302
 20
126.367825644
 30
0.0
 11
206.2217618069
 21
126.367825644
 31
0.0
  0
LINE
  5
6B
330
1F
100
AcDbEntity
  8
0
  6
SLD-Сплошная
 62
     7
370
    25
100
AcDbLine
 10
214.0940431302
 20
185.667825644
 30
0.0
 11
194.0940431302
 21
185.667825644
 31
0.0
  0
ARC
  5
6C
330
1F
100
AcDbEntity
  8
0
  6
SLD-Сплошная
 62
     7
370
    25
100
AcDbCircle
 10
196.8399358912
 20
375.7717064947
 30
0.0
 40
250.0
100
AcDbArc
 50
278.5746178683
 51
282.6853445703
  0
ARC
  5
6D
330
1F
100
AcDbEntity
  8
0
  6
SLD-Сплошная
 62
     7
370
    25
100
AcDbCircle
 10
196.8399358912
 20
375.7717064947
 30
0.0
 40
250.0
100
AcDbArc
 50
273.9574961155
 51
277.2581784518
  0
ARC
  5
6E
330
1F
100
AcDbEntity
  8
0
  6
SLD-Сплошная
 62
     7
370
    25
100
AcDbCircle
 10
196.8399358912
 20
-63.7360552067
 30
0.0
 40
250.0
100
AcDbArc
 50
76.1715035154
 51
86.0425038845
  0
LINE
  5
6F
330
1F
100
AcDbEntity
  8
0
  6
SLD-Сплошная
 62
     7
370
    25
100
AcDbLine
 10
266.1434877803
 20
181.4179909478
 30
0.0
 11
264.1434877803
 21
181.4179909478
 31
0.0
  0
LINE
  5
70
330
1F
100
AcDbEntity
  8
0
  6
SLD-Сплошная
 62
     7
370
    25
100
AcDbLine
 10
264.1434877803
 20
130.6168865355
 30
0.0
 11
266.1434877803
 21
130.6168865355
 31
0.0
  0
ARC
  5
71
330
1F
100
AcDbEntity
  8
0
  6
SLD-Сплошная
 62
     7
370
    25
100
AcDbCircle
 10
254.0318350722
 20
133.017825644
 30
0.0
 40
2.562208057998278
100
AcDbArc
 50
206.5138410549
 51
0.0
  0
LINE
  5
72
330
1F
100
AcDbEntity
  8
0
  6
SLD-Сплошная
 62
     7
370
    25
100
AcDbLine
 10
211.9663244535
 20
126.367825644
 30
0.0
 11
214.0940431302
 21
126.367825644
 31
0.0
  0
LINE
  5
73
330
1F
100
AcDbEntity
  8
0
  6
SLD-Сплошная
 62
     7
370
    25
100
AcDbLine
 10
256.5940431302
 20
145.017825644
 30
0.0
 11
264.1434877803
 21
145.017825644
 31
0.0
  0
LINE
  5
74
330
1F
100
AcDbEntity
  8
0
  6
SLD-Сплошная
 62
     7
370
    25
100
AcDbLine
 10
264.1434877803
 20
167.017825644
 30
0.0
 11
256.5940431302
 21
167.017825644
 31
0.0
  0
LINE
  5
75
330
1F
100
AcDbEntity
  8
0
  6
SLD-Сплошная
 62
     7
370
    25
100
AcDbLine
 10
151.5940431302
 20
119.517825644
 30
0.0
 11
194.0940431302
 21
119.517825644
 31
0.0
  0
LINE
  5
76
330
1F
100
AcDbEntity
  8
0
  6
SLD-Сплошная
 62
     7
370
    25
100
AcDbLine
 10
296.6416056762
 20
142.6488790726
 30
0.0
 11
296.7118277278
 21
144.4575575675
 31
0.0
  0
LINE
  5
77
330
1F
100
AcDbEntity
  8
0
  6
SLD-Сплошная
 62
     7
370
    25
100
AcDbLine
 10
296.7118277278
 20
167.5773199158
 30
0.0
 11
296.6416056762
 21
169.3859984107
 31
0.0
  0
ARC
  5
78
330
1F
100
AcDbEntity
  8
0
  6
SLD-Сплошная
 62
     7
370
    25
100
AcDbCircle
 10
287.1531067235
 20
156.0174387417
 30
0.0
 40
17.5
100
AcDbArc
 50
270.0
 51
297.7766046258
  0
ARC
  5
79
330
1F
100
AcDbEntity
  8
0
  6
SLD-Сплошная
 62
     7
370
    25
100
AcDbCircle
 10
294.1434877803
 20
142.7458686506
 30
0.0
 40
2.500000000000023
100
AcDbArc
 50
297.7766046258
 51
357.7766046258
  0
LINE
  5
7A
330
1F
100
AcDbEntity
  8
0
  6
SLD-Сплошная
 62
     7
370
    25
100
AcDbLine
 10
275.1434877803
 20
138.5174387417
 30
0.0
 11
287.1531067235
 21
138.5174387417
 31
0.0
  0
ARC
  5
7B
330
1F
100
AcDbEntity
  8
0
  6
SLD-Сплошная
 62
     7
370
    25
100
AcDbCircle
 10
294.1434877803
 20
169.2890088327
 30
0.0
 40
2.500000000000021
100
AcDbArc
 50
2.2233953742
 51
62.2233953742
  0
ARC
  5
7C
330
1F
100
AcDbEntity
  8
0
  6
SLD-Сплошная
 62
     7
370
    25
100
AcDbCircle
 10
287.1531067235
 20
156.0174387417
 30
0.0
 40
17.49999999999998
100
AcDbArc
 50
62.2233953742
 51
90.0
  0
LINE
  5
7D
330
1F
100
AcDbEntity
  8
0
  6
SLD-Сплошная
 62
     7
370
    25
100
AcDbLine
 10
287.1531067235
 20
173.5174387417
 30
0.0
 11
275.1434877803
 21
173.5174387417
 31
0.0
  0
ARC
  5
7E
330
1F
100
AcDbEntity
  8
0
  6
SLD-Сплошная
 62
     7
370
    25
100
AcDbCircle
 10
291.5940431302
 20
155.967825644
 30
0.0
 40
150.0
100
AcDbArc
 50
171.3645799051
 51
188.6382569389
  0
LINE
  5
7F
330
1F
100
AcDbEntity
  8
0
  6
SLD-Сплошная
 62
     7
370
    25
100
AcDbLine
 10
145.8920270151
 20
120.317825644
 30
0.0
 11
146.519365327
 21
117.8451570558
 31
0.0
  0
LINE
  5
80
330
1F
100
AcDbEntity
  8
0
  6
SLD-Сплошная
 62
     7
370
    25
100
AcDbLine
 10
141.1773996246
 20
130.967825644
 30
0.0
 11
141.1773996246
 21
122.817825644
 31
0.0
  0
ARC
  5
81
330
1F
100
AcDbEntity
  8
0
  6
SLD-Сплошная
 62
     7
370
    25
100
AcDbCircle
 10
143.6773996246
 20
122.817825644
 30
0.0
 40
2.500000000000014
100
AcDbArc
 50
180.0
 51
270.0
  0
ARC
  5
82
330
1F
100
AcDbEntity
  8
0
  6
SLD-Сплошная
 62
     7
370
    25
100
AcDbCircle
 10
143.6773996246
 20
130.967825644
 30
0.0
 40
2.5
100
AcDbArc
 50
94.4811501559
 51
180.0
  0
LINE
  5
83
330
1F
100
AcDbEntity
  8
0
  6
SLD-Сплошная
 62
     7
370
    25
100
AcDbLine
 10
141.125294351
 20
192.9447496028
 30
0.0
 11
141.125294351
 21
180.967825644
 31
0.0
  0
LINE
  5
84
330
1F
100
AcDbEntity
  8
0
  6
SLD-Сплошная
 62
     7
370
    25
100
AcDbLine
 10
143.6773996246
 20
120.317825644
 30
0.0
 11
146.077971068
 21
120.317825644
 31
0.0
  0
LINE
  5
85
330
1F
100
AcDbEntity
  8
0
  6
SLD-Сплошная
 62
     7
370
    25
100
AcDbLine
 10
153.7929810117
 20
201.1021791034
 30
0.0
 11
142.8682780325
 21
195.7415283873
 31
0.0
  0
ARC
  5
86
330
1F
100
AcDbEntity
  8
0
  6
SLD-Сплошная
 62
     7
370
    25
100
AcDbCircle
 10
144.2406315164
 20
192.9447496028
 30
0.0
 40
3.11533716538267
100
AcDbArc
 50
116.1367597824
 51
180.0
  0
ARC
  5
87
330
1F
100
AcDbEntity
  8
0
  6
SLD-Сплошная
 62
     7
370
    25
100
AcDbCircle
 10
143.625294351
 20
180.967825644
 30
0.0
 40
2.50000000000021
100
AcDbArc
 50
180.0
 51
266.7035548897
  0
LINE
  5
88
330
1F
100
AcDbEntity
  8
0
  6
SLD-Сплошная
 62
     7
370
    25
100
AcDbLine
 10
146.5220984944
 20
117.817825644
 30
0.0
 11
148.5940431302
 21
117.817825644
 31
0.0
  0
LINE
  5
89
330
1F
100
AcDbEntity
  8
0
  6
SLD-Сплошная
 62
     7
370
    25
100
AcDbLine
 10
148.5940431302
 20
119.7867177615
 30
0.0
 11
151.5940431302
 21
119.7867177615
 31
0.0
  0
SPLINE
  5
8A
330
1F
100
AcDbEntity
  8
0
  6
SLD-Сплошная
 62
     7
370
    25
100
AcDbSpline
210
0.0
220
0.0
230
1.0
 70
     8
 71
     3
 72
     8
 73
     4
 74
     0
 42
0.00000001
 43
0.00000001
 40
0.0
 40
0.0
 40
0.0
 40
0.0
 40
1.0
 40
1.0
 40
1.0
 40
1.0
 10
205.174417641777
 20
158.8141886529628
 30
0.0
 10
201.4800425441497
 20
159.8150068348026
 30
0.0
 10
197.7861254431541
 20
160.8123855144391
 30
0.0
 10
194.0940431302141
 20
161.8065682866655
 30
0.0
  0
SPLINE
  5
8B
330
1F
100
AcDbEntity
  8
0
  6
SLD-Сплошная
 62
     7
370
    25
100
AcDbSpline
210
0.0
220
0.0
230
1.0
 70
     8
 71
     3
 72
     8
 73
     4
 74
     0
 42
0.00000001
 43
0.00000001
 40
0.0
 40
0.0
 40
0.0
 40
0.0
 40
1.0
 40
1.0
 40
1.0
 40
1.0
 10
194.0940431302141
 20
156.599340769993
 30
0.0
 10
197.3494200154164
 20
155.7027243413266
 30
0.0
 10
200.6068239938898
 20
154.8130042656779
 30
0.0
 10
203.8641667782371
 20
153.9256079790347
 30
0.0
  0
SPLINE
  5
8C
330
1F
100
AcDbEntity
  8
0
  6
SLD-Сплошная
 62
     7
370
    25
100
AcDbSpline
210
0.0
220
0.0
230
1.0
 70
     8
 71
     3
 72
    16
 73
    12
 74
     0
 42
0.00000001
 43
0.00000001
 40
0.0
 40
0.0
 40
0.0
 40
0.0
 40
0.25
 40
0.25
 40
0.5
 40
0.5
 40
0.75
 40
0.75
 40
0.875
 40
0.875
 40
1.0
 40
1.0
 40
1.0
 40
1.0
 10
203.8641667782371
 20
153.9256079790348
 30
0.0
 10
204.5903963855806
 20
153.7277616056338
 30
0.0
 10
205.3265683438514
 20
153.5779459402424
 30
0.0
 10
206.8105624836648
 20
153.3344514596224
 30
0.0
 10
207.5571789566983
 20
153.2428826947569
 30
0.0
 10
209.057205197458
 20
153.1450595556532
 30
0.0
 10
209.8103784110555
 20
153.1428646203068
 30
0.0
 10
210.9335636602407
 20
153.1972168620284
 30
0.0
 10
211.3074725899019
 20
153.2238364546488
 30
0.0
 10
212.0544419279687
 20
153.2919270686729
 30
0.0
 10
212.4275202036966
 20
153.3330849516452
 30
0.0
 10
212.7999777113805
 20
153.3851164261682
 30
0.0
  0
SPLINE
  5
8D
330
1F
100
AcDbEntity
  8
0
  6
SLD-Сплошная
 62
     7
370
    25
100
AcDbSpline
210
0.0
220
0.0
230
1.0
 70
     8
 71
     3
 72
    14
 73
    10
 74
     0
 42
0.00000001
 43
0.00000001
 40
0.0
 40
0.0
 40
0.0
 40
0.0
 40
0.25
 40
0.25
 40
0.5
 40
0.5
 40
0.75
 40
0.75
 40
1.0
 40
1.0
 40
1.0
 40
1.0
 10
212.110347265123
 20
158.3974270510966
 30
0.0
 10
211.5320788780325
 20
158.3168692014157
 30
0.0
 10
210.9518092816461
 20
158.2646127805119
 30
0.0
 10
209.7877604156186
 20
158.2097943793557
 30
0.0
 10
209.2026351923226
 20
158.2123644459645
 30
0.0
 10
208.039777586541
 20
158.2866299941224
 30
0.0
 10
207.4596238606541
 20
158.3560190918523
 30
0.0
 10
206.3087516224076
 20
158.5439866179298
 30
0.0
 10
205.7380428019823
 20
158.6615007712049
 30
0.0
 10
205.174417641777
 20
158.8141886529628
 30
0.0
  0
SPLINE
  5
8E
330
1F
100
AcDbEntity
  8
0
  6
SLD-Сплошная
 62
     7
370
    25
100
AcDbSpline
210
0.0
220
0.0
230
1.0
 70
     8
 71
     3
 72
     8
 73
     4
 74
     0
 42
0.00000001
 43
0.00000001
 40
0.0
 40
0.0
 40
0.0
 40
0.0
 40
0.0003075835388222
 40
0.0003075835388222
 40
0.0003075835388222
 40
0.0003075835388222
 10
214.0940431302141
 20
158.6701930139114
 30
0.0
 10
213.9923442198308
 20
158.6572339953441
 30
0.0
 10
213.8906495882182
 20
158.6442408582393
 30
0.0
 10
213.7889590632783
 20
158.6312151933031
 30
0.0
  0
SPLINE
  5
8F
330
1F
100
AcDbEntity
  8
0
  6
SLD-Сплошная
 62
     7
370
    25
100
AcDbSpline
210
0.0
220
0.0
230
1.0
 70
     8
 71
     3
 72
    10
 73
     6
 74
     0
 42
0.00000001
 43
0.00000001
 40
0.0
 40
0.0
 40
0.0
 40
0.0
 40
0.5
 40
0.5
 40
1.0
 40
1.0
 40
1.0
 40
1.0
 10
238.8077619626828
 20
162.1007624684295
 30
0.0
 10
234.729233799091
 20
161.5364216361912
 30
0.0
 10
230.625050419569
 20
160.967418472505
 30
0.0
 10
222.3820288542991
 20
159.8230225600512
 30
0.0
 10
218.2434893222839
 20
159.2475807922262
 30
0.0
 10
214.0940431302141
 20
158.6701930139114
 30
0.0
  0
SPLINE
  5
90
330
1F
100
AcDbEntity
  8
0
  6
SLD-Сплошная
 62
     7
370
    25
100
AcDbSpline
210
0.0
220
0.0
230
1.0
 70
     8
 71
     3
 72
     8
 73
     4
 74
     0
 42
0.00000001
 43
0.00000001
 40
0.0
 40
0.0
 40
0.0
 40
0.0
 40
1.0
 40
1.0
 40
1.0
 40
1.0
 10
214.4787690578941
 20
153.6153242892071
 30
0.0
 10
222.9014156885258
 20
154.7893271893028
 30
0.0
 10
231.291284218957
 20
155.9641467885352
 30
0.0
 10
239.5955747832964
 20
157.1404144179094
 30
0.0
  0
SPLINE
  5
91
330
1F
100
AcDbEntity
  8
0
  6
SLD-Сплошная
 62
     7
370
    25
100
AcDbSpline
210
0.0
220
0.0
230
1.0
 70
     8
 71
     3
 72
    11
 73
     7
 74
     0
 42
0.00000001
 43
0.00000001
 40
0.0
 40
0.0
 40
0.0
 40
0.0
 40
0.0005117791613317
 40
0.0005117791613317
 40
0.0005117791613317
 40
0.0013067322566839
 40
0.0013067322566839
 40
0.0013067322566839
 40
0.0013067322566839
 10
214.0940431302141
 20
153.5659521684669
 30
0.0
 10
213.9251039651443
 20
153.5423363162033
 30
0.0
 10
213.7561647012019
 20
153.5187234986687
 30
0.0
 10
213.5872253315379
 20
153.4951138659507
 30
0.0
 10
213.3248096601739
 20
153.4584407231973
 30
0.0
 10
213.0623937070622
 20
153.4217753494336
 30
0.0
 10
212.7999777113804
 20
153.3851164261683
 30
0.0
  0
SPLINE
  5
92
330
1F
100
AcDbEntity
  8
0
  6
SLD-Сплошная
 62
     7
370
    25
100
AcDbSpline
210
0.0
220
0.0
230
1.0
 70
     8
 71
     3
 72
    14
 73
    10
 74
     0
 42
0.00000001
 43
0.00000001
 40
0.0
 40
0.0
 40
0.0
 40
0.0
 40
0.0005117791612315
 40
0.0005117791612315
 40
0.0005117791612315
 40
0.0010235583224628
 40
0.0010235583224628
 40
0.0010235583224628
 40
0.0016949292021516
 40
0.0016949292021516
 40
0.0016949292021516
 40
0.0016949292021516
 10
212.110347265123
 20
158.3974270510966
 30
0.0
 10
212.279298260499
 20
158.4209634040994
 30
0.0
 10
212.4482491538542
 20
158.4444982377448
 30
0.0
 10
212.6171999741343
 20
158.468031244443
 30
0.0
 10
212.7861507944142
 20
158.4915642511412
 30
0.0
 10
212.9551015465359
 20
158.5150954294506
 30
0.0
 10
213.1240522248231
 20
158.5386247187504
 30
0.0
 10
213.3456879868449
 20
158.5694913125793
 30
0.0
 10
213.56732363363
 20
158.6003546381864
 30
0.0
 10
213.7889590632783
 20
158.6312151933031
 30
0.0
  0
SPLINE
  5
93
330
1F
100
AcDbEntity
  8
0
  6
SLD-Сплошная
 62
     7
370
    25
100
AcDbSpline
210
0.0
220
0.0
230
1.0
 70
     8
 71
     3
 72
     8
 73
     4
 74
     0
 42
0.00000001
 43
0.00000001
 40
0.0
 40
0.0
 40
0.0
 40
0.0
 40
0.0003885591855999
 40
0.0003885591855999
 40
0.0003885591855999
 40
0.0003885591855999
 10
214.4787690578941
 20
153.6153242892071
 30
0.0
 10
214.3505359728044
 20
153.5988492893347
 30
0.0
 10
214.2222938079262
 20
153.5823926499552
 30
0.0
 10
214.0940431302141
 20
153.5659521684669
 30
0.0
  0
LINE
  5
94
330
1F
100
AcDbEntity
  8
0
  6
SLD-Сплошная
 62
     7
370
    25
100
AcDbLine
 10
167.9892386542
 20
156.8441597335
 30
0.0
 11
167.9892386542
 21
148.6254020774
 31
0.0
  0
LINE
  5
95
330
1F
100
AcDbEntity
  8
0
  6
SLD-Сплошная
 62
     7
370
    25
100
AcDbLine
 10
170.3373086542
 20
156.8441597335
 30
0.0
 11
167.9892386542
 21
156.8441597335
 31
0.0
  0
LINE
  5
96
330
1F
100
AcDbEntity
  8
0
  6
SLD-Сплошная
 62
     7
370
    25
100
AcDbLine
 10
167.9892386542
 20
148.6254020774
 30
0.0
 11
170.3373086542
 21
148.6254020774
 31
0.0
  0
LINE
  5
97
330
1F
100
AcDbEntity
  8
0
  6
SLD-Сплошная
 62
     7
370
    25
100
AcDbLine
 10
170.3373086542
 20
156.8441597335
 30
0.0
 11
170.3373086542
 21
148.6254020774
 31
0.0
  0
LINE
  5
98
330
1F
100
AcDbEntity
  8
0
  6
SLD-Сплошная
 62
     7
370
    25
100
AcDbLine
 10
173.4680781302
 20
156.8441597335
 30
0.0
 11
171.1200081302
 21
156.8441597335
 31
0.0
  0
LINE
  5
99
330
1F
100
AcDbEntity
  8
0
  6
SLD-Сплошная
 62
     7
370
    25
100
AcDbLine
 10
173.4680781302
 20
156.8441597335
 30
0.0
 11
173.4680781302
 21
151.3152117572
 31
0.0
  0
LINE
  5
9A
330
1F
100
AcDbEntity
  8
0
  6
SLD-Сплошная
 62
     7
370
    25
100
AcDbLine
 10
174.2507776062
 20
151.3152117572
 30
0.0
 11
173.4680781302
 21
151.3152117572
 31
0.0
  0
LINE
  5
9B
330
1F
100
AcDbEntity
  8
0
  6
SLD-Сплошная
 62
     7
370
    25
100
AcDbLine
 10
174.2507776062
 20
156.8441597335
 30
0.0
 11
174.2507776062
 21
151.3152117572
 31
0.0
  0
LINE
  5
9C
330
1F
100
AcDbEntity
  8
0
  6
SLD-Сплошная
 62
     7
370
    25
100
AcDbLine
 10
176.5988476062
 20
156.8441597335
 30
0.0
 11
174.2507776062
 21
156.8441597335
 31
0.0
  0
LINE
  5
9D
330
1F
100
AcDbEntity
  8
0
  6
SLD-Сплошная
 62
     7
370
    25
100
AcDbLine
 10
176.5988476062
 20
156.8441597335
 30
0.0
 11
176.5988476062
 21
148.6254020774
 31
0.0
  0
LINE
  5
9E
330
1F
100
AcDbEntity
  8
0
  6
SLD-Сплошная
 62
     7
370
    25
100
AcDbLine
 10
171.1200081302
 20
148.6254020774
 30
0.0
 11
176.5988476062
 21
148.6254020774
 31
0.0
  0
LINE
  5
9F
330
1F
100
AcDbEntity
  8
0
  6
SLD-Сплошная
 62
     7
370
    25
100
AcDbLine
 10
171.1200081302
 20
156.8441597335
 30
0.0
 11
171.1200081302
 21
148.6254020774
 31
0.0
  0
LINE
  5
A0
330
1F
100
AcDbEntity
  8
0
  6
SLD-Сплошная
 62
     7
370
    25
100
AcDbLine
 10
194.0940431302
 20
124.0301561525
 30
0.0
 11
151.5940431302
 21
124.0301561525
 31
0.0
  0
LINE
  5
A1
330
1F
100
AcDbEntity
  8
0
  6
SLD-Сплошная
 62
     7
370
    25
100
AcDbLine
 10
163.9940431302
 20
169.5472538738
 30
0.0
 11
163.9940431302
 21
142.5181674252
 31
0.0
  0
LINE
  5
A2
330
1F
100
AcDbEntity
  8
0
  6
SLD-Сплошная
 62
     7
370
    25
100
AcDbLine
 10
163.9940431302
 20
142.5181674252
 30
0.0
 11
180.5940431302
 21
142.5181674252
 31
0.0
  0
LINE
  5
A3
330
1F
100
AcDbEntity
  8
0
  6
SLD-Сплошная
 62
     7
370
    25
100
AcDbLine
 10
180.5940431302
 20
169.5472538738
 30
0.0
 11
180.5940431302
 21
142.5181674252
 31
0.0
  0
LINE
  5
A4
330
1F
100
AcDbEntity
  8
0
  6
SLD-Сплошная
 62
     7
370
    25
100
AcDbLine
 10
180.5940431302
 20
169.5472538738
 30
0.0
 11
163.9940431302
 21
169.5472538738
 31
0.0
  0
LINE
  5
A5
330
1F
100
AcDbEntity
  8
0
  6
SLD-Сплошная
 62
     7
370
    25
100
AcDbLine
 10
159.0940431302
 20
185.3696995195
 30
0.0
 11
164.4716690247
 21
185.3696995195
 31
0.0
  0
LINE
  5
A6
330
1F
100
AcDbEntity
  8
0
  6
SLD-Сплошная
 62
     7
370
    25
100
AcDbLine
 10
164.4716690247
 20
185.3696995195
 30
0.0
 11
190.6634380668
 21
185.3696995195
 31
0.0
  0
LINE
  5
A7
330
1F
100
AcDbEntity
  8
0
  6
SLD-Сплошная
 62
     7
370
    25
100
AcDbLine
 10
194.0940431302
 20
188.667825644
 30
0.0
 11
194.0940431302
 21
124.0301561525
 31
0.0
  0
LINE
  5
A8
330
1F
100
AcDbEntity
  8
0
  6
SLD-Сплошная
 62
     7
370
    25
100
AcDbLine
 10
151.5940431302
 20
187.0987281406
 30
0.0
 11
151.5940431302
 21
155.992825644
 31
0.0
  0
LINE
  5
A9
330
1F
100
AcDbEntity
  8
0
  6
SLD-Сплошная
 62
     7
370
    25
100
AcDbLine
 10
167.9892386542
 20
160.3530855848
 30
0.0
 11
167.9892386542
 21
157.6262820738
 31
0.0
  0
LINE
  5
AA
330
1F
100
AcDbEntity
  8
0
  6
SLD-Сплошная
 62
     7
370
    25
100
AcDbLine
 10
172.1841237603
 20
160.3530855848
 30
0.0
 11
167.9892386542
 21
160.3530855848
 31
0.0
  0
LINE
  5
AB
330
1F
100
AcDbEntity
  8
0
  6
SLD-Сплошная
 62
     7
370
    25
100
AcDbLine
 10
172.1841237603
 20
160.4442327871
 30
0.0
 11
172.1841237603
 21
160.3530855848
 31
0.0
  0
SPLINE
  5
AC
330
1F
100
AcDbEntity
  8
0
  6
SLD-Сплошная
 62
     7
370
    25
100
AcDbSpline
210
0.0
220
0.0
230
1.0
 70
     8
 71
     3
 72
     8
 73
     4
 74
     0
 42
0.00000001
 43
0.00000001
 40
0.0
 40
0.0
 40
0.0
 40
0.0
 40
1.0
 40
1.0
 40
1.0
 40
1.0
 10
167.9892386542137
 20
163.8889555640461
 30
0.0
 10
169.3877907186915
 20
162.7537986957624
 30
0.0
 10
170.7858807718855
 20
161.6034545503812
 30
0.0
 10
172.1841237603541
 20
160.4442327871385
 30
0.0
  0
LINE
  5
AD
330
1F
100
AcDbEntity
  8
0
  6
SLD-Сплошная
 62
     7
370
    25
100
AcDbLine
 10
167.9892386542
 20
166.8184331608
 30
0.0
 11
167.9892386542
 21
163.888955564
 31
0.0
  0
SPLINE
  5
AE
330
1F
100
AcDbEntity
  8
0
  6
SLD-Сплошная
 62
     7
370
    25
100
AcDbSpline
210
0.0
220
0.0
230
1.0
 70
     8
 71
     3
 72
     8
 73
     4
 74
     0
 42
0.00000001
 43
0.00000001
 40
0.0
 40
0.0
 40
0.0
 40
0.0
 40
1.0
 40
1.0
 40
1.0
 40
1.0
 10
172.2940431302154
 20
163.3631978793343
 30
0.0
 10
170.8592515314719
 20
164.5325221012222
 30
0.0
 10
169.4245438386378
 20
165.6864882996781
 30
0.0
 10
167.9892386542137
 20
166.8184331607756
 30
0.0
  0
SPLINE
  5
AF
330
1F
100
AcDbEntity
  8
0
  6
SLD-Сплошная
 62
     7
370
    25
100
AcDbSpline
210
0.0
220
0.0
230
1.0
 70
     8
 71
     3
 72
     8
 73
     4
 74
     0
 42
0.00000001
 43
0.00000001
 40
0.0
 40
0.0
 40
0.0
 40
0.0
 40
1.0
 40
1.0
 40
1.0
 40
1.0
 10
176.5988476062135
 20
166.8184331607756
 30
0.0
 10
175.1635423314348
 20
165.6864882284194
 30
0.0
 10
173.7288348065483
 20
164.5325221644568
 30
0.0
 10
172.2940431302154
 20
163.3631978793343
 30
0.0
  0
LINE
  5
B0
330
1F
100
AcDbEntity
  8
0
  6
SLD-Сплошная
 62
     7
370
    25
100
AcDbLine
 10
176.5988476062
 20
166.8184331608
 30
0.0
 11
176.5988476062
 21
163.888955564
 31
0.0
  0
SPLINE
  5
B1
330
1F
100
AcDbEntity
  8
0
  6
SLD-Сплошная
 62
     7
370
    25
100
AcDbSpline
210
0.0
220
0.0
230
1.0
 70
     8
 71
     3
 72
     8
 73
     4
 74
     0
 42
0.00000001
 43
0.00000001
 40
0.0
 40
0.0
 40
0.0
 40
0.0
 40
1.0
 40
1.0
 40
1.0
 40
1.0
 10
172.4039625000722
 20
160.4442327871403
 30
0.0
 10
173.8022054452335
 20
161.6034545144779
 30
0.0
 10
175.2002955948258
 20
162.7537987388546
 30
0.0
 10
176.5988476062135
 20
163.8889555640461
 30
0.0
  0
LINE
  5
B2
330
1F
100
AcDbEntity
  8
0
  6
SLD-Сплошная
 62
     7
370
    25
100
AcDbLine
 10
172.4039625001
 20
160.4442327871
 30
0.0
 11
172.4039625001
 21
160.3530855848
 31
0.0
  0
LINE
  5
B3
330
1F
100
AcDbEntity
  8
0
  6
SLD-Сплошная
 62
     7
370
    25
100
AcDbLine
 10
176.5988476062
 20
160.3530855848
 30
0.0
 11
172.4039625001
 21
160.3530855848
 31
0.0
  0
LINE
  5
B4
330
1F
100
AcDbEntity
  8
0
  6
SLD-Сплошная
 62
     7
370
    25
100
AcDbLine
 10
167.9892386542
 20
157.6262820738
 30
0.0
 11
176.5988476062
 21
157.6262820738
 31
0.0
  0
LINE
  5
B5
330
1F
100
AcDbEntity
  8
0
  6
SLD-Сплошная
 62
     7
370
    25
100
AcDbLine
 10
176.5988476062
 20
160.3530855848
 30
0.0
 11
176.5988476062
 21
157.6262820738
 31
0.0
  0
LINE
  5
B6
330
1F
100
AcDbEntity
  8
0
  6
SLD-Сплошная
 62
     7
370
    25
100
AcDbLine
 10
180.5940431302
 20
169.3815028388
 30
0.0
 11
163.9940431302
 21
169.3815028388
 31
0.0
  0
LINE
  5
B7
330
1F
100
AcDbEntity
  8
0
  6
SLD-Сплошная
 62
     7
370
    25
100
AcDbLine
 10
163.9940431302
 20
142.6835537434
 30
0.0
 11
180.5940431302
 21
142.6835537434
 31
0.0
  0
LINE
  5
B8
330
1F
100
AcDbEntity
  8
0
  6
SLD-Сплошная
 62
     7
370
    25
100
AcDbLine
 10
170.3373086542
 20
147.8658037018
 30
0.0
 11
167.9892386542
 21
147.8658037018
 31
0.0
  0
LINE
  5
B9
330
1F
100
AcDbEntity
  8
0
  6
SLD-Сплошная
 62
     7
370
    25
100
AcDbLine
 10
170.3373086542
 20
147.8658037018
 30
0.0
 11
170.3373086542
 21
145.2480382331
 31
0.0
  0
LINE
  5
BA
330
1F
100
AcDbEntity
  8
0
  6
SLD-Сплошная
 62
     7
370
    25
100
AcDbLine
 10
167.9892386542
 20
145.2480382331
 30
0.0
 11
170.3373086542
 21
145.2480382331
 31
0.0
  0
LINE
  5
BB
330
1F
100
AcDbEntity
  8
0
  6
SLD-Сплошная
 62
     7
370
    25
100
AcDbLine
 10
167.9892386542
 20
147.8658037018
 30
0.0
 11
167.9892386542
 21
145.2480382331
 31
0.0
  0
LINE
  5
BC
330
1F
100
AcDbEntity
  8
0
  6
SLD-Сплошная
 62
     7
370
    25
100
AcDbLine
 10
171.1200081302
 20
147.8658037018
 30
0.0
 11
171.1200081302
 21
145.2480382331
 31
0.0
  0
LINE
  5
BD
330
1F
100
AcDbEntity
  8
0
  6
SLD-Сплошная
 62
     7
370
    25
100
AcDbLine
 10
176.5988476062
 20
147.8658037018
 30
0.0
 11
176.5988476062
 21
145.2480382331
 31
0.0
  0
LINE
  5
BE
330
1F
100
AcDbEntity
  8
0
  6
SLD-Сплошная
 62
     7
370
    25
100
AcDbLine
 10
171.1200081302
 20
145.2480382331
 30
0.0
 11
176.5988476062
 21
145.2480382331
 31
0.0
  0
LINE
  5
BF
330
1F
100
AcDbEntity
  8
0
  6
SLD-Сплошная
 62
     7
370
    25
100
AcDbLine
 10
176.5988476062
 20
147.8658037018
 30
0.0
 11
171.1200081302
 21
147.8658037018
 31
0.0
  0
ARC
  5
C0
330
1F
100
AcDbEntity
  8
0
  6
SLD-Сплошная
 62
     7
370
    25
100
AcDbCircle
 10
209.0940431302
 20
128.367825644
 30
0.0
 40
3.500000000000006
100
AcDbArc
 50
214.849904579
 51
325.150095421
  0
SPLINE
  5
C1
330
1F
100
AcDbEntity
  8
0
  6
SLD-Сплошная
 62
     7
370
    25
100
AcDbSpline
210
0.0
220
0.0
230
1.0
 70
     8
 71
     3
 72
    28
 73
    24
 74
     0
 42
0.00000001
 43
0.00000001
 40
0.0
 40
0.0
 40
0.0
 40
0.0
 40
0.1250000000000003
 40
0.1250000000000003
 40
0.1875000000000004
 40
0.1875000000000004
 40
0.2500000000000006
 40
0.2500000000000006
 40
0.3750000000000007
 40
0.3750000000000007
 40
0.4375000000000006
 40
0.4375000000000006
 40
0.5000000000000006
 40
0.5000000000000006
 40
0.6250000000000004
 40
0.6250000000000004
 40
0.7500000000000002
 40
0.7500000000000002
 40
0.8750000000000001
 40
0.8750000000000001
 40
0.9375000000000001
 40
0.9375000000000001
 40
1.0
 40
1.0
 40
1.0
 40
1.0
 10
210.9589480999829
 20
145.7454165259387
 30
0.0
 10
210.6155462629089
 20
144.3451314408118
 30
0.0
 10
210.2849334655435
 20
142.9932885941091
 30
0.0
 10
209.8053982619722
 20
141.0381416584096
 30
0.0
 10
209.6484314871726
 20
140.3985510199855
 30
0.0
 10
209.3406951635133
 20
139.144093341612
 30
0.0
 10
209.1910966086676
 20
138.5340914745895
 30
0.0
 10
208.7580760275132
 20
136.7625415967239
 30
0.0
 10
208.4891346329615
 20
135.6556537859715
 30
0.0
 10
208.110895234747
 20
134.1073625085654
 30
0.0
 10
207.9891280597002
 20
133.6099987082182
 30
0.0
 10
207.7548559255025
 20
132.6536996417491
 30
0.0
 10
207.641941714622
 20
132.1930898841043
 30
0.0
 10
207.324291212874
 20
130.8912994469247
 30
0.0
 10
207.1390927411214
 20
130.1246120602659
 30
0.0
 10
206.8138876200361
 20
128.7905340348767
 30
0.0
 10
206.6737101744502
 20
128.2230743846797
 30
0.0
 10
206.4476801605296
 20
127.297837178015
 30
0.0
 10
206.3652345232581
 20
126.9511743912804
 30
0.0
 10
206.281609997062
 20
126.6026172993076
 30
0.0
 10
206.2603862135017
 20
126.5149996614406
 30
0.0
 10
206.2310356637959
 20
126.3975990835754
 30
0.0
 10
206.2228970699789
 20
126.3678256440305
 30
0.0
 10
206.2217618069451
 20
126.3678256440305
 30
0.0
  0
SPLINE
  5
C2
330
1F
100
AcDbEntity
  8
0
  6
SLD-Сплошная
 62
     7
370
    25
100
AcDbSpline
210
0.0
220
0.0
230
1.0
 70
     8
 71
     3
 72
    12
 73
     8
 74
     0
 42
0.00000001
 43
0.00000001
 40
0.0
 40
0.0
 40
0.0
 40
0.0
 40
0.5000000000000004
 40
0.5000000000000004
 40
0.7500000000000002
 40
0.7500000000000002
 40
1.0
 40
1.0
 40
1.0
 40
1.0
 10
214.0940431302141
 20
134.6864985712162
 30
0.0
 10
214.4665334474568
 20
136.0911146330139
 30
0.0
 10
214.8719009068909
 20
137.6180452895342
 30
0.0
 10
215.5273671947684
 20
140.0869013975948
 30
0.0
 10
215.7542915298036
 20
140.9398145701198
 30
0.0
 10
216.2188205613311
 20
142.6826658745274
 30
0.0
 10
216.457145398862
 20
143.5753494234891
 30
0.0
 10
216.7005845423675
 20
144.4895342690288
 30
0.0
  0
SPLINE
  5
C3
330
1F
100
AcDbEntity
  8
0
  6
SLD-Сплошная
 62
     7
370
    25
100
AcDbSpline
210
0.0
220
0.0
230
1.0
 70
     8
 71
     3
 72
    18
 73
    14
 74
     0
 42
0.00000001
 43
0.00000001
 40
0.0
 40
0.0
 40
0.0
 40
0.0
 40
0.25
 40
0.25
 40
0.375
 40
0.375
 40
0.5
 40
0.5
 40
0.625
 40
0.625
 40
0.75
 40
0.75
 40
1.0
 40
1.0
 40
1.0
 40
1.0
 10
211.9663244534831
 20
126.3678256440305
 30
0.0
 10
211.9676569407034
 20
126.3678256440344
 30
0.0
 10
212.0134385529302
 20
126.5526952150489
 30
0.0
 10
212.1543932725188
 20
127.1025329014922
 30
0.0
 10
212.2136768084781
 20
127.3327331852974
 30
0.0
 10
212.3527914071251
 20
127.8759241427789
 30
0.0
 10
212.4327463655612
 20
128.1894393271118
 30
0.0
 10
212.613965059573
 20
128.8981880111225
 30
0.0
 10
212.7152251286575
 20
129.2934243614738
 30
0.0
 10
212.9390139723262
 20
130.1657990245596
 30
0.0
 10
213.0618601574379
 20
130.6441526003401
 30
0.0
 10
213.4593506510395
 20
132.1978513683379
 30
0.0
 10
213.7584446996288
 20
133.3734478538487
 30
0.0
 10
214.0940431302141
 20
134.6864985712162
 30
0.0
  0
SPLINE
  5
C4
330
1F
100
AcDbEntity
  8
0
  6
SLD-Сплошная
 62
     7
370
    25
100
AcDbSpline
210
0.0
220
0.0
230
1.0
 70
     8
 71
     3
 72
    32
 73
    28
 74
     0
 42
0.00000001
 43
0.00000001
 40
0.0
 40
0.0
 40
0.0
 40
0.0
 40
0.0625000000000003
 40
0.0625000000000003
 40
0.1250000000000006
 40
0.1250000000000006
 40
0.1875000000000009
 40
0.1875000000000009
 40
0.2500000000000012
 40
0.2500000000000012
 40
0.3750000000000018
 40
0.3750000000000018
 40
0.4375000000000016
 40
0.4375000000000016
 40
0.5000000000000014
 40
0.5000000000000014
 40
0.5625000000000013
 40
0.5625000000000013
 40
0.6250000000000011
 40
0.6250000000000011
 40
0.7500000000000009
 40
0.7500000000000009
 40
0.8125000000000007
 40
0.8125000000000007
 40
0.8750000000000004
 40
0.8750000000000004
 40
1.0
 40
1.0
 40
1.0
 40
1.0
 10
239.5955747832965
 20
157.1404144179094
 30
0.0
 10
239.9790511258805
 20
157.1947322196434
 30
0.0
 10
240.3615415174278
 20
157.2201091651328
 30
0.0
 10
241.1252532684516
 20
157.2353191015287
 30
0.0
 10
241.5064533296721
 20
157.2244961566416
 30
0.0
 10
242.2675324753488
 20
157.1661793122914
 30
0.0
 10
242.6473734760639
 20
157.1172249122842
 30
0.0
 10
243.4054280788077
 20
156.9755559981383
 30
0.0
 10
243.7806540033989
 20
156.8833355885365
 30
0.0
 10
244.8775408379668
 20
156.5467299085736
 30
0.0
 10
245.5793617483035
 20
156.2462693048553
 30
0.0
 10
246.5892201176987
 20
155.6901602226501
 30
0.0
 10
246.9181365560484
 20
155.4863696987961
 30
0.0
 10
247.5448149661877
 20
155.0499576300368
 30
0.0
 10
247.8443748345336
 20
154.8161296207902
 30
0.0
 10
248.414726532969
 20
154.3165327851415
 30
0.0
 10
248.685820985526
 20
154.0511310134391
 30
0.0
 10
249.200608641492
 20
153.4908970636773
 30
0.0
 10
249.4454681390095
 20
153.1942266331939
 30
0.0
 10
250.1215124903518
 20
152.278229083573
 30
0.0
 10
250.4986804637164
 20
151.6304366445061
 30
0.0
 10
250.9559422044931
 20
150.6081588577693
 30
0.0
 10
251.0907357767232
 20
150.2568842170309
 30
0.0
 10
251.3215607005049
 20
149.5495267541608
 30
0.0
 10
251.4176905583415
 20
149.1942093005088
 30
0.0
 10
251.6520465971737
 20
148.124671545858
 30
0.0
 10
251.7391032840036
 20
147.4075021374394
 30
0.0
 10
251.7391032840037
 20
146.6832573994886
 30
0.0
  0
SPLINE
  5
C5
330
1F
100
AcDbEntity
  8
0
  6
SLD-Сплошная
 62
     7
370
    25
100
AcDbSpline
210
0.0
220
0.0
230
1.0
 70
     8
 71
     3
 72
    17
 73
    13
 74
     0
 42
0.00000001
 43
0.00000001
 40
0.0
 40
0.0
 40
0.0
 40
0.0
 40
0.0359650443108595
 40
0.1408221045852413
 40
0.2485936162124133
 40
0.3566540247139077
 40
0.4676003318392338
 40
0.5802198409592213
 40
0.6957062836273606
 40
0.8150540836658211
 40
0.9380069894473969
 40
1.0
 40
1.0
 40
1.0
 40
1.0
 10
256.0255920285097
 20
150.8612938442882
 30
0.0
 10
255.9689484838734
 20
151.1156876377587
 30
0.0
 10
255.7471591514898
 20
152.1117734226196
 30
0.0
 10
254.9697471294957
 20
153.8041139808352
 30
0.0
 10
253.7231043804702
 20
155.8515992674105
 30
0.0
 10
252.1122756098587
 20
157.7233780528102
 30
0.0
 10
250.1913979858207
 20
159.3371419944655
 30
0.0
 10
247.9848306343543
 20
160.6442245250384
 30
0.0
 10
245.5479724226219
 20
161.6227153930315
 30
0.0
 10
242.9133855453756
 20
162.1811291383895
 30
0.0
 10
240.6320692404236
 20
162.2920379216549
 30
0.0
 10
239.265746865047
 20
162.1487813909207
 30
0.0
 10
238.8077619626828
 20
162.1007624684295
 30
0.0
  0
LINE
  5
C6
330
1F
100
AcDbEntity
  8
0
  6
SLD-Сплошная
 62
     7
370
    25
100
AcDbLine
 10
256.5694805932
 20
146.9886426268
 30
0.0
 11
256.5940431302
 21
147.1254797626
 31
0.0
  0
SPLINE
  5
C7
330
1F
100
AcDbEntity
  8
0
  6
SLD-Сплошная
 62
     7
370
    25
100
AcDbSpline
210
0.0
220
0.0
230
1.0
 70
     8
 71
     3
 72
    16
 73
    12
 74
     0
 42
0.00000001
 43
0.00000001
 40
0.0
 40
0.0
 40
0.0
 40
0.0
 40
0.2500000000000023
 40
0.2500000000000023
 40
0.5000000000000047
 40
0.5000000000000047
 40
0.6250000000000042
 40
0.6250000000000042
 40
0.7500000000000039
 40
0.7500000000000039
 40
1.0
 40
1.0
 40
1.0
 40
1.0
 10
210.9589480999829
 20
145.7454165259387
 30
0.0
 10
211.1645499052423
 20
145.9303473523016
 30
0.0
 10
211.3931781761272
 20
146.0914587825345
 30
0.0
 10
211.8842880312678
 20
146.3576907950487
 30
0.0
 10
212.1477921950128
 20
146.4629308325232
 30
0.0
 10
212.5527328705275
 20
146.5727663493782
 30
0.0
 10
212.6900572172004
 20
146.6017239392924
 30
0.0
 10
212.9695083606615
 20
146.6439076091089
 30
0.0
 10
213.111854356334
 20
146.6570115103931
 30
0.0
 10
213.5348669122361
 20
146.6714100697474
 30
0.0
 10
213.8152778238183
 20
146.6488780448464
 30
0.0
 10
214.0940431302141
 20
146.5933270261383
 30
0.0
  0
SPLINE
  5
C8
330
1F
100
AcDbEntity
  8
0
  6
SLD-Сплошная
 62
     7
370
    25
100
AcDbSpline
210
0.0
220
0.0
230
1.0
 70
     8
 71
     3
 72
    18
 73
    14
 74
     0
 42
0.00000001
 43
0.00000001
 40
0.0
 40
0.0
 40
0.0
 40
0.0
 40
0.2499999999999998
 40
0.2499999999999998
 40
0.3749999999999991
 40
0.3749999999999991
 40
0.4999999999999984
 40
0.4999999999999984
 40
0.749999999999998
 40
0.749999999999998
 40
0.874999999999999
 40
0.874999999999999
 40
1.0
 40
1.0
 40
1.0
 40
1.0
 10
214.0940431302141
 20
146.5933270261383
 30
0.0
 10
214.3955053171417
 20
146.5416992789208
 30
0.0
 10
214.6822321390867
 20
146.4538849392432
 30
0.0
 10
215.0908315891809
 20
146.2701306570243
 30
0.0
 10
215.2242361592706
 20
146.1994918412019
 30
0.0
 10
215.4767699983726
 20
146.0440572823992
 30
0.0
 10
215.596495908484
 20
145.9591412108944
 30
0.0
 10
215.9363888542905
 20
145.6834190524991
 30
0.0
 10
216.1395752473866
 20
145.4681659571022
 30
0.0
 10
216.3889426571789
 20
145.1207057681862
 30
0.0
 10
216.4634198347895
 20
145.0005089556091
 30
0.0
 10
216.595137755724
 20
144.7515320727974
 30
0.0
 10
216.6530625879216
 20
144.6208659867529
 30
0.0
 10
216.7005845423674
 20
144.4895342690288
 30
0.0
  0
LINE
  5
C9
330
1F
100
AcDbEntity
  8
0
  6
SLD-Сплошная
 62
     7
370
    25
100
AcDbLine
 10
251.739103284
 20
131.8740201187
 30
0.0
 11
251.739103284
 21
146.6832573995
 31
0.0
  0
SPLINE
  5
CA
330
1F
100
AcDbEntity
  8
0
  6
SLD-Сплошная
 62
     7
370
    25
100
AcDbSpline
210
0.0
220
0.0
230
1.0
 70
     8
 71
     3
 72
    28
 73
    24
 74
     0
 42
0.00000001
 43
0.00000001
 40
0.0
 40
0.0
 40
0.0
 40
0.0
 40
0.125
 40
0.125
 40
0.1875
 40
0.1875
 40
0.2499999999999999
 40
0.2499999999999999
 40
0.3749999999999999
 40
0.3749999999999999
 40
0.4999999999999999
 40
0.4999999999999999
 40
0.625
 40
0.625
 40
0.6875
 40
0.6875
 40
0.75
 40
0.75
 40
0.8125
 40
0.8125
 40
0.875
 40
0.875
 40
1.0
 40
1.0
 40
1.0
 40
1.0
 10
234.1144068096276
 20
128.5660960855859
 30
0.0
 10
234.1155235842451
 20
128.5662644765174
 30
0.0
 10
234.1407470849902
 20
128.6620039397133
 30
0.0
 10
234.2138393488354
 20
128.9447384887648
 30
0.0
 10
234.2441347074165
 20
129.0622726304748
 30
0.0
 10
234.3170857649779
 20
129.3444107741564
 30
0.0
 10
234.359892251057
 20
129.5095914245739
 30
0.0
 10
234.5062851126772
 20
130.072242180314
 30
0.0
 10
234.6274598179129
 20
130.5370179093895
 30
0.0
 10
234.9142276081827
 20
131.6398319636263
 30
0.0
 10
235.0785141227628
 20
132.2727149121991
 30
0.0
 10
235.4485423653534
 20
133.6998658394605
 30
0.0
 10
235.6518136042025
 20
134.4865742752382
 30
0.0
 10
235.9837541062093
 20
135.7722376694128
 30
0.0
 10
236.0988895183378
 20
136.2183104289604
 30
0.0
 10
236.3365572414413
 20
137.1389300207553
 30
0.0
 10
236.4592979209138
 20
137.6142818424686
 30
0.0
 10
236.712633153271
 20
138.5949332665033
 30
0.0
 10
236.8434881884716
 20
139.1011693435166
 30
0.0
 10
237.1104654907391
 20
140.1339613991048
 30
0.0
 10
237.2468185804626
 20
140.6614619387206
 30
0.0
 10
237.663893123667
 20
142.2767623963027
 30
0.0
 10
237.9526082238476
 20
143.3971855227054
 30
0.0
 10
238.2506670048454
 20
144.5619380931619
 30
0.0
  0
SPLINE
  5
CB
330
1F
100
AcDbEntity
  8
0
  6
SLD-Сплошная
 62
     7
370
    25
100
AcDbSpline
210
0.0
220
0.0
230
1.0
 70
     8
 71
     3
 72
    24
 73
    20
 74
     0
 42
0.00000001
 43
0.00000001
 40
0.0
 40
0.0
 40
0.0
 40
0.0
 40
0.1249999999999998
 40
0.1249999999999998
 40
0.2499999999999997
 40
0.2499999999999997
 40
0.3124999999999996
 40
0.3124999999999996
 40
0.3749999999999996
 40
0.3749999999999996
 40
0.4999999999999997
 40
0.4999999999999997
 40
0.6249999999999997
 40
0.6249999999999997
 40
0.7499999999999998
 40
0.7499999999999998
 40
0.8749999999999998
 40
0.8749999999999998
 40
1.0
 40
1.0
 40
1.0
 40
1.0
 10
232.7630345812801
 20
145.497347087033
 30
0.0
 10
232.9736079191483
 20
145.6799176522063
 30
0.0
 10
233.2049656774952
 20
145.8398023552173
 30
0.0
 10
233.6973285531203
 20
146.1060302185181
 30
0.0
 10
233.9595959028204
 20
146.2126290130628
 30
0.0
 10
234.3599620826419
 20
146.3264063830915
 30
0.0
 10
234.4953031474856
 20
146.3570011854406
 30
0.0
 10
234.7698535874975
 20
146.4031789967777
 30
0.0
 10
234.9095523798965
 20
146.4186868168555
 30
0.0
 10
235.3235126385864
 20
146.4411905295097
 30
0.0
 10
235.5961476854048
 20
146.425296685925
 30
0.0
 10
236.1345501582237
 20
146.3310952835663
 30
0.0
 10
236.3942156238901
 20
146.2532970800673
 30
0.0
 10
236.8811449519522
 20
146.0426300892994
 30
0.0
 10
237.1128183695475
 20
145.9070826570048
 30
0.0
 10
237.5247612232054
 20
145.5924549344533
 30
0.0
 10
237.7082674008458
 20
145.4122320946804
 30
0.0
 10
238.024221680324
 20
145.0097440193773
 30
0.0
 10
238.1524599818711
 20
144.7932418005112
 30
0.0
 10
238.2506670048452
 20
144.5619380931615
 30
0.0
  0
SPLINE
  5
CC
330
1F
100
AcDbEntity
  8
0
  6
SLD-Сплошная
 62
     7
370
    25
100
AcDbSpline
210
0.0
220
0.0
230
1.0
 70
     8
 71
     3
 72
    28
 73
    24
 74
     0
 42
0.00000001
 43
0.00000001
 40
0.0
 40
0.0
 40
0.0
 40
0.0
 40
0.1249999999999998
 40
0.1249999999999998
 40
0.1874999999999998
 40
0.1874999999999998
 40
0.2499999999999998
 40
0.2499999999999998
 40
0.3124999999999999
 40
0.3124999999999999
 40
0.3750000000000001
 40
0.3750000000000001
 40
0.4375000000000002
 40
0.4375000000000002
 40
0.5000000000000002
 40
0.5000000000000002
 40
0.6250000000000001
 40
0.6250000000000001
 40
0.75
 40
0.75
 40
0.875
 40
0.875
 40
1.0
 40
1.0
 40
1.0
 40
1.0
 10
232.7630345812803
 20
145.4973470870334
 30
0.0
 10
232.452395597943
 20
144.218186460731
 30
0.0
 10
232.1522581037303
 20
142.9848154733293
 30
0.0
 10
231.7168999594383
 20
141.2025614869669
 30
0.0
 10
231.5742965758095
 20
140.6198200511068
 30
0.0
 10
231.2944547785229
 20
139.4774138009385
 30
0.0
 10
231.1572116629141
 20
138.9175722143628
 30
0.0
 10
230.8912200766311
 20
137.8327885619829
 30
0.0
 10
230.762066205246
 20
137.3063507832877
 30
0.0
 10
230.5114666553692
 20
136.2855866158644
 30
0.0
 10
230.3898054451233
 20
135.7903836407512
 30
0.0
 10
230.156177481539
 20
134.8397193696585
 30
0.0
 10
230.0440608555238
 20
134.3836441111436
 30
0.0
 10
229.8294902100793
 20
133.5101326649736
 30
0.0
 10
229.7268645734107
 20
133.0919109482908
 30
0.0
 10
229.4358200809473
 20
131.9025956627313
 30
0.0
 10
229.2625584117945
 20
131.1971331306187
 30
0.0
 10
228.9610868047546
 20
129.9684919958056
 30
0.0
 10
228.8344589397705
 20
129.4515407989269
 30
0.0
 10
228.6294791237253
 20
128.6142378920111
 30
0.0
 10
228.552332163734
 20
128.3012280810655
 30
0.0
 10
228.4520270508488
 20
127.8819578310187
 30
0.0
 10
228.4282109810823
 20
127.7753740819605
 30
0.0
 10
228.4245888026565
 20
127.7749127645111
 30
0.0
  0
LINE
  5
CD
330
1F
100
AcDbEntity
  8
0
  6
SLD-Сплошная
 62
     7
370
    25
100
AcDbLine
 10
256.5940431302
 20
179.017825644
 30
0.0
 11
256.5940431302
 21
147.1254797626
 31
0.0
  0
ARC
  5
CE
330
1F
100
AcDbEntity
  8
0
  6
SLD-Сплошная
 62
     7
370
    25
100
AcDbCircle
 10
230.9940431302
 20
130.151444788
 30
0.0
 40
3.500000000000018
100
AcDbArc
 50
222.7662629337
 51
333.0664537756
  0
LINE
  5
CF
330
1F
100
AcDbEntity
  8
0
  6
SLD-Сплошная
 62
     7
370
    25
100
AcDbLine
 10
266.1434877803
 20
181.3255511244
 30
0.0
 11
266.1434877803
 21
181.4179909478
 31
0.0
  0
LINE
  5
D0
330
1F
100
AcDbEntity
  8
0
  6
SLD-Сплошная
 62
     7
370
    25
100
AcDbLine
 10
266.1434877803
 20
170.546494933
 30
0.0
 11
266.1434877803
 21
181.3255511244
 31
0.0
  0
LINE
  5
D1
330
1F
100
AcDbEntity
  8
0
  6
SLD-Сплошная
 62
     7
370
    25
100
AcDbLine
 10
266.1434877803
 20
166.796494933
 30
0.0
 11
266.1434877803
 21
170.546494933
 31
0.0
  0
LINE
  5
D2
330
1F
100
AcDbEntity
  8
0
  6
SLD-Сплошная
 62
     7
370
    25
100
AcDbLine
 10
266.1434877803
 20
156.0174387417
 30
0.0
 11
266.1434877803
 21
166.796494933
 31
0.0
  0
LINE
  5
D3
330
1F
100
AcDbEntity
  8
0
  6
SLD-Сплошная
 62
     7
370
    25
100
AcDbLine
 10
264.1434877803
 20
156.0174387417
 30
0.0
 11
264.1434877803
 21
181.4179909478
 31
0.0
  0
LINE
  5
D4
330
1F
100
AcDbEntity
  8
0
  6
SLD-Сплошная
 62
     7
370
    25
100
AcDbLine
 10
266.1434877803
 20
141.4883825503
 30
0.0
 11
266.1434877803
 21
145.2383825503
 31
0.0
  0
LINE
  5
D5
330
1F
100
AcDbEntity
  8
0
  6
SLD-Сплошная
 62
     7
370
    25
100
AcDbLine
 10
266.1434877803
 20
130.7093263589
 30
0.0
 11
266.1434877803
 21
141.4883825503
 31
0.0
  0
LINE
  5
D6
330
1F
100
AcDbEntity
  8
0
  6
SLD-Сплошная
 62
     7
370
    25
100
AcDbLine
 10
266.1434877803
 20
130.6168865355
 30
0.0
 11
266.1434877803
 21
130.7093263589
 31
0.0
  0
LINE
  5
D7
330
1F
100
AcDbEntity
  8
0
  6
SLD-Сплошная
 62
     7
370
    25
100
AcDbLine
 10
264.1434877803
 20
130.6168865355
 30
0.0
 11
264.1434877803
 21
156.0174387417
 31
0.0
  0
LINE
  5
D8
330
1F
100
AcDbEntity
  8
0
  6
SLD-Сплошная
 62
     7
370
    25
100
AcDbLine
 10
266.1434877803
 20
145.2383825503
 30
0.0
 11
266.1434877803
 21
156.0174387417
 31
0.0
  0
LINE
  5
D9
330
1F
100
AcDbEntity
  8
0
  6
SLD-Сплошная
 62
     7
370
    25
100
AcDbLine
 10
256.5940431302
 20
147.1254797626
 30
0.0
 11
256.5940431302
 21
133.017825644
 31
0.0
  0
LINE
  5
DA
330
1F
100
AcDbEntity
  8
0
  6
SLD-Сплошная
 62
     7
370
    25
100
AcDbLine
 10
275.1434877803
 20
166.796494933
 30
0.0
 11
266.1434877803
 21
166.796494933
 31
0.0
  0
LINE
  5
DB
330
1F
100
AcDbEntity
  8
0
  6
SLD-Сплошная
 62
     7
370
    25
100
AcDbLine
 10
275.1434877803
 20
145.2383825503
 30
0.0
 11
275.1434877803
 21
166.796494933
 31
0.0
  0
LINE
  5
DC
330
1F
100
AcDbEntity
  8
0
  6
SLD-Сплошная
 62
     7
370
    25
100
AcDbLine
 10
266.1434877803
 20
145.2383825503
 30
0.0
 11
275.1434877803
 21
145.2383825503
 31
0.0
  0
LINE
  5
DD
330
1F
100
AcDbEntity
  8
0
  6
SLD-Сплошная
 62
     7
370
    25
100
AcDbLine
 10
266.1434877803
 20
170.546494933
 30
0.0
 11
275.1434877803
 21
170.546494933
 31
0.0
  0
LINE
  5
DE
330
1F
100
AcDbEntity
  8
0
  6
SLD-Сплошная
 62
     7
370
    25
100
AcDbLine
 10
275.1434877803
 20
166.796494933
 30
0.0
 11
275.1434877803
 21
170.546494933
 31
0.0
  0
LINE
  5
DF
330
1F
100
AcDbEntity
  8
0
  6
SLD-Сплошная
 62
     7
370
    25
100
AcDbLine
 10
275.1434877803
 20
141.4883825503
 30
0.0
 11
266.1434877803
 21
141.4883825503
 31
0.0
  0
LINE
  5
E0
330
1F
100
AcDbEntity
  8
0
  6
SLD-Сплошная
 62
     7
370
    25
100
AcDbLine
 10
275.1434877803
 20
141.4883825503
 30
0.0
 11
275.1434877803
 21
145.2383825503
 31
0.0
  0
LINE
  5
E1
330
1F
100
AcDbEntity
  8
0
  6
SLD-Сплошная
 62
     7
370
    25
100
AcDbLine
 10
266.1434877803
 20
130.7093263589
 30
0.0
 11
275.1434877803
 21
130.7093263589
 31
0.0
  0
LINE
  5
E2
330
1F
100
AcDbEntity
  8
0
  6
SLD-Сплошная
 62
     7
370
    25
100
AcDbLine
 10
275.1434877803
 20
130.7093263589
 30
0.0
 11
275.1434877803
 21
141.4883825503
 31
0.0
  0
LINE
  5
E3
330
1F
100
AcDbEntity
  8
0
  6
SLD-Сплошная
 62
     7
370
    25
100
AcDbLine
 10
275.1434877803
 20
181.3255511244
 30
0.0
 11
266.1434877803
 21
181.3255511244
 31
0.0
  0
LINE
  5
E4
330
1F
100
AcDbEntity
  8
0
  6
SLD-Сплошная
 62
     7
370
    25
100
AcDbLine
 10
275.1434877803
 20
170.546494933
 30
0.0
 11
275.1434877803
 21
181.3255511244
 31
0.0
  0
LINE
  5
E5
330
1F
100
AcDbEntity
  8
0
  6
SLD-Сплошная
 62
     7
370
    25
100
AcDbLine
 10
287.1531067235
 20
152.9473546476
 30
0.0
 11
293.9955053118
 21
152.9473546476
 31
0.0
  0
LINE
  5
E6
330
1F
100
AcDbEntity
  8
0
  6
SLD-Сплошная
 62
     7
370
    25
100
AcDbLine
 10
287.1531067235
 20
159.0875228357
 30
0.0
 11
293.9955053118
 21
159.0875228357
 31
0.0
  0
LINE
  5
E7
330
1F
100
AcDbEntity
  8
0
  6
SLD-Сплошная
 62
     7
370
    25
100
AcDbLine
 10
287.1531067235
 20
159.0875228357
 30
0.0
 11
275.1434877803
 21
159.0875228357
 31
0.0
  0
LINE
  5
E8
330
1F
100
AcDbEntity
  8
0
  6
SLD-Сплошная
 62
     7
370
    25
100
AcDbLine
 10
287.1531067235
 20
152.9473546476
 30
0.0
 11
275.1434877803
 21
152.9473546476
 31
0.0
  0
ARC
  5
E9
330
1F
100
AcDbEntity
  8
0
  6
SLD-Сплошная
 62
     7
370
    25
100
AcDbCircle
 10
287.1531067235
 20
156.0174387417
 30
0.0
 40
15.00000000000006
100
AcDbArc
 50
309.5869195216
 51
330.0
  0
LINE
  5
EA
330
1F
100
AcDbEntity
  8
0
  6
SLD-Сплошная
 62
     7
370
    25
100
AcDbLine
 10
296.7118277278
 20
144.4575575675
 30
0.0
 11
293.9955053118
 21
143.0268203879
 31
0.0
  0
ARC
  5
EB
330
1F
100
AcDbEntity
  8
0
  6
SLD-Сплошная
 62
     7
370
    25
100
AcDbCircle
 10
287.1531067235
 20
156.0174387417
 30
0.0
 40
14.68245836551859
100
AcDbArc
 50
270.0
 51
297.7766046258
  0
ARC
  5
EC
330
1F
100
AcDbEntity
  8
0
  6
SLD-Сплошная
 62
     7
370
    25
100
AcDbCircle
 10
293.7083587461
 20
156.0174387417
 30
0.0
 40
3.083483337883618
100
AcDbArc
 50
275.3433591458
 51
84.6566408542
  0
ARC
  5
ED
330
1F
100
AcDbEntity
  8
0
  6
SLD-Сплошная
 62
     7
370
    25
100
AcDbCircle
 10
287.1531067235
 20
156.0174387417
 30
0.0
 40
14.68245836551851
100
AcDbArc
 50
62.2233953742
 51
90.0
  0
LINE
  5
EE
330
1F
100
AcDbEntity
  8
0
  6
SLD-Сплошная
 62
     7
370
    25
100
AcDbLine
 10
293.9955053118
 20
169.0080570954
 30
0.0
 11
296.7118277278
 21
167.5773199158
 31
0.0
  0
ARC
  5
EF
330
1F
100
AcDbEntity
  8
0
  6
SLD-Сплошная
 62
     7
370
    25
100
AcDbCircle
 10
287.1531067235
 20
156.0174387417
 30
0.0
 40
15.00000000000006
100
AcDbArc
 50
30.0
 51
50.4130804784
  0
LINE
  5
F0
330
1F
100
AcDbEntity
  8
0
  6
SLD-Сплошная
 62
     7
370
    25
100
AcDbLine
 10
300.1434877803
 20
156.0174387417
 30
0.0
 11
300.1434877803
 21
163.5174387417
 31
0.0
  0
LINE
  5
F1
330
1F
100
AcDbEntity
  8
0
  6
SLD-Сплошная
 62
     7
370
    25
100
AcDbLine
 10
300.1434877803
 20
148.5174387417
 30
0.0
 11
300.1434877803
 21
156.0174387417
 31
0.0
  0
LINE
  5
F2
330
1F
100
AcDbEntity
  8
0
  6
SLD-Сплошная
 62
     7
370
    25
100
AcDbLine
 10
287.1531067235
 20
170.6998971072
 30
0.0
 11
275.1434877803
 21
170.6998971072
 31
0.0
  0
LINE
  5
F3
330
1F
100
AcDbEntity
  8
0
  6
SLD-Сплошная
 62
     7
370
    25
100
AcDbLine
 10
287.1531067235
 20
141.3349803761
 30
0.0
 11
275.1434877803
 21
141.3349803761
 31
0.0
  0
CIRCLE
  5
F4
330
1F
100
AcDbEntity
  8
0
  6
SLD-Сплошная
 62
     7
370
    25
100
AcDbCircle
 10
164.0940431302
 20
196.367825644
 30
0.0
 40
2.099999999999994
  0
ARC
  5
F5
330
1F
100
AcDbEntity
  8
0
  6
SLD-Сплошная
 62
     7
370
    25
100
AcDbCircle
 10
164.0940431302
 20
196.367825644
 30
0.0
 40
5.000000000000032
100
AcDbArc
 50
57.5
 51
180.0
  0
LINE
  5
F6
330
1F
100
AcDbEntity
  8
0
  6
SLD-Сплошная
 62
     7
370
    25
100
AcDbLine
 10
166.7805411719
 20
200.5847828731
 30
0.0
 11
190.6634380668
 21
185.3696995195
 31
0.0
  0
LINE
  5
F7
330
1F
100
AcDbEntity
  8
0
  6
SLD-Сплошная
 62
     7
370
    25
100
AcDbLine
 10
159.0940431302
 20
185.3696995195
 30
0.0
 11
159.0940431302
 21
196.367825644
 31
0.0
  0
LINE
  5
F8
330
1F
100
AcDbEntity
  8
0
  6
SLD-Сплошная
 62
     7
370
    25
100
AcDbLine
 10
194.0940431302
 20
119.517825644
 30
0.0
 11
194.0940431302
 21
124.0301561525
 31
0.0
  0
LINE
  5
F9
330
1F
100
AcDbEntity
  8
0
  6
SLD-Сплошная
 62
     7
370
    25
100
AcDbLine
 10
151.5940431302
 20
119.517825644
 30
0.0
 11
151.5940431302
 21
124.0301561525
 31
0.0
  0
LINE
  5
FA
330
1F
100
AcDbEntity
  8
0
  6
SLD-Сплошная
 62
     7
370
    25
100
AcDbLine
 10
151.5940431302
 20
123.9758901602
 30
0.0
 11
151.5940431302
 21
155.992825644
 31
0.0
  0
LINE
  5
FB
330
1F
100
AcDbEntity
  8
0
  6
SLD-Сплошная
 62
     7
370
    25
100
AcDbLine
 10
148.5940431302
 20
123.9512283857
 30
0.0
 11
151.5940431302
 21
123.9512283857
 31
0.0
  0
LINE
  5
FC
330
1F
100
AcDbEntity
  8
0
  6
SLD-Сплошная
 62
     7
370
    25
100
AcDbLine
 10
148.5940431302
 20
124.8869231475
 30
0.0
 11
145.1905681032
 21
124.8869231475
 31
0.0
  0
LINE
  5
FD
330
1F
100
AcDbEntity
  8
0
  6
SLD-Сплошная
 62
     7
370
    25
100
AcDbLine
 10
145.1905681032
 20
124.8869231475
 30
0.0
 11
145.1905681032
 21
187.0487281406
 31
0.0
  0
LINE
  5
FE
330
1F
100
AcDbEntity
  8
0
  6
SLD-Сплошная
 62
     7
370
    25
100
AcDbLine
 10
145.1905681032
 20
187.0487281406
 30
0.0
 11
151.5940431302
 21
187.0487281406
 31
0.0
  0
ARC
  5
FF
330
1F
100
AcDbEntity
  8
0
  6
SLD-Сплошная
 62
     7
370
    25
100
AcDbCircle
 10
142.6269069805
 20
178.9969423853
 30
0.0
 40
1.002995684104657
100
AcDbArc
 50
328.4385833218
 51
354.5055334823
  0
SPLINE
  5
100
330
1F
100
AcDbEntity
  8
0
  6
SLD-Сплошная
 62
     7
370
    25
100
AcDbSpline
210
0.0
220
0.0
230
1.0
 70
     8
 71
     3
 72
    14
 73
    10
 74
     0
 42
0.00000001
 43
0.00000001
 40
0.0
 40
0.0
 40
0.0
 40
0.0
 40
0.25
 40
0.25
 40
0.5
 40
0.5
 40
0.75
 40
0.75
 40
1.0
 40
1.0
 40
1.0
 40
1.0
 10
144.030497496477
 20
180.9678256440305
 30
0.0
 10
143.9958552379091
 20
180.7633482639086
 30
0.0
 10
143.9607078043789
 20
180.5632312929307
 30
0.0
 10
143.8894442333704
 20
180.171383652382
 30
0.0
 10
143.8531259151311
 20
179.9788141594744
 30
0.0
 10
143.7832813094122
 20
179.6224105142101
 30
0.0
 10
143.7489503209532
 20
179.454350673467
 30
0.0
 10
143.6838156822191
 20
179.1504943892825
 30
0.0
 10
143.653435043366
 20
179.0164980471883
 30
0.0
 10
143.6252943510118
 20
178.9009059305144
 30
0.0
  0
ARC
  5
101
330
1F
100
AcDbEntity
  8
0
  6
SLD-Сплошная
 62
     7
370
    25
100
AcDbCircle
 10
291.5940431302
 20
155.967825644
 30
0.0
 40
149.6662954709576
100
AcDbArc
 50
168.0142731271
 51
170.3843374027
  0
ARC
  5
102
330
1F
100
AcDbEntity
  8
0
  6
SLD-Сплошная
 62
     7
370
    25
100
AcDbCircle
 10
291.5940431302
 20
155.967825644
 30
0.0
 40
149.6662954709575
100
AcDbArc
 50
189.6156625973
 51
191.9857268729
  0
SPLINE
  5
103
330
1F
100
AcDbEntity
  8
0
  6
SLD-Сплошная
 62
     7
370
    25
100
AcDbSpline
210
0.0
220
0.0
230
1.0
 70
     8
 71
     3
 72
    14
 73
    10
 74
     0
 42
0.00000001
 43
0.00000001
 40
0.0
 40
0.0
 40
0.0
 40
0.0
 40
0.25
 40
0.25
 40
0.5
 40
0.5
 40
0.75
 40
0.75
 40
1.0
 40
1.0
 40
1.0
 40
1.0
 10
144.030497496477
 20
130.9678256440305
 30
0.0
 10
144.0010341755678
 20
131.1417341280107
 30
0.0
 10
143.9711702874955
 20
131.3126740876336
 30
0.0
 10
143.9106730558635
 20
131.6488371593065
 30
0.0
 10
143.8797004174325
 20
131.8157771905655
 30
0.0
 10
143.8193268681803
 20
132.1310220824121
 30
0.0
 10
143.7897788333922
 20
132.2802635125844
 30
0.0
 10
143.7319756510481
 20
132.5617489637197
 30
0.0
 10
143.7038722494322
 20
132.6931517914882
 30
0.0
 10
143.6773996245645
 20
132.811145421995
 30
0.0
  0
ARC
  5
104
330
1F
100
AcDbEntity
  8
0
  6
SLD-Сплошная
 62
     7
370
    25
100
AcDbCircle
 10
141.7695756162
 20
132.5908972336
 30
0.0
 40
1.920495173462873
100
AcDbArc
 50
6.5853425325
 51
26.912962864
  0
SPLINE
  5
105
330
1F
100
AcDbEntity
  8
0
  6
SLD-Сплошная
 62
     7
370
    25
100
AcDbSpline
210
0.0
220
0.0
230
1.0
 70
     8
 71
     3
 72
    10
 73
     6
 74
     0
 42
0.00000001
 43
0.00000001
 40
0.0
 40
0.0
 40
0.0
 40
0.0
 40
0.1576263302445653
 40
0.6768309948692869
 40
1.0
 40
1.0
 40
1.0
 40
1.0
 10
146.0485949018343
 20
120.8178256440305
 30
0.0
 10
146.0559787312208
 20
120.7698542760221
 30
0.0
 10
146.0876841232188
 20
120.5638702333561
 30
0.0
 10
146.1117973601265
 20
120.3423943255331
 30
0.0
 10
146.0873500546403
 20
120.3473064916678
 30
0.0
 10
146.0779710680032
 20
120.3491909995766
 30
0.0
  0
SPLINE
  5
106
330
1F
100
AcDbEntity
  8
0
  6
SLD-Сплошная
 62
     7
370
    25
100
AcDbSpline
210
0.0
220
0.0
230
1.0
 70
     8
 71
     3
 72
    12
 73
     8
 74
     0
 42
0.00000001
 43
0.00000001
 40
0.0
 40
0.0
 40
0.0
 40
0.0
 40
0.0402402838188427
 40
0.2952141232122014
 40
0.5575804053467881
 40
0.7765148443151455
 40
1.0
 40
1.0
 40
1.0
 40
1.0
 10
146.5220828191471
 20
117.8458222567878
 30
0.0
 10
146.5235156087117
 20
117.8368431555373
 30
0.0
 10
146.5340269589043
 20
117.7709699247516
 30
0.0
 10
146.4896524528036
 20
118.0490212765824
 30
0.0
 10
146.3908686928403
 20
118.6683756692357
 30
0.0
 10
146.2411691937884
 20
119.6076151080996
 30
0.0
 10
146.1132250093631
 20
120.4116653187037
 30
0.0
 10
146.0485949018343
 20
120.8178256440305
 30
0.0
  0
LINE
  5
107
330
1F
100
AcDbEntity
  8
0
  6
SLD-Сплошная
 62
     7
370
    25
100
AcDbLine
 10
148.5940431302
 20
122.817825644
 30
0.0
 11
148.5940431302
 21
120.817825644
 31
0.0
  0
LINE
  5
108
330
1F
100
AcDbEntity
  8
0
  6
SLD-Сплошная
 62
     7
370
    25
100
AcDbLine
 10
159.4681536293
 20
201.1021791034
 30
0.0
 11
153.7929810117
 21
201.1021791034
 31
0.0
  0
LINE
  5
109
330
1F
100
AcDbEntity
  8
0
  6
SLD-Сплошная
 62
     7
370
    25
100
AcDbLine
 10
148.5940431302
 20
124.8869231475
 30
0.0
 11
148.5940431302
 21
122.817825644
 31
0.0
  0
LINE
  5
10A
330
1F
100
AcDbEntity
  8
0
  6
SLD-Сплошная
 62
     7
370
    25
100
AcDbLine
 10
159.0940431302
 20
190.167825644
 30
0.0
 11
151.5940431302
 21
190.167825644
 31
0.0
  0
LINE
  5
10B
330
1F
100
AcDbEntity
  8
0
  6
SLD-Сплошная
 62
     7
370
    25
100
AcDbLine
 10
159.4681536293
 20
201.1021791034
 30
0.0
 11
162.4859705815
 21
201.1021791034
 31
0.0
  0
LINE
  5
10C
330
1F
100
AcDbEntity
  8
0
  6
SLD-Сплошная
 62
     7
370
    25
100
AcDbLine
 10
165.7021156789
 20
201.1021791034
 30
0.0
 11
168.0972789866
 21
201.1021791034
 31
0.0
  0
ARC
  5
10D
330
1F
100
AcDbEntity
  8
0
  6
SLD-Сплошная
 62
     7
370
    25
100
AcDbCircle
 10
164.0940431302
 20
196.367825644
 30
0.0
 40
6.199999999999984
100
AcDbArc
 50
21.2506791171
 51
49.783080999
  0
LINE
  5
10E
330
1F
100
AcDbEntity
  8
0
  6
SLD-Сплошная
 62
     7
370
    25
100
AcDbLine
 10
151.5940431302
 20
190.167825644
 30
0.0
 11
151.5940431302
 21
187.0987281406
 31
0.0
  0
LINE
  5
10F
330
1F
100
AcDbEntity
  8
0
  6
SLD-Сплошная
 62
     7
370
    25
100
AcDbLine
 10
148.5940431302
 20
120.817825644
 30
0.0
 11
148.5940431302
 21
117.817825644
 31
0.0
  0
ARC
  5
110
330
1F
100
AcDbEntity
  8
0
  6
SLD-Сплошная
 62
     7
370
    25
100
AcDbCircle
 10
148.0940431302
 20
216.367825644
 30
0.0
 40
20.00000000000018
100
AcDbArc
 50
315.8277907087
 51
345.8146087234
  0
LINE
  5
111
330
1F
100
AcDbEntity
  8
0
  6
SLD-Сплошная
 62
     7
370
    25
100
AcDbLine
 10
169.7972789866
 20
209.1925588551
 30
0.0
 11
167.4842004199
 21
211.4666216817
 31
0.0
  0
LINE
  5
112
330
1F
100
AcDbEntity
  8
0
  6
SLD-Сплошная
 62
     7
370
    25
100
AcDbLine
 10
168.0972789866
 20
201.1021791034
 30
0.0
 11
169.7972789866
 21
209.1925588551
 31
0.0
  0
LINE
  5
113
330
1F
100
AcDbEntity
  8
0
  6
SLD-Сплошная
 62
     7
370
    25
100
AcDbLine
 10
159.7299769585
 20
201.1021791034
 30
0.0
 11
162.4390166468
 21
202.4314798242
 31
0.0
  0
SPLINE
  5
114
330
1F
100
AcDbEntity
  8
0
  6
SLD-Сплошная
 62
     7
370
    25
100
AcDbSpline
210
0.0
220
0.0
230
1.0
 70
     8
 71
     3
 72
     9
 73
     5
 74
     0
 42
0.00000001
 43
0.00000001
 40
0.0
 40
0.0
 40
0.0
 40
0.0
 40
0.5781685811469587
 40
1.0
 40
1.0
 40
1.0
 40
1.0
 10
105.6947842441428
 20
161.6577928386725
 30
0.0
 10
105.3625573712068
 20
161.8508657752393
 30
0.0
 10
104.7879379889551
 20
162.1848046001126
 30
0.0
 10
104.2173883161281
 20
162.1982407055803
 30
0.0
 10
103.9767125381134
 20
162.2039084770137
 30
0.0
  0
SPLINE
  5
115
330
1F
100
AcDbEntity
  8
0
  6
SLD-Сплошная
 62
     7
370
    25
100
AcDbSpline
210
0.0
220
0.0
230
1.0
 70
     8
 71
     3
 72
    16
 73
    12
 74
     0
 42
0.00000001
 43
0.00000001
 40
0.0
 40
0.0
 40
0.0
 40
0.0
 40
0.1642593588205101
 40
0.2964877463061464
 40
0.3981670482868551
 40
0.5116540956842283
 40
0.6142886617336222
 40
0.7229383607686423
 40
0.859951597612428
 40
0.9395097924179356
 40
1.0
 40
1.0
 40
1.0
 40
1.0
 10
101.9457778148539
 20
146.1348694231081
 30
0.0
 10
102.25352427403
 20
146.9081703384879
 30
0.0
 10
102.8090058902373
 20
148.3039766247402
 30
0.0
 10
103.4169580867376
 20
150.185852713579
 30
0.0
 10
103.8709212111012
 20
151.774368532379
 30
0.0
 10
104.2244084368147
 20
153.1564404416042
 30
0.0
 10
104.5382916612481
 20
154.4640811439576
 30
0.0
 10
104.8300654927808
 20
155.7039002411267
 30
0.0
 10
105.0538830582278
 20
156.6440205151544
 30
0.0
 10
105.2608645757581
 20
157.2750835796156
 30
0.0
 10
105.2189169148146
 20
157.2819797487736
 30
0.0
 10
105.2007987308525
 20
157.2849583668569
 30
0.0
  0
ARC
  5
116
330
1F
100
AcDbEntity
  8
0
  6
SLD-Сплошная
 62
     7
370
    25
100
AcDbCircle
 10
78.371350081
 20
156.017825644
 30
0.0
 40
25.56220805799829
100
AcDbArc
 50
202.7445807064
 51
337.2554192936
  0
SPLINE
  5
117
330
1F
100
AcDbEntity
  8
0
  6
SLD-Сплошная
 62
     7
370
    25
100
AcDbSpline
210
0.0
220
0.0
230
1.0
 70
     8
 71
     3
 72
    18
 73
    14
 74
     0
 42
0.00000001
 43
0.00000001
 40
0.0
 40
0.0
 40
0.0
 40
0.0
 40
0.0333139421035703
 40
0.0980540684416225
 40
0.2137915450521904
 40
0.3135253378340746
 40
0.3797131179432082
 40
0.4467928463074373
 40
0.5348879847752112
 40
0.6224520036406426
 40
0.7293770398551898
 40
0.8546590373215404
 40
1.0
 40
1.0
 40
1.0
 40
1.0
 10
51.4250315294237
 20
157.5414603387727
 30
0.0
 10
51.41394965564514
 20
157.5503900942382
 30
0.0
 10
51.38133199645115
 20
157.5766733497852
 30
0.0
 10
51.55728595400176
 20
157.1082490854126
 30
0.0
 10
51.71701199596706
 20
156.4908558988238
 30
0.0
 10
51.95030303246312
 20
155.5479986499131
 30
0.0
 10
52.1515139517311
 20
154.6893169756073
 30
0.0
 10
52.36111950939494
 20
153.8079124543433
 30
0.0
 10
52.61801759710065
 20
152.761907648003
 30
0.0
 10
52.95343568260771
 20
151.4802065563411
 30
0.0
 10
53.39126720877958
 20
149.9734278194284
 30
0.0
 10
53.99554547355848
 20
148.1416751574645
 30
0.0
 10
54.51691516415598
 20
146.8360626308275
 30
0.0
 10
54.79692234722081
 20
146.1348694231081
 30
0.0
  0
SPLINE
  5
118
330
1F
100
AcDbEntity
  8
0
  6
SLD-Сплошная
 62
     7
370
    25
100
AcDbSpline
210
0.0
220
0.0
230
1.0
 70
     8
 71
     3
 72
     9
 73
     5
 74
     0
 42
0.00000001
 43
0.00000001
 40
0.0
 40
0.0
 40
0.0
 40
0.0
 40
0.4218314188530515
 40
1.0
 40
1.0
 40
1.0
 40
1.0
 10
52.76598762396138
 20
162.2039084770137
 30
0.0
 10
52.52531184594661
 20
162.1982407055803
 30
0.0
 10
51.95476217311958
 20
162.1848046001126
 30
0.0
 10
51.3801427908679
 20
161.8508657752393
 30
0.0
 10
51.0479159179319
 20
161.6577928386724
 30
0.0
  0
SPLINE
  5
119
330
1F
100
AcDbEntity
  8
0
  6
SLD-Сплошная
 62
     7
370
    25
100
AcDbSpline
210
0.0
220
0.0
230
1.0
 70
     8
 71
     3
 72
    12
 73
     8
 74
     0
 42
0.00000001
 43
0.00000001
 40
0.0
 40
0.0
 40
0.0
 40
0.0
 40
0.1594953375052702
 40
0.3412264648293654
 40
0.5429132359909291
 40
0.7626743569781618
 40
1.0
 40
1.0
 40
1.0
 40
1.0
 10
109.7872696470354
 20
157.2891327583515
 30
0.0
 10
109.6461372375638
 20
157.5427021202261
 30
0.0
 10
109.3441966673245
 20
158.0851918148773
 30
0.0
 10
108.7423243911911
 20
158.9054949275204
 30
0.0
 10
107.9549065839716
 20
159.7894811337345
 30
0.0
 10
106.9515346761489
 20
160.7246296961006
 30
0.0
 10
106.114216321083
 20
161.3459097094604
 30
0.0
 10
105.6794692824966
 20
161.6684867129466
 30
0.0
  0
SPLINE
  5
11A
330
1F
100
AcDbEntity
  8
0
  6
SLD-Сплошная
 62
     7
370
    25
100
AcDbSpline
210
0.0
220
0.0
230
1.0
 70
     8
 71
     3
 72
    12
 73
     8
 74
     0
 42
0.00000001
 43
0.00000001
 40
0.0
 40
0.0
 40
0.0
 40
0.0
 40
0.1579613432929491
 40
0.3369787244720504
 40
0.5376216109530138
 40
0.759960555577914
 40
0.9999999999999999
 40
0.9999999999999999
 40
0.9999999999999999
 40
0.9999999999999999
 10
51.06323087957808
 20
161.6684867129465
 30
0.0
 10
50.76732262235516
 20
161.4523029419095
 30
0.0
 10
50.13606192906769
 20
160.9911183894299
 30
0.0
 10
49.24969095011558
 20
160.2304444125945
 30
0.0
 10
48.38044286382711
 20
159.3566688229656
 30
0.0
 10
47.57583675834671
 20
158.3710234211162
 30
0.0
 10
47.16744388210319
 20
157.6588506402749
 30
0.0
 10
46.95543051503928
 20
157.2891327583513
 30
0.0
  0
SPLINE
  5
11B
330
1F
100
AcDbEntity
  8
0
  6
SLD-Сплошная
 62
     7
370
    25
100
AcDbSpline
210
0.0
220
0.0
230
1.0
 70
     8
 71
     3
 72
    22
 73
    18
 74
     0
 42
0.00000001
 43
0.00000001
 40
0.0
 40
0.0
 40
0.0
 40
0.0
 40
0.0958779171009962
 40
0.1823776351943027
 40
0.2604718335448083
 40
0.3297596161375895
 40
0.4081423819929603
 40
0.4714790225345779
 40
0.5282906452474064
 40
0.5682813867229889
 40
0.6060255999756328
 40
0.6415372530532011
 40
0.6819918370804109
 40
0.7379228515790025
 40
0.8094705346084182
 40
0.8967577834149505
 40
1.0
 40
1.0
 40
1.0
 40
1.0
 10
78.37135008103736
 20
126.6514452341538
 30
0.0
 10
79.46270405559312
 20
126.6888101588733
 30
0.0
 10
81.53866234773791
 20
126.7598851969592
 30
0.0
 10
84.46488455430125
 20
127.2685591734167
 30
0.0
 10
87.03057629785197
 20
127.9664897043642
 30
0.0
 10
89.43309605470793
 20
128.8588816462115
 30
0.0
 10
91.59258390006069
 20
129.8866929245706
 30
0.0
 10
93.53026837314476
 20
131.019787884937
 30
0.0
 10
95.02125082841862
 20
132.0409105907823
 30
0.0
 10
96.21942097550995
 20
132.9684996973612
 30
0.0
 10
97.18938252692216
 20
133.7941862943876
 30
0.0
 10
98.12509519241299
 20
134.6639142104449
 30
0.0
 10
99.16268451297927
 20
135.7198369279121
 30
0.0
 10
100.4040684505287
 20
137.1358594045547
 30
0.0
 10
101.843000127582
 20
139.0604228865419
 30
0.0
 10
103.3885665719259
 20
141.5509250218329
 30
0.0
 10
104.2415637155394
 20
143.492008409435
 30
0.0
 10
104.7037773456799
 20
144.5438234192582
 30
0.0
  0
SPLINE
  5
11C
330
1F
100
AcDbEntity
  8
0
  6
SLD-Сплошная
 62
     7
370
    25
100
AcDbSpline
210
0.0
220
0.0
230
1.0
 70
     8
 71
     3
 72
    22
 73
    18
 74
     0
 42
0.00000001
 43
0.00000001
 40
0.0
 40
0.0
 40
0.0
 40
0.0
 40
0.1032422165850417
 40
0.1905294653915687
 40
0.2620771484209822
 40
0.3180081629195745
 40
0.3584627469467878
 40
0.3939744000243604
 40
0.4317186132770073
 40
0.4717093547525919
 40
0.5285209774654221
 40
0.5918576180070396
 40
0.6702403838624106
 40
0.7395281664551917
 40
0.8176223648056975
 40
0.9041220828990039
 40
1.0
 40
1.0
 40
1.0
 40
1.0
 10
52.03892281639479
 20
144.5438234192582
 30
0.0
 10
52.50113644653525
 20
143.4920084094351
 30
0.0
 10
53.35413359014866
 20
141.5509250218331
 30
0.0
 10
54.89970003449253
 20
139.0604228865423
 30
0.0
 10
56.33863171154572
 20
137.135859404555
 30
0.0
 10
57.58001564909513
 20
135.7198369279124
 30
0.0
 10
58.61760496966149
 20
134.6639142104452
 30
0.0
 10
59.55331763515239
 20
133.7941862943878
 30
0.0
 10
60.52327918656466
 20
132.9684996973613
 30
0.0
 10
61.72144933365607
 20
132.0409105907824
 30
0.0
 10
63.21243178892995
 20
131.019787884937
 30
0.0
 10
65.15011626201405
 20
129.8866929245706
 30
0.0
 10
67.30960410736678
 20
128.8588816462115
 30
0.0
 10
69.71212386422278
 20
127.9664897043643
 30
0.0
 10
72.27781560777349
 20
127.2685591734167
 30
0.0
 10
75.20403781433683
 20
126.7598851969592
 30
0.0
 10
77.2799961064816
 20
126.6888101588733
 30
0.0
 10
78.37135008103736
 20
126.6514452341538
 30
0.0
  0
SPLINE
  5
11D
330
1F
100
AcDbEntity
  8
0
  6
SLD-Сплошная
 62
     7
370
    25
100
AcDbSpline
210
0.0
220
0.0
230
1.0
 70
     8
 71
     3
 72
    12
 73
     8
 74
     0
 42
0.00000001
 43
0.00000001
 40
0.0
 40
0.0
 40
0.0
 40
0.0
 40
0.1022340207109814
 40
0.3181479051232753
 40
0.5330761680137406
 40
0.7606786380275794
 40
1.0
 40
1.0
 40
1.0
 40
1.0
 10
52.81406950548424
 20
146.4313163916828
 30
0.0
 10
52.74469393965627
 20
146.39892240842
 30
0.0
 10
52.52880014245044
 20
146.298113716343
 30
0.0
 10
52.2164614084878
 20
146.0207340422729
 30
0.0
 10
51.97310807186571
 20
145.5698941732285
 30
0.0
 10
51.89340662902575
 20
145.0473521334367
 30
0.0
 10
51.98940195343339
 20
144.7149804563298
 30
0.0
 10
52.03860426483072
 20
144.5446236722095
 30
0.0
  0
SPLINE
  5
11E
330
1F
100
AcDbEntity
  8
0
  6
SLD-Сплошная
 62
     7
370
    25
100
AcDbSpline
210
0.0
220
0.0
230
1.0
 70
     8
 71
     3
 72
    12
 73
     8
 74
     0
 42
0.00000001
 43
0.00000001
 40
0.0
 40
0.0
 40
0.0
 40
0.0
 40
0.1153003982638018
 40
0.3439383621544121
 40
0.5585776566157271
 40
0.7725427873834525
 40
1.0
 40
1.0
 40
1.0
 40
1.0
 10
104.704095897244
 20
144.5446236722095
 30
0.0
 10
104.731399101807
 20
144.6246944943375
 30
0.0
 10
104.8128439155314
 20
144.8635438637562
 30
0.0
 10
104.8305033994095
 20
145.2887420118361
 30
0.0
 10
104.684402318109
 20
145.7729478847837
 30
0.0
 10
104.3768523560219
 20
146.1922933921035
 30
0.0
 10
104.0809951926908
 20
146.3500581536478
 30
0.0
 10
103.9285451712714
 20
146.431351575804
 30
0.0
  0
SPLINE
  5
11F
330
1F
100
AcDbEntity
  8
0
  6
SLD-Сплошная
 62
     7
370
    25
100
AcDbSpline
210
0.0
220
0.0
230
1.0
 70
     8
 71
     3
 72
    13
 73
     9
 74
     0
 42
0.00000001
 43
0.00000001
 40
0.0
 40
0.0
 40
0.0
 40
0.0
 40
0.097261587886365
 40
0.304333316586014
 40
0.5212231700418147
 40
0.7479074014001391
 40
0.9619468871614265
 40
1.0
 40
1.0
 40
1.0
 40
1.0
 10
50.27566329470336
 20
146.680501060619
 30
0.0
 10
50.19824697947064
 20
146.6453725431253
 30
0.0
 10
49.95600988994083
 20
146.5354547588496
 30
0.0
 10
49.6064563473
 20
146.2263284227457
 30
0.0
 10
49.32649622761564
 20
145.7277985202806
 30
0.0
 10
49.23506692735575
 20
145.1628877472291
 30
0.0
 10
49.30234413955566
 20
144.7547338838335
 30
0.0
 10
49.37799660497767
 20
144.5552334031847
 30
0.0
 10
49.38941626513116
 20
144.5251190152827
 30
0.0
  0
SPLINE
  5
120
330
1F
100
AcDbEntity
  8
0
  6
SLD-Сплошная
 62
     7
370
    25
100
AcDbSpline
210
0.0
220
0.0
230
1.0
 70
     8
 71
     3
 72
    13
 73
     9
 74
     0
 42
0.00000001
 43
0.00000001
 40
0.0
 40
0.0
 40
0.0
 40
0.0
 40
0.1169135045596036
 40
0.3373796634150656
 40
0.549131958807066
 40
0.7538443633042928
 40
0.9497483198708904
 40
1.0
 40
1.0
 40
1.0
 40
1.0
 10
107.3532838969436
 20
144.5251190152827
 30
0.0
 10
107.3853169689063
 20
144.6190116395489
 30
0.0
 10
107.4777554521904
 20
144.889959483354
 30
0.0
 10
107.4944731224059
 20
145.3671963927663
 30
0.0
 10
107.3415079564085
 20
145.9002223347196
 30
0.0
 10
107.0297536725262
 20
146.3413626889688
 30
0.0
 10
106.704675402691
 20
146.579201074692
 30
0.0
 10
106.5070327849802
 20
146.6634428557073
 30
0.0
 10
106.4666848419536
 20
146.6806404754325
 30
0.0
  0
SPLINE
  5
121
330
1F
100
AcDbEntity
  8
0
  6
SLD-Сплошная
 62
     7
370
    25
100
AcDbSpline
210
0.0
220
0.0
230
1.0
 70
     8
 71
     3
 72
    20
 73
    16
 74
     0
 42
0.00000001
 43
0.00000001
 40
0.0
 40
0.0
 40
0.0
 40
0.0
 40
0.0930476670642433
 40
0.1791869337451983
 40
0.2575312243314907
 40
0.3273284556626022
 40
0.4060441542389538
 40
0.469471381611919
 40
0.5303615142186789
 40
0.59110925359436
 40
0.6515829680626265
 40
0.7146556009561201
 40
0.7936851406464306
 40
0.8893334386947215
 40
1.0
 40
1.0
 40
1.0
 40
1.0
 10
78.37135008103736
 20
124.8678259740126
 30
0.0
 10
79.53602353249609
 20
124.9074754466737
 30
0.0
 10
81.7788982994393
 20
124.9838305843672
 30
0.0
 10
84.9621277753562
 20
125.5249107817916
 30
0.0
 10
87.79194543351024
 20
126.2807690468622
 30
0.0
 10
90.44856237265472
 20
127.261329344036
 30
0.0
 10
92.83679576902071
 20
128.3892174355973
 30
0.0
 10
95.02078403095057
 20
129.6550519808586
 30
0.0
 10
96.91595985208889
 20
130.9523956854593
 30
0.0
 10
98.67932890243611
 20
132.3591867858026
 30
0.0
 10
100.3544191883002
 20
133.903655716833
 30
0.0
 10
102.0663717225518
 20
135.7263895267105
 30
0.0
 10
103.8787030855137
 20
138.0254121032548
 30
0.0
 10
105.7785323104053
 20
140.979351111661
 30
0.0
 10
106.8034979547149
 20
143.2872013353482
 30
0.0
 10
107.353285903422
 20
144.5251240378783
 30
0.0
  0
SPLINE
  5
122
330
1F
100
AcDbEntity
  8
0
  6
SLD-Сплошная
 62
     7
370
    25
100
AcDbSpline
210
0.0
220
0.0
230
1.0
 70
     8
 71
     3
 72
    20
 73
    16
 74
     0
 42
0.00000001
 43
0.00000001
 40
0.0
 40
0.0
 40
0.0
 40
0.0
 40
0.1106665613052793
 40
0.2063148593535701
 40
0.2853443990438803
 40
0.3484170319373737
 40
0.4088907464056403
 40
0.4696384857813211
 40
0.530528618388081
 40
0.5939558457610463
 40
0.672671544337398
 40
0.7424687756685093
 40
0.8208130662548018
 40
0.9069523329357567
 40
1.0
 40
1.0
 40
1.0
 40
1.0
 10
49.3894142586527
 20
144.5251240378783
 30
0.0
 10
49.93920220735982
 20
143.2872013353482
 30
0.0
 10
50.96416785166944
 20
140.9793511116609
 30
0.0
 10
52.86399707656104
 20
138.0254121032548
 30
0.0
 10
54.67632843952289
 20
135.7263895267105
 30
0.0
 10
56.38828097377453
 20
133.903655716833
 30
0.0
 10
58.06337125963864
 20
132.3591867858026
 30
0.0
 10
59.82674030998583
 20
130.9523956854592
 30
0.0
 10
61.72191613112417
 20
129.6550519808586
 30
0.0
 10
63.90590439305402
 20
128.3892174355973
 30
0.0
 10
66.29413778942
 20
127.2613293440359
 30
0.0
 10
68.95075472856449
 20
126.2807690468622
 30
0.0
 10
71.78057238671853
 20
125.5249107817916
 30
0.0
 10
74.96380186263544
 20
124.9838305843673
 30
0.0
 10
77.20667662957864
 20
124.9074754466737
 30
0.0
 10
78.37135008103736
 20
124.8678259740126
 30
0.0
  0
LINE
  5
123
330
1F
100
AcDbEntity
  8
0
  6
SLD-Сплошная
 62
     7
370
    25
100
AcDbLine
 10
110.0708731892
 20
155.8982659353
 30
0.0
 11
110.068189301
 21
156.1598708421
 31
0.0
  0
LINE
  5
124
330
1F
100
AcDbEntity
  8
0
  6
SLD-Сплошная
 62
     7
370
    25
100
AcDbLine
 10
46.6745108611
 20
156.1598708421
 30
0.0
 11
46.6718269729
 21
155.8982659353
 31
0.0
  0
SPLINE
  5
125
330
1F
100
AcDbEntity
  8
0
  6
SLD-Сплошная
 62
     7
370
    25
100
AcDbSpline
210
0.0
220
0.0
230
1.0
 70
     8
 71
     3
 72
    18
 73
    14
 74
     0
 42
0.00000001
 43
0.00000001
 40
0.0
 40
0.0
 40
0.0
 40
0.0
 40
0.1240624087604265
 40
0.2326651341659476
 40
0.3024512864406389
 40
0.3121647104261119
 40
0.3215311426736209
 40
0.3329085252454055
 40
0.3468806992154208
 40
0.4328166778848218
 40
0.5708423139564898
 40
0.7628740906697529
 40
1.0
 40
1.0
 40
1.0
 40
1.0
 10
107.8127949125621
 20
153.1496212272715
 30
0.0
 10
108.1323274115551
 20
153.2224359618201
 30
0.0
 10
108.7315747781941
 20
153.3589918303727
 30
0.0
 10
109.3644966623182
 20
153.8734014328703
 30
0.0
 10
109.6563379661178
 20
154.2680986617266
 30
0.0
 10
109.7702514645208
 20
154.4710138954686
 30
0.0
 10
109.8043099214814
 20
154.536075623102
 30
0.0
 10
109.833950247908
 20
154.5967711465892
 30
0.0
 10
109.9075094999833
 20
154.7592169206347
 30
0.0
 10
109.9785675374728
 20
154.9793507523208
 30
0.0
 10
110.0459713962979
 20
155.3190852555082
 30
0.0
 10
110.0848299632008
 20
155.7843932634098
 30
0.0
 10
110.0813666517629
 20
156.1970322497441
 30
0.0
 10
110.0794530407506
 20
156.425030950552
 30
0.0
  0
SPLINE
  5
126
330
1F
100
AcDbEntity
  8
0
  6
SLD-Сплошная
 62
     7
370
    25
100
AcDbSpline
210
0.0
220
0.0
230
1.0
 70
     8
 71
     3
 72
    18
 73
    14
 74
     0
 42
0.00000001
 43
0.00000001
 40
0.0
 40
0.0
 40
0.0
 40
0.0
 40
0.2263625328813417
 40
0.4298605464116299
 40
0.5692093588643352
 40
0.6533081064760633
 40
0.6669364668660767
 40
0.6780425492203918
 40
0.6872500084289778
 40
0.7224172464009824
 40
0.7668229579206005
 40
0.8756517791183491
 40
1.0
 40
1.0
 40
1.0
 40
1.0
 10
46.66324576409595
 20
156.4249732541508
 30
0.0
 10
46.66224406563951
 20
156.2054801754201
 30
0.0
 10
46.66034184869421
 20
155.788664664674
 30
0.0
 10
46.69516796875772
 20
155.3367242165677
 30
0.0
 10
46.76183887030979
 20
154.9796008949216
 30
0.0
 10
46.83375836476432
 20
154.7559577204762
 30
0.0
 10
46.90724243962257
 20
154.5937886955406
 30
0.0
 10
46.93677783164382
 20
154.5332886053545
 30
0.0
 10
47.00028604440992
 20
154.4118140161819
 30
0.0
 10
47.12343874010244
 20
154.2099065857423
 30
0.0
 10
47.42797909307678
 20
153.8287066189572
 30
0.0
 10
48.00732211228605
 20
153.3551513567851
 30
0.0
 10
48.60621151918129
 20
153.2183845244981
 30
0.0
 10
48.925586152242
 20
153.1454497616293
 30
0.0
  0
LINE
  5
127
330
1F
100
AcDbEntity
  8
0
  6
SLD-Сплошная
 62
     7
370
    25
100
AcDbLine
 10
110.0795315213
 20
156.4215911838
 30
0.0
 11
109.8650039166
 21
159.4645754843
 31
0.0
  0
LINE
  5
128
330
1F
100
AcDbEntity
  8
0
  6
SLD-Сплошная
 62
     7
370
    25
100
AcDbLine
 10
46.8776962455
 20
159.4645754843
 30
0.0
 11
46.6631686408
 21
156.4215911838
 31
0.0
  0
LINE
  5
129
330
1F
100
AcDbEntity
  8
0
  6
SLD-Сплошная
 62
     7
370
    25
100
AcDbLine
 10
92.671350081
 20
201.367825644
 30
0.0
 11
88.671350081
 21
201.367825644
 31
0.0
  0
LINE
  5
12A
330
1F
100
AcDbEntity
  8
0
  6
SLD-Сплошная
 62
     7
370
    25
100
AcDbLine
 10
68.071350081
 20
201.367825644
 30
0.0
 11
64.071350081
 21
201.367825644
 31
0.0
  0
LWPOLYLINE
  5
12B
330
1F
100
AcDbEntity
  8
0
  6
SLD-Сплошная
 62
     7
370
    25
100
AcDbPolyline
 90
        9
 70
   128
 43
0.0
 10
78.3719401054
 20
167.5773199158
 10
78.9708838
 20
167.6048111295
 10
79.5468104242
 20
167.6862282988
 10
80.077587441
 20
167.8184426074
 10
80.5428173872
 20
167.9963731336
 10
80.9246217369
 20
168.2131821072
 10
81.208327963
 20
168.4605376807
 10
81.3830333945
 20
168.7289341183
 10
81.4420241995
 20
169.0080570954
  0
LINE
  5
12C
330
1F
100
AcDbEntity
  8
0
  6
SLD-Сплошная
 62
     7
370
    25
100
AcDbLine
 10
81.4420241995
 20
170.6998971072
 30
0.0
 11
81.4420241995
 21
169.0080570954
 31
0.0
  0
ARC
  5
12D
330
1F
100
AcDbEntity
  8
0
  6
SLD-Сплошная
 62
     7
370
    25
100
AcDbCircle
 10
78.3719401054
 20
156.0174387417
 30
0.0
 40
14.99999999999999
100
AcDbArc
 50
11.8103148958
 51
78.1896851042
  0
LINE
  5
12E
330
1F
100
AcDbEntity
  8
0
  6
SLD-Сплошная
 62
     7
370
    25
100
AcDbLine
 10
93.0543984709
 20
159.0875228357
 30
0.0
 11
91.3625584592
 21
159.0875228357
 31
0.0
  0
LWPOLYLINE
  5
12F
330
1F
100
AcDbEntity
  8
0
  6
SLD-Сплошная
 62
     7
370
    25
100
AcDbPolyline
 90
       12
 70
   128
 43
0.0
 10
91.3625584592
 20
159.0875228357
 10
90.9594732154
 20
158.9631628583
 10
90.5890435409
 20
158.6001578319
 10
90.2812794447
 20
158.0279162648
 10
90.0611141437
 20
157.2927977655
 10
89.9463841211
 20
156.454357263
 10
89.9463841211
 20
155.5805202203
 10
90.0611141437
 20
154.7420797178
 10
90.2812794447
 20
154.0069612185
 10
90.5890435409
 20
153.4347196514
 10
90.9594732154
 20
153.071714625
 10
91.3625584592
 20
152.9473546476
  0
LINE
  5
130
330
1F
100
AcDbEntity
  8
0
  6
SLD-Сплошная
 62
     7
370
    25
100
AcDbLine
 10
93.0543984709
 20
152.9473546476
 30
0.0
 11
91.3625584592
 21
152.9473546476
 31
0.0
  0
ARC
  5
131
330
1F
100
AcDbEntity
  8
0
  6
SLD-Сплошная
 62
     7
370
    25
100
AcDbCircle
 10
78.3719401054
 20
156.0174387417
 30
0.0
 40
15.00000000000002
100
AcDbArc
 50
281.8103148958
 51
348.1896851042
  0
LINE
  5
132
330
1F
100
AcDbEntity
  8
0
  6
SLD-Сплошная
 62
     7
370
    25
100
AcDbLine
 10
81.4420241995
 20
141.3349803761
 30
0.0
 11
81.4420241995
 21
143.0268203879
 31
0.0
  0
LWPOLYLINE
  5
133
330
1F
100
AcDbEntity
  8
0
  6
SLD-Сплошная
 62
     7
370
    25
100
AcDbPolyline
 90
        9
 70
   128
 43
0.0
 10
81.4420241995
 20
143.0268203879
 10
81.3830333945
 20
143.305943365
 10
81.208327963
 20
143.5743398026
 10
80.9246217369
 20
143.8216953761
 10
80.5428173872
 20
144.0385043497
 10
80.077587441
 20
144.2164348759
 10
79.5468104242
 20
144.3486491845
 10
78.9708838
 20
144.4300663538
 10
78.3719401054
 20
144.4575575675
  0
ARC
  5
134
330
1F
100
AcDbEntity
  8
0
  6
SLD-Сплошная
 62
     7
370
    25
100
AcDbCircle
 10
78.3719401054
 20
156.0174387417
 30
0.0
 40
7.500000000000014
100
AcDbArc
 50
270.0
 51
0.0
  0
ARC
  5
135
330
1F
100
AcDbEntity
  8
0
  6
SLD-Сплошная
 62
     7
370
    25
100
AcDbCircle
 10
78.3719401054
 20
156.0174387417
 30
0.0
 40
7.500000000000014
100
AcDbArc
 50
0.0
 51
90.0
  0
LWPOLYLINE
  5
136
330
1F
100
AcDbEntity
  8
0
  6
SLD-Сплошная
 62
     7
370
    25
100
AcDbPolyline
 90
        9
 70
   128
 43
0.0
 10
78.3719401054
 20
144.4575575675
 10
77.7729964109
 20
144.4300663538
 10
77.1970697866
 20
144.3486491845
 10
76.6662927699
 20
144.2164348759
 10
76.2010628237
 20
144.0385043497
 10
75.819258474
 20
143.8216953761
 10
75.5355522478
 20
143.5743398026
 10
75.3608468163
 20
143.305943365
 10
75.3018560113
 20
143.0268203879
  0
LINE
  5
137
330
1F
100
AcDbEntity
  8
0
  6
SLD-Сплошная
 62
     7
370
    25
100
AcDbLine
 10
75.3018560113
 20
141.3349803761
 30
0.0
 11
75.3018560113
 21
143.0268203879
 31
0.0
  0
ARC
  5
138
330
1F
100
AcDbEntity
  8
0
  6
SLD-Сплошная
 62
     7
370
    25
100
AcDbCircle
 10
78.3719401054
 20
156.0174387417
 30
0.0
 40
15.00000000000001
100
AcDbArc
 50
191.8103148958
 51
258.1896851042
  0
LINE
  5
139
330
1F
100
AcDbEntity
  8
0
  6
SLD-Сплошная
 62
     7
370
    25
100
AcDbLine
 10
63.6894817399
 20
152.9473546476
 30
0.0
 11
65.3813217516
 21
152.9473546476
 31
0.0
  0
LWPOLYLINE
  5
13A
330
1F
100
AcDbEntity
  8
0
  6
SLD-Сплошная
 62
     7
370
    25
100
AcDbPolyline
 90
       12
 70
   128
 43
0.0
 10
65.3813217516
 20
152.9473546476
 10
65.7844069954
 20
153.071714625
 10
66.15483667
 20
153.4347196514
 10
66.4626007661
 20
154.0069612185
 10
66.6827660672
 20
154.7420797178
 10
66.7974960897
 20
155.5805202203
 10
66.7974960897
 20
156.454357263
 10
66.6827660672
 20
157.2927977655
 10
66.4626007661
 20
158.0279162648
 10
66.15483667
 20
158.6001578319
 10
65.7844069954
 20
158.9631628583
 10
65.3813217516
 20
159.0875228357
  0
LINE
  5
13B
330
1F
100
AcDbEntity
  8
0
  6
SLD-Сплошная
 62
     7
370
    25
100
AcDbLine
 10
63.6894817399
 20
159.0875228357
 30
0.0
 11
65.3813217516
 21
159.0875228357
 31
0.0
  0
ARC
  5
13C
330
1F
100
AcDbEntity
  8
0
  6
SLD-Сплошная
 62
     7
370
    25
100
AcDbCircle
 10
78.3719401054
 20
156.0174387417
 30
0.0
 40
14.99999999999999
100
AcDbArc
 50
101.8103148958
 51
168.1896851042
  0
LINE
  5
13D
330
1F
100
AcDbEntity
  8
0
  6
SLD-Сплошная
 62
     7
370
    25
100
AcDbLine
 10
75.3018560113
 20
170.6998971072
 30
0.0
 11
75.3018560113
 21
169.0080570954
 31
0.0
  0
LWPOLYLINE
  5
13E
330
1F
100
AcDbEntity
  8
0
  6
SLD-Сплошная
 62
     7
370
    25
100
AcDbPolyline
 90
        9
 70
   128
 43
0.0
 10
75.3018560113
 20
169.0080570954
 10
75.3608468163
 20
168.7289341183
 10
75.5355522478
 20
168.4605376807
 10
75.819258474
 20
168.2131821072
 10
76.2010628237
 20
167.9963731336
 10
76.6662927699
 20
167.8184426074
 10
77.1970697866
 20
167.6862282988
 10
77.7729964109
 20
167.6048111295
 10
78.3719401054
 20
167.5773199158
  0
ARC
  5
13F
330
1F
100
AcDbEntity
  8
0
  6
SLD-Сплошная
 62
     7
370
    25
100
AcDbCircle
 10
78.3719401054
 20
156.0174387417
 30
0.0
 40
7.5
100
AcDbArc
 50
180.0
 51
270.0
  0
ARC
  5
140
330
1F
100
AcDbEntity
  8
0
  6
SLD-Сплошная
 62
     7
370
    25
100
AcDbCircle
 10
78.3719401054
 20
156.0174387417
 30
0.0
 40
7.5
100
AcDbArc
 50
90.0
 51
180.0
  0
ARC
  5
141
330
1F
100
AcDbEntity
  8
0
  6
SLD-Сплошная
 62
     7
370
    25
100
AcDbCircle
 10
93.3719401054
 20
156.0174387417
 30
0.0
 40
2.499999999999984
100
AcDbArc
 50
300.0
 51
60.0
  0
ARC
  5
142
330
1F
100
AcDbEntity
  8
0
  6
SLD-Сплошная
 62
     7
370
    25
100
AcDbCircle
 10
78.3719401054
 20
141.0174387417
 30
0.0
 40
2.499999999999996
100
AcDbArc
 50
210.0
 51
330.0
  0
ARC
  5
143
330
1F
100
AcDbEntity
  8
0
  6
SLD-Сплошная
 62
     7
370
    25
100
AcDbCircle
 10
78.3719401054
 20
171.0174387417
 30
0.0
 40
2.500000000000022
100
AcDbArc
 50
30.0
 51
150.0
  0
ARC
  5
144
330
1F
100
AcDbEntity
  8
0
  6
SLD-Сплошная
 62
     7
370
    25
100
AcDbCircle
 10
63.3719401054
 20
156.0174387417
 30
0.0
 40
2.500000000000008
100
AcDbArc
 50
120.0
 51
240.0
  0
LINE
  5
145
330
1F
100
AcDbEntity
  8
0
  6
SLD-Сплошная
 62
     7
370
    25
100
AcDbLine
 10
93.0543984709
 20
159.0875228357
 30
0.0
 11
94.6219401054
 21
158.1825022511
 31
0.0
  0
LINE
  5
146
330
1F
100
AcDbEntity
  8
0
  6
SLD-Сплошная
 62
     7
370
    25
100
AcDbLine
 10
94.6219401054
 20
153.8523752322
 30
0.0
 11
93.0543984709
 21
152.9473546476
 31
0.0
  0
LINE
  5
147
330
1F
100
AcDbEntity
  8
0
  6
SLD-Сплошная
 62
     7
370
    25
100
AcDbLine
 10
80.5370036149
 20
172.2674387417
 30
0.0
 11
81.4420241995
 21
170.6998971072
 31
0.0
  0
LINE
  5
148
330
1F
100
AcDbEntity
  8
0
  6
SLD-Сплошная
 62
     7
370
    25
100
AcDbLine
 10
81.4420241995
 20
141.3349803761
 30
0.0
 11
80.5370036149
 21
139.7674387417
 31
0.0
  0
LINE
  5
149
330
1F
100
AcDbEntity
  8
0
  6
SLD-Сплошная
 62
     7
370
    25
100
AcDbLine
 10
75.3018560113
 20
170.6998971072
 30
0.0
 11
76.206876596
 21
172.2674387417
 31
0.0
  0
LINE
  5
14A
330
1F
100
AcDbEntity
  8
0
  6
SLD-Сплошная
 62
     7
370
    25
100
AcDbLine
 10
76.206876596
 20
139.7674387417
 30
0.0
 11
75.3018560113
 21
141.3349803761
 31
0.0
  0
LINE
  5
14B
330
1F
100
AcDbEntity
  8
0
  6
SLD-Сплошная
 62
     7
370
    25
100
AcDbLine
 10
62.1219401054
 20
158.1825022511
 30
0.0
 11
63.6894817399
 21
159.0875228357
 31
0.0
  0
LINE
  5
14C
330
1F
100
AcDbEntity
  8
0
  6
SLD-Сплошная
 62
     7
370
    25
100
AcDbLine
 10
63.6894817399
 20
152.9473546476
 30
0.0
 11
62.1219401054
 21
153.8523752322
 31
0.0
  0
ARC
  5
14D
330
1F
100
AcDbEntity
  8
0
  6
SLD-Сплошная
 62
     7
370
    25
100
AcDbCircle
 10
78.371350081
 20
156.017825644
 30
0.0
 40
3.999999999997766
100
AcDbArc
 50
146.7455026688
 51
326.7455026688
  0
ARC
  5
14E
330
1F
100
AcDbEntity
  8
0
  6
SLD-Сплошная
 62
     7
370
    25
100
AcDbCircle
 10
78.371350081
 20
156.017825644
 30
0.0
 40
3.999999999997766
100
AcDbArc
 50
326.7455026688
 51
146.7455026688
  0
LINE
  5
14F
330
1F
100
AcDbEntity
  8
0
  6
SLD-Сплошная
 62
     7
370
    25
100
AcDbLine
 10
101.3719401054
 20
166.796494933
 30
0.0
 11
99.206876596
 21
170.546494933
 31
0.0
  0
LINE
  5
150
330
1F
100
AcDbEntity
  8
0
  6
SLD-Сплошная
 62
     7
370
    25
100
AcDbLine
 10
101.3719401054
 20
145.2383825503
 30
0.0
 11
101.3719401054
 21
166.796494933
 31
0.0
  0
LINE
  5
151
330
1F
100
AcDbEntity
  8
0
  6
SLD-Сплошная
 62
     7
370
    25
100
AcDbLine
 10
99.206876596
 20
141.4883825503
 30
0.0
 11
101.3719401054
 21
145.2383825503
 31
0.0
  0
LINE
  5
152
330
1F
100
AcDbEntity
  8
0
  6
SLD-Сплошная
 62
     7
370
    25
100
AcDbLine
 10
80.5370036149
 20
130.7093263589
 30
0.0
 11
99.206876596
 21
141.4883825503
 31
0.0
  0
LINE
  5
153
330
1F
100
AcDbEntity
  8
0
  6
SLD-Сплошная
 62
     7
370
    25
100
AcDbLine
 10
76.206876596
 20
130.7093263589
 30
0.0
 11
80.5370036149
 21
130.7093263589
 31
0.0
  0
LINE
  5
154
330
1F
100
AcDbEntity
  8
0
  6
SLD-Сплошная
 62
     7
370
    25
100
AcDbLine
 10
76.206876596
 20
130.7093263589
 30
0.0
 11
57.5370036149
 21
141.4883825503
 31
0.0
  0
LINE
  5
155
330
1F
100
AcDbEntity
  8
0
  6
SLD-Сплошная
 62
     7
370
    25
100
AcDbLine
 10
57.5370036149
 20
141.4883825503
 30
0.0
 11
55.3719401054
 21
145.2383825503
 31
0.0
  0
LINE
  5
156
330
1F
100
AcDbEntity
  8
0
  6
SLD-Сплошная
 62
     7
370
    25
100
AcDbLine
 10
55.3719401054
 20
145.2383825503
 30
0.0
 11
55.3719401054
 21
166.796494933
 31
0.0
  0
LINE
  5
157
330
1F
100
AcDbEntity
  8
0
  6
SLD-Сплошная
 62
     7
370
    25
100
AcDbLine
 10
55.3719401054
 20
166.796494933
 30
0.0
 11
57.5370036149
 21
170.546494933
 31
0.0
  0
LINE
  5
158
330
1F
100
AcDbEntity
  8
0
  6
SLD-Сплошная
 62
     7
370
    25
100
AcDbLine
 10
57.5370036149
 20
170.546494933
 30
0.0
 11
76.206876596
 21
181.3255511244
 31
0.0
  0
LINE
  5
159
330
1F
100
AcDbEntity
  8
0
  6
SLD-Сплошная
 62
     7
370
    25
100
AcDbLine
 10
80.5370036149
 20
181.3255511244
 30
0.0
 11
76.206876596
 21
181.3255511244
 31
0.0
  0
LINE
  5
15A
330
1F
100
AcDbEntity
  8
0
  6
SLD-Сплошная
 62
     7
370
    25
100
AcDbLine
 10
99.206876596
 20
170.546494933
 30
0.0
 11
80.5370036149
 21
181.3255511244
 31
0.0
  0
ARC
  5
15B
330
1F
100
AcDbEntity
  8
0
  6
SLD-Сплошная
 62
     7
370
    25
100
AcDbCircle
 10
78.3719401054
 20
156.0174387417
 30
0.0
 40
25.40055220613375
100
AcDbArc
 50
334.8896458253
 51
0.0
  0
ARC
  5
15C
330
1F
100
AcDbEntity
  8
0
  6
SLD-Сплошная
 62
     7
370
    25
100
AcDbCircle
 10
78.3719401054
 20
156.0174387417
 30
0.0
 40
25.40055220613378
100
AcDbArc
 50
0.0
 51
25.1103541747
  0
ARC
  5
15D
330
1F
100
AcDbEntity
  8
0
  6
SLD-Сплошная
 62
     7
370
    25
100
AcDbCircle
 10
78.3719401054
 20
156.0174387417
 30
0.0
 40
25.40055220613378
100
AcDbArc
 50
25.1103541747
 51
34.8896458253
  0
ARC
  5
15E
330
1F
100
AcDbEntity
  8
0
  6
SLD-Сплошная
 62
     7
370
    25
100
AcDbCircle
 10
78.3719401054
 20
156.0174387417
 30
0.0
 40
25.40055220613375
100
AcDbArc
 50
325.1103541747
 51
334.8896458253
  0
ARC
  5
15F
330
1F
100
AcDbEntity
  8
0
  6
SLD-Сплошная
 62
     7
370
    25
100
AcDbCircle
 10
78.3719401054
 20
156.0174387417
 30
0.0
 40
25.40055220613378
100
AcDbArc
 50
34.8896458253
 51
85.1103541747
  0
ARC
  5
160
330
1F
100
AcDbEntity
  8
0
  6
SLD-Сплошная
 62
     7
370
    25
100
AcDbCircle
 10
78.3719401054
 20
156.0174387417
 30
0.0
 40
25.40055220613376
100
AcDbArc
 50
274.8896458253
 51
325.1103541747
  0
ARC
  5
161
330
1F
100
AcDbEntity
  8
0
  6
SLD-Сплошная
 62
     7
370
    25
100
AcDbCircle
 10
78.3719401054
 20
156.0174387417
 30
0.0
 40
25.40055220613378
100
AcDbArc
 50
85.1103541747
 51
94.8896458253
  0
ARC
  5
162
330
1F
100
AcDbEntity
  8
0
  6
SLD-Сплошная
 62
     7
370
    25
100
AcDbCircle
 10
78.3719401054
 20
156.0174387417
 30
0.0
 40
25.40055220613376
100
AcDbArc
 50
265.1103541747
 51
274.8896458253
  0
ARC
  5
163
330
1F
100
AcDbEntity
  8
0
  6
SLD-Сплошная
 62
     7
370
    25
100
AcDbCircle
 10
78.3719401054
 20
156.0174387417
 30
0.0
 40
25.40055220613375
100
AcDbArc
 50
214.8896458253
 51
265.1103541747
  0
ARC
  5
164
330
1F
100
AcDbEntity
  8
0
  6
SLD-Сплошная
 62
     7
370
    25
100
AcDbCircle
 10
78.3719401054
 20
156.0174387417
 30
0.0
 40
25.40055220613378
100
AcDbArc
 50
94.8896458253
 51
145.1103541747
  0
ARC
  5
165
330
1F
100
AcDbEntity
  8
0
  6
SLD-Сплошная
 62
     7
370
    25
100
AcDbCircle
 10
78.3719401054
 20
156.0174387417
 30
0.0
 40
25.40055220613374
100
AcDbArc
 50
205.1103541747
 51
214.8896458253
  0
ARC
  5
166
330
1F
100
AcDbEntity
  8
0
  6
SLD-Сплошная
 62
     7
370
    25
100
AcDbCircle
 10
78.3719401054
 20
156.0174387417
 30
0.0
 40
25.40055220613372
100
AcDbArc
 50
145.1103541747
 51
154.8896458253
  0
ARC
  5
167
330
1F
100
AcDbEntity
  8
0
  6
SLD-Сплошная
 62
     7
370
    25
100
AcDbCircle
 10
78.3719401054
 20
156.0174387417
 30
0.0
 40
25.40055220613374
100
AcDbArc
 50
180.0
 51
205.1103541747
  0
ARC
  5
168
330
1F
100
AcDbEntity
  8
0
  6
SLD-Сплошная
 62
     7
370
    25
100
AcDbCircle
 10
78.3719401054
 20
156.0174387417
 30
0.0
 40
25.40055220613373
100
AcDbArc
 50
154.8896458253
 51
180.0
  0
SPLINE
  5
169
330
1F
100
AcDbEntity
  8
0
  6
SLD-Сплошная
 62
     7
370
    25
100
AcDbSpline
210
0.0
220
0.0
230
1.0
 70
     8
 71
     3
 72
    10
 73
     6
 74
     0
 42
0.00000001
 43
0.00000001
 40
0.0
 40
0.0
 40
0.0
 40
0.0
 40
0.1050444213201036
 40
0.6161110190765865
 40
1.0
 40
1.0
 40
1.0
 40
1.0
 10
53.58995125219992
 20
161.3331707816005
 30
0.0
 10
53.5682681414847
 20
161.4043552944598
 30
0.0
 10
53.44109143593845
 20
161.8218697346276
 30
0.0
 10
53.17675014403482
 20
162.1542452715471
 30
0.0
 10
52.89067526910268
 20
162.1813907935248
 30
0.0
 10
52.76796415938763
 20
162.193034798006
 30
0.0
  0
ARC
  5
16A
330
1F
100
AcDbEntity
  8
0
  6
SLD-Сплошная
 62
     7
370
    25
100
AcDbCircle
 10
78.371350081
 20
156.017825644
 30
0.0
 40
29.65000000000001
100
AcDbArc
 50
7.8059045788
 51
172.359724895
  0
SPLINE
  5
16B
330
1F
100
AcDbEntity
  8
0
  6
SLD-Сплошная
 62
     7
370
    25
100
AcDbSpline
210
0.0
220
0.0
230
1.0
 70
     8
 71
     3
 72
    10
 73
     6
 74
     0
 42
0.00000001
 43
0.00000001
 40
0.0
 40
0.0
 40
0.0
 40
0.0
 40
0.1247464323561748
 40
0.6245621479582364
 40
1.0
 40
1.0
 40
1.0
 40
1.0
 10
103.1385871312545
 20
161.2887333694616
 30
0.0
 10
103.1648470456008
 20
161.3755874997834
 30
0.0
 10
103.2963213346812
 20
161.8104360254547
 30
0.0
 10
103.5657752104601
 20
162.1552873227213
 30
0.0
 10
103.8519724184917
 20
162.1817036008635
 30
0.0
 10
103.9747360026871
 20
162.193034798006
 30
0.0
  0
ARC
  5
16C
330
1F
100
AcDbEntity
  8
0
  6
SLD-Сплошная
 62
     7
370
    25
100
AcDbCircle
 10
78.371350081
 20
156.017825644
 30
0.0
 40
29.64999999999996
100
AcDbArc
 50
226.0080733666
 51
313.9919266334
  0
SPLINE
  5
16D
330
1F
100
AcDbEntity
  8
0
  6
SLD-Сплошная
 62
     7
370
    25
100
AcDbSpline
210
0.0
220
0.0
230
1.0
 70
     8
 71
     3
 72
    12
 73
     8
 74
     0
 42
0.00000001
 43
0.00000001
 40
0.0
 40
0.0
 40
0.0
 40
0.0
 40
0.5000000000000004
 40
0.5000000000000004
 40
0.7500000000000002
 40
0.7500000000000002
 40
1.0
 40
1.0
 40
1.0
 40
1.0
 10
57.77773492214367
 20
134.6864985712162
 30
0.0
 10
56.3599041163979
 20
136.0911146330139
 30
0.0
 10
55.10688784309864
 20
137.6180452895342
 30
0.0
 10
53.46764727215225
 20
140.0869013975948
 30
0.0
 10
52.96218748727016
 20
140.9398145701198
 30
0.0
 10
52.04570812286162
 20
142.6826658745274
 30
0.0
 10
51.63273721287304
 20
143.5753494234891
 30
0.0
 10
51.26501792923031
 20
144.4895342690288
 30
0.0
  0
SPLINE
  5
16E
330
1F
100
AcDbEntity
  8
0
  6
SLD-Сплошная
 62
     7
370
    25
100
AcDbSpline
210
0.0
220
0.0
230
1.0
 70
     8
 71
     3
 72
    18
 73
    14
 74
     0
 42
0.00000001
 43
0.00000001
 40
0.0
 40
0.0
 40
0.0
 40
0.0
 40
0.2499999999999998
 40
0.2499999999999998
 40
0.3749999999999991
 40
0.3749999999999991
 40
0.4999999999999984
 40
0.4999999999999984
 40
0.749999999999998
 40
0.749999999999998
 40
0.874999999999999
 40
0.874999999999999
 40
1.0
 40
1.0
 40
1.0
 40
1.0
 10
50.2590516015222
 20
146.5933270261383
 30
0.0
 10
50.29835587183891
 20
146.5416992789208
 30
0.0
 10
50.34942316312147
 20
146.4538849392432
 30
0.0
 10
50.44450193226332
 20
146.2701306570243
 30
0.0
 10
50.47960559041923
 20
146.1994918412019
 30
0.0
 10
50.5547262918604
 20
146.0440572823992
 30
0.0
 10
50.59482472912261
 20
145.9591412108944
 30
0.0
 10
50.72313683609981
 20
145.6834190524991
 30
0.0
 10
50.82093002455277
 20
145.4681659571022
 30
0.0
 10
50.97834600590194
 20
145.1207057681862
 30
0.0
 10
51.03273648819104
 20
145.0005089556091
 30
0.0
 10
51.14565699766642
 20
144.7515320727974
 30
0.0
 10
51.20504717847403
 20
144.6208659867529
 30
0.0
 10
51.26501792923031
 20
144.4895342690288
 30
0.0
  0
ARC
  5
16F
330
1F
100
AcDbEntity
  8
0
  6
SLD-Сплошная
 62
     7
370
    25
100
AcDbCircle
 10
78.371350081
 20
156.017825644
 30
0.0
 40
29.64999999999999
100
AcDbArc
 50
184.7434268434
 51
198.5334533322
  0
SPLINE
  5
170
330
1F
100
AcDbEntity
  8
0
  6
SLD-Сплошная
 62
     7
370
    25
100
AcDbSpline
210
0.0
220
0.0
230
1.0
 70
     8
 71
     3
 72
     8
 73
     4
 74
     0
 42
0.00000001
 43
0.00000001
 40
0.0
 40
0.0
 40
0.0
 40
0.0
 40
0.0003885591855999
 40
0.0003885591855999
 40
0.0003885591855999
 40
0.0003885591855999
 10
48.84584910805901
 20
153.6153242892071
 30
0.0
 10
48.8380895754113
 20
153.5988492893347
 30
0.0
 10
48.83044030433427
 20
153.5823926499552
 30
0.0
 10
48.82290145069761
 20
153.5659521684669
 30
0.0
  0
SPLINE
  5
171
330
1F
100
AcDbEntity
  8
0
  6
SLD-Сплошная
 62
     7
370
    25
100
AcDbSpline
210
0.0
220
0.0
230
1.0
 70
     8
 71
     3
 72
    10
 73
     6
 74
     0
 42
0.00000001
 43
0.00000001
 40
0.0
 40
0.0
 40
0.0
 40
0.0
 40
0.2135161510745315
 40
0.6382049865616729
 40
1.0
 40
1.0
 40
1.0
 40
1.0
 10
48.84584910805901
 20
153.6153242892071
 30
0.0
 10
48.95926074226535
 20
153.8504624145256
 30
0.0
 10
49.29825088479248
 20
154.5532960098008
 30
0.0
 10
50.12021250794164
 20
155.6555049212118
 30
0.0
 10
51.12847281453502
 20
156.5232253415594
 30
0.0
 10
51.59228850721793
 20
156.9223904630929
 30
0.0
  0
SPLINE
  5
172
330
1F
100
AcDbEntity
  8
0
  6
SLD-Сплошная
 62
     7
370
    25
100
AcDbSpline
210
0.0
220
0.0
230
1.0
 70
     8
 71
     3
 72
    10
 73
     6
 74
     0
 42
0.00000001
 43
0.00000001
 40
0.0
 40
0.0
 40
0.0
 40
0.0
 40
0.2132601075779172
 40
0.6374396663013868
 40
1.0
 40
1.0
 40
1.0
 40
1.0
 10
107.8968510540154
 20
153.615324289207
 30
0.0
 10
107.7834443717534
 20
153.8504624028791
 30
0.0
 10
107.4444690307088
 20
154.5532959633431
 30
0.0
 10
106.6213355501827
 20
155.6568286394964
 30
0.0
 10
105.6114450316165
 20
156.5258739025833
 30
0.0
 10
105.1460482124934
 20
156.9263637514125
 30
0.0
  0
SPLINE
  5
173
330
1F
100
AcDbEntity
  8
0
  6
SLD-Сплошная
 62
     7
370
    25
100
AcDbSpline
210
0.0
220
0.0
230
1.0
 70
     8
 71
     3
 72
     8
 73
     4
 74
     0
 42
0.00000001
 43
0.00000001
 40
0.0
 40
0.0
 40
0.0
 40
0.0
 40
0.0003885591855999
 40
0.0003885591855999
 40
0.0003885591855999
 40
0.0003885591855999
 10
107.8968510540157
 20
153.6153242892071
 30
0.0
 10
107.9046105866634
 20
153.5988492893347
 30
0.0
 10
107.9122598577405
 20
153.5823926499551
 30
0.0
 10
107.9197987113771
 20
153.5659521684669
 30
0.0
  0
ARC
  5
174
330
1F
100
AcDbEntity
  8
0
  6
SLD-Сплошная
 62
     7
370
    25
100
AcDbCircle
 10
78.371350081
 20
156.017825644
 30
0.0
 40
29.64999999999999
100
AcDbArc
 50
341.4665466678
 51
355.2565731566
  0
SPLINE
  5
175
330
1F
100
AcDbEntity
  8
0
  6
SLD-Сплошная
 62
     7
370
    25
100
AcDbSpline
210
0.0
220
0.0
230
1.0
 70
     8
 71
     3
 72
    12
 73
     8
 74
     0
 42
0.00000001
 43
0.00000001
 40
0.0
 40
0.0
 40
0.0
 40
0.0
 40
0.5
 40
0.5
 40
0.75
 40
0.75
 40
1.0
 40
1.0
 40
1.0
 40
1.0
 10
105.4776822328444
 20
144.4895342690288
 30
0.0
 10
105.7202686199121
 20
145.0207811910563
 30
0.0
 10
105.9353828779429
 20
145.5025915660661
 30
0.0
 10
106.1911746343479
 20
146.0521526297904
 30
0.0
 10
106.2670490787972
 20
146.209941225881
 30
0.0
 10
106.3929265381892
 20
146.4531965295954
 30
0.0
 10
106.4444639497624
 20
146.541856456544
 30
0.0
 10
106.4836485605526
 20
146.5933270261383
 30
0.0
  0
SPLINE
  5
176
330
1F
100
AcDbEntity
  8
0
  6
SLD-Сплошная
 62
     7
370
    25
100
AcDbSpline
210
0.0
220
0.0
230
1.0
 70
     8
 71
     3
 72
    12
 73
     8
 74
     0
 42
0.00000001
 43
0.00000001
 40
0.0
 40
0.0
 40
0.0
 40
0.0
 40
0.5000000000000002
 40
0.5000000000000002
 40
0.7500000000000001
 40
0.7500000000000001
 40
1.0
 40
1.0
 40
1.0
 40
1.0
 10
98.96496523993106
 20
134.6864985712162
 30
0.0
 10
100.3827960456768
 20
136.0911146330139
 30
0.0
 10
101.635812318976
 20
137.6180452895342
 30
0.0
 10
103.2750528899224
 20
140.0869013975949
 30
0.0
 10
103.7805126748046
 20
140.9398145701199
 30
0.0
 10
104.6969920392131
 20
142.6826658745274
 30
0.0
 10
105.1099629492017
 20
143.5753494234891
 30
0.0
 10
105.4776822328445
 20
144.4895342690288
 30
0.0
  0
SPLINE
  5
177
330
1F
100
AcDbEntity
  8
0
  6
SLD-Сплошная
 62
     7
370
    25
100
AcDbSpline
210
0.0
220
0.0
230
1.0
 70
     8
 71
     3
 72
    28
 73
    24
 74
     0
 42
0.00000001
 43
0.00000001
 40
0.0
 40
0.0
 40
0.0
 40
0.0
 40
0.125
 40
0.125
 40
0.1875
 40
0.1875
 40
0.2499999999999999
 40
0.2499999999999999
 40
0.3749999999999999
 40
0.3749999999999999
 40
0.4999999999999999
 40
0.4999999999999999
 40
0.625
 40
0.625
 40
0.6875
 40
0.6875
 40
0.75
 40
0.75
 40
0.8125
 40
0.8125
 40
0.875
 40
0.875
 40
1.0
 40
1.0
 40
1.0
 40
1.0
 10
78.37135008103736
 20
128.5660960855859
 30
0.0
 10
77.07062250549873
 20
128.5662644765174
 30
0.0
 10
75.78357283386055
 20
128.6620039397133
 30
0.0
 10
73.87291535476365
 20
128.9447384887648
 30
0.0
 10
73.2393646219323
 20
129.0622726304748
 30
0.0
 10
71.9790167215967
 20
129.3444107741564
 30
0.0
 10
71.35049425546379
 20
129.5095914245739
 30
0.0
 10
69.49200753772345
 20
130.072242180314
 30
0.0
 10
68.28547855037043
 20
130.5370179093895
 30
0.0
 10
65.94952311258463
 20
131.6398319636263
 30
0.0
 10
64.83025828233973
 20
132.2727149121991
 30
0.0
 10
62.68822519052657
 20
133.6998658394605
 30
0.0
 10
61.67689877767597
 20
134.4865742752382
 30
0.0
 10
60.2513343125092
 20
135.7722376694128
 30
0.0
 10
59.79172894559296
 20
136.2183104289604
 30
0.0
 10
58.90975057969637
 20
137.1389300207553
 30
0.0
 10
58.48645689810463
 20
137.6142818424686
 30
0.0
 10
57.6751217601695
 20
138.5949332665033
 30
0.0
 10
57.28653073802606
 20
139.1011693435166
 30
0.0
 10
56.55162399070561
 20
140.1339613991048
 30
0.0
 10
56.20442302067129
 20
140.6614619387206
 30
0.0
 10
55.22244236756535
 20
142.2767623963027
 30
0.0
 10
54.6469750624216
 20
143.3971855227054
 30
0.0
 10
54.15143409374616
 20
144.5619380931619
 30
0.0
  0
LWPOLYLINE
  5
178
330
1F
100
AcDbEntity
  8
0
  6
SLD-Сплошная
 62
     7
370
    25
100
AcDbPolyline
 90
        7
 70
   128
 43
0.0
 10
52.8089668077
 20
146.3972136753
 10
52.9810441565
 20
146.3590394785
 10
53.320138309
 20
145.9547520169
 10
53.7650049172
 20
145.2448121412
 10
54.1513987426
 20
144.5620021488
 10
54.1514340937
 20
144.5619380932
 10
54.1514340937
 20
144.5619380932
  0
SPLINE
  5
179
330
1F
100
AcDbEntity
  8
0
  6
SLD-Сплошная
 62
     7
370
    25
100
AcDbSpline
210
0.0
220
0.0
230
1.0
 70
     8
 71
     3
 72
    18
 73
    14
 74
     0
 42
0.00000001
 43
0.00000001
 40
0.0
 40
0.0
 40
0.0
 40
0.0
 40
0.0000185896587839
 40
0.0000662222010797
 40
0.0002567523714502
 40
0.0010188731282176
 40
0.0040673609751321
 40
0.0162616208289895
 40
0.0650584236376242
 40
0.2615393786167444
 40
0.5410956004115257
 40
0.820717814895728
 40
1.0
 40
1.0
 40
1.0
 40
1.0
 10
102.5912660683285
 20
144.5619380931615
 30
0.0
 10
102.5912778520566
 20
144.5619594450882
 30
0.0
 10
102.591319829396
 20
144.5620355073548
 30
0.0
 10
102.5914825793322
 20
144.5623304054598
 30
0.0
 10
102.5921166157228
 20
144.5634792348645
 30
0.0
 10
102.5946524029208
 20
144.5680734813275
 30
0.0
 10
102.6047899022414
 20
144.5864334484977
 30
0.0
 10
102.6452604050657
 20
144.6596213105243
 30
0.0
 10
102.8063417721105
 20
144.949084141846
 30
0.0
 10
103.1212192472013
 20
145.4990702150401
 30
0.0
 10
103.5064738412498
 20
146.0960264239957
 30
0.0
 10
103.804439134886
 20
146.4437730301254
 30
0.0
 10
103.8931538779139
 20
146.3994401606348
 30
0.0
 10
103.927812453851
 20
146.3821204449787
 30
0.0
  0
SPLINE
  5
17A
330
1F
100
AcDbEntity
  8
0
  6
SLD-Сплошная
 62
     7
370
    25
100
AcDbSpline
210
0.0
220
0.0
230
1.0
 70
     8
 71
     3
 72
    28
 73
    24
 74
     0
 42
0.00000001
 43
0.00000001
 40
0.0
 40
0.0
 40
0.0
 40
0.0
 40
0.1250000000000002
 40
0.1250000000000002
 40
0.1875000000000002
 40
0.1875000000000002
 40
0.2500000000000003
 40
0.2500000000000003
 40
0.3750000000000001
 40
0.3750000000000001
 40
0.5
 40
0.5
 40
0.6249999999999999
 40
0.6249999999999999
 40
0.6875
 40
0.6875
 40
0.75
 40
0.75
 40
0.8125000000000001
 40
0.8125000000000001
 40
0.8750000000000002
 40
0.8750000000000002
 40
1.0
 40
1.0
 40
1.0
 40
1.0
 10
78.37135008103736
 20
128.5660960855859
 30
0.0
 10
79.67207765657598
 20
128.5662644765174
 30
0.0
 10
80.95912732821415
 20
128.6620039397132
 30
0.0
 10
82.86978480731104
 20
128.9447384887647
 30
0.0
 10
83.50333554014237
 20
129.0622726304748
 30
0.0
 10
84.76368344047795
 20
129.3444107741563
 30
0.0
 10
85.39220590661085
 20
129.5095914245738
 30
0.0
 10
87.25069262435116
 20
130.072242180314
 30
0.0
 10
88.45722161170418
 20
130.5370179093894
 30
0.0
 10
90.79317704948997
 20
131.6398319636262
 30
0.0
 10
91.91244187973491
 20
132.272714912199
 30
0.0
 10
94.05447497154803
 20
133.6998658394603
 30
0.0
 10
95.06580138439854
 20
134.4865742752381
 30
0.0
 10
96.49136584956531
 20
135.7722376694127
 30
0.0
 10
96.95097121648158
 20
136.2183104289602
 30
0.0
 10
97.83294958237818
 20
137.1389300207551
 30
0.0
 10
98.25624326396992
 20
137.6142818424685
 30
0.0
 10
99.06757840190504
 20
138.5949332665031
 30
0.0
 10
99.45616942404847
 20
139.1011693435164
 30
0.0
 10
100.1910761713689
 20
140.1339613991045
 30
0.0
 10
100.5382771414033
 20
140.6614619387203
 30
0.0
 10
101.5202577945092
 20
142.2767623963023
 30
0.0
 10
102.0957250996531
 20
143.3971855227054
 30
0.0
 10
102.5912660683286
 20
144.5619380931619
 30
0.0
  0
ARC
  5
17B
330
1F
100
AcDbEntity
  8
0
  6
SLD-Сплошная
 62
     7
370
    25
100
AcDbCircle
 10
78.371350081
 20
149.967825644
 30
0.0
 40
2.850000000000039
100
AcDbArc
 50
56.4051373929
 51
123.5948626071
  0
ARC
  5
17C
330
1F
100
AcDbEntity
  8
0
  6
SLD-Сплошная
 62
     7
370
    25
100
AcDbCircle
 10
78.371350081
 20
149.967825644
 30
0.0
 40
2.50000000000003
100
AcDbArc
 50
62.5838894915
 51
117.4161105086
  0
LINE
  5
17D
330
1F
100
AcDbEntity
  8
0
  6
SLD-Сплошная
 62
     7
370
    25
100
AcDbLine
 10
82.2656819307
 20
155.104491398
 30
0.0
 11
74.4770182314
 21
155.104491398
 31
0.0
  0
ARC
  5
17E
330
1F
100
AcDbEntity
  8
0
  6
SLD-Сплошная
 62
     7
370
    25
100
AcDbCircle
 10
107.6553398553
 20
156.3629745412
 30
0.0
 40
2.424908049544534
100
AcDbArc
 50
1.4742642474
 51
44.1503181202
  0
ARC
  5
17F
330
1F
100
AcDbEntity
  8
0
  6
SLD-Сплошная
 62
     7
370
    25
100
AcDbCircle
 10
49.0892741353
 20
156.3626158109
 30
0.0
 40
2.426830359076249
100
AcDbArc
 50
134.1360722994
 51
178.519883949
  0
SPLINE
  5
180
330
1F
100
AcDbEntity
  8
0
  6
SLD-Сплошная
 62
     7
370
    25
100
AcDbSpline
210
0.0
220
0.0
230
1.0
 70
     8
 71
     3
 72
    12
 73
     8
 74
     0
 42
0.00000001
 43
0.00000001
 40
0.0
 40
0.0
 40
0.0
 40
0.0
 40
0.1712664236703816
 40
0.378564092422174
 40
0.5818407820632959
 40
0.8081060471753875
 40
1.0
 40
1.0
 40
1.0
 40
1.0
 10
107.4507750859672
 20
161.8065682866655
 30
0.0
 10
107.6575323893795
 20
161.778536017234
 30
0.0
 10
108.1145448570921
 20
161.716574014359
 30
0.0
 10
108.7566560175782
 20
161.3867855455855
 30
0.0
 10
109.3234100747835
 20
160.8554664510911
 30
0.0
 10
109.7286821485273
 20
160.1957741737826
 30
0.0
 10
109.8071871764099
 20
159.6911219387263
 30
0.0
 10
109.8432132628162
 20
159.4595361980972
 30
0.0
  0
SPLINE
  5
181
330
1F
100
AcDbEntity
  8
0
  6
SLD-Сплошная
 62
     7
370
    25
100
AcDbSpline
210
0.0
220
0.0
230
1.0
 70
     8
 71
     3
 72
    12
 73
     8
 74
     0
 42
0.00000001
 43
0.00000001
 40
0.0
 40
0.0
 40
0.0
 40
0.0
 40
0.1712664236716583
 40
0.3785640924221861
 40
0.5818407820633091
 40
0.808106047175407
 40
1.0
 40
1.0
 40
1.0
 40
1.0
 10
49.29192507610751
 20
161.8065682866655
 30
0.0
 10
49.08516777269372
 20
161.7785360172337
 30
0.0
 10
48.62815530498107
 20
161.7165740143584
 30
0.0
 10
47.98604414449537
 20
161.3867855455844
 30
0.0
 10
47.41929008729124
 20
160.8554664510911
 30
0.0
 10
47.01401801354747
 20
160.1957741737826
 30
0.0
 10
46.93551298566487
 20
159.6911219387263
 30
0.0
 10
46.89948689925853
 20
159.4595361980973
 30
0.0
  0
ARC
  5
182
330
1F
100
AcDbEntity
  8
0
  6
SLD-Сплошная
 62
     7
370
    25
100
AcDbCircle
 10
78.371350081
 20
126.517825644
 30
0.0
 40
6.999999999999988
100
AcDbArc
 50
200.8168186091
 51
339.1831813909
  0
ARC
  5
183
330
1F
100
AcDbEntity
  8
0
  6
SLD-Сплошная
 62
     7
370
    25
100
AcDbCircle
 10
78.371350081
 20
156.017825644
 30
0.0
 40
32.64999999999996
100
AcDbArc
 50
281.5603326169
 51
258.4396673831
  0
LINE
  5
184
330
1F
100
AcDbEntity
  8
0
  6
SLD-Сплошная
 62
     7
370
    25
100
AcDbLine
 10
64.071350081
 20
200.5847828731
 30
0.0
 11
64.071350081
 21
185.3696995195
 31
0.0
  0
LINE
  5
185
330
1F
100
AcDbEntity
  8
0
  6
SLD-Сплошная
 62
     7
370
    25
100
AcDbLine
 10
68.071350081
 20
200.5847828731
 30
0.0
 11
68.071350081
 21
191.9879891395
 31
0.0
  0
LINE
  5
186
330
1F
100
AcDbEntity
  8
0
  6
SLD-Сплошная
 62
     7
370
    25
100
AcDbLine
 10
68.071350081
 20
191.9879891395
 30
0.0
 11
88.671350081
 21
191.9879891395
 31
0.0
  0
LINE
  5
187
330
1F
100
AcDbEntity
  8
0
  6
SLD-Сплошная
 62
     7
370
    25
100
AcDbLine
 10
88.671350081
 20
200.5847828731
 30
0.0
 11
88.671350081
 21
191.9879891395
 31
0.0
  0
LINE
  5
188
330
1F
100
AcDbEntity
  8
0
  6
SLD-Сплошная
 62
     7
370
    25
100
AcDbLine
 10
92.671350081
 20
200.5847828731
 30
0.0
 11
92.671350081
 21
185.3696995195
 31
0.0
  0
LINE
  5
189
330
1F
100
AcDbEntity
  8
0
  6
SLD-Сплошная
 62
     7
370
    25
100
AcDbLine
 10
88.671350081
 20
201.367825644
 30
0.0
 11
88.671350081
 21
200.5847828731
 31
0.0
  0
LINE
  5
18A
330
1F
100
AcDbEntity
  8
0
  6
SLD-Сплошная
 62
     7
370
    25
100
AcDbLine
 10
92.671350081
 20
201.367825644
 30
0.0
 11
92.671350081
 21
200.5847828731
 31
0.0
  0
LINE
  5
18B
330
1F
100
AcDbEntity
  8
0
  6
SLD-Сплошная
 62
     7
370
    25
100
AcDbLine
 10
68.071350081
 20
201.367825644
 30
0.0
 11
68.071350081
 21
200.5847828731
 31
0.0
  0
LINE
  5
18C
330
1F
100
AcDbEntity
  8
0
  6
SLD-Сплошная
 62
     7
370
    25
100
AcDbLine
 10
64.071350081
 20
201.367825644
 30
0.0
 11
64.071350081
 21
200.5847828731
 31
0.0
  0
LINE
  5
18D
330
1F
100
AcDbEntity
  8
0
  6
SLD-Сплошная
 62
     7
370
    25
100
AcDbLine
 10
68.371350081
 20
201.1021791034
 30
0.0
 11
73.3802386315
 21
201.1021791034
 31
0.0
  0
LINE
  5
18E
330
1F
100
AcDbEntity
  8
0
  6
SLD-Сплошная
 62
     7
370
    25
100
AcDbLine
 10
73.3802386315
 20
201.1021791034
 30
0.0
 11
83.371350081
 21
201.1021791034
 31
0.0
  0
LINE
  5
18F
330
1F
100
AcDbEntity
  8
0
  6
SLD-Сплошная
 62
     7
370
    25
100
AcDbLine
 10
83.371350081
 20
201.1021791034
 30
0.0
 11
88.371350081
 21
201.1021791034
 31
0.0
  0
LINE
  5
190
330
1F
100
AcDbEntity
  8
0
  6
SLD-Сплошная
 62
     7
370
    25
100
AcDbLine
 10
68.371350081
 20
201.1021791034
 30
0.0
 11
68.371350081
 21
191.9879891395
 31
0.0
  0
LINE
  5
191
330
1F
100
AcDbEntity
  8
0
  6
SLD-Сплошная
 62
     7
370
    25
100
AcDbLine
 10
88.371350081
 20
191.9879891395
 30
0.0
 11
88.371350081
 21
201.1021791034
 31
0.0
  0
LINE
  5
192
330
1F
100
AcDbEntity
  8
0
  6
SLD-Сплошная
 62
     7
370
    25
100
AcDbLine
 10
83.371350081
 20
209.1925588551
 30
0.0
 11
83.371350081
 21
201.1021791034
 31
0.0
  0
LINE
  5
193
330
1F
100
AcDbEntity
  8
0
  6
SLD-Сплошная
 62
     7
370
    25
100
AcDbLine
 10
73.3802386315
 20
201.1021791034
 30
0.0
 11
73.3802386315
 21
209.1925588551
 31
0.0
  0
LINE
  5
194
330
1F
100
AcDbEntity
  8
0
  6
SLD-Сплошная
 62
     7
370
    25
100
AcDbLine
 10
73.3802386315
 20
209.1925588551
 30
0.0
 11
83.371350081
 21
209.1925588551
 31
0.0
  0
LINE
  5
195
330
1F
100
AcDbEntity
  8
0
  6
SLD-Сплошная
 62
     7
370
    25
100
AcDbLine
 10
83.371350081
 20
211.4666216817
 30
0.0
 11
73.3802386315
 21
211.4666216817
 31
0.0
  0
LINE
  5
196
330
1F
100
AcDbEntity
  8
0
  6
SLD-Сплошная
 62
     7
370
    25
100
AcDbLine
 10
83.371350081
 20
211.4666216817
 30
0.0
 11
83.371350081
 21
209.1925588551
 31
0.0
  0
LINE
  5
197
330
1F
100
AcDbEntity
  8
0
  6
SLD-Сплошная
 62
     7
370
    25
100
AcDbLine
 10
73.3802386315
 20
209.1925588551
 30
0.0
 11
73.3802386315
 21
211.4666216817
 31
0.0
  0
ARC
  5
198
330
1F
100
AcDbEntity
  8
0
  6
SLD-Сплошная
 62
     7
370
    25
100
AcDbCircle
 10
78.371350081
 20
155.967825644
 30
0.0
 40
32.64999999999999
100
AcDbArc
 50
281.5229167067
 51
0.0438703525
  0
ARC
  5
199
330
1F
100
AcDbEntity
  8
0
  6
SLD-Сплошная
 62
     7
370
    25
100
AcDbCircle
 10
78.371350081
 20
155.967825644
 30
0.0
 40
32.64999999999999
100
AcDbArc
 50
179.9561296477
 51
258.4770832933
  0
ARC
  5
19A
330
1F
100
AcDbEntity
  8
0
  6
SLD-Сплошная
 62
     7
370
    25
100
AcDbCircle
 10
70.871350081
 20
122.817825644
 30
0.0
 40
2.50000000000002
100
AcDbArc
 50
180.0
 51
233.1301023542
  0
LINE
  5
19B
330
1F
100
AcDbEntity
  8
0
  6
SLD-Сплошная
 62
     7
370
    25
100
AcDbLine
 10
68.371350081
 20
124.8869231475
 30
0.0
 11
68.371350081
 21
122.817825644
 31
0.0
  0
ARC
  5
19C
330
1F
100
AcDbEntity
  8
0
  6
SLD-Сплошная
 62
     7
370
    25
100
AcDbCircle
 10
85.871350081
 20
122.817825644
 30
0.0
 40
2.500000000000003
100
AcDbArc
 50
306.8698976458
 51
0.0
  0
LINE
  5
19D
330
1F
100
AcDbEntity
  8
0
  6
SLD-Сплошная
 62
     7
370
    25
100
AcDbLine
 10
88.371350081
 20
122.817825644
 30
0.0
 11
88.371350081
 21
124.8869231475
 31
0.0
  0
ARC
  5
19E
330
1F
100
AcDbEntity
  8
0
  6
SLD-Сплошная
 62
     7
370
    25
100
AcDbCircle
 10
78.371350081
 20
132.817825644
 30
0.0
 40
15.00000000000002
100
AcDbArc
 50
233.1301023542
 51
306.8698976458
  0
LINE
  5
19F
330
1F
100
AcDbEntity
  8
0
  6
SLD-Сплошная
 62
     7
370
    25
100
AcDbLine
 10
352.5974570502
 20
201.367825644
 30
0.0
 11
348.5974570502
 21
201.367825644
 31
0.0
  0
LINE
  5
1A0
330
1F
100
AcDbEntity
  8
0
  6
SLD-Сплошная
 62
     7
370
    25
100
AcDbLine
 10
377.1974570502
 20
201.367825644
 30
0.0
 11
373.1974570502
 21
201.367825644
 31
0.0
  0
LINE
  5
1A1
330
1F
100
AcDbEntity
  8
0
  6
SLD-Сплошная
 62
     7
370
    25
100
AcDbLine
 10
352.5974570502
 20
196.367825644
 30
0.0
 11
352.5974570502
 21
201.367825644
 31
0.0
  0
LINE
  5
1A2
330
1F
100
AcDbEntity
  8
0
  6
SLD-Сплошная
 62
     7
370
    25
100
AcDbLine
 10
348.5974570502
 20
196.3678225753
 30
0.0
 11
348.5974570502
 21
201.367825644
 31
0.0
  0
LINE
  5
1A3
330
1F
100
AcDbEntity
  8
0
  6
SLD-Сплошная
 62
     7
370
    25
100
AcDbLine
 10
377.1974570502
 20
196.367825644
 30
0.0
 11
377.1974570502
 21
201.367825644
 31
0.0
  0
LINE
  5
1A4
330
1F
100
AcDbEntity
  8
0
  6
SLD-Сплошная
 62
     7
370
    25
100
AcDbLine
 10
373.1974570502
 20
196.367825644
 30
0.0
 11
373.1974570502
 21
201.367825644
 31
0.0
  0
LINE
  5
1A5
330
1F
100
AcDbEntity
  8
0
  6
SLD-Сплошная
 62
     7
370
    25
100
AcDbLine
 10
377.1974570502
 20
185.3696995195
 30
0.0
 11
377.1974570502
 21
196.367825644
 31
0.0
  0
LINE
  5
1A6
330
1F
100
AcDbEntity
  8
0
  6
SLD-Сплошная
 62
     7
370
    25
100
AcDbLine
 10
373.1974570502
 20
187.000603118
 30
0.0
 11
373.1974570502
 21
196.367825644
 31
0.0
  0
LINE
  5
1A7
330
1F
100
AcDbEntity
  8
0
  6
SLD-Сплошная
 62
     7
370
    25
100
AcDbLine
 10
348.5974570502
 20
185.3696995195
 30
0.0
 11
348.5974570502
 21
196.3678225753
 31
0.0
  0
LINE
  5
1A8
330
1F
100
AcDbEntity
  8
0
  6
SLD-Сплошная
 62
     7
370
    25
100
AcDbLine
 10
352.5974570502
 20
187.000603118
 30
0.0
 11
352.5974570502
 21
196.367825644
 31
0.0
  0
LINE
  5
1A9
330
1F
100
AcDbEntity
  8
0
  6
SLD-Сплошная
 62
     7
370
    25
100
AcDbLine
 10
352.5974570502
 20
190.3012062479
 30
0.0
 11
352.8974570502
 21
190.3012062479
 31
0.0
  0
LINE
  5
1AA
330
1F
100
AcDbEntity
  8
0
  6
SLD-Сплошная
 62
     7
370
    25
100
AcDbLine
 10
372.8974570502
 20
190.3012062479
 30
0.0
 11
373.1974570502
 21
190.3012062479
 31
0.0
  0
LINE
  5
1AB
330
1F
100
AcDbEntity
  8
0
  6
SLD-Сплошная
 62
     7
370
    25
100
AcDbLine
 10
373.1974570502
 20
191.9879891395
 30
0.0
 11
372.8974570502
 21
191.9879891395
 31
0.0
  0
LINE
  5
1AC
330
1F
100
AcDbEntity
  8
0
  6
SLD-Сплошная
 62
     7
370
    25
100
AcDbLine
 10
352.8974570502
 20
191.9879891395
 30
0.0
 11
352.5974570502
 21
191.9879891395
 31
0.0
  0
LINE
  5
1AD
330
1F
100
AcDbEntity
  8
0
  6
SLD-Сплошная
 62
     7
370
    25
100
AcDbLine
 10
367.8974570502
 20
192.9447496028
 30
0.0
 11
367.8974570502
 21
180.967825644
 31
0.0
  0
LINE
  5
1AE
330
1F
100
AcDbEntity
  8
0
  6
SLD-Сплошная
 62
     7
370
    25
100
AcDbLine
 10
372.8974570502
 20
192.9447496028
 30
0.0
 11
372.8974570502
 21
180.967825644
 31
0.0
  0
ARC
  5
1AF
330
1F
100
AcDbEntity
  8
0
  6
SLD-Сплошная
 62
     7
370
    25
100
AcDbCircle
 10
355.3974570502
 20
180.967825644
 30
0.0
 40
2.50000000000015
100
AcDbArc
 50
180.0
 51
235.7681391988
  0
ARC
  5
1B0
330
1F
100
AcDbEntity
  8
0
  6
SLD-Сплошная
 62
     7
370
    25
100
AcDbCircle
 10
355.3974570502
 20
180.967825644
 30
0.0
 40
2.500000000000022
100
AcDbArc
 50
337.6303492692
 51
0.0
  0
ARC
  5
1B1
330
1F
100
AcDbEntity
  8
0
  6
SLD-Сплошная
 62
     7
370
    25
100
AcDbCircle
 10
355.3940686808
 20
180.9791202089
 30
0.0
 40
2.507448592630396
100
AcDbArc
 50
235.9773352614
 51
337.4211532066
  0
LINE
  5
1B2
330
1F
100
AcDbEntity
  8
0
  6
SLD-Сплошная
 62
     7
370
    25
100
AcDbLine
 10
352.8974570502
 20
192.9447496028
 30
0.0
 11
352.8974570502
 21
193.4971655495
 31
0.0
  0
LINE
  5
1B3
330
1F
100
AcDbEntity
  8
0
  6
SLD-Сплошная
 62
     7
370
    25
100
AcDbLine
 10
357.8974570502
 20
192.9447496028
 30
0.0
 11
357.8974570502
 21
193.4971655495
 31
0.0
  0
ARC
  5
1B4
330
1F
100
AcDbEntity
  8
0
  6
SLD-Сплошная
 62
     7
370
    25
100
AcDbCircle
 10
370.3974570502
 20
180.967825644
 30
0.0
 40
2.500000000000189
100
AcDbArc
 50
180.0
 51
202.3696507308
  0
ARC
  5
1B5
330
1F
100
AcDbEntity
  8
0
  6
SLD-Сплошная
 62
     7
370
    25
100
AcDbCircle
 10
370.3974570502
 20
180.967825644
 30
0.0
 40
2.500000000000139
100
AcDbArc
 50
304.231860801
 51
0.0
  0
ARC
  5
1B6
330
1F
100
AcDbEntity
  8
0
  6
SLD-Сплошная
 62
     7
370
    25
100
AcDbCircle
 10
370.4008454197
 20
180.9791202089
 30
0.0
 40
2.507448592630655
100
AcDbArc
 50
202.5788467934
 51
304.0226647385
  0
LINE
  5
1B7
330
1F
100
AcDbEntity
  8
0
  6
SLD-Сплошная
 62
     7
370
    25
100
AcDbLine
 10
367.8974570502
 20
192.9447496028
 30
0.0
 11
367.8974570502
 21
193.4971655495
 31
0.0
  0
LINE
  5
1B8
330
1F
100
AcDbEntity
  8
0
  6
SLD-Сплошная
 62
     7
370
    25
100
AcDbLine
 10
372.8974570502
 20
192.9447496028
 30
0.0
 11
372.8974570502
 21
193.4971655495
 31
0.0
  0
LINE
  5
1B9
330
1F
100
AcDbEntity
  8
0
  6
SLD-Сплошная
 62
     7
370
    25
100
AcDbLine
 10
352.8974570502
 20
192.9447496028
 30
0.0
 11
352.8974570502
 21
180.967825644
 31
0.0
  0
LINE
  5
1BA
330
1F
100
AcDbEntity
  8
0
  6
SLD-Сплошная
 62
     7
370
    25
100
AcDbLine
 10
357.8974570502
 20
192.9447496028
 30
0.0
 11
357.8974570502
 21
180.967825644
 31
0.0
  0
LINE
  5
1BB
330
1F
100
AcDbEntity
  8
0
  6
SLD-Сплошная
 62
     7
370
    25
100
AcDbLine
 10
367.8974570502
 20
122.817825644
 30
0.0
 11
367.8974570502
 21
130.967825644
 31
0.0
  0
LINE
  5
1BC
330
1F
100
AcDbEntity
  8
0
  6
SLD-Сплошная
 62
     7
370
    25
100
AcDbLine
 10
372.8974570502
 20
122.817825644
 30
0.0
 11
372.8974570502
 21
130.967825644
 31
0.0
  0
LINE
  5
1BD
330
1F
100
AcDbEntity
  8
0
  6
SLD-Сплошная
 62
     7
370
    25
100
AcDbLine
 10
352.8974570502
 20
122.817825644
 30
0.0
 11
352.8974570502
 21
130.967825644
 31
0.0
  0
LINE
  5
1BE
330
1F
100
AcDbEntity
  8
0
  6
SLD-Сплошная
 62
     7
370
    25
100
AcDbLine
 10
357.8974570502
 20
122.817825644
 30
0.0
 11
357.8974570502
 21
130.967825644
 31
0.0
  0
ARC
  5
1BF
330
1F
100
AcDbEntity
  8
0
  6
SLD-Сплошная
 62
     7
370
    25
100
AcDbCircle
 10
355.3974570502
 20
130.967825644
 30
0.0
 40
2.5
100
AcDbArc
 50
132.4957106888
 51
180.0
  0
ARC
  5
1C0
330
1F
100
AcDbEntity
  8
0
  6
SLD-Сплошная
 62
     7
370
    25
100
AcDbCircle
 10
355.3930080041
 20
130.9529954903
 30
0.0
 40
2.507964458824099
100
AcDbArc
 50
14.4096179903
 51
132.1918935417
  0
ARC
  5
1C1
330
1F
100
AcDbEntity
  8
0
  6
SLD-Сплошная
 62
     7
370
    25
100
AcDbCircle
 10
355.3974570502
 20
130.967825644
 30
0.0
 40
2.5
100
AcDbArc
 50
0.0
 51
14.1058008432
  0
ARC
  5
1C2
330
1F
100
AcDbEntity
  8
0
  6
SLD-Сплошная
 62
     7
370
    25
100
AcDbCircle
 10
370.3974570502
 20
122.817825644
 30
0.0
 40
2.5
100
AcDbArc
 50
180.0
 51
0.0
  0
ARC
  5
1C3
330
1F
100
AcDbEntity
  8
0
  6
SLD-Сплошная
 62
     7
370
    25
100
AcDbCircle
 10
370.3974570502
 20
130.967825644
 30
0.0
 40
2.5
100
AcDbArc
 50
165.8941991568
 51
180.0
  0
ARC
  5
1C4
330
1F
100
AcDbEntity
  8
0
  6
SLD-Сплошная
 62
     7
370
    25
100
AcDbCircle
 10
370.4019060964
 20
130.9529954903
 30
0.0
 40
2.507964458824063
100
AcDbArc
 50
47.8081064583
 51
165.5903820097
  0
ARC
  5
1C5
330
1F
100
AcDbEntity
  8
0
  6
SLD-Сплошная
 62
     7
370
    25
100
AcDbCircle
 10
370.3974570502
 20
130.967825644
 30
0.0
 40
2.5
100
AcDbArc
 50
0.0
 51
47.5042893112
  0
ARC
  5
1C6
330
1F
100
AcDbEntity
  8
0
  6
SLD-Сплошная
 62
     7
370
    25
100
AcDbCircle
 10
355.3974570502
 20
122.817825644
 30
0.0
 40
2.5
100
AcDbArc
 50
180.0
 51
0.0
  0
ARC
  5
1C7
330
1F
100
AcDbEntity
  8
0
  6
SLD-Сплошная
 62
     7
370
    25
100
AcDbCircle
 10
362.8974570502
 20
155.967825644
 30
0.0
 40
32.65000000000003
100
AcDbArc
 50
107.8351109264
 51
252.1648890736
  0
ARC
  5
1C8
330
1F
100
AcDbEntity
  8
0
  6
SLD-Сплошная
 62
     7
370
    25
100
AcDbCircle
 10
362.8974570502
 20
155.967825644
 30
0.0
 40
32.65
100
AcDbArc
 50
81.191099037
 51
98.808900963
  0
ARC
  5
1C9
330
1F
100
AcDbEntity
  8
0
  6
SLD-Сплошная
 62
     7
370
    25
100
AcDbCircle
 10
362.8974570502
 20
155.967825644
 30
0.0
 40
32.65
100
AcDbArc
 50
287.8351109264
 51
72.1648890736
  0
SPLINE
  5
1CA
330
1F
100
AcDbEntity
  8
0
  6
SLD-Сплошная
 62
     7
370
    25
100
AcDbSpline
210
0.0
220
0.0
230
1.0
 70
     8
 71
     3
 72
    28
 73
    24
 74
     0
 42
0.00000001
 43
0.00000001
 40
0.0
 40
0.0
 40
0.0
 40
0.0
 40
0.1249999999999998
 40
0.1249999999999998
 40
0.2499999999999997
 40
0.2499999999999997
 40
0.3124999999999996
 40
0.3124999999999996
 40
0.3749999999999995
 40
0.3749999999999995
 40
0.4999999999999993
 40
0.4999999999999993
 40
0.5624999999999992
 40
0.5624999999999992
 40
0.6249999999999991
 40
0.6249999999999991
 40
0.749999999999999
 40
0.749999999999999
 40
0.8124999999999991
 40
0.8124999999999991
 40
0.8749999999999992
 40
0.8749999999999992
 40
1.0
 40
1.0
 40
1.0
 40
1.0
 10
353.8974570502431
 20
120.8178256440305
 30
0.0
 10
354.5447999781938
 20
120.3323184480675
 30
0.0
 10
355.2229370037283
 20
119.9050205062947
 30
0.0
 10
356.6385632096208
 20
119.1626053103517
 30
0.0
 10
357.3760509994851
 20
118.8474854704639
 30
0.0
 10
358.5286432517826
 20
118.4624242797352
 30
0.0
 10
358.9183344680715
 20
118.3496358845743
 30
0.0
 10
359.6997797987215
 20
118.1571028912232
 30
0.0
 10
360.0928533937883
 20
118.0769072987984
 30
0.0
 10
361.2790321832335
 20
117.8838843600879
 30
0.0
 10
362.0790494582581
 20
117.8183068093477
 30
0.0
 10
363.2933604014034
 20
117.8175889925241
 30
0.0
 10
363.7004411124414
 20
117.8339060932797
 30
0.0
 10
364.5043791081717
 20
117.8986959774829
 30
0.0
 10
364.9031434225771
 20
117.9471211273249
 30
0.0
 10
366.0899990452105
 20
118.1396037421889
 30
0.0
 10
366.8687138825198
 20
118.3305638652163
 30
0.0
 10
368.0176026227975
 20
118.7129676871136
 30
0.0
 10
368.3983516097297
 20
118.8570593966227
 30
0.0
 10
369.1409941135192
 20
119.1730068431505
 30
0.0
 10
369.5043032205526
 20
119.3452384928339
 30
0.0
 10
370.5705955229695
 20
119.903994708276
 30
0.0
 10
371.250097803321
 20
120.3323062088389
 30
0.0
 10
371.8974570502431
 20
120.8178256440305
 30
0.0
  0
LINE
  5
1CB
330
1F
100
AcDbEntity
  8
0
  6
SLD-Сплошная
 62
     7
370
    25
100
AcDbLine
 10
367.8974570502
 20
193.4971655495
 30
0.0
 11
367.8974570502
 21
201.1021791034
 31
0.0
  0
LINE
  5
1CC
330
1F
100
AcDbEntity
  8
0
  6
SLD-Сплошная
 62
     7
370
    25
100
AcDbLine
 10
372.8974570502
 20
201.1021791034
 30
0.0
 11
367.8974570502
 21
201.1021791034
 31
0.0
  0
LINE
  5
1CD
330
1F
100
AcDbEntity
  8
0
  6
SLD-Сплошная
 62
     7
370
    25
100
AcDbLine
 10
372.8974570502
 20
193.4971655495
 30
0.0
 11
372.8974570502
 21
201.1021791034
 31
0.0
  0
LINE
  5
1CE
330
1F
100
AcDbEntity
  8
0
  6
SLD-Сплошная
 62
     7
370
    25
100
AcDbLine
 10
357.8974570502
 20
193.4971655495
 30
0.0
 11
357.8974570502
 21
201.1021791034
 31
0.0
  0
LINE
  5
1CF
330
1F
100
AcDbEntity
  8
0
  6
SLD-Сплошная
 62
     7
370
    25
100
AcDbLine
 10
352.8974570502
 20
193.4971655495
 30
0.0
 11
352.8974570502
 21
201.1021791034
 31
0.0
  0
LINE
  5
1D0
330
1F
100
AcDbEntity
  8
0
  6
SLD-Сплошная
 62
     7
370
    25
100
AcDbLine
 10
352.8974570502
 20
201.1021791034
 30
0.0
 11
357.8974570502
 21
201.1021791034
 31
0.0
  0
LINE
  5
1D1
330
1F
100
AcDbEntity
  8
0
  6
SLD-Сплошная
 62
     7
370
    25
100
AcDbLine
 10
357.8974570502
 20
193.967825644
 30
0.0
 11
367.8974570502
 21
193.967825644
 31
0.0
  0
LINE
  5
1D2
330
1F
100
AcDbEntity
  8
0
  6
SLD-Сплошная
 62
     7
370
    25
100
AcDbLine
 10
357.8974570502
 20
202.4314798242
 30
0.0
 11
357.8974570502
 21
201.1021791034
 31
0.0
  0
LINE
  5
1D3
330
1F
100
AcDbEntity
  8
0
  6
SLD-Сплошная
 62
     7
370
    25
100
AcDbLine
 10
367.8885684998
 20
202.4314798242
 30
0.0
 11
357.8974570502
 21
202.4314798242
 31
0.0
  0
LINE
  5
1D4
330
1F
100
AcDbEntity
  8
0
  6
SLD-Сплошная
 62
     7
370
    25
100
AcDbLine
 10
367.8885684998
 20
201.1021791034
 30
0.0
 11
367.8885684998
 21
202.4314798242
 31
0.0
  0
LINE
  5
1D5
330
1F
100
AcDbEntity
  8
0
  6
SLD-Сплошная
 62
     7
370
    25
100
AcDbLine
 10
367.8974570502
 20
201.1021791034
 30
0.0
 11
367.8885684998
 21
201.1021791034
 31
0.0
  0
LINE
  5
1D6
330
1F
100
AcDbEntity
  8
0
  6
SLD-Сплошная
 62
     7
370
    25
100
AcDbLine
 10
357.8974570502
 20
211.4666216817
 30
0.0
 11
367.8885684998
 21
211.4666216817
 31
0.0
  0
LINE
  5
1D7
330
1F
100
AcDbEntity
  8
0
  6
SLD-Сплошная
 62
     7
370
    25
100
AcDbLine
 10
357.8974570502
 20
211.4666216817
 30
0.0
 11
357.8974570502
 21
202.4314798242
 31
0.0
  0
LINE
  5
1D8
330
1F
100
AcDbEntity
  8
0
  6
SLD-Сплошная
 62
     7
370
    25
100
AcDbLine
 10
367.8885684998
 20
211.4666216817
 30
0.0
 11
367.8885684998
 21
202.4314798242
 31
0.0
  0
LINE
  5
1D9
330
1F
100
AcDbEntity
  8
0
  6
SLD-Сплошная
 62
     7
370
    25
100
AcDbLine
 10
163.9940431302
 20
294.4006144571
 30
0.0
 11
151.5940431302
 21
294.4006144571
 31
0.0
  0
LINE
  5
1DA
330
1F
100
AcDbEntity
  8
0
  6
SLD-Сплошная
 62
     7
370
    25
100
AcDbLine
 10
194.0940431302
 20
294.4006144571
 30
0.0
 11
180.5940431302
 21
294.4006144571
 31
0.0
  0
LINE
  5
1DB
330
1F
100
AcDbEntity
  8
0
  6
SLD-Сплошная
 62
     7
370
    25
100
AcDbLine
 10
151.5940431302
 20
229.1006144571
 30
0.0
 11
194.0940431302
 21
229.1006144571
 31
0.0
  0
ARC
  5
1DC
330
1F
100
AcDbEntity
  8
0
  6
SLD-Сплошная
 62
     7
370
    25
100
AcDbCircle
 10
196.8399358912
 20
481.5044953077
 30
0.0
 40
250.0
100
AcDbArc
 50
278.0040923956
 51
281.320082804
  0
ARC
  5
1DD
330
1F
100
AcDbEntity
  8
0
  6
SLD-Сплошная
 62
     7
370
    25
100
AcDbCircle
 10
196.8399358912
 20
41.9967336064
 30
0.0
 40
250.0
100
AcDbArc
 50
78.6799701557
 51
81.9975301084
  0
LINE
  5
1DE
330
1F
100
AcDbEntity
  8
0
  6
SLD-Сплошная
 62
     7
370
    25
100
AcDbLine
 10
196.2139900347
 20
291.4006144571
 30
0.0
 11
194.0940431302
 21
291.4006144571
 31
0.0
  0
LINE
  5
1DF
330
1F
100
AcDbEntity
  8
0
  6
SLD-Сплошная
 62
     7
370
    25
100
AcDbLine
 10
194.0940431302
 20
232.1006144571
 30
0.0
 11
196.2140478203
 21
232.1006144571
 31
0.0
  0
ARC
  5
1E0
330
1F
100
AcDbEntity
  8
0
  6
SLD-Сплошная
 62
     7
370
    25
100
AcDbCircle
 10
287.1531067235
 20
261.7500244327
 30
0.0
 40
15.00000000000006
100
AcDbArc
 50
309.5869195216
 51
330.0
  0
ARC
  5
1E1
330
1F
100
AcDbEntity
  8
0
  6
SLD-Сплошная
 62
     7
370
    25
100
AcDbCircle
 10
287.1531067235
 20
261.7500244327
 30
0.0
 40
15.00000000000006
100
AcDbArc
 50
30.0
 51
50.4130804784
  0
LINE
  5
1E2
330
1F
100
AcDbEntity
  8
0
  6
SLD-Сплошная
 62
     7
370
    25
100
AcDbLine
 10
167.9892386542
 20
294.0006144571
 30
0.0
 11
163.9940431302
 21
294.0006144571
 31
0.0
  0
LINE
  5
1E3
330
1F
100
AcDbEntity
  8
0
  6
SLD-Сплошная
 62
     7
370
    25
100
AcDbLine
 10
171.1200081302
 20
294.0006144571
 30
0.0
 11
170.3373086542
 21
294.0006144571
 31
0.0
  0
LINE
  5
1E4
330
1F
100
AcDbEntity
  8
0
  6
SLD-Сплошная
 62
     7
370
    25
100
AcDbLine
 10
180.5940431302
 20
294.0006144571
 30
0.0
 11
176.5988476062
 21
294.0006144571
 31
0.0
  0
SPLINE
  5
1E5
330
1F
100
AcDbEntity
  8
0
  6
SLD-Сплошная
 62
     7
370
    25
100
AcDbSpline
210
0.0
220
0.0
230
1.0
 70
     8
 71
     3
 72
    18
 73
    14
 74
     0
 42
0.00000001
 43
0.00000001
 40
0.0
 40
0.0
 40
0.0
 40
0.0
 40
0.0821936871613759
 40
0.1770418380764635
 40
0.2794083684636897
 40
0.3865381547809655
 40
0.4958252057621821
 40
0.6115796942229833
 40
0.715980020655658
 40
0.811087794623706
 40
0.8977231220522771
 40
0.9750993660032454
 40
1.0
 40
1.0
 40
1.0
 40
1.0
 10
216.7005845423674
 20
288.8569466088573
 30
0.0
 10
216.6202447098465
 20
289.0212309360189
 30
0.0
 10
216.4471959987901
 20
289.3750926528044
 30
0.0
 10
216.0311980291827
 20
289.8801493783282
 30
0.0
 10
215.4797787653314
 20
290.3316640461866
 30
0.0
 10
214.8080548808681
 20
290.6700043300588
 30
0.0
 10
214.0471505702631
 20
290.8592692481558
 30
0.0
 10
213.2682023412185
 20
290.8684061596708
 30
0.0
 10
212.5426092451474
 20
290.709545915542
 30
0.0
 10
211.9299674349212
 20
290.4345292220813
 30
0.0
 10
211.4375365521915
 20
290.0883425113598
 30
0.0
 10
211.1301101885882
 20
289.7828673561069
 30
0.0
 10
210.9924606640936
 20
289.6070798964237
 30
0.0
 10
210.9589480999829
 20
289.5642821567719
 30
0.0
  0
SPLINE
  5
1E6
330
1F
100
AcDbEntity
  8
0
  6
SLD-Сплошная
 62
     7
370
    25
100
AcDbSpline
210
0.0
220
0.0
230
1.0
 70
     8
 71
     3
 72
    18
 73
    14
 74
     0
 42
0.00000001
 43
0.00000001
 40
0.0
 40
0.0
 40
0.0
 40
0.0
 40
0.0821936871613753
 40
0.1770418380764623
 40
0.2794083684636878
 40
0.3865381547809639
 40
0.495825205762181
 40
0.6115796942229812
 40
0.7159800206556562
 40
0.8110877946237046
 40
0.8977231220522777
 40
0.9750993660032421
 40
1.0
 40
1.0
 40
1.0
 40
1.0
 10
210.9589480999829
 20
233.9369467573285
 30
0.0
 10
211.0767583614655
 20
233.7970733462389
 30
0.0
 10
211.3305168428948
 20
233.495791743569
 30
0.0
 10
211.8566561881127
 20
233.1068007460794
 30
0.0
 10
212.5011728545175
 20
232.8026182900367
 30
0.0
 10
213.234929110102
 20
232.6374248215229
 30
0.0
 10
214.0190180311959
 20
232.6384939040255
 30
0.0
 10
214.7768934549839
 20
232.8186845494593
 30
0.0
 10
215.4422353596342
 20
233.1488997340692
 30
0.0
 10
215.9698114848147
 20
233.5643845129226
 30
0.0
 10
216.3634976672366
 20
234.019735589254
 30
0.0
 10
216.587591808146
 20
234.3906909174611
 30
0.0
 10
216.6784612072264
 20
234.5946305528591
 30
0.0
 10
216.7005845423674
 20
234.6442823052431
 30
0.0
  0
SPLINE
  5
1E7
330
1F
100
AcDbEntity
  8
0
  6
SLD-Сплошная
 62
     7
370
    25
100
AcDbSpline
210
0.0
220
0.0
230
1.0
 70
     8
 71
     3
 72
    17
 73
    13
 74
     0
 42
0.00000001
 43
0.00000001
 40
0.0
 40
0.0
 40
0.0
 40
0.0
 40
0.0941787995482236
 40
0.197588485819885
 40
0.3080714053996411
 40
0.4223592493869234
 40
0.5381343317513564
 40
0.6560798349183479
 40
0.7628716333813161
 40
0.8604951611186168
 40
0.9494332999050176
 40
0.9999999999999999
 40
0.9999999999999999
 40
0.9999999999999999
 40
0.9999999999999999
 10
232.7630345812801
 20
236.1784203671388
 30
0.0
 10
232.9221847215801
 20
236.0492173908312
 30
0.0
 10
233.2560840215367
 20
235.7781476747749
 30
0.0
 10
233.8805563681917
 20
235.4853598749153
 30
0.0
 10
234.5926955409979
 20
235.31003250468
 30
0.0
 10
235.3573174274825
 20
235.2949895850541
 30
0.0
 10
236.1226809239737
 20
235.4527082944973
 30
0.0
 10
236.8177401547259
 20
235.7719323100035
 30
0.0
 10
237.3932641531659
 20
236.2082825653887
 30
0.0
 10
237.8244889109367
 20
236.6992475938809
 30
0.0
 10
238.0978257299259
 20
237.1493495149594
 30
0.0
 10
238.2100050574931
 20
237.4292442576622
 30
0.0
 10
238.2506670048452
 20
237.5306984697591
 30
0.0
  0
SPLINE
  5
1E8
330
1F
100
AcDbEntity
  8
0
  6
SLD-Сплошная
 62
     7
370
    25
100
AcDbSpline
210
0.0
220
0.0
230
1.0
 70
     8
 71
     3
 72
    17
 73
    13
 74
     0
 42
0.00000001
 43
0.00000001
 40
0.0
 40
0.0
 40
0.0
 40
0.0
 40
0.0941787995482226
 40
0.1975884858198825
 40
0.3080714053996426
 40
0.4223592493869261
 40
0.5381343317513575
 40
0.6560798349183462
 40
0.7628716333813168
 40
0.8604951611186173
 40
0.9494332999050165
 40
1.0
 40
1.0
 40
1.0
 40
1.0
 10
238.2506670048452
 20
285.9705304443414
 30
0.0
 10
238.1697706385283
 20
286.1588863684876
 30
0.0
 10
238.0000488900503
 20
286.5540598260577
 30
0.0
 10
237.5831143874647
 20
287.1034740850983
 30
0.0
 10
237.033974743167
 20
287.5896093947183
 30
0.0
 10
236.3638882542831
 20
287.9581972623122
 30
0.0
 10
235.6128745977738
 20
288.1741485549833
 30
0.0
 10
234.8490752363919
 20
288.2144206530452
 30
0.0
 10
234.1367043037964
 20
288.0954371560887
 30
0.0
 10
233.5267352208487
 20
287.8610460966075
 30
0.0
 10
233.0755628534259
 20
287.5894798047968
 30
0.0
 10
232.8461797143911
 20
287.3937538636121
 30
0.0
 10
232.7630345812801
 20
287.3228085469617
 30
0.0
  0
LINE
  5
1E9
330
1F
100
AcDbEntity
  8
0
  6
SLD-Сплошная
 62
     7
370
    25
100
AcDbLine
 10
264.1434877803
 20
272.7506144571
 30
0.0
 11
256.5940431302
 21
272.7506144571
 31
0.0
  0
SPLINE
  5
1EA
330
1F
100
AcDbEntity
  8
0
  6
SLD-Сплошная
 62
     7
370
    25
100
AcDbSpline
210
0.0
220
0.0
230
1.0
 70
     8
 71
     3
 72
    25
 73
    21
 74
     0
 42
0.00000001
 43
0.00000001
 40
0.0
 40
0.0
 40
0.0
 40
0.0
 40
0.1021640913709356
 40
0.1883296152435969
 40
0.2577802527994856
 40
0.3106477287425113
 40
0.3631567191887394
 40
0.4132500697177559
 40
0.4617350006220975
 40
0.4971148159599163
 40
0.5314479350238881
 40
0.564594919477579
 40
0.5990247074763093
 40
0.6339013684294315
 40
0.6814783148627019
 40
0.742360774486421
 40
0.7967519039800749
 40
0.8585875884923005
 40
0.9279816965104623
 40
1.0
 40
1.0
 40
1.0
 40
1.0
 10
239.6176103855189
 20
233.3875387865077
 30
0.0
 10
240.4329951194382
 20
233.5402484490508
 30
0.0
 10
241.9360779654156
 20
233.8217539330697
 30
0.0
 10
244.0070564140561
 20
234.1728197203864
 30
0.0
 10
245.6151788459036
 20
234.4386429266429
 30
0.0
 10
246.9068871808395
 20
234.6499385892729
 30
0.0
 10
248.0287882861978
 20
234.8385806225845
 30
0.0
 10
249.0644860623651
 20
235.0227226283493
 30
0.0
 10
249.9362906527798
 20
235.1917658357661
 30
0.0
 10
250.6683447469455
 20
235.3486210273994
 30
0.0
 10
251.280281421257
 20
235.4940381284452
 30
0.0
 10
251.862642270932
 20
235.6503120151766
 30
0.0
 10
252.4259873568803
 20
235.8218900888165
 30
0.0
 10
253.1164331162062
 20
236.0717140785811
 30
0.0
 10
253.9120826580354
 20
236.4375999539421
 30
0.0
 10
254.7178310121516
 20
236.9461848529592
 30
0.0
 10
255.4383358208514
 20
237.5870815914796
 30
0.0
 10
256.0040879821706
 20
238.329474207323
 30
0.0
 10
256.4161021038802
 20
239.1737318798615
 30
0.0
 10
256.517716768402
 20
239.862089025032
 30
0.0
 10
256.5694669342502
 20
240.2126545324124
 30
0.0
  0
SPLINE
  5
1EB
330
1F
100
AcDbEntity
  8
0
  6
SLD-Сплошная
 62
     7
370
    25
100
AcDbSpline
210
0.0
220
0.0
230
1.0
 70
     8
 71
     3
 72
    21
 73
    17
 74
     0
 42
0.00000001
 43
0.00000001
 40
0.0
 40
0.0
 40
0.0
 40
0.0
 40
0.0555681525515665
 40
0.1094331994309435
 40
0.2004580983820041
 40
0.2685270150014265
 40
0.3139205610493411
 40
0.3887895697261414
 40
0.473063175673669
 40
0.5338548746893845
 40
0.5986990266564838
 40
0.676498637392146
 40
0.7448010586008711
 40
0.8215088194990502
 40
0.9067475765350188
 40
1.0
 40
1.0
 40
1.0
 40
1.0
 10
256.5694669342502
 20
283.2885743816881
 30
0.0
 10
256.5326691553358
 20
283.5675354084747
 30
0.0
 10
256.4602014108876
 20
284.1169075987678
 30
0.0
 10
256.1136253561087
 20
284.9970614197159
 30
0.0
 10
255.5056975909225
 20
285.8933154391743
 30
0.0
 10
254.6197550167087
 20
286.64243307833
 30
0.0
 10
253.6338340962931
 20
287.222309455577
 30
0.0
 10
252.5461431192723
 20
287.6580816108976
 30
0.0
 10
251.3537595756483
 20
287.9983068312239
 30
0.0
 10
250.0819273997082
 20
288.282621992532
 30
0.0
 10
248.7539012180763
 20
288.5369995606389
 30
0.0
 10
247.2878215546125
 20
288.7864573651651
 30
0.0
 10
245.6370412555523
 20
289.0543507760411
 30
0.0
 10
243.8420499962916
 20
289.3521423837262
 30
0.0
 10
241.7824562023345
 20
289.7066362389144
 30
0.0
 10
240.3605059528839
 20
289.9740041844974
 30
0.0
 10
239.6176103855189
 20
290.1136901275927
 30
0.0
  0
LWPOLYLINE
  5
1EC
330
1F
100
AcDbEntity
  8
0
  6
SLD-Сплошная
 62
     7
370
    25
100
AcDbPolyline
 90
        3
 70
   128
 43
0.0
 10
256.1854742095
 20
238.6504093184
 10
256.2067833662
 20
238.655617565
 10
256.5940431302
 20
238.7506144571
  0
LINE
  5
1ED
330
1F
100
AcDbEntity
  8
0
  6
SLD-Сплошная
 62
     7
370
    25
100
AcDbLine
 10
256.5940431302
 20
284.7506144571
 30
0.0
 11
256.2113586361
 21
284.8444928327
 31
0.0
  0
LINE
  5
1EE
330
1F
100
AcDbEntity
  8
0
  6
SLD-Сплошная
 62
     7
370
    25
100
AcDbLine
 10
170.3373086542
 20
294.4006144571
 30
0.0
 11
167.9892386542
 21
294.4006144571
 31
0.0
  0
LINE
  5
1EF
330
1F
100
AcDbEntity
  8
0
  6
SLD-Сплошная
 62
     7
370
    25
100
AcDbLine
 10
173.4680781302
 20
294.4006144571
 30
0.0
 11
171.1200081302
 21
294.4006144571
 31
0.0
  0
LINE
  5
1F0
330
1F
100
AcDbEntity
  8
0
  6
SLD-Сплошная
 62
     7
370
    25
100
AcDbLine
 10
176.5988476062
 20
294.4006144571
 30
0.0
 11
174.2507776062
 21
294.4006144571
 31
0.0
  0
LINE
  5
1F1
330
1F
100
AcDbEntity
  8
0
  6
SLD-Сплошная
 62
     7
370
    25
100
AcDbLine
 10
256.5940431302
 20
250.7506144571
 30
0.0
 11
264.1434877803
 21
250.7506144571
 31
0.0
  0
LINE
  5
1F2
330
1F
100
AcDbEntity
  8
0
  6
SLD-Сплошная
 62
     7
370
    25
100
AcDbLine
 10
296.6416056762
 20
248.3814647636
 30
0.0
 11
296.7118277278
 21
250.1901432585
 31
0.0
  0
LINE
  5
1F3
330
1F
100
AcDbEntity
  8
0
  6
SLD-Сплошная
 62
     7
370
    25
100
AcDbLine
 10
296.7118277278
 20
273.3099056068
 30
0.0
 11
296.6416056762
 21
275.1185841017
 31
0.0
  0
SPLINE
  5
1F4
330
1F
100
AcDbEntity
  8
0
  6
SLD-Сплошная
 62
     7
370
    25
100
AcDbSpline
210
0.0
220
0.0
230
1.0
 70
     8
 71
     3
 72
    12
 73
     8
 74
     0
 42
0.00000001
 43
0.00000001
 40
0.0
 40
0.0
 40
0.0
 40
0.0
 40
0.1934289736100458
 40
0.4003578115434037
 40
0.600914001900796
 40
0.8151356360124231
 40
1.0
 40
1.0
 40
1.0
 40
1.0
 10
212.4565099165975
 20
293.4501414690189
 30
0.0
 10
211.9429444180741
 20
293.45150179954
 30
0.0
 10
210.8799704735007
 20
293.4543174012578
 30
0.0
 10
209.2722551293998
 20
293.4606257025357
 30
0.0
 10
207.6127132673741
 20
293.4629928827494
 30
0.0
 10
206.0279380925738
 20
293.4646289680265
 30
0.0
 10
204.9867928886853
 20
293.4610386104678
 30
0.0
 10
204.5045142648992
 20
293.459375487307
 30
0.0
  0
SPLINE
  5
1F5
330
1F
100
AcDbEntity
  8
0
  6
SLD-Сплошная
 62
     7
370
    25
100
AcDbSpline
210
0.0
220
0.0
230
1.0
 70
     8
 71
     3
 72
    10
 73
     6
 74
     0
 42
0.00000001
 43
0.00000001
 40
0.0
 40
0.0
 40
0.0
 40
0.0
 40
0.3329449018587698
 40
0.6672168476026409
 40
1.0
 40
1.0
 40
1.0
 40
1.0
 10
204.5045299768049
 20
230.0418533237798
 30
0.0
 10
205.3737255954386
 20
230.039660737676
 30
0.0
 10
207.1155812519665
 20
230.0352668263107
 30
0.0
 10
209.7971125893072
 20
230.0425827565736
 30
0.0
 10
211.5713591128024
 20
230.0482568048111
 30
0.0
 10
212.4565024133545
 20
230.0510874970052
 30
0.0
  0
LINE
  5
1F6
330
1F
100
AcDbEntity
  8
0
  6
SLD-Сплошная
 62
     7
370
    25
100
AcDbLine
 10
212.4585175231
 20
230.051116044
 30
0.0
 11
214.2131829384
 21
230.0536804713
 31
0.0
  0
LINE
  5
1F7
330
1F
100
AcDbEntity
  8
0
  6
SLD-Сплошная
 62
     7
370
    25
100
AcDbLine
 10
214.2131829384
 20
293.4475484428
 30
0.0
 11
212.4585175231
 21
293.4501128701
 31
0.0
  0
SPLINE
  5
1F8
330
1F
100
AcDbEntity
  8
0
  6
SLD-Сплошная
 62
     7
370
    25
100
AcDbSpline
210
0.0
220
0.0
230
1.0
 70
     8
 71
     3
 72
    10
 73
     6
 74
     0
 42
0.00000001
 43
0.00000001
 40
0.0
 40
0.0
 40
0.0
 40
0.0
 40
0.3341774085898744
 40
0.6693569034838867
 40
1.0
 40
1.0
 40
1.0
 40
1.0
 10
214.2161138454502
 20
230.0538781741936
 30
0.0
 10
217.0615662592676
 20
230.2895433748762
 30
0.0
 10
222.7610036472122
 20
230.7615804573752
 30
0.0
 10
231.2377650344757
 20
231.8679099117971
 30
0.0
 10
236.8366352521377
 20
232.8832103981177
 30
0.0
 10
239.6169971828421
 20
233.38740190652
 30
0.0
  0
SPLINE
  5
1F9
330
1F
100
AcDbEntity
  8
0
  6
SLD-Сплошная
 62
     7
370
    25
100
AcDbSpline
210
0.0
220
0.0
230
1.0
 70
     8
 71
     3
 72
    10
 73
     6
 74
     0
 42
0.00000001
 43
0.00000001
 40
0.0
 40
0.0
 40
0.0
 40
0.0
 40
0.3306430965161053
 40
0.6658225914101108
 40
1.0
 40
1.0
 40
1.0
 40
1.0
 10
239.6169971828421
 20
290.1138270075805
 30
0.0
 10
236.8366352521378
 20
290.6180185159827
 30
0.0
 10
231.2377650344759
 20
291.6333190023033
 30
0.0
 10
222.7610036472124
 20
292.7396484567252
 30
0.0
 10
217.0615662592677
 20
293.2116855392242
 30
0.0
 10
214.2161138454502
 20
293.4473507399068
 30
0.0
  0
LINE
  5
1FA
330
1F
100
AcDbEntity
  8
0
  6
SLD-Сплошная
 62
     7
370
    25
100
AcDbLine
 10
275.1434877803
 20
244.2500244327
 30
0.0
 11
287.1531067235
 21
244.2500244327
 31
0.0
  0
ARC
  5
1FB
330
1F
100
AcDbEntity
  8
0
  6
SLD-Сплошная
 62
     7
370
    25
100
AcDbCircle
 10
287.1531067235
 20
261.7500244327
 30
0.0
 40
17.5
100
AcDbArc
 50
270.0
 51
297.7766046258
  0
ARC
  5
1FC
330
1F
100
AcDbEntity
  8
0
  6
SLD-Сплошная
 62
     7
370
    25
100
AcDbCircle
 10
294.1434877803
 20
248.4784543416
 30
0.0
 40
2.500000000000021
100
AcDbArc
 50
297.7766046258
 51
357.7766046258
  0
ARC
  5
1FD
330
1F
100
AcDbEntity
  8
0
  6
SLD-Сплошная
 62
     7
370
    25
100
AcDbCircle
 10
294.1434877803
 20
275.0215945237
 30
0.0
 40
2.50000000000002
100
AcDbArc
 50
2.2233953742
 51
62.2233953742
  0
ARC
  5
1FE
330
1F
100
AcDbEntity
  8
0
  6
SLD-Сплошная
 62
     7
370
    25
100
AcDbCircle
 10
287.1531067235
 20
261.7500244327
 30
0.0
 40
17.5
100
AcDbArc
 50
62.2233953742
 51
90.0
  0
LINE
  5
1FF
330
1F
100
AcDbEntity
  8
0
  6
SLD-Сплошная
 62
     7
370
    25
100
AcDbLine
 10
287.1531067235
 20
279.2500244327
 30
0.0
 11
275.1434877803
 21
279.2500244327
 31
0.0
  0
LINE
  5
200
330
1F
100
AcDbEntity
  8
0
  6
SLD-Сплошная
 62
     7
370
    25
100
AcDbLine
 10
194.0940431302
 20
230.2373251929
 30
0.0
 11
204.5036196553
 21
230.041861665
 31
0.0
  0
LINE
  5
201
330
1F
100
AcDbEntity
  8
0
  6
SLD-Сплошная
 62
     7
370
    25
100
AcDbLine
 10
204.5036196553
 20
293.4593672491
 30
0.0
 11
194.0940431302
 21
293.2639037212
 31
0.0
  0
ARC
  5
202
330
1F
100
AcDbEntity
  8
0
  6
SLD-Сплошная
 62
     7
370
    25
100
AcDbCircle
 10
291.5940431302
 20
261.7506144571
 30
0.0
 40
150.0
100
AcDbArc
 50
167.4279780332
 51
176.4484329448
  0
ARC
  5
203
330
1F
100
AcDbEntity
  8
0
  6
SLD-Сплошная
 62
     7
370
    25
100
AcDbCircle
 10
291.5940431302
 20
261.7506144571
 30
0.0
 40
150.0
100
AcDbArc
 50
177.7483022664
 51
182.2516977336
  0
ARC
  5
204
330
1F
100
AcDbEntity
  8
0
  6
SLD-Сплошная
 62
     7
370
    25
100
AcDbCircle
 10
291.5940431302
 20
261.7506144571
 30
0.0
 40
150.0
100
AcDbArc
 50
183.5515670552
 51
192.5720219668
  0
LINE
  5
205
330
1F
100
AcDbEntity
  8
0
  6
SLD-Сплошная
 62
     7
370
    25
100
AcDbLine
 10
145.1905681032
 20
229.1006144571
 30
0.0
 11
151.5940431302
 21
229.1006144571
 31
0.0
  0
LINE
  5
206
330
1F
100
AcDbEntity
  8
0
  6
SLD-Сплошная
 62
     7
370
    25
100
AcDbLine
 10
151.5940431302
 20
294.4006144571
 30
0.0
 11
145.1905681032
 21
294.4006144571
 31
0.0
  0
LINE
  5
207
330
1F
100
AcDbEntity
  8
0
  6
SLD-Сплошная
 62
     7
370
    25
100
AcDbLine
 10
194.0940431302
 20
268.293664243
 30
0.0
 11
151.5940431302
 21
268.293664243
 31
0.0
  0
LINE
  5
208
330
1F
100
AcDbEntity
  8
0
  6
SLD-Сплошная
 62
     7
370
    25
100
AcDbLine
 10
151.5940431302
 20
255.2075646711
 30
0.0
 11
194.0940431302
 21
255.2075646711
 31
0.0
  0
LINE
  5
209
330
1F
100
AcDbEntity
  8
0
  6
SLD-Сплошная
 62
     7
370
    25
100
AcDbLine
 10
151.5940431302
 20
255.2075646711
 30
0.0
 11
151.5940431302
 21
268.293664243
 31
0.0
  0
LINE
  5
20A
330
1F
100
AcDbEntity
  8
0
  6
SLD-Сплошная
 62
     7
370
    25
100
AcDbLine
 10
194.0940431302
 20
255.2075646711
 30
0.0
 11
194.0940431302
 21
268.293664243
 31
0.0
  0
SPLINE
  5
20B
330
1F
100
AcDbEntity
  8
0
  6
SLD-Сплошная
 62
     7
370
    25
100
AcDbSpline
210
0.0
220
0.0
230
1.0
 70
     8
 71
     3
 72
    28
 73
    24
 74
     0
 42
0.00000001
 43
0.00000001
 40
0.0
 40
0.0
 40
0.0
 40
0.0
 40
0.1250000000000004
 40
0.1250000000000004
 40
0.1875000000000007
 40
0.1875000000000007
 40
0.2500000000000008
 40
0.2500000000000008
 40
0.3750000000000008
 40
0.3750000000000008
 40
0.4375000000000008
 40
0.4375000000000008
 40
0.5000000000000008
 40
0.5000000000000008
 40
0.6250000000000006
 40
0.6250000000000006
 40
0.7500000000000002
 40
0.7500000000000002
 40
0.875
 40
0.875
 40
0.9375
 40
0.9375
 40
1.0
 40
1.0
 40
1.0
 40
1.0
 10
210.9589480999828
 20
233.9369467573286
 30
0.0
 10
210.6155462629089
 20
234.4541134047366
 30
0.0
 10
210.2849334655434
 20
235.0728996479091
 30
0.0
 10
209.8053982619722
 20
236.1520656526435
 30
0.0
 10
209.6484314871725
 20
236.5370669696981
 30
0.0
 10
209.3406951635133
 20
237.3587741233522
 30
0.0
 10
209.1910966086676
 20
237.792391376738
 30
0.0
 10
208.7580760275131
 20
239.1546813948313
 30
0.0
 10
208.4891346329614
 20
240.1467462384609
 30
0.0
 10
208.1108952347469
 20
241.7603725529298
 30
0.0
 10
207.9891280597002
 20
242.3192635199526
 30
0.0
 10
207.7548559255024
 20
243.4802635196577
 30
0.0
 10
207.641941714622
 20
244.0849975966986
 30
0.0
 10
207.324291212874
 20
245.9373796958023
 30
0.0
 10
207.1390927411213
 20
247.2276594035227
 30
0.0
 10
206.8138876200361
 20
249.9163707207003
 30
0.0
 10
206.6737101744502
 20
251.3147454146231
 30
0.0
 10
206.4476801605296
 20
254.2261328967159
 30
0.0
 10
206.3652345232581
 20
255.7052334494015
 30
0.0
 10
206.281609997062
 20
257.950403320718
 30
0.0
 10
206.2603862135016
 20
258.703648657909
 30
0.0
 10
206.2310356637958
 20
260.2199544531862
 30
0.0
 10
206.2228970699789
 20
260.984326619979
 30
0.0
 10
206.2217618069451
 20
261.7506144570502
 30
0.0
  0
SPLINE
  5
20C
330
1F
100
AcDbEntity
  8
0
  6
SLD-Сплошная
 62
     7
370
    25
100
AcDbSpline
210
0.0
220
0.0
230
1.0
 70
     8
 71
     3
 72
    18
 73
    14
 74
     0
 42
0.00000001
 43
0.00000001
 40
0.0
 40
0.0
 40
0.0
 40
0.0
 40
0.25
 40
0.25
 40
0.375
 40
0.375
 40
0.5
 40
0.5
 40
0.625
 40
0.625
 40
0.75
 40
0.75
 40
1.0
 40
1.0
 40
1.0
 40
1.0
 10
211.9663244534831
 20
261.7506144569904
 30
0.0
 10
211.9676569407034
 20
259.8300597765468
 30
0.0
 10
212.0134385529302
 20
257.9329101167405
 30
0.0
 10
212.1543932725187
 20
255.1218954993601
 30
0.0
 10
212.2136768084781
 20
254.1881283617839
 30
0.0
 10
212.3527914071251
 20
252.3666331484044
 30
0.0
 10
212.4327463655612
 20
251.4748375822538
 30
0.0
 10
212.613965059573
 20
249.7283047769587
 30
0.0
 10
212.7152251286575
 20
248.8735683503684
 30
0.0
 10
212.9390139723262
 20
247.2012275280109
 30
0.0
 10
213.0618601574378
 20
246.3817636375664
 30
0.0
 10
213.4593506510395
 20
243.9927778077302
 30
0.0
 10
213.7584446996288
 20
242.5170865921672
 30
0.0
 10
214.094043130214
 20
241.1569992981565
 30
0.0
  0
SPLINE
  5
20D
330
1F
100
AcDbEntity
  8
0
  6
SLD-Сплошная
 62
     7
370
    25
100
AcDbSpline
210
0.0
220
0.0
230
1.0
 70
     8
 71
     3
 72
    12
 73
     8
 74
     0
 42
0.00000001
 43
0.00000001
 40
0.0
 40
0.0
 40
0.0
 40
0.0
 40
0.5000000000000002
 40
0.5000000000000002
 40
0.7500000000000001
 40
0.7500000000000001
 40
1.0
 40
1.0
 40
1.0
 40
1.0
 10
214.094043130214
 20
241.1569992981565
 30
0.0
 10
214.4665334474568
 20
239.7391684924108
 30
0.0
 10
214.8719009068909
 20
238.4861522191116
 30
0.0
 10
215.5273671947684
 20
236.8469116481652
 30
0.0
 10
215.7542915298035
 20
236.341451863283
 30
0.0
 10
216.2188205613311
 20
235.4249724988745
 30
0.0
 10
216.4571453988619
 20
235.0120015888859
 30
0.0
 10
216.7005845423674
 20
234.6442823052431
 30
0.0
  0
SPLINE
  5
20E
330
1F
100
AcDbEntity
  8
0
  6
SLD-Сплошная
 62
     7
370
    25
100
AcDbSpline
210
0.0
220
0.0
230
1.0
 70
     8
 71
     3
 72
    28
 73
    24
 74
     0
 42
0.00000001
 43
0.00000001
 40
0.0
 40
0.0
 40
0.0
 40
0.0
 40
0.1250000000000003
 40
0.1250000000000003
 40
0.1875000000000004
 40
0.1875000000000004
 40
0.2500000000000006
 40
0.2500000000000006
 40
0.3750000000000007
 40
0.3750000000000007
 40
0.4375000000000006
 40
0.4375000000000006
 40
0.5000000000000006
 40
0.5000000000000006
 40
0.6250000000000004
 40
0.6250000000000004
 40
0.7500000000000002
 40
0.7500000000000002
 40
0.8750000000000001
 40
0.8750000000000001
 40
0.9375000000000001
 40
0.9375000000000001
 40
1.0
 40
1.0
 40
1.0
 40
1.0
 10
210.9589480999828
 20
289.5642821567719
 30
0.0
 10
210.6155462629089
 20
289.0471155093639
 30
0.0
 10
210.2849334655435
 20
288.4283292661914
 30
0.0
 10
209.8053982619722
 20
287.349163261457
 30
0.0
 10
209.6484314871725
 20
286.9641619444024
 30
0.0
 10
209.3406951635133
 20
286.1424547907482
 30
0.0
 10
209.1910966086676
 20
285.7088375373624
 30
0.0
 10
208.7580760275131
 20
284.3465475192691
 30
0.0
 10
208.4891346329615
 20
283.3544826756396
 30
0.0
 10
208.110895234747
 20
281.7408563611707
 30
0.0
 10
207.9891280597002
 20
281.1819653941479
 30
0.0
 10
207.7548559255024
 20
280.0209653944427
 30
0.0
 10
207.641941714622
 20
279.4162313174019
 30
0.0
 10
207.324291212874
 20
277.5638492182981
 30
0.0
 10
207.1390927411214
 20
276.2735695105777
 30
0.0
 10
206.8138876200361
 20
273.5848581934001
 30
0.0
 10
206.6737101744502
 20
272.1864834994774
 30
0.0
 10
206.4476801605296
 20
269.2750960173846
 30
0.0
 10
206.3652345232581
 20
267.795995464699
 30
0.0
 10
206.281609997062
 20
265.5508255933825
 30
0.0
 10
206.2603862135016
 20
264.7975802561915
 30
0.0
 10
206.2310356637958
 20
263.2812744609142
 30
0.0
 10
206.2228970699789
 20
262.5169022941215
 30
0.0
 10
206.2217618069451
 20
261.7506144570502
 30
0.0
  0
SPLINE
  5
20F
330
1F
100
AcDbEntity
  8
0
  6
SLD-Сплошная
 62
     7
370
    25
100
AcDbSpline
210
0.0
220
0.0
230
1.0
 70
     8
 71
     3
 72
    12
 73
     8
 74
     0
 42
0.00000001
 43
0.00000001
 40
0.0
 40
0.0
 40
0.0
 40
0.0
 40
0.5000000000000004
 40
0.5000000000000004
 40
0.7500000000000002
 40
0.7500000000000002
 40
1.0
 40
1.0
 40
1.0
 40
1.0
 10
214.094043130214
 20
282.3442296159439
 30
0.0
 10
214.4665334474568
 20
283.7620604216897
 30
0.0
 10
214.8719009068909
 20
285.0150766949889
 30
0.0
 10
215.5273671947683
 20
286.6543172659353
 30
0.0
 10
215.7542915298035
 20
287.1597770508174
 30
0.0
 10
216.2188205613311
 20
288.076256415226
 30
0.0
 10
216.457145398862
 20
288.4892273252145
 30
0.0
 10
216.7005845423674
 20
288.8569466088573
 30
0.0
  0
SPLINE
  5
210
330
1F
100
AcDbEntity
  8
0
  6
SLD-Сплошная
 62
     7
370
    25
100
AcDbSpline
210
0.0
220
0.0
230
1.0
 70
     8
 71
     3
 72
    18
 73
    14
 74
     0
 42
0.00000001
 43
0.00000001
 40
0.0
 40
0.0
 40
0.0
 40
0.0
 40
0.25
 40
0.25
 40
0.375
 40
0.375
 40
0.5
 40
0.5
 40
0.625
 40
0.625
 40
0.75
 40
0.75
 40
1.0
 40
1.0
 40
1.0
 40
1.0
 10
211.9663244534831
 20
261.75061445711
 30
0.0
 10
211.9676569407034
 20
263.6711691375536
 30
0.0
 10
212.0134385529302
 20
265.56831879736
 30
0.0
 10
212.1543932725187
 20
268.3793334147405
 30
0.0
 10
212.2136768084781
 20
269.3131005523165
 30
0.0
 10
212.3527914071251
 20
271.1345957656961
 30
0.0
 10
212.4327463655612
 20
272.0263913318466
 30
0.0
 10
212.613965059573
 20
273.7729241371418
 30
0.0
 10
212.7152251286575
 20
274.627660563732
 30
0.0
 10
212.9390139723262
 20
276.3000013860895
 30
0.0
 10
213.0618601574378
 20
277.119465276534
 30
0.0
 10
213.4593506510395
 20
279.5084511063703
 30
0.0
 10
213.7584446996288
 20
280.9841423219332
 30
0.0
 10
214.094043130214
 20
282.3442296159439
 30
0.0
  0
LINE
  5
211
330
1F
100
AcDbEntity
  8
0
  6
SLD-Сплошная
 62
     7
370
    25
100
AcDbLine
 10
163.9940431302
 20
294.4006144571
 30
0.0
 11
163.9940431302
 21
291.4790810838
 31
0.0
  0
LINE
  5
212
330
1F
100
AcDbEntity
  8
0
  6
SLD-Сплошная
 62
     7
370
    25
100
AcDbLine
 10
163.9940431302
 20
291.4790810838
 30
0.0
 11
180.5940431302
 21
291.4790810838
 31
0.0
  0
LINE
  5
213
330
1F
100
AcDbEntity
  8
0
  6
SLD-Сплошная
 62
     7
370
    25
100
AcDbLine
 10
180.5940431302
 20
294.4006144571
 30
0.0
 11
180.5940431302
 21
291.4790810838
 31
0.0
  0
LINE
  5
214
330
1F
100
AcDbEntity
  8
0
  6
SLD-Сплошная
 62
     7
370
    25
100
AcDbLine
 10
194.0940431302
 20
255.2075646711
 30
0.0
 11
194.0940431302
 21
229.1006144571
 31
0.0
  0
LINE
  5
215
330
1F
100
AcDbEntity
  8
0
  6
SLD-Сплошная
 62
     7
370
    25
100
AcDbLine
 10
194.0940431302
 20
294.4006144571
 30
0.0
 11
194.0940431302
 21
268.293664243
 31
0.0
  0
SPLINE
  5
216
330
1F
100
AcDbEntity
  8
0
  6
SLD-Сплошная
 62
     7
370
    25
100
AcDbSpline
210
0.0
220
0.0
230
1.0
 70
     8
 71
     3
 72
    28
 73
    24
 74
     0
 42
0.00000001
 43
0.00000001
 40
0.0
 40
0.0
 40
0.0
 40
0.0
 40
0.1249999999999997
 40
0.1249999999999997
 40
0.1874999999999996
 40
0.1874999999999996
 40
0.2499999999999996
 40
0.2499999999999996
 40
0.3124999999999996
 40
0.3124999999999996
 40
0.3749999999999995
 40
0.3749999999999995
 40
0.4374999999999995
 40
0.4374999999999995
 40
0.4999999999999994
 40
0.4999999999999994
 40
0.6249999999999996
 40
0.6249999999999996
 40
0.7499999999999997
 40
0.7499999999999997
 40
0.8749999999999999
 40
0.8749999999999999
 40
1.0
 40
1.0
 40
1.0
 40
1.0
 10
232.7630345812802
 20
236.1784203671387
 30
0.0
 10
232.452395597943
 20
236.6558985187005
 30
0.0
 10
232.1522581037303
 20
237.2254531457328
 30
0.0
 10
231.7168999594382
 20
238.2158002156065
 30
0.0
 10
231.5742965758094
 20
238.5686858126572
 30
0.0
 10
231.2944547785229
 20
239.3208945197676
 30
0.0
 10
231.1572116629141
 20
239.7205640256623
 30
0.0
 10
230.8912200766311
 20
240.5587573748753
 30
0.0
 10
230.7620662052459
 20
240.9981955705429
 30
0.0
 10
230.5114666553691
 20
241.9180069386794
 30
0.0
 10
230.3898054451232
 20
242.3993855778105
 30
0.0
 10
230.1561774815389
 20
243.3965191529579
 30
0.0
 10
230.0440608555237
 20
243.9126848484164
 30
0.0
 10
229.8294902100793
 20
244.9803788451305
 30
0.0
 10
229.7268645734106
 20
245.5330708711053
 30
0.0
 10
229.4358200809472
 20
247.236362354788
 30
0.0
 10
229.2625584117945
 20
248.4301041881542
 30
0.0
 10
228.9610868047545
 20
250.9272691341743
 30
0.0
 10
228.8344589397705
 20
252.2174876956604
 30
0.0
 10
228.6294791237252
 20
254.8819530791971
 30
0.0
 10
228.552332163734
 20
256.232983227294
 30
0.0
 10
228.4520270508488
 20
258.9667109317864
 30
0.0
 10
228.4282109810823
 20
260.350220482722
 30
0.0
 10
228.4245888026564
 20
261.7506144570502
 30
0.0
  0
SPLINE
  5
217
330
1F
100
AcDbEntity
  8
0
  6
SLD-Сплошная
 62
     7
370
    25
100
AcDbSpline
210
0.0
220
0.0
230
1.0
 70
     8
 71
     3
 72
    28
 73
    24
 74
     0
 42
0.00000001
 43
0.00000001
 40
0.0
 40
0.0
 40
0.0
 40
0.0
 40
0.1250000000000002
 40
0.1250000000000002
 40
0.1875000000000002
 40
0.1875000000000002
 40
0.2500000000000003
 40
0.2500000000000003
 40
0.3750000000000001
 40
0.3750000000000001
 40
0.5
 40
0.5
 40
0.6249999999999999
 40
0.6249999999999999
 40
0.6875
 40
0.6875
 40
0.75
 40
0.75
 40
0.8125000000000001
 40
0.8125000000000001
 40
0.8750000000000002
 40
0.8750000000000002
 40
1.0
 40
1.0
 40
1.0
 40
1.0
 10
234.1144068096275
 20
261.7506144570502
 30
0.0
 10
234.115523584245
 20
260.4498868815116
 30
0.0
 10
234.1407470849901
 20
259.1628372098734
 30
0.0
 10
234.2138393488354
 20
257.2521797307766
 30
0.0
 10
234.2441347074165
 20
256.6186289979452
 30
0.0
 10
234.3170857649778
 20
255.3582810976096
 30
0.0
 10
234.3598922510569
 20
254.7297586314767
 30
0.0
 10
234.5062851126772
 20
252.8712719137364
 30
0.0
 10
234.6274598179129
 20
251.6647429263834
 30
0.0
 10
234.9142276081826
 20
249.3287874885976
 30
0.0
 10
235.0785141227627
 20
248.2095226583527
 30
0.0
 10
235.4485423653533
 20
246.0674895665396
 30
0.0
 10
235.6518136042025
 20
245.0561631536891
 30
0.0
 10
235.9837541062093
 20
243.6305986885223
 30
0.0
 10
236.0988895183378
 20
243.170993321606
 30
0.0
 10
236.3365572414412
 20
242.2890149557094
 30
0.0
 10
236.4592979209137
 20
241.8657212741177
 30
0.0
 10
236.7126331532708
 20
241.0543861361826
 30
0.0
 10
236.8434881884715
 20
240.6657951140391
 30
0.0
 10
237.110465490739
 20
239.9308883667187
 30
0.0
 10
237.2468185804626
 20
239.5836873966843
 30
0.0
 10
237.6638931236669
 20
238.6017067435784
 30
0.0
 10
237.9526082238476
 20
238.0262394384345
 30
0.0
 10
238.2506670048454
 20
237.530698469759
 30
0.0
  0
SPLINE
  5
218
330
1F
100
AcDbEntity
  8
0
  6
SLD-Сплошная
 62
     7
370
    25
100
AcDbSpline
210
0.0
220
0.0
230
1.0
 70
     8
 71
     3
 72
    28
 73
    24
 74
     0
 42
0.00000001
 43
0.00000001
 40
0.0
 40
0.0
 40
0.0
 40
0.0
 40
0.1249999999999998
 40
0.1249999999999998
 40
0.1874999999999998
 40
0.1874999999999998
 40
0.2499999999999998
 40
0.2499999999999998
 40
0.3124999999999999
 40
0.3124999999999999
 40
0.3750000000000001
 40
0.3750000000000001
 40
0.4375000000000002
 40
0.4375000000000002
 40
0.5000000000000002
 40
0.5000000000000002
 40
0.6250000000000001
 40
0.6250000000000001
 40
0.75
 40
0.75
 40
0.875
 40
0.875
 40
1.0
 40
1.0
 40
1.0
 40
1.0
 10
232.7630345812802
 20
287.3228085469618
 30
0.0
 10
232.452395597943
 20
286.8453303954
 30
0.0
 10
232.1522581037303
 20
286.2757757683677
 30
0.0
 10
231.7168999594382
 20
285.285428698494
 30
0.0
 10
231.5742965758095
 20
284.9325431014434
 30
0.0
 10
231.2944547785229
 20
284.180334394333
 30
0.0
 10
231.1572116629141
 20
283.7806648884383
 30
0.0
 10
230.8912200766311
 20
282.9424715392253
 30
0.0
 10
230.762066205246
 20
282.5030333435578
 30
0.0
 10
230.5114666553692
 20
281.5832219754213
 30
0.0
 10
230.3898054451232
 20
281.1018433362901
 30
0.0
 10
230.1561774815389
 20
280.1047097611427
 30
0.0
 10
230.0440608555238
 20
279.5885440656842
 30
0.0
 10
229.8294902100793
 20
278.5208500689702
 30
0.0
 10
229.7268645734106
 20
277.9681580429953
 30
0.0
 10
229.4358200809473
 20
276.2648665593126
 30
0.0
 10
229.2625584117945
 20
275.0711247259463
 30
0.0
 10
228.9610868047545
 20
272.5739597799262
 30
0.0
 10
228.8344589397704
 20
271.2837412184401
 30
0.0
 10
228.6294791237253
 20
268.6192758349034
 30
0.0
 10
228.552332163734
 20
267.2682456868065
 30
0.0
 10
228.4520270508488
 20
264.534517982314
 30
0.0
 10
228.4282109810823
 20
263.1510084313785
 30
0.0
 10
228.4245888026564
 20
261.7506144570502
 30
0.0
  0
SPLINE
  5
219
330
1F
100
AcDbEntity
  8
0
  6
SLD-Сплошная
 62
     7
370
    25
100
AcDbSpline
210
0.0
220
0.0
230
1.0
 70
     8
 71
     3
 72
    28
 73
    24
 74
     0
 42
0.00000001
 43
0.00000001
 40
0.0
 40
0.0
 40
0.0
 40
0.0
 40
0.125
 40
0.125
 40
0.1875
 40
0.1875
 40
0.2499999999999999
 40
0.2499999999999999
 40
0.3749999999999999
 40
0.3749999999999999
 40
0.4999999999999999
 40
0.4999999999999999
 40
0.625
 40
0.625
 40
0.6875
 40
0.6875
 40
0.75
 40
0.75
 40
0.8125
 40
0.8125
 40
0.875
 40
0.875
 40
1.0
 40
1.0
 40
1.0
 40
1.0
 10
234.1144068096275
 20
261.7506144570502
 30
0.0
 10
234.115523584245
 20
263.0513420325888
 30
0.0
 10
234.1407470849901
 20
264.3383917042271
 30
0.0
 10
234.2138393488354
 20
266.2490491833239
 30
0.0
 10
234.2441347074165
 20
266.8825999161553
 30
0.0
 10
234.3170857649779
 20
268.1429478164909
 30
0.0
 10
234.3598922510569
 20
268.7714702826239
 30
0.0
 10
234.5062851126772
 20
270.6299570003641
 30
0.0
 10
234.6274598179129
 20
271.8364859877171
 30
0.0
 10
234.9142276081826
 20
274.1724414255029
 30
0.0
 10
235.0785141227627
 20
275.2917062557479
 30
0.0
 10
235.4485423653534
 20
277.4337393475611
 30
0.0
 10
235.6518136042025
 20
278.4450657604116
 30
0.0
 10
235.9837541062093
 20
279.8706302255784
 30
0.0
 10
236.0988895183378
 20
280.3302355924946
 30
0.0
 10
236.3365572414412
 20
281.2122139583913
 30
0.0
 10
236.4592979209137
 20
281.635507639983
 30
0.0
 10
236.7126331532709
 20
282.4468427779181
 30
0.0
 10
236.8434881884716
 20
282.8354338000615
 30
0.0
 10
237.1104654907391
 20
283.5703405473819
 30
0.0
 10
237.2468185804626
 20
283.9175415174163
 30
0.0
 10
237.663893123667
 20
284.8995221705222
 30
0.0
 10
237.9526082238476
 20
285.474989475666
 30
0.0
 10
238.2506670048454
 20
285.9705304443414
 30
0.0
  0
SPLINE
  5
21A
330
1F
100
AcDbEntity
  8
0
  6
SLD-Сплошная
 62
     7
370
    25
100
AcDbSpline
210
0.0
220
0.0
230
1.0
 70
     8
 71
     3
 72
     8
 73
     4
 74
     0
 42
0.00000001
 43
0.00000001
 40
0.0
 40
0.0
 40
0.0
 40
0.0
 40
0.0003885591855999
 40
0.0003885591855999
 40
0.0003885591855999
 40
0.0003885591855999
 10
214.4787690578941
 20
291.2761154300286
 30
0.0
 10
214.3505359728044
 20
291.2838749626763
 30
0.0
 10
214.2222938079261
 20
291.2915242337533
 30
0.0
 10
214.094043130214
 20
291.29906308739
 30
0.0
  0
SPLINE
  5
21B
330
1F
100
AcDbEntity
  8
0
  6
SLD-Сплошная
 62
     7
370
    25
100
AcDbSpline
210
0.0
220
0.0
230
1.0
 70
     8
 71
     3
 72
    10
 73
     6
 74
     0
 42
0.00000001
 43
0.00000001
 40
0.0
 40
0.0
 40
0.0
 40
0.0
 40
0.29379557239699
 40
0.878162136165752
 40
1.0
 40
1.0
 40
1.0
 40
1.0
 10
214.4787690578941
 20
291.2761154300286
 30
0.0
 10
216.164486331213
 20
291.160877904543
 30
0.0
 10
221.2031364021846
 20
290.81643012842
 30
0.0
 10
226.9350200588184
 20
290.2685829594364
 30
0.0
 10
230.9468058503667
 20
289.6324964993619
 30
0.0
 10
231.6389388813955
 20
289.5227557324109
 30
0.0
  0
SPLINE
  5
21C
330
1F
100
AcDbEntity
  8
0
  6
SLD-Сплошная
 62
     7
370
    25
100
AcDbSpline
210
0.0
220
0.0
230
1.0
 70
     8
 71
     3
 72
    14
 73
    10
 74
     0
 42
0.00000001
 43
0.00000001
 40
0.0
 40
0.0
 40
0.0
 40
0.0
 40
0.0620130638618724
 40
0.2170431056476164
 40
0.3769142850695498
 40
0.5274569419779208
 40
0.6823828490081825
 40
0.8390105208152268
 40
0.9999999999999999
 40
0.9999999999999999
 40
0.9999999999999999
 40
0.9999999999999999
 10
245.9110879595791
 20
287.1290349114162
 30
0.0
 10
246.1332287687208
 20
287.0857597197879
 30
0.0
 10
246.9107122230878
 20
286.9342983759425
 30
0.0
 10
248.1060020417911
 20
286.6567709924728
 30
0.0
 10
249.388748294653
 20
286.2811616090054
 30
0.0
 10
250.4158840104686
 20
285.8464199893569
 30
0.0
 10
251.1521003924611
 20
285.3400796037149
 30
0.0
 10
251.635773431884
 20
284.7389823805643
 30
0.0
 10
251.7043460992341
 20
284.2598131742404
 30
0.0
 10
251.7391032840036
 20
284.0169383775659
 30
0.0
  0
LINE
  5
21D
330
1F
100
AcDbEntity
  8
0
  6
SLD-Сплошная
 62
     7
370
    25
100
AcDbLine
 10
251.739103284
 20
239.4842905365
 30
0.0
 11
251.739103284
 21
284.0169383776
 31
0.0
  0
SPLINE
  5
21E
330
1F
100
AcDbEntity
  8
0
  6
SLD-Сплошная
 62
     7
370
    25
100
AcDbSpline
210
0.0
220
0.0
230
1.0
 70
     8
 71
     3
 72
    14
 73
    10
 74
     0
 42
0.00000001
 43
0.00000001
 40
0.0
 40
0.0
 40
0.0
 40
0.0
 40
0.0619948746834496
 40
0.21702792276809
 40
0.3769022023668971
 40
0.5274477785560612
 40
0.6823766898658673
 40
0.8390073989525992
 40
1.0
 40
1.0
 40
1.0
 40
1.0
 10
245.9112940717085
 20
236.3722348120081
 30
0.0
 10
246.133364898622
 20
236.4154965202075
 30
0.0
 10
246.9107770721044
 20
236.5669445022199
 30
0.0
 10
248.1060007944277
 20
236.8444580384209
 30
0.0
 10
249.3887486109846
 20
237.2200672754762
 30
0.0
 10
250.4158839252476
 20
237.654808932723
 30
0.0
 10
251.1521004157222
 20
238.1611493082075
 30
0.0
 10
251.6357734258521
 20
238.762246534101
 30
0.0
 10
251.7043460972052
 20
239.2414157400501
 30
0.0
 10
251.7391032840036
 20
239.4842905365346
 30
0.0
  0
SPLINE
  5
21F
330
1F
100
AcDbEntity
  8
0
  6
SLD-Сплошная
 62
     7
370
    25
100
AcDbSpline
210
0.0
220
0.0
230
1.0
 70
     8
 71
     3
 72
    10
 73
     6
 74
     0
 42
0.00000001
 43
0.00000001
 40
0.0
 40
0.0
 40
0.0
 40
0.0
 40
0.2936758450320686
 40
0.8778042681499796
 40
0.9999999999999999
 40
0.9999999999999999
 40
0.9999999999999999
 40
0.9999999999999999
 10
214.4787690578941
 20
232.2251134840722
 30
0.0
 10
216.1644867947359
 20
232.3403478095393
 30
0.0
 10
221.2031382511889
 20
232.6847860207287
 30
0.0
 10
226.9373461384891
 20
233.2329433516836
 30
0.0
 10
230.9514423419552
 20
233.8694353740759
 30
0.0
 10
231.6458903795155
 20
233.9795499835593
 30
0.0
  0
SPLINE
  5
220
330
1F
100
AcDbEntity
  8
0
  6
SLD-Сплошная
 62
     7
370
    25
100
AcDbSpline
210
0.0
220
0.0
230
1.0
 70
     8
 71
     3
 72
     8
 73
     4
 74
     0
 42
0.00000001
 43
0.00000001
 40
0.0
 40
0.0
 40
0.0
 40
0.0
 40
0.0003885591855999
 40
0.0003885591855999
 40
0.0003885591855999
 40
0.0003885591855999
 10
214.4787690578941
 20
232.2251134840719
 30
0.0
 10
214.3505359728044
 20
232.2173539514242
 30
0.0
 10
214.2222938079261
 20
232.2097046803471
 30
0.0
 10
214.094043130214
 20
232.2021658267105
 30
0.0
  0
SPLINE
  5
221
330
1F
100
AcDbEntity
  8
0
  6
SLD-Сплошная
 62
     7
370
    25
100
AcDbSpline
210
0.0
220
0.0
230
1.0
 70
     8
 71
     3
 72
    11
 73
     7
 74
     0
 42
0.00000001
 43
0.00000001
 40
0.0
 40
0.0
 40
0.0
 40
0.0
 40
0.0005117791613317
 40
0.0005117791613317
 40
0.0005117791613317
 40
0.0013067322566839
 40
0.0013067322566839
 40
0.0013067322566839
 40
0.0013067322566839
 10
214.094043130214
 20
232.2021658267105
 30
0.0
 10
213.9251039651443
 20
232.2041254247419
 30
0.0
 10
213.7561647012019
 20
232.2061132775342
 30
0.0
 10
213.5872253315379
 20
232.2081293671879
 30
0.0
 10
213.3248096601739
 20
232.2112609848864
 30
0.0
 10
213.0623937070621
 20
232.2144607226159
 30
0.0
 10
212.7999777113804
 20
232.2177286824737
 30
0.0
  0
SPLINE
  5
222
330
1F
100
AcDbEntity
  8
0
  6
SLD-Сплошная
 62
     7
370
    25
100
AcDbSpline
210
0.0
220
0.0
230
1.0
 70
     8
 71
     3
 72
    14
 73
    10
 74
     0
 42
0.00000001
 43
0.00000001
 40
0.0
 40
0.0
 40
0.0
 40
0.0
 40
0.25
 40
0.25
 40
0.5
 40
0.5
 40
0.75
 40
0.75
 40
1.0
 40
1.0
 40
1.0
 40
1.0
 10
203.864166778237
 20
232.1745240250428
 30
0.0
 10
204.590151359223
 20
232.1885149890536
 30
0.0
 10
205.3236543232005
 20
232.2019446475829
 30
0.0
 10
206.8080236554321
 20
232.2230945133267
 30
0.0
 10
207.5562479277552
 20
232.2307431155444
 30
0.0
 10
209.0571239889594
 20
232.2391629540022
 30
0.0
 10
209.8100698658503
 20
232.2400140799689
 30
0.0
 10
211.3081982148655
 20
232.2340228591721
 30
0.0
 10
212.0549495330551
 20
232.227006783732
 30
0.0
 10
212.7999777113804
 20
232.2177286824737
 30
0.0
  0
SPLINE
  5
223
330
1F
100
AcDbEntity
  8
0
  6
SLD-Сплошная
 62
     7
370
    25
100
AcDbSpline
210
0.0
220
0.0
230
1.0
 70
     8
 71
     3
 72
    10
 73
     6
 74
     0
 42
0.00000001
 43
0.00000001
 40
0.0
 40
0.0
 40
0.0
 40
0.0
 40
0.3682079254523502
 40
0.6840984912809505
 40
1.0
 40
1.0
 40
1.0
 40
1.0
 10
196.2140478203034
 20
232.108190644819
 30
0.0
 10
197.1528059841208
 20
232.1069355986243
 30
0.0
 10
198.8969374901337
 20
232.1046038313024
 30
0.0
 10
201.4471799257732
 20
232.1327496815822
 30
0.0
 10
203.0584951912083
 20
232.1605990831017
 30
0.0
 10
203.864166778237
 20
232.1745240250428
 30
0.0
  0
SPLINE
  5
224
330
1F
100
AcDbEntity
  8
0
  6
SLD-Сплошная
 62
     7
370
    25
100
AcDbSpline
210
0.0
220
0.0
230
1.0
 70
     8
 71
     3
 72
    10
 73
     6
 74
     0
 42
0.00000001
 43
0.00000001
 40
0.0
 40
0.0
 40
0.0
 40
0.0
 40
0.368177912738025
 40
0.6840834697775109
 40
1.0
 40
1.0
 40
1.0
 40
1.0
 10
196.2139900347048
 20
291.3930386413923
 30
0.0
 10
197.1526816676901
 20
291.3942946175858
 30
0.0
 10
198.8967934330274
 20
291.396628251741
 30
0.0
 10
201.4469847155452
 20
291.3684697853293
 30
0.0
 10
203.0584300950696
 20
291.3406266823367
 30
0.0
 10
203.864166778237
 20
291.3267048890577
 30
0.0
  0
SPLINE
  5
225
330
1F
100
AcDbEntity
  8
0
  6
SLD-Сплошная
 62
     7
370
    25
100
AcDbSpline
210
0.0
220
0.0
230
1.0
 70
     8
 71
     3
 72
    16
 73
    12
 74
     0
 42
0.00000001
 43
0.00000001
 40
0.0
 40
0.0
 40
0.0
 40
0.0
 40
0.25
 40
0.25
 40
0.5
 40
0.5
 40
0.75
 40
0.75
 40
0.875
 40
0.875
 40
1.0
 40
1.0
 40
1.0
 40
1.0
 10
203.864166778237
 20
291.3267048890577
 30
0.0
 10
204.5903963855805
 20
291.31270920297
 30
0.0
 10
205.3265683438514
 20
291.3003085483712
 30
0.0
 10
206.8105624836647
 20
291.2791927642776
 30
0.0
 10
207.5571789566982
 20
291.2705163178031
 30
0.0
 10
209.0572051974579
 20
291.2611571366024
 30
0.0
 10
209.8103784110555
 20
291.2609249301927
 30
0.0
 10
210.9335636602407
 20
291.2661526933114
 30
0.0
 10
211.3074725899019
 20
291.2686986364711
 30
0.0
 10
212.0544419279686
 20
291.2750644294142
 30
0.0
 10
212.4275202036965
 20
291.2788618856269
 30
0.0
 10
212.7999777113804
 20
291.2835002316268
 30
0.0
  0
SPLINE
  5
226
330
1F
100
AcDbEntity
  8
0
  6
SLD-Сплошная
 62
     7
370
    25
100
AcDbSpline
210
0.0
220
0.0
230
1.0
 70
     8
 71
     3
 72
    11
 73
     7
 74
     0
 42
0.00000001
 43
0.00000001
 40
0.0
 40
0.0
 40
0.0
 40
0.0
 40
0.0005117791613317
 40
0.0005117791613317
 40
0.0005117791613317
 40
0.0013067322566839
 40
0.0013067322566839
 40
0.0013067322566839
 40
0.0013067322566839
 10
214.094043130214
 20
291.29906308739
 30
0.0
 10
213.9251039651443
 20
291.2971034893586
 30
0.0
 10
213.7561647012019
 20
291.2951156365663
 30
0.0
 10
213.5872253315379
 20
291.2930995469125
 30
0.0
 10
213.3248096601739
 20
291.2899679292141
 30
0.0
 10
213.0623937070621
 20
291.2867681914846
 30
0.0
 10
212.7999777113804
 20
291.2835002316268
 30
0.0
  0
LINE
  5
227
330
1F
100
AcDbEntity
  8
0
  6
SLD-Сплошная
 62
     7
370
    25
100
AcDbLine
 10
256.5693943781
 20
240.2121752568
 30
0.0
 11
256.5940431302
 21
240.5391509355
 31
0.0
  0
LINE
  5
228
330
1F
100
AcDbEntity
  8
0
  6
SLD-Сплошная
 62
     7
370
    25
100
AcDbLine
 10
256.5694014923
 20
283.2890066956
 30
0.0
 11
256.5940431302
 21
282.9620779786
 31
0.0
  0
LINE
  5
229
330
1F
100
AcDbEntity
  8
0
  6
SLD-Сплошная
 62
     7
370
    25
100
AcDbLine
 10
256.5940431302
 20
282.9620779786
 30
0.0
 11
256.5940431302
 21
240.5391509355
 31
0.0
  0
LINE
  5
22A
330
1F
100
AcDbEntity
  8
0
  6
SLD-Сплошная
 62
     7
370
    25
100
AcDbLine
 10
264.1434877803
 20
287.1505766388
 30
0.0
 11
266.1434877803
 21
287.1505766388
 31
0.0
  0
LINE
  5
22B
330
1F
100
AcDbEntity
  8
0
  6
SLD-Сплошная
 62
     7
370
    25
100
AcDbLine
 10
266.1434877803
 20
284.7500244327
 30
0.0
 11
266.1434877803
 21
287.1505766388
 31
0.0
  0
LINE
  5
22C
330
1F
100
AcDbEntity
  8
0
  6
SLD-Сплошная
 62
     7
370
    25
100
AcDbLine
 10
266.1434877803
 20
282.5849609232
 30
0.0
 11
266.1434877803
 21
284.7500244327
 31
0.0
  0
LINE
  5
22D
330
1F
100
AcDbEntity
  8
0
  6
SLD-Сплошная
 62
     7
370
    25
100
AcDbLine
 10
266.1434877803
 20
263.9150879421
 30
0.0
 11
266.1434877803
 21
282.5849609232
 31
0.0
  0
LINE
  5
22E
330
1F
100
AcDbEntity
  8
0
  6
SLD-Сплошная
 62
     7
370
    25
100
AcDbLine
 10
266.1434877803
 20
259.5849609232
 30
0.0
 11
266.1434877803
 21
263.9150879421
 31
0.0
  0
LINE
  5
22F
330
1F
100
AcDbEntity
  8
0
  6
SLD-Сплошная
 62
     7
370
    25
100
AcDbLine
 10
266.1434877803
 20
240.9150879421
 30
0.0
 11
266.1434877803
 21
259.5849609232
 31
0.0
  0
LINE
  5
230
330
1F
100
AcDbEntity
  8
0
  6
SLD-Сплошная
 62
     7
370
    25
100
AcDbLine
 10
266.1434877803
 20
238.7500244327
 30
0.0
 11
266.1434877803
 21
240.9150879421
 31
0.0
  0
LINE
  5
231
330
1F
100
AcDbEntity
  8
0
  6
SLD-Сплошная
 62
     7
370
    25
100
AcDbLine
 10
266.1434877803
 20
236.3494722265
 30
0.0
 11
266.1434877803
 21
238.7500244327
 31
0.0
  0
LINE
  5
232
330
1F
100
AcDbEntity
  8
0
  6
SLD-Сплошная
 62
     7
370
    25
100
AcDbLine
 10
264.1434877803
 20
236.3494722265
 30
0.0
 11
266.1434877803
 21
236.3494722265
 31
0.0
  0
LINE
  5
233
330
1F
100
AcDbEntity
  8
0
  6
SLD-Сплошная
 62
     7
370
    25
100
AcDbLine
 10
264.1434877803
 20
236.3494722265
 30
0.0
 11
264.1434877803
 21
287.1505766388
 31
0.0
  0
LINE
  5
234
330
1F
100
AcDbEntity
  8
0
  6
SLD-Сплошная
 62
     7
370
    25
100
AcDbLine
 10
275.1434877803
 20
259.5849609232
 30
0.0
 11
266.1434877803
 21
259.5849609232
 31
0.0
  0
LINE
  5
235
330
1F
100
AcDbEntity
  8
0
  6
SLD-Сплошная
 62
     7
370
    25
100
AcDbLine
 10
266.1434877803
 20
240.9150879421
 30
0.0
 11
275.1434877803
 21
240.9150879421
 31
0.0
  0
LINE
  5
236
330
1F
100
AcDbEntity
  8
0
  6
SLD-Сплошная
 62
     7
370
    25
100
AcDbLine
 10
275.1434877803
 20
259.5849609232
 30
0.0
 11
275.1434877803
 21
240.9150879421
 31
0.0
  0
LINE
  5
237
330
1F
100
AcDbEntity
  8
0
  6
SLD-Сплошная
 62
     7
370
    25
100
AcDbLine
 10
266.1434877803
 20
263.9150879421
 30
0.0
 11
275.1434877803
 21
263.9150879421
 31
0.0
  0
LINE
  5
238
330
1F
100
AcDbEntity
  8
0
  6
SLD-Сплошная
 62
     7
370
    25
100
AcDbLine
 10
275.1434877803
 20
263.9150879421
 30
0.0
 11
275.1434877803
 21
259.5849609232
 31
0.0
  0
LINE
  5
239
330
1F
100
AcDbEntity
  8
0
  6
SLD-Сплошная
 62
     7
370
    25
100
AcDbLine
 10
275.1434877803
 20
282.5849609232
 30
0.0
 11
266.1434877803
 21
282.5849609232
 31
0.0
  0
LINE
  5
23A
330
1F
100
AcDbEntity
  8
0
  6
SLD-Сплошная
 62
     7
370
    25
100
AcDbLine
 10
275.1434877803
 20
263.9150879421
 30
0.0
 11
275.1434877803
 21
282.5849609232
 31
0.0
  0
LINE
  5
23B
330
1F
100
AcDbEntity
  8
0
  6
SLD-Сплошная
 62
     7
370
    25
100
AcDbLine
 10
287.1531067235
 20
258.6799403386
 30
0.0
 11
293.9955053118
 21
258.6799403386
 31
0.0
  0
LINE
  5
23C
330
1F
100
AcDbEntity
  8
0
  6
SLD-Сплошная
 62
     7
370
    25
100
AcDbLine
 10
287.1531067235
 20
258.6799403386
 30
0.0
 11
275.1434877803
 21
258.6799403386
 31
0.0
  0
LINE
  5
23D
330
1F
100
AcDbEntity
  8
0
  6
SLD-Сплошная
 62
     7
370
    25
100
AcDbLine
 10
287.1531067235
 20
264.8201085268
 30
0.0
 11
293.9955053118
 21
264.8201085268
 31
0.0
  0
LINE
  5
23E
330
1F
100
AcDbEntity
  8
0
  6
SLD-Сплошная
 62
     7
370
    25
100
AcDbLine
 10
287.1531067235
 20
264.8201085268
 30
0.0
 11
275.1434877803
 21
264.8201085268
 31
0.0
  0
LINE
  5
23F
330
1F
100
AcDbEntity
  8
0
  6
SLD-Сплошная
 62
     7
370
    25
100
AcDbLine
 10
296.7118277278
 20
250.1901432585
 30
0.0
 11
293.9955053118
 21
248.7594060789
 31
0.0
  0
ARC
  5
240
330
1F
100
AcDbEntity
  8
0
  6
SLD-Сплошная
 62
     7
370
    25
100
AcDbCircle
 10
287.1531067235
 20
261.7500244327
 30
0.0
 40
14.68245836551861
100
AcDbArc
 50
270.0
 51
297.7766046258
  0
ARC
  5
241
330
1F
100
AcDbEntity
  8
0
  6
SLD-Сплошная
 62
     7
370
    25
100
AcDbCircle
 10
293.8071063883
 20
261.5833344647
 30
0.0
 40
2.909500233044973
100
AcDbArc
 50
273.712672293
 51
3.2843661583
  0
LINE
  5
242
330
1F
100
AcDbEntity
  8
0
  6
SLD-Сплошная
 62
     7
370
    25
100
AcDbLine
 10
300.1434877803
 20
254.2500244327
 30
0.0
 11
300.1434877803
 21
261.7500244327
 31
0.0
  0
LINE
  5
243
330
1F
100
AcDbEntity
  8
0
  6
SLD-Сплошная
 62
     7
370
    25
100
AcDbLine
 10
287.1531067235
 20
247.0675660672
 30
0.0
 11
275.1434877803
 21
247.0675660672
 31
0.0
  0
ARC
  5
244
330
1F
100
AcDbEntity
  8
0
  6
SLD-Сплошная
 62
     7
370
    25
100
AcDbCircle
 10
293.8071063883
 20
261.9167144006
 30
0.0
 40
2.909500233045344
100
AcDbArc
 50
356.7156338417
 51
86.287327707
  0
ARC
  5
245
330
1F
100
AcDbEntity
  8
0
  6
SLD-Сплошная
 62
     7
370
    25
100
AcDbCircle
 10
287.1531067235
 20
261.7500244327
 30
0.0
 40
14.68245836551856
100
AcDbArc
 50
62.2233953742
 51
90.0
  0
LINE
  5
246
330
1F
100
AcDbEntity
  8
0
  6
SLD-Сплошная
 62
     7
370
    25
100
AcDbLine
 10
293.9955053118
 20
274.7406427864
 30
0.0
 11
296.7118277278
 21
273.3099056068
 31
0.0
  0
LINE
  5
247
330
1F
100
AcDbEntity
  8
0
  6
SLD-Сплошная
 62
     7
370
    25
100
AcDbLine
 10
300.1434877803
 20
261.7500244327
 30
0.0
 11
300.1434877803
 21
269.2500244327
 31
0.0
  0
LINE
  5
248
330
1F
100
AcDbEntity
  8
0
  6
SLD-Сплошная
 62
     7
370
    25
100
AcDbLine
 10
287.1531067235
 20
276.4324827982
 30
0.0
 11
275.1434877803
 21
276.4324827982
 31
0.0
  0
LINE
  5
249
330
1F
100
AcDbEntity
  8
0
  6
SLD-Сплошная
 62
     7
370
    25
100
AcDbLine
 10
275.1434877803
 20
238.7500244327
 30
0.0
 11
266.1434877803
 21
238.7500244327
 31
0.0
  0
LINE
  5
24A
330
1F
100
AcDbEntity
  8
0
  6
SLD-Сплошная
 62
     7
370
    25
100
AcDbLine
 10
275.1434877803
 20
240.9150879421
 30
0.0
 11
275.1434877803
 21
238.7500244327
 31
0.0
  0
LINE
  5
24B
330
1F
100
AcDbEntity
  8
0
  6
SLD-Сплошная
 62
     7
370
    25
100
AcDbLine
 10
266.1434877803
 20
284.7500244327
 30
0.0
 11
275.1434877803
 21
284.7500244327
 31
0.0
  0
LINE
  5
24C
330
1F
100
AcDbEntity
  8
0
  6
SLD-Сплошная
 62
     7
370
    25
100
AcDbLine
 10
275.1434877803
 20
282.5849609232
 30
0.0
 11
275.1434877803
 21
284.7500244327
 31
0.0
  0
LINE
  5
24D
330
1F
100
AcDbEntity
  8
0
  6
SLD-Сплошная
 62
     7
370
    25
100
AcDbLine
 10
167.9892386542
 20
292.1492028967
 30
0.0
 11
170.3373086542
 21
292.1492028967
 31
0.0
  0
LINE
  5
24E
330
1F
100
AcDbEntity
  8
0
  6
SLD-Сплошная
 62
     7
370
    25
100
AcDbLine
 10
171.1200081302
 20
292.1492028967
 30
0.0
 11
176.5988476062
 21
292.1492028967
 31
0.0
  0
LINE
  5
24F
330
1F
100
AcDbEntity
  8
0
  6
SLD-Сплошная
 62
     7
370
    25
100
AcDbLine
 10
171.1200081302
 20
292.5732389255
 30
0.0
 11
176.5988476062
 21
292.5732389255
 31
0.0
  0
LINE
  5
250
330
1F
100
AcDbEntity
  8
0
  6
SLD-Сплошная
 62
     7
370
    25
100
AcDbLine
 10
176.5988476062
 20
292.1492028967
 30
0.0
 11
176.5988476062
 21
292.5732389255
 31
0.0
  0
LINE
  5
251
330
1F
100
AcDbEntity
  8
0
  6
SLD-Сплошная
 62
     7
370
    25
100
AcDbLine
 10
171.1200081302
 20
292.1492028967
 30
0.0
 11
171.1200081302
 21
292.5732389255
 31
0.0
  0
LINE
  5
252
330
1F
100
AcDbEntity
  8
0
  6
SLD-Сплошная
 62
     7
370
    25
100
AcDbLine
 10
167.9892386542
 20
292.5732389255
 30
0.0
 11
170.3373086542
 21
292.5732389255
 31
0.0
  0
LINE
  5
253
330
1F
100
AcDbEntity
  8
0
  6
SLD-Сплошная
 62
     7
370
    25
100
AcDbLine
 10
170.3373086542
 20
292.1492028967
 30
0.0
 11
170.3373086542
 21
292.5732389255
 31
0.0
  0
LINE
  5
254
330
1F
100
AcDbEntity
  8
0
  6
SLD-Сплошная
 62
     7
370
    25
100
AcDbLine
 10
167.9892386542
 20
292.1492028967
 30
0.0
 11
167.9892386542
 21
292.5732389255
 31
0.0
  0
LINE
  5
255
330
1F
100
AcDbEntity
  8
0
  6
SLD-Сплошная
 62
     7
370
    25
100
AcDbLine
 10
170.3373086542
 20
293.3665445913
 30
0.0
 11
167.9892386542
 21
293.3665445913
 31
0.0
  0
LINE
  5
256
330
1F
100
AcDbEntity
  8
0
  6
SLD-Сплошная
 62
     7
370
    25
100
AcDbLine
 10
170.3373086542
 20
293.3665445913
 30
0.0
 11
170.3373086542
 21
292.5732389255
 31
0.0
  0
LINE
  5
257
330
1F
100
AcDbEntity
  8
0
  6
SLD-Сплошная
 62
     7
370
    25
100
AcDbLine
 10
167.9892386542
 20
293.3665445913
 30
0.0
 11
167.9892386542
 21
292.5732389255
 31
0.0
  0
LINE
  5
258
330
1F
100
AcDbEntity
  8
0
  6
SLD-Сплошная
 62
     7
370
    25
100
AcDbLine
 10
176.5988476062
 20
293.3665445913
 30
0.0
 11
171.1200081302
 21
293.3665445913
 31
0.0
  0
LINE
  5
259
330
1F
100
AcDbEntity
  8
0
  6
SLD-Сплошная
 62
     7
370
    25
100
AcDbLine
 10
171.1200081302
 20
293.3665445913
 30
0.0
 11
171.1200081302
 21
292.5732389255
 31
0.0
  0
LINE
  5
25A
330
1F
100
AcDbEntity
  8
0
  6
SLD-Сплошная
 62
     7
370
    25
100
AcDbLine
 10
176.5988476062
 20
293.3665445913
 30
0.0
 11
176.5988476062
 21
292.5732389255
 31
0.0
  0
LINE
  5
25B
330
1F
100
AcDbEntity
  8
0
  6
SLD-Сплошная
 62
     7
370
    25
100
AcDbLine
 10
256.5940431302
 20
240.5391509355
 30
0.0
 11
256.5940431302
 21
238.7506144571
 31
0.0
  0
LINE
  5
25C
330
1F
100
AcDbEntity
  8
0
  6
SLD-Сплошная
 62
     7
370
    25
100
AcDbLine
 10
256.5940431302
 20
284.7506144571
 30
0.0
 11
256.5940431302
 21
282.9620779786
 31
0.0
  0
LINE
  5
25D
330
1F
100
AcDbEntity
  8
0
  6
SLD-Сплошная
 62
     7
370
    25
100
AcDbLine
 10
167.9892386542
 20
293.5527303271
 30
0.0
 11
170.3373086542
 21
293.5527303271
 31
0.0
  0
LINE
  5
25E
330
1F
100
AcDbEntity
  8
0
  6
SLD-Сплошная
 62
     7
370
    25
100
AcDbLine
 10
170.3373086542
 20
293.3665445913
 30
0.0
 11
170.3373086542
 21
293.5527303271
 31
0.0
  0
LINE
  5
25F
330
1F
100
AcDbEntity
  8
0
  6
SLD-Сплошная
 62
     7
370
    25
100
AcDbLine
 10
167.9892386542
 20
293.3665445913
 30
0.0
 11
167.9892386542
 21
293.5527303271
 31
0.0
  0
LINE
  5
260
330
1F
100
AcDbEntity
  8
0
  6
SLD-Сплошная
 62
     7
370
    25
100
AcDbLine
 10
170.3373086542
 20
294.4006144571
 30
0.0
 11
170.3373086542
 21
293.5527303271
 31
0.0
  0
LINE
  5
261
330
1F
100
AcDbEntity
  8
0
  6
SLD-Сплошная
 62
     7
370
    25
100
AcDbLine
 10
167.9892386542
 20
294.4006144571
 30
0.0
 11
167.9892386542
 21
293.5527303271
 31
0.0
  0
LINE
  5
262
330
1F
100
AcDbEntity
  8
0
  6
SLD-Сплошная
 62
     7
370
    25
100
AcDbLine
 10
171.1200081302
 20
293.3665445913
 30
0.0
 11
171.1200081302
 21
293.5527303271
 31
0.0
  0
LINE
  5
263
330
1F
100
AcDbEntity
  8
0
  6
SLD-Сплошная
 62
     7
370
    25
100
AcDbLine
 10
171.1200081302
 20
293.5527303271
 30
0.0
 11
176.5988476062
 21
293.5527303271
 31
0.0
  0
LINE
  5
264
330
1F
100
AcDbEntity
  8
0
  6
SLD-Сплошная
 62
     7
370
    25
100
AcDbLine
 10
176.5988476062
 20
293.3665445913
 30
0.0
 11
176.5988476062
 21
293.5527303271
 31
0.0
  0
LINE
  5
265
330
1F
100
AcDbEntity
  8
0
  6
SLD-Сплошная
 62
     7
370
    25
100
AcDbLine
 10
173.4680781302
 20
294.4006144571
 30
0.0
 11
173.4680781302
 21
294.0601784069
 31
0.0
  0
LINE
  5
266
330
1F
100
AcDbEntity
  8
0
  6
SLD-Сплошная
 62
     7
370
    25
100
AcDbLine
 10
174.2507776062
 20
294.0601784069
 30
0.0
 11
173.4680781302
 21
294.0601784069
 31
0.0
  0
LINE
  5
267
330
1F
100
AcDbEntity
  8
0
  6
SLD-Сплошная
 62
     7
370
    25
100
AcDbLine
 10
174.2507776062
 20
294.4006144571
 30
0.0
 11
174.2507776062
 21
294.0601784069
 31
0.0
  0
LINE
  5
268
330
1F
100
AcDbEntity
  8
0
  6
SLD-Сплошная
 62
     7
370
    25
100
AcDbLine
 10
171.1200081302
 20
294.4006144571
 30
0.0
 11
171.1200081302
 21
293.5527303271
 31
0.0
  0
LINE
  5
269
330
1F
100
AcDbEntity
  8
0
  6
SLD-Сплошная
 62
     7
370
    25
100
AcDbLine
 10
176.5988476062
 20
294.4006144571
 30
0.0
 11
176.5988476062
 21
293.5527303271
 31
0.0
  0
LINE
  5
26A
330
1F
100
AcDbEntity
  8
0
  6
SLD-Сплошная
 62
     7
370
    25
100
AcDbLine
 10
170.3373086542
 20
294.3609712155
 30
0.0
 11
171.1200081302
 21
294.3609712155
 31
0.0
  0
LINE
  5
26B
330
1F
100
AcDbEntity
  8
0
  6
SLD-Сплошная
 62
     7
370
    25
100
AcDbLine
 10
173.4680781302
 20
294.3609712155
 30
0.0
 11
174.2507776062
 21
294.3609712155
 31
0.0
  0
LINE
  5
26C
330
1F
100
AcDbEntity
  8
0
  6
SLD-Сплошная
 62
     7
370
    25
100
AcDbLine
 10
145.1905681032
 20
229.100614457
 30
0.0
 11
145.1905681032
 21
251.7506144571
 31
0.0
  0
LINE
  5
26D
330
1F
100
AcDbEntity
  8
0
  6
SLD-Сплошная
 62
     7
370
    25
100
AcDbLine
 10
145.1905681032
 20
271.7506144571
 30
0.0
 11
145.1905681032
 21
294.4006144571
 31
0.0
  0
SPLINE
  5
26E
330
1F
100
AcDbEntity
  8
0
  6
SLD-Сплошная
 62
     7
370
    25
100
AcDbSpline
210
0.0
220
0.0
230
1.0
 70
     8
 71
     3
 72
    24
 73
    20
 74
     0
 42
0.00000001
 43
0.00000001
 40
0.0
 40
0.0
 40
0.0
 40
0.0
 40
0.1250000000000004
 40
0.1250000000000004
 40
0.2500000000000009
 40
0.2500000000000009
 40
0.3125000000000009
 40
0.3125000000000009
 40
0.375000000000001
 40
0.375000000000001
 40
0.5000000000000008
 40
0.5000000000000008
 40
0.6250000000000007
 40
0.6250000000000007
 40
0.7500000000000004
 40
0.7500000000000004
 40
0.8750000000000002
 40
0.8750000000000002
 40
1.0
 40
1.0
 40
1.0
 40
1.0
 10
146.0485949018342
 20
270.7506144570502
 30
0.0
 10
146.0707018390505
 20
270.5652975910394
 30
0.0
 10
146.0861128673353
 20
270.3573100713723
 30
0.0
 10
146.1013942408465
 20
269.923492429846
 30
0.0
 10
146.1014744077975
 20
269.6910426455816
 30
0.0
 10
146.0902021586732
 20
269.3436478874056
 30
0.0
 10
146.0845925556909
 20
269.227575625207
 30
0.0
 10
146.0696390501473
 20
268.9948784102876
 30
0.0
 10
146.0602135631042
 20
268.8776737009428
 30
0.0
 10
146.0271443055676
 20
268.5358838423863
 30
0.0
 10
145.9984008671451
 20
268.3161688423724
 30
0.0
 10
145.9289049154879
 20
267.9031327213899
 30
0.0
 10
145.8892849935961
 20
267.7157994086177
 30
0.0
 10
145.800546221341
 20
267.3786260865257
 30
0.0
 10
145.7525895438683
 20
267.2338154224563
 30
0.0
 10
145.6521020481681
 20
266.9970888604631
 30
0.0
 10
145.5991617976809
 20
266.9049227881583
 30
0.0
 10
145.4940013089983
 20
266.7825715236823
 30
0.0
 10
145.4405203470321
 20
266.7506144570502
 30
0.0
 10
145.3884430322697
 20
266.7506144570502
 30
0.0
  0
SPLINE
  5
26F
330
1F
100
AcDbEntity
  8
0
  6
SLD-Сплошная
 62
     7
370
    25
100
AcDbSpline
210
0.0
220
0.0
230
1.0
 70
     8
 71
     3
 72
    28
 73
    24
 74
     0
 42
0.00000001
 43
0.00000001
 40
0.0
 40
0.0
 40
0.0
 40
0.0
 40
0.1249999999999998
 40
0.1249999999999998
 40
0.2499999999999997
 40
0.2499999999999997
 40
0.3124999999999996
 40
0.3124999999999996
 40
0.3749999999999995
 40
0.3749999999999995
 40
0.4999999999999993
 40
0.4999999999999993
 40
0.5624999999999992
 40
0.5624999999999992
 40
0.6249999999999991
 40
0.6249999999999991
 40
0.749999999999999
 40
0.749999999999999
 40
0.8124999999999991
 40
0.8124999999999991
 40
0.8749999999999992
 40
0.8749999999999992
 40
1.0
 40
1.0
 40
1.0
 40
1.0
 10
146.0485949018342
 20
252.7506144570502
 30
0.0
 10
146.1258181453183
 20
253.3979573850009
 30
0.0
 10
146.1938432747027
 20
254.0760944105355
 30
0.0
 10
146.3120955439758
 20
255.491720616428
 30
0.0
 10
146.3623233672927
 20
256.2292084062922
 30
0.0
 10
146.4237195938036
 20
257.3818006585897
 30
0.0
 10
146.4417074620915
 20
257.7714918748787
 30
0.0
 10
146.4724173388828
 20
258.5529372055286
 30
0.0
 10
146.4852112625636
 20
258.9460108005954
 30
0.0
 10
146.5160074388436
 20
260.1321895900406
 30
0.0
 10
146.5264734326416
 20
260.9322068650652
 30
0.0
 10
146.5265879824907
 20
262.1465178082106
 30
0.0
 10
146.5239840155838
 20
262.5535985192485
 30
0.0
 10
146.5136453393308
 20
263.3575365149788
 30
0.0
 10
146.5059182348045
 20
263.7563008293843
 30
0.0
 10
146.4752082220517
 20
264.9431564520176
 30
0.0
 10
146.4447443652932
 20
265.721871289327
 30
0.0
 10
146.3837714905273
 20
266.8707600296046
 30
0.0
 10
146.3608008728066
 20
267.2515090165368
 30
0.0
 10
146.3104479676045
 20
267.9941515203264
 30
0.0
 10
146.2830057139362
 20
268.3574606273597
 30
0.0
 10
146.1940065137959
 20
269.4237529297766
 30
0.0
 10
146.1258200920514
 20
270.1032552101281
 30
0.0
 10
146.0485949018342
 20
270.7506144570502
 30
0.0
  0
SPLINE
  5
270
330
1F
100
AcDbEntity
  8
0
  6
SLD-Сплошная
 62
     7
370
    25
100
AcDbSpline
210
0.0
220
0.0
230
1.0
 70
     8
 71
     3
 72
    26
 73
    22
 74
     0
 42
0.00000001
 43
0.00000001
 40
0.0
 40
0.0
 40
0.0
 40
0.0
 40
0.1250000000000011
 40
0.1250000000000011
 40
0.2500000000000021
 40
0.2500000000000021
 40
0.3750000000000032
 40
0.3750000000000032
 40
0.4375000000000031
 40
0.4375000000000031
 40
0.5000000000000031
 40
0.5000000000000031
 40
0.6250000000000023
 40
0.6250000000000023
 40
0.7500000000000017
 40
0.7500000000000017
 40
0.8125000000000012
 40
0.8125000000000012
 40
0.8750000000000007
 40
0.8750000000000007
 40
1.0
 40
1.0
 40
1.0
 40
1.0
 10
145.3884430322697
 20
256.7506144570502
 30
0.0
 10
145.440568892684
 20
256.7506144570502
 30
0.0
 10
145.4930669988408
 20
256.7194931232552
 30
0.0
 10
145.5987879293497
 20
256.5969893312542
 30
0.0
 10
145.6516567725579
 20
256.5049530192177
 30
0.0
 10
145.7519231236367
 20
256.269216835615
 30
0.0
 10
145.8006603332434
 20
256.1220270638422
 30
0.0
 10
145.8666625067819
 20
255.8714567620961
 30
0.0
 10
145.8876154432569
 20
255.7827436538095
 30
0.0
 10
145.9273808120942
 20
255.5947292701661
 30
0.0
 10
145.9463192609105
 20
255.4945886836966
 30
0.0
 10
145.9982650446013
 20
255.1858845367782
 30
0.0
 10
146.0268456468238
 20
254.9682482715109
 30
0.0
 10
146.0713805932686
 20
254.5083204863752
 30
0.0
 10
146.0863341113383
 20
254.275897332399
 30
0.0
 10
146.0977066881165
 20
253.9267439189085
 30
0.0
 10
146.0996180506669
 20
253.8094867496922
 30
0.0
 10
146.0995439302763
 20
253.5817811580218
 30
0.0
 10
146.0976054016408
 20
253.4704931428082
 30
0.0
 10
146.0861464240618
 20
253.1442420384265
 30
0.0
 10
146.0706943444104
 20
252.935868497388
 30
0.0
 10
146.0485949018342
 20
252.7506144570502
 30
0.0
  0
LINE
  5
271
330
1F
100
AcDbEntity
  8
0
  6
SLD-Сплошная
 62
     7
370
    25
100
AcDbLine
 10
148.5940431302
 20
270.7506144571
 30
0.0
 11
148.5940431302
 21
252.7506144571
 31
0.0
  0
LINE
  5
272
330
1F
100
AcDbEntity
  8
0
  6
SLD-Сплошная
 62
     7
370
    25
100
AcDbLine
 10
148.5940431302
 20
255.3506144571
 30
0.0
 11
151.5940431302
 21
255.3506144571
 31
0.0
  0
LINE
  5
273
330
1F
100
AcDbEntity
  8
0
  6
SLD-Сплошная
 62
     7
370
    25
100
AcDbLine
 10
148.5940431302
 20
268.1506144571
 30
0.0
 11
151.5940431302
 21
268.1506144571
 31
0.0
  0
ARC
  5
274
330
1F
100
AcDbEntity
  8
0
  6
SLD-Сплошная
 62
     7
370
    25
100
AcDbCircle
 10
143.6773996246
 20
254.2506144571
 30
0.0
 40
2.500000000000028
100
AcDbArc
 50
90.0
 51
270.0
  0
LINE
  5
275
330
1F
100
AcDbEntity
  8
0
  6
SLD-Сплошная
 62
     7
370
    25
100
AcDbLine
 10
148.5940431302
 20
251.7506144571
 30
0.0
 11
143.6773996246
 21
251.7506144571
 31
0.0
  0
LINE
  5
276
330
1F
100
AcDbEntity
  8
0
  6
SLD-Сплошная
 62
     7
370
    25
100
AcDbLine
 10
145.3884430323
 20
256.7506144571
 30
0.0
 11
143.6773996246
 21
256.7506144571
 31
0.0
  0
LINE
  5
277
330
1F
100
AcDbEntity
  8
0
  6
SLD-Сплошная
 62
     7
370
    25
100
AcDbLine
 10
148.5940431302
 20
252.7506144571
 30
0.0
 11
148.5940431302
 21
251.7506144571
 31
0.0
  0
LINE
  5
278
330
1F
100
AcDbEntity
  8
0
  6
SLD-Сплошная
 62
     7
370
    25
100
AcDbLine
 10
148.5940431302
 20
271.7506144571
 30
0.0
 11
143.6773996246
 21
271.7506144571
 31
0.0
  0
LINE
  5
279
330
1F
100
AcDbEntity
  8
0
  6
SLD-Сплошная
 62
     7
370
    25
100
AcDbLine
 10
145.3884430323
 20
266.7506144571
 30
0.0
 11
143.6773996246
 21
266.7506144571
 31
0.0
  0
LINE
  5
27A
330
1F
100
AcDbEntity
  8
0
  6
SLD-Сплошная
 62
     7
370
    25
100
AcDbLine
 10
148.5940431302
 20
271.7506144571
 30
0.0
 11
148.5940431302
 21
270.7506144571
 31
0.0
  0
ARC
  5
27B
330
1F
100
AcDbEntity
  8
0
  6
SLD-Сплошная
 62
     7
370
    25
100
AcDbCircle
 10
143.6773996246
 20
269.2506144571
 30
0.0
 40
2.5
100
AcDbArc
 50
90.0
 51
270.0
  0
LINE
  5
27C
330
1F
100
AcDbEntity
  8
0
  6
SLD-Сплошная
 62
     7
370
    25
100
AcDbLine
 10
151.5940431302
 20
229.1006144571
 30
0.0
 11
151.5940431302
 21
255.2075646711
 31
0.0
  0
LINE
  5
27D
330
1F
100
AcDbEntity
  8
0
  6
SLD-Сплошная
 62
     7
370
    25
100
AcDbLine
 10
151.5940431302
 20
268.293664243
 30
0.0
 11
151.5940431302
 21
294.4006144571
 31
0.0
  0
ARC
  5
27E
330
1F
100
AcDbEntity
  8
0
  6
SLD-Сплошная
 62
     7
370
    25
100
AcDbCircle
 10
143.625294351
 20
254.2506144571
 30
0.0
 40
2.499999999999988
100
AcDbArc
 50
140.0114460116
 51
225.7918187772
  0
ARC
  5
27F
330
1F
100
AcDbEntity
  8
0
  6
SLD-Сплошная
 62
     7
370
    25
100
AcDbCircle
 10
143.625294351
 20
269.2506144571
 30
0.0
 40
2.500000000000017
100
AcDbArc
 50
134.2081812228
 51
219.9885539884
  0
LINE
  5
280
330
1F
100
AcDbEntity
  8
0
  6
SLD-Сплошная
 62
     7
370
    25
100
AcDbLine
 10
194.0940431302
 20
80.8951799028
 30
0.0
 11
151.5940431302
 21
80.8951799028
 31
0.0
  0
LINE
  5
281
330
1F
100
AcDbEntity
  8
0
  6
SLD-Сплошная
 62
     7
370
    25
100
AcDbLine
 10
180.5940431302
 20
15.5951799028
 30
0.0
 11
194.0940431302
 21
15.5951799028
 31
0.0
  0
LINE
  5
282
330
1F
100
AcDbEntity
  8
0
  6
SLD-Сплошная
 62
     7
370
    25
100
AcDbLine
 10
151.5940431302
 20
15.5951799028
 30
0.0
 11
163.9940431302
 21
15.5951799028
 31
0.0
  0
ARC
  5
283
330
1F
100
AcDbEntity
  8
0
  6
SLD-Сплошная
 62
     7
370
    25
100
AcDbCircle
 10
196.8399358912
 20
267.9990607534
 30
0.0
 40
249.9999999999999
100
AcDbArc
 50
283.0974184185
 51
283.8284964846
  0
ARC
  5
284
330
1F
100
AcDbEntity
  8
0
  6
SLD-Сплошная
 62
     7
370
    25
100
AcDbCircle
 10
196.8399358912
 20
-171.5087009479
 30
0.0
 40
250.0
100
AcDbArc
 50
76.1715035154
 51
76.9025726262
  0
ARC
  5
285
330
1F
100
AcDbEntity
  8
0
  6
SLD-Сплошная
 62
     7
370
    25
100
AcDbCircle
 10
287.1531067235
 20
48.2457699271
 30
0.0
 40
15.00000000000006
100
AcDbArc
 50
30.0
 51
50.4130804784
  0
ARC
  5
286
330
1F
100
AcDbEntity
  8
0
  6
SLD-Сплошная
 62
     7
370
    25
100
AcDbCircle
 10
287.1531067235
 20
48.2457699271
 30
0.0
 40
15.00000000000006
100
AcDbArc
 50
309.5869195216
 51
330.0
  0
LINE
  5
287
330
1F
100
AcDbEntity
  8
0
  6
SLD-Сплошная
 62
     7
370
    25
100
AcDbLine
 10
176.5988476062
 20
15.9951799028
 30
0.0
 11
180.5940431302
 21
15.9951799028
 31
0.0
  0
LINE
  5
288
330
1F
100
AcDbEntity
  8
0
  6
SLD-Сплошная
 62
     7
370
    25
100
AcDbLine
 10
163.9940431302
 20
15.9951799028
 30
0.0
 11
167.9892386542
 21
15.9951799028
 31
0.0
  0
LINE
  5
289
330
1F
100
AcDbEntity
  8
0
  6
SLD-Сплошная
 62
     7
370
    25
100
AcDbLine
 10
264.1434877803
 20
59.2451799028
 30
0.0
 11
256.5940431302
 21
59.2451799028
 31
0.0
  0
SPLINE
  5
28A
330
1F
100
AcDbEntity
  8
0
  6
SLD-Сплошная
 62
     7
370
    25
100
AcDbSpline
210
0.0
220
0.0
230
1.0
 70
     8
 71
     3
 72
    20
 73
    16
 74
     0
 42
0.00000001
 43
0.00000001
 40
0.0
 40
0.0
 40
0.0
 40
0.0
 40
0.0070930000750285
 40
0.108578098417141
 40
0.1844692092754701
 40
0.2350791911360009
 40
0.3185518320935775
 40
0.4125098071727646
 40
0.4802874331200452
 40
0.5525832029053
 40
0.6393232184117359
 40
0.7154746672268417
 40
0.8009973620945438
 40
0.8960313993748885
 40
1.0
 40
1.0
 40
1.0
 40
1.0
 10
256.1876483570348
 20
71.23948105330325
 30
0.0
 10
256.177082000402
 20
71.26797949608601
 30
0.0
 10
256.015334517214
 20
71.70422744370623
 30
0.0
 10
255.4933566740931
 20
72.38368734620057
 30
0.0
 10
254.6215511234857
 20
73.13760885496464
 30
0.0
 10
253.6331371368822
 20
73.71663806910108
 30
0.0
 10
252.5464006816802
 20
74.15273457829437
 30
0.0
 10
251.3537093046649
 20
74.49285519446124
 30
0.0
 10
250.0819397863368
 20
74.77719164730887
 30
0.0
 10
248.7538970304459
 20
75.03156358335485
 30
0.0
 10
247.2878225949462
 20
75.28102316438348
 30
0.0
 10
245.6370409568866
 20
75.54891612025726
 30
0.0
 10
243.8420500899216
 20
75.84670786124748
 30
0.0
 10
241.7824561752226
 20
76.2012016754066
 30
0.0
 10
240.3605059435801
 20
76.46856962704094
 30
0.0
 10
239.6176103855189
 20
76.60825557329774
 30
0.0
  0
SPLINE
  5
28B
330
1F
100
AcDbEntity
  8
0
  6
SLD-Сплошная
 62
     7
370
    25
100
AcDbSpline
210
0.0
220
0.0
230
1.0
 70
     8
 71
     3
 72
    24
 73
    20
 74
     0
 42
0.00000001
 43
0.00000001
 40
0.0
 40
0.0
 40
0.0
 40
0.0
 40
0.1143121210186936
 40
0.2107233322417097
 40
0.2884321395005068
 40
0.3475859304935652
 40
0.4063386095406991
 40
0.4623884120795766
 40
0.5166385425779412
 40
0.5562252670155093
 40
0.5946408356240556
 40
0.6317292298673682
 40
0.6702529620275163
 40
0.709276703482094
 40
0.7625108837640237
 40
0.8306326964188585
 40
0.8914913140954682
 40
0.9606796967882762
 40
1.0
 40
1.0
 40
1.0
 40
1.0
 10
239.6176103855189
 20
19.88210423221272
 30
0.0
 10
240.432995119397
 20
20.03481389477092
 30
0.0
 10
241.9360779652986
 20
20.31631937881761
 30
0.0
 10
244.0070564144094
 20
20.66738516596188
 30
0.0
 10
245.6151788449602
 20
20.93320837269388
 30
0.0
 10
246.9068871834484
 20
21.1445040340211
 30
0.0
 10
248.0287882766304
 20
21.33314607179799
 30
0.0
 10
249.0644860958196
 20
21.51728806178624
 30
0.0
 10
249.936290545915
 20
21.68633132065962
 30
0.0
 10
250.6683450247748
 20
21.84318637122156
 30
0.0
 10
251.2802804227732
 20
21.98860394030469
 30
0.0
 10
251.8626459189302
 20
22.14487612312248
 30
0.0
 10
252.4259730572635
 20
22.31646077834083
 30
0.0
 10
253.1164955259077
 20
22.56625663799457
 30
0.0
 10
253.9117137389692
 20
22.93230068613443
 30
0.0
 10
254.7195383012158
 20
23.44012421787471
 30
0.0
 10
255.4324416834278
 20
24.08380847913903
 30
0.0
 10
255.9204509868501
 20
24.67943374004445
 30
0.0
 10
256.0973286793243
 20
25.09505760678438
 30
0.0
 10
256.1614238661889
 20
25.24566726836134
 30
0.0
  0
SPLINE
  5
28C
330
1F
100
AcDbEntity
  8
0
  6
SLD-Сплошная
 62
     7
370
    25
100
AcDbSpline
210
0.0
220
0.0
230
1.0
 70
     8
 71
     3
 72
    10
 73
     6
 74
     0
 42
0.00000001
 43
0.00000001
 40
0.0
 40
0.0
 40
0.0
 40
0.0
 40
0.3306430965161125
 40
0.6658225914101251
 40
1.0
 40
1.0
 40
1.0
 40
1.0
 10
239.6169971828421
 20
76.60839245328546
 30
0.0
 10
236.8366352521377
 20
77.11258396168772
 30
0.0
 10
231.2377650344757
 20
78.12788444800837
 30
0.0
 10
222.7610036472122
 20
79.23421390243027
 30
0.0
 10
217.0615662592676
 20
79.70625098492921
 30
0.0
 10
214.2161138454502
 20
79.94191618561182
 30
0.0
  0
SPLINE
  5
28D
330
1F
100
AcDbEntity
  8
0
  6
SLD-Сплошная
 62
     7
370
    25
100
AcDbSpline
210
0.0
220
0.0
230
1.0
 70
     8
 71
     3
 72
    10
 73
     6
 74
     0
 42
0.00000001
 43
0.00000001
 40
0.0
 40
0.0
 40
0.0
 40
0.0
 40
0.3341774085898893
 40
0.669356903483895
 40
1.0
 40
1.0
 40
1.0
 40
1.0
 10
214.2161138454502
 20
16.54844361989864
 30
0.0
 10
217.0615662592677
 20
16.78410882058127
 30
0.0
 10
222.7610036472124
 20
17.25614590308023
 30
0.0
 10
231.2377650344759
 20
18.3624753575021
 30
0.0
 10
236.8366352521378
 20
19.37777584382275
 30
0.0
 10
239.6169971828421
 20
19.88196735222501
 30
0.0
  0
LINE
  5
28E
330
1F
100
AcDbEntity
  8
0
  6
SLD-Сплошная
 62
     7
370
    25
100
AcDbLine
 10
256.5940431302
 20
37.2451799028
 30
0.0
 11
264.1434877803
 21
37.2451799028
 31
0.0
  0
LINE
  5
28F
330
1F
100
AcDbEntity
  8
0
  6
SLD-Сплошная
 62
     7
370
    25
100
AcDbLine
 10
204.5036196553
 20
79.9539326949
 30
0.0
 11
194.0940431302
 21
79.7584691669
 31
0.0
  0
LINE
  5
290
330
1F
100
AcDbEntity
  8
0
  6
SLD-Сплошная
 62
     7
370
    25
100
AcDbLine
 10
194.0940431302
 20
16.7318906386
 30
0.0
 11
204.5036196553
 21
16.5364271107
 31
0.0
  0
LINE
  5
291
330
1F
100
AcDbEntity
  8
0
  6
SLD-Сплошная
 62
     7
370
    25
100
AcDbLine
 10
296.6416056762
 20
34.8772102581
 30
0.0
 11
296.7118277278
 21
36.685888753
 31
0.0
  0
LINE
  5
292
330
1F
100
AcDbEntity
  8
0
  6
SLD-Сплошная
 62
     7
370
    25
100
AcDbLine
 10
296.7118277278
 20
59.8056511013
 30
0.0
 11
296.6416056762
 21
61.6143295962
 31
0.0
  0
SPLINE
  5
293
330
1F
100
AcDbEntity
  8
0
  6
SLD-Сплошная
 62
     7
370
    25
100
AcDbSpline
210
0.0
220
0.0
230
1.0
 70
     8
 71
     3
 72
    10
 73
     6
 74
     0
 42
0.00000001
 43
0.00000001
 40
0.0
 40
0.0
 40
0.0
 40
0.0
 40
0.3327831523973589
 40
0.6670550981412299
 40
1.0
 40
1.0
 40
1.0
 40
1.0
 10
212.4565024133545
 20
79.94470686280025
 30
0.0
 10
211.5713591128024
 20
79.94753755499434
 30
0.0
 10
209.7971125893071
 20
79.95321160323188
 30
0.0
 10
207.1155812519665
 20
79.96052753349471
 30
0.0
 10
205.3737255954386
 20
79.95613362212944
 30
0.0
 10
204.5045299768049
 20
79.95394103602563
 30
0.0
  0
SPLINE
  5
294
330
1F
100
AcDbEntity
  8
0
  6
SLD-Сплошная
 62
     7
370
    25
100
AcDbSpline
210
0.0
220
0.0
230
1.0
 70
     8
 71
     3
 72
    12
 73
     8
 74
     0
 42
0.00000001
 43
0.00000001
 40
0.0
 40
0.0
 40
0.0
 40
0.0
 40
0.1848643639875768
 40
0.3990859980992049
 40
0.5996421884565968
 40
0.8065710263899547
 40
1.0
 40
1.0
 40
1.0
 40
1.0
 10
204.5045142648992
 20
16.53641887249849
 30
0.0
 10
204.9867928886853
 20
16.53475574933769
 30
0.0
 10
206.0279380925738
 20
16.53116539177891
 30
0.0
 10
207.6127132673741
 20
16.53280147705607
 30
0.0
 10
209.2722551293998
 20
16.5351686572698
 30
0.0
 10
210.8799704735007
 20
16.54147695854764
 30
0.0
 10
211.9429444180741
 20
16.54429256026548
 30
0.0
 10
212.4565099165975
 20
16.54565289078651
 30
0.0
  0
LINE
  5
295
330
1F
100
AcDbEntity
  8
0
  6
SLD-Сплошная
 62
     7
370
    25
100
AcDbLine
 10
214.2131829384
 20
79.9421138885
 30
0.0
 11
212.4585175231
 21
79.9446783158
 31
0.0
  0
LINE
  5
296
330
1F
100
AcDbEntity
  8
0
  6
SLD-Сплошная
 62
     7
370
    25
100
AcDbLine
 10
212.4585175231
 20
16.5456814897
 30
0.0
 11
214.2131829384
 21
16.548245917
 31
0.0
  0
ARC
  5
297
330
1F
100
AcDbEntity
  8
0
  6
SLD-Сплошная
 62
     7
370
    25
100
AcDbCircle
 10
287.1531067235
 20
48.2457699271
 30
0.0
 40
17.50000000000001
100
AcDbArc
 50
270.0
 51
297.7766046258
  0
ARC
  5
298
330
1F
100
AcDbEntity
  8
0
  6
SLD-Сплошная
 62
     7
370
    25
100
AcDbCircle
 10
294.1434877803
 20
34.9741998361
 30
0.0
 40
2.500000000000022
100
AcDbArc
 50
297.7766046258
 51
357.7766046258
  0
LINE
  5
299
330
1F
100
AcDbEntity
  8
0
  6
SLD-Сплошная
 62
     7
370
    25
100
AcDbLine
 10
275.1434877803
 20
30.7457699271
 30
0.0
 11
287.1531067235
 21
30.7457699271
 31
0.0
  0
ARC
  5
29A
330
1F
100
AcDbEntity
  8
0
  6
SLD-Сплошная
 62
     7
370
    25
100
AcDbCircle
 10
287.1531067235
 20
48.2457699271
 30
0.0
 40
17.5
100
AcDbArc
 50
62.2233953742
 51
90.0
  0
ARC
  5
29B
330
1F
100
AcDbEntity
  8
0
  6
SLD-Сплошная
 62
     7
370
    25
100
AcDbCircle
 10
294.1434877803
 20
61.5173400182
 30
0.0
 40
2.500000000000022
100
AcDbArc
 50
2.2233953742
 51
62.2233953742
  0
LINE
  5
29C
330
1F
100
AcDbEntity
  8
0
  6
SLD-Сплошная
 62
     7
370
    25
100
AcDbLine
 10
287.1531067235
 20
65.7457699271
 30
0.0
 11
275.1434877803
 21
65.7457699271
 31
0.0
  0
LINE
  5
29D
330
1F
100
AcDbEntity
  8
0
  6
SLD-Сплошная
 62
     7
370
    25
100
AcDbLine
 10
167.9892386542
 20
15.5951799028
 30
0.0
 11
170.3373086542
 21
15.5951799028
 31
0.0
  0
LINE
  5
29E
330
1F
100
AcDbEntity
  8
0
  6
SLD-Сплошная
 62
     7
370
    25
100
AcDbLine
 10
174.2507776062
 20
15.5951799028
 30
0.0
 11
176.5988476062
 21
15.5951799028
 31
0.0
  0
LINE
  5
29F
330
1F
100
AcDbEntity
  8
0
  6
SLD-Сплошная
 62
     7
370
    25
100
AcDbLine
 10
171.1200081302
 20
15.5951799028
 30
0.0
 11
173.4680781302
 21
15.5951799028
 31
0.0
  0
LINE
  5
2A0
330
1F
100
AcDbEntity
  8
0
  6
SLD-Сплошная
 62
     7
370
    25
100
AcDbLine
 10
170.2940431302
 20
38.2451799028
 30
0.0
 11
170.2940431302
 21
58.2451799028
 31
0.0
  0
ARC
  5
2A1
330
1F
100
AcDbEntity
  8
0
  6
SLD-Сплошная
 62
     7
370
    25
100
AcDbCircle
 10
291.5940431302
 20
48.2451799028
 30
0.0
 40
150.0
100
AcDbArc
 50
167.4279780332
 51
176.4697764876
  0
ARC
  5
2A2
330
1F
100
AcDbEntity
  8
0
  6
SLD-Сплошная
 62
     7
370
    25
100
AcDbCircle
 10
291.5940431302
 20
48.2451799028
 30
0.0
 40
150.0
100
AcDbArc
 50
177.7249179548
 51
182.2750820452
  0
ARC
  5
2A3
330
1F
100
AcDbEntity
  8
0
  6
SLD-Сплошная
 62
     7
370
    25
100
AcDbCircle
 10
291.5940431302
 20
48.2451799028
 30
0.0
 40
149.9999999999999
100
AcDbArc
 50
183.5302235124
 51
192.5720219668
  0
LINE
  5
2A4
330
1F
100
AcDbEntity
  8
0
  6
SLD-Сплошная
 62
     7
370
    25
100
AcDbLine
 10
151.5940431302
 20
80.8951799028
 30
0.0
 11
145.1905681032
 21
80.8951799028
 31
0.0
  0
LINE
  5
2A5
330
1F
100
AcDbEntity
  8
0
  6
SLD-Сплошная
 62
     7
370
    25
100
AcDbLine
 10
145.1905681032
 20
15.5951799028
 30
0.0
 11
151.5940431302
 21
15.5951799028
 31
0.0
  0
LINE
  5
2A6
330
1F
100
AcDbEntity
  8
0
  6
SLD-Сплошная
 62
     7
370
    25
100
AcDbLine
 10
159.0940431302
 20
58.5451799028
 30
0.0
 11
166.7805411719
 21
58.5451799028
 31
0.0
  0
LINE
  5
2A7
330
1F
100
AcDbEntity
  8
0
  6
SLD-Сплошная
 62
     7
370
    25
100
AcDbLine
 10
159.0940431302
 20
58.5451799028
 30
0.0
 11
159.0940431302
 21
62.5451799028
 31
0.0
  0
LINE
  5
2A8
330
1F
100
AcDbEntity
  8
0
  6
SLD-Сплошная
 62
     7
370
    25
100
AcDbLine
 10
159.0940431302
 20
62.5451799028
 30
0.0
 11
166.7805411719
 21
62.5451799028
 31
0.0
  0
LINE
  5
2A9
330
1F
100
AcDbEntity
  8
0
  6
SLD-Сплошная
 62
     7
370
    25
100
AcDbLine
 10
159.0940431302
 20
33.9451799028
 30
0.0
 11
166.7805411719
 21
33.9451799028
 31
0.0
  0
LINE
  5
2AA
330
1F
100
AcDbEntity
  8
0
  6
SLD-Сплошная
 62
     7
370
    25
100
AcDbLine
 10
159.0940431302
 20
37.9451799028
 30
0.0
 11
159.0940431302
 21
33.9451799028
 31
0.0
  0
LINE
  5
2AB
330
1F
100
AcDbEntity
  8
0
  6
SLD-Сплошная
 62
     7
370
    25
100
AcDbLine
 10
159.0940431302
 20
37.9451799028
 30
0.0
 11
166.7805411719
 21
37.9451799028
 31
0.0
  0
ELLIPSE
  5
2AC
330
1F
100
AcDbEntity
  8
0
  6
SLD-Сплошная
 62
     7
370
    25
100
AcDbEllipse
 10
236.7366511504
 20
48.2451799028
 30
0.0
 11
51.25023409288593
 21
0.0
 31
0.0
210
0.0
220
0.0
230
1.0
 40
0.6370702608
 41
2.688243793846527
 42
3.594941513333079
  0
LINE
  5
2AD
330
1F
100
AcDbEntity
  8
0
  6
SLD-Сплошная
 62
     7
370
    25
100
AcDbLine
 10
180.274804305
 20
37.9451799028
 30
0.0
 11
180.274804305
 21
58.5451799028
 31
0.0
  0
LINE
  5
2AE
330
1F
100
AcDbEntity
  8
0
  6
SLD-Сплошная
 62
     7
370
    25
100
AcDbLine
 10
166.7805411719
 20
33.9451799028
 30
0.0
 11
190.6634380668
 21
33.9451799028
 31
0.0
  0
LINE
  5
2AF
330
1F
100
AcDbEntity
  8
0
  6
SLD-Сплошная
 62
     7
370
    25
100
AcDbLine
 10
166.7805411719
 20
37.9451799028
 30
0.0
 11
180.274804305
 21
37.9451799028
 31
0.0
  0
LINE
  5
2B0
330
1F
100
AcDbEntity
  8
0
  6
SLD-Сплошная
 62
     7
370
    25
100
AcDbLine
 10
166.7805411719
 20
58.5451799028
 30
0.0
 11
180.274804305
 21
58.5451799028
 31
0.0
  0
LINE
  5
2B1
330
1F
100
AcDbEntity
  8
0
  6
SLD-Сплошная
 62
     7
370
    25
100
AcDbLine
 10
166.7805411719
 20
62.5451799028
 30
0.0
 11
190.6634380668
 21
62.5451799028
 31
0.0
  0
LINE
  5
2B2
330
1F
100
AcDbEntity
  8
0
  6
SLD-Сплошная
 62
     7
370
    25
100
AcDbLine
 10
179.2002050883
 20
58.5451799028
 30
0.0
 11
179.2002050883
 21
37.9451799028
 31
0.0
  0
LINE
  5
2B3
330
1F
100
AcDbEntity
  8
0
  6
SLD-Сплошная
 62
     7
370
    25
100
AcDbLine
 10
194.0940431302
 20
80.8951799028
 30
0.0
 11
194.0940431302
 21
15.5951799028
 31
0.0
  0
LINE
  5
2B4
330
1F
100
AcDbEntity
  8
0
  6
SLD-Сплошная
 62
     7
370
    25
100
AcDbLine
 10
151.5940431302
 20
80.8951799028
 30
0.0
 11
151.5940431302
 21
58.2451799028
 31
0.0
  0
LINE
  5
2B5
330
1F
100
AcDbEntity
  8
0
  6
SLD-Сплошная
 62
     7
370
    25
100
AcDbLine
 10
151.5940431302
 20
38.2451799028
 30
0.0
 11
151.5940431302
 21
15.5951799028
 31
0.0
  0
LINE
  5
2B6
330
1F
100
AcDbEntity
  8
0
  6
SLD-Сплошная
 62
     7
370
    25
100
AcDbLine
 10
163.9940431302
 20
18.5302497871
 30
0.0
 11
163.9940431302
 21
15.5951799028
 31
0.0
  0
LINE
  5
2B7
330
1F
100
AcDbEntity
  8
0
  6
SLD-Сплошная
 62
     7
370
    25
100
AcDbLine
 10
180.5940431302
 20
18.5302497871
 30
0.0
 11
180.5940431302
 21
15.5951799028
 31
0.0
  0
LINE
  5
2B8
330
1F
100
AcDbEntity
  8
0
  6
SLD-Сплошная
 62
     7
370
    25
100
AcDbLine
 10
180.5940431302
 20
18.5302497871
 30
0.0
 11
163.9940431302
 21
18.5302497871
 31
0.0
  0
SPLINE
  5
2B9
330
1F
100
AcDbEntity
  8
0
  6
SLD-Сплошная
 62
     7
370
    25
100
AcDbSpline
210
0.0
220
0.0
230
1.0
 70
     8
 71
     3
 72
    14
 73
    10
 74
     0
 42
0.00000001
 43
0.00000001
 40
0.0
 40
0.0
 40
0.0
 40
0.0
 40
0.1297890377792793
 40
0.2798586680982253
 40
0.4321915265614314
 40
0.5884022937975193
 40
0.7498360602312174
 40
0.9161462114689533
 40
1.0
 40
1.0
 40
1.0
 40
1.0
 10
253.490264235987
 20
24.50976965336954
 30
0.0
 10
253.0373608500445
 20
24.41446973905567
 30
0.0
 10
252.0607842412972
 20
24.2089785238799
 30
0.0
 10
250.1860175577745
 20
23.96884257080671
 30
0.0
 10
247.9863209944427
 20
23.70710499489399
 30
0.0
 10
245.5475537014138
 20
23.40700516650383
 30
0.0
 10
242.9135051531877
 20
23.01831409696524
 30
0.0
 10
240.6320556432147
 20
22.61695644581592
 30
0.0
 10
239.2657434515232
 20
22.34139777922562
 30
0.0
 10
238.8077619626827
 20
22.24903179643243
 30
0.0
  0
SPLINE
  5
2BA
330
1F
100
AcDbEntity
  8
0
  6
SLD-Сплошная
 62
     7
370
    25
100
AcDbSpline
210
0.0
220
0.0
230
1.0
 70
     8
 71
     3
 72
    10
 73
     6
 74
     0
 42
0.00000001
 43
0.00000001
 40
0.0
 40
0.0
 40
0.0
 40
0.0
 40
0.5
 40
0.5
 40
1.0
 40
1.0
 40
1.0
 40
1.0
 10
238.8077619626827
 20
22.24903179643243
 30
0.0
 10
234.729233799091
 20
21.40369537850376
 30
0.0
 10
230.6250504195689
 20
20.69101451886331
 30
0.0
 10
222.3820288542991
 20
19.51613011952214
 30
0.0
 10
218.2434893222839
 20
19.05413179674356
 30
0.0
 10
214.094043130214
 20
18.71405314918913
 30
0.0
  0
SPLINE
  5
2BB
330
1F
100
AcDbEntity
  8
0
  6
SLD-Сплошная
 62
     7
370
    25
100
AcDbSpline
210
0.0
220
0.0
230
1.0
 70
     8
 71
     3
 72
    10
 73
     6
 74
     0
 42
0.00000001
 43
0.00000001
 40
0.0
 40
0.0
 40
0.0
 40
0.0
 40
0.5
 40
0.5
 40
1.0
 40
1.0
 40
1.0
 40
1.0
 10
238.8077619626827
 20
74.24132800907805
 30
0.0
 10
234.729233799091
 20
75.08666442700671
 30
0.0
 10
230.6250504195689
 20
75.79934528664717
 30
0.0
 10
222.3820288542991
 20
76.97422968598832
 30
0.0
 10
218.2434893222839
 20
77.4362280087669
 30
0.0
 10
214.094043130214
 20
77.77630665632134
 30
0.0
  0
SPLINE
  5
2BC
330
1F
100
AcDbEntity
  8
0
  6
SLD-Сплошная
 62
     7
370
    25
100
AcDbSpline
210
0.0
220
0.0
230
1.0
 70
     8
 71
     3
 72
    14
 73
    10
 74
     0
 42
0.00000001
 43
0.00000001
 40
0.0
 40
0.0
 40
0.0
 40
0.0
 40
0.1297907341577652
 40
0.2798600719328301
 40
0.4321926334402462
 40
0.5884030961609966
 40
0.7498365478977073
 40
0.9161463749324914
 40
1.0
 40
1.0
 40
1.0
 40
1.0
 10
253.4902854102932
 20
71.9805860195199
 30
0.0
 10
253.0373753498621
 20
72.07588739216143
 30
0.0
 10
252.0607922146033
 20
72.28138009682813
 30
0.0
 10
250.1860176971391
 20
72.52151726405333
 30
0.0
 10
247.9863209558392
 20
72.78325480248675
 30
0.0
 10
245.5475537122596
 20
73.08335464129071
 30
0.0
 10
242.9135051500896
 20
73.47204570789279
 30
0.0
 10
240.6320556435669
 20
73.87340335976873
 30
0.0
 10
239.2657434516116
 20
74.14896202630347
 30
0.0
 10
238.8077619626827
 20
74.24132800907805
 30
0.0
  0
LINE
  5
2BD
330
1F
100
AcDbEntity
  8
0
  6
SLD-Сплошная
 62
     7
370
    25
100
AcDbLine
 10
256.5940431302
 20
71.2451799028
 30
0.0
 11
256.5940431302
 21
25.2451799028
 31
0.0
  0
SPLINE
  5
2BE
330
1F
100
AcDbEntity
  8
0
  6
SLD-Сплошная
 62
     7
370
    25
100
AcDbSpline
210
0.0
220
0.0
230
1.0
 70
     8
 71
     3
 72
     8
 73
     4
 74
     0
 42
0.00000001
 43
0.00000001
 40
0.0
 40
0.0
 40
0.0
 40
0.0
 40
0.0003075835388222
 40
0.0003075835388222
 40
0.0003075835388222
 40
0.0003075835388222
 10
214.094043130214
 20
18.71405314918908
 30
0.0
 10
213.9923442198308
 20
18.71288922211375
 30
0.0
 10
213.8906495882182
 20
18.71173083023796
 30
0.0
 10
213.7889590632782
 20
18.71057824531363
 30
0.0
  0
SPLINE
  5
2BF
330
1F
100
AcDbEntity
  8
0
  6
SLD-Сплошная
 62
     7
370
    25
100
AcDbSpline
210
0.0
220
0.0
230
1.0
 70
     8
 71
     3
 72
    14
 73
    10
 74
     0
 42
0.00000001
 43
0.00000001
 40
0.0
 40
0.0
 40
0.0
 40
0.0
 40
0.0005117791612315
 40
0.0005117791612315
 40
0.0005117791612315
 40
0.0010235583224628
 40
0.0010235583224628
 40
0.0010235583224628
 40
0.0016949292021516
 40
0.0016949292021516
 40
0.0016949292021516
 40
0.0016949292021516
 10
212.1103472651229
 20
18.69082325024988
 30
0.0
 10
212.279298260499
 20
18.69271830549948
 30
0.0
 10
212.4482491538542
 20
18.69464153653882
 30
0.0
 10
212.6171999741343
 20
18.69659292273693
 30
0.0
 10
212.7861507944142
 20
18.69854430893504
 30
0.0
 10
212.9551015465359
 20
18.70052384997441
 30
0.0
 10
213.1240522248231
 20
18.70253154440914
 30
0.0
 10
213.3456879868448
 20
18.70516531238484
 30
0.0
 10
213.56732363363
 20
18.70784752786017
 30
0.0
 10
213.7889590632782
 20
18.71057824531363
 30
0.0
  0
SPLINE
  5
2C0
330
1F
100
AcDbEntity
  8
0
  6
SLD-Сплошная
 62
     7
370
    25
100
AcDbSpline
210
0.0
220
0.0
230
1.0
 70
     8
 71
     3
 72
    14
 73
    10
 74
     0
 42
0.00000001
 43
0.00000001
 40
0.0
 40
0.0
 40
0.0
 40
0.0
 40
0.25
 40
0.25
 40
0.5
 40
0.5
 40
0.75
 40
0.75
 40
1.0
 40
1.0
 40
1.0
 40
1.0
 10
212.1103472651229
 20
18.69082325024988
 30
0.0
 10
211.5320788780325
 20
18.68433704671973
 30
0.0
 10
210.9518092816461
 20
18.68041704118944
 30
0.0
 10
209.7877604156186
 20
18.67630220067403
 30
0.0
 10
209.2026351923226
 20
18.67648216096124
 30
0.0
 10
208.0397775865409
 20
18.68208781955508
 30
0.0
 10
207.4596238606541
 20
18.68736800494169
 30
0.0
 10
206.3087516224076
 20
18.70283904222231
 30
0.0
 10
205.7380428019823
 20
18.71287547789344
 30
0.0
 10
205.174417641777
 20
18.72734031510458
 30
0.0
  0
SPLINE
  5
2C1
330
1F
100
AcDbEntity
  8
0
  6
SLD-Сплошная
 62
     7
370
    25
100
AcDbSpline
210
0.0
220
0.0
230
1.0
 70
     8
 71
     3
 72
     8
 73
     4
 74
     0
 42
0.00000001
 43
0.00000001
 40
0.0
 40
0.0
 40
0.0
 40
0.0
 40
1.0
 40
1.0
 40
1.0
 40
1.0
 10
205.174417641777
 20
18.72734031510458
 30
0.0
 10
201.4800425441497
 20
18.82215250263116
 30
0.0
 10
197.7861254431541
 20
18.96784630069237
 30
0.0
 10
194.0940431302141
 20
19.16575489782538
 30
0.0
  0
SPLINE
  5
2C2
330
1F
100
AcDbEntity
  8
0
  6
SLD-Сплошная
 62
     7
370
    25
100
AcDbSpline
210
0.0
220
0.0
230
1.0
 70
     8
 71
     3
 72
     8
 73
     4
 74
     0
 42
0.00000001
 43
0.00000001
 40
0.0
 40
0.0
 40
0.0
 40
0.0
 40
1.0
 40
1.0
 40
1.0
 40
1.0
 10
205.174417641777
 20
77.76301949040588
 30
0.0
 10
201.4800426025225
 20
77.66820730437739
 30
0.0
 10
197.7861255027862
 20
77.52251350801458
 30
0.0
 10
194.0940431302141
 20
77.32460490768509
 30
0.0
  0
SPLINE
  5
2C3
330
1F
100
AcDbEntity
  8
0
  6
SLD-Сплошная
 62
     7
370
    25
100
AcDbSpline
210
0.0
220
0.0
230
1.0
 70
     8
 71
     3
 72
    14
 73
    10
 74
     0
 42
0.00000001
 43
0.00000001
 40
0.0
 40
0.0
 40
0.0
 40
0.0
 40
0.25
 40
0.25
 40
0.5
 40
0.5
 40
0.75
 40
0.75
 40
1.0
 40
1.0
 40
1.0
 40
1.0
 10
212.1103472651229
 20
77.79953655526063
 30
0.0
 10
211.5322000399008
 20
77.80602139976693
 30
0.0
 10
210.9525458257196
 20
77.81042445361174
 30
0.0
 10
209.7883115897352
 20
77.813855739515
 30
0.0
 10
209.2033420601401
 20
77.81326447655437
 30
0.0
 10
208.0391304944126
 20
77.80828669788474
 30
0.0
 10
207.4572918848335
 20
77.80381198424932
 30
0.0
 10
206.3063241610236
 20
77.7884184177228
 30
0.0
 10
205.7378447421283
 20
77.77747924462255
 30
0.0
 10
205.174417641777
 20
77.76301949040582
 30
0.0
  0
SPLINE
  5
2C4
330
1F
100
AcDbEntity
  8
0
  6
SLD-Сплошная
 62
     7
370
    25
100
AcDbSpline
210
0.0
220
0.0
230
1.0
 70
     8
 71
     3
 72
    14
 73
    10
 74
     0
 42
0.00000001
 43
0.00000001
 40
0.0
 40
0.0
 40
0.0
 40
0.0
 40
0.0005117791612315
 40
0.0005117791612315
 40
0.0005117791612315
 40
0.0010235583224628
 40
0.0010235583224628
 40
0.0010235583224628
 40
0.0016949292021516
 40
0.0016949292021516
 40
0.0016949292021516
 40
0.0016949292021516
 10
212.1103472651229
 20
77.79953655526059
 30
0.0
 10
212.279298260499
 20
77.797641500011
 30
0.0
 10
212.4482491538542
 20
77.79571826897165
 30
0.0
 10
212.6171999741343
 20
77.79376688277354
 30
0.0
 10
212.7861507944142
 20
77.79181549657542
 30
0.0
 10
212.9551015465359
 20
77.78983595553605
 30
0.0
 10
213.1240522248231
 20
77.78782826110134
 30
0.0
 10
213.3456879868448
 20
77.78519449312563
 30
0.0
 10
213.56732363363
 20
77.78251227765028
 30
0.0
 10
213.7889590632782
 20
77.77978156019684
 30
0.0
  0
SPLINE
  5
2C5
330
1F
100
AcDbEntity
  8
0
  6
SLD-Сплошная
 62
     7
370
    25
100
AcDbSpline
210
0.0
220
0.0
230
1.0
 70
     8
 71
     3
 72
     8
 73
     4
 74
     0
 42
0.00000001
 43
0.00000001
 40
0.0
 40
0.0
 40
0.0
 40
0.0
 40
0.0003075835388222
 40
0.0003075835388222
 40
0.0003075835388222
 40
0.0003075835388222
 10
214.094043130214
 20
77.7763066563214
 30
0.0
 10
213.9923442198308
 20
77.77747058339672
 30
0.0
 10
213.8906495882182
 20
77.77862897527251
 30
0.0
 10
213.7889590632782
 20
77.77978156019684
 30
0.0
  0
LINE
  5
2C6
330
1F
100
AcDbEntity
  8
0
  6
SLD-Сплошная
 62
     7
370
    25
100
AcDbLine
 10
266.1434877803
 20
71.2457699271
 30
0.0
 11
266.1434877803
 21
73.6463221333
 31
0.0
  0
LINE
  5
2C7
330
1F
100
AcDbEntity
  8
0
  6
SLD-Сплошная
 62
     7
370
    25
100
AcDbLine
 10
266.1434877803
 20
69.0807064177
 30
0.0
 11
266.1434877803
 21
71.2457699271
 31
0.0
  0
LINE
  5
2C8
330
1F
100
AcDbEntity
  8
0
  6
SLD-Сплошная
 62
     7
370
    25
100
AcDbLine
 10
266.1434877803
 20
50.4108334366
 30
0.0
 11
266.1434877803
 21
69.0807064177
 31
0.0
  0
LINE
  5
2C9
330
1F
100
AcDbEntity
  8
0
  6
SLD-Сплошная
 62
     7
370
    25
100
AcDbLine
 10
266.1434877803
 20
46.0807064177
 30
0.0
 11
266.1434877803
 21
50.4108334366
 31
0.0
  0
LINE
  5
2CA
330
1F
100
AcDbEntity
  8
0
  6
SLD-Сплошная
 62
     7
370
    25
100
AcDbLine
 10
266.1434877803
 20
27.4108334366
 30
0.0
 11
266.1434877803
 21
46.0807064177
 31
0.0
  0
LINE
  5
2CB
330
1F
100
AcDbEntity
  8
0
  6
SLD-Сплошная
 62
     7
370
    25
100
AcDbLine
 10
266.1434877803
 20
25.2457699271
 30
0.0
 11
266.1434877803
 21
27.4108334366
 31
0.0
  0
LINE
  5
2CC
330
1F
100
AcDbEntity
  8
0
  6
SLD-Сплошная
 62
     7
370
    25
100
AcDbLine
 10
266.1434877803
 20
22.845217721
 30
0.0
 11
266.1434877803
 21
25.2457699271
 31
0.0
  0
LINE
  5
2CD
330
1F
100
AcDbEntity
  8
0
  6
SLD-Сплошная
 62
     7
370
    25
100
AcDbLine
 10
264.1434877803
 20
22.845217721
 30
0.0
 11
266.1434877803
 21
22.845217721
 31
0.0
  0
LINE
  5
2CE
330
1F
100
AcDbEntity
  8
0
  6
SLD-Сплошная
 62
     7
370
    25
100
AcDbLine
 10
264.1434877803
 20
22.845217721
 30
0.0
 11
264.1434877803
 21
73.6463221333
 31
0.0
  0
LINE
  5
2CF
330
1F
100
AcDbEntity
  8
0
  6
SLD-Сплошная
 62
     7
370
    25
100
AcDbLine
 10
264.1434877803
 20
73.6463221333
 30
0.0
 11
266.1434877803
 21
73.6463221333
 31
0.0
  0
LINE
  5
2D0
330
1F
100
AcDbEntity
  8
0
  6
SLD-Сплошная
 62
     7
370
    25
100
AcDbLine
 10
275.1434877803
 20
69.0807064177
 30
0.0
 11
266.1434877803
 21
69.0807064177
 31
0.0
  0
LINE
  5
2D1
330
1F
100
AcDbEntity
  8
0
  6
SLD-Сплошная
 62
     7
370
    25
100
AcDbLine
 10
266.1434877803
 20
50.4108334366
 30
0.0
 11
275.1434877803
 21
50.4108334366
 31
0.0
  0
LINE
  5
2D2
330
1F
100
AcDbEntity
  8
0
  6
SLD-Сплошная
 62
     7
370
    25
100
AcDbLine
 10
275.1434877803
 20
69.0807064177
 30
0.0
 11
275.1434877803
 21
50.4108334366
 31
0.0
  0
LINE
  5
2D3
330
1F
100
AcDbEntity
  8
0
  6
SLD-Сплошная
 62
     7
370
    25
100
AcDbLine
 10
275.1434877803
 20
46.0807064177
 30
0.0
 11
266.1434877803
 21
46.0807064177
 31
0.0
  0
LINE
  5
2D4
330
1F
100
AcDbEntity
  8
0
  6
SLD-Сплошная
 62
     7
370
    25
100
AcDbLine
 10
275.1434877803
 20
50.4108334366
 30
0.0
 11
275.1434877803
 21
46.0807064177
 31
0.0
  0
LINE
  5
2D5
330
1F
100
AcDbEntity
  8
0
  6
SLD-Сплошная
 62
     7
370
    25
100
AcDbLine
 10
266.1434877803
 20
27.4108334366
 30
0.0
 11
275.1434877803
 21
27.4108334366
 31
0.0
  0
LINE
  5
2D6
330
1F
100
AcDbEntity
  8
0
  6
SLD-Сплошная
 62
     7
370
    25
100
AcDbLine
 10
275.1434877803
 20
27.4108334366
 30
0.0
 11
275.1434877803
 21
46.0807064177
 31
0.0
  0
LINE
  5
2D7
330
1F
100
AcDbEntity
  8
0
  6
SLD-Сплошная
 62
     7
370
    25
100
AcDbLine
 10
287.1531067235
 20
51.3158540212
 30
0.0
 11
275.1434877803
 21
51.3158540212
 31
0.0
  0
LINE
  5
2D8
330
1F
100
AcDbEntity
  8
0
  6
SLD-Сплошная
 62
     7
370
    25
100
AcDbLine
 10
287.1531067235
 20
51.3158540212
 30
0.0
 11
293.9955053118
 21
51.3158540212
 31
0.0
  0
LINE
  5
2D9
330
1F
100
AcDbEntity
  8
0
  6
SLD-Сплошная
 62
     7
370
    25
100
AcDbLine
 10
287.1531067235
 20
45.175685833
 30
0.0
 11
293.9955053118
 21
45.175685833
 31
0.0
  0
LINE
  5
2DA
330
1F
100
AcDbEntity
  8
0
  6
SLD-Сплошная
 62
     7
370
    25
100
AcDbLine
 10
287.1531067235
 20
45.175685833
 30
0.0
 11
275.1434877803
 21
45.175685833
 31
0.0
  0
ARC
  5
2DB
330
1F
100
AcDbEntity
  8
0
  6
SLD-Сплошная
 62
     7
370
    25
100
AcDbCircle
 10
293.8071063883
 20
48.4124598951
 30
0.0
 40
2.909500233045459
100
AcDbArc
 50
356.7156338417
 51
86.287327707
  0
ARC
  5
2DC
330
1F
100
AcDbEntity
  8
0
  6
SLD-Сплошная
 62
     7
370
    25
100
AcDbCircle
 10
287.1531067235
 20
48.2457699271
 30
0.0
 40
14.68245836551855
100
AcDbArc
 50
62.2233953742
 51
90.0
  0
LINE
  5
2DD
330
1F
100
AcDbEntity
  8
0
  6
SLD-Сплошная
 62
     7
370
    25
100
AcDbLine
 10
293.9955053118
 20
61.2363882809
 30
0.0
 11
296.7118277278
 21
59.8056511013
 31
0.0
  0
LINE
  5
2DE
330
1F
100
AcDbEntity
  8
0
  6
SLD-Сплошная
 62
     7
370
    25
100
AcDbLine
 10
300.1434877803
 20
48.2457699271
 30
0.0
 11
300.1434877803
 21
55.7457699271
 31
0.0
  0
LINE
  5
2DF
330
1F
100
AcDbEntity
  8
0
  6
SLD-Сплошная
 62
     7
370
    25
100
AcDbLine
 10
287.1531067235
 20
62.9282282927
 30
0.0
 11
275.1434877803
 21
62.9282282927
 31
0.0
  0
LINE
  5
2E0
330
1F
100
AcDbEntity
  8
0
  6
SLD-Сплошная
 62
     7
370
    25
100
AcDbLine
 10
296.7118277278
 20
36.685888753
 30
0.0
 11
293.9955053118
 21
35.2551515734
 31
0.0
  0
ARC
  5
2E1
330
1F
100
AcDbEntity
  8
0
  6
SLD-Сплошная
 62
     7
370
    25
100
AcDbCircle
 10
287.1531067235
 20
48.2457699271
 30
0.0
 40
14.68245836551861
100
AcDbArc
 50
270.0
 51
297.7766046258
  0
ARC
  5
2E2
330
1F
100
AcDbEntity
  8
0
  6
SLD-Сплошная
 62
     7
370
    25
100
AcDbCircle
 10
293.8071063883
 20
48.0790799592
 30
0.0
 40
2.909500233044964
100
AcDbArc
 50
273.712672293
 51
3.2843661583
  0
LINE
  5
2E3
330
1F
100
AcDbEntity
  8
0
  6
SLD-Сплошная
 62
     7
370
    25
100
AcDbLine
 10
300.1434877803
 20
40.7457699271
 30
0.0
 11
300.1434877803
 21
48.2457699271
 31
0.0
  0
LINE
  5
2E4
330
1F
100
AcDbEntity
  8
0
  6
SLD-Сплошная
 62
     7
370
    25
100
AcDbLine
 10
287.1531067235
 20
33.5633115616
 30
0.0
 11
275.1434877803
 21
33.5633115616
 31
0.0
  0
LINE
  5
2E5
330
1F
100
AcDbEntity
  8
0
  6
SLD-Сплошная
 62
     7
370
    25
100
AcDbLine
 10
266.1434877803
 20
71.2457699271
 30
0.0
 11
275.1434877803
 21
71.2457699271
 31
0.0
  0
LINE
  5
2E6
330
1F
100
AcDbEntity
  8
0
  6
SLD-Сплошная
 62
     7
370
    25
100
AcDbLine
 10
275.1434877803
 20
71.2457699271
 30
0.0
 11
275.1434877803
 21
69.0807064177
 31
0.0
  0
LINE
  5
2E7
330
1F
100
AcDbEntity
  8
0
  6
SLD-Сплошная
 62
     7
370
    25
100
AcDbLine
 10
275.1434877803
 20
25.2457699271
 30
0.0
 11
266.1434877803
 21
25.2457699271
 31
0.0
  0
LINE
  5
2E8
330
1F
100
AcDbEntity
  8
0
  6
SLD-Сплошная
 62
     7
370
    25
100
AcDbLine
 10
275.1434877803
 20
25.2457699271
 30
0.0
 11
275.1434877803
 21
27.4108334366
 31
0.0
  0
SPLINE
  5
2E9
330
1F
100
AcDbEntity
  8
0
  6
SLD-Сплошная
 62
     7
370
    25
100
AcDbSpline
210
0.0
220
0.0
230
1.0
 70
     8
 71
     3
 72
     8
 73
     4
 74
     0
 42
0.00000001
 43
0.00000001
 40
0.0
 40
0.0
 40
0.0
 40
0.0
 40
1.0
 40
1.0
 40
1.0
 40
1.0
 10
176.5988476062135
 20
17.85752817924703
 30
0.0
 10
175.163816830714
 20
17.45528074937967
 30
0.0
 10
173.7290739057308
 20
17.11638716921527
 30
0.0
 10
172.2940431302154
 20
16.84282319621448
 30
0.0
  0
SPLINE
  5
2EA
330
1F
100
AcDbEntity
  8
0
  6
SLD-Сплошная
 62
     7
370
    25
100
AcDbSpline
210
0.0
220
0.0
230
1.0
 70
     8
 71
     3
 72
     8
 73
     4
 74
     0
 42
0.00000001
 43
0.00000001
 40
0.0
 40
0.0
 40
0.0
 40
0.0
 40
1.0
 40
1.0
 40
1.0
 40
1.0
 10
172.2940431302154
 20
16.84282319621443
 30
0.0
 10
170.8590123544254
 20
17.11638716926732
 30
0.0
 10
169.424269430018
 20
17.45528074929457
 30
0.0
 10
167.9892386542137
 20
17.85752817924703
 30
0.0
  0
LINE
  5
2EB
330
1F
100
AcDbEntity
  8
0
  6
SLD-Сплошная
 62
     7
370
    25
100
AcDbLine
 10
169.4541913987
 20
16.2878955806
 30
0.0
 11
167.9892386542
 21
16.2878955806
 31
0.0
  0
LINE
  5
2EC
330
1F
100
AcDbEntity
  8
0
  6
SLD-Сплошная
 62
     7
370
    25
100
AcDbLine
 10
176.5988476062
 20
16.2878955806
 30
0.0
 11
175.0954874844
 21
16.2878955806
 31
0.0
  0
SPLINE
  5
2ED
330
1F
100
AcDbEntity
  8
0
  6
SLD-Сплошная
 62
     7
370
    25
100
AcDbSpline
210
0.0
220
0.0
230
1.0
 70
     8
 71
     3
 72
     8
 73
     4
 74
     0
 42
0.00000001
 43
0.00000001
 40
0.0
 40
0.0
 40
0.0
 40
0.0
 40
1.0
 40
1.0
 40
1.0
 40
1.0
 10
172.2940431302154
 20
16.43216359299884
 30
0.0
 10
170.8592515314719
 20
16.70215124804836
 30
0.0
 10
169.4245438386377
 20
17.03655608830138
 30
0.0
 10
167.9892386542137
 20
17.43334163774368
 30
0.0
  0
LINE
  5
2EE
330
1F
100
AcDbEntity
  8
0
  6
SLD-Сплошная
 62
     7
370
    25
100
AcDbLine
 10
167.9892386542
 20
17.8575281792
 30
0.0
 11
167.9892386542
 21
17.4333416377
 31
0.0
  0
LINE
  5
2EF
330
1F
100
AcDbEntity
  8
0
  6
SLD-Сплошная
 62
     7
370
    25
100
AcDbLine
 10
172.2940431302
 20
16.8428231962
 30
0.0
 11
172.2940431302
 21
16.432163593
 31
0.0
  0
SPLINE
  5
2F0
330
1F
100
AcDbEntity
  8
0
  6
SLD-Сплошная
 62
     7
370
    25
100
AcDbSpline
210
0.0
220
0.0
230
1.0
 70
     8
 71
     3
 72
     8
 73
     4
 74
     0
 42
0.00000001
 43
0.00000001
 40
0.0
 40
0.0
 40
0.0
 40
0.0
 40
1.0
 40
1.0
 40
1.0
 40
1.0
 10
176.5988476062135
 20
17.43334163774368
 30
0.0
 10
175.1635423314347
 20
17.03655606332277
 30
0.0
 10
173.7288348065483
 20
16.70215126264873
 30
0.0
 10
172.2940431302154
 20
16.43216359299884
 30
0.0
  0
LINE
  5
2F1
330
1F
100
AcDbEntity
  8
0
  6
SLD-Сплошная
 62
     7
370
    25
100
AcDbLine
 10
176.5988476062
 20
17.8575281792
 30
0.0
 11
176.5988476062
 21
17.4333416377
 31
0.0
  0
LINE
  5
2F2
330
1F
100
AcDbEntity
  8
0
  6
SLD-Сплошная
 62
     7
370
    25
100
AcDbLine
 10
167.9892386542
 20
15.8842772385
 30
0.0
 11
167.9892386542
 21
15.6348231443
 31
0.0
  0
LINE
  5
2F3
330
1F
100
AcDbEntity
  8
0
  6
SLD-Сплошная
 62
     7
370
    25
100
AcDbLine
 10
172.1841237603
 20
15.8842772385
 30
0.0
 11
167.9892386542
 21
15.8842772385
 31
0.0
  0
LINE
  5
2F4
330
1F
100
AcDbEntity
  8
0
  6
SLD-Сплошная
 62
     7
370
    25
100
AcDbLine
 10
172.1841237603
 20
15.8966185777
 30
0.0
 11
172.1841237603
 21
15.8842772385
 31
0.0
  0
SPLINE
  5
2F5
330
1F
100
AcDbEntity
  8
0
  6
SLD-Сплошная
 62
     7
370
    25
100
AcDbSpline
210
0.0
220
0.0
230
1.0
 70
     8
 71
     3
 72
     8
 73
     4
 74
     0
 42
0.00000001
 43
0.00000001
 40
0.0
 40
0.0
 40
0.0
 40
0.0
 40
1.0
 40
1.0
 40
1.0
 40
1.0
 10
167.9892386542137
 20
16.55815079331938
 30
0.0
 10
169.3877907186915
 20
16.27617525187618
 30
0.0
 10
170.7858807718855
 20
16.05524039214192
 30
0.0
 10
172.1841237603541
 20
15.89661857766008
 30
0.0
  0
SPLINE
  5
2F6
330
1F
100
AcDbEntity
  8
0
  6
SLD-Сплошная
 62
     7
370
    25
100
AcDbSpline
210
0.0
220
0.0
230
1.0
 70
     8
 71
     3
 72
     8
 73
     4
 74
     0
 42
0.00000001
 43
0.00000001
 40
0.0
 40
0.0
 40
0.0
 40
0.0
 40
1.0
 40
1.0
 40
1.0
 40
1.0
 10
172.4039625000722
 20
15.89661857766033
 30
0.0
 10
173.8022054452335
 20
16.05524038722917
 30
0.0
 10
175.2002955948258
 20
16.27617526258043
 30
0.0
 10
176.5988476062135
 20
16.55815079331943
 30
0.0
  0
LINE
  5
2F7
330
1F
100
AcDbEntity
  8
0
  6
SLD-Сплошная
 62
     7
370
    25
100
AcDbLine
 10
172.4039625001
 20
15.8966185777
 30
0.0
 11
172.4039625001
 21
15.8842772385
 31
0.0
  0
LINE
  5
2F8
330
1F
100
AcDbEntity
  8
0
  6
SLD-Сплошная
 62
     7
370
    25
100
AcDbLine
 10
176.5988476062
 20
15.8842772385
 30
0.0
 11
172.4039625001
 21
15.8842772385
 31
0.0
  0
LINE
  5
2F9
330
1F
100
AcDbEntity
  8
0
  6
SLD-Сплошная
 62
     7
370
    25
100
AcDbLine
 10
176.5988476062
 20
15.8842772385
 30
0.0
 11
176.5988476062
 21
15.6348231443
 31
0.0
  0
LINE
  5
2FA
330
1F
100
AcDbEntity
  8
0
  6
SLD-Сплошная
 62
     7
370
    25
100
AcDbLine
 10
167.9892386542
 20
15.6348231443
 30
0.0
 11
176.5988476062
 21
15.6348231443
 31
0.0
  0
LINE
  5
2FB
330
1F
100
AcDbEntity
  8
0
  6
SLD-Сплошная
 62
     7
370
    25
100
AcDbLine
 10
176.5988476062
 20
17.4333416377
 30
0.0
 11
176.5988476062
 21
16.5581507933
 31
0.0
  0
LINE
  5
2FC
330
1F
100
AcDbEntity
  8
0
  6
SLD-Сплошная
 62
     7
370
    25
100
AcDbLine
 10
167.9892386542
 20
17.4333416377
 30
0.0
 11
167.9892386542
 21
16.5581507933
 31
0.0
  0
LINE
  5
2FD
330
1F
100
AcDbEntity
  8
0
  6
SLD-Сплошная
 62
     7
370
    25
100
AcDbLine
 10
167.9892386542
 20
16.2878955806
 30
0.0
 11
167.9892386542
 21
15.8842772385
 31
0.0
  0
LINE
  5
2FE
330
1F
100
AcDbEntity
  8
0
  6
SLD-Сплошная
 62
     7
370
    25
100
AcDbLine
 10
176.5988476062
 20
16.2878955806
 30
0.0
 11
176.5988476062
 21
15.8842772385
 31
0.0
  0
LINE
  5
2FF
330
1F
100
AcDbEntity
  8
0
  6
SLD-Сплошная
 62
     7
370
    25
100
AcDbLine
 10
170.3373086542
 20
15.6056383623
 30
0.0
 11
167.9892386542
 21
15.6056383623
 31
0.0
  0
LINE
  5
300
330
1F
100
AcDbEntity
  8
0
  6
SLD-Сплошная
 62
     7
370
    25
100
AcDbLine
 10
170.3373086542
 20
15.6056383623
 30
0.0
 11
170.3373086542
 21
15.5951799028
 31
0.0
  0
LINE
  5
301
330
1F
100
AcDbEntity
  8
0
  6
SLD-Сплошная
 62
     7
370
    25
100
AcDbLine
 10
167.9892386542
 20
15.6056383623
 30
0.0
 11
167.9892386542
 21
15.5951799028
 31
0.0
  0
LINE
  5
302
330
1F
100
AcDbEntity
  8
0
  6
SLD-Сплошная
 62
     7
370
    25
100
AcDbLine
 10
170.3373086542
 20
15.6348231443
 30
0.0
 11
170.3373086542
 21
15.6056383623
 31
0.0
  0
LINE
  5
303
330
1F
100
AcDbEntity
  8
0
  6
SLD-Сплошная
 62
     7
370
    25
100
AcDbLine
 10
167.9892386542
 20
15.6348231443
 30
0.0
 11
167.9892386542
 21
15.6056383623
 31
0.0
  0
LINE
  5
304
330
1F
100
AcDbEntity
  8
0
  6
SLD-Сплошная
 62
     7
370
    25
100
AcDbLine
 10
173.4680781302
 20
15.6056383623
 30
0.0
 11
171.1200081302
 21
15.6056383623
 31
0.0
  0
LINE
  5
305
330
1F
100
AcDbEntity
  8
0
  6
SLD-Сплошная
 62
     7
370
    25
100
AcDbLine
 10
173.4680781302
 20
15.6056383623
 30
0.0
 11
173.4680781302
 21
15.5951799028
 31
0.0
  0
LINE
  5
306
330
1F
100
AcDbEntity
  8
0
  6
SLD-Сплошная
 62
     7
370
    25
100
AcDbLine
 10
174.2507776062
 20
15.6056383623
 30
0.0
 11
174.2507776062
 21
15.5951799028
 31
0.0
  0
LINE
  5
307
330
1F
100
AcDbEntity
  8
0
  6
SLD-Сплошная
 62
     7
370
    25
100
AcDbLine
 10
176.5988476062
 20
15.6056383623
 30
0.0
 11
174.2507776062
 21
15.6056383623
 31
0.0
  0
LINE
  5
308
330
1F
100
AcDbEntity
  8
0
  6
SLD-Сплошная
 62
     7
370
    25
100
AcDbLine
 10
171.1200081302
 20
15.6056383623
 30
0.0
 11
171.1200081302
 21
15.5951799028
 31
0.0
  0
LINE
  5
309
330
1F
100
AcDbEntity
  8
0
  6
SLD-Сплошная
 62
     7
370
    25
100
AcDbLine
 10
176.5988476062
 20
15.6056383623
 30
0.0
 11
176.5988476062
 21
15.5951799028
 31
0.0
  0
LINE
  5
30A
330
1F
100
AcDbEntity
  8
0
  6
SLD-Сплошная
 62
     7
370
    25
100
AcDbLine
 10
173.4680781302
 20
15.6348231443
 30
0.0
 11
173.4680781302
 21
15.6056383623
 31
0.0
  0
LINE
  5
30B
330
1F
100
AcDbEntity
  8
0
  6
SLD-Сплошная
 62
     7
370
    25
100
AcDbLine
 10
171.1200081302
 20
15.6348231443
 30
0.0
 11
171.1200081302
 21
15.6056383623
 31
0.0
  0
LINE
  5
30C
330
1F
100
AcDbEntity
  8
0
  6
SLD-Сплошная
 62
     7
370
    25
100
AcDbLine
 10
174.2507776062
 20
15.6348231443
 30
0.0
 11
174.2507776062
 21
15.6056383623
 31
0.0
  0
LINE
  5
30D
330
1F
100
AcDbEntity
  8
0
  6
SLD-Сплошная
 62
     7
370
    25
100
AcDbLine
 10
176.5988476062
 20
15.6348231443
 30
0.0
 11
176.5988476062
 21
15.6056383623
 31
0.0
  0
LINE
  5
30E
330
1F
100
AcDbEntity
  8
0
  6
SLD-Сплошная
 62
     7
370
    25
100
AcDbLine
 10
167.4842004199
 20
53.2451799028
 30
0.0
 11
167.4842004199
 21
43.2540684532
 31
0.0
  0
LINE
  5
30F
330
1F
100
AcDbEntity
  8
0
  6
SLD-Сплошная
 62
     7
370
    25
100
AcDbLine
 10
167.4842004199
 20
53.2451799028
 30
0.0
 11
169.7972789866
 21
53.2451799028
 31
0.0
  0
LINE
  5
310
330
1F
100
AcDbEntity
  8
0
  6
SLD-Сплошная
 62
     7
370
    25
100
AcDbLine
 10
169.7972789866
 20
43.2540684532
 30
0.0
 11
169.7972789866
 21
53.2451799028
 31
0.0
  0
LINE
  5
311
330
1F
100
AcDbEntity
  8
0
  6
SLD-Сплошная
 62
     7
370
    25
100
AcDbLine
 10
169.7972789866
 20
43.2540684532
 30
0.0
 11
167.4842004199
 21
43.2540684532
 31
0.0
  0
LINE
  5
312
330
1F
100
AcDbEntity
  8
0
  6
SLD-Сплошная
 62
     7
370
    25
100
AcDbLine
 10
167.4842004199
 20
43.2540684532
 30
0.0
 11
162.4390166468
 21
43.2540684532
 31
0.0
  0
LINE
  5
313
330
1F
100
AcDbEntity
  8
0
  6
SLD-Сплошная
 62
     7
370
    25
100
AcDbLine
 10
162.4390166468
 20
43.2540684532
 30
0.0
 11
162.4390166468
 21
53.2451799028
 31
0.0
  0
LINE
  5
314
330
1F
100
AcDbEntity
  8
0
  6
SLD-Сплошная
 62
     7
370
    25
100
AcDbLine
 10
167.4842004199
 20
53.2451799028
 30
0.0
 11
162.4390166468
 21
53.2451799028
 31
0.0
  0
LINE
  5
315
330
1F
100
AcDbEntity
  8
0
  6
SLD-Сплошная
 62
     7
370
    25
100
AcDbLine
 10
159.7299769585
 20
43.2451799028
 30
0.0
 11
159.7299769585
 21
43.2540684532
 31
0.0
  0
LINE
  5
316
330
1F
100
AcDbEntity
  8
0
  6
SLD-Сплошная
 62
     7
370
    25
100
AcDbLine
 10
145.1905681032
 20
53.2451799028
 30
0.0
 11
145.1905681032
 21
43.2451799028
 31
0.0
  0
LINE
  5
317
330
1F
100
AcDbEntity
  8
0
  6
SLD-Сплошная
 62
     7
370
    25
100
AcDbLine
 10
159.7299769585
 20
43.2540684532
 30
0.0
 11
162.4390166468
 21
43.2540684532
 31
0.0
  0
LINE
  5
318
330
1F
100
AcDbEntity
  8
0
  6
SLD-Сплошная
 62
     7
370
    25
100
AcDbLine
 10
162.4390166468
 20
53.2451799028
 30
0.0
 11
159.7299769585
 21
53.2451799028
 31
0.0
  0
ELLIPSE
  5
319
330
1F
100
AcDbEntity
  8
0
  6
SLD-Сплошная
 62
     7
370
    25
100
AcDbEllipse
 10
159.4681536293
 20
40.7451799028
 30
0.0
 11
5.675172617670171
 21
0.0
 31
0.0
210
0.0
220
0.0
230
1.0
 40
0.4405152351
 41
1.570796326809165
 42
4.712388980384696
  0
LINE
  5
31A
330
1F
100
AcDbEntity
  8
0
  6
SLD-Сплошная
 62
     7
370
    25
100
AcDbLine
 10
159.4681536293
 20
43.2451799028
 30
0.0
 11
159.7299769585
 21
43.2451799028
 31
0.0
  0
LINE
  5
31B
330
1F
100
AcDbEntity
  8
0
  6
SLD-Сплошная
 62
     7
370
    25
100
AcDbLine
 10
168.0972789866
 20
38.2451799028
 30
0.0
 11
168.0972789866
 21
43.2540684532
 31
0.0
  0
LINE
  5
31C
330
1F
100
AcDbEntity
  8
0
  6
SLD-Сплошная
 62
     7
370
    25
100
AcDbLine
 10
159.4681536293
 20
38.2451799028
 30
0.0
 11
168.0972789866
 21
38.2451799028
 31
0.0
  0
LINE
  5
31D
330
1F
100
AcDbEntity
  8
0
  6
SLD-Сплошная
 62
     7
370
    25
100
AcDbLine
 10
168.0972789866
 20
53.2451799028
 30
0.0
 11
168.0972789866
 21
58.2451799028
 31
0.0
  0
LINE
  5
31E
330
1F
100
AcDbEntity
  8
0
  6
SLD-Сплошная
 62
     7
370
    25
100
AcDbLine
 10
170.2940431302
 20
58.2451799028
 30
0.0
 11
168.0972789866
 21
58.2451799028
 31
0.0
  0
LINE
  5
31F
330
1F
100
AcDbEntity
  8
0
  6
SLD-Сплошная
 62
     7
370
    25
100
AcDbLine
 10
168.0972789866
 20
38.2451799028
 30
0.0
 11
170.2940431302
 21
38.2451799028
 31
0.0
  0
LINE
  5
320
330
1F
100
AcDbEntity
  8
0
  6
SLD-Сплошная
 62
     7
370
    25
100
AcDbLine
 10
143.9695661203
 20
53.2451799028
 30
0.0
 11
159.4681536293
 21
53.2451799028
 31
0.0
  0
LINE
  5
321
330
1F
100
AcDbEntity
  8
0
  6
SLD-Сплошная
 62
     7
370
    25
100
AcDbLine
 10
143.9695661203
 20
58.2451799028
 30
0.0
 11
159.4681536293
 21
58.2451799028
 31
0.0
  0
ELLIPSE
  5
322
330
1F
100
AcDbEntity
  8
0
  6
SLD-Сплошная
 62
     7
370
    25
100
AcDbEllipse
 10
159.4681536293
 20
55.7451799028
 30
0.0
 11
5.675172617670171
 21
0.0
 31
0.0
210
0.0
220
0.0
230
1.0
 40
0.4405152351
 41
1.570796326794897
 42
4.712388980370427
  0
LINE
  5
323
330
1F
100
AcDbEntity
  8
0
  6
SLD-Сплошная
 62
     7
370
    25
100
AcDbLine
 10
159.4681536293
 20
53.2451799028
 30
0.0
 11
159.7299769585
 21
53.2451799028
 31
0.0
  0
LINE
  5
324
330
1F
100
AcDbEntity
  8
0
  6
SLD-Сплошная
 62
     7
370
    25
100
AcDbLine
 10
168.0972789866
 20
58.2451799028
 30
0.0
 11
159.4681536293
 21
58.2451799028
 31
0.0
  0
LINE
  5
325
330
1F
100
AcDbEntity
  8
0
  6
SLD-Сплошная
 62
     7
370
    25
100
AcDbLine
 10
143.9695661203
 20
38.2451799028
 30
0.0
 11
159.4681536293
 21
38.2451799028
 31
0.0
  0
LINE
  5
326
330
1F
100
AcDbEntity
  8
0
  6
SLD-Сплошная
 62
     7
370
    25
100
AcDbLine
 10
143.9695661203
 20
43.2451799028
 30
0.0
 11
159.4681536293
 21
43.2451799028
 31
0.0
  0
ARC
  5
327
330
1F
100
AcDbEntity
  8
0
  6
SLD-Сплошная
 62
     7
370
    25
100
AcDbCircle
 10
143.625294351
 20
55.7451799028
 30
0.0
 40
2.5
100
AcDbArc
 50
90.0
 51
270.0
  0
LINE
  5
328
330
1F
100
AcDbEntity
  8
0
  6
SLD-Сплошная
 62
     7
370
    25
100
AcDbLine
 10
143.625294351
 20
53.2451799028
 30
0.0
 11
143.9695661203
 21
53.2451799028
 31
0.0
  0
LINE
  5
329
330
1F
100
AcDbEntity
  8
0
  6
SLD-Сплошная
 62
     7
370
    25
100
AcDbLine
 10
143.625294351
 20
58.2451799028
 30
0.0
 11
143.9695661203
 21
58.2451799028
 31
0.0
  0
ARC
  5
32A
330
1F
100
AcDbEntity
  8
0
  6
SLD-Сплошная
 62
     7
370
    25
100
AcDbCircle
 10
143.625294351
 20
40.7451799028
 30
0.0
 40
2.5
100
AcDbArc
 50
90.0
 51
270.0
  0
LINE
  5
32B
330
1F
100
AcDbEntity
  8
0
  6
SLD-Сплошная
 62
     7
370
    25
100
AcDbLine
 10
143.625294351
 20
38.2451799028
 30
0.0
 11
143.9695661203
 21
38.2451799028
 31
0.0
  0
LINE
  5
32C
330
1F
100
AcDbEntity
  8
0
  6
SLD-Сплошная
 62
     7
370
    25
100
AcDbLine
 10
143.625294351
 20
43.2451799028
 30
0.0
 11
143.9695661203
 21
43.2451799028
 31
0.0
  0
LINE
  5
32D
330
1F
100
AcDbEntity
  8
0
  6
SLD-Сплошная
 62
     7
370
    25
100
AcDbLine
 10
145.1905681032
 20
58.2451799028
 30
0.0
 11
145.1905681032
 21
80.8951799028
 31
0.0
  0
LINE
  5
32E
330
1F
100
AcDbEntity
  8
0
  6
SLD-Сплошная
 62
     7
370
    25
100
AcDbLine
 10
145.1905681032
 20
15.5951799028
 30
0.0
 11
145.1905681032
 21
38.2451799028
 31
0.0
  0
LINE
  5
32F
330
1F
100
AcDbEntity
  8
0
  6
SLD-Сплошная
 62
     7
370
    25
100
AcDbLine
 10
535.7485042857
 20
188.667825644
 30
0.0
 11
527.1408782131
 21
188.667825644
 31
0.0
  0
LINE
  5
330
330
1F
100
AcDbEntity
  8
0
  6
SLD-Сплошная
 62
     7
370
    25
100
AcDbLine
 10
569.6408782131
 20
188.667825644
 30
0.0
 11
562.1408782131
 21
188.667825644
 31
0.0
  0
SPLINE
  5
331
330
1F
100
AcDbEntity
  8
0
  6
SLD-Сплошная
 62
     7
370
    25
100
AcDbSpline
210
0.0
220
0.0
230
1.0
 70
     8
 71
     3
 72
     9
 73
     5
 74
     0
 42
0.00000001
 43
0.00000001
 40
0.0
 40
0.0
 40
0.0
 40
0.0
 40
0.3784584576225561
 40
1.0
 40
1.0
 40
1.0
 40
1.0
 10
465.2168039235744
 20
150.7967082773721
 30
0.0
 10
465.0887691878393
 20
150.3151499858987
 30
0.0
 10
464.7504632703565
 20
149.0427295081045
 30
0.0
 10
464.6980385503531
 20
147.7759566959777
 30
0.0
 10
464.6654544090234
 20
146.9886047684866
 30
0.0
  0
LINE
  5
332
330
1F
100
AcDbEntity
  8
0
  6
SLD-Сплошная
 62
     7
370
    25
100
AcDbLine
 10
515.0131595363
 20
126.367825644
 30
0.0
 11
527.1408782131
 21
126.367825644
 31
0.0
  0
LINE
  5
333
330
1F
100
AcDbEntity
  8
0
  6
SLD-Сплошная
 62
     7
370
    25
100
AcDbLine
 10
527.1408782131
 20
185.667825644
 30
0.0
 11
507.1408782131
 21
185.667825644
 31
0.0
  0
ARC
  5
334
330
1F
100
AcDbEntity
  8
0
  6
SLD-Сплошная
 62
     7
370
    25
100
AcDbCircle
 10
524.394985452
 20
375.7717064947
 30
0.0
 40
250.0
100
AcDbArc
 50
262.7418184896
 51
266.0425038845
  0
ARC
  5
335
330
1F
100
AcDbEntity
  8
0
  6
SLD-Сплошная
 62
     7
370
    25
100
AcDbCircle
 10
524.394985452
 20
375.7717064947
 30
0.0
 40
250.0
100
AcDbArc
 50
257.3146554297
 51
261.4253881175
  0
ARC
  5
336
330
1F
100
AcDbEntity
  8
0
  6
SLD-Сплошная
 62
     7
370
    25
100
AcDbCircle
 10
524.394985452
 20
-63.7360552067
 30
0.0
 40
250.0
100
AcDbArc
 50
93.9574961155
 51
103.8284964846
  0
LINE
  5
337
330
1F
100
AcDbEntity
  8
0
  6
SLD-Сплошная
 62
     7
370
    25
100
AcDbLine
 10
455.091433563
 20
130.6168865355
 30
0.0
 11
457.091433563
 21
130.6168865355
 31
0.0
  0
LINE
  5
338
330
1F
100
AcDbEntity
  8
0
  6
SLD-Сплошная
 62
     7
370
    25
100
AcDbLine
 10
457.091433563
 20
181.4179909478
 30
0.0
 11
455.091433563
 21
181.4179909478
 31
0.0
  0
ARC
  5
339
330
1F
100
AcDbEntity
  8
0
  6
SLD-Сплошная
 62
     7
370
    25
100
AcDbCircle
 10
467.2030862711
 20
133.017825644
 30
0.0
 40
2.562208057998362
100
AcDbArc
 50
180.0
 51
333.4861589451
  0
LINE
  5
33A
330
1F
100
AcDbEntity
  8
0
  6
SLD-Сплошная
 62
     7
370
    25
100
AcDbLine
 10
507.1408782131
 20
126.367825644
 30
0.0
 11
509.2685968898
 21
126.367825644
 31
0.0
  0
LINE
  5
33B
330
1F
100
AcDbEntity
  8
0
  6
SLD-Сплошная
 62
     7
370
    25
100
AcDbLine
 10
464.6408782131
 20
167.017825644
 30
0.0
 11
457.091433563
 21
167.017825644
 31
0.0
  0
LINE
  5
33C
330
1F
100
AcDbEntity
  8
0
  6
SLD-Сплошная
 62
     7
370
    25
100
AcDbLine
 10
457.091433563
 20
145.017825644
 30
0.0
 11
464.6408782131
 21
145.017825644
 31
0.0
  0
LINE
  5
33D
330
1F
100
AcDbEntity
  8
0
  6
SLD-Сплошная
 62
     7
370
    25
100
AcDbLine
 10
527.1408782131
 20
119.517825644
 30
0.0
 11
569.6408782131
 21
119.517825644
 31
0.0
  0
LINE
  5
33E
330
1F
100
AcDbEntity
  8
0
  6
SLD-Сплошная
 62
     7
370
    25
100
AcDbLine
 10
424.5933156671
 20
169.3859984107
 30
0.0
 11
424.5230936154
 21
167.5773199158
 31
0.0
  0
LINE
  5
33F
330
1F
100
AcDbEntity
  8
0
  6
SLD-Сплошная
 62
     7
370
    25
100
AcDbLine
 10
424.5230936154
 20
144.4575575675
 30
0.0
 11
424.5933156671
 21
142.6488790726
 31
0.0
  0
ARC
  5
340
330
1F
100
AcDbEntity
  8
0
  6
SLD-Сплошная
 62
     7
370
    25
100
AcDbCircle
 10
434.0818146198
 20
156.0174387417
 30
0.0
 40
17.49999999999998
100
AcDbArc
 50
90.0
 51
117.7766046258
  0
ARC
  5
341
330
1F
100
AcDbEntity
  8
0
  6
SLD-Сплошная
 62
     7
370
    25
100
AcDbCircle
 10
427.091433563
 20
169.2890088327
 30
0.0
 40
2.500000000000021
100
AcDbArc
 50
117.7766046258
 51
177.7766046258
  0
LINE
  5
342
330
1F
100
AcDbEntity
  8
0
  6
SLD-Сплошная
 62
     7
370
    25
100
AcDbLine
 10
446.091433563
 20
173.5174387417
 30
0.0
 11
434.0818146198
 21
173.5174387417
 31
0.0
  0
ARC
  5
343
330
1F
100
AcDbEntity
  8
0
  6
SLD-Сплошная
 62
     7
370
    25
100
AcDbCircle
 10
427.091433563
 20
142.7458686506
 30
0.0
 40
2.500000000000023
100
AcDbArc
 50
182.2233953742
 51
242.2233953742
  0
ARC
  5
344
330
1F
100
AcDbEntity
  8
0
  6
SLD-Сплошная
 62
     7
370
    25
100
AcDbCircle
 10
434.0818146198
 20
156.0174387417
 30
0.0
 40
17.5
100
AcDbArc
 50
242.2233953742
 51
270.0
  0
LINE
  5
345
330
1F
100
AcDbEntity
  8
0
  6
SLD-Сплошная
 62
     7
370
    25
100
AcDbLine
 10
434.0818146198
 20
138.5174387417
 30
0.0
 11
446.091433563
 21
138.5174387417
 31
0.0
  0
LINE
  5
346
330
1F
100
AcDbEntity
  8
0
  6
SLD-Сплошная
 62
     7
370
    25
100
AcDbLine
 10
574.7156682731
 20
117.8455842483
 30
0.0
 11
575.3428943281
 21
120.317825644
 31
0.0
  0
ARC
  5
347
330
1F
100
AcDbEntity
  8
0
  6
SLD-Сплошная
 62
     7
370
    25
100
AcDbCircle
 10
429.6408782131
 20
155.967825644
 30
0.0
 40
150.0000000000001
100
AcDbArc
 50
351.3617430611
 51
8.6354200949
  0
LINE
  5
348
330
1F
100
AcDbEntity
  8
0
  6
SLD-Сплошная
 62
     7
370
    25
100
AcDbLine
 10
578.3666433108
 20
195.7415283873
 30
0.0
 11
567.4419403316
 21
201.1021791034
 31
0.0
  0
LINE
  5
349
330
1F
100
AcDbEntity
  8
0
  6
SLD-Сплошная
 62
     7
370
    25
100
AcDbLine
 10
575.1576324236
 20
120.317825644
 30
0.0
 11
577.5575217187
 21
120.317825644
 31
0.0
  0
LINE
  5
34A
330
1F
100
AcDbEntity
  8
0
  6
SLD-Сплошная
 62
     7
370
    25
100
AcDbLine
 10
580.1096269923
 20
180.967825644
 30
0.0
 11
580.1096269923
 21
192.9447496028
 31
0.0
  0
ARC
  5
34B
330
1F
100
AcDbEntity
  8
0
  6
SLD-Сплошная
 62
     7
370
    25
100
AcDbCircle
 10
577.5575217187
 20
122.817825644
 30
0.0
 40
2.500000000000014
100
AcDbArc
 50
270.0
 51
0.0
  0
ARC
  5
34C
330
1F
100
AcDbEntity
  8
0
  6
SLD-Сплошная
 62
     7
370
    25
100
AcDbCircle
 10
576.9942898269
 20
192.9447496028
 30
0.0
 40
3.115337165382698
100
AcDbArc
 50
0.0
 51
63.8632402176
  0
ARC
  5
34D
330
1F
100
AcDbEntity
  8
0
  6
SLD-Сплошная
 62
     7
370
    25
100
AcDbCircle
 10
577.5575217187
 20
130.967825644
 30
0.0
 40
2.5
100
AcDbArc
 50
0.0
 51
85.5188498441
  0
LINE
  5
34E
330
1F
100
AcDbEntity
  8
0
  6
SLD-Сплошная
 62
     7
370
    25
100
AcDbLine
 10
580.0575217187
 20
122.817825644
 30
0.0
 11
580.0575217187
 21
130.967825644
 31
0.0
  0
ARC
  5
34F
330
1F
100
AcDbEntity
  8
0
  6
SLD-Сплошная
 62
     7
370
    25
100
AcDbCircle
 10
577.6096269923
 20
180.967825644
 30
0.0
 40
2.500000000000211
100
AcDbArc
 50
273.2964451103
 51
0.0
  0
LINE
  5
350
330
1F
100
AcDbEntity
  8
0
  6
SLD-Сплошная
 62
     7
370
    25
100
AcDbLine
 10
572.6408782131
 20
117.817825644
 30
0.0
 11
574.7128228488
 21
117.817825644
 31
0.0
  0
LINE
  5
351
330
1F
100
AcDbEntity
  8
0
  6
SLD-Сплошная
 62
     7
370
    25
100
AcDbLine
 10
569.6408782131
 20
119.7867177615
 30
0.0
 11
572.6408782131
 21
119.7867177615
 31
0.0
  0
SPLINE
  5
352
330
1F
100
AcDbEntity
  8
0
  6
SLD-Сплошная
 62
     7
370
    25
100
AcDbSpline
210
0.0
220
0.0
230
1.0
 70
     8
 71
     3
 72
     8
 73
     4
 74
     0
 42
0.00000001
 43
0.00000001
 40
0.0
 40
0.0
 40
0.0
 40
0.0
 40
1.0
 40
1.0
 40
1.0
 40
1.0
 10
516.0605037014967
 20
158.8141886529628
 30
0.0
 10
519.7548787407511
 20
159.8150068189892
 30
0.0
 10
523.4487958404874
 20
160.8123854983817
 30
0.0
 10
527.1408782130596
 20
161.8065682866655
 30
0.0
  0
SPLINE
  5
353
330
1F
100
AcDbEntity
  8
0
  6
SLD-Сплошная
 62
     7
370
    25
100
AcDbSpline
210
0.0
220
0.0
230
1.0
 70
     8
 71
     3
 72
     8
 73
     4
 74
     0
 42
0.00000001
 43
0.00000001
 40
0.0
 40
0.0
 40
0.0
 40
0.0
 40
1.0
 40
1.0
 40
1.0
 40
1.0
 10
527.1408782130596
 20
156.599340769993
 30
0.0
 10
523.8855014060944
 20
155.7027243628751
 30
0.0
 10
520.6280973841317
 20
154.8130042751443
 30
0.0
 10
517.3707545650366
 20
153.9256079790347
 30
0.0
  0
SPLINE
  5
354
330
1F
100
AcDbEntity
  8
0
  6
SLD-Сплошная
 62
     7
370
    25
100
AcDbSpline
210
0.0
220
0.0
230
1.0
 70
     8
 71
     3
 72
    14
 73
    10
 74
     0
 42
0.00000001
 43
0.00000001
 40
0.0
 40
0.0
 40
0.0
 40
0.0
 40
0.25
 40
0.25
 40
0.5
 40
0.5
 40
0.75
 40
0.75
 40
1.0
 40
1.0
 40
1.0
 40
1.0
 10
517.3707545650366
 20
153.9256079790347
 30
0.0
 10
516.6447699840506
 20
153.7278283580434
 30
0.0
 10
515.9112670200732
 20
153.5655908584264
 30
0.0
 10
514.4268976878416
 20
153.322847179245
 30
0.0
 10
513.6786734155185
 20
153.2426398306837
 30
0.0
 10
512.1777973543142
 20
153.1544900889643
 30
0.0
 10
511.4248514774233
 20
153.1459024325256
 30
0.0
 10
509.9267231284081
 20
153.2081463042051
 30
0.0
 10
509.1799718102185
 20
153.281037668512
 30
0.0
 10
508.4349436318932
 20
153.3851164261682
 30
0.0
  0
SPLINE
  5
355
330
1F
100
AcDbEntity
  8
0
  6
SLD-Сплошная
 62
     7
370
    25
100
AcDbSpline
210
0.0
220
0.0
230
1.0
 70
     8
 71
     3
 72
    14
 73
    10
 74
     0
 42
0.00000001
 43
0.00000001
 40
0.0
 40
0.0
 40
0.0
 40
0.0
 40
0.25
 40
0.25
 40
0.5
 40
0.5
 40
0.75
 40
0.75
 40
1.0
 40
1.0
 40
1.0
 40
1.0
 10
509.1245740781507
 20
158.3974270510966
 30
0.0
 10
509.7027213033729
 20
158.3168860803248
 30
0.0
 10
510.282375517554
 20
158.2582141978765
 30
0.0
 10
511.4466097535384
 20
158.2124635378009
 30
0.0
 10
512.0315792831336
 20
158.220543106257
 30
0.0
 10
513.1957908488611
 20
158.2863728005832
 30
0.0
 10
513.7776294584402
 20
158.3456249530321
 30
0.0
 10
514.9285971822501
 20
158.5334643700515
 30
0.0
 10
515.4970766011454
 20
158.661554426261
 30
0.0
 10
516.0605037014967
 20
158.8141886529628
 30
0.0
  0
SPLINE
  5
356
330
1F
100
AcDbEntity
  8
0
  6
SLD-Сплошная
 62
     7
370
    25
100
AcDbSpline
210
0.0
220
0.0
230
1.0
 70
     8
 71
     3
 72
    10
 73
     6
 74
     0
 42
0.00000001
 43
0.00000001
 40
0.0
 40
0.0
 40
0.0
 40
0.0
 40
0.5
 40
0.5
 40
1.0
 40
1.0
 40
1.0
 40
1.0
 10
482.4271593805909
 20
162.1007624684295
 30
0.0
 10
486.5056875441826
 20
161.5364216361912
 30
0.0
 10
490.6098709237047
 20
160.967418472505
 30
0.0
 10
498.8528924889746
 20
159.8230225600512
 30
0.0
 10
502.9914320209899
 20
159.2475807922262
 30
0.0
 10
507.1408782130596
 20
158.6701930139114
 30
0.0
  0
SPLINE
  5
357
330
1F
100
AcDbEntity
  8
0
  6
SLD-Сплошная
 62
     7
370
    25
100
AcDbSpline
210
0.0
220
0.0
230
1.0
 70
     8
 71
     3
 72
     8
 73
     4
 74
     0
 42
0.00000001
 43
0.00000001
 40
0.0
 40
0.0
 40
0.0
 40
0.0
 40
0.0003075835388222
 40
0.0003075835388222
 40
0.0003075835388222
 40
0.0003075835388222
 10
507.1408782130596
 20
158.6701930139114
 30
0.0
 10
507.2425771234429
 20
158.6572339953441
 30
0.0
 10
507.3442717550555
 20
158.6442408582393
 30
0.0
 10
507.4459622799954
 20
158.6312151933031
 30
0.0
  0
SPLINE
  5
358
330
1F
100
AcDbEntity
  8
0
  6
SLD-Сплошная
 62
     7
370
    25
100
AcDbSpline
210
0.0
220
0.0
230
1.0
 70
     8
 71
     3
 72
     8
 73
     4
 74
     0
 42
0.00000001
 43
0.00000001
 40
0.0
 40
0.0
 40
0.0
 40
0.0
 40
1.0
 40
1.0
 40
1.0
 40
1.0
 10
506.7561522853796
 20
153.6153242892071
 30
0.0
 10
498.3335056547479
 20
154.7893271893028
 30
0.0
 10
489.9436371243167
 20
155.9641467885352
 30
0.0
 10
481.6393465599773
 20
157.1404144179094
 30
0.0
  0
SPLINE
  5
359
330
1F
100
AcDbEntity
  8
0
  6
SLD-Сплошная
 62
     7
370
    25
100
AcDbSpline
210
0.0
220
0.0
230
1.0
 70
     8
 71
     3
 72
    14
 73
    10
 74
     0
 42
0.00000001
 43
0.00000001
 40
0.0
 40
0.0
 40
0.0
 40
0.0
 40
0.0005117791612315
 40
0.0005117791612315
 40
0.0005117791612315
 40
0.0010235583224628
 40
0.0010235583224628
 40
0.0010235583224628
 40
0.0016949292021516
 40
0.0016949292021516
 40
0.0016949292021516
 40
0.0016949292021516
 10
509.1245740781507
 20
158.3974270510966
 30
0.0
 10
508.9556230827747
 20
158.4209634040994
 30
0.0
 10
508.7866721894194
 20
158.4444982377448
 30
0.0
 10
508.6177213691394
 20
158.468031244443
 30
0.0
 10
508.4487705488595
 20
158.4915642511412
 30
0.0
 10
508.2798197967377
 20
158.5150954294506
 30
0.0
 10
508.1108691184506
 20
158.5386247187504
 30
0.0
 10
507.8892333564289
 20
158.5694913125793
 30
0.0
 10
507.6675977096438
 20
158.6003546381864
 30
0.0
 10
507.4459622799954
 20
158.6312151933031
 30
0.0
  0
SPLINE
  5
35A
330
1F
100
AcDbEntity
  8
0
  6
SLD-Сплошная
 62
     7
370
    25
100
AcDbSpline
210
0.0
220
0.0
230
1.0
 70
     8
 71
     3
 72
    11
 73
     7
 74
     0
 42
0.00000001
 43
0.00000001
 40
0.0
 40
0.0
 40
0.0
 40
0.0
 40
0.0005117791613317
 40
0.0005117791613317
 40
0.0005117791613317
 40
0.0013067322566839
 40
0.0013067322566839
 40
0.0013067322566839
 40
0.0013067322566839
 10
507.1408782130596
 20
153.5659521684669
 30
0.0
 10
507.3098173781294
 20
153.5423363162033
 30
0.0
 10
507.4787566420717
 20
153.5187234986687
 30
0.0
 10
507.6476960117358
 20
153.4951138659507
 30
0.0
 10
507.9101116830997
 20
153.4584407231973
 30
0.0
 10
508.1725276362114
 20
153.4217753494336
 30
0.0
 10
508.4349436318932
 20
153.3851164261683
 30
0.0
  0
SPLINE
  5
35B
330
1F
100
AcDbEntity
  8
0
  6
SLD-Сплошная
 62
     7
370
    25
100
AcDbSpline
210
0.0
220
0.0
230
1.0
 70
     8
 71
     3
 72
     8
 73
     4
 74
     0
 42
0.00000001
 43
0.00000001
 40
0.0
 40
0.0
 40
0.0
 40
0.0
 40
0.0003885591855999
 40
0.0003885591855999
 40
0.0003885591855999
 40
0.0003885591855999
 10
506.7561522853796
 20
153.6153242892071
 30
0.0
 10
506.8843853704693
 20
153.5988492893347
 30
0.0
 10
507.0126275353475
 20
153.5823926499551
 30
0.0
 10
507.1408782130596
 20
153.5659521684669
 30
0.0
  0
LINE
  5
35C
330
1F
100
AcDbEntity
  8
0
  6
SLD-Сплошная
 62
     7
370
    25
100
AcDbLine
 10
569.6408782131
 20
155.992825644
 30
0.0
 11
569.6408782131
 21
187.0987281406
 31
0.0
  0
LINE
  5
35D
330
1F
100
AcDbEntity
  8
0
  6
SLD-Сплошная
 62
     7
370
    25
100
AcDbLine
 10
569.6408782131
 20
124.0301561525
 30
0.0
 11
527.1408782131
 21
124.0301561525
 31
0.0
  0
LINE
  5
35E
330
1F
100
AcDbEntity
  8
0
  6
SLD-Сплошная
 62
     7
370
    25
100
AcDbLine
 10
562.1408782131
 20
185.3696995195
 30
0.0
 11
530.5714832765
 21
185.3696995195
 31
0.0
  0
LINE
  5
35F
330
1F
100
AcDbEntity
  8
0
  6
SLD-Сплошная
 62
     7
370
    25
100
AcDbLine
 10
527.1408782131
 20
124.0301561525
 30
0.0
 11
527.1408782131
 21
188.667825644
 31
0.0
  0
SPLINE
  5
360
330
1F
100
AcDbEntity
  8
0
  6
SLD-Сплошная
 62
     7
370
    25
100
AcDbSpline
210
0.0
220
0.0
230
1.0
 70
     8
 71
     3
 72
    28
 73
    24
 74
     0
 42
0.00000001
 43
0.00000001
 40
0.0
 40
0.0
 40
0.0
 40
0.0
 40
0.1250000000000004
 40
0.1250000000000004
 40
0.1875000000000007
 40
0.1875000000000007
 40
0.2500000000000008
 40
0.2500000000000008
 40
0.3750000000000008
 40
0.3750000000000008
 40
0.4375000000000008
 40
0.4375000000000008
 40
0.5000000000000008
 40
0.5000000000000008
 40
0.6250000000000006
 40
0.6250000000000006
 40
0.7500000000000002
 40
0.7500000000000002
 40
0.875
 40
0.875
 40
0.9375
 40
0.9375
 40
1.0
 40
1.0
 40
1.0
 40
1.0
 10
510.2759732432908
 20
145.7454165259387
 30
0.0
 10
510.6193750803648
 20
144.3451314408119
 30
0.0
 10
510.9499878777302
 20
142.9932885941091
 30
0.0
 10
511.4295230813014
 20
141.0381416584096
 30
0.0
 10
511.5864898561011
 20
140.3985510199854
 30
0.0
 10
511.8942261797604
 20
139.1440933416119
 30
0.0
 10
512.0438247346061
 20
138.5340914745895
 30
0.0
 10
512.4768453157606
 20
136.7625415967239
 30
0.0
 10
512.7457867103122
 20
135.6556537859715
 30
0.0
 10
513.1240261085267
 20
134.1073625085654
 30
0.0
 10
513.2457932835734
 20
133.6099987082182
 30
0.0
 10
513.4800654177712
 20
132.6536996417491
 30
0.0
 10
513.5929796286517
 20
132.1930898841043
 30
0.0
 10
513.9106301303997
 20
130.8912994469247
 30
0.0
 10
514.0958286021523
 20
130.1246120602659
 30
0.0
 10
514.4210337232375
 20
128.7905340348767
 30
0.0
 10
514.5612111688234
 20
128.2230743846797
 30
0.0
 10
514.7872411827441
 20
127.297837178015
 30
0.0
 10
514.8696868200155
 20
126.9511743912804
 30
0.0
 10
514.9533113462116
 20
126.6026172993076
 30
0.0
 10
514.974535129772
 20
126.5149996614406
 30
0.0
 10
515.0038856794779
 20
126.3975990835754
 30
0.0
 10
515.0120242732947
 20
126.3678256440305
 30
0.0
 10
515.0131595363285
 20
126.3678256440305
 30
0.0
  0
ARC
  5
361
330
1F
100
AcDbEntity
  8
0
  6
SLD-Сплошная
 62
     7
370
    25
100
AcDbCircle
 10
512.1408782131
 20
128.367825644
 30
0.0
 40
3.500000000000006
100
AcDbArc
 50
214.849904579
 51
325.150095421
  0
SPLINE
  5
362
330
1F
100
AcDbEntity
  8
0
  6
SLD-Сплошная
 62
     7
370
    25
100
AcDbSpline
210
0.0
220
0.0
230
1.0
 70
     8
 71
     3
 72
    18
 73
    14
 74
     0
 42
0.00000001
 43
0.00000001
 40
0.0
 40
0.0
 40
0.0
 40
0.0
 40
0.25
 40
0.25
 40
0.375
 40
0.375
 40
0.5
 40
0.5
 40
0.625
 40
0.625
 40
0.75
 40
0.75
 40
1.0
 40
1.0
 40
1.0
 40
1.0
 10
509.2685968897906
 20
126.3678256440305
 30
0.0
 10
509.2672644025703
 20
126.3678256440344
 30
0.0
 10
509.2214827903435
 20
126.5526952150489
 30
0.0
 10
509.0805280707549
 20
127.1025329014922
 30
0.0
 10
509.0212445347956
 20
127.3327331852974
 30
0.0
 10
508.8821299361485
 20
127.8759241427789
 30
0.0
 10
508.8021749777125
 20
128.1894393271119
 30
0.0
 10
508.6209562837007
 20
128.8981880111225
 30
0.0
 10
508.5196962146161
 20
129.2934243614738
 30
0.0
 10
508.2959073709474
 20
130.1657990245596
 30
0.0
 10
508.1730611858358
 20
130.6441526003401
 30
0.0
 10
507.7755706922342
 20
132.1978513683379
 30
0.0
 10
507.4764766436448
 20
133.3734478538487
 30
0.0
 10
507.1408782130596
 20
134.6864985712161
 30
0.0
  0
SPLINE
  5
363
330
1F
100
AcDbEntity
  8
0
  6
SLD-Сплошная
 62
     7
370
    25
100
AcDbSpline
210
0.0
220
0.0
230
1.0
 70
     8
 71
     3
 72
    12
 73
     8
 74
     0
 42
0.00000001
 43
0.00000001
 40
0.0
 40
0.0
 40
0.0
 40
0.0
 40
0.5000000000000002
 40
0.5000000000000002
 40
0.7500000000000001
 40
0.7500000000000001
 40
1.0
 40
1.0
 40
1.0
 40
1.0
 10
507.1408782130596
 20
134.6864985712162
 30
0.0
 10
506.7683878958169
 20
136.0911146330139
 30
0.0
 10
506.3630204363827
 20
137.6180452895342
 30
0.0
 10
505.7075541485053
 20
140.0869013975949
 30
0.0
 10
505.4806298134702
 20
140.9398145701199
 30
0.0
 10
505.0161007819426
 20
142.6826658745274
 30
0.0
 10
504.7777759444118
 20
143.5753494234891
 30
0.0
 10
504.5343368009063
 20
144.4895342690288
 30
0.0
  0
SPLINE
  5
364
330
1F
100
AcDbEntity
  8
0
  6
SLD-Сплошная
 62
     7
370
    25
100
AcDbSpline
210
0.0
220
0.0
230
1.0
 70
     8
 71
     3
 72
    32
 73
    28
 74
     0
 42
0.00000001
 43
0.00000001
 40
0.0
 40
0.0
 40
0.0
 40
0.0
 40
0.0625000000000003
 40
0.0625000000000003
 40
0.1250000000000006
 40
0.1250000000000006
 40
0.1875000000000009
 40
0.1875000000000009
 40
0.2500000000000012
 40
0.2500000000000012
 40
0.3750000000000018
 40
0.3750000000000018
 40
0.4375000000000016
 40
0.4375000000000016
 40
0.5000000000000014
 40
0.5000000000000014
 40
0.5625000000000013
 40
0.5625000000000013
 40
0.6250000000000011
 40
0.6250000000000011
 40
0.7500000000000009
 40
0.7500000000000009
 40
0.8125000000000007
 40
0.8125000000000007
 40
0.8750000000000004
 40
0.8750000000000004
 40
1.0
 40
1.0
 40
1.0
 40
1.0
 10
481.6393465599772
 20
157.1404144179094
 30
0.0
 10
481.2558702173932
 20
157.1947322196434
 30
0.0
 10
480.8733798258459
 20
157.2201091651328
 30
0.0
 10
480.1096680748221
 20
157.2353191015287
 30
0.0
 10
479.7284680136016
 20
157.2244961566416
 30
0.0
 10
478.9673888679249
 20
157.1661793122914
 30
0.0
 10
478.5875478672098
 20
157.1172249122842
 30
0.0
 10
477.829493264466
 20
156.9755559981383
 30
0.0
 10
477.4542673398748
 20
156.8833355885365
 30
0.0
 10
476.3573805053068
 20
156.5467299085736
 30
0.0
 10
475.6555595949703
 20
156.2462693048553
 30
0.0
 10
474.6457012255749
 20
155.6901602226501
 30
0.0
 10
474.3167847872253
 20
155.4863696987961
 30
0.0
 10
473.690106377086
 20
155.0499576300368
 30
0.0
 10
473.3905465087401
 20
154.8161296207902
 30
0.0
 10
472.8201948103047
 20
154.3165327851415
 30
0.0
 10
472.5491003577476
 20
154.0511310134391
 30
0.0
 10
472.0343127017817
 20
153.4908970636773
 30
0.0
 10
471.7894532042642
 20
153.1942266331939
 30
0.0
 10
471.1134088529218
 20
152.278229083573
 30
0.0
 10
470.7362408795573
 20
151.6304366445061
 30
0.0
 10
470.2789791387806
 20
150.6081588577693
 30
0.0
 10
470.1441855665504
 20
150.2568842170309
 30
0.0
 10
469.9133606427689
 20
149.5495267541608
 30
0.0
 10
469.8172307849322
 20
149.1942093005088
 30
0.0
 10
469.5828747461
 20
148.124671545858
 30
0.0
 10
469.4958180592701
 20
147.4075021374394
 30
0.0
 10
469.4958180592701
 20
146.6832573994886
 30
0.0
  0
LINE
  5
365
330
1F
100
AcDbEntity
  8
0
  6
SLD-Сплошная
 62
     7
370
    25
100
AcDbLine
 10
464.66544075
 20
146.9886426268
 30
0.0
 11
464.6408782131
 21
147.1254797626
 31
0.0
  0
SPLINE
  5
366
330
1F
100
AcDbEntity
  8
0
  6
SLD-Сплошная
 62
     7
370
    25
100
AcDbSpline
210
0.0
220
0.0
230
1.0
 70
     8
 71
     3
 72
    17
 73
    13
 74
     0
 42
0.00000001
 43
0.00000001
 40
0.0
 40
0.0
 40
0.0
 40
0.0
 40
0.0359650443108595
 40
0.1408221045852413
 40
0.2485936162124133
 40
0.3566540247139076
 40
0.4676003318392338
 40
0.5802198409592213
 40
0.6957062836273606
 40
0.8150540836658211
 40
0.9380069894473969
 40
1.0
 40
1.0
 40
1.0
 40
1.0
 10
465.209329314764
 20
150.8612938442882
 30
0.0
 10
465.2659728594003
 20
151.1156876377587
 30
0.0
 10
465.4877621917839
 20
152.1117734226196
 30
0.0
 10
466.265174213778
 20
153.8041139808352
 30
0.0
 10
467.5118169628035
 20
155.8515992674105
 30
0.0
 10
469.122645733415
 20
157.7233780528102
 30
0.0
 10
471.043523357453
 20
159.3371419944655
 30
0.0
 10
473.2500907089194
 20
160.6442245250384
 30
0.0
 10
475.6869489206518
 20
161.6227153930315
 30
0.0
 10
478.3215357978981
 20
162.1811291383895
 30
0.0
 10
480.60285210285
 20
162.2920379216549
 30
0.0
 10
481.9691744782266
 20
162.1487813909207
 30
0.0
 10
482.4271593805909
 20
162.1007624684295
 30
0.0
  0
SPLINE
  5
367
330
1F
100
AcDbEntity
  8
0
  6
SLD-Сплошная
 62
     7
370
    25
100
AcDbSpline
210
0.0
220
0.0
230
1.0
 70
     8
 71
     3
 72
    18
 73
    14
 74
     0
 42
0.00000001
 43
0.00000001
 40
0.0
 40
0.0
 40
0.0
 40
0.0
 40
0.2499999999999999
 40
0.2499999999999999
 40
0.4999999999999998
 40
0.4999999999999998
 40
0.6249999999999998
 40
0.6249999999999998
 40
0.7499999999999999
 40
0.7499999999999999
 40
0.8749999999999999
 40
0.8749999999999999
 40
1.0
 40
1.0
 40
1.0
 40
1.0
 10
507.1408782130596
 20
146.5933270261383
 30
0.0
 10
507.4200858068378
 20
146.6489661817634
 30
0.0
 10
507.7006441226584
 20
146.6714239978351
 30
0.0
 10
508.2643666635318
 20
146.652167879113
 30
0.0
 10
508.548590908654
 20
146.6091541151482
 30
0.0
 10
508.9542168724974
 20
146.4989055122655
 30
0.0
 10
509.0869364688557
 20
146.4545100397308
 30
0.0
 10
509.3473277007823
 20
146.3502869269335
 30
0.0
 10
509.4756705128156
 20
146.2900221262
 30
0.0
 10
509.7212885352836
 20
146.1566410750827
 30
0.0
 10
509.8391261406923
 20
146.0833985777479
 30
0.0
 10
510.0649873933171
 20
145.9240923506555
 30
0.0
 10
510.1744656203082
 20
145.8367186558476
 30
0.0
 10
510.2759732432908
 20
145.7454165259387
 30
0.0
  0
LINE
  5
368
330
1F
100
AcDbEntity
  8
0
  6
SLD-Сплошная
 62
     7
370
    25
100
AcDbLine
 10
469.4958180593
 20
146.6832573995
 30
0.0
 11
469.4958180593
 21
131.8740201187
 31
0.0
  0
SPLINE
  5
369
330
1F
100
AcDbEntity
  8
0
  6
SLD-Сплошная
 62
     7
370
    25
100
AcDbSpline
210
0.0
220
0.0
230
1.0
 70
     8
 71
     3
 72
    12
 73
     8
 74
     0
 42
0.00000001
 43
0.00000001
 40
0.0
 40
0.0
 40
0.0
 40
0.0
 40
0.5
 40
0.5
 40
0.75
 40
0.75
 40
1.0
 40
1.0
 40
1.0
 40
1.0
 10
504.5343368009063
 20
144.4895342690288
 30
0.0
 10
504.7265676631317
 20
145.0207811910563
 30
0.0
 10
505.0748637055272
 20
145.5025915660661
 30
0.0
 10
505.7534647630654
 20
146.0521526297904
 30
0.0
 10
506.0101575450573
 20
146.209941225881
 30
0.0
 10
506.5512524549413
 20
146.4531965295954
 30
0.0
 10
506.8403338099317
 20
146.541856456544
 30
0.0
 10
507.1408782130596
 20
146.5933270261383
 30
0.0
  0
SPLINE
  5
36A
330
1F
100
AcDbEntity
  8
0
  6
SLD-Сплошная
 62
     7
370
    25
100
AcDbSpline
210
0.0
220
0.0
230
1.0
 70
     8
 71
     3
 72
    28
 73
    24
 74
     0
 42
0.00000001
 43
0.00000001
 40
0.0
 40
0.0
 40
0.0
 40
0.0
 40
0.1249999999999997
 40
0.1249999999999997
 40
0.1874999999999996
 40
0.1874999999999996
 40
0.2499999999999996
 40
0.2499999999999996
 40
0.3124999999999996
 40
0.3124999999999996
 40
0.3749999999999995
 40
0.3749999999999995
 40
0.4374999999999995
 40
0.4374999999999995
 40
0.4999999999999994
 40
0.4999999999999994
 40
0.6249999999999996
 40
0.6249999999999996
 40
0.7499999999999997
 40
0.7499999999999997
 40
0.8749999999999999
 40
0.8749999999999999
 40
1.0
 40
1.0
 40
1.0
 40
1.0
 10
488.4718867619935
 20
145.4973470870334
 30
0.0
 10
488.7825257453306
 20
144.218186460731
 30
0.0
 10
489.0826632395434
 20
142.9848154733289
 30
0.0
 10
489.5180213838355
 20
141.2025614869666
 30
0.0
 10
489.6606247674642
 20
140.6198200511066
 30
0.0
 10
489.9404665647507
 20
139.4774138009383
 30
0.0
 10
490.0777096803596
 20
138.9175722143626
 30
0.0
 10
490.3437012666426
 20
137.8327885619827
 30
0.0
 10
490.4728551380278
 20
137.3063507832876
 30
0.0
 10
490.7234546879045
 20
136.2855866158642
 30
0.0
 10
490.8451158981504
 20
135.7903836407511
 30
0.0
 10
491.0787438617348
 20
134.8397193696583
 30
0.0
 10
491.1908604877499
 20
134.3836441111434
 30
0.0
 10
491.4054311331944
 20
133.5101326649735
 30
0.0
 10
491.5080567698631
 20
133.0919109482907
 30
0.0
 10
491.7991012623265
 20
131.9025956627313
 30
0.0
 10
491.9723629314792
 20
131.1971331306186
 30
0.0
 10
492.2738345385192
 20
129.9684919958056
 30
0.0
 10
492.4004624035032
 20
129.4515407989269
 30
0.0
 10
492.6054422195484
 20
128.6142378920111
 30
0.0
 10
492.6825891795397
 20
128.3012280810654
 30
0.0
 10
492.7828942924249
 20
127.8819578310186
 30
0.0
 10
492.8067103621914
 20
127.7753740819605
 30
0.0
 10
492.8103325406173
 20
127.7749127645111
 30
0.0
  0
SPLINE
  5
36B
330
1F
100
AcDbEntity
  8
0
  6
SLD-Сплошная
 62
     7
370
    25
100
AcDbSpline
210
0.0
220
0.0
230
1.0
 70
     8
 71
     3
 72
    24
 73
    20
 74
     0
 42
0.00000001
 43
0.00000001
 40
0.0
 40
0.0
 40
0.0
 40
0.0
 40
0.1249999999999993
 40
0.1249999999999993
 40
0.2499999999999985
 40
0.2499999999999985
 40
0.3124999999999984
 40
0.3124999999999984
 40
0.3749999999999983
 40
0.3749999999999983
 40
0.4999999999999986
 40
0.4999999999999986
 40
0.6249999999999989
 40
0.6249999999999989
 40
0.7499999999999992
 40
0.7499999999999992
 40
0.8749999999999997
 40
0.8749999999999997
 40
1.0
 40
1.0
 40
1.0
 40
1.0
 10
482.9842543384285
 20
144.5619380931615
 30
0.0
 10
483.0824632146399
 20
144.7932462110278
 30
0.0
 10
483.2122493347287
 20
145.0119373555718
 30
0.0
 10
483.5270466264855
 20
145.4125117307814
 30
0.0
 10
483.7130816116731
 20
145.5950473879168
 30
0.0
 10
484.0218422246804
 20
145.830322702033
 30
0.0
 10
484.1302005986682
 20
145.9028846555178
 30
0.0
 10
484.3579726038767
 20
146.0359035313106
 30
0.0
 10
484.4778599772246
 20
146.0964506258347
 30
0.0
 10
484.844767241965
 20
146.2547762541734
 30
0.0
 10
485.1016741439793
 20
146.3314310829063
 30
0.0
 10
485.6401777872163
 20
146.4254339879013
 30
0.0
 10
485.9158550638889
 20
146.4411939894334
 30
0.0
 10
486.4654953216365
 20
146.4108211376444
 30
0.0
 10
486.7447699798987
 20
146.3636881649408
 30
0.0
 10
487.2793020600291
 20
146.2112108817882
 30
0.0
 10
487.538149748806
 20
146.105874703246
 30
0.0
 10
488.03249591826
 20
145.8382822475484
 30
0.0
 10
488.2613094037749
 20
145.679921116425
 30
0.0
 10
488.4718867619936
 20
145.497347087033
 30
0.0
  0
SPLINE
  5
36C
330
1F
100
AcDbEntity
  8
0
  6
SLD-Сплошная
 62
     7
370
    25
100
AcDbSpline
210
0.0
220
0.0
230
1.0
 70
     8
 71
     3
 72
    28
 73
    24
 74
     0
 42
0.00000001
 43
0.00000001
 40
0.0
 40
0.0
 40
0.0
 40
0.0
 40
0.1250000000000002
 40
0.1250000000000002
 40
0.1875000000000002
 40
0.1875000000000002
 40
0.2500000000000003
 40
0.2500000000000003
 40
0.3750000000000001
 40
0.3750000000000001
 40
0.5
 40
0.5
 40
0.6249999999999999
 40
0.6249999999999999
 40
0.6875
 40
0.6875
 40
0.75
 40
0.75
 40
0.8125000000000001
 40
0.8125000000000001
 40
0.8750000000000002
 40
0.8750000000000002
 40
1.0
 40
1.0
 40
1.0
 40
1.0
 10
487.1205145336461
 20
128.5660960855859
 30
0.0
 10
487.1193977590286
 20
128.5662644765174
 30
0.0
 10
487.0941742582835
 20
128.6620039397132
 30
0.0
 10
487.0210819944382
 20
128.9447384887647
 30
0.0
 10
486.9907866358571
 20
129.0622726304748
 30
0.0
 10
486.9178355782958
 20
129.3444107741563
 30
0.0
 10
486.8750290922167
 20
129.5095914245738
 30
0.0
 10
486.7286362305965
 20
130.072242180314
 30
0.0
 10
486.6074615253608
 20
130.5370179093894
 30
0.0
 10
486.320693735091
 20
131.6398319636262
 30
0.0
 10
486.156407220511
 20
132.272714912199
 30
0.0
 10
485.7863789779204
 20
133.6998658394603
 30
0.0
 10
485.5831077390712
 20
134.4865742752381
 30
0.0
 10
485.2511672370644
 20
135.7722376694127
 30
0.0
 10
485.1360318249359
 20
136.2183104289602
 30
0.0
 10
484.8983641018324
 20
137.1389300207551
 30
0.0
 10
484.77562342236
 20
137.6142818424685
 30
0.0
 10
484.5222881900028
 20
138.5949332665031
 30
0.0
 10
484.3914331548021
 20
139.1011693435164
 30
0.0
 10
484.1244558525347
 20
140.1339613991045
 30
0.0
 10
483.9881027628111
 20
140.6614619387203
 30
0.0
 10
483.5710282196068
 20
142.2767623963023
 30
0.0
 10
483.282313119426
 20
143.3971855227054
 30
0.0
 10
482.9842543384283
 20
144.5619380931619
 30
0.0
  0
LINE
  5
36D
330
1F
100
AcDbEntity
  8
0
  6
SLD-Сплошная
 62
     7
370
    25
100
AcDbLine
 10
464.6408782131
 20
147.1254797626
 30
0.0
 11
464.6408782131
 21
179.017825644
 31
0.0
  0
ARC
  5
36E
330
1F
100
AcDbEntity
  8
0
  6
SLD-Сплошная
 62
     7
370
    25
100
AcDbCircle
 10
490.2408782131
 20
130.151444788
 30
0.0
 40
3.500000000000006
100
AcDbArc
 50
206.9335462244
 51
317.2337370663
  0
LINE
  5
36F
330
1F
100
AcDbEntity
  8
0
  6
SLD-Сплошная
 62
     7
370
    25
100
AcDbLine
 10
455.091433563
 20
130.7093263589
 30
0.0
 11
455.091433563
 21
130.6168865355
 31
0.0
  0
LINE
  5
370
330
1F
100
AcDbEntity
  8
0
  6
SLD-Сплошная
 62
     7
370
    25
100
AcDbLine
 10
455.091433563
 20
141.4883825503
 30
0.0
 11
455.091433563
 21
130.7093263589
 31
0.0
  0
LINE
  5
371
330
1F
100
AcDbEntity
  8
0
  6
SLD-Сплошная
 62
     7
370
    25
100
AcDbLine
 10
455.091433563
 20
145.2383825503
 30
0.0
 11
455.091433563
 21
141.4883825503
 31
0.0
  0
LINE
  5
372
330
1F
100
AcDbEntity
  8
0
  6
SLD-Сплошная
 62
     7
370
    25
100
AcDbLine
 10
457.091433563
 20
156.0174387417
 30
0.0
 11
457.091433563
 21
130.6168865355
 31
0.0
  0
LINE
  5
373
330
1F
100
AcDbEntity
  8
0
  6
SLD-Сплошная
 62
     7
370
    25
100
AcDbLine
 10
455.091433563
 20
156.0174387417
 30
0.0
 11
455.091433563
 21
145.2383825503
 31
0.0
  0
LINE
  5
374
330
1F
100
AcDbEntity
  8
0
  6
SLD-Сплошная
 62
     7
370
    25
100
AcDbLine
 10
455.091433563
 20
170.546494933
 30
0.0
 11
455.091433563
 21
166.796494933
 31
0.0
  0
LINE
  5
375
330
1F
100
AcDbEntity
  8
0
  6
SLD-Сплошная
 62
     7
370
    25
100
AcDbLine
 10
455.091433563
 20
181.3255511244
 30
0.0
 11
455.091433563
 21
170.546494933
 31
0.0
  0
LINE
  5
376
330
1F
100
AcDbEntity
  8
0
  6
SLD-Сплошная
 62
     7
370
    25
100
AcDbLine
 10
455.091433563
 20
181.4179909478
 30
0.0
 11
455.091433563
 21
181.3255511244
 31
0.0
  0
LINE
  5
377
330
1F
100
AcDbEntity
  8
0
  6
SLD-Сплошная
 62
     7
370
    25
100
AcDbLine
 10
457.091433563
 20
181.4179909478
 30
0.0
 11
457.091433563
 21
156.0174387417
 31
0.0
  0
LINE
  5
378
330
1F
100
AcDbEntity
  8
0
  6
SLD-Сплошная
 62
     7
370
    25
100
AcDbLine
 10
455.091433563
 20
166.796494933
 30
0.0
 11
455.091433563
 21
156.0174387417
 31
0.0
  0
LINE
  5
379
330
1F
100
AcDbEntity
  8
0
  6
SLD-Сплошная
 62
     7
370
    25
100
AcDbLine
 10
464.6408782131
 20
133.017825644
 30
0.0
 11
464.6408782131
 21
147.1254797626
 31
0.0
  0
LINE
  5
37A
330
1F
100
AcDbEntity
  8
0
  6
SLD-Сплошная
 62
     7
370
    25
100
AcDbLine
 10
455.091433563
 20
141.4883825503
 30
0.0
 11
446.091433563
 21
141.4883825503
 31
0.0
  0
LINE
  5
37B
330
1F
100
AcDbEntity
  8
0
  6
SLD-Сплошная
 62
     7
370
    25
100
AcDbLine
 10
446.091433563
 20
141.4883825503
 30
0.0
 11
446.091433563
 21
145.2383825503
 31
0.0
  0
LINE
  5
37C
330
1F
100
AcDbEntity
  8
0
  6
SLD-Сплошная
 62
     7
370
    25
100
AcDbLine
 10
446.091433563
 20
145.2383825503
 30
0.0
 11
455.091433563
 21
145.2383825503
 31
0.0
  0
LINE
  5
37D
330
1F
100
AcDbEntity
  8
0
  6
SLD-Сплошная
 62
     7
370
    25
100
AcDbLine
 10
455.091433563
 20
166.796494933
 30
0.0
 11
446.091433563
 21
166.796494933
 31
0.0
  0
LINE
  5
37E
330
1F
100
AcDbEntity
  8
0
  6
SLD-Сплошная
 62
     7
370
    25
100
AcDbLine
 10
446.091433563
 20
145.2383825503
 30
0.0
 11
446.091433563
 21
166.796494933
 31
0.0
  0
LINE
  5
37F
330
1F
100
AcDbEntity
  8
0
  6
SLD-Сплошная
 62
     7
370
    25
100
AcDbLine
 10
446.091433563
 20
170.546494933
 30
0.0
 11
455.091433563
 21
170.546494933
 31
0.0
  0
LINE
  5
380
330
1F
100
AcDbEntity
  8
0
  6
SLD-Сплошная
 62
     7
370
    25
100
AcDbLine
 10
446.091433563
 20
166.796494933
 30
0.0
 11
446.091433563
 21
170.546494933
 31
0.0
  0
LINE
  5
381
330
1F
100
AcDbEntity
  8
0
  6
SLD-Сплошная
 62
     7
370
    25
100
AcDbLine
 10
446.091433563
 20
130.7093263589
 30
0.0
 11
455.091433563
 21
130.7093263589
 31
0.0
  0
LINE
  5
382
330
1F
100
AcDbEntity
  8
0
  6
SLD-Сплошная
 62
     7
370
    25
100
AcDbLine
 10
446.091433563
 20
130.7093263589
 30
0.0
 11
446.091433563
 21
141.4883825503
 31
0.0
  0
LINE
  5
383
330
1F
100
AcDbEntity
  8
0
  6
SLD-Сплошная
 62
     7
370
    25
100
AcDbLine
 10
455.091433563
 20
181.3255511244
 30
0.0
 11
446.091433563
 21
181.3255511244
 31
0.0
  0
LINE
  5
384
330
1F
100
AcDbEntity
  8
0
  6
SLD-Сплошная
 62
     7
370
    25
100
AcDbLine
 10
446.091433563
 20
170.546494933
 30
0.0
 11
446.091433563
 21
181.3255511244
 31
0.0
  0
LINE
  5
385
330
1F
100
AcDbEntity
  8
0
  6
SLD-Сплошная
 62
     7
370
    25
100
AcDbLine
 10
434.0818146198
 20
159.0875228357
 30
0.0
 11
427.2394160314
 21
159.0875228357
 31
0.0
  0
LINE
  5
386
330
1F
100
AcDbEntity
  8
0
  6
SLD-Сплошная
 62
     7
370
    25
100
AcDbLine
 10
434.0818146198
 20
159.0875228357
 30
0.0
 11
446.091433563
 21
159.0875228357
 31
0.0
  0
LINE
  5
387
330
1F
100
AcDbEntity
  8
0
  6
SLD-Сплошная
 62
     7
370
    25
100
AcDbLine
 10
434.0818146198
 20
152.9473546476
 30
0.0
 11
427.2394160314
 21
152.9473546476
 31
0.0
  0
LINE
  5
388
330
1F
100
AcDbEntity
  8
0
  6
SLD-Сплошная
 62
     7
370
    25
100
AcDbLine
 10
434.0818146198
 20
152.9473546476
 30
0.0
 11
446.091433563
 21
152.9473546476
 31
0.0
  0
LINE
  5
389
330
1F
100
AcDbEntity
  8
0
  6
SLD-Сплошная
 62
     7
370
    25
100
AcDbLine
 10
424.5230936154
 20
167.5773199158
 30
0.0
 11
427.2394160314
 21
169.0080570954
 31
0.0
  0
ARC
  5
38A
330
1F
100
AcDbEntity
  8
0
  6
SLD-Сплошная
 62
     7
370
    25
100
AcDbCircle
 10
434.0818146198
 20
156.0174387417
 30
0.0
 40
14.68245836551859
100
AcDbArc
 50
90.0
 51
117.7766046258
  0
ARC
  5
38B
330
1F
100
AcDbEntity
  8
0
  6
SLD-Сплошная
 62
     7
370
    25
100
AcDbCircle
 10
427.5265625971
 20
156.0174387417
 30
0.0
 40
3.083483337883657
100
AcDbArc
 50
95.3433591458
 51
264.6566408542
  0
ARC
  5
38C
330
1F
100
AcDbEntity
  8
0
  6
SLD-Сплошная
 62
     7
370
    25
100
AcDbCircle
 10
434.0818146198
 20
156.0174387417
 30
0.0
 40
14.68245836551856
100
AcDbArc
 50
242.2233953742
 51
270.0
  0
LINE
  5
38D
330
1F
100
AcDbEntity
  8
0
  6
SLD-Сплошная
 62
     7
370
    25
100
AcDbLine
 10
427.2394160314
 20
143.0268203879
 30
0.0
 11
424.5230936154
 21
144.4575575675
 31
0.0
  0
ARC
  5
38E
330
1F
100
AcDbEntity
  8
0
  6
SLD-Сплошная
 62
     7
370
    25
100
AcDbCircle
 10
434.0818146198
 20
156.0174387417
 30
0.0
 40
15.00000000000002
100
AcDbArc
 50
210.0
 51
230.4130804784
  0
LINE
  5
38F
330
1F
100
AcDbEntity
  8
0
  6
SLD-Сплошная
 62
     7
370
    25
100
AcDbLine
 10
421.091433563
 20
156.0174387417
 30
0.0
 11
421.091433563
 21
148.5174387417
 31
0.0
  0
LINE
  5
390
330
1F
100
AcDbEntity
  8
0
  6
SLD-Сплошная
 62
     7
370
    25
100
AcDbLine
 10
421.091433563
 20
163.5174387417
 30
0.0
 11
421.091433563
 21
156.0174387417
 31
0.0
  0
ARC
  5
391
330
1F
100
AcDbEntity
  8
0
  6
SLD-Сплошная
 62
     7
370
    25
100
AcDbCircle
 10
434.0818146198
 20
156.0174387417
 30
0.0
 40
15.00000000000002
100
AcDbArc
 50
129.5869195216
 51
150.0
  0
LINE
  5
392
330
1F
100
AcDbEntity
  8
0
  6
SLD-Сплошная
 62
     7
370
    25
100
AcDbLine
 10
434.0818146198
 20
170.6998971072
 30
0.0
 11
446.091433563
 21
170.6998971072
 31
0.0
  0
LINE
  5
393
330
1F
100
AcDbEntity
  8
0
  6
SLD-Сплошная
 62
     7
370
    25
100
AcDbLine
 10
434.0818146198
 20
141.3349803761
 30
0.0
 11
446.091433563
 21
141.3349803761
 31
0.0
  0
CIRCLE
  5
394
330
1F
100
AcDbEntity
  8
0
  6
SLD-Сплошная
 62
     7
370
    25
100
AcDbCircle
 10
557.1408782131
 20
196.367825644
 30
0.0
 40
2.100000000000023
  0
LINE
  5
395
330
1F
100
AcDbEntity
  8
0
  6
SLD-Сплошная
 62
     7
370
    25
100
AcDbLine
 10
562.1408782131
 20
185.3696995195
 30
0.0
 11
562.1408782131
 21
196.3678225753
 31
0.0
  0
ARC
  5
396
330
1F
100
AcDbEntity
  8
0
  6
SLD-Сплошная
 62
     7
370
    25
100
AcDbCircle
 10
557.1408782131
 20
196.367825644
 30
0.0
 40
5.000000000001055
100
AcDbArc
 50
359.9999648351
 51
122.5
  0
LINE
  5
397
330
1F
100
AcDbEntity
  8
0
  6
SLD-Сплошная
 62
     7
370
    25
100
AcDbLine
 10
554.4543801713
 20
200.5847828731
 30
0.0
 11
530.5714832765
 21
185.3696995195
 31
0.0
  0
LINE
  5
398
330
1F
100
AcDbEntity
  8
0
  6
SLD-Сплошная
 62
     7
370
    25
100
AcDbLine
 10
569.6408782131
 20
124.0301561525
 30
0.0
 11
569.6408782131
 21
119.517825644
 31
0.0
  0
LINE
  5
399
330
1F
100
AcDbEntity
  8
0
  6
SLD-Сплошная
 62
     7
370
    25
100
AcDbLine
 10
527.1408782131
 20
124.0301561525
 30
0.0
 11
527.1408782131
 21
119.517825644
 31
0.0
  0
LINE
  5
39A
330
1F
100
AcDbEntity
  8
0
  6
SLD-Сплошная
 62
     7
370
    25
100
AcDbLine
 10
569.6408782131
 20
187.0487281406
 30
0.0
 11
576.0443532401
 21
187.0487281406
 31
0.0
  0
LINE
  5
39B
330
1F
100
AcDbEntity
  8
0
  6
SLD-Сплошная
 62
     7
370
    25
100
AcDbLine
 10
576.0443532401
 20
187.0487281406
 30
0.0
 11
576.0443532401
 21
124.8869231475
 31
0.0
  0
LINE
  5
39C
330
1F
100
AcDbEntity
  8
0
  6
SLD-Сплошная
 62
     7
370
    25
100
AcDbLine
 10
572.6408782131
 20
124.8869231475
 30
0.0
 11
576.0443532401
 21
124.8869231475
 31
0.0
  0
LINE
  5
39D
330
1F
100
AcDbEntity
  8
0
  6
SLD-Сплошная
 62
     7
370
    25
100
AcDbLine
 10
572.6408782131
 20
123.9512283857
 30
0.0
 11
569.6408782131
 21
123.9512283857
 31
0.0
  0
LINE
  5
39E
330
1F
100
AcDbEntity
  8
0
  6
SLD-Сплошная
 62
     7
370
    25
100
AcDbLine
 10
569.6408782131
 20
155.992825644
 30
0.0
 11
569.6408782131
 21
123.9758901602
 31
0.0
  0
ARC
  5
39F
330
1F
100
AcDbEntity
  8
0
  6
SLD-Сплошная
 62
     7
370
    25
100
AcDbCircle
 10
579.465345727
 20
132.5908972336
 30
0.0
 40
1.920495173464278
100
AcDbArc
 50
153.087037136
 51
173.4146574675
  0
SPLINE
  5
3A0
330
1F
100
AcDbEntity
  8
0
  6
SLD-Сплошная
 62
     7
370
    25
100
AcDbSpline
210
0.0
220
0.0
230
1.0
 70
     8
 71
     3
 72
    14
 73
    10
 74
     0
 42
0.00000001
 43
0.00000001
 40
0.0
 40
0.0
 40
0.0
 40
0.0
 40
0.25
 40
0.25
 40
0.5
 40
0.5
 40
0.75
 40
0.75
 40
1.0
 40
1.0
 40
1.0
 40
1.0
 10
577.5575217187093
 20
132.811145421995
 30
0.0
 10
577.5310167537937
 20
132.6930076456135
 30
0.0
 10
577.5033669504179
 20
132.563727650288
 30
0.0
 10
577.4458809644635
 20
132.2839308531545
 30
0.0
 10
577.4156823474856
 20
132.1314785632671
 30
0.0
 10
577.3551746929734
 20
131.8155381319076
 30
0.0
 10
577.3248332292287
 20
131.6520419415597
 30
0.0
 10
577.2639741600196
 20
131.3139587488467
 30
0.0
 10
577.2335555710746
 20
131.1397768650255
 30
0.0
 10
577.2044238467967
 20
130.9678256440305
 30
0.0
  0
ARC
  5
3A1
330
1F
100
AcDbEntity
  8
0
  6
SLD-Сплошная
 62
     7
370
    25
100
AcDbCircle
 10
429.6408782131
 20
155.967825644
 30
0.0
 40
149.6662954709575
100
AcDbArc
 50
348.0142731271
 51
350.3843374027
  0
ARC
  5
3A2
330
1F
100
AcDbEntity
  8
0
  6
SLD-Сплошная
 62
     7
370
    25
100
AcDbCircle
 10
429.6408782131
 20
155.967825644
 30
0.0
 40
149.6662954709575
100
AcDbArc
 50
9.6156625973
 51
11.9857268729
  0
SPLINE
  5
3A3
330
1F
100
AcDbEntity
  8
0
  6
SLD-Сплошная
 62
     7
370
    25
100
AcDbSpline
210
0.0
220
0.0
230
1.0
 70
     8
 71
     3
 72
    14
 73
    10
 74
     0
 42
0.00000001
 43
0.00000001
 40
0.0
 40
0.0
 40
0.0
 40
0.0
 40
0.25
 40
0.25
 40
0.5
 40
0.5
 40
0.75
 40
0.75
 40
1.0
 40
1.0
 40
1.0
 40
1.0
 10
577.6096269922612
 20
178.9009059305178
 30
0.0
 10
577.581745874025
 20
179.0154318075496
 30
0.0
 10
577.5508342245895
 20
179.1517587343759
 30
0.0
 10
577.4862183696032
 20
179.4531987063052
 30
0.0
 10
577.4516551887791
 20
179.6223121475532
 30
0.0
 10
577.3814694706351
 20
179.9804985855721
 30
0.0
 10
577.3459527250398
 20
180.168789369754
 30
0.0
 10
577.2740556588614
 20
180.5640785795165
 30
0.0
 10
577.2386308647485
 20
180.7659172898487
 30
0.0
 10
577.2044238467965
 20
180.9678256440305
 30
0.0
  0
ARC
  5
3A4
330
1F
100
AcDbEntity
  8
0
  6
SLD-Сплошная
 62
     7
370
    25
100
AcDbCircle
 10
578.6080143628
 20
178.9969423853
 30
0.0
 40
1.002995684119973
100
AcDbArc
 50
185.4944665177
 51
211.561416678
  0
SPLINE
  5
3A5
330
1F
100
AcDbEntity
  8
0
  6
SLD-Сплошная
 62
     7
370
    25
100
AcDbSpline
210
0.0
220
0.0
230
1.0
 70
     8
 71
     3
 72
    11
 73
     7
 74
     0
 42
0.00000001
 43
0.00000001
 40
0.0
 40
0.0
 40
0.0
 40
0.0
 40
0.2563390702002762
 40
0.5200638190131925
 40
0.7764320327015899
 40
1.0
 40
1.0
 40
1.0
 40
1.0
 10
575.1863264414394
 20
120.8178256440305
 30
0.0
 10
575.1126747670382
 20
120.3550050224729
 30
0.0
 10
574.9632493554697
 20
119.4160289242244
 30
0.0
 10
574.8141942030205
 20
118.4811297808589
 30
0.0
 10
574.7221148480322
 20
117.9039325335172
 30
0.0
 10
574.7157897481934
 20
117.8643098094252
 30
0.0
 10
574.7128433362121
 20
117.8458524139734
 30
0.0
  0
SPLINE
  5
3A6
330
1F
100
AcDbEntity
  8
0
  6
SLD-Сплошная
 62
     7
370
    25
100
AcDbSpline
210
0.0
220
0.0
230
1.0
 70
     8
 71
     3
 72
    10
 73
     6
 74
     0
 42
0.00000001
 43
0.00000001
 40
0.0
 40
0.0
 40
0.0
 40
0.0
 40
0.2311831825098938
 40
0.7434678886599495
 40
1.0
 40
1.0
 40
1.0
 40
1.0
 10
575.1576324235983
 20
120.3526503676893
 30
0.0
 10
575.1494571434578
 20
120.3447476124597
 30
0.0
 10
575.1231660516953
 20
120.3193329405042
 30
0.0
 10
575.1408381870641
 20
120.5155245057258
 30
0.0
 10
575.1749457322895
 20
120.7421929037123
 30
0.0
 10
575.1863264414394
 20
120.8178256440305
 30
0.0
  0
ARC
  5
3A7
330
1F
100
AcDbEntity
  8
0
  6
SLD-Сплошная
 62
     7
370
    25
100
AcDbCircle
 10
557.1408782131
 20
196.367825644
 30
0.0
 40
6.199999999999884
100
AcDbArc
 50
130.216919001
 51
158.7493208829
  0
LINE
  5
3A8
330
1F
100
AcDbEntity
  8
0
  6
SLD-Сплошная
 62
     7
370
    25
100
AcDbLine
 10
553.1376423567
 20
201.1021791034
 30
0.0
 11
555.5328056643
 21
201.1021791034
 31
0.0
  0
LINE
  5
3A9
330
1F
100
AcDbEntity
  8
0
  6
SLD-Сплошная
 62
     7
370
    25
100
AcDbLine
 10
558.7489507618
 20
201.1021791034
 30
0.0
 11
561.7667677139
 21
201.1021791034
 31
0.0
  0
LINE
  5
3AA
330
1F
100
AcDbEntity
  8
0
  6
SLD-Сплошная
 62
     7
370
    25
100
AcDbLine
 10
569.6408782131
 20
190.167825644
 30
0.0
 11
562.1408782131
 21
190.167825644
 31
0.0
  0
LINE
  5
3AB
330
1F
100
AcDbEntity
  8
0
  6
SLD-Сплошная
 62
     7
370
    25
100
AcDbLine
 10
569.6408782131
 20
187.0987281406
 30
0.0
 11
569.6408782131
 21
190.167825644
 31
0.0
  0
LINE
  5
3AC
330
1F
100
AcDbEntity
  8
0
  6
SLD-Сплошная
 62
     7
370
    25
100
AcDbLine
 10
561.7667677139
 20
201.1021791034
 30
0.0
 11
567.4419403316
 21
201.1021791034
 31
0.0
  0
LINE
  5
3AD
330
1F
100
AcDbEntity
  8
0
  6
SLD-Сплошная
 62
     7
370
    25
100
AcDbLine
 10
572.6408782131
 20
122.817825644
 30
0.0
 11
572.6408782131
 21
124.8869231475
 31
0.0
  0
LINE
  5
3AE
330
1F
100
AcDbEntity
  8
0
  6
SLD-Сплошная
 62
     7
370
    25
100
AcDbLine
 10
572.6408782131
 20
120.817825644
 30
0.0
 11
572.6408782131
 21
122.817825644
 31
0.0
  0
LINE
  5
3AF
330
1F
100
AcDbEntity
  8
0
  6
SLD-Сплошная
 62
     7
370
    25
100
AcDbLine
 10
572.6408782131
 20
117.817825644
 30
0.0
 11
572.6408782131
 21
120.817825644
 31
0.0
  0
LINE
  5
3B0
330
1F
100
AcDbEntity
  8
0
  6
SLD-Сплошная
 62
     7
370
    25
100
AcDbLine
 10
558.7959046965
 20
202.4314798242
 30
0.0
 11
561.5049443848
 21
201.1021791034
 31
0.0
  0
LINE
  5
3B1
330
1F
100
AcDbEntity
  8
0
  6
SLD-Сплошная
 62
     7
370
    25
100
AcDbLine
 10
551.4376423567
 20
209.1925588551
 30
0.0
 11
553.1376423567
 21
201.1021791034
 31
0.0
  0
ARC
  5
3B2
330
1F
100
AcDbEntity
  8
0
  6
SLD-Сплошная
 62
     7
370
    25
100
AcDbCircle
 10
573.1408782131
 20
216.367825644
 30
0.0
 40
20.00000000000024
100
AcDbArc
 50
194.1853912766
 51
224.1722092913
  0
LINE
  5
3B3
330
1F
100
AcDbEntity
  8
0
  6
SLD-Сплошная
 62
     7
370
    25
100
AcDbLine
 10
553.7507209233
 20
211.4666216817
 30
0.0
 11
551.4376423567
 21
209.1925588551
 31
0.0
  0
ENDSEC
  0
SECTION
  2
OBJECTS
  0
DICTIONARY
  5
C
330
0
100
AcDbDictionary
281
     1
  3
ACAD_GROUP
350
D
  3
ACAD_LAYOUT
350
1A
  3
ACAD_MLINESTYLE
350
17
  3
ACAD_PLOTSETTINGS
350
19
  3
ACAD_PLOTSTYLENAME
350
E
  3
ACAD_SCALELIST
350
47
  3
DWGPROPS
350
3B4
  0
DICTIONARY
  5
D
102
{ACAD_REACTORS
330
C
102
}
330
C
100
AcDbDictionary
281
     1
  0
DICTIONARY
  5
1A
102
{ACAD_REACTORS
330
C
102
}
330
C
100
AcDbDictionary
281
     1
  3
Layout1
350
1E
  3
Layout2
350
26
  3
Model
350
22
  0
DICTIONARY
  5
17
102
{ACAD_REACTORS
330
C
102
}
330
C
100
AcDbDictionary
281
     1
  3
Standard
350
18
  0
DICTIONARY
  5
19
102
{ACAD_REACTORS
330
C
102
}
330
C
100
AcDbDictionary
281
     1
  0
ACDBDICTIONARYWDFLT
  5
E
102
{ACAD_REACTORS
330
C
102
}
330
C
100
AcDbDictionary
281
     1
  3
Normal
350
F
100
AcDbDictionaryWithDefault
340
F
  0
DICTIONARY
  5
47
102
{ACAD_REACTORS
330
C
102
}
330
C
100
AcDbDictionary
281
     1
  3
A0
350
48
  3
A1
350
49
  3
A2
350
4A
  3
A3
350
4B
  3
A4
350
4C
  3
A5
350
4D
  3
A6
350
4E
  3
A7
350
4F
  3
A8
350
50
  3
A9
350
51
  3
B0
350
52
  3
B1
350
53
  3
B2
350
54
  3
B3
350
55
  3
B4
350
56
  3
B5
350
57
  3
B6
350
58
  0
XRECORD
  5
3B4
102
{ACAD_REACTORS
330
C
102
}
330
C
100
AcDbXrecord
280
     1
  1
DWGPROPS COOKIE
  2

  3

  4

  6

  7

  8
inyankin
  9

300
=
301
=
302
=
303
=
304
=
305
=
306
=
307
=
308
=
309
=
 40
0.0
 41
2460920.592144931
 42
2460920.592145914
  1

 90
        0
  0
LAYOUT
  5
1E
102
{ACAD_REACTORS
330
1A
102
}
330
1A
100
AcDbPlotSettings
  1

  2
none_device
  4

  6

 40
0.0
 41
0.0
 42
0.0
 43
0.0
 44
0.0
 45
0.0
 46
0.0
 47
0.0
 48
0.0
 49
0.0
140
0.0
141
0.0
142
1.0
143
1.0
 70
   688
 72
     1
 73
     0
 74
     5
  7

 75
    16
147
1.0
148
0.0
149
0.0
100
AcDbLayout
  1
Layout1
 70
     1
 71
     1
 10
0.0
 20
0.0
 11
420.0
 21
297.0
 12
0.0
 22
0.0
 32
0.0
 14
1.0000000000E+20
 24
1.0000000000E+20
 34
1.0000000000E+20
 15
-1.0000000000E+20
 25
-1.0000000000E+20
 35
-1.0000000000E+20
146
0.0
 13
0.0
 23
0.0
 33
0.0
 16
1.0
 26
0.0
 36
0.0
 17
0.0
 27
1.0
 37
0.0
 76
     0
330
1B
  0
LAYOUT
  5
26
102
{ACAD_REACTORS
330
1A
102
}
330
1A
100
AcDbPlotSettings
  1

  2
none_device
  4

  6

 40
0.0
 41
0.0
 42
0.0
 43
0.0
 44
0.0
 45
0.0
 46
0.0
 47
0.0
 48
0.0
 49
0.0
140
0.0
141
0.0
142
1.0
143
1.0
 70
   688
 72
     1
 73
     0
 74
     5
  7

 75
    16
147
1.0
148
0.0
149
0.0
100
AcDbLayout
  1
Layout2
 70
     1
 71
     2
 10
0.0
 20
0.0
 11
0.0
 21
0.0
 12
0.0
 22
0.0
 32
0.0
 14
0.0
 24
0.0
 34
0.0
 15
0.0
 25
0.0
 35
0.0
146
0.0
 13
0.0
 23
0.0
 33
0.0
 16
1.0
 26
0.0
 36
0.0
 17
0.0
 27
1.0
 37
0.0
 76
     0
330
23
  0
LAYOUT
  5
22
102
{ACAD_REACTORS
330
1A
102
}
330
1A
100
AcDbPlotSettings
  1

  2
none_device
  4
Letter_(8.50_x_11.00_Inches)
  6

 40
6.35
 41
6.35
 42
6.35000508
 43
6.35000508
 44
215.9
 45
279.4
 46
0.0
 47
0.0
 48
0.0
 49
0.0
140
0.0
141
0.0
142
1.0
143
1.0
 70
  1712
 72
     1
 73
     0
 74
     0
  7

 75
     0
147
1.0
148
0.0
149
0.0
100
AcDbLayout
  1
Model
 70
     1
 71
     0
 10
0.0
 20
0.0
 11
431.8
 21
279.4
 12
0.0
 22
0.0
 32
0.0
 14
0.0
 24
0.0
 34
0.0
 15
431.8
 25
279.4
 35
0.0
146
0.0
 13
0.0
 23
0.0
 33
0.0
 16
1.0
 26
0.0
 36
0.0
 17
0.0
 27
1.0
 37
0.0
 76
     0
330
1F
331
29
  0
MLINESTYLE
  5
18
102
{ACAD_REACTORS
330
17
102
}
330
17
100
AcDbMlineStyle
  2
Standard
 70
     0
  3

 62
   256
 51
90.0
 52
90.0
 71
     2
 49
0.5
 62
   256
  6
BYLAYER
 49
-0.5
 62
   256
  6
BYLAYER
  0
ACDBPLACEHOLDER
  5
F
102
{ACAD_REACTORS
330
E
102
}
330
E
  0
SCALE
  5
48
102
{ACAD_REACTORS
330
47
102
}
330
47
100
AcDbScale
 70
     0
300
1:1
140
1.0
141
1.0
290
     1
  0
SCALE
  5
49
102
{ACAD_REACTORS
330
47
102
}
330
47
100
AcDbScale
 70
     0
300
1:2
140
1.0
141
2.0
290
     0
  0
SCALE
  5
4A
102
{ACAD_REACTORS
330
47
102
}
330
47
100
AcDbScale
 70
     0
300
1:4
140
1.0
141
4.0
290
     0
  0
SCALE
  5
4B
102
{ACAD_REACTORS
330
47
102
}
330
47
100
AcDbScale
 70
     0
300
1:5
140
1.0
141
5.0
290
     0
  0
SCALE
  5
4C
102
{ACAD_REACTORS
330
47
102
}
330
47
100
AcDbScale
 70
     0
300
1:8
140
1.0
141
8.0
290
     0
  0
SCALE
  5
4D
102
{ACAD_REACTORS
330
47
102
}
330
47
100
AcDbScale
 70
     0
300
1:10
140
1.0
141
10.0
290
     0
  0
SCALE
  5
4E
102
{ACAD_REACTORS
330
47
102
}
330
47
100
AcDbScale
 70
     0
300
1:16
140
1.0
141
16.0
290
     0
  0
SCALE
  5
4F
102
{ACAD_REACTORS
330
47
102
}
330
47
100
AcDbScale
 70
     0
300
1:20
140
1.0
141
20.0
290
     0
  0
SCALE
  5
50
102
{ACAD_REACTORS
330
47
102
}
330
47
100
AcDbScale
 70
     0
300
1:30
140
1.0
141
30.0
290
     0
  0
SCALE
  5
51
102
{ACAD_REACTORS
330
47
102
}
330
47
100
AcDbScale
 70
     0
300
1:40
140
1.0
141
40.0
290
     0
  0
SCALE
  5
52
102
{ACAD_REACTORS
330
47
102
}
330
47
100
AcDbScale
 70
     0
300
1:50
140
1.0
141
50.0
290
     0
  0
SCALE
  5
53
102
{ACAD_REACTORS
330
47
102
}
330
47
100
AcDbScale
 70
     0
300
1:100
140
1.0
141
100.0
290
     0
  0
SCALE
  5
54
102
{ACAD_REACTORS
330
47
102
}
330
47
100
AcDbScale
 70
     0
300
2:1
140
2.0
141
1.0
290
     0
  0
SCALE
  5
55
102
{ACAD_REACTORS
330
47
102
}
330
47
100
AcDbScale
 70
     0
300
4:1
140
4.0
141
1.0
290
     0
  0
SCALE
  5
56
102
{ACAD_REACTORS
330
47
102
}
330
47
100
AcDbScale
 70
     0
300
8:1
140
8.0
141
1.0
290
     0
  0
SCALE
  5
57
102
{ACAD_REACTORS
330
47
102
}
330
47
100
AcDbScale
 70
     0
300
10:1
140
10.0
141
1.0
290
     0
  0
SCALE
  5
58
102
{ACAD_REACTORS
330
47
102
}
330
47
100
AcDbScale
 70
     0
300
100:1
140
100.0
141
1.0
290
     0
  0
ENDSEC
  0
EOF
