  0
SECTION
  2
HEADER
  9
$ACADVER
  1
AC1015
  9
$ACADMAINTVER
 70
     6
  9
$DWGCODEPAGE
  3
ANSI_1251
  9
$INSBASE
 10
0.0
 20
0.0
 30
0.0
  9
$EXTMIN
 10
0.0
 20
0.0
 30
0.0
  9
$EXTMAX
 10
597.0
 20
420.0
 30
0.0
  9
$LIMMIN
 10
0.0
 20
0.0
  9
$LIMMAX
 10
597.0
 20
420.0
  9
$ORTHOMODE
 70
     0
  9
$REGENMODE
 70
     1
  9
$FILLMODE
 70
     1
  9
$QTEXTMODE
 70
     0
  9
$MIRRTEXT
 70
     1
  9
$LTSCALE
 40
1.0
  9
$ATTMODE
 70
     1
  9
$TEXTSIZE
 40
3.5
  9
$TRACEWID
 40
1.0
  9
$TEXTSTYLE
  7
Standard
  9
$CLAYER
  8
0
  9
$CELTYPE
  6
ByLayer
  9
$CECOLOR
 62
   256
  9
$CELTSCALE
 40
1.0
  9
$DISPSILH
 70
     0
  9
$DIMSCALE
 40
1.0
  9
$DIMASZ
 40
3.5
  9
$DIMEXO
 40
0.01
  9
$DIMDLI
 40
3.75
  9
$DIMRND
 40
0.0
  9
$DIMDLE
 40
0.0
  9
$DIMEXE
 40
1.0
  9
$DIMTP
 40
0.0
  9
$DIMTM
 40
0.0
  9
$DIMTXT
 40
3.5
  9
$DIMCEN
 40
2.5
  9
$DIMTSZ
 40
0.0
  9
$DIMTOL
 70
     0
  9
$DIMLIM
 70
     0
  9
$DIMTIH
 70
     1
  9
$DIMTOH
 70
     1
  9
$DIMSE1
 70
     0
  9
$DIMSE2
 70
     0
  9
$DIMTAD
 70
     1
  9
$DIMZIN
 70
     0
  9
$DIMBLK
  1

  9
$DIMASO
 70
     1
  9
$DIMSHO
 70
     1
  9
$DIMPOST
  1

  9
$DIMAPOST
  1

  9
$DIMALT
 70
     0
  9
$DIMALTD
 70
     3
  9
$DIMALTF
 40
0.0393700787
  9
$DIMLFAC
 40
1.0
  9
$DIMTOFL
 70
     1
  9
$DIMTVP
 40
0.0
  9
$DIMTIX
 70
     0
  9
$DIMSOXD
 70
     0
  9
$DIMSAH
 70
     0
  9
$DIMBLK1
  1

  9
$DIMBLK2
  1

  9
$DIMSTYLE
  2
ISO-25
  9
$DIMCLRD
 70
     0
  9
$DIMCLRE
 70
     0
  9
$DIMCLRT
 70
     0
  9
$DIMTFAC
 40
1.0
  9
$DIMGAP
 40
3.0
  9
$DIMJUST
 70
     0
  9
$DIMSD1
 70
     0
  9
$DIMSD2
 70
     0
  9
$DIMTOLJ
 70
     0
  9
$DIMTZIN
 70
     0
  9
$DIMALTZ
 70
     0
  9
$DIMALTTZ
 70
     0
  9
$DIMUPT
 70
     0
  9
$DIMDEC
 70
     2
  9
$DIMTDEC
 70
     3
  9
$DIMALTU
 70
     2
  9
$DIMALTTD
 70
     3
  9
$DIMTXSTY
  7
Standard
  9
$DIMAUNIT
 70
     0
  9
$DIMADEC
 70
     2
  9
$DIMALTRND
 40
0.0
  9
$DIMAZIN
 70
     0
  9
$DIMDSEP
 70
    44
  9
$DIMATFIT
 70
     3
  9
$DIMFRAC
 70
     0
  9
$DIMLDRBLK
  1

  9
$DIMLUNIT
 70
     2
  9
$DIMLWD
 70
    -2
  9
$DIMLWE
 70
    -2
  9
$DIMTMOVE
 70
     0
  9
$LUNITS
 70
     2
  9
$LUPREC
 70
     2
  9
$SKETCHINC
 40
1.0
  9
$FILLETRAD
 40
0.0
  9
$AUNITS
 70
     0
  9
$AUPREC
 70
     2
  9
$MENU
  1
.
  9
$ELEVATION
 40
0.0
  9
$PELEVATION
 40
0.0
  9
$THICKNESS
 40
0.0
  9
$LIMCHECK
 70
     0
  9
$CHAMFERA
 40
0.0
  9
$CHAMFERB
 40
0.0
  9
$CHAMFERC
 40
0.0
  9
$CHAMFERD
 40
0.0
  9
$SKPOLY
 70
     0
  9
$TDCREATE
 40
2459786.50699478
  9
$TDUCREATE
 40
2459786.38199478
  9
$TDUPDATE
 40
2459786.506996736
  9
$TDUUPDATE
 40
2459786.381996736
  9
$TDINDWG
 40
0.0000000116
  9
$TDUSRTIMER
 40
0.0000000116
  9
$USRTIMER
 70
     1
  9
$ANGBASE
 50
0.0
  9
$ANGDIR
 70
     0
  9
$PDMODE
 70
     0
  9
$PDSIZE
 40
-1.0
  9
$PLINEWID
 40
0.0
  9
$SPLFRAME
 70
     0
  9
$SPLINETYPE
 70
     6
  9
$SPLINESEGS
 70
     8
  9
$HANDSEED
  5
49C
  9
$SURFTAB1
 70
     6
  9
$SURFTAB2
 70
     6
  9
$SURFTYPE
 70
     6
  9
$SURFU
 70
     6
  9
$SURFV
 70
     6
  9
$UCSBASE
  2

  9
$UCSNAME
  2

  9
$UCSORG
 10
0.0
 20
0.0
 30
0.0
  9
$UCSXDIR
 10
1.0
 20
0.0
 30
0.0
  9
$UCSYDIR
 10
0.0
 20
1.0
 30
0.0
  9
$UCSORTHOREF
  2

  9
$UCSORTHOVIEW
 70
     0
  9
$UCSORGTOP
 10
0.0
 20
0.0
 30
0.0
  9
$UCSORGBOTTOM
 10
0.0
 20
0.0
 30
0.0
  9
$UCSORGLEFT
 10
0.0
 20
0.0
 30
0.0
  9
$UCSORGRIGHT
 10
0.0
 20
0.0
 30
0.0
  9
$UCSORGFRONT
 10
0.0
 20
0.0
 30
0.0
  9
$UCSORGBACK
 10
0.0
 20
0.0
 30
0.0
  9
$PUCSBASE
  2

  9
$PUCSNAME
  2

  9
$PUCSORG
 10
0.0
 20
0.0
 30
0.0
  9
$PUCSXDIR
 10
1.0
 20
0.0
 30
0.0
  9
$PUCSYDIR
 10
0.0
 20
1.0
 30
0.0
  9
$PUCSORTHOREF
  2

  9
$PUCSORTHOVIEW
 70
     0
  9
$PUCSORGTOP
 10
0.0
 20
0.0
 30
0.0
  9
$PUCSORGBOTTOM
 10
0.0
 20
0.0
 30
0.0
  9
$PUCSORGLEFT
 10
0.0
 20
0.0
 30
0.0
  9
$PUCSORGRIGHT
 10
0.0
 20
0.0
 30
0.0
  9
$PUCSORGFRONT
 10
0.0
 20
0.0
 30
0.0
  9
$PUCSORGBACK
 10
0.0
 20
0.0
 30
0.0
  9
$USERI1
 70
     0
  9
$USERI2
 70
     0
  9
$USERI3
 70
     0
  9
$USERI4
 70
     0
  9
$USERI5
 70
     0
  9
$USERR1
 40
0.0
  9
$USERR2
 40
0.0
  9
$USERR3
 40
0.0
  9
$USERR4
 40
0.0
  9
$USERR5
 40
0.0
  9
$WORLDVIEW
 70
     1
  9
$SHADEDGE
 70
     3
  9
$SHADEDIF
 70
    70
  9
$TILEMODE
 70
     1
  9
$MAXACTVP
 70
    64
  9
$PINSBASE
 10
0.0
 20
0.0
 30
0.0
  9
$PLIMCHECK
 70
     0
  9
$PEXTMIN
 10
1.0000000000E+20
 20
1.0000000000E+20
 30
1.0000000000E+20
  9
$PEXTMAX
 10
-1.0000000000E+20
 20
-1.0000000000E+20
 30
-1.0000000000E+20
  9
$PLIMMIN
 10
0.0
 20
0.0
  9
$PLIMMAX
 10
420.0
 20
297.0
  9
$UNITMODE
 70
     0
  9
$VISRETAIN
 70
     1
  9
$PLINEGEN
 70
     0
  9
$PSLTSCALE
 70
     1
  9
$TREEDEPTH
 70
  3020
  9
$CMLSTYLE
  2
Standard
  9
$CMLJUST
 70
     0
  9
$CMLSCALE
 40
20.0
  9
$PROXYGRAPHICS
 70
     1
  9
$MEASUREMENT
 70
     1
  9
$CELWEIGHT
370
    -1
  9
$ENDCAPS
280
     0
  9
$JOINSTYLE
280
     0
  9
$LWDISPLAY
290
     1
  9
$INSUNITS
 70
     4
  9
$HYPERLINKBASE
  1

  9
$STYLESHEET
  1

  9
$XEDIT
290
     1
  9
$CEPSNTYPE
380
     0
  9
$PSTYLEMODE
290
     1
  9
$FINGERPRINTGUID
  2
{554d35de-ab06-4928-a348-2aef29e66e84}
  9
$VERSIONGUID
  2
{FAEB1C32-E019-11D5-929B-00C0DF256EC4}
  9
$EXTNAMES
290
     1
  9
$PSVPSCALE
 40
0.0
  9
$OLESTARTUP
290
     0
  0
ENDSEC
  0
SECTION
  2
CLASSES
  0
CLASS
  1
ACDBDICTIONARYWDFLT
  2
AcDbDictionaryWithDefault
  3
ObjectDBX Classes
 90
        0
280
     0
281
     0
  0
CLASS
  1
VISUALSTYLE
  2
AcDbVisualStyle
  3
ObjectDBX Classes
 90
     4095
280
     0
281
     0
  0
CLASS
  1
MATERIAL
  2
AcDbMaterial
  3
ObjectDBX Classes
 90
     1153
280
     0
281
     0
  0
CLASS
  1
SCALE
  2
AcDbScale
  3
ObjectDBX Classes
 90
     1153
280
     0
281
     0
  0
CLASS
  1
TABLESTYLE
  2
AcDbTableStyle
  3
ObjectDBX Classes
 90
     4095
280
     0
281
     0
  0
CLASS
  1
MLEADERSTYLE
  2
AcDbMLeaderStyle
  3
ACDB_MLEADERSTYLE_CLASS
 90
     4095
280
     0
281
     0
  0
CLASS
  1
SUN
  2
AcDbSun
  3
SCENEOE
 90
     1153
280
     0
281
     0
  0
CLASS
  1
ACDBPLACEHOLDER
  2
AcDbPlaceHolder
  3
ObjectDBX Classes
 90
        0
280
     0
281
     0
  0
CLASS
  1
LAYOUT
  2
AcDbLayout
  3
ObjectDBX Classes
 90
        0
280
     0
281
     0
  0
ENDSEC
  0
SECTION
  2
TABLES
  0
TABLE
  2
VPORT
  5
8
330
0
100
AcDbSymbolTable
 70
     1
  0
VPORT
  5
29
330
8
100
AcDbSymbolTableRecord
100
AcDbViewportTableRecord
  2
*Active
 70
     0
 10
0.0
 20
0.0
 11
1.0
 21
1.0
 12
298.5
 22
210.0
 13
0.0
 23
0.0
 14
10.0
 24
10.0
 15
10.0
 25
10.0
 16
0.0
 26
0.0
 36
1.0
 17
0.0
 27
0.0
 37
0.0
 40
420.0
 41
1.4214285714
 42
50.0
 43
0.0
 44
0.0
 50
0.0
 51
0.0
 71
     0
 72
  2000
 73
     1
 74
     3
 75
     0
 76
     0
 77
     0
 78
     0
281
     0
 65
     1
110
0.0
120
0.0
130
0.0
111
1.0
121
0.0
131
0.0
112
0.0
122
1.0
132
0.0
 79
     0
146
0.0
  0
ENDTAB
  0
TABLE
  2
LTYPE
  5
5
330
0
100
AcDbSymbolTable
 70
     6
  0
LTYPE
  5
14
330
5
100
AcDbSymbolTableRecord
100
AcDbLinetypeTableRecord
  2
ByBlock
 70
     0
  3

 72
    65
 73
     0
 40
0.0
  0
LTYPE
  5
15
330
5
100
AcDbSymbolTableRecord
100
AcDbLinetypeTableRecord
  2
ByLayer
 70
     0
  3

 72
    65
 73
     0
 40
0.0
  0
LTYPE
  5
16
330
5
100
AcDbSymbolTableRecord
100
AcDbLinetypeTableRecord
  2
Continuous
 70
     0
  3
Solid line
 72
    65
 73
     0
 40
0.0
  0
LTYPE
  5
5E
330
5
100
AcDbSymbolTableRecord
100
AcDbLinetypeTableRecord
  2
HIDDEN
 70
     0
  3
Hidden __ __ __ __ __ __ __ __ __ __ __ __ __ __
 72
    65
 73
     2
 40
1.905
 49
1.27
 74
     0
 49
-0.635
 74
     0
  0
LTYPE
  5
5F
330
5
100
AcDbSymbolTableRecord
100
AcDbLinetypeTableRecord
  2
PHANTOM
 70
     0
  3
Phantom ______  __  __  ______  __  __  ______
 72
    65
 73
     6
 40
12.7
 49
6.35
 74
     0
 49
-1.27
 74
     0
 49
1.27
 74
     0
 49
-1.27
 74
     0
 49
1.27
 74
     0
 49
-1.27
 74
     0
  0
LTYPE
  5
60
330
5
100
AcDbSymbolTableRecord
100
AcDbLinetypeTableRecord
  2
CENTER
 70
     0
  3
Center ____ _ ____ _ ____ _ ____ _ ____ _ ____
 72
    65
 73
     4
 40
10.16
 49
6.35
 74
     0
 49
-1.27
 74
     0
 49
1.27
 74
     0
 49
-1.27
 74
     0
  0
LTYPE
  5
61
330
5
100
AcDbSymbolTableRecord
100
AcDbLinetypeTableRecord
  2
CENTERX2
 70
     0
  3
Center (2x) ________  __  ________  __  _____
 72
    65
 73
     4
 40
20.32
 49
12.7
 74
     0
 49
-2.54
 74
     0
 49
2.54
 74
     0
 49
-2.54
 74
     0
  0
LTYPE
  5
62
330
5
100
AcDbSymbolTableRecord
100
AcDbLinetypeTableRecord
  2
DOT2
 70
     0
  3
Dot (.5x) ........................................
 72
    65
 73
     2
 40
0.635
 49
0.0
 74
     0
 49
-0.635
 74
     0
  0
ENDTAB
  0
TABLE
  2
LAYER
  5
2
330
0
100
AcDbSymbolTable
 70
     1
  0
LAYER
  5
10
330
2
100
AcDbSymbolTableRecord
100
AcDbLayerTableRecord
  2
0
 70
     0
 62
     7
  6
Continuous
370
    -3
390
F
  0
ENDTAB
  0
TABLE
  2
STYLE
  5
3
330
0
100
AcDbSymbolTable
 70
     1
  0
STYLE
  5
11
330
3
100
AcDbSymbolTableRecord
100
AcDbTextStyleTableRecord
  2
Standard
 70
     0
 40
0.0
 41
1.0
 50
0.0
 71
     0
 42
3.5
  3
txt
  4

  0
ENDTAB
  0
TABLE
  2
VIEW
  5
6
330
0
100
AcDbSymbolTable
 70
     0
  0
ENDTAB
  0
TABLE
  2
UCS
  5
7
330
0
100
AcDbSymbolTable
 70
     0
  0
ENDTAB
  0
TABLE
  2
APPID
  5
9
330
0
100
AcDbSymbolTable
 70
     1
  0
APPID
  5
12
330
9
100
AcDbSymbolTableRecord
100
AcDbRegAppTableRecord
  2
ACAD
 70
     0
  0
ENDTAB
  0
TABLE
  2
DIMSTYLE
  5
A
330
0
100
AcDbSymbolTable
 70
     1
100
AcDbDimStyleTable
  0
DIMSTYLE
105
27
330
A
100
AcDbSymbolTableRecord
100
AcDbDimStyleTableRecord
  2
ISO-25
 70
     0
 41
2.5
 42
0.625
 43
3.75
 44
1.25
 73
     0
 74
     0
 77
     1
 78
     8
140
2.5
141
2.5
143
0.0393700787
147
0.625
171
     3
172
     1
178
     0
271
     2
272
     2
274
     3
278
    44
283
     0
284
     8
340
11
  0
ENDTAB
  0
TABLE
  2
BLOCK_RECORD
  5
1
330
0
100
AcDbSymbolTable
 70
     1
  0
BLOCK_RECORD
  5
1F
330
1
100
AcDbSymbolTableRecord
100
AcDbBlockTableRecord
  2
*Model_Space
340
22
  0
BLOCK_RECORD
  5
1B
330
1
100
AcDbSymbolTableRecord
100
AcDbBlockTableRecord
  2
*Paper_Space
340
1E
  0
BLOCK_RECORD
  5
23
330
1
100
AcDbSymbolTableRecord
100
AcDbBlockTableRecord
  2
*Paper_Space0
340
26
  0
ENDTAB
  0
ENDSEC
  0
SECTION
  2
BLOCKS
  0
BLOCK
  5
20
330
1F
100
AcDbEntity
  8
0
100
AcDbBlockBegin
  2
*Model_Space
 70
     0
 10
0.0
 20
0.0
 30
0.0
  3
*Model_Space
  1

  0
ENDBLK
  5
21
330
1F
100
AcDbEntity
  8
0
100
AcDbBlockEnd
  0
BLOCK
  5
1C
330
1B
100
AcDbEntity
 67
     1
  8
0
100
AcDbBlockBegin
  2
*Paper_Space
 70
     0
 10
0.0
 20
0.0
 30
0.0
  3
*Paper_Space
  1

  0
ENDBLK
  5
1D
330
1B
100
AcDbEntity
 67
     1
  8
0
100
AcDbBlockEnd
  0
BLOCK
  5
24
330
23
100
AcDbEntity
  8
0
100
AcDbBlockBegin
  2
*Paper_Space0
 70
     0
 10
0.0
 20
0.0
 30
0.0
  3
*Paper_Space0
  1

  0
ENDBLK
  5
25
330
23
100
AcDbEntity
  8
0
100
AcDbBlockEnd
  0
ENDSEC
  0
SECTION
  2
ENTITIES
  0
LINE
  5
63
330
1F
100
AcDbEntity
  8
0
  6
Continuous
 62
     7
100
AcDbLine
 10
124.4910276467
 20
199.0698615823
 30
0.0
 11
124.572500364
 21
199.0698615823
 31
0.0
  0
LINE
  5
64
330
1F
100
AcDbEntity
  8
0
  6
Continuous
 62
     7
100
AcDbLine
 10
124.4910276467
 20
199.0698615823
 30
0.0
 11
124.4910276467
 21
199.2328070169
 31
0.0
  0
LINE
  5
65
330
1F
100
AcDbEntity
  8
0
  6
Continuous
 62
     7
100
AcDbLine
 10
124.4910276467
 20
199.0698615823
 30
0.0
 11
124.572500364
 21
199.0698615823
 31
0.0
  0
LINE
  5
66
330
1F
100
AcDbEntity
  8
0
  6
Continuous
 62
     7
100
AcDbLine
 10
124.4910276467
 20
199.0698615823
 30
0.0
 11
124.4910276467
 21
199.2328070169
 31
0.0
  0
LINE
  5
67
330
1F
100
AcDbEntity
  8
0
  6
Continuous
 62
     7
100
AcDbLine
 10
124.4910276467
 20
199.0698615823
 30
0.0
 11
124.572500364
 21
199.0698615823
 31
0.0
  0
LINE
  5
68
330
1F
100
AcDbEntity
  8
0
  6
Continuous
 62
     7
100
AcDbLine
 10
124.4910276467
 20
199.0698615823
 30
0.0
 11
124.4910276467
 21
199.2328070169
 31
0.0
  0
POINT
  5
69
330
1F
100
AcDbEntity
  8
0
  6
Continuous
 62
     7
100
AcDbPoint
 10
124.4910276467
 20
199.0698615823
 30
0.0
  0
POINT
  5
6A
330
1F
100
AcDbEntity
  8
0
  6
Continuous
 62
     7
100
AcDbPoint
 10
124.4910276467
 20
199.0698615823
 30
0.0
  0
POINT
  5
6B
330
1F
100
AcDbEntity
  8
0
  6
Continuous
 62
     7
100
AcDbPoint
 10
124.4910276467
 20
199.0698615823
 30
0.0
  0
ELLIPSE
  5
6C
330
1F
100
AcDbEntity
  8
0
  6
Continuous
 62
     7
370
    25
100
AcDbEllipse
 10
110.9392669074
 20
229.068100843
 30
0.0
 11
0.07077529395353109
 21
0.0707752939535453
 31
0.0
210
0.0
220
0.0
230
1.0
 40
0.9990870284
 41
5.497939437029688
 42
7.068431177329155
  0
LINE
  5
6D
330
1F
100
AcDbEntity
  8
0
  6
Continuous
 62
     7
370
    25
100
AcDbLine
 10
110.939327834
 20
229.1681465391
 30
0.0
 11
107.8427274595
 21
229.1681465391
 31
0.0
  0
ELLIPSE
  5
6E
330
1F
100
AcDbEntity
  8
0
  6
Continuous
 62
     7
370
    25
100
AcDbEllipse
 10
99.042788386
 20
224.718100843
 30
0.0
 11
0.07077529395354533
 21
-0.07077529395351689
 31
0.0
210
0.0
220
0.0
230
1.0
 40
0.9990870284
 41
2.356346783439681
 42
3.926838523739518
  0
LINE
  5
6F
330
1F
100
AcDbEntity
  8
0
  6
Continuous
 62
     7
370
    25
100
AcDbLine
 10
98.9427426899
 20
224.7181617695
 30
0.0
 11
98.9427426899
 21
217.271561395
 31
0.0
  0
ELLIPSE
  5
70
330
1F
100
AcDbEntity
  8
0
  6
Continuous
 62
     7
370
    25
100
AcDbEllipse
 10
99.042788386
 20
217.2716223216
 30
0.0
 11
0.07077529395354533
 21
0.07077529395351689
 31
0.0
210
0.0
220
0.0
230
1.0
 40
0.9990870284
 41
2.356346783440316
 42
3.92683852373997
  0
LINE
  5
71
330
1F
100
AcDbEntity
  8
0
  6
Continuous
 62
     7
370
    25
100
AcDbLine
 10
99.0427274595
 20
217.1715766255
 30
0.0
 11
106.389327834
 21
217.1715766255
 31
0.0
  0
ELLIPSE
  5
72
330
1F
100
AcDbEntity
  8
0
  6
Continuous
 62
     7
370
    25
100
AcDbEllipse
 10
106.3892669074
 20
217.2716223216
 30
0.0
 11
0.07077529395354532
 21
-0.07077529395354532
 31
0.0
210
0.0
220
0.0
230
0.9999999999999998
 40
0.9990870284
 41
5.49793943702978
 42
7.068431177329265
  0
LINE
  5
73
330
1F
100
AcDbEntity
  8
0
  6
Continuous
 62
     7
370
    25
100
AcDbLine
 10
106.4893126035
 20
217.271561395
 30
0.0
 11
106.4893126035
 21
220.3681617695
 31
0.0
  0
ELLIPSE
  5
74
330
1F
100
AcDbEntity
  8
0
  6
Continuous
 62
     7
370
    25
100
AcDbEllipse
 10
106.3892669074
 20
220.368100843
 30
0.0
 11
0.07077529395353109
 21
0.0707752939535453
 31
0.0
210
0.0
220
0.0
230
1.0
 40
0.9990870284
 41
5.497939437029587
 42
7.068431177329256
  0
LINE
  5
75
330
1F
100
AcDbEntity
  8
0
  6
Continuous
 62
     7
370
    25
100
AcDbLine
 10
106.389327834
 20
220.4681465391
 30
0.0
 11
102.3392973731
 21
220.4681465391
 31
0.0
  0
LINE
  5
76
330
1F
100
AcDbEntity
  8
0
  6
Continuous
 62
     7
370
    25
100
AcDbLine
 10
102.2393126035
 20
220.5681313086
 30
0.0
 11
102.2393126035
 21
221.4215918559
 31
0.0
  0
LINE
  5
77
330
1F
100
AcDbEntity
  8
0
  6
Continuous
 62
     7
370
    25
100
AcDbLine
 10
102.3392973731
 20
221.5215766255
 30
0.0
 11
106.389327834
 21
221.5215766255
 31
0.0
  0
ELLIPSE
  5
78
330
1F
100
AcDbEntity
  8
0
  6
Continuous
 62
     7
370
    25
100
AcDbEllipse
 10
106.3892669074
 20
221.6216223216
 30
0.0
 11
0.07077529395354533
 21
-0.07077529395351689
 31
0.0
210
0.0
220
0.0
230
1.0
 40
0.9990870284
 41
5.497939437029781
 42
7.068431177329146
  0
LINE
  5
79
330
1F
100
AcDbEntity
  8
0
  6
Continuous
 62
     7
370
    25
100
AcDbLine
 10
106.4893126035
 20
221.621561395
 30
0.0
 11
106.4893126035
 21
224.7181617695
 31
0.0
  0
ELLIPSE
  5
7A
330
1F
100
AcDbEntity
  8
0
  6
Continuous
 62
     7
370
    25
100
AcDbEllipse
 10
106.3892669074
 20
224.718100843
 30
0.0
 11
0.07077529395354532
 21
0.07077529395354532
 31
0.0
210
0.0
220
0.0
230
0.9999999999999998
 40
0.9990870284
 41
5.497939437029537
 42
7.068431177329507
  0
ARC
  5
7B
330
1F
100
AcDbEntity
  8
0
  6
Continuous
 62
     7
370
    25
100
AcDbCircle
 10
111.1393330497
 20
221.4215561793
 30
0.0
 40
0.10002045249545
100
AcDbArc
 50
90.0204370164
 51
179.9795629836
  0
ELLIPSE
  5
7C
330
1F
100
AcDbEntity
  8
0
  6
Continuous
 62
     7
370
    25
100
AcDbEllipse
 10
94.492788386
 20
224.718100843
 30
0.0
 11
0.07077529395354533
 21
-0.07077529395351689
 31
0.0
210
0.0
220
0.0
230
1.0
 40
0.9990870284
 41
2.356346783439681
 42
3.926838523739518
  0
ARC
  5
7D
330
1F
100
AcDbEntity
  8
0
  6
Continuous
 62
     7
370
    25
100
AcDbCircle
 10
111.9653960339
 20
221.4215597811
 30
0.0
 40
0.1000168457737757
100
AcDbArc
 50
35.0095651324
 51
89.9904348676
  0
ELLIPSE
  5
7E
330
1F
100
AcDbEntity
  8
0
  6
Continuous
 62
     7
370
    25
100
AcDbEllipse
 10
94.492788386
 20
217.2716223216
 30
0.0
 11
0.07077529395354533
 21
0.07077529395351689
 31
0.0
210
0.0
220
0.0
230
1.0
 40
0.9990870284
 41
2.356346783440316
 42
3.92683852373997
  0
LINE
  5
7F
330
1F
100
AcDbEntity
  8
0
  6
Continuous
 62
     7
370
    25
100
AcDbLine
 10
94.4927274595
 20
217.1715766255
 30
0.0
 11
97.589327834
 21
217.1715766255
 31
0.0
  0
ELLIPSE
  5
80
330
1F
100
AcDbEntity
  8
0
  6
Continuous
 62
     7
370
    25
100
AcDbEllipse
 10
97.5892669074
 20
217.2716223216
 30
0.0
 11
0.07077529395353109
 21
-0.0707752939535453
 31
0.0
210
0.0
220
0.0
230
1.0
 40
0.9990870284
 41
5.497939437029738
 42
7.068431177329365
  0
LINE
  5
81
330
1F
100
AcDbEntity
  8
0
  6
Continuous
 62
     7
370
    25
100
AcDbLine
 10
97.6893126035
 20
217.271561395
 30
0.0
 11
97.6893126035
 21
224.7181617695
 31
0.0
  0
ELLIPSE
  5
82
330
1F
100
AcDbEntity
  8
0
  6
Continuous
 62
     7
370
    25
100
AcDbEllipse
 10
97.5892669074
 20
224.718100843
 30
0.0
 11
0.07077529395353109
 21
0.0707752939535453
 31
0.0
210
0.0
220
0.0
230
1.0
 40
0.9990870284
 41
5.497939437029487
 42
7.068431177329499
  0
LINE
  5
83
330
1F
100
AcDbEntity
  8
0
  6
Continuous
 62
     7
370
    25
100
AcDbLine
 10
97.589327834
 20
224.8181465391
 30
0.0
 11
94.4927274595
 21
224.8181465391
 31
0.0
  0
ARC
  5
84
330
1F
100
AcDbEntity
  8
0
  6
Continuous
 62
     7
370
    25
100
AcDbCircle
 10
115.0097881944
 20
223.1698615823
 30
0.0
 40
0.1000180233905315
100
AcDbArc
 50
145.0133376101
 51
214.9866623899
  0
LINE
  5
85
330
1F
100
AcDbEntity
  8
0
  6
Continuous
 62
     7
370
    25
100
AcDbLine
 10
106.4893126035
 20
225.971561395
 30
0.0
 11
106.4893126035
 21
229.0681617695
 31
0.0
  0
ELLIPSE
  5
86
330
1F
100
AcDbEntity
  8
0
  6
Continuous
 62
     7
370
    25
100
AcDbEllipse
 10
106.3892669074
 20
229.068100843
 30
0.0
 11
0.07077529395354532
 21
0.07077529395357375
 31
0.0
210
0.0
220
0.0
230
1.0
 40
0.9990870284
 41
5.497939437029338
 42
7.068431177329306
  0
LINE
  5
87
330
1F
100
AcDbEntity
  8
0
  6
Continuous
 62
     7
370
    25
100
AcDbLine
 10
106.389327834
 20
229.1681465391
 30
0.0
 11
99.0427274595
 21
229.1681465391
 31
0.0
  0
ELLIPSE
  5
88
330
1F
100
AcDbEntity
  8
0
  6
Continuous
 62
     7
370
    25
100
AcDbEllipse
 10
107.842788386
 20
229.068100843
 30
0.0
 11
0.07077529395353109
 21
-0.07077529395351688
 31
0.0
210
0.0
220
0.0
230
0.9999999999999998
 40
0.9990870284
 41
2.356346783439931
 42
3.926838523739468
  0
LINE
  5
89
330
1F
100
AcDbEntity
  8
0
  6
Continuous
 62
     7
370
    25
100
AcDbLine
 10
107.7427426899
 20
229.0681617695
 30
0.0
 11
107.7427426899
 21
217.271561395
 31
0.0
  0
ARC
  5
8A
330
1F
100
AcDbEntity
  8
0
  6
Continuous
 62
     7
370
    25
100
AcDbCircle
 10
111.9653960339
 20
224.9181633834
 30
0.0
 40
0.1000168457735427
100
AcDbArc
 50
270.0095651323
 51
324.9904348677
  0
LINE
  5
8B
330
1F
100
AcDbEntity
  8
0
  6
Continuous
 62
     7
370
    25
100
AcDbLine
 10
107.8427274595
 20
217.1715766255
 30
0.0
 11
110.939327834
 21
217.1715766255
 31
0.0
  0
ARC
  5
8C
330
1F
100
AcDbEntity
  8
0
  6
Continuous
 62
     7
370
    25
100
AcDbCircle
 10
111.1393330497
 20
224.9181669852
 30
0.0
 40
0.1000204524955353
100
AcDbArc
 50
180.0204370164
 51
269.9795629836
  0
LINE
  5
8D
330
1F
100
AcDbEntity
  8
0
  6
Continuous
 62
     7
370
    25
100
AcDbLine
 10
111.0393126035
 20
217.271561395
 30
0.0
 11
111.0393126035
 21
221.4215918559
 31
0.0
  0
LINE
  5
8E
330
1F
100
AcDbEntity
  8
0
  6
Continuous
 62
     7
370
    25
100
AcDbLine
 10
111.1392973731
 20
221.5215766255
 30
0.0
 11
111.965412731
 21
221.5215766255
 31
0.0
  0
LINE
  5
8F
330
1F
100
AcDbEntity
  8
0
  6
Continuous
 62
     7
370
    25
100
AcDbLine
 10
112.0473154594
 20
221.4789407637
 30
0.0
 11
115.033510347
 21
217.2142124872
 31
0.0
  0
ELLIPSE
  5
90
330
1F
100
AcDbEntity
  8
0
  6
Continuous
 62
     7
370
    25
100
AcDbEllipse
 10
115.1154447917
 20
217.2716223216
 30
0.0
 11
0.04620167842820422
 21
0.08875259849659756
 31
0.0
210
0.0
220
0.0
230
1.0
 40
0.9994195643
 41
2.661706392538725
 42
3.621478914641424
  0
LINE
  5
91
330
1F
100
AcDbEntity
  8
0
  6
Continuous
 62
     7
370
    25
100
AcDbLine
 10
115.1154130754
 20
217.1715766255
 30
0.0
 11
118.8956641242
 21
217.1715766255
 31
0.0
  0
ELLIPSE
  5
92
330
1F
100
AcDbEntity
  8
0
  6
Continuous
 62
     7
370
    25
100
AcDbEllipse
 10
118.8955470853
 20
217.2716223216
 30
0.0
 11
0.08889110078122543
 21
-0.04627377815401702
 31
0.0
210
0.0
220
0.0
230
0.9999999999999999
 40
0.9978623567
 41
5.192647017398059
 42
7.373723596961813
  0
LINE
  5
93
330
1F
100
AcDbEntity
  8
0
  6
Continuous
 62
     7
370
    25
100
AcDbLine
 10
118.9775668525
 20
217.3289103028
 30
0.0
 11
114.9278448739
 21
223.1125126745
 31
0.0
  0
LINE
  5
94
330
1F
100
AcDbEntity
  8
0
  6
Continuous
 62
     7
370
    25
100
AcDbLine
 10
114.9278448739
 20
223.22721049
 30
0.0
 11
118.9775668525
 21
229.0108128618
 31
0.0
  0
ELLIPSE
  5
95
330
1F
100
AcDbEntity
  8
0
  6
Continuous
 62
     7
370
    25
100
AcDbEllipse
 10
118.8955470853
 20
229.068100843
 30
0.0
 11
0.08889110078121121
 21
0.04627377815401701
 31
0.0
210
0.0
220
0.0
230
0.9999999999999999
 40
0.9978623567
 41
5.192647017397846
 42
7.373723596961048
  0
LINE
  5
96
330
1F
100
AcDbEntity
  8
0
  6
Continuous
 62
     7
370
    25
100
AcDbLine
 10
118.8956641242
 20
229.1681465391
 30
0.0
 11
115.1154130754
 21
229.1681465391
 31
0.0
  0
ELLIPSE
  5
97
330
1F
100
AcDbEntity
  8
0
  6
Continuous
 62
     7
370
    25
100
AcDbEllipse
 10
115.1154447917
 20
229.068100843
 30
0.0
 11
-0.04620167842817579
 21
0.0887525984966544
 31
0.0
210
0.0
220
0.0
230
0.9999999999999999
 40
0.9994195643
 41
5.803299046128345
 42
6.763071568231089
  0
ARC
  5
98
330
1F
100
AcDbEntity
  8
0
  6
Continuous
 62
     7
370
    25
100
AcDbCircle
 10
102.3393330497
 20
220.5681669852
 30
0.0
 40
0.1000204524954784
100
AcDbArc
 50
180.0204370164
 51
269.9795629836
  0
LINE
  5
99
330
1F
100
AcDbEntity
  8
0
  6
Continuous
 62
     7
370
    25
100
AcDbLine
 10
111.965412731
 20
224.8181465391
 30
0.0
 11
111.1392973731
 21
224.8181465391
 31
0.0
  0
ARC
  5
9A
330
1F
100
AcDbEntity
  8
0
  6
Continuous
 62
     7
370
    25
100
AcDbCircle
 10
102.3393330497
 20
221.4215561793
 30
0.0
 40
0.1000204524954927
100
AcDbArc
 50
90.0204370164
 51
179.9795629836
  0
LINE
  5
9B
330
1F
100
AcDbEntity
  8
0
  6
Continuous
 62
     7
370
    25
100
AcDbLine
 10
99.0427274595
 20
225.8715766255
 30
0.0
 11
106.389327834
 21
225.8715766255
 31
0.0
  0
ELLIPSE
  5
9C
330
1F
100
AcDbEntity
  8
0
  6
Continuous
 62
     7
370
    25
100
AcDbEllipse
 10
106.3892669074
 20
225.9716223216
 30
0.0
 11
0.07077529395354533
 21
-0.07077529395351689
 31
0.0
210
0.0
220
0.0
230
1.0
 40
0.9990870284
 41
5.497939437029781
 42
7.068431177329431
  0
LINE
  5
9D
330
1F
100
AcDbEntity
  8
0
  6
Continuous
 62
     7
370
    25
100
AcDbLine
 10
94.3927426899
 20
229.0681617695
 30
0.0
 11
94.3927426899
 21
225.971561395
 31
0.0
  0
ELLIPSE
  5
9E
330
1F
100
AcDbEntity
  8
0
  6
Continuous
 62
     7
370
    25
100
AcDbEllipse
 10
94.492788386
 20
225.9716223216
 30
0.0
 11
0.07077529395354532
 21
0.07077529395357375
 31
0.0
210
0.0
220
0.0
230
1.0
 40
0.9990870284
 41
2.356346783439246
 42
3.926838523739668
  0
LINE
  5
9F
330
1F
100
AcDbEntity
  8
0
  6
Continuous
 62
     7
370
    25
100
AcDbLine
 10
94.4927274595
 20
225.8715766255
 30
0.0
 11
97.589327834
 21
225.8715766255
 31
0.0
  0
ELLIPSE
  5
A0
330
1F
100
AcDbEntity
  8
0
  6
Continuous
 62
     7
370
    25
100
AcDbEllipse
 10
97.5892669074
 20
225.9716223216
 30
0.0
 11
0.07077529395353109
 21
-0.07077529395351688
 31
0.0
210
0.0
220
0.0
230
0.9999999999999998
 40
0.9990870284
 41
5.497939437029738
 42
7.068431177329531
  0
LINE
  5
A1
330
1F
100
AcDbEntity
  8
0
  6
Continuous
 62
     7
370
    25
100
AcDbLine
 10
97.6893126035
 20
225.971561395
 30
0.0
 11
97.6893126035
 21
229.0681617695
 31
0.0
  0
ELLIPSE
  5
A2
330
1F
100
AcDbEntity
  8
0
  6
Continuous
 62
     7
370
    25
100
AcDbEllipse
 10
107.842788386
 20
217.2716223216
 30
0.0
 11
0.07077529395353109
 21
0.07077529395351688
 31
0.0
210
0.0
220
0.0
230
0.9999999999999998
 40
0.9990870284
 41
2.356346783440316
 42
3.926838523739769
  0
LINE
  5
A3
330
1F
100
AcDbEntity
  8
0
  6
Continuous
 62
     7
370
    25
100
AcDbLine
 10
97.589327834
 20
229.1681465391
 30
0.0
 11
94.4927274595
 21
229.1681465391
 31
0.0
  0
ELLIPSE
  5
A4
330
1F
100
AcDbEntity
  8
0
  6
Continuous
 62
     7
370
    25
100
AcDbEllipse
 10
110.9392669074
 20
217.2716223216
 30
0.0
 11
0.07077529395353109
 21
-0.0707752939535453
 31
0.0
210
0.0
220
0.0
230
1.0
 40
0.9990870284
 41
5.49793943702988
 42
7.068431177329365
  0
LINE
  5
A5
330
1F
100
AcDbEntity
  8
0
  6
Continuous
 62
     7
370
    25
100
AcDbLine
 10
98.9427426899
 20
229.0681617695
 30
0.0
 11
98.9427426899
 21
225.971561395
 31
0.0
  0
ELLIPSE
  5
A6
330
1F
100
AcDbEntity
  8
0
  6
Continuous
 62
     7
370
    25
100
AcDbEllipse
 10
99.042788386
 20
225.9716223216
 30
0.0
 11
0.07077529395354532
 21
0.07077529395357375
 31
0.0
210
0.0
220
0.0
230
1.0
 40
0.9990870284
 41
2.356346783439246
 42
3.926838523739668
  0
ELLIPSE
  5
A7
330
1F
100
AcDbEntity
  8
0
  6
Continuous
 62
     7
370
    25
100
AcDbEllipse
 10
94.492788386
 20
229.068100843
 30
0.0
 11
0.07077529395354533
 21
-0.07077529395351689
 31
0.0
210
0.0
220
0.0
230
1.0
 40
0.9990870284
 41
2.356346783439781
 42
3.926838523739418
  0
ELLIPSE
  5
A8
330
1F
100
AcDbEntity
  8
0
  6
Continuous
 62
     7
370
    25
100
AcDbEllipse
 10
97.5892669074
 20
229.068100843
 30
0.0
 11
0.0707752939535311
 21
0.07077529395357372
 31
0.0
210
0.0
220
0.0
230
1.0
 40
0.9990870284
 41
5.497939437029286
 42
7.068431177329297
  0
LINE
  5
A9
330
1F
100
AcDbEntity
  8
0
  6
Continuous
 62
     7
370
    25
100
AcDbLine
 10
94.3927426899
 20
224.7181617695
 30
0.0
 11
94.3927426899
 21
217.271561395
 31
0.0
  0
ELLIPSE
  5
AA
330
1F
100
AcDbEntity
  8
0
  6
Continuous
 62
     7
370
    25
100
AcDbEllipse
 10
99.042788386
 20
229.068100843
 30
0.0
 11
0.07077529395354533
 21
-0.07077529395351689
 31
0.0
210
0.0
220
0.0
230
1.0
 40
0.9990870284
 41
2.356346783439781
 42
3.926838523739418
  0
LINE
  5
AB
330
1F
100
AcDbEntity
  8
0
  6
Continuous
 62
     7
370
    25
100
AcDbLine
 10
111.0393126035
 20
224.9181313086
 30
0.0
 11
111.0393126035
 21
229.0681617695
 31
0.0
  0
LINE
  5
AC
330
1F
100
AcDbEntity
  8
0
  6
Continuous
 62
     7
370
    25
100
AcDbLine
 10
106.389327834
 20
224.8181465391
 30
0.0
 11
99.0427274595
 21
224.8181465391
 31
0.0
  0
LINE
  5
AD
330
1F
100
AcDbEntity
  8
0
  6
Continuous
 62
     7
370
    25
100
AcDbLine
 10
115.033510347
 20
229.1255106773
 30
0.0
 11
112.0473154594
 21
224.8607824008
 31
0.0
  0
ARC
  5
AE
330
1F
100
AcDbEntity
  8
0
  6
Continuous
 62
     7
370
    25
100
AcDbCircle
 10
118.8954606166
 20
229.0680558302
 30
0.0
 40
0.100029819676248
100
AcDbArc
 50
325.0495281873
 51
89.9504718127
  0
LINE
  5
AF
330
1F
100
AcDbEntity
  8
0
  6
Continuous
 62
     7
370
    25
100
AcDbLine
 10
118.8955470853
 20
229.1680856125
 30
0.0
 11
118.8956641242
 21
229.1681465391
 31
0.0
  0
LINE
  5
B0
330
1F
100
AcDbEntity
  8
0
  6
Continuous
 62
     7
370
    25
100
AcDbLine
 10
118.9775668525
 20
229.0108128618
 30
0.0
 11
118.9774498137
 21
229.0107519352
 31
0.0
  0
ARC
  5
B1
330
1F
100
AcDbEntity
  8
0
  6
Continuous
 62
     7
370
    25
100
AcDbCircle
 10
118.8954606166
 20
217.2716673343
 30
0.0
 40
0.100029819676248
100
AcDbArc
 50
270.0495281872
 51
34.9504718128
  0
LINE
  5
B2
330
1F
100
AcDbEntity
  8
0
  6
Continuous
 62
     7
370
    25
100
AcDbLine
 10
118.9774498137
 20
217.3289712293
 30
0.0
 11
118.9775668525
 21
217.3289103028
 31
0.0
  0
LINE
  5
B3
330
1F
100
AcDbEntity
  8
0
  6
Continuous
 62
     7
370
    25
100
AcDbLine
 10
118.8956641242
 20
217.1715766255
 30
0.0
 11
118.8955470853
 21
217.171637552
 31
0.0
  0
ARC
  5
B4
330
1F
100
AcDbEntity
  8
0
  6
Continuous
 62
     7
370
    25
100
AcDbCircle
 10
94.4928240627
 20
224.7180651663
 30
0.0
 40
0.10002045249545
100
AcDbArc
 50
90.0204370164
 51
179.9795629836
  0
LINE
  5
B5
330
1F
100
AcDbEntity
  8
0
  6
Continuous
 62
     7
370
    25
100
AcDbLine
 10
94.3928036165
 20
224.718100843
 30
0.0
 11
94.3927426899
 21
224.7181617695
 31
0.0
  0
LINE
  5
B6
330
1F
100
AcDbEntity
  8
0
  6
Continuous
 62
     7
370
    25
100
AcDbLine
 10
94.4927274595
 20
224.8181465391
 30
0.0
 11
94.492788386
 21
224.8180856125
 31
0.0
  0
ARC
  5
B7
330
1F
100
AcDbEntity
  8
0
  6
Continuous
 62
     7
370
    25
100
AcDbCircle
 10
99.0428240627
 20
229.0680651663
 30
0.0
 40
0.1000204524955495
100
AcDbArc
 50
90.0204370164
 51
179.9795629836
  0
LINE
  5
B8
330
1F
100
AcDbEntity
  8
0
  6
Continuous
 62
     7
370
    25
100
AcDbLine
 10
98.9428036165
 20
229.068100843
 30
0.0
 11
98.9427426899
 21
229.0681617695
 31
0.0
  0
LINE
  5
B9
330
1F
100
AcDbEntity
  8
0
  6
Continuous
 62
     7
370
    25
100
AcDbLine
 10
99.0427274595
 20
229.1681465391
 30
0.0
 11
99.042788386
 21
229.1680856125
 31
0.0
  0
ARC
  5
BA
330
1F
100
AcDbEntity
  8
0
  6
Continuous
 62
     7
370
    25
100
AcDbCircle
 10
107.8428240627
 20
229.0680651663
 30
0.0
 40
0.1000204524955353
100
AcDbArc
 50
90.0204370164
 51
179.9795629836
  0
LINE
  5
BB
330
1F
100
AcDbEntity
  8
0
  6
Continuous
 62
     7
370
    25
100
AcDbLine
 10
107.7428036165
 20
229.068100843
 30
0.0
 11
107.7427426899
 21
229.0681617695
 31
0.0
  0
LINE
  5
BC
330
1F
100
AcDbEntity
  8
0
  6
Continuous
 62
     7
370
    25
100
AcDbLine
 10
107.8427274595
 20
229.1681465391
 30
0.0
 11
107.842788386
 21
229.1680856125
 31
0.0
  0
ARC
  5
BD
330
1F
100
AcDbEntity
  8
0
  6
Continuous
 62
     7
370
    25
100
AcDbCircle
 10
107.8428240627
 20
217.2716579982
 30
0.0
 40
0.1000204524955922
100
AcDbArc
 50
180.0204370165
 51
269.9795629836
  0
LINE
  5
BE
330
1F
100
AcDbEntity
  8
0
  6
Continuous
 62
     7
370
    25
100
AcDbLine
 10
107.842788386
 20
217.171637552
 30
0.0
 11
107.8427274595
 21
217.1715766255
 31
0.0
  0
LINE
  5
BF
330
1F
100
AcDbEntity
  8
0
  6
Continuous
 62
     7
370
    25
100
AcDbLine
 10
107.7427426899
 20
217.271561395
 30
0.0
 11
107.7428036165
 21
217.2716223216
 31
0.0
  0
ARC
  5
C0
330
1F
100
AcDbEntity
  8
0
  6
Continuous
 62
     7
370
    25
100
AcDbCircle
 10
94.4928240627
 20
217.2716579982
 30
0.0
 40
0.1000204524955922
100
AcDbArc
 50
180.0204370165
 51
269.9795629836
  0
LINE
  5
C1
330
1F
100
AcDbEntity
  8
0
  6
Continuous
 62
     7
370
    25
100
AcDbLine
 10
94.492788386
 20
217.171637552
 30
0.0
 11
94.4927274595
 21
217.1715766255
 31
0.0
  0
LINE
  5
C2
330
1F
100
AcDbEntity
  8
0
  6
Continuous
 62
     7
370
    25
100
AcDbLine
 10
94.3927426899
 20
217.271561395
 30
0.0
 11
94.3928036165
 21
217.2716223216
 31
0.0
  0
ARC
  5
C3
330
1F
100
AcDbEntity
  8
0
  6
Continuous
 62
     7
370
    25
100
AcDbCircle
 10
99.0428240627
 20
224.7180651663
 30
0.0
 40
0.10002045249545
100
AcDbArc
 50
90.0204370164
 51
179.9795629836
  0
LINE
  5
C4
330
1F
100
AcDbEntity
  8
0
  6
Continuous
 62
     7
370
    25
100
AcDbLine
 10
98.9428036165
 20
224.718100843
 30
0.0
 11
98.9427426899
 21
224.7181617695
 31
0.0
  0
LINE
  5
C5
330
1F
100
AcDbEntity
  8
0
  6
Continuous
 62
     7
370
    25
100
AcDbLine
 10
99.0427274595
 20
224.8181465391
 30
0.0
 11
99.042788386
 21
224.8180856125
 31
0.0
  0
ARC
  5
C6
330
1F
100
AcDbEntity
  8
0
  6
Continuous
 62
     7
370
    25
100
AcDbCircle
 10
97.5892312308
 20
229.0680651663
 30
0.0
 40
0.1000204524954785
100
AcDbArc
 50
0.0204370164
 51
89.9795629836
  0
LINE
  5
C7
330
1F
100
AcDbEntity
  8
0
  6
Continuous
 62
     7
370
    25
100
AcDbLine
 10
97.5892669074
 20
229.1680856125
 30
0.0
 11
97.589327834
 21
229.1681465391
 31
0.0
  0
LINE
  5
C8
330
1F
100
AcDbEntity
  8
0
  6
Continuous
 62
     7
370
    25
100
AcDbLine
 10
97.6893126035
 20
229.0681617695
 30
0.0
 11
97.689251677
 21
229.068100843
 31
0.0
  0
ARC
  5
C9
330
1F
100
AcDbEntity
  8
0
  6
Continuous
 62
     7
370
    25
100
AcDbCircle
 10
99.0428240627
 20
217.2716579982
 30
0.0
 40
0.1000204524955922
100
AcDbArc
 50
180.0204370165
 51
269.9795629836
  0
LINE
  5
CA
330
1F
100
AcDbEntity
  8
0
  6
Continuous
 62
     7
370
    25
100
AcDbLine
 10
99.042788386
 20
217.171637552
 30
0.0
 11
99.0427274595
 21
217.1715766255
 31
0.0
  0
LINE
  5
CB
330
1F
100
AcDbEntity
  8
0
  6
Continuous
 62
     7
370
    25
100
AcDbLine
 10
98.9427426899
 20
217.271561395
 30
0.0
 11
98.9428036165
 21
217.2716223216
 31
0.0
  0
ARC
  5
CC
330
1F
100
AcDbEntity
  8
0
  6
Continuous
 62
     7
370
    25
100
AcDbCircle
 10
99.0428240627
 20
225.9716579982
 30
0.0
 40
0.1000204524955637
100
AcDbArc
 50
180.0204370165
 51
269.9795629836
  0
LINE
  5
CD
330
1F
100
AcDbEntity
  8
0
  6
Continuous
 62
     7
370
    25
100
AcDbLine
 10
99.042788386
 20
225.871637552
 30
0.0
 11
99.0427274595
 21
225.8715766255
 31
0.0
  0
LINE
  5
CE
330
1F
100
AcDbEntity
  8
0
  6
Continuous
 62
     7
370
    25
100
AcDbLine
 10
98.9427426899
 20
225.971561395
 30
0.0
 11
98.9428036165
 21
225.9716223216
 31
0.0
  0
ARC
  5
CF
330
1F
100
AcDbEntity
  8
0
  6
Continuous
 62
     7
370
    25
100
AcDbCircle
 10
106.3892312308
 20
225.9716579982
 30
0.0
 40
0.1000204524954784
100
AcDbArc
 50
270.0204370164
 51
359.9795629836
  0
LINE
  5
D0
330
1F
100
AcDbEntity
  8
0
  6
Continuous
 62
     7
370
    25
100
AcDbLine
 10
106.489251677
 20
225.9716223216
 30
0.0
 11
106.4893126035
 21
225.971561395
 31
0.0
  0
LINE
  5
D1
330
1F
100
AcDbEntity
  8
0
  6
Continuous
 62
     7
370
    25
100
AcDbLine
 10
106.389327834
 20
225.8715766255
 30
0.0
 11
106.3892669074
 21
225.871637552
 31
0.0
  0
ARC
  5
D2
330
1F
100
AcDbEntity
  8
0
  6
Continuous
 62
     7
370
    25
100
AcDbCircle
 10
106.3892312308
 20
217.2716579982
 30
0.0
 40
0.1000204524954784
100
AcDbArc
 50
270.0204370164
 51
359.9795629836
  0
LINE
  5
D3
330
1F
100
AcDbEntity
  8
0
  6
Continuous
 62
     7
370
    25
100
AcDbLine
 10
106.489251677
 20
217.2716223216
 30
0.0
 11
106.4893126035
 21
217.271561395
 31
0.0
  0
LINE
  5
D4
330
1F
100
AcDbEntity
  8
0
  6
Continuous
 62
     7
370
    25
100
AcDbLine
 10
106.389327834
 20
217.1715766255
 30
0.0
 11
106.3892669074
 21
217.171637552
 31
0.0
  0
ARC
  5
D5
330
1F
100
AcDbEntity
  8
0
  6
Continuous
 62
     7
370
    25
100
AcDbCircle
 10
106.3892312308
 20
229.0680651663
 30
0.0
 40
0.10002045249545
100
AcDbArc
 50
0.0204370163
 51
89.9795629836
  0
LINE
  5
D6
330
1F
100
AcDbEntity
  8
0
  6
Continuous
 62
     7
370
    25
100
AcDbLine
 10
106.3892669074
 20
229.1680856125
 30
0.0
 11
106.389327834
 21
229.1681465391
 31
0.0
  0
LINE
  5
D7
330
1F
100
AcDbEntity
  8
0
  6
Continuous
 62
     7
370
    25
100
AcDbLine
 10
106.4893126035
 20
229.0681617695
 30
0.0
 11
106.489251677
 21
229.068100843
 31
0.0
  0
ARC
  5
D8
330
1F
100
AcDbEntity
  8
0
  6
Continuous
 62
     7
370
    25
100
AcDbCircle
 10
94.4928240627
 20
229.0680651663
 30
0.0
 40
0.1000204524955637
100
AcDbArc
 50
90.0204370164
 51
179.9795629836
  0
LINE
  5
D9
330
1F
100
AcDbEntity
  8
0
  6
Continuous
 62
     7
370
    25
100
AcDbLine
 10
94.3928036165
 20
229.068100843
 30
0.0
 11
94.3927426899
 21
229.0681617695
 31
0.0
  0
LINE
  5
DA
330
1F
100
AcDbEntity
  8
0
  6
Continuous
 62
     7
370
    25
100
AcDbLine
 10
94.4927274595
 20
229.1681465391
 30
0.0
 11
94.492788386
 21
229.1680856125
 31
0.0
  0
ARC
  5
DB
330
1F
100
AcDbEntity
  8
0
  6
Continuous
 62
     7
370
    25
100
AcDbCircle
 10
94.4928240627
 20
225.9716579982
 30
0.0
 40
0.1000204524955353
100
AcDbArc
 50
180.0204370164
 51
269.9795629836
  0
LINE
  5
DC
330
1F
100
AcDbEntity
  8
0
  6
Continuous
 62
     7
370
    25
100
AcDbLine
 10
94.492788386
 20
225.871637552
 30
0.0
 11
94.4927274595
 21
225.8715766255
 31
0.0
  0
LINE
  5
DD
330
1F
100
AcDbEntity
  8
0
  6
Continuous
 62
     7
370
    25
100
AcDbLine
 10
94.3927426899
 20
225.971561395
 30
0.0
 11
94.3928036165
 21
225.9716223216
 31
0.0
  0
ARC
  5
DE
330
1F
100
AcDbEntity
  8
0
  6
Continuous
 62
     7
370
    25
100
AcDbCircle
 10
97.5892312308
 20
224.7180651663
 30
0.0
 40
0.1000204524955211
100
AcDbArc
 50
0.0204370164
 51
89.9795629836
  0
LINE
  5
DF
330
1F
100
AcDbEntity
  8
0
  6
Continuous
 62
     7
370
    25
100
AcDbLine
 10
97.5892669074
 20
224.8180856125
 30
0.0
 11
97.589327834
 21
224.8181465391
 31
0.0
  0
LINE
  5
E0
330
1F
100
AcDbEntity
  8
0
  6
Continuous
 62
     7
370
    25
100
AcDbLine
 10
97.6893126035
 20
224.7181617695
 30
0.0
 11
97.689251677
 21
224.718100843
 31
0.0
  0
ARC
  5
E1
330
1F
100
AcDbEntity
  8
0
  6
Continuous
 62
     7
370
    25
100
AcDbCircle
 10
97.5892312308
 20
225.9716579982
 30
0.0
 40
0.1000204524954785
100
AcDbArc
 50
270.0204370164
 51
359.9795629836
  0
LINE
  5
E2
330
1F
100
AcDbEntity
  8
0
  6
Continuous
 62
     7
370
    25
100
AcDbLine
 10
97.689251677
 20
225.9716223216
 30
0.0
 11
97.6893126035
 21
225.971561395
 31
0.0
  0
LINE
  5
E3
330
1F
100
AcDbEntity
  8
0
  6
Continuous
 62
     7
370
    25
100
AcDbLine
 10
97.589327834
 20
225.8715766255
 30
0.0
 11
97.5892669074
 21
225.871637552
 31
0.0
  0
ARC
  5
E4
330
1F
100
AcDbEntity
  8
0
  6
Continuous
 62
     7
370
    25
100
AcDbCircle
 10
106.3892312308
 20
221.6216579982
 30
0.0
 40
0.10002045249545
100
AcDbArc
 50
270.0204370164
 51
359.9795629836
  0
LINE
  5
E5
330
1F
100
AcDbEntity
  8
0
  6
Continuous
 62
     7
370
    25
100
AcDbLine
 10
106.489251677
 20
221.6216223216
 30
0.0
 11
106.4893126035
 21
221.621561395
 31
0.0
  0
LINE
  5
E6
330
1F
100
AcDbEntity
  8
0
  6
Continuous
 62
     7
370
    25
100
AcDbLine
 10
106.389327834
 20
221.5215766255
 30
0.0
 11
106.3892669074
 21
221.521637552
 31
0.0
  0
ARC
  5
E7
330
1F
100
AcDbEntity
  8
0
  6
Continuous
 62
     7
370
    25
100
AcDbCircle
 10
97.5892312308
 20
217.2716579982
 30
0.0
 40
0.1000204524955069
100
AcDbArc
 50
270.0204370164
 51
359.9795629836
  0
LINE
  5
E8
330
1F
100
AcDbEntity
  8
0
  6
Continuous
 62
     7
370
    25
100
AcDbLine
 10
97.689251677
 20
217.2716223216
 30
0.0
 11
97.6893126035
 21
217.271561395
 31
0.0
  0
LINE
  5
E9
330
1F
100
AcDbEntity
  8
0
  6
Continuous
 62
     7
370
    25
100
AcDbLine
 10
97.589327834
 20
217.1715766255
 30
0.0
 11
97.5892669074
 21
217.171637552
 31
0.0
  0
ARC
  5
EA
330
1F
100
AcDbEntity
  8
0
  6
Continuous
 62
     7
370
    25
100
AcDbCircle
 10
106.3892312308
 20
224.7180651663
 30
0.0
 40
0.1000204524955069
100
AcDbArc
 50
0.0204370164
 51
89.9795629836
  0
LINE
  5
EB
330
1F
100
AcDbEntity
  8
0
  6
Continuous
 62
     7
370
    25
100
AcDbLine
 10
106.3892669074
 20
224.8180856125
 30
0.0
 11
106.389327834
 21
224.8181465391
 31
0.0
  0
LINE
  5
EC
330
1F
100
AcDbEntity
  8
0
  6
Continuous
 62
     7
370
    25
100
AcDbLine
 10
106.4893126035
 20
224.7181617695
 30
0.0
 11
106.489251677
 21
224.718100843
 31
0.0
  0
ARC
  5
ED
330
1F
100
AcDbEntity
  8
0
  6
Continuous
 62
     7
370
    25
100
AcDbCircle
 10
106.3892312308
 20
220.3680651663
 30
0.0
 40
0.1000204524954216
100
AcDbArc
 50
0.0204370163
 51
89.9795629836
  0
LINE
  5
EE
330
1F
100
AcDbEntity
  8
0
  6
Continuous
 62
     7
370
    25
100
AcDbLine
 10
106.3892669074
 20
220.4680856125
 30
0.0
 11
106.389327834
 21
220.4681465391
 31
0.0
  0
LINE
  5
EF
330
1F
100
AcDbEntity
  8
0
  6
Continuous
 62
     7
370
    25
100
AcDbLine
 10
106.4893126035
 20
220.3681617695
 30
0.0
 11
106.489251677
 21
220.368100843
 31
0.0
  0
ELLIPSE
  5
F0
330
1F
100
AcDbEntity
  8
0
  6
Continuous
 62
     7
370
    25
100
AcDbEllipse
 10
102.3392973731
 20
220.5681313086
 30
0.0
 11
0.07077529395354532
 21
0.07077529395354532
 31
0.0
210
0.0
220
0.0
230
0.9999999999999998
 40
0.9990870284
 41
2.356346783440115
 42
3.926838523739911
  0
LINE
  5
F1
330
1F
100
AcDbEntity
  8
0
  6
Continuous
 62
     7
370
    25
100
AcDbLine
 10
102.239251677
 20
220.568070382
 30
0.0
 11
102.2393126035
 21
220.5681313086
 31
0.0
  0
LINE
  5
F2
330
1F
100
AcDbEntity
  8
0
  6
Continuous
 62
     7
370
    25
100
AcDbLine
 10
102.3392973731
 20
220.4681465391
 30
0.0
 11
102.3392364465
 21
220.4680856125
 31
0.0
  0
ARC
  5
F3
330
1F
100
AcDbEntity
  8
0
  6
Continuous
 62
     7
370
    25
100
AcDbCircle
 10
110.9392312308
 20
229.0680651663
 30
0.0
 40
0.1000204524955637
100
AcDbArc
 50
0.0204370164
 51
89.9795629836
  0
LINE
  5
F4
330
1F
100
AcDbEntity
  8
0
  6
Continuous
 62
     7
370
    25
100
AcDbLine
 10
110.9392669074
 20
229.1680856125
 30
0.0
 11
110.939327834
 21
229.1681465391
 31
0.0
  0
LINE
  5
F5
330
1F
100
AcDbEntity
  8
0
  6
Continuous
 62
     7
370
    25
100
AcDbLine
 10
111.0393126035
 20
229.0681617695
 30
0.0
 11
111.039251677
 21
229.068100843
 31
0.0
  0
ELLIPSE
  5
F6
330
1F
100
AcDbEntity
  8
0
  6
Continuous
 62
     7
370
    25
100
AcDbEllipse
 10
111.1392973731
 20
221.4215918559
 30
0.0
 11
0.07077529395351689
 21
-0.07077529395354533
 31
0.0
210
0.0
220
0.0
230
1.0
 40
0.9990870284
 41
2.356346783440032
 42
3.926838523740254
  0
LINE
  5
F7
330
1F
100
AcDbEntity
  8
0
  6
Continuous
 62
     7
370
    25
100
AcDbLine
 10
111.1392364465
 20
221.521637552
 30
0.0
 11
111.1392973731
 21
221.5215766255
 31
0.0
  0
LINE
  5
F8
330
1F
100
AcDbEntity
  8
0
  6
Continuous
 62
     7
370
    25
100
AcDbLine
 10
111.0393126035
 20
221.4215918559
 30
0.0
 11
111.039251677
 21
221.4216527825
 31
0.0
  0
ARC
  5
F9
330
1F
100
AcDbEntity
  8
0
  6
Continuous
 62
     7
370
    25
100
AcDbCircle
 10
110.9392312308
 20
217.2716579982
 30
0.0
 40
0.1000204524955069
100
AcDbArc
 50
270.0204370164
 51
359.9795629836
  0
LINE
  5
FA
330
1F
100
AcDbEntity
  8
0
  6
Continuous
 62
     7
370
    25
100
AcDbLine
 10
111.039251677
 20
217.2716223216
 30
0.0
 11
111.0393126035
 21
217.271561395
 31
0.0
  0
LINE
  5
FB
330
1F
100
AcDbEntity
  8
0
  6
Continuous
 62
     7
370
    25
100
AcDbLine
 10
110.939327834
 20
217.1715766255
 30
0.0
 11
110.9392669074
 21
217.171637552
 31
0.0
  0
ELLIPSE
  5
FC
330
1F
100
AcDbEntity
  8
0
  6
Continuous
 62
     7
370
    25
100
AcDbEllipse
 10
111.1392973731
 20
224.9181313086
 30
0.0
 11
0.07077529395351689
 21
0.07077529395354533
 31
0.0
210
0.0
220
0.0
230
1.0
 40
0.9990870284
 41
2.356346783439831
 42
3.926838523739367
  0
LINE
  5
FD
330
1F
100
AcDbEntity
  8
0
  6
Continuous
 62
     7
370
    25
100
AcDbLine
 10
111.039251677
 20
224.918070382
 30
0.0
 11
111.0393126035
 21
224.9181313086
 31
0.0
  0
LINE
  5
FE
330
1F
100
AcDbEntity
  8
0
  6
Continuous
 62
     7
370
    25
100
AcDbLine
 10
111.1392973731
 20
224.8181465391
 30
0.0
 11
111.1392364465
 21
224.8180856125
 31
0.0
  0
ELLIPSE
  5
FF
330
1F
100
AcDbEntity
  8
0
  6
Continuous
 62
     7
370
    25
100
AcDbEllipse
 10
102.3392973731
 20
221.4215918559
 30
0.0
 11
0.07077529395354532
 21
-0.07077529395354532
 31
0.0
210
0.0
220
0.0
230
0.9999999999999998
 40
0.9990870284
 41
2.356346783439639
 42
3.926838523740104
  0
LINE
  5
100
330
1F
100
AcDbEntity
  8
0
  6
Continuous
 62
     7
370
    25
100
AcDbLine
 10
102.3392364465
 20
221.521637552
 30
0.0
 11
102.3392973731
 21
221.5215766255
 31
0.0
  0
LINE
  5
101
330
1F
100
AcDbEntity
  8
0
  6
Continuous
 62
     7
370
    25
100
AcDbLine
 10
102.2393126035
 20
221.4215918559
 30
0.0
 11
102.239251677
 21
221.4216527825
 31
0.0
  0
ELLIPSE
  5
102
330
1F
100
AcDbEntity
  8
0
  6
Continuous
 62
     7
370
    25
100
AcDbEllipse
 10
115.0097476022
 20
223.1698615823
 30
0.0
 11
0.1000680962208946
 21
0.0
 31
0.0
210
0.0
220
0.0
230
1.0
 40
0.9993195012
 41
2.530834056409967
 42
3.752351250769319
  0
LINE
  5
103
330
1F
100
AcDbEntity
  8
0
  6
Continuous
 62
     7
370
    25
100
AcDbLine
 10
114.9277704962
 20
223.22721049
 30
0.0
 11
114.9278448739
 21
223.22721049
 31
0.0
  0
LINE
  5
104
330
1F
100
AcDbEntity
  8
0
  6
Continuous
 62
     7
370
    25
100
AcDbLine
 10
114.9278448739
 20
223.1125126745
 30
0.0
 11
114.9277704962
 21
223.1125126745
 31
0.0
  0
ELLIPSE
  5
105
330
1F
100
AcDbEntity
  8
0
  6
Continuous
 62
     7
370
    25
100
AcDbEllipse
 10
111.965412731
 20
224.9181313086
 30
0.0
 11
-0.04620167842819001
 21
0.08875259849662598
 31
0.0
210
0.0
220
0.0
230
0.9999999999999998
 40
0.9994195643
 41
2.661706392538553
 42
3.621478914641318
  0
LINE
  5
106
330
1F
100
AcDbEntity
  8
0
  6
Continuous
 62
     7
370
    25
100
AcDbLine
 10
111.9654444474
 20
224.8180856125
 30
0.0
 11
111.965412731
 21
224.8181465391
 31
0.0
  0
LINE
  5
107
330
1F
100
AcDbEntity
  8
0
  6
Continuous
 62
     7
370
    25
100
AcDbLine
 10
112.0473154594
 20
224.8607824008
 30
0.0
 11
112.0473471757
 21
224.8607214742
 31
0.0
  0
ELLIPSE
  5
108
330
1F
100
AcDbEntity
  8
0
  6
Continuous
 62
     7
370
    25
100
AcDbEllipse
 10
111.965412731
 20
221.4215918559
 30
0.0
 11
0.04620167842820422
 21
0.08875259849662598
 31
0.0
210
0.0
220
0.0
230
0.9999999999999998
 40
0.9994195643
 41
5.803299046128216
 42
6.763071568231033
  0
LINE
  5
109
330
1F
100
AcDbEntity
  8
0
  6
Continuous
 62
     7
370
    25
100
AcDbLine
 10
112.0473471757
 20
221.4790016903
 30
0.0
 11
112.0473154594
 21
221.4789407637
 31
0.0
  0
LINE
  5
10A
330
1F
100
AcDbEntity
  8
0
  6
Continuous
 62
     7
370
    25
100
AcDbLine
 10
111.965412731
 20
221.5215766255
 30
0.0
 11
111.9654444474
 21
221.521637552
 31
0.0
  0
ARC
  5
10B
330
1F
100
AcDbEntity
  8
0
  6
Continuous
 62
     7
370
    25
100
AcDbCircle
 10
115.1154614889
 20
229.0680687681
 30
0.0
 40
0.1000168457739122
100
AcDbArc
 50
90.0095651324
 51
144.9904348676
  0
LINE
  5
10C
330
1F
100
AcDbEntity
  8
0
  6
Continuous
 62
     7
370
    25
100
AcDbLine
 10
115.0335420634
 20
229.1254497508
 30
0.0
 11
115.033510347
 21
229.1255106773
 31
0.0
  0
LINE
  5
10D
330
1F
100
AcDbEntity
  8
0
  6
Continuous
 62
     7
370
    25
100
AcDbLine
 10
115.1154130754
 20
229.1681465391
 30
0.0
 11
115.1154447917
 21
229.1680856125
 31
0.0
  0
ARC
  5
10E
330
1F
100
AcDbEntity
  8
0
  6
Continuous
 62
     7
370
    25
100
AcDbCircle
 10
115.1154614889
 20
217.2716543964
 30
0.0
 40
0.1000168457738595
100
AcDbArc
 50
215.0095651324
 51
269.9904348676
  0
LINE
  5
10F
330
1F
100
AcDbEntity
  8
0
  6
Continuous
 62
     7
370
    25
100
AcDbLine
 10
115.1154447917
 20
217.171637552
 30
0.0
 11
115.1154130754
 21
217.1715766255
 31
0.0
  0
LINE
  5
110
330
1F
100
AcDbEntity
  8
0
  6
Continuous
 62
     7
370
    25
100
AcDbLine
 10
115.033510347
 20
217.2142124872
 30
0.0
 11
115.0335420634
 21
217.2142734138
 31
0.0
  0
LINE
  5
111
330
1F
100
AcDbEntity
  8
0
  6
Continuous
 62
     7
370
    25
100
AcDbLine
 10
107.842788386
 20
229.1680856125
 30
0.0
 11
110.9392669074
 21
229.1680856125
 31
0.0
  0
LINE
  5
112
330
1F
100
AcDbEntity
  8
0
  6
Continuous
 62
     7
370
    25
100
AcDbLine
 10
106.489251677
 20
220.368100843
 30
0.0
 11
106.489251677
 21
217.2716223216
 31
0.0
  0
LINE
  5
113
330
1F
100
AcDbEntity
  8
0
  6
Continuous
 62
     7
370
    25
100
AcDbLine
 10
111.9654444474
 20
221.521637552
 30
0.0
 11
111.1392364465
 21
221.521637552
 31
0.0
  0
LINE
  5
114
330
1F
100
AcDbEntity
  8
0
  6
Continuous
 62
     7
370
    25
100
AcDbLine
 10
98.9428036165
 20
217.2716223216
 30
0.0
 11
98.9428036165
 21
224.718100843
 31
0.0
  0
LINE
  5
115
330
1F
100
AcDbEntity
  8
0
  6
Continuous
 62
     7
370
    25
100
AcDbLine
 10
102.3392364465
 20
220.4680856125
 30
0.0
 11
106.3892669074
 21
220.4680856125
 31
0.0
  0
LINE
  5
116
330
1F
100
AcDbEntity
  8
0
  6
Continuous
 62
     7
370
    25
100
AcDbLine
 10
106.3892669074
 20
217.171637552
 30
0.0
 11
99.042788386
 21
217.171637552
 31
0.0
  0
LINE
  5
117
330
1F
100
AcDbEntity
  8
0
  6
Continuous
 62
     7
370
    25
100
AcDbLine
 10
118.8955470853
 20
217.171637552
 30
0.0
 11
115.1154447917
 21
217.171637552
 31
0.0
  0
LINE
  5
118
330
1F
100
AcDbEntity
  8
0
  6
Continuous
 62
     7
370
    25
100
AcDbLine
 10
107.7428036165
 20
217.2716223216
 30
0.0
 11
107.7428036165
 21
229.068100843
 31
0.0
  0
LINE
  5
119
330
1F
100
AcDbEntity
  8
0
  6
Continuous
 62
     7
370
    25
100
AcDbLine
 10
94.492788386
 20
224.8180856125
 30
0.0
 11
97.5892669074
 21
224.8180856125
 31
0.0
  0
LINE
  5
11A
330
1F
100
AcDbEntity
  8
0
  6
Continuous
 62
     7
370
    25
100
AcDbLine
 10
118.9774498137
 20
229.0107519352
 30
0.0
 11
114.9277704962
 21
223.22721049
 31
0.0
  0
LINE
  5
11B
330
1F
100
AcDbEntity
  8
0
  6
Continuous
 62
     7
370
    25
100
AcDbLine
 10
99.042788386
 20
229.1680856125
 30
0.0
 11
106.3892669074
 21
229.1680856125
 31
0.0
  0
LINE
  5
11C
330
1F
100
AcDbEntity
  8
0
  6
Continuous
 62
     7
370
    25
100
AcDbLine
 10
98.9428036165
 20
225.9716223216
 30
0.0
 11
98.9428036165
 21
229.068100843
 31
0.0
  0
LINE
  5
11D
330
1F
100
AcDbEntity
  8
0
  6
Continuous
 62
     7
370
    25
100
AcDbLine
 10
99.042788386
 20
224.8180856125
 30
0.0
 11
106.3892669074
 21
224.8180856125
 31
0.0
  0
LINE
  5
11E
330
1F
100
AcDbEntity
  8
0
  6
Continuous
 62
     7
370
    25
100
AcDbLine
 10
106.3892669074
 20
225.871637552
 30
0.0
 11
99.042788386
 21
225.871637552
 31
0.0
  0
LINE
  5
11F
330
1F
100
AcDbEntity
  8
0
  6
Continuous
 62
     7
370
    25
100
AcDbLine
 10
94.3928036165
 20
217.2716223216
 30
0.0
 11
94.3928036165
 21
224.718100843
 31
0.0
  0
LINE
  5
120
330
1F
100
AcDbEntity
  8
0
  6
Continuous
 62
     7
370
    25
100
AcDbLine
 10
111.1392364465
 20
224.8180856125
 30
0.0
 11
111.9654444474
 21
224.8180856125
 31
0.0
  0
LINE
  5
121
330
1F
100
AcDbEntity
  8
0
  6
Continuous
 62
     7
370
    25
100
AcDbLine
 10
97.5892669074
 20
217.171637552
 30
0.0
 11
94.492788386
 21
217.171637552
 31
0.0
  0
LINE
  5
122
330
1F
100
AcDbEntity
  8
0
  6
Continuous
 62
     7
370
    25
100
AcDbLine
 10
111.039251677
 20
229.068100843
 30
0.0
 11
111.039251677
 21
224.918070382
 31
0.0
  0
LINE
  5
123
330
1F
100
AcDbEntity
  8
0
  6
Continuous
 62
     7
370
    25
100
AcDbLine
 10
97.689251677
 20
224.718100843
 30
0.0
 11
97.689251677
 21
217.2716223216
 31
0.0
  0
LINE
  5
124
330
1F
100
AcDbEntity
  8
0
  6
Continuous
 62
     7
370
    25
100
AcDbLine
 10
97.5892669074
 20
225.871637552
 30
0.0
 11
94.492788386
 21
225.871637552
 31
0.0
  0
LINE
  5
125
330
1F
100
AcDbEntity
  8
0
  6
Continuous
 62
     7
370
    25
100
AcDbLine
 10
114.9277704962
 20
223.1125126745
 30
0.0
 11
118.9774498137
 21
217.3289712293
 31
0.0
  0
LINE
  5
126
330
1F
100
AcDbEntity
  8
0
  6
Continuous
 62
     7
370
    25
100
AcDbLine
 10
97.689251677
 20
229.068100843
 30
0.0
 11
97.689251677
 21
225.9716223216
 31
0.0
  0
LINE
  5
127
330
1F
100
AcDbEntity
  8
0
  6
Continuous
 62
     7
370
    25
100
AcDbLine
 10
110.9392669074
 20
217.171637552
 30
0.0
 11
107.842788386
 21
217.171637552
 31
0.0
  0
LINE
  5
128
330
1F
100
AcDbEntity
  8
0
  6
Continuous
 62
     7
370
    25
100
AcDbLine
 10
94.492788386
 20
229.1680856125
 30
0.0
 11
97.5892669074
 21
229.1680856125
 31
0.0
  0
LINE
  5
129
330
1F
100
AcDbEntity
  8
0
  6
Continuous
 62
     7
370
    25
100
AcDbLine
 10
111.039251677
 20
221.4216527825
 30
0.0
 11
111.039251677
 21
217.2716223216
 31
0.0
  0
LINE
  5
12A
330
1F
100
AcDbEntity
  8
0
  6
Continuous
 62
     7
370
    25
100
AcDbLine
 10
115.1154447917
 20
229.1680856125
 30
0.0
 11
118.8955470853
 21
229.1680856125
 31
0.0
  0
LINE
  5
12B
330
1F
100
AcDbEntity
  8
0
  6
Continuous
 62
     7
370
    25
100
AcDbLine
 10
94.3928036165
 20
225.9716223216
 30
0.0
 11
94.3928036165
 21
229.068100843
 31
0.0
  0
LINE
  5
12C
330
1F
100
AcDbEntity
  8
0
  6
Continuous
 62
     7
370
    25
100
AcDbLine
 10
115.0335420634
 20
217.2142734138
 30
0.0
 11
112.0473471757
 21
221.4790016903
 31
0.0
  0
LINE
  5
12D
330
1F
100
AcDbEntity
  8
0
  6
Continuous
 62
     7
370
    25
100
AcDbLine
 10
106.489251677
 20
229.068100843
 30
0.0
 11
106.489251677
 21
225.9716223216
 31
0.0
  0
LINE
  5
12E
330
1F
100
AcDbEntity
  8
0
  6
Continuous
 62
     7
370
    25
100
AcDbLine
 10
102.239251677
 20
221.4216527825
 30
0.0
 11
102.239251677
 21
220.568070382
 31
0.0
  0
LINE
  5
12F
330
1F
100
AcDbEntity
  8
0
  6
Continuous
 62
     7
370
    25
100
AcDbLine
 10
112.0473471757
 20
224.8607214742
 30
0.0
 11
115.0335420634
 21
229.1254497508
 31
0.0
  0
LINE
  5
130
330
1F
100
AcDbEntity
  8
0
  6
Continuous
 62
     7
370
    25
100
AcDbLine
 10
106.489251677
 20
224.718100843
 30
0.0
 11
106.489251677
 21
221.6216223216
 31
0.0
  0
LINE
  5
131
330
1F
100
AcDbEntity
  8
0
  6
Continuous
 62
     7
370
    25
100
AcDbLine
 10
106.3892669074
 20
221.521637552
 30
0.0
 11
102.3392364465
 21
221.521637552
 31
0.0
  0
LINE
  5
132
330
1F
100
AcDbEntity
  8
0
  6
Continuous
 62
     7
370
    25
100
AcDbLine
 10
110.6427391675
 20
238.1698615823
 30
0.0
 11
93.4910276467
 21
238.1698615823
 31
0.0
  0
ELLIPSE
  5
133
330
1F
100
AcDbEntity
  8
0
  6
Continuous
 62
     7
370
    25
100
AcDbEllipse
 10
110.6427391675
 20
238.1541520238
 30
0.0
 11
0.9000000000000057
 21
0.0
 31
0.0
210
0.0
220
0.0
230
1.0
 40
0.0174550649
 41
0.1434304530156396
 42
1.570796326794897
  0
ELLIPSE
  5
134
330
1F
100
AcDbEntity
  8
0
  6
Continuous
 62
     7
370
    25
100
AcDbEllipse
 10
124.4910276467
 20
238.1890621537
 30
0.0
 11
13.09196533026773
 21
0.0
 31
0.0
210
0.0
220
0.0
230
1.0
 40
0.0174550649
 41
3.285023106607905
 42
4.71238898038469
  0
ELLIPSE
  5
135
330
1F
100
AcDbEntity
  8
0
  6
Continuous
 62
     7
370
    25
100
AcDbEllipse
 10
163.6102282182
 20
199.0698615823
 30
0.0
 11
0.0
 21
13.09196533026773
 31
0.0
210
0.0
220
0.0
230
1.0
 40
0.0174550649
 41
1.570796326794899
 42
2.998162200572607
  0
ELLIPSE
  5
136
330
1F
100
AcDbEntity
  8
0
  6
Continuous
 62
     7
370
    25
100
AcDbEllipse
 10
163.5753180883
 20
185.2215731031
 30
0.0
 11
0.0
 21
0.9000000000000057
 31
0.0
210
0.0
220
0.0
230
1.0
 40
0.0174550649
 41
4.71238898038469
 42
6.13975485415913
  0
LINE
  5
137
330
1F
100
AcDbEntity
  8
0
  6
Continuous
 62
     7
370
    25
100
AcDbLine
 10
163.5910276467
 20
168.0698615823
 30
0.0
 11
163.5910276467
 21
185.2215731031
 31
0.0
  0
ARC
  5
138
330
1F
100
AcDbEntity
  8
0
  6
Continuous
 62
     7
370
    25
100
AcDbCircle
 10
93.4910276467
 20
230.0698615823
 30
0.0
 40
8.099999999999994
100
AcDbArc
 50
90.0
 51
180.0
  0
ELLIPSE
  5
139
330
1F
100
AcDbEntity
  8
0
  6
Continuous
 62
     7
370
    25
100
AcDbEllipse
 10
85.3718270753
 20
199.0698615823
 30
0.0
 11
0.0
 21
13.09196533026775
 31
0.0
210
0.0
220
0.0
230
1.0
 40
0.0174550649
 41
4.712388980384692
 42
6.139754854163024
  0
ELLIPSE
  5
13A
330
1F
100
AcDbEntity
  8
0
  6
Continuous
 62
     7
370
    25
100
AcDbEllipse
 10
85.4067372052
 20
212.9181500615
 30
0.0
 11
0.0
 21
0.9000000000000341
 31
0.0
210
0.0
220
0.0
230
1.0
 40
0.0174550649
 41
1.570796326794897
 42
2.998162200570695
  0
LINE
  5
13B
330
1F
100
AcDbEntity
  8
0
  6
Continuous
 62
     7
370
    25
100
AcDbLine
 10
85.3910276467
 20
230.0698615823
 30
0.0
 11
85.3910276467
 21
212.9181500615
 31
0.0
  0
ARC
  5
13C
330
1F
100
AcDbEntity
  8
0
  6
Continuous
 62
     7
370
    25
100
AcDbCircle
 10
155.4910276467
 20
168.0698615823
 30
0.0
 40
8.100000000000023
100
AcDbArc
 50
270.0
 51
0.0
  0
LINE
  5
13D
330
1F
100
AcDbEntity
  8
0
  6
Continuous
 62
     7
370
    25
100
AcDbLine
 10
138.339316126
 20
159.9698615823
 30
0.0
 11
155.4910276467
 21
159.9698615823
 31
0.0
  0
ELLIPSE
  5
13E
330
1F
100
AcDbEntity
  8
0
  6
Continuous
 62
     7
370
    25
100
AcDbEllipse
 10
138.339316126
 20
159.9855711407
 30
0.0
 11
0.8999999999999773
 21
0.0
 31
0.0
210
0.0
220
0.0
230
1.0
 40
0.0174550649
 41
3.285023106609794
 42
4.71238898038469
  0
ELLIPSE
  5
13F
330
1F
100
AcDbEntity
  8
0
  6
Continuous
 62
     7
370
    25
100
AcDbEllipse
 10
124.4910276467
 20
159.9506610108
 30
0.0
 11
13.09196533026773
 21
0.0
 31
0.0
210
0.0
220
0.0
230
1.0
 40
0.0174550649
 41
0.1434304530173379
 42
1.570796326794897
  0
LINE
  5
140
330
1F
100
AcDbEntity
  8
0
  6
Continuous
 62
     7
370
    25
100
AcDbLine
 10
85.4910276467
 20
168.1047823518
 30
0.0
 11
85.4910276467
 21
185.017480428
 31
0.0
  0
LINE
  5
141
330
1F
100
AcDbEntity
  8
0
  6
Continuous
 62
     7
370
    25
100
AcDbLine
 10
85.6003481802
 20
185.0212979852
 30
0.0
 11
85.4910276467
 21
185.017480428
 31
0.0
  0
LINE
  5
142
330
1F
100
AcDbEntity
  8
0
  6
Continuous
 62
     7
370
    25
100
AcDbLine
 10
110.4424640497
 20
160.1791821157
 30
0.0
 11
110.4386464925
 21
160.0698615823
 31
0.0
  0
LINE
  5
143
330
1F
100
AcDbEntity
  8
0
  6
Continuous
 62
     7
370
    25
100
AcDbLine
 10
110.4386464925
 20
160.0698615823
 30
0.0
 11
93.5259484162
 21
160.0698615823
 31
0.0
  0
LINE
  5
144
330
1F
100
AcDbEntity
  8
0
  6
Continuous
 62
     7
370
    25
100
AcDbLine
 10
138.5395912438
 20
237.9605410488
 30
0.0
 11
138.543408801
 21
238.0698615823
 31
0.0
  0
LINE
  5
145
330
1F
100
AcDbEntity
  8
0
  6
Continuous
 62
     7
370
    25
100
AcDbLine
 10
138.543408801
 20
238.0698615823
 30
0.0
 11
155.4561068773
 21
238.0698615823
 31
0.0
  0
LINE
  5
146
330
1F
100
AcDbEntity
  8
0
  6
Continuous
 62
     7
370
    25
100
AcDbLine
 10
163.4910276467
 20
230.0349408128
 30
0.0
 11
163.4910276467
 21
213.1222427365
 31
0.0
  0
LINE
  5
147
330
1F
100
AcDbEntity
  8
0
  6
Continuous
 62
     7
370
    25
100
AcDbLine
 10
163.3817071133
 20
213.1184251793
 30
0.0
 11
163.4910276467
 21
213.1222427365
 31
0.0
  0
ARC
  5
148
330
1F
100
AcDbEntity
  8
0
  6
Continuous
 62
     7
370
    25
100
AcDbCircle
 10
155.4910276467
 20
230.0698615823
 30
0.0
 40
8.000000000000064
100
AcDbArc
 50
0.0
 51
45.0
  0
LINE
  5
149
330
1F
100
AcDbEntity
  8
0
  6
Continuous
 62
     7
370
    25
100
AcDbLine
 10
163.4910276467
 20
230.0698615823
 30
0.0
 11
163.4910276467
 21
230.0349408128
 31
0.0
  0
ARC
  5
14A
330
1F
100
AcDbEntity
  8
0
  6
Continuous
 62
     7
370
    25
100
AcDbCircle
 10
93.4910276467
 20
168.0698615823
 30
0.0
 40
7.999999999999986
100
AcDbArc
 50
180.0
 51
225.0
  0
LINE
  5
14B
330
1F
100
AcDbEntity
  8
0
  6
Continuous
 62
     7
370
    25
100
AcDbLine
 10
85.4910276467
 20
168.0698615823
 30
0.0
 11
85.4910276467
 21
168.1047823518
 31
0.0
  0
ARC
  5
14C
330
1F
100
AcDbEntity
  8
0
  6
Continuous
 62
     7
370
    25
100
AcDbCircle
 10
155.4910276467
 20
230.0698615823
 30
0.0
 40
8.000000000000064
100
AcDbArc
 50
45.0
 51
90.0
  0
LINE
  5
14D
330
1F
100
AcDbEntity
  8
0
  6
Continuous
 62
     7
370
    25
100
AcDbLine
 10
155.4910276467
 20
238.0698615823
 30
0.0
 11
155.4561068773
 21
238.0698615823
 31
0.0
  0
ARC
  5
14E
330
1F
100
AcDbEntity
  8
0
  6
Continuous
 62
     7
370
    25
100
AcDbCircle
 10
93.4910276467
 20
168.0698615823
 30
0.0
 40
7.999999999999972
100
AcDbArc
 50
225.0
 51
270.0
  0
LINE
  5
14F
330
1F
100
AcDbEntity
  8
0
  6
Continuous
 62
     7
370
    25
100
AcDbLine
 10
93.4910276467
 20
160.0698615823
 30
0.0
 11
93.5259484162
 21
160.0698615823
 31
0.0
  0
LINE
  5
150
330
1F
100
AcDbEntity
  8
0
  6
Continuous
 62
     7
370
    25
100
AcDbLine
 10
163.4910276467
 20
196.3214969488
 30
0.0
 11
163.386657922
 21
196.359484422
 31
0.0
  0
LINE
  5
151
330
1F
100
AcDbEntity
  8
0
  6
Continuous
 62
     7
370
    25
100
AcDbLine
 10
163.4910276467
 20
196.3214969488
 30
0.0
 11
163.4910276467
 21
187.9000644662
 31
0.0
  0
LINE
  5
152
330
1F
100
AcDbEntity
  8
0
  6
Continuous
 62
     7
370
    25
100
AcDbLine
 10
85.4910276467
 20
185.017480428
 30
0.0
 11
85.4910276467
 21
210.2396586983
 31
0.0
  0
LINE
  5
153
330
1F
100
AcDbEntity
  8
0
  6
Continuous
 62
     7
370
    25
100
AcDbLine
 10
113.3212305307
 20
238.0698615823
 30
0.0
 11
138.543408801
 21
238.0698615823
 31
0.0
  0
LINE
  5
154
330
1F
100
AcDbEntity
  8
0
  6
Continuous
 62
     7
370
    25
100
AcDbLine
 10
135.6608247628
 20
160.0698615823
 30
0.0
 11
110.4386464925
 21
160.0698615823
 31
0.0
  0
LINE
  5
155
330
1F
100
AcDbEntity
  8
0
  6
Continuous
 62
     7
370
    25
100
AcDbLine
 10
163.4910276467
 20
201.1587304357
 30
0.0
 11
163.3817071133
 21
201.090211313
 31
0.0
  0
LINE
  5
156
330
1F
100
AcDbEntity
  8
0
  6
Continuous
 62
     7
370
    25
100
AcDbLine
 10
163.4910276467
 20
213.1222427365
 30
0.0
 11
163.4910276467
 21
201.1587304357
 31
0.0
  0
LINE
  5
157
330
1F
100
AcDbEntity
  8
0
  6
Continuous
 62
     7
370
    25
100
AcDbLine
 10
163.4910276467
 20
201.1587304357
 30
0.0
 11
163.4910276467
 21
196.3214969488
 31
0.0
  0
LINE
  5
158
330
1F
100
AcDbEntity
  8
0
  6
Continuous
 62
     7
370
    25
100
AcDbLine
 10
161.1478818962
 20
235.7267158318
 30
0.0
 11
161.0705806057
 21
235.6494145412
 31
0.0
  0
LINE
  5
159
330
1F
100
AcDbEntity
  8
0
  6
Continuous
 62
     7
370
    25
100
AcDbLine
 10
87.9114746878
 20
162.4903086233
 30
0.0
 11
87.8341733972
 21
162.4130073328
 31
0.0
  0
ARC
  5
15A
330
1F
100
AcDbEntity
  8
0
  6
Continuous
 62
     7
370
    25
100
AcDbCircle
 10
86.4910276467
 20
307.2358141934
 30
0.0
 40
0.5
100
AcDbArc
 50
0.0
 51
88.0
  0
LINE
  5
15B
330
1F
100
AcDbEntity
  8
0
  6
Continuous
 62
     7
370
    25
100
AcDbLine
 10
85.9735778984
 20
307.7541887089
 30
0.0
 11
86.5084773951
 21
307.7355096069
 31
0.0
  0
ARC
  5
15C
330
1F
100
AcDbEntity
  8
0
  6
Continuous
 62
     7
370
    25
100
AcDbCircle
 10
85.9910276467
 20
308.2538841224
 30
0.0
 40
0.5
100
AcDbArc
 50
180.0
 51
268.0
  0
ARC
  5
15D
330
1F
100
AcDbEntity
  8
0
  6
Continuous
 62
     7
370
    25
100
AcDbCircle
 10
150.7067164215
 20
303.2186585808
 30
0.0
 40
1.000000000000019
100
AcDbArc
 50
90.0
 51
178.0
  0
ARC
  5
15E
330
1F
100
AcDbEntity
  8
0
  6
Continuous
 62
     7
370
    25
100
AcDbCircle
 10
138.2753388719
 20
303.2186585808
 30
0.0
 40
1.0
100
AcDbArc
 50
2.0
 51
90.0
  0
LINE
  5
15F
330
1F
100
AcDbEntity
  8
0
  6
Continuous
 62
     7
370
    25
100
AcDbLine
 10
139.274729699
 20
303.2535580775
 30
0.0
 11
139.293408801
 21
302.7186585808
 31
0.0
  0
LINE
  5
160
330
1F
100
AcDbEntity
  8
0
  6
Continuous
 62
     7
370
    25
100
AcDbLine
 10
149.6886464925
 20
302.7186585808
 30
0.0
 11
149.7073255945
 21
303.2535580775
 31
0.0
  0
ARC
  5
161
330
1F
100
AcDbEntity
  8
0
  6
Continuous
 62
     7
370
    25
100
AcDbCircle
 10
162.9910276467
 20
308.2538841224
 30
0.0
 40
0.5
100
AcDbArc
 50
272.0
 51
0.0
  0
LINE
  5
162
330
1F
100
AcDbEntity
  8
0
  6
Continuous
 62
     7
370
    25
100
AcDbLine
 10
162.4735778984
 20
307.7355096069
 30
0.0
 11
163.0084773951
 21
307.7541887089
 31
0.0
  0
ARC
  5
163
330
1F
100
AcDbEntity
  8
0
  6
Continuous
 62
     7
370
    25
100
AcDbCircle
 10
162.4910276467
 20
307.2358141934
 30
0.0
 40
0.5
100
AcDbArc
 50
92.0
 51
180.0
  0
LINE
  5
164
330
1F
100
AcDbEntity
  8
0
  6
Continuous
 62
     7
370
    25
100
AcDbLine
 10
163.2502273946
 20
343.8430919498
 30
0.0
 11
163.5910276467
 21
324.3186585808
 31
0.0
  0
LINE
  5
165
330
1F
100
AcDbEntity
  8
0
  6
Continuous
 62
     7
370
    25
100
AcDbLine
 10
155.4910276467
 20
324.3186585808
 30
0.0
 11
163.5910276467
 21
324.3186585808
 31
0.0
  0
ARC
  5
166
330
1F
100
AcDbEntity
  8
0
  6
Continuous
 62
     7
370
    25
100
AcDbCircle
 10
124.4910276467
 20
323.2186585808
 30
0.0
 40
13.09196533026773
100
AcDbArc
 50
8.2179596115
 51
90.0
  0
LINE
  5
167
330
1F
100
AcDbEntity
  8
0
  6
Continuous
 62
     7
370
    25
100
AcDbLine
 10
93.4910276467
 20
336.310623911
 30
0.0
 11
124.4910276467
 21
336.310623911
 31
0.0
  0
ARC
  5
168
330
1F
100
AcDbEntity
  8
0
  6
Continuous
 62
     7
370
    25
100
AcDbCircle
 10
138.339316126
 20
325.2186585808
 30
0.0
 40
0.9000000000000341
100
AcDbArc
 50
188.2179596115
 51
270.0
  0
LINE
  5
169
330
1F
100
AcDbEntity
  8
0
  6
Continuous
 62
     7
370
    25
100
AcDbLine
 10
138.339316126
 20
324.3186585808
 30
0.0
 11
155.4910276467
 21
324.3186585808
 31
0.0
  0
LINE
  5
16A
330
1F
100
AcDbEntity
  8
0
  6
Continuous
 62
     7
370
    25
100
AcDbLine
 10
85.7318278989
 20
343.8430919498
 30
0.0
 11
85.6003481802
 21
336.310623911
 31
0.0
  0
LINE
  5
16B
330
1F
100
AcDbEntity
  8
0
  6
Continuous
 62
     7
370
    25
100
AcDbLine
 10
93.4910276467
 20
336.310623911
 30
0.0
 11
85.6003481802
 21
336.310623911
 31
0.0
  0
ARC
  5
16C
330
1F
100
AcDbEntity
  8
0
  6
Continuous
 62
     7
370
    25
100
AcDbCircle
 10
87.1316146721
 20
343.8186585808
 30
0.0
 40
1.400000000000034
100
AcDbArc
 50
90.0
 51
179.0
  0
LINE
  5
16D
330
1F
100
AcDbEntity
  8
0
  6
Continuous
 62
     7
370
    25
100
AcDbLine
 10
93.4910276467
 20
345.2186585808
 30
0.0
 11
87.1316146721
 21
345.2186585808
 31
0.0
  0
LINE
  5
16E
330
1F
100
AcDbEntity
  8
0
  6
Continuous
 62
     7
370
    25
100
AcDbLine
 10
155.4910276467
 20
345.2186585808
 30
0.0
 11
161.8504406214
 21
345.2186585808
 31
0.0
  0
ARC
  5
16F
330
1F
100
AcDbEntity
  8
0
  6
Continuous
 62
     7
370
    25
100
AcDbCircle
 10
161.8504406214
 20
343.8186585808
 30
0.0
 40
1.400000000000034
100
AcDbArc
 50
1.0
 51
90.0
  0
LINE
  5
170
330
1F
100
AcDbEntity
  8
0
  6
Continuous
 62
     7
370
    25
100
AcDbLine
 10
93.4910276467
 20
345.2186585808
 30
0.0
 11
155.4910276467
 21
345.2186585808
 31
0.0
  0
LINE
  5
171
330
1F
100
AcDbEntity
  8
0
  6
Continuous
 62
     7
370
    25
100
AcDbLine
 10
85.4044916938
 20
325.090013322
 30
0.0
 11
85.4910276467
 21
330.0476547438
 31
0.0
  0
LINE
  5
172
330
1F
100
AcDbEntity
  8
0
  6
Continuous
 62
     7
370
    25
100
AcDbLine
 10
85.5978937426
 20
336.1700092728
 30
0.0
 11
85.6003481802
 21
336.310623911
 31
0.0
  0
LINE
  5
173
330
1F
100
AcDbEntity
  8
0
  6
Continuous
 62
     7
370
    25
100
AcDbLine
 10
86.6003481802
 20
336.310623911
 30
0.0
 11
86.5985036586
 21
336.2049513411
 31
0.0
  0
LINE
  5
174
330
1F
100
AcDbEntity
  8
0
  6
Continuous
 62
     7
370
    25
100
AcDbLine
 10
85.4910276467
 20
324.3186585808
 30
0.0
 11
85.3910276467
 21
324.3186585808
 31
0.0
  0
LINE
  5
175
330
1F
100
AcDbEntity
  8
0
  6
Continuous
 62
     7
370
    25
100
AcDbLine
 10
85.3910276467
 20
324.3186585808
 30
0.0
 11
85.4044916938
 21
325.090013322
 31
0.0
  0
LINE
  5
176
330
1F
100
AcDbEntity
  8
0
  6
Continuous
 62
     7
370
    25
100
AcDbLine
 10
155.4561068773
 20
323.366274765
 30
0.0
 11
155.4561068773
 21
324.1662774265
 31
0.0
  0
LINE
  5
177
330
1F
100
AcDbEntity
  8
0
  6
Continuous
 62
     7
370
    25
100
AcDbLine
 10
155.4561068773
 20
324.1662774265
 30
0.0
 11
155.4910276467
 21
324.201198196
 31
0.0
  0
LINE
  5
178
330
1F
100
AcDbEntity
  8
0
  6
Continuous
 62
     7
370
    25
100
AcDbLine
 10
155.4910276467
 20
323.401198196
 30
0.0
 11
155.4910276467
 21
324.201198196
 31
0.0
  0
LINE
  5
179
330
1F
100
AcDbEntity
  8
0
  6
Continuous
 62
     7
370
    25
100
AcDbLine
 10
155.4910276467
 20
323.401198196
 30
0.0
 11
155.4561068773
 21
323.366274765
 31
0.0
  0
LINE
  5
17A
330
1F
100
AcDbEntity
  8
0
  6
Continuous
 62
     7
370
    25
100
AcDbLine
 10
155.4561068773
 20
324.1662774265
 30
0.0
 11
138.5114211729
 21
324.1662774265
 31
0.0
  0
LINE
  5
17B
330
1F
100
AcDbEntity
  8
0
  6
Continuous
 62
     7
370
    25
100
AcDbLine
 10
138.5114211729
 20
324.1662774265
 30
0.0
 11
138.4723791086
 21
324.2026624846
 31
0.0
  0
LINE
  5
17C
330
1F
100
AcDbEntity
  8
0
  6
Continuous
 62
     7
370
    25
100
AcDbLine
 10
93.5259484162
 20
336.1662774265
 30
0.0
 11
93.5259484162
 21
335.366274765
 31
0.0
  0
LINE
  5
17D
330
1F
100
AcDbEntity
  8
0
  6
Continuous
 62
     7
370
    25
100
AcDbLine
 10
93.4910276467
 20
335.401198196
 30
0.0
 11
93.5259484162
 21
335.366274765
 31
0.0
  0
LINE
  5
17E
330
1F
100
AcDbEntity
  8
0
  6
Continuous
 62
     7
370
    25
100
AcDbLine
 10
93.4910276467
 20
335.401198196
 30
0.0
 11
93.4910276467
 21
336.201198196
 31
0.0
  0
LINE
  5
17F
330
1F
100
AcDbEntity
  8
0
  6
Continuous
 62
     7
370
    25
100
AcDbLine
 10
93.5259484162
 20
336.1662774265
 30
0.0
 11
93.4910276467
 21
336.201198196
 31
0.0
  0
LINE
  5
180
330
1F
100
AcDbEntity
  8
0
  6
Continuous
 62
     7
370
    25
100
AcDbLine
 10
110.4823506225
 20
336.2099815565
 30
0.0
 11
110.4386464925
 21
336.1662774265
 31
0.0
  0
LINE
  5
181
330
1F
100
AcDbEntity
  8
0
  6
Continuous
 62
     7
370
    25
100
AcDbLine
 10
110.4386464925
 20
336.1662774265
 30
0.0
 11
93.5259484162
 21
336.1662774265
 31
0.0
  0
LINE
  5
182
330
1F
100
AcDbEntity
  8
0
  6
Continuous
 62
     7
370
    25
100
AcDbLine
 10
155.4910276467
 20
323.3662774265
 30
0.0
 11
155.4561068773
 21
323.366274765
 31
0.0
  0
LINE
  5
183
330
1F
100
AcDbEntity
  8
0
  6
Continuous
 62
     7
370
    25
100
AcDbLine
 10
93.4910276467
 20
335.3662774265
 30
0.0
 11
93.5259484162
 21
335.366274765
 31
0.0
  0
LINE
  5
184
330
1F
100
AcDbEntity
  8
0
  6
Continuous
 62
     7
370
    25
100
AcDbLine
 10
110.4386464925
 20
323.2186585808
 30
0.0
 11
110.4386464925
 21
336.1662774265
 31
0.0
  0
ARC
  5
185
330
1F
100
AcDbEntity
  8
0
  6
Continuous
 62
     7
370
    25
100
AcDbCircle
 10
124.4910276467
 20
323.2186585808
 30
0.0
 40
14.05238115423765
100
AcDbArc
 50
180.0
 51
3.8666610699
  0
LINE
  5
186
330
1F
100
AcDbEntity
  8
0
  6
Continuous
 62
     7
370
    25
100
AcDbLine
 10
161.1478818962
 20
323.3662774265
 30
0.0
 11
155.4910276467
 21
323.3662774265
 31
0.0
  0
LINE
  5
187
330
1F
100
AcDbEntity
  8
0
  6
Continuous
 62
     7
370
    25
100
AcDbLine
 10
160.440775115
 20
323.401198196
 30
0.0
 11
155.4910276467
 21
323.401198196
 31
0.0
  0
LINE
  5
188
330
1F
100
AcDbEntity
  8
0
  6
Continuous
 62
     7
370
    25
100
AcDbLine
 10
93.4910276467
 20
335.3662774265
 30
0.0
 11
87.8341733972
 21
335.3662774265
 31
0.0
  0
LINE
  5
189
330
1F
100
AcDbEntity
  8
0
  6
Continuous
 62
     7
370
    25
100
AcDbLine
 10
93.4910276467
 20
335.401198196
 30
0.0
 11
88.5412801784
 21
335.401198196
 31
0.0
  0
ARC
  5
18A
330
1F
100
AcDbEntity
  8
0
  6
Continuous
 62
     7
370
    25
100
AcDbCircle
 10
124.4910276467
 20
323.2186585808
 30
0.0
 40
15.48314897389401
100
AcDbArc
 50
180.0
 51
354.8394950273
  0
LINE
  5
18B
330
1F
100
AcDbEntity
  8
0
  6
Continuous
 62
     7
370
    25
100
AcDbLine
 10
155.4910276467
 20
321.9355096069
 30
0.0
 11
160.4284362797
 21
321.9355096069
 31
0.0
  0
LINE
  5
18C
330
1F
100
AcDbEntity
  8
0
  6
Continuous
 62
     7
370
    25
100
AcDbLine
 10
88.5536190138
 20
333.9355096069
 30
0.0
 11
93.4910276467
 21
333.9355096069
 31
0.0
  0
SPLINE
  5
18D
330
1F
100
AcDbEntity
  8
0
  6
Continuous
 62
     7
370
    25
100
AcDbSpline
210
0.0
220
0.0
230
1.0
 70
     8
 71
     3
 72
    16
 73
    12
 74
     0
 42
0.00000001
 43
0.00000001
 40
0.0
 40
0.0
 40
0.0
 40
0.0
 40
0.2499999999999982
 40
0.2499999999999982
 40
0.3749999999999973
 40
0.3749999999999973
 40
0.4999999999999964
 40
0.4999999999999964
 40
0.7499999999999982
 40
0.7499999999999982
 40
1.0
 40
1.0
 40
1.0
 40
1.0
 10
155.4910276467418
 20
324.2011981960142
 30
0.0
 10
155.9534281974206
 20
324.2002539601376
 30
0.0
 10
156.4081035835761
 20
324.2009074093228
 30
0.0
 10
157.0790024328991
 20
324.2011050608801
 30
0.0
 10
157.3007692391558
 20
324.2010221374729
 30
0.0
 10
157.7404854662718
 20
324.2009844473138
 30
0.0
 10
157.959031496063
 20
324.2009777465162
 30
0.0
 10
158.5947592616033
 20
324.2009869035604
 30
0.0
 10
158.996787262304
 20
324.201020161856
 30
0.0
 10
159.7576529925828
 20
324.2011309775858
 30
0.0
 10
160.1179068343534
 20
324.2011888109244
 30
0.0
 10
160.4407751150368
 20
324.2011888102958
 30
0.0
  0
SPLINE
  5
18E
330
1F
100
AcDbEntity
  8
0
  6
Continuous
 62
     7
370
    25
100
AcDbSpline
210
0.0
220
0.0
230
1.0
 70
     8
 71
     3
 72
    16
 73
    12
 74
     0
 42
0.00000001
 43
0.00000001
 40
0.0
 40
0.0
 40
0.0
 40
0.0
 40
0.2499999999999977
 40
0.2499999999999977
 40
0.3749999999999981
 40
0.3749999999999981
 40
0.4999999999999984
 40
0.4999999999999984
 40
0.7499999999999992
 40
0.7499999999999992
 40
1.0
 40
1.0
 40
1.0
 40
1.0
 10
88.54128017842507
 20
336.2011887368477
 30
0.0
 10
88.8638538154649
 20
336.2011887406183
 30
0.0
 10
89.2158447426464
 20
336.201132451382
 30
0.0
 10
89.78900531039667
 20
336.2010486885007
 30
0.0
 10
89.98760512830157
 20
336.2010250056218
 30
0.0
 10
90.39124938571949
 20
336.2009939057862
 30
0.0
 10
90.59735144740117
 20
336.2009840237077
 30
0.0
 10
91.22830189911514
 20
336.2009746780984
 30
0.0
 10
91.66820853748983
 20
336.2011692911303
 30
0.0
 10
92.57210383514946
 20
336.2009128416688
 30
0.0
 10
93.02904902218471
 20
336.2002546235176
 30
0.0
 10
93.49102764674184
 20
336.2011981960142
 30
0.0
  0
SPLINE
  5
18F
330
1F
100
AcDbEntity
  8
0
  6
Continuous
 62
     7
370
    25
100
AcDbSpline
210
0.0
220
0.0
230
1.0
 70
     8
 71
     3
 72
    16
 73
    12
 74
     0
 42
0.00000001
 43
0.00000001
 40
0.0
 40
0.0
 40
0.0
 40
0.0
 40
0.25
 40
0.25
 40
0.375
 40
0.375
 40
0.5
 40
0.5
 40
0.75
 40
0.75
 40
1.0
 40
1.0
 40
1.0
 40
1.0
 10
160.4407751150368
 20
324.2011888102958
 30
0.0
 10
160.7633487928333
 20
324.2011888096678
 30
0.0
 10
161.0528799877418
 20
324.2011324508824
 30
0.0
 10
161.436435706095
 20
324.201048674105
 30
0.0
 10
161.5555487364936
 20
324.2010249964496
 30
0.0
 10
161.7714544425503
 20
324.2009939075024
 30
0.0
 10
161.8689968362573
 20
324.2009840220027
 30
0.0
 10
162.1308682693889
 20
324.2009746646582
 30
0.0
 10
162.265223734413
 20
324.2011693181951
 30
0.0
 10
162.4457369834523
 20
324.2009128056487
 30
0.0
 10
162.4910276467418
 20
324.2002543645067
 30
0.0
 10
162.4910276467418
 20
324.2011981960142
 30
0.0
  0
SPLINE
  5
190
330
1F
100
AcDbEntity
  8
0
  6
Continuous
 62
     7
370
    25
100
AcDbSpline
210
0.0
220
0.0
230
1.0
 70
     8
 71
     3
 72
    16
 73
    12
 74
     0
 42
0.00000001
 43
0.00000001
 40
0.0
 40
0.0
 40
0.0
 40
0.0
 40
0.2500000000000036
 40
0.2500000000000036
 40
0.3750000000000034
 40
0.3750000000000034
 40
0.5000000000000033
 40
0.5000000000000033
 40
0.7500000000000017
 40
0.7500000000000017
 40
1.0
 40
1.0
 40
1.0
 40
1.0
 10
86.49102764674186
 20
336.2011981960142
 30
0.0
 10
86.49102764674184
 20
336.2002534332178
 30
0.0
 10
86.53639479527189
 20
336.2009071557329
 30
0.0
 10
86.6697138222445
 20
336.2011051186528
 30
0.0
 10
86.72511241435369
 20
336.2010221438788
 30
0.0
 10
86.85832741206607
 20
336.2009844805787
 30
0.0
 10
86.93651977105799
 20
336.2009777765017
 30
0.0
 10
87.199976820631
 20
336.2009868925187
 30
0.0
 10
87.41493841638446
 20
336.2010201851576
 30
0.0
 10
87.92280368301111
 20
336.2011309739026
 30
0.0
 10
88.2184119525819
 20
336.2011887330738
 30
0.0
 10
88.54128017842507
 20
336.2011887368477
 30
0.0
  0
LINE
  5
191
330
1F
100
AcDbEntity
  8
0
  6
Continuous
 62
     7
370
    25
100
AcDbLine
 10
86.742550183
 20
336.2099815565
 30
0.0
 11
86.4910276467
 21
336.201198196
 31
0.0
  0
LINE
  5
192
330
1F
100
AcDbEntity
  8
0
  6
Continuous
 62
     7
370
    25
100
AcDbLine
 10
155.4910276467
 20
302.7186585808
 30
0.0
 11
160.0872217245
 21
302.7186585808
 31
0.0
  0
LINE
  5
193
330
1F
100
AcDbEntity
  8
0
  6
Continuous
 62
     7
370
    25
100
AcDbLine
 10
86.9910276467
 20
333.4358141934
 30
0.0
 11
86.9910276467
 21
302.7186585808
 31
0.0
  0
LINE
  5
194
330
1F
100
AcDbEntity
  8
0
  6
Continuous
 62
     7
370
    25
100
AcDbLine
 10
86.9910276467
 20
302.7186585808
 30
0.0
 11
93.4910276467
 21
302.7186585808
 31
0.0
  0
LINE
  5
195
330
1F
100
AcDbEntity
  8
0
  6
Continuous
 62
     7
370
    25
100
AcDbLine
 10
96.9097049712
 20
304.2186585808
 30
0.0
 11
152.0723503223
 21
304.2186585808
 31
0.0
  0
LINE
  5
196
330
1F
100
AcDbEntity
  8
0
  6
Continuous
 62
     7
370
    25
100
AcDbLine
 10
154.4910276467
 20
302.7186585808
 30
0.0
 11
155.4910276467
 21
302.7186585808
 31
0.0
  0
ARC
  5
197
330
1F
100
AcDbEntity
  8
0
  6
Continuous
 62
     7
370
    25
100
AcDbCircle
 10
96.9097049712
 20
301.5186585808
 30
0.0
 40
2.699999999999995
100
AcDbArc
 50
90.0
 51
153.6122000388
  0
LINE
  5
198
330
1F
100
AcDbEntity
  8
0
  6
Continuous
 62
     7
370
    25
100
AcDbLine
 10
93.4910276467
 20
302.7186585808
 30
0.0
 11
94.4910276467
 21
302.7186585808
 31
0.0
  0
ARC
  5
199
330
1F
100
AcDbEntity
  8
0
  6
Continuous
 62
     7
370
    25
100
AcDbCircle
 10
152.0723503223
 20
301.5186585808
 30
0.0
 40
2.699999999999989
100
AcDbArc
 50
26.3877999612
 51
90.0
  0
ARC
  5
19A
330
1F
100
AcDbEntity
  8
0
  6
Continuous
 62
     7
370
    25
100
AcDbCircle
 10
162.9910276467
 20
322.4538841224
 30
0.0
 40
0.5
100
AcDbArc
 50
272.0
 51
0.0
  0
LINE
  5
19B
330
1F
100
AcDbEntity
  8
0
  6
Continuous
 62
     7
370
    25
100
AcDbLine
 10
163.4910276467
 20
323.3662774265
 30
0.0
 11
161.1478818962
 21
323.3662774265
 31
0.0
  0
LINE
  5
19C
330
1F
100
AcDbEntity
  8
0
  6
Continuous
 62
     7
370
    25
100
AcDbLine
 10
163.4910276467
 20
323.3662774265
 30
0.0
 11
163.4910276467
 21
322.4538841224
 31
0.0
  0
LINE
  5
19D
330
1F
100
AcDbEntity
  8
0
  6
Continuous
 62
     7
370
    25
100
AcDbLine
 10
162.4910276467
 20
323.401198196
 30
0.0
 11
160.440775115
 21
323.401198196
 31
0.0
  0
LINE
  5
19E
330
1F
100
AcDbEntity
  8
0
  6
Continuous
 62
     7
370
    25
100
AcDbLine
 10
162.4910276467
 20
323.401198196
 30
0.0
 11
163.4910276467
 21
323.366274765
 31
0.0
  0
ARC
  5
19F
330
1F
100
AcDbEntity
  8
0
  6
Continuous
 62
     7
370
    25
100
AcDbCircle
 10
85.9910276467
 20
334.4538841224
 30
0.0
 40
0.5
100
AcDbArc
 50
180.0
 51
268.0
  0
LINE
  5
1A0
330
1F
100
AcDbEntity
  8
0
  6
Continuous
 62
     7
370
    25
100
AcDbLine
 10
85.4910276467
 20
334.4538841224
 30
0.0
 11
85.4910276467
 21
335.3662774265
 31
0.0
  0
LINE
  5
1A1
330
1F
100
AcDbEntity
  8
0
  6
Continuous
 62
     7
370
    25
100
AcDbLine
 10
87.8341733972
 20
335.3662774265
 30
0.0
 11
85.4910276467
 21
335.3662774265
 31
0.0
  0
LINE
  5
1A2
330
1F
100
AcDbEntity
  8
0
  6
Continuous
 62
     7
370
    25
100
AcDbLine
 10
86.4910276467
 20
335.401198196
 30
0.0
 11
85.4910276467
 21
335.366274765
 31
0.0
  0
LINE
  5
1A3
330
1F
100
AcDbEntity
  8
0
  6
Continuous
 62
     7
370
    25
100
AcDbLine
 10
88.5412801784
 20
335.401198196
 30
0.0
 11
86.4910276467
 21
335.401198196
 31
0.0
  0
LINE
  5
1A4
330
1F
100
AcDbEntity
  8
0
  6
Continuous
 62
     7
370
    25
100
AcDbLine
 10
163.0084773951
 20
321.9541887089
 30
0.0
 11
162.4735778984
 21
321.9355096069
 31
0.0
  0
LINE
  5
1A5
330
1F
100
AcDbEntity
  8
0
  6
Continuous
 62
     7
370
    25
100
AcDbLine
 10
160.4284362797
 20
321.9355096069
 30
0.0
 11
162.4735778984
 21
321.9355096069
 31
0.0
  0
LINE
  5
1A6
330
1F
100
AcDbEntity
  8
0
  6
Continuous
 62
     7
370
    25
100
AcDbLine
 10
86.5084773951
 20
333.9355096069
 30
0.0
 11
88.5536190138
 21
333.9355096069
 31
0.0
  0
LINE
  5
1A7
330
1F
100
AcDbEntity
  8
0
  6
Continuous
 62
     7
370
    25
100
AcDbLine
 10
85.9735778984
 20
333.9541887089
 30
0.0
 11
86.5084773951
 21
333.9355096069
 31
0.0
  0
LINE
  5
1A8
330
1F
100
AcDbEntity
  8
0
  6
Continuous
 62
     7
370
    25
100
AcDbLine
 10
162.4910276467
 20
323.401198196
 30
0.0
 11
162.4910276467
 21
324.201198196
 31
0.0
  0
LINE
  5
1A9
330
1F
100
AcDbEntity
  8
0
  6
Continuous
 62
     7
370
    25
100
AcDbLine
 10
86.4910276467
 20
335.401198196
 30
0.0
 11
86.4910276467
 21
336.201198196
 31
0.0
  0
ARC
  5
1AA
330
1F
100
AcDbEntity
  8
0
  6
Continuous
 62
     7
370
    25
100
AcDbCircle
 10
162.4910276467
 20
321.4358141934
 30
0.0
 40
0.500000000000036
100
AcDbArc
 50
92.0
 51
180.0
  0
ARC
  5
1AB
330
1F
100
AcDbEntity
  8
0
  6
Continuous
 62
     7
370
    25
100
AcDbCircle
 10
86.4910276467
 20
333.4358141934
 30
0.0
 40
0.5
100
AcDbArc
 50
0.0
 51
88.0
  0
LINE
  5
1AC
330
1F
100
AcDbEntity
  8
0
  6
Continuous
 62
     7
370
    25
100
AcDbLine
 10
161.9910276467
 20
321.4358141934
 30
0.0
 11
161.9910276467
 21
302.7186585808
 31
0.0
  0
LINE
  5
1AD
330
1F
100
AcDbEntity
  8
0
  6
Continuous
 62
     7
370
    25
100
AcDbLine
 10
160.0872217245
 20
302.7186585808
 30
0.0
 11
161.9910276467
 21
302.7186585808
 31
0.0
  0
LINE
  5
1AE
330
1F
100
AcDbEntity
  8
0
  6
Continuous
 62
     7
370
    25
100
AcDbLine
 10
163.4910276467
 20
324.1662774265
 30
0.0
 11
163.4910276467
 21
323.366274765
 31
0.0
  0
LINE
  5
1AF
330
1F
100
AcDbEntity
  8
0
  6
Continuous
 62
     7
370
    25
100
AcDbLine
 10
163.4910276467
 20
324.1662774265
 30
0.0
 11
162.4910276467
 21
324.201198196
 31
0.0
  0
LINE
  5
1B0
330
1F
100
AcDbEntity
  8
0
  6
Continuous
 62
     7
370
    25
100
AcDbLine
 10
85.4910276467
 20
335.366274765
 30
0.0
 11
85.4910276467
 21
336.1662774265
 31
0.0
  0
LINE
  5
1B1
330
1F
100
AcDbEntity
  8
0
  6
Continuous
 62
     7
370
    25
100
AcDbLine
 10
85.4910276467
 20
336.1662774265
 30
0.0
 11
86.4910276467
 21
336.201198196
 31
0.0
  0
LINE
  5
1B2
330
1F
100
AcDbEntity
  8
0
  6
Continuous
 62
     7
370
    25
100
AcDbLine
 10
163.4910276467
 20
322.3000179614
 30
0.0
 11
163.4910276467
 21
321.8880869975
 31
0.0
  0
LINE
  5
1B3
330
1F
100
AcDbEntity
  8
0
  6
Continuous
 62
     7
370
    25
100
AcDbLine
 10
85.4910276467
 20
333.7547978819
 30
0.0
 11
85.4910276467
 21
334.4538841224
 31
0.0
  0
SPLINE
  5
1B4
330
1F
100
AcDbEntity
  8
0
  6
Continuous
 62
     7
370
    25
100
AcDbSpline
210
0.0
220
0.0
230
1.0
 70
     8
 71
     3
 72
    17
 73
    13
 74
     0
 42
0.00000001
 43
0.00000001
 40
0.0
 40
0.0
 40
0.0
 40
0.0
 40
0.07394408414382
 40
0.1515136543327323
 40
0.2328269791586754
 40
0.3179829369395172
 40
0.4070646240624363
 40
0.5001427305102493
 40
0.6084716943621479
 40
0.7496896131422952
 40
0.9027328784264942
 40
0.9999999999999999
 40
0.9999999999999999
 40
0.9999999999999999
 40
0.9999999999999999
 10
161.9910276467418
 20
307.3882856203263
 30
0.0
 10
161.9917072756783
 20
307.408233090621
 30
0.0
 10
161.9930998558278
 20
307.4491060577291
 30
0.0
 10
162.0045678363659
 20
307.5109248720901
 30
0.0
 10
162.023716381072
 20
307.5736223394561
 30
0.0
 10
162.0518193533679
 20
307.6359386149212
 30
0.0
 10
162.0890517052048
 20
307.6964365110826
 30
0.0
 10
162.1374717263283
 20
307.755773968673
 30
0.0
 10
162.2034465771063
 20
307.8163267561039
 30
0.0
 10
162.291799946036
 20
307.8717850468456
 30
0.0
 10
162.3863809842542
 20
307.9073302737886
 30
0.0
 10
162.4493204865436
 20
307.9159061471635
 30
0.0
 10
162.4737778983906
 20
307.9192386118232
 30
0.0
  0
LINE
  5
1B5
330
1F
100
AcDbEntity
  8
0
  6
Continuous
 62
     7
370
    25
100
AcDbLine
 10
85.4910276467
 20
308.2538841224
 30
0.0
 11
85.4910276467
 21
323.2186585808
 31
0.0
  0
LINE
  5
1B6
330
1F
100
AcDbEntity
  8
0
  6
Continuous
 62
     7
370
    25
100
AcDbLine
 10
85.4910276467
 20
323.2186585808
 30
0.0
 11
85.4910276467
 21
333.7547978819
 31
0.0
  0
ELLIPSE
  5
1B7
330
1F
100
AcDbEntity
  8
0
  6
Continuous
 62
     7
370
    25
100
AcDbEllipse
 10
151.759915184
 20
323.2186585808
 30
0.0
 11
43.56751411808364
 21
0.0
 31
0.0
210
0.0
220
0.0
230
1.0
 40
0.3622911416
 41
4.960846805731211
 42
4.973533999753163
  0
SPLINE
  5
1B8
330
1F
100
AcDbEntity
  8
0
  6
Continuous
 62
     7
370
    25
100
AcDbSpline
210
0.0
220
0.0
230
1.0
 70
     8
 71
     3
 72
    16
 73
    12
 74
     0
 42
0.00000001
 43
0.00000001
 40
0.0
 40
0.0
 40
0.0
 40
0.0
 40
0.0848355853240049
 40
0.1771357453169472
 40
0.2770718788083299
 40
0.3847864151054382
 40
0.5003978438771495
 40
0.5947122625912286
 40
0.7501676906063037
 40
0.8908559546610515
 40
1.0
 40
1.0
 40
1.0
 40
1.0
 10
163.4910276467418
 20
308.5084251892968
 30
0.0
 10
163.4901320528
 20
308.4853851184486
 30
0.0
 10
163.4882620627508
 20
308.437277710381
 30
0.0
 10
163.4725419594069
 20
308.3635708429185
 30
0.0
 10
163.4451936666217
 20
308.2872781246202
 30
0.0
 10
163.4036352418094
 20
308.2109963140416
 30
0.0
 10
163.3518021153368
 20
308.1441387737128
 30
0.0
 10
163.2823522719132
 20
308.077728314727
 30
0.0
 10
163.1968819921582
 20
308.0217247865551
 30
0.0
 10
163.0991130186699
 20
307.9830093973757
 30
0.0
 10
163.0358952793558
 20
307.9737298110339
 30
0.0
 10
163.0082773950931
 20
307.9696758454164
 30
0.0
  0
LINE
  5
1B9
330
1F
100
AcDbEntity
  8
0
  6
Continuous
 62
     7
370
    25
100
AcDbLine
 10
163.4910276467
 20
321.8880869975
 30
0.0
 11
163.4910276467
 21
308.5084251893
 31
0.0
  0
ARC
  5
1BA
330
1F
100
AcDbEntity
  8
0
  6
Continuous
 62
     7
370
    25
100
AcDbCircle
 10
100.0253388719
 20
303.2186585808
 30
0.0
 40
1.0
100
AcDbArc
 50
2.0
 51
90.0
  0
LINE
  5
1BB
330
1F
100
AcDbEntity
  8
0
  6
Continuous
 62
     7
370
    25
100
AcDbLine
 10
101.043408801
 20
302.7186585808
 30
0.0
 11
101.024729699
 21
303.2535580775
 31
0.0
  0
LINE
  5
1BC
330
1F
100
AcDbEntity
  8
0
  6
Continuous
 62
     7
370
    25
100
AcDbLine
 10
107.4534173624
 20
302.7186585808
 30
0.0
 11
101.043408801
 21
302.7186585808
 31
0.0
  0
LINE
  5
1BD
330
1F
100
AcDbEntity
  8
0
  6
Continuous
 62
     7
370
    25
100
AcDbLine
 10
143.8910276467
 20
302.7186585808
 30
0.0
 11
142.7410276467
 21
302.7186585808
 31
0.0
  0
LINE
  5
1BE
330
1F
100
AcDbEntity
  8
0
  6
Continuous
 62
     7
370
    25
100
AcDbLine
 10
146.2410276467
 20
302.7186585808
 30
0.0
 11
145.0910276467
 21
302.7186585808
 31
0.0
  0
LINE
  5
1BF
330
1F
100
AcDbEntity
  8
0
  6
Continuous
 62
     7
370
    25
100
AcDbLine
 10
142.7410276467
 20
302.7186585808
 30
0.0
 11
139.293408801
 21
302.7186585808
 31
0.0
  0
LINE
  5
1C0
330
1F
100
AcDbEntity
  8
0
  6
Continuous
 62
     7
370
    25
100
AcDbLine
 10
149.6886464925
 20
302.7186585808
 30
0.0
 11
146.2410276467
 21
302.7186585808
 31
0.0
  0
ARC
  5
1C1
330
1F
100
AcDbEntity
  8
0
  6
Continuous
 62
     7
370
    25
100
AcDbCircle
 10
108.9567164215
 20
303.2186585808
 30
0.0
 40
1.000000000000075
100
AcDbArc
 50
113.2925289678
 51
178.0
  0
LINE
  5
1C2
330
1F
100
AcDbEntity
  8
0
  6
Continuous
 62
     7
370
    25
100
AcDbLine
 10
107.9386464925
 20
302.7186585808
 30
0.0
 11
107.9573255945
 21
303.2535580775
 31
0.0
  0
LINE
  5
1C3
330
1F
100
AcDbEntity
  8
0
  6
Continuous
 62
     7
370
    25
100
AcDbLine
 10
107.9386464925
 20
302.7186585808
 30
0.0
 11
107.88083286
 21
302.7186585808
 31
0.0
  0
SPLINE
  5
1C4
330
1F
100
AcDbEntity
  8
0
  6
Continuous
 62
     7
370
    25
100
AcDbSpline
210
0.0
220
0.0
230
1.0
 70
     8
 71
     3
 72
     9
 73
     5
 74
     0
 42
0.00000001
 43
0.00000001
 40
0.0
 40
0.0
 40
0.0
 40
0.0
 40
0.5519786670408425
 40
1.0
 40
1.0
 40
1.0
 40
1.0
 10
163.4910276467418
 20
308.4003894003657
 30
0.0
 10
163.4897087150046
 20
308.3687735614906
 30
0.0
 10
163.4873192535707
 20
308.3114962774887
 30
0.0
 10
163.4699095579227
 20
308.2580834793245
 30
0.0
 10
163.4621096428721
 20
308.2341534062938
 30
0.0
  0
SPLINE
  5
1C5
330
1F
100
AcDbEntity
  8
0
  6
Continuous
 62
     7
370
    25
100
AcDbSpline
210
0.0
220
0.0
230
1.0
 70
     8
 71
     3
 72
    17
 73
    13
 74
     0
 42
0.00000001
 43
0.00000001
 40
0.0
 40
0.0
 40
0.0
 40
0.0
 40
0.0978019265182007
 40
0.1719910609671273
 40
0.2225456104812759
 40
0.2494440239489427
 40
0.383472424992334
 40
0.4990561414298968
 40
0.6367695225068909
 40
0.7654125835767366
 40
0.8860447962581993
 40
1.0
 40
1.0
 40
1.0
 40
1.0
 10
162.4737778983906
 20
307.8036833819315
 30
0.0
 10
162.4504155464186
 20
307.8005782152163
 30
0.0
 10
162.4093313280868
 20
307.7951175772019
 30
0.0
 10
162.357383449202
 20
307.7797016962831
 30
0.0
 10
162.322873467759
 20
307.7664346357606
 30
0.0
 10
162.2756256225237
 20
307.7452262970588
 30
0.0
 10
162.2157521926293
 20
307.7101341054999
 30
0.0
 10
162.1402756567315
 20
307.6458489953271
 30
0.0
 10
162.0759987078107
 20
307.5673966987708
 30
0.0
 10
162.0268736123757
 20
307.4736693732366
 30
0.0
 10
161.9965971908226
 20
307.3759674381632
 30
0.0
 10
161.9928485963008
 20
307.3094563476894
 30
0.0
 10
161.9910276467418
 20
307.2771473475666
 30
0.0
  0
LINE
  5
1C6
330
1F
100
AcDbEntity
  8
0
  6
Continuous
 62
     7
370
    25
100
AcDbLine
 10
163.3841615509
 20
336.1700092728
 30
0.0
 11
163.4910276467
 21
336.1662774265
 31
0.0
  0
LINE
  5
1C7
330
1F
100
AcDbEntity
  8
0
  6
Continuous
 62
     7
370
    25
100
AcDbLine
 10
163.4910276467
 20
336.1662774265
 30
0.0
 11
163.4910276467
 21
330.0476547438
 31
0.0
  0
LINE
  5
1C8
330
1F
100
AcDbEntity
  8
0
  6
Continuous
 62
     7
370
    25
100
AcDbLine
 10
163.4910276467
 20
324.3186585808
 30
0.0
 11
163.4910276467
 21
324.1662774265
 31
0.0
  0
ARC
  5
1C9
330
1F
100
AcDbEntity
  8
0
  6
Continuous
 62
     7
370
    25
100
AcDbCircle
 10
124.4910276467
 20
323.2186585808
 30
0.0
 40
14.02793661559343
100
AcDbArc
 50
180.0
 51
3.9734851973
  0
LINE
  5
1CA
330
1F
100
AcDbEntity
  8
0
  6
Continuous
 62
     7
370
    25
100
AcDbLine
 10
110.4630910311
 20
336.1907219652
 30
0.0
 11
110.4630910311
 21
323.2186585808
 31
0.0
  0
LINE
  5
1CB
330
1F
100
AcDbEntity
  8
0
  6
Continuous
 62
     7
370
    25
100
AcDbLine
 10
110.4630910311
 20
336.1907219652
 30
0.0
 11
124.4910276467
 21
336.1907219652
 31
0.0
  0
ARC
  5
1CC
330
1F
100
AcDbEntity
  8
0
  6
Continuous
 62
     7
370
    25
100
AcDbCircle
 10
124.4910276467
 20
323.2186585808
 30
0.0
 40
12.97206387421059
100
AcDbArc
 50
8.1118432623
 51
90.0
  0
ELLIPSE
  5
1CD
330
1F
100
AcDbEntity
  8
0
  6
Continuous
 62
     7
370
    25
100
AcDbEllipse
 10
138.3237474196
 20
325.1913301922
 30
0.0
 11
-0.6557771526648254
 21
-0.7563668690893339
 31
0.0
210
0.0
220
0.0
230
1.0
 40
0.9989331405
 41
5.568780872888579
 42
6.996943736699192
  0
LINE
  5
1CE
330
1F
100
AcDbEntity
  8
0
  6
Continuous
 62
     7
370
    25
100
AcDbLine
 10
138.3226906369
 20
324.1907218184
 30
0.0
 11
138.4852442546
 21
324.1907219652
 31
0.0
  0
ARC
  5
1CF
330
1F
100
AcDbEntity
  8
0
  6
Continuous
 62
     7
370
    25
100
AcDbCircle
 10
124.4910276467
 20
323.2265725437
 30
0.0
 40
12.98340901282342
100
AcDbArc
 50
8.1215789956
 51
90.0
  0
ELLIPSE
  5
1D0
330
1F
100
AcDbEntity
  8
0
  6
Continuous
 62
     7
370
    25
100
AcDbEllipse
 10
138.3346317125
 20
325.2038840277
 30
0.0
 11
0.5336272323081062
 21
0.8477506422609622
 31
0.0
210
0.0
220
0.0
230
0.9999999999999998
 40
0.9982429556
 41
2.275214890154831
 42
3.702602784020623
  0
LINE
  5
1D1
330
1F
100
AcDbEntity
  8
0
  6
Continuous
 62
     7
370
    25
100
AcDbLine
 10
138.3330461209
 20
324.2026638198
 30
0.0
 11
138.4724396109
 21
324.2026625637
 31
0.0
  0
LINE
  5
1D2
330
1F
100
AcDbEntity
  8
0
  6
Continuous
 62
     7
370
    25
100
AcDbLine
 10
138.4852442546
 20
324.1907219652
 30
0.0
 11
138.4724396109
 21
324.2026625637
 31
0.0
  0
LINE
  5
1D3
330
1F
100
AcDbEntity
  8
0
  6
Continuous
 62
     7
370
    25
100
AcDbLine
 10
110.4823506225
 20
336.2099815565
 30
0.0
 11
124.4910276467
 21
336.2099815565
 31
0.0
  0
LINE
  5
1D4
330
1F
100
AcDbEntity
  8
0
  6
Continuous
 62
     7
370
    25
100
AcDbLine
 10
110.4630910311
 20
336.1907219652
 30
0.0
 11
110.4823506225
 21
336.2099815565
 31
0.0
  0
LINE
  5
1D5
330
1F
100
AcDbEntity
  8
0
  6
Continuous
 62
     7
370
    25
100
AcDbLine
 10
138.4724396109
 20
324.2026625637
 30
0.0
 11
155.4910276467
 21
324.2026625637
 31
0.0
  0
LINE
  5
1D6
330
1F
100
AcDbEntity
  8
0
  6
Continuous
 62
     7
370
    25
100
AcDbLine
 10
93.4910276467
 20
336.2099815565
 30
0.0
 11
110.4823506225
 21
336.2099815565
 31
0.0
  0
LINE
  5
1D7
330
1F
100
AcDbEntity
  8
0
  6
Continuous
 62
     7
370
    25
100
AcDbLine
 10
162.4490936431
 20
324.2026625637
 30
0.0
 11
162.4470689251
 21
324.3186585808
 31
0.0
  0
LINE
  5
1D8
330
1F
100
AcDbEntity
  8
0
  6
Continuous
 62
     7
370
    25
100
AcDbLine
 10
155.4910276467
 20
324.2026625637
 30
0.0
 11
162.4490936431
 21
324.2026625637
 31
0.0
  0
LINE
  5
1D9
330
1F
100
AcDbEntity
  8
0
  6
Continuous
 62
     7
370
    25
100
AcDbLine
 10
86.7443069019
 20
336.310623911
 30
0.0
 11
86.742550183
 21
336.2099815565
 31
0.0
  0
LINE
  5
1DA
330
1F
100
AcDbEntity
  8
0
  6
Continuous
 62
     7
370
    25
100
AcDbLine
 10
162.7910276467
 20
324.3186585808
 30
0.0
 11
162.7910276467
 21
324.1907219652
 31
0.0
  0
LINE
  5
1DB
330
1F
100
AcDbEntity
  8
0
  6
Continuous
 62
     7
370
    25
100
AcDbLine
 10
107.88083286
 20
302.7186585808
 30
0.0
 11
107.4534173624
 21
302.7186585808
 31
0.0
  0
LINE
  5
1DC
330
1F
100
AcDbEntity
  8
0
  6
Continuous
 62
     7
370
    25
100
AcDbLine
 10
145.0910276467
 20
302.7186585808
 30
0.0
 11
143.8910276467
 21
302.7186585808
 31
0.0
  0
SPLINE
  5
1DD
330
1F
100
AcDbEntity
  8
0
  6
Continuous
 62
     7
370
    25
100
AcDbSpline
210
0.0
220
0.0
230
1.0
 70
     8
 71
     3
 72
    16
 73
    12
 74
     0
 42
0.00000001
 43
0.00000001
 40
0.0
 40
0.0
 40
0.0
 40
0.0
 40
0.1015116314355624
 40
0.2002953839759506
 40
0.2984187077958124
 40
0.3979901999569649
 40
0.5010295899356693
 40
0.6245338848368396
 40
0.750896013953561
 40
0.8752186839507745
 40
1.0
 40
1.0
 40
1.0
 40
1.0
 10
163.0084773950932
 20
307.9696951689072
 30
0.0
 10
163.0342038706635
 20
307.9732214117521
 30
0.0
 10
163.0849654851684
 20
307.9801791382179
 30
0.0
 10
163.1579403064212
 20
308.0046700925534
 30
0.0
 10
163.2264367147176
 20
308.0393808181162
 30
0.0
 10
163.2902063325193
 20
308.0853002968594
 30
0.0
 10
163.3524464533393
 20
308.1444120875177
 30
0.0
 10
163.4097189802208
 20
308.2191146092025
 30
0.0
 10
163.4550295506488
 20
308.3090123871135
 30
0.0
 10
163.4856746025384
 20
308.4066836688872
 30
0.0
 10
163.4892411098097
 20
308.4744697469662
 30
0.0
 10
163.4910276467418
 20
308.5084251892968
 30
0.0
  0
SPLINE
  5
1DE
330
1F
100
AcDbEntity
  8
0
  6
Continuous
 62
     7
370
    25
100
AcDbSpline
210
0.0
220
0.0
230
1.0
 70
     8
 71
     3
 72
    17
 73
    13
 74
     0
 42
0.00000001
 43
0.00000001
 40
0.0
 40
0.0
 40
0.0
 40
0.0
 40
0.0709729569439551
 40
0.1413289527448291
 40
0.2120491619513153
 40
0.2840998812579169
 40
0.3915251899085552
 40
0.4992542634296622
 40
0.6220521330452662
 40
0.749681012317958
 40
0.873797522619405
 40
0.9999999999999999
 40
0.9999999999999999
 40
0.9999999999999999
 40
0.9999999999999999
 10
161.9910276467418
 20
307.3882856203263
 30
0.0
 10
161.9916168138567
 20
307.4074287071658
 30
0.0
 10
161.9927900265128
 20
307.4455484718172
 30
0.0
 10
162.0025109083598
 20
307.5019666165912
 30
0.0
 10
162.0180853267796
 20
307.5570872865767
 30
0.0
 10
162.0434342482278
 20
307.6190529845465
 30
0.0
 10
162.0811298368921
 20
307.6856525524481
 30
0.0
 10
162.1364305181663
 20
307.7556672512824
 30
0.0
 10
162.2061646178705
 20
307.8183058059163
 30
0.0
 10
162.2886751307623
 20
307.8688959856315
 30
0.0
 10
162.3787800840957
 20
307.905627918909
 30
0.0
 10
162.4418035637924
 20
307.9146643850052
 30
0.0
 10
162.4735778983906
 20
307.9192202695534
 30
0.0
  0
LINE
  5
1DF
330
1F
100
AcDbEntity
  8
0
  6
Continuous
 62
     7
370
    25
100
AcDbLine
 10
163.4910276467
 20
308.5084251893
 30
0.0
 11
163.4910276467
 21
308.2538841224
 31
0.0
  0
LINE
  5
1E0
330
1F
100
AcDbEntity
  8
0
  6
Continuous
 62
     7
370
    25
100
AcDbLine
 10
93.4910276467
 20
333.9355096069
 30
0.0
 11
94.4744812071
 21
333.9355096069
 31
0.0
  0
ELLIPSE
  5
1E1
330
1F
100
AcDbEntity
  8
0
  6
Continuous
 62
     7
370
    25
100
AcDbEllipse
 10
94.4732624898
 20
334.4364237377
 30
0.0
 11
-0.3548455112283335
 21
0.3548455112283477
 31
0.0
210
0.0
220
0.0
230
1.0
 40
0.9963586389
 41
2.356803477777989
 42
3.725744470853618
  0
ARC
  5
1E2
330
1F
100
AcDbEntity
  8
0
  6
Continuous
 62
     7
370
    25
100
AcDbCircle
 10
95.4545279291
 20
334.2350714134
 30
0.0
 40
0.5004387235185418
100
AcDbArc
 50
90.0833916099
 51
168.4348339349
  0
LINE
  5
1E3
330
1F
100
AcDbEntity
  8
0
  6
Continuous
 62
     7
370
    25
100
AcDbLine
 10
95.4537995617
 20
334.7355096069
 30
0.0
 11
108.0084878458
 21
334.7355096069
 31
0.0
  0
ARC
  5
1E4
330
1F
100
AcDbEntity
  8
0
  6
Continuous
 62
     7
370
    25
100
AcDbCircle
 10
108.0078784872
 20
333.7355094212
 30
0.0
 40
1.000000371317886
100
AcDbArc
 50
0.0349136675
 51
89.9650863325
  0
LINE
  5
1E5
330
1F
100
AcDbEntity
  8
0
  6
Continuous
 62
     7
370
    25
100
AcDbLine
 10
109.0078786728
 20
333.7361187798
 30
0.0
 11
109.0078786728
 21
323.2186585808
 31
0.0
  0
LINE
  5
1E6
330
1F
100
AcDbEntity
  8
0
  6
Continuous
 62
     7
370
    25
100
AcDbLine
 10
154.5075740864
 20
321.9355096069
 30
0.0
 11
155.4910276467
 21
321.9355096069
 31
0.0
  0
ELLIPSE
  5
1E7
330
1F
100
AcDbEntity
  8
0
  6
Continuous
 62
     7
370
    25
100
AcDbEllipse
 10
154.5087928036
 20
322.4364237377
 30
0.0
 11
0.3548455112283193
 21
0.3548455112283477
 31
0.0
210
0.0
220
0.0
230
0.9999999999999998
 40
0.9963586389
 41
2.55744083632586
 42
3.92638182940158
  0
ARC
  5
1E8
330
1F
100
AcDbEntity
  8
0
  6
Continuous
 62
     7
370
    25
100
AcDbCircle
 10
153.5275273644
 20
322.2350714134
 30
0.0
 40
0.5004387235187694
100
AcDbArc
 50
11.5651660651
 51
89.9166083901
  0
LINE
  5
1E9
330
1F
100
AcDbEntity
  8
0
  6
Continuous
 62
     7
370
    25
100
AcDbLine
 10
140.9067577258
 20
322.7355096069
 30
0.0
 11
153.5282557318
 21
322.7355096069
 31
0.0
  0
SPLINE
  5
1EA
330
1F
100
AcDbEntity
  8
0
  6
Continuous
 62
     7
370
    25
100
AcDbSpline
210
0.0
220
0.0
230
1.0
 70
     8
 71
     3
 72
    12
 73
     8
 74
     0
 42
0.00000001
 43
0.00000001
 40
0.0
 40
0.0
 40
0.0
 40
0.0
 40
0.25
 40
0.25
 40
0.5
 40
0.5
 40
1.0
 40
1.0
 40
1.0
 40
1.0
 10
139.911417792846
 20
321.8260100645409
 30
0.0
 10
139.9226744835205
 20
321.9498829602899
 30
0.0
 10
139.956472322753
 20
322.069005257949
 30
0.0
 10
140.0664742943312
 20
322.2907645690726
 30
0.0
 10
140.1415904956435
 20
322.3903905868634
 30
0.0
 10
140.4145892864568
 20
322.6399588060738
 30
0.0
 10
140.6579909258986
 20
322.7353712467123
 30
0.0
 10
140.9067577257665
 20
322.7355096068661
 30
0.0
  0
ARC
  5
1EB
330
1F
100
AcDbEntity
  8
0
  6
Continuous
 62
     7
370
    25
100
AcDbCircle
 10
214.4058319774
 20
192.8541728075
 30
0.0
 40
1.0
100
AcDbArc
 50
0.0
 51
88.0
  0
ARC
  5
1EC
330
1F
100
AcDbEntity
  8
0
  6
Continuous
 62
     7
370
    25
100
AcDbCircle
 10
214.4058319774
 20
205.2855503571
 30
0.0
 40
1.0
100
AcDbArc
 50
272.0
 51
0.0
  0
LINE
  5
1ED
330
1F
100
AcDbEntity
  8
0
  6
Continuous
 62
     7
370
    25
100
AcDbLine
 10
213.9058319774
 20
193.8722427365
 30
0.0
 11
214.4407314741
 21
193.8535636345
 31
0.0
  0
LINE
  5
1EE
330
1F
100
AcDbEntity
  8
0
  6
Continuous
 62
     7
370
    25
100
AcDbLine
 10
214.4407314741
 20
204.28615953
 30
0.0
 11
213.9058319774
 21
204.267480428
 31
0.0
  0
ARC
  5
1EF
330
1F
100
AcDbEntity
  8
0
  6
Continuous
 62
     7
370
    25
100
AcDbCircle
 10
218.42298759
 20
161.0698615823
 30
0.0
 40
0.5000000000000087
100
AcDbArc
 50
2.0
 51
90.0
  0
ARC
  5
1F0
330
1F
100
AcDbEntity
  8
0
  6
Continuous
 62
     7
370
    25
100
AcDbCircle
 10
218.42298759
 20
237.0698615823
 30
0.0
 40
0.5000000000000077
100
AcDbArc
 50
270.0
 51
358.0
  0
LINE
  5
1F1
330
1F
100
AcDbEntity
  8
0
  6
Continuous
 62
     7
370
    25
100
AcDbLine
 10
218.9226830035
 20
161.0873113306
 30
0.0
 11
218.9413621056
 21
160.5524118339
 31
0.0
  0
ARC
  5
1F2
330
1F
100
AcDbEntity
  8
0
  6
Continuous
 62
     7
370
    25
100
AcDbCircle
 10
219.4410575191
 20
160.5698615823
 30
0.0
 40
0.5000000000000087
100
AcDbArc
 50
182.0
 51
270.0
  0
LINE
  5
1F3
330
1F
100
AcDbEntity
  8
0
  6
Continuous
 62
     7
370
    25
100
AcDbLine
 10
218.9413621056
 20
237.5873113306
 30
0.0
 11
218.9226830035
 21
237.0524118339
 31
0.0
  0
ARC
  5
1F4
330
1F
100
AcDbEntity
  8
0
  6
Continuous
 62
     7
370
    25
100
AcDbCircle
 10
219.4410575191
 20
237.5698615823
 30
0.0
 40
0.5000000000000087
100
AcDbArc
 50
90.0
 51
178.0
  0
LINE
  5
1F5
330
1F
100
AcDbEntity
  8
0
  6
Continuous
 62
     7
370
    25
100
AcDbLine
 10
247.4977973077
 20
168.0698615823
 30
0.0
 11
247.4977973077
 21
199.0698615823
 31
0.0
  0
ARC
  5
1F6
330
1F
100
AcDbEntity
  8
0
  6
Continuous
 62
     7
370
    25
100
AcDbCircle
 10
234.4058319774
 20
199.0698615823
 30
0.0
 40
13.09196533026774
100
AcDbArc
 50
0.0
 51
81.7820403885
  0
ARC
  5
1F7
330
1F
100
AcDbEntity
  8
0
  6
Continuous
 62
     7
370
    25
100
AcDbCircle
 10
236.4058319774
 20
212.9181500615
 30
0.0
 40
0.8999999999999851
100
AcDbArc
 50
180.0
 51
261.7820403885
  0
LINE
  5
1F8
330
1F
100
AcDbEntity
  8
0
  6
Continuous
 62
     7
370
    25
100
AcDbLine
 10
235.5058319774
 20
230.0698615823
 30
0.0
 11
235.5058319774
 21
212.9181500615
 31
0.0
  0
LINE
  5
1F9
330
1F
100
AcDbEntity
  8
0
  6
Continuous
 62
     7
370
    25
100
AcDbLine
 10
235.5058319774
 20
238.1698615823
 30
0.0
 11
235.5058319774
 21
230.0698615823
 31
0.0
  0
LINE
  5
1FA
330
1F
100
AcDbEntity
  8
0
  6
Continuous
 62
     7
370
    25
100
AcDbLine
 10
255.0302653464
 20
237.8290613301
 30
0.0
 11
235.5058319774
 21
238.1698615823
 31
0.0
  0
LINE
  5
1FB
330
1F
100
AcDbEntity
  8
0
  6
Continuous
 62
     7
370
    25
100
AcDbLine
 10
255.0302653464
 20
160.3106618344
 30
0.0
 11
247.4977973077
 21
160.1791821157
 31
0.0
  0
LINE
  5
1FC
330
1F
100
AcDbEntity
  8
0
  6
Continuous
 62
     7
370
    25
100
AcDbLine
 10
247.4977973077
 20
160.1791821157
 30
0.0
 11
247.4977973077
 21
168.0698615823
 31
0.0
  0
LINE
  5
1FD
330
1F
100
AcDbEntity
  8
0
  6
Continuous
 62
     7
370
    25
100
AcDbLine
 10
256.4058319774
 20
161.7104486076
 30
0.0
 11
256.4058319774
 21
168.0698615823
 31
0.0
  0
ARC
  5
1FE
330
1F
100
AcDbEntity
  8
0
  6
Continuous
 62
     7
370
    25
100
AcDbCircle
 10
255.0058319774
 20
161.7104486076
 30
0.0
 40
1.400000000000034
100
AcDbArc
 50
271.0
 51
0.0
  0
LINE
  5
1FF
330
1F
100
AcDbEntity
  8
0
  6
Continuous
 62
     7
370
    25
100
AcDbLine
 10
256.4058319774
 20
230.0698615823
 30
0.0
 11
256.4058319774
 21
168.0698615823
 31
0.0
  0
LINE
  5
200
330
1F
100
AcDbEntity
  8
0
  6
Continuous
 62
     7
370
    25
100
AcDbLine
 10
256.4058319774
 20
236.4292745569
 30
0.0
 11
256.4058319774
 21
230.0698615823
 31
0.0
  0
ARC
  5
201
330
1F
100
AcDbEntity
  8
0
  6
Continuous
 62
     7
370
    25
100
AcDbCircle
 10
255.0058319774
 20
236.4292745569
 30
0.0
 40
1.400000000000034
100
AcDbArc
 50
0.0
 51
89.0
  0
LINE
  5
202
330
1F
100
AcDbEntity
  8
0
  6
Continuous
 62
     7
370
    25
100
AcDbLine
 10
247.3921247377
 20
161.1773375941
 30
0.0
 11
247.4977973077
 21
161.1791821157
 31
0.0
  0
LINE
  5
203
330
1F
100
AcDbEntity
  8
0
  6
Continuous
 62
     7
370
    25
100
AcDbLine
 10
247.4977973077
 20
160.1791821157
 30
0.0
 11
247.3571826695
 21
160.1767276781
 31
0.0
  0
LINE
  5
204
330
1F
100
AcDbEntity
  8
0
  6
Continuous
 62
     7
370
    25
100
AcDbLine
 10
241.2348281405
 20
160.0698615823
 30
0.0
 11
236.2771867187
 21
159.9833256294
 31
0.0
  0
LINE
  5
205
330
1F
100
AcDbEntity
  8
0
  6
Continuous
 62
     7
370
    25
100
AcDbLine
 10
235.5058319774
 20
159.9698615823
 30
0.0
 11
235.5058319774
 21
160.0698615823
 31
0.0
  0
LINE
  5
206
330
1F
100
AcDbEntity
  8
0
  6
Continuous
 62
     7
370
    25
100
AcDbLine
 10
236.2771867187
 20
159.9833256294
 30
0.0
 11
235.5058319774
 21
159.9698615823
 31
0.0
  0
LINE
  5
207
330
1F
100
AcDbEntity
  8
0
  6
Continuous
 62
     7
370
    25
100
AcDbLine
 10
235.3534508232
 20
230.0349408128
 30
0.0
 11
234.5534481617
 21
230.0349408128
 31
0.0
  0
LINE
  5
208
330
1F
100
AcDbEntity
  8
0
  6
Continuous
 62
     7
370
    25
100
AcDbLine
 10
234.5883715927
 20
230.0698615823
 30
0.0
 11
234.5534481617
 21
230.0349408128
 31
0.0
  0
LINE
  5
209
330
1F
100
AcDbEntity
  8
0
  6
Continuous
 62
     7
370
    25
100
AcDbLine
 10
234.5883715927
 20
230.0698615823
 30
0.0
 11
235.3883715927
 21
230.0698615823
 31
0.0
  0
LINE
  5
20A
330
1F
100
AcDbEntity
  8
0
  6
Continuous
 62
     7
370
    25
100
AcDbLine
 10
235.3534508232
 20
230.0349408128
 30
0.0
 11
235.3883715927
 21
230.0698615823
 31
0.0
  0
LINE
  5
20B
330
1F
100
AcDbEntity
  8
0
  6
Continuous
 62
     7
370
    25
100
AcDbLine
 10
235.3898358813
 20
213.0512130441
 30
0.0
 11
235.3534508232
 21
213.0902551084
 31
0.0
  0
LINE
  5
20C
330
1F
100
AcDbEntity
  8
0
  6
Continuous
 62
     7
370
    25
100
AcDbLine
 10
235.3534508232
 20
213.0902551084
 30
0.0
 11
235.3534508232
 21
230.0349408128
 31
0.0
  0
LINE
  5
20D
330
1F
100
AcDbEntity
  8
0
  6
Continuous
 62
     7
370
    25
100
AcDbLine
 10
246.5534481617
 20
168.1047823518
 30
0.0
 11
247.3534508232
 21
168.1047823518
 31
0.0
  0
LINE
  5
20E
330
1F
100
AcDbEntity
  8
0
  6
Continuous
 62
     7
370
    25
100
AcDbLine
 10
247.3534508232
 20
168.1047823518
 30
0.0
 11
247.3883715927
 21
168.0698615823
 31
0.0
  0
LINE
  5
20F
330
1F
100
AcDbEntity
  8
0
  6
Continuous
 62
     7
370
    25
100
AcDbLine
 10
246.5883715927
 20
168.0698615823
 30
0.0
 11
247.3883715927
 21
168.0698615823
 31
0.0
  0
LINE
  5
210
330
1F
100
AcDbEntity
  8
0
  6
Continuous
 62
     7
370
    25
100
AcDbLine
 10
246.5883715927
 20
168.0698615823
 30
0.0
 11
246.5534481617
 21
168.1047823518
 31
0.0
  0
LINE
  5
211
330
1F
100
AcDbEntity
  8
0
  6
Continuous
 62
     7
370
    25
100
AcDbLine
 10
247.3534508232
 20
168.1047823518
 30
0.0
 11
247.3534508232
 21
185.017480428
 31
0.0
  0
LINE
  5
212
330
1F
100
AcDbEntity
  8
0
  6
Continuous
 62
     7
370
    25
100
AcDbLine
 10
247.3971549532
 20
185.061184558
 30
0.0
 11
247.3534508232
 21
185.017480428
 31
0.0
  0
LINE
  5
213
330
1F
100
AcDbEntity
  8
0
  6
Continuous
 62
     7
370
    25
100
AcDbLine
 10
234.5534508232
 20
230.0698615823
 30
0.0
 11
234.5534481617
 21
230.0349408128
 31
0.0
  0
ARC
  5
214
330
1F
100
AcDbEntity
  8
0
  6
Continuous
 62
     7
370
    25
100
AcDbCircle
 10
234.4058319774
 20
199.0698615823
 30
0.0
 40
14.05238115423762
100
AcDbArc
 50
86.1333389301
 51
270.0
  0
LINE
  5
215
330
1F
100
AcDbEntity
  8
0
  6
Continuous
 62
     7
370
    25
100
AcDbLine
 10
247.3534508232
 20
185.017480428
 30
0.0
 11
234.4058319774
 21
185.017480428
 31
0.0
  0
LINE
  5
216
330
1F
100
AcDbEntity
  8
0
  6
Continuous
 62
     7
370
    25
100
AcDbLine
 10
246.5534508232
 20
168.0698615823
 30
0.0
 11
246.5534481617
 21
168.1047823518
 31
0.0
  0
LINE
  5
217
330
1F
100
AcDbEntity
  8
0
  6
Continuous
 62
     7
370
    25
100
AcDbLine
 10
234.5534508232
 20
230.0698615823
 30
0.0
 11
234.5534508232
 21
235.7267158318
 31
0.0
  0
LINE
  5
218
330
1F
100
AcDbEntity
  8
0
  6
Continuous
 62
     7
370
    25
100
AcDbLine
 10
234.5883715927
 20
230.0698615823
 30
0.0
 11
234.5883715927
 21
235.0196090506
 31
0.0
  0
LINE
  5
219
330
1F
100
AcDbEntity
  8
0
  6
Continuous
 62
     7
370
    25
100
AcDbLine
 10
246.5534508232
 20
162.4130073328
 30
0.0
 11
246.5534508232
 21
168.0698615823
 31
0.0
  0
LINE
  5
21A
330
1F
100
AcDbEntity
  8
0
  6
Continuous
 62
     7
370
    25
100
AcDbLine
 10
246.5883715927
 20
163.120114114
 30
0.0
 11
246.5883715927
 21
168.0698615823
 31
0.0
  0
LINE
  5
21B
330
1F
100
AcDbEntity
  8
0
  6
Continuous
 62
     7
370
    25
100
AcDbLine
 10
233.1226830035
 20
235.0072702152
 30
0.0
 11
233.1226830035
 21
230.0698615823
 31
0.0
  0
LINE
  5
21C
330
1F
100
AcDbEntity
  8
0
  6
Continuous
 62
     7
370
    25
100
AcDbLine
 10
245.1226830035
 20
168.0698615823
 30
0.0
 11
245.1226830035
 21
163.1324529493
 31
0.0
  0
SPLINE
  5
21D
330
1F
100
AcDbEntity
  8
0
  6
Continuous
 62
     7
370
    25
100
AcDbSpline
210
0.0
220
0.0
230
1.0
 70
     8
 71
     3
 72
    16
 73
    12
 74
     0
 42
0.00000001
 43
0.00000001
 40
0.0
 40
0.0
 40
0.0
 40
0.0
 40
0.2499999999999992
 40
0.2499999999999992
 40
0.3749999999999998
 40
0.3749999999999998
 40
0.5000000000000004
 40
0.5000000000000004
 40
0.7500000000000001
 40
0.7500000000000001
 40
1.0
 40
1.0
 40
1.0
 40
1.0
 10
235.3883620951883
 20
235.0196090505785
 30
0.0
 10
235.388362095922
 20
234.6970354372982
 30
0.0
 10
235.3883058455228
 20
234.3450444989084
 30
0.0
 10
235.3882220940296
 20
233.7718838269028
 30
0.0
 10
235.3881984101486
 20
233.5732840493621
 30
0.0
 10
235.3881673014869
 20
233.1696398430214
 30
0.0
 10
235.3881574217404
 20
232.9635377954073
 30
0.0
 10
235.3881480999678
 20
232.3325873473028
 30
0.0
 10
235.3883427823017
 20
231.8926805503212
 30
0.0
 10
235.3880860940276
 20
230.9887853644635
 30
0.0
 10
235.3874276918032
 20
230.5318402065385
 30
0.0
 10
235.388371592689
 20
230.0698615822617
 30
0.0
  0
SPLINE
  5
21E
330
1F
100
AcDbEntity
  8
0
  6
Continuous
 62
     7
370
    25
100
AcDbSpline
210
0.0
220
0.0
230
1.0
 70
     8
 71
     3
 72
    16
 73
    12
 74
     0
 42
0.00000001
 43
0.00000001
 40
0.0
 40
0.0
 40
0.0
 40
0.0
 40
0.2499999999999959
 40
0.2499999999999959
 40
0.3749999999999961
 40
0.3749999999999961
 40
0.4999999999999962
 40
0.4999999999999962
 40
0.7499999999999981
 40
0.7499999999999981
 40
1.0
 40
1.0
 40
1.0
 40
1.0
 10
235.388371592689
 20
237.0698615822617
 30
0.0
 10
235.387427018366
 20
237.0698615822617
 30
0.0
 10
235.3880805874872
 20
237.0244944359196
 30
0.0
 10
235.388278505457
 20
236.8911753908443
 30
0.0
 10
235.3881955404323
 20
236.8357767891708
 30
0.0
 10
235.3881578791505
 20
236.7025617607562
 30
0.0
 10
235.3881511764176
 20
236.6243694027448
 30
0.0
 10
235.3881602888568
 20
236.360912388035
 30
0.0
 10
235.3881935912169
 20
236.1459508071189
 30
0.0
 10
235.3883043714493
 20
235.6380854949811
 30
0.0
 10
235.388362094454
 20
235.3424772444518
 30
0.0
 10
235.3883620951883
 20
235.0196090505785
 30
0.0
  0
LINE
  5
21F
330
1F
100
AcDbEntity
  8
0
  6
Continuous
 62
     7
370
    25
100
AcDbLine
 10
235.4302765161
 20
235.8698615823
 30
0.0
 11
235.3883715927
 21
237.0698615823
 31
0.0
  0
SPLINE
  5
220
330
1F
100
AcDbEntity
  8
0
  6
Continuous
 62
     7
370
    25
100
AcDbSpline
210
0.0
220
0.0
230
1.0
 70
     8
 71
     3
 72
    16
 73
    12
 74
     0
 42
0.00000001
 43
0.00000001
 40
0.0
 40
0.0
 40
0.0
 40
0.0
 40
0.2500000000000036
 40
0.2500000000000036
 40
0.3750000000000034
 40
0.3750000000000034
 40
0.5000000000000033
 40
0.5000000000000033
 40
0.7500000000000017
 40
0.7500000000000017
 40
1.0
 40
1.0
 40
1.0
 40
1.0
 10
247.388371592689
 20
168.0698615822617
 30
0.0
 10
247.3874268298926
 20
167.607461052169
 30
0.0
 10
247.3880805524077
 20
167.1527856358013
 30
0.0
 10
247.3882785153276
 20
166.4818866752491
 30
0.0
 10
247.3881955405537
 20
166.2601198208432
 30
0.0
 10
247.3881578772535
 20
165.8204034760022
 30
0.0
 10
247.3881511731765
 20
165.6018574913956
 30
0.0
 10
247.3881602891935
 20
164.9661299181157
 30
0.0
 10
247.3881935818324
 20
164.5641019429195
 30
0.0
 10
247.3883043705774
 20
163.8032361154741
 30
0.0
 10
247.3883621297485
 20
163.4429823398114
 30
0.0
 10
247.3883621335225
 20
163.1201141139669
 30
0.0
  0
SPLINE
  5
221
330
1F
100
AcDbEntity
  8
0
  6
Continuous
 62
     7
370
    25
100
AcDbSpline
210
0.0
220
0.0
230
1.0
 70
     8
 71
     3
 72
    16
 73
    12
 74
     0
 42
0.00000001
 43
0.00000001
 40
0.0
 40
0.0
 40
0.0
 40
0.0
 40
0.2499999999999977
 40
0.2499999999999977
 40
0.3749999999999981
 40
0.3749999999999981
 40
0.4999999999999984
 40
0.4999999999999984
 40
0.7499999999999992
 40
0.7499999999999992
 40
1.0
 40
1.0
 40
1.0
 40
1.0
 10
247.3883621335225
 20
163.1201141139669
 30
0.0
 10
247.3883621372931
 20
162.7975404769256
 30
0.0
 10
247.3883058480568
 20
162.5080092463815
 30
0.0
 10
247.3882220851756
 20
162.1244534222946
 30
0.0
 10
247.3881984022966
 20
162.0053404435453
 30
0.0
 10
247.3881673024609
 20
161.7894347880744
 30
0.0
 10
247.3881574203825
 20
161.6918924035573
 30
0.0
 10
247.3881480747732
 20
161.430020970051
 30
0.0
 10
247.3883426878051
 20
161.2956654362062
 30
0.0
 10
247.3880862383436
 20
161.1151522455046
 30
0.0
 10
247.3874280201924
 20
161.0698615822617
 30
0.0
 10
247.388371592689
 20
161.0698615822617
 30
0.0
  0
LINE
  5
222
330
1F
100
AcDbEntity
  8
0
  6
Continuous
 62
     7
370
    25
100
AcDbLine
 10
247.4302765161
 20
162.2698615823
 30
0.0
 11
247.3883715927
 21
161.0698615823
 31
0.0
  0
LINE
  5
223
330
1F
100
AcDbEntity
  8
0
  6
Continuous
 62
     7
370
    25
100
AcDbLine
 10
213.9058319774
 20
234.66605566
 30
0.0
 11
213.9058319774
 21
230.0698615823
 31
0.0
  0
ARC
  5
224
330
1F
100
AcDbEntity
  8
0
  6
Continuous
 62
     7
370
    25
100
AcDbCircle
 10
212.7058319774
 20
226.6511842578
 30
0.0
 40
2.700000000000017
100
AcDbArc
 50
0.0
 51
63.6122000388
  0
LINE
  5
225
330
1F
100
AcDbEntity
  8
0
  6
Continuous
 62
     7
370
    25
100
AcDbLine
 10
213.9058319774
 20
169.0698615823
 30
0.0
 11
213.9058319774
 21
168.0698615823
 31
0.0
  0
ARC
  5
226
330
1F
100
AcDbEntity
  8
0
  6
Continuous
 62
     7
370
    25
100
AcDbCircle
 10
212.7058319774
 20
171.4885389068
 30
0.0
 40
2.700000000000017
100
AcDbArc
 50
296.3877999612
 51
0.0
  0
LINE
  5
227
330
1F
100
AcDbEntity
  8
0
  6
Continuous
 62
     7
370
    25
100
AcDbLine
 10
215.4058319774
 20
226.6511842578
 30
0.0
 11
215.4058319774
 21
171.4885389068
 31
0.0
  0
LINE
  5
228
330
1F
100
AcDbEntity
  8
0
  6
Continuous
 62
     7
370
    25
100
AcDbLine
 10
213.9058319774
 20
230.0698615823
 30
0.0
 11
213.9058319774
 21
229.0698615823
 31
0.0
  0
LINE
  5
229
330
1F
100
AcDbEntity
  8
0
  6
Continuous
 62
     7
370
    25
100
AcDbLine
 10
244.62298759
 20
161.5698615823
 30
0.0
 11
213.9058319774
 21
161.5698615823
 31
0.0
  0
LINE
  5
22A
330
1F
100
AcDbEntity
  8
0
  6
Continuous
 62
     7
370
    25
100
AcDbLine
 10
213.9058319774
 20
168.0698615823
 30
0.0
 11
213.9058319774
 21
161.5698615823
 31
0.0
  0
LINE
  5
22B
330
1F
100
AcDbEntity
  8
0
  6
Continuous
 62
     7
370
    25
100
AcDbLine
 10
233.6410575191
 20
238.0698615823
 30
0.0
 11
234.5534508232
 21
238.0698615823
 31
0.0
  0
LINE
  5
22C
330
1F
100
AcDbEntity
  8
0
  6
Continuous
 62
     7
370
    25
100
AcDbLine
 10
234.5534508232
 20
235.7267158318
 30
0.0
 11
234.5534508232
 21
238.0698615823
 31
0.0
  0
LINE
  5
22D
330
1F
100
AcDbEntity
  8
0
  6
Continuous
 62
     7
370
    25
100
AcDbLine
 10
234.5883715927
 20
237.0698615823
 30
0.0
 11
234.5534481617
 21
238.0698615823
 31
0.0
  0
LINE
  5
22E
330
1F
100
AcDbEntity
  8
0
  6
Continuous
 62
     7
370
    25
100
AcDbLine
 10
234.5883715927
 20
235.0196090506
 30
0.0
 11
234.5883715927
 21
237.0698615823
 31
0.0
  0
ARC
  5
22F
330
1F
100
AcDbEntity
  8
0
  6
Continuous
 62
     7
370
    25
100
AcDbCircle
 10
233.6410575191
 20
237.5698615823
 30
0.0
 40
0.5000000000000087
100
AcDbArc
 50
90.0
 51
178.0
  0
ARC
  5
230
330
1F
100
AcDbEntity
  8
0
  6
Continuous
 62
     7
370
    25
100
AcDbCircle
 10
245.6410575191
 20
160.5698615823
 30
0.0
 40
0.5000000000000087
100
AcDbArc
 50
182.0
 51
270.0
  0
LINE
  5
231
330
1F
100
AcDbEntity
  8
0
  6
Continuous
 62
     7
370
    25
100
AcDbLine
 10
246.5534508232
 20
160.0698615823
 30
0.0
 11
245.6410575191
 21
160.0698615823
 31
0.0
  0
LINE
  5
232
330
1F
100
AcDbEntity
  8
0
  6
Continuous
 62
     7
370
    25
100
AcDbLine
 10
246.5534508232
 20
160.0698615823
 30
0.0
 11
246.5534508232
 21
162.4130073328
 31
0.0
  0
LINE
  5
233
330
1F
100
AcDbEntity
  8
0
  6
Continuous
 62
     7
370
    25
100
AcDbLine
 10
246.5883715927
 20
161.0698615823
 30
0.0
 11
246.5883715927
 21
163.120114114
 31
0.0
  0
LINE
  5
234
330
1F
100
AcDbEntity
  8
0
  6
Continuous
 62
     7
370
    25
100
AcDbLine
 10
246.5883715927
 20
161.0698615823
 30
0.0
 11
246.5534481617
 21
160.0698615823
 31
0.0
  0
LINE
  5
235
330
1F
100
AcDbEntity
  8
0
  6
Continuous
 62
     7
370
    25
100
AcDbLine
 10
245.1413621056
 20
160.5524118339
 30
0.0
 11
245.1226830035
 21
161.0873113306
 31
0.0
  0
LINE
  5
236
330
1F
100
AcDbEntity
  8
0
  6
Continuous
 62
     7
370
    25
100
AcDbLine
 10
245.1226830035
 20
163.1324529493
 30
0.0
 11
245.1226830035
 21
161.0873113306
 31
0.0
  0
LINE
  5
237
330
1F
100
AcDbEntity
  8
0
  6
Continuous
 62
     7
370
    25
100
AcDbLine
 10
233.1226830035
 20
237.0524118339
 30
0.0
 11
233.1226830035
 21
235.0072702152
 31
0.0
  0
LINE
  5
238
330
1F
100
AcDbEntity
  8
0
  6
Continuous
 62
     7
370
    25
100
AcDbLine
 10
233.1413621056
 20
237.5873113306
 30
0.0
 11
233.1226830035
 21
237.0524118339
 31
0.0
  0
LINE
  5
239
330
1F
100
AcDbEntity
  8
0
  6
Continuous
 62
     7
370
    25
100
AcDbLine
 10
246.5883715927
 20
161.0698615823
 30
0.0
 11
247.3883715927
 21
161.0698615823
 31
0.0
  0
LINE
  5
23A
330
1F
100
AcDbEntity
  8
0
  6
Continuous
 62
     7
370
    25
100
AcDbLine
 10
234.5883715927
 20
237.0698615823
 30
0.0
 11
235.3883715927
 21
237.0698615823
 31
0.0
  0
ARC
  5
23B
330
1F
100
AcDbEntity
  8
0
  6
Continuous
 62
     7
370
    25
100
AcDbCircle
 10
232.62298759
 20
237.0698615823
 30
0.0
 40
0.5
100
AcDbArc
 50
270.0
 51
358.0
  0
ARC
  5
23C
330
1F
100
AcDbEntity
  8
0
  6
Continuous
 62
     7
370
    25
100
AcDbCircle
 10
244.62298759
 20
161.0698615823
 30
0.0
 40
0.5
100
AcDbArc
 50
2.0
 51
90.0
  0
LINE
  5
23D
330
1F
100
AcDbEntity
  8
0
  6
Continuous
 62
     7
370
    25
100
AcDbLine
 10
232.62298759
 20
236.5698615823
 30
0.0
 11
213.9058319774
 21
236.5698615823
 31
0.0
  0
LINE
  5
23E
330
1F
100
AcDbEntity
  8
0
  6
Continuous
 62
     7
370
    25
100
AcDbLine
 10
213.9058319774
 20
236.5698615823
 30
0.0
 11
213.9058319774
 21
234.66605566
 31
0.0
  0
LINE
  5
23F
330
1F
100
AcDbEntity
  8
0
  6
Continuous
 62
     7
370
    25
100
AcDbLine
 10
234.5534481617
 20
238.0698615823
 30
0.0
 11
235.3534508232
 21
238.0698615823
 31
0.0
  0
LINE
  5
240
330
1F
100
AcDbEntity
  8
0
  6
Continuous
 62
     7
370
    25
100
AcDbLine
 10
235.3534508232
 20
238.0698615823
 30
0.0
 11
235.3883715927
 21
237.0698615823
 31
0.0
  0
LINE
  5
241
330
1F
100
AcDbEntity
  8
0
  6
Continuous
 62
     7
370
    25
100
AcDbLine
 10
247.3534508232
 20
160.0698615823
 30
0.0
 11
246.5534481617
 21
160.0698615823
 31
0.0
  0
LINE
  5
242
330
1F
100
AcDbEntity
  8
0
  6
Continuous
 62
     7
370
    25
100
AcDbLine
 10
247.3534508232
 20
160.0698615823
 30
0.0
 11
247.3883715927
 21
161.0698615823
 31
0.0
  0
LINE
  5
243
330
1F
100
AcDbEntity
  8
0
  6
Continuous
 62
     7
370
    25
100
AcDbLine
 10
213.9058319774
 20
193.8722427365
 30
0.0
 11
213.9058319774
 21
197.3198615823
 31
0.0
  0
LINE
  5
244
330
1F
100
AcDbEntity
  8
0
  6
Continuous
 62
     7
370
    25
100
AcDbLine
 10
213.9058319774
 20
200.8198615823
 30
0.0
 11
213.9058319774
 21
204.267480428
 31
0.0
  0
LINE
  5
245
330
1F
100
AcDbEntity
  8
0
  6
Continuous
 62
     7
370
    25
100
AcDbLine
 10
213.9058319774
 20
197.3198615823
 30
0.0
 11
213.9058319774
 21
200.8198615823
 31
0.0
  0
SPLINE
  5
246
330
1F
100
AcDbEntity
  8
0
  6
Continuous
 62
     7
370
    25
100
AcDbSpline
210
0.0
220
0.0
230
1.0
 70
    24
 71
     3
 72
     9
 73
     5
 74
     0
 42
0.00000001
 43
0.00000001
 40
0.0
 40
0.0
 40
0.0
 40
0.0
 40
0.4593721319201491
 40
0.9999999999999999
 40
0.9999999999999999
 40
0.9999999999999999
 40
0.9999999999999999
 10
233.0752603941374
 20
238.0698615822617
 30
0.0
 10
233.1415463778933
 20
238.0698615822617
 30
0.0
 10
233.2858432978625
 20
238.0698615822617
 30
0.0
 10
233.4165290165973
 20
238.0698615822617
 30
0.0
 10
233.4871813581054
 20
238.0698615822617
 30
0.0
  0
LINE
  5
247
330
1F
100
AcDbEntity
  8
0
  6
Continuous
 62
     7
370
    25
100
AcDbLine
 10
245.6410575191
 20
160.0698615823
 30
0.0
 11
244.9419712785
 21
160.0698615823
 31
0.0
  0
LINE
  5
248
330
1F
100
AcDbEntity
  8
0
  6
Continuous
 62
     7
370
    25
100
AcDbLine
 10
234.4058319774
 20
160.0698615823
 30
0.0
 11
219.4410575191
 21
160.0698615823
 31
0.0
  0
LINE
  5
249
330
1F
100
AcDbEntity
  8
0
  6
Continuous
 62
     7
370
    25
100
AcDbLine
 10
244.9419712785
 20
160.0698615823
 30
0.0
 11
234.4058319774
 21
160.0698615823
 31
0.0
  0
LINE
  5
24A
330
1F
100
AcDbEntity
  8
0
  6
Continuous
 62
     7
370
    25
100
AcDbLine
 10
219.4410575191
 20
238.0698615823
 30
0.0
 11
233.0752603941
 21
238.0698615823
 31
0.0
  0
LINE
  5
24B
330
1F
100
AcDbEntity
  8
0
  6
Continuous
 62
     7
370
    25
100
AcDbLine
 10
247.3571826695
 20
237.9629954864
 30
0.0
 11
247.3534508232
 21
238.0698615823
 31
0.0
  0
LINE
  5
24C
330
1F
100
AcDbEntity
  8
0
  6
Continuous
 62
     7
370
    25
100
AcDbLine
 10
235.3534508232
 20
238.0698615823
 30
0.0
 11
235.5058319774
 21
238.0698615823
 31
0.0
  0
LINE
  5
24D
330
1F
100
AcDbEntity
  8
0
  6
Continuous
 62
     7
370
    25
100
AcDbLine
 10
241.2348281405
 20
238.0698615823
 30
0.0
 11
247.3534508232
 21
238.0698615823
 31
0.0
  0
LINE
  5
24E
330
1F
100
AcDbEntity
  8
0
  6
Continuous
 62
     7
370
    25
100
AcDbLine
 10
234.4058319774
 20
185.0419249667
 30
0.0
 11
247.3778953618
 21
185.0419249667
 31
0.0
  0
ARC
  5
24F
330
1F
100
AcDbEntity
  8
0
  6
Continuous
 62
     7
370
    25
100
AcDbCircle
 10
234.4058319774
 20
199.0698615823
 30
0.0
 40
14.02793661559343
100
AcDbArc
 50
86.0265148027
 51
270.0
  0
LINE
  5
250
330
1F
100
AcDbEntity
  8
0
  6
Continuous
 62
     7
370
    25
100
AcDbLine
 10
235.3778953618
 20
213.0640781901
 30
0.0
 11
235.3778953618
 21
212.9015245725
 31
0.0
  0
ELLIPSE
  5
251
330
1F
100
AcDbEntity
  8
0
  6
Continuous
 62
     7
370
    25
100
AcDbEllipse
 10
236.3785046096
 20
212.9025818875
 30
0.0
 11
-0.7562319024633269
 21
-0.6559341558123607
 31
0.0
210
0.0
220
0.0
230
1.0
 40
0.9989332588
 41
5.569220617489669
 42
6.997381899114235
  0
ARC
  5
252
330
1F
100
AcDbEntity
  8
0
  6
Continuous
 62
     7
370
    25
100
AcDbCircle
 10
234.4058319774
 20
199.0698615823
 30
0.0
 40
12.97206362757384
100
AcDbArc
 50
0.0
 51
81.8881567377
  0
LINE
  5
253
330
1F
100
AcDbEntity
  8
0
  6
Continuous
 62
     7
370
    25
100
AcDbLine
 10
247.3778953618
 20
199.0698615823
 30
0.0
 11
247.3778953618
 21
185.0419249667
 31
0.0
  0
ARC
  5
254
330
1F
100
AcDbEntity
  8
0
  6
Continuous
 62
     7
370
    25
100
AcDbCircle
 10
234.4137459404
 20
199.0698615823
 30
0.0
 40
12.98340901282339
100
AcDbArc
 50
0.0
 51
81.8784210045
  0
ELLIPSE
  5
255
330
1F
100
AcDbEntity
  8
0
  6
Continuous
 62
     7
370
    25
100
AcDbEllipse
 10
236.3910554958
 20
212.9134681711
 30
0.0
 11
0.8476668355546906
 21
0.5337617998571318
 31
0.0
210
0.0
220
0.0
230
1.0
 40
0.9982431757
 41
2.580426767677708
 42
4.007814362338134
  0
LINE
  5
256
330
1F
100
AcDbEntity
  8
0
  6
Continuous
 62
     7
370
    25
100
AcDbLine
 10
235.3898359604
 20
213.0512735464
 30
0.0
 11
235.3898359604
 21
212.9118800564
 31
0.0
  0
LINE
  5
257
330
1F
100
AcDbEntity
  8
0
  6
Continuous
 62
     7
370
    25
100
AcDbLine
 10
235.3778953618
 20
213.0640781901
 30
0.0
 11
235.3898359604
 21
213.0512735464
 31
0.0
  0
LINE
  5
258
330
1F
100
AcDbEntity
  8
0
  6
Continuous
 62
     7
370
    25
100
AcDbLine
 10
247.3971549532
 20
199.0698615823
 30
0.0
 11
247.3971549532
 21
185.061184558
 31
0.0
  0
LINE
  5
259
330
1F
100
AcDbEntity
  8
0
  6
Continuous
 62
     7
370
    25
100
AcDbLine
 10
247.3778953618
 20
185.0419249667
 30
0.0
 11
247.3971549532
 21
185.061184558
 31
0.0
  0
LINE
  5
25A
330
1F
100
AcDbEntity
  8
0
  6
Continuous
 62
     7
370
    25
100
AcDbLine
 10
235.5607029288
 20
237.0249130121
 30
0.0
 11
235.5860144869
 21
237.1684619914
 31
0.0
  0
LINE
  5
25B
330
1F
100
AcDbEntity
  8
0
  6
Continuous
 62
     7
370
    25
100
AcDbLine
 10
235.3898359604
 20
237.0279275786
 30
0.0
 11
235.3898359604
 21
230.0698615823
 31
0.0
  0
LINE
  5
25C
330
1F
100
AcDbEntity
  8
0
  6
Continuous
 62
     7
370
    25
100
AcDbLine
 10
235.3898359604
 20
237.0279275786
 30
0.0
 11
235.5058319774
 21
237.0259028606
 31
0.0
  0
LINE
  5
25D
330
1F
100
AcDbEntity
  8
0
  6
Continuous
 62
     7
370
    25
100
AcDbLine
 10
247.3971549532
 20
185.061184558
 30
0.0
 11
247.3971549532
 21
168.0698615823
 31
0.0
  0
LINE
  5
25E
330
1F
100
AcDbEntity
  8
0
  6
Continuous
 62
     7
370
    25
100
AcDbLine
 10
235.3898359604
 20
230.0698615823
 30
0.0
 11
235.3898359604
 21
213.0512735464
 31
0.0
  0
LINE
  5
25F
330
1F
100
AcDbEntity
  8
0
  6
Continuous
 62
     7
370
    25
100
AcDbLine
 10
247.4977973077
 20
161.3231408374
 30
0.0
 11
247.3971549532
 21
161.3213841186
 31
0.0
  0
LINE
  5
260
330
1F
100
AcDbEntity
  8
0
  6
Continuous
 62
     7
370
    25
100
AcDbLine
 10
235.3778950681
 20
237.3698615823
 30
0.0
 11
235.5058319774
 21
237.3698615823
 31
0.0
  0
LINE
  5
261
330
1F
100
AcDbEntity
  8
0
  6
Continuous
 62
     7
370
    25
100
AcDbLine
 10
245.1226830035
 20
169.0533151426
 30
0.0
 11
245.1226830035
 21
168.0698615823
 31
0.0
  0
ELLIPSE
  5
262
330
1F
100
AcDbEntity
  8
0
  6
Continuous
 62
     7
370
    25
100
AcDbEllipse
 10
245.6235971343
 20
169.0520964254
 30
0.0
 11
0.3548455112283762
 21
-0.3548455112283478
 31
0.0
210
0.0
220
0.0
230
0.9999999999999998
 40
0.9963586389
 41
2.557440836325787
 42
3.926381829401604
  0
ARC
  5
263
330
1F
100
AcDbEntity
  8
0
  6
Continuous
 62
     7
370
    25
100
AcDbCircle
 10
245.4222448101
 20
170.0333618646
 30
0.0
 40
0.5004387235187431
100
AcDbArc
 50
281.5651660651
 51
359.9166083901
  0
LINE
  5
264
330
1F
100
AcDbEntity
  8
0
  6
Continuous
 62
     7
370
    25
100
AcDbLine
 10
245.9226830035
 20
182.5873217813
 30
0.0
 11
245.9226830035
 21
170.0326334972
 31
0.0
  0
ARC
  5
265
330
1F
100
AcDbEntity
  8
0
  6
Continuous
 62
     7
370
    25
100
AcDbCircle
 10
244.9226828179
 20
182.5867124227
 30
0.0
 40
1.000000371317886
100
AcDbArc
 50
0.0349136675
 51
89.9650863325
  0
LINE
  5
266
330
1F
100
AcDbEntity
  8
0
  6
Continuous
 62
     7
370
    25
100
AcDbLine
 10
234.4058319774
 20
183.5867126084
 30
0.0
 11
244.9232921765
 21
183.5867126084
 31
0.0
  0
ARC
  5
267
330
1F
100
AcDbEntity
  8
0
  6
Continuous
 62
     7
370
    25
100
AcDbCircle
 10
234.4058319774
 20
199.0698615823
 30
0.0
 40
15.48314897389403
100
AcDbArc
 50
95.1605049727
 51
270.0
  0
SPLINE
  5
268
330
1F
100
AcDbEntity
  8
0
  6
Continuous
 62
     7
370
    25
100
AcDbSpline
210
0.0
220
0.0
230
1.0
 70
     8
 71
     3
 72
    12
 73
     8
 74
     0
 42
0.00000001
 43
0.00000001
 40
0.0
 40
0.0
 40
0.0
 40
0.0
 40
0.2499999999999994
 40
0.2499999999999994
 40
0.4999999999999989
 40
0.4999999999999989
 40
1.0
 40
1.0
 40
1.0
 40
1.0
 10
233.9226830035409
 20
215.4855916612863
 30
0.0
 10
233.9226138235251
 20
215.3612083711942
 30
0.0
 10
233.8996675633851
 20
215.239528936061
 30
0.0
 10
233.8100578495446
 20
215.0087742503211
 30
0.0
 10
233.7442070899565
 20
214.9027956461343
 30
0.0
 10
233.494762541791
 20
214.6296838499073
 30
0.0
 10
233.2609294715566
 20
214.5127651296017
 30
0.0
 10
233.0131834612157
 20
214.4902517283659
 30
0.0
  0
LINE
  5
269
330
1F
100
AcDbEntity
  8
0
  6
Continuous
 62
     7
370
    25
100
AcDbLine
 10
233.9226830035
 20
228.1070896673
 30
0.0
 11
233.9226830035
 21
215.4855916613
 31
0.0
  0
ARC
  5
26A
330
1F
100
AcDbEntity
  8
0
  6
Continuous
 62
     7
370
    25
100
AcDbCircle
 10
233.4222448101
 20
228.1063612999
 30
0.0
 40
0.5004387235187694
100
AcDbArc
 50
0.0833916099
 51
78.4348339349
  0
ELLIPSE
  5
26B
330
1F
100
AcDbEntity
  8
0
  6
Continuous
 62
     7
370
    25
100
AcDbEllipse
 10
233.6235971343
 20
229.0876267392
 30
0.0
 11
0.3548455112283762
 21
0.3548455112283193
 31
0.0
210
0.0
220
0.0
230
1.0
 40
0.9963586389
 41
2.356803477778093
 42
3.725744470853876
  0
LINE
  5
26C
330
1F
100
AcDbEntity
  8
0
  6
Continuous
 62
     7
370
    25
100
AcDbLine
 10
233.1226830035
 20
229.0864080219
 30
0.0
 11
233.1226830035
 21
230.0698615823
 31
0.0
  0
LINE
  5
26D
330
1F
100
AcDbEntity
  8
0
  6
Continuous
 62
     7
100
AcDbLine
 10
274.1041560047
 20
347.9012868195
 30
0.0
 11
274.1617659156
 21
347.8680293258
 31
0.0
  0
LINE
  5
26E
330
1F
100
AcDbEntity
  8
0
  6
Continuous
 62
     7
100
AcDbLine
 10
274.1041560047
 20
347.9012868195
 30
0.0
 11
274.1041560047
 21
348.0343384169
 31
0.0
  0
LINE
  5
26F
330
1F
100
AcDbEntity
  8
0
  6
Continuous
 62
     7
100
AcDbLine
 10
272.3239999811
 20
346.8736246215
 30
0.0
 11
272.381609892
 21
346.8403671278
 31
0.0
  0
LINE
  5
270
330
1F
100
AcDbEntity
  8
0
  6
Continuous
 62
     7
100
AcDbLine
 10
272.3239999811
 20
346.8736246215
 30
0.0
 11
272.3239999811
 21
347.006676219
 31
0.0
  0
LINE
  5
271
330
1F
100
AcDbEntity
  8
0
  6
Continuous
 62
     7
100
AcDbLine
 10
274.1041560047
 20
347.9012868195
 30
0.0
 11
274.1617659156
 21
347.8680293258
 31
0.0
  0
LINE
  5
272
330
1F
100
AcDbEntity
  8
0
  6
Continuous
 62
     7
100
AcDbLine
 10
274.1041560047
 20
347.9012868195
 30
0.0
 11
274.1041560047
 21
348.0343384169
 31
0.0
  0
POINT
  5
273
330
1F
100
AcDbEntity
  8
0
  6
Continuous
 62
     7
100
AcDbPoint
 10
274.1041560047
 20
347.9012868195
 30
0.0
  0
POINT
  5
274
330
1F
100
AcDbEntity
  8
0
  6
Continuous
 62
     7
100
AcDbPoint
 10
272.3239999811
 20
346.8736246215
 30
0.0
  0
POINT
  5
275
330
1F
100
AcDbEntity
  8
0
  6
Continuous
 62
     7
100
AcDbPoint
 10
274.1041560047
 20
347.9012868195
 30
0.0
  0
SPLINE
  5
276
330
1F
100
AcDbEntity
  8
0
  6
Continuous
 62
     7
370
    25
100
AcDbSpline
210
0.0
220
0.0
230
1.0
 70
     8
 71
     3
 72
    15
 73
    11
 74
     0
 42
0.00000001
 43
0.00000001
 40
0.0
 40
0.0
 40
0.0
 40
0.0
 40
0.1297299723433874
 40
0.2612988448282727
 40
0.4050061475891117
 40
0.5553615198807567
 40
0.6888943294194051
 40
0.8103988332000429
 40
0.9262264138794433
 40
1.0
 40
1.0
 40
1.0
 40
1.0
 10
240.1163130557416
 20
357.4489997266539
 30
0.0
 10
240.1227387702476
 20
357.4447603972738
 30
0.0
 10
240.1356812826622
 20
357.4362216467455
 30
0.0
 10
240.1594965171234
 20
357.4113269835366
 30
0.0
 10
240.1815438860264
 20
357.3791193305346
 30
0.0
 10
240.198124783496
 20
357.3433783953043
 30
0.0
 10
240.2065996525245
 20
357.3112537704812
 30
0.0
 10
240.2084643534553
 20
357.2883022206362
 30
0.0
 10
240.2061469308255
 20
357.2762468307016
 30
0.0
 10
240.2063328643631
 20
357.2768154049643
 30
0.0
 10
240.2064052108791
 20
357.2770366365267
 30
0.0
  0
LINE
  5
277
330
1F
100
AcDbEntity
  8
0
  6
Continuous
 62
     7
370
    25
100
AcDbLine
 10
237.4432719045
 20
358.9921135371
 30
0.0
 11
240.1163130557
 21
357.4489997267
 31
0.0
  0
LINE
  5
278
330
1F
100
AcDbEntity
  8
0
  6
Continuous
 62
     7
370
    25
100
AcDbLine
 10
240.2090169242
 20
357.28001612
 30
0.0
 11
237.3454310512
 21
354.2105816808
 31
0.0
  0
SPLINE
  5
279
330
1F
100
AcDbEntity
  8
0
  6
Continuous
 62
     7
370
    25
100
AcDbSpline
210
0.0
220
0.0
230
1.0
 70
     8
 71
     3
 72
    10
 73
     6
 74
     0
 42
0.00000001
 43
0.00000001
 40
0.0
 40
0.0
 40
0.0
 40
0.0
 40
0.0603168128678398
 40
0.6842152233684103
 40
1.0
 40
1.0
 40
1.0
 40
1.0
 10
237.4299360821376
 20
358.9981408567032
 30
0.0
 10
237.4297183985914
 20
358.99809568784
 30
0.0
 10
237.4272490639379
 20
358.9975833062611
 30
0.0
 10
237.4334979532023
 20
358.9975988003949
 30
0.0
 10
237.4408134865394
 20
358.9934932319503
 30
0.0
 10
237.4432719045386
 20
358.9921135371424
 30
0.0
  0
LINE
  5
27A
330
1F
100
AcDbEntity
  8
0
  6
Continuous
 62
     7
370
    25
100
AcDbLine
 10
237.3273297002
 20
354.1013939074
 30
0.0
 11
240.1909155732
 21
347.7257335942
 31
0.0
  0
SPLINE
  5
27B
330
1F
100
AcDbEntity
  8
0
  6
Continuous
 62
     7
370
    25
100
AcDbSpline
210
0.0
220
0.0
230
1.0
 70
     8
 71
     3
 72
    13
 73
     9
 74
     0
 42
0.00000001
 43
0.00000001
 40
0.0
 40
0.0
 40
0.0
 40
0.0
 40
0.1616109046011681
 40
0.3255213860729914
 40
0.5046856585064702
 40
0.6922951120398324
 40
0.8590710774036885
 40
1.0
 40
1.0
 40
1.0
 40
1.0
 10
234.4903337115626
 20
360.6968084704956
 30
0.0
 10
234.4967480793038
 20
360.6925764085821
 30
0.0
 10
234.5096680854322
 20
360.6840520663453
 30
0.0
 10
234.5334507409103
 20
360.659202022178
 30
0.0
 10
234.5555153579901
 20
360.6269785684343
 30
0.0
 10
234.5720205314421
 20
360.5913920960982
 30
0.0
 10
234.5806331719047
 20
360.5594060071319
 30
0.0
 10
234.5813850876553
 20
360.5450683438036
 30
0.0
 10
234.5817294652742
 20
360.5385016900893
 30
0.0
  0
LINE
  5
27C
330
1F
100
AcDbEntity
  8
0
  6
Continuous
 62
     7
370
    25
100
AcDbLine
 10
234.5817294653
 20
360.5385016901
 30
0.0
 11
234.5817294653
 21
357.1498324481
 31
0.0
  0
LINE
  5
27D
330
1F
100
AcDbEntity
  8
0
  6
Continuous
 62
     7
370
    25
100
AcDbLine
 10
232.3007065881
 20
361.9608533029
 30
0.0
 11
234.4903337116
 21
360.6968084705
 31
0.0
  0
ARC
  5
27E
330
1F
100
AcDbEntity
  8
0
  6
Continuous
 62
     7
370
    25
100
AcDbCircle
 10
237.4185510686
 20
354.1423653847
 30
0.0
 40
0.1000000000000002
100
AcDbArc
 50
136.9871034189
 51
204.1869185481
  0
SPLINE
  5
27F
330
1F
100
AcDbEntity
  8
0
  6
Continuous
 62
     7
370
    25
100
AcDbSpline
210
0.0
220
0.0
230
1.0
 70
     8
 71
     3
 72
     9
 73
     5
 74
     0
 42
0.00000001
 43
0.00000001
 40
0.0
 40
0.0
 40
0.0
 40
0.0
 40
0.5960149826601469
 40
1.0
 40
1.0
 40
1.0
 40
1.0
 10
232.2871556533344
 20
361.9666328750045
 30
0.0
 10
232.2879134806085
 20
361.9666452534573
 30
0.0
 10
232.2891849709168
 20
361.9666660221513
 30
0.0
 10
232.2973913385254
 20
361.962525864563
 30
0.0
 10
232.3007065880861
 20
361.9608533029278
 30
0.0
  0
ARC
  5
280
330
1F
100
AcDbEntity
  8
0
  6
Continuous
 62
     7
370
    25
100
AcDbCircle
 10
235.2658812369
 20
356.8126088084
 30
0.0
 40
0.1000000000000204
100
AcDbArc
 50
240.0026882664
 51
298.6749606583
  0
SPLINE
  5
281
330
1F
100
AcDbEntity
  8
0
  6
Continuous
 62
     7
370
    25
100
AcDbSpline
210
0.0
220
0.0
230
1.0
 70
     8
 71
     3
 72
     9
 73
     5
 74
     0
 42
0.00000001
 43
0.00000001
 40
0.0
 40
0.0
 40
0.0
 40
0.0
 40
0.2881519096645994
 40
0.9999999999999999
 40
0.9999999999999999
 40
0.9999999999999999
 40
0.9999999999999999
 10
235.3135275190764
 20
356.723675208748
 30
0.0
 10
235.3155008559888
 20
356.7251472745133
 30
0.0
 10
235.3223491080608
 20
356.7302559193491
 30
0.0
 10
235.3263718451329
 20
356.7300131817763
 30
0.0
 10
235.3292354228356
 20
356.7298403894986
 30
0.0
  0
LINE
  5
282
330
1F
100
AcDbEntity
  8
0
  6
Continuous
 62
     7
370
    25
100
AcDbLine
 10
234.6317335286
 20
357.0632275619
 30
0.0
 11
235.2158853003
 21
356.7260039221
 31
0.0
  0
LINE
  5
283
330
1F
100
AcDbEntity
  8
0
  6
Continuous
 62
     7
370
    25
100
AcDbLine
 10
235.3138652492
 20
356.7248732137
 30
0.0
 11
235.3165541303
 21
356.7263438061
 31
0.0
  0
SPLINE
  5
284
330
1F
100
AcDbEntity
  8
0
  6
Continuous
 62
     7
370
    25
100
AcDbSpline
210
0.0
220
0.0
230
1.0
 70
     8
 71
     3
 72
    11
 73
     7
 74
     0
 42
0.00000001
 43
0.00000001
 40
0.0
 40
0.0
 40
0.0
 40
0.0
 40
0.275464199053952
 40
0.525519370434681
 40
0.7553348739075573
 40
1.0
 40
1.0
 40
1.0
 40
1.0
 10
240.1909155732232
 20
347.7257335941537
 30
0.0
 10
240.1954308656952
 20
347.7142190764811
 30
0.0
 10
240.2040449566201
 20
347.692252149022
 30
0.0
 10
240.2082498134778
 20
347.6649748629642
 30
0.0
 10
240.2071918332612
 20
347.6463234582299
 30
0.0
 10
240.2063293120634
 20
347.644347816877
 30
0.0
 10
240.2058845544812
 20
347.6433290807883
 30
0.0
  0
ARC
  5
285
330
1F
100
AcDbEntity
  8
0
  6
Continuous
 62
     7
370
    25
100
AcDbCircle
 10
234.6817294653
 20
357.1498324481
 30
0.0
 40
0.1000000000000062
100
AcDbArc
 50
180.0
 51
240.0026882664
  0
SPLINE
  5
286
330
1F
100
AcDbEntity
  8
0
  6
Continuous
 62
     7
370
    25
100
AcDbSpline
210
0.0
220
0.0
230
1.0
 70
     8
 71
     3
 72
    13
 73
     9
 74
     0
 42
0.00000001
 43
0.00000001
 40
0.0
 40
0.0
 40
0.0
 40
0.0
 40
0.1616109046011374
 40
0.3255213860729329
 40
0.5046856585063876
 40
0.6922951120397496
 40
0.8590710774035838
 40
0.9999999999999999
 40
0.9999999999999999
 40
0.9999999999999999
 40
0.9999999999999999
 10
231.2729978571639
 20
362.5541369248922
 30
0.0
 10
231.279412224905
 20
362.5499048629788
 30
0.0
 10
231.2923322310334
 20
362.5413805207419
 30
0.0
 10
231.3161148865115
 20
362.5165304765747
 30
0.0
 10
231.3381795035913
 20
362.4843070228309
 30
0.0
 10
231.3546846770434
 20
362.4487205504948
 30
0.0
 10
231.3632973175059
 20
362.4167344615286
 30
0.0
 10
231.3640492332566
 20
362.4023967982002
 30
0.0
 10
231.3643936108754
 20
362.395830144486
 30
0.0
  0
LINE
  5
287
330
1F
100
AcDbEntity
  8
0
  6
Continuous
 62
     7
370
    25
100
AcDbLine
 10
231.3643936109
 20
362.3958301445
 30
0.0
 11
231.3643936109
 21
359.8673295606
 31
0.0
  0
LINE
  5
288
330
1F
100
AcDbEntity
  8
0
  6
Continuous
 62
     7
370
    25
100
AcDbLine
 10
226.0781669136
 20
365.5530489949
 30
0.0
 11
231.2729978572
 21
362.5541369249
 31
0.0
  0
ARC
  5
289
330
1F
100
AcDbEntity
  8
0
  6
Continuous
 62
     7
370
    25
100
AcDbCircle
 10
234.6817294653
 20
354.2947652847
 30
0.0
 40
0.0999999999999756
100
AcDbArc
 50
121.7290602778
 51
180.0
  0
SPLINE
  5
28A
330
1F
100
AcDbEntity
  8
0
  6
Continuous
 62
     7
370
    25
100
AcDbSpline
210
0.0
220
0.0
230
1.0
 70
     8
 71
     3
 72
    10
 73
     6
 74
     0
 42
0.00000001
 43
0.00000001
 40
0.0
 40
0.0
 40
0.0
 40
0.0
 40
0.2345848983598537
 40
0.9184627445204488
 40
1.0
 40
1.0
 40
1.0
 40
1.0
 10
234.6416136953334
 20
354.3901489145121
 30
0.0
 10
234.6417496695109
 20
354.390498204904
 30
0.0
 10
234.6422820448561
 20
354.3918657703966
 30
0.0
 10
234.636790602981
 20
354.3835856085085
 30
0.0
 10
234.6331529914455
 20
354.3825513569415
 30
0.0
 10
234.6327654881673
 20
354.3824411813857
 30
0.0
  0
LINE
  5
28B
330
1F
100
AcDbEntity
  8
0
  6
Continuous
 62
     7
370
    25
100
AcDbLine
 10
234.6325676694
 20
354.3819396301
 30
0.0
 11
234.629139154
 21
354.3798197329
 31
0.0
  0
LINE
  5
28C
330
1F
100
AcDbEntity
  8
0
  6
Continuous
 62
     7
370
    25
100
AcDbLine
 10
234.5817294653
 20
354.2947652847
 30
0.0
 11
234.5817294653
 21
350.9060960428
 31
0.0
  0
SPLINE
  5
28D
330
1F
100
AcDbEntity
  8
0
  6
Continuous
 62
     7
370
    25
100
AcDbSpline
210
0.0
220
0.0
230
1.0
 70
     8
 71
     3
 72
     9
 73
     5
 74
     0
 42
0.00000001
 43
0.00000001
 40
0.0
 40
0.0
 40
0.0
 40
0.0
 40
0.6175999004164134
 40
0.9999999999999999
 40
0.9999999999999999
 40
0.9999999999999999
 40
0.9999999999999999
 10
231.3643936108754
 20
359.8673295605566
 30
0.0
 10
231.3638520495798
 20
359.8617530155512
 30
0.0
 10
231.3629751691022
 20
359.852723634229
 30
0.0
 10
231.3630412230891
 20
359.8533929722333
 30
0.0
 10
231.3630664821403
 20
359.8536489271528
 30
0.0
  0
SPLINE
  5
28E
330
1F
100
AcDbEntity
  8
0
  6
Continuous
 62
     7
370
    25
100
AcDbSpline
210
0.0
220
0.0
230
1.0
 70
     8
 71
     3
 72
    13
 73
     9
 74
     0
 42
0.00000001
 43
0.00000001
 40
0.0
 40
0.0
 40
0.0
 40
0.0
 40
0.1616109046011374
 40
0.3255213860729329
 40
0.5046856585063876
 40
0.6922951120397496
 40
0.8590710774035838
 40
0.9999999999999999
 40
0.9999999999999999
 40
0.9999999999999999
 40
0.9999999999999999
 10
231.2729978571639
 20
359.0021843931892
 30
0.0
 10
231.279412224905
 20
358.9979523312757
 30
0.0
 10
231.2923322310334
 20
358.9894279890389
 30
0.0
 10
231.3161148865115
 20
358.9645779448717
 30
0.0
 10
231.3381795035913
 20
358.9323544911279
 30
0.0
 10
231.3546846770434
 20
358.8967680187918
 30
0.0
 10
231.3632973175059
 20
358.8647819298255
 30
0.0
 10
231.3640492332566
 20
358.8504442664972
 30
0.0
 10
231.3643936108754
 20
358.843877612783
 30
0.0
  0
SPLINE
  5
28F
330
1F
100
AcDbEntity
  8
0
  6
Continuous
 62
     7
370
    25
100
AcDbSpline
210
0.0
220
0.0
230
1.0
 70
     8
 71
     3
 72
    13
 73
     9
 74
     0
 42
0.00000001
 43
0.00000001
 40
0.0
 40
0.0
 40
0.0
 40
0.0
 40
0.116698743762832
 40
0.3343214938738778
 40
0.5272301280868968
 40
0.7120154381206355
 40
0.891013463544777
 40
1.0
 40
1.0
 40
1.0
 40
1.0
 10
266.2624344018532
 20
286.7518205790346
 30
0.0
 10
266.4393140679034
 20
286.6555152256011
 30
0.0
 10
266.9460433803455
 20
286.3796172288465
 30
0.0
 10
267.7668058113472
 20
286.0856171508515
 30
0.0
 10
268.702420082614
 20
285.9283930630799
 30
0.0
 10
269.5650008908632
 20
285.9694281022552
 30
0.0
 10
270.2813513208986
 20
286.1350241036416
 30
0.0
 10
270.6601826691471
 20
286.3603787484828
 30
0.0
 10
270.8035497867343
 20
286.4456632583714
 30
0.0
  0
SPLINE
  5
290
330
1F
100
AcDbEntity
  8
0
  6
Continuous
 62
     7
370
    25
100
AcDbSpline
210
0.0
220
0.0
230
1.0
 70
     8
 71
     3
 72
    13
 73
     9
 74
     0
 42
0.00000001
 43
0.00000001
 40
0.0
 40
0.0
 40
0.0
 40
0.0
 40
0.0510990598692601
 40
0.2407141272234304
 40
0.4299347461933037
 40
0.6243186288974988
 40
0.8271840471983916
 40
0.9999999999999999
 40
0.9999999999999999
 40
0.9999999999999999
 40
0.9999999999999999
 10
219.1541205178846
 20
375.7338651596172
 30
0.0
 10
219.0859331645627
 20
375.6988422197866
 30
0.0
 10
218.7647206161408
 20
375.5338584330852
 30
0.0
 10
218.3037617964115
 20
375.0621585812266
 30
0.0
 10
217.8029028456351
 20
374.3525422458964
 30
0.0
 10
217.456447975968
 20
373.5069736146817
 30
0.0
 10
217.2576359880499
 20
372.6131523695324
 30
0.0
 10
217.235264210338
 20
371.9788928360913
 30
0.0
 10
217.2249730424002
 20
371.6871291926786
 30
0.0
  0
LINE
  5
291
330
1F
100
AcDbEntity
  8
0
  6
Continuous
 62
     7
370
    25
100
AcDbLine
 10
231.3643936109
 20
358.8438776128
 30
0.0
 11
231.3643936109
 21
356.3153770289
 31
0.0
  0
LINE
  5
292
330
1F
100
AcDbEntity
  8
0
  6
Continuous
 62
     7
370
    25
100
AcDbLine
 10
226.0781669136
 20
362.0010964632
 30
0.0
 11
231.2729978572
 21
359.0021843932
 31
0.0
  0
LINE
  5
293
330
1F
100
AcDbEntity
  8
0
  6
Continuous
 62
     7
370
    25
100
AcDbLine
 10
270.7761974475
 20
286.4000537294
 30
0.0
 11
284.7503264572
 21
294.0736650983
 31
0.0
  0
LINE
  5
294
330
1F
100
AcDbEntity
  8
0
  6
Continuous
 62
     7
370
    25
100
AcDbLine
 10
232.8109813385
 20
384.0367695959
 30
0.0
 11
219.1775989232
 21
375.7729038577
 31
0.0
  0
LINE
  5
295
330
1F
100
AcDbEntity
  8
0
  6
Continuous
 62
     7
370
    25
100
AcDbLine
 10
286.2888378076
 20
312.2295468399
 30
0.0
 11
285.5817310265
 21
312.6377508958
 31
0.0
  0
LINE
  5
296
330
1F
100
AcDbEntity
  8
0
  6
Continuous
 62
     7
370
    25
100
AcDbLine
 10
249.3020347365
 20
375.4760709325
 30
0.0
 11
249.3020347365
 21
376.2926117444
 31
0.0
  0
SPLINE
  5
297
330
1F
100
AcDbEntity
  8
0
  6
Continuous
 62
     7
370
    25
100
AcDbSpline
210
0.0
220
0.0
230
1.0
 70
     8
 71
     3
 72
     9
 73
     5
 74
     0
 42
0.00000001
 43
0.00000001
 40
0.0
 40
0.0
 40
0.0
 40
0.0
 40
0.6175999004164816
 40
1.0
 40
1.0
 40
1.0
 40
1.0
 10
234.5817294652742
 20
350.9060960427539
 30
0.0
 10
234.5811879039785
 20
350.9005194977485
 30
0.0
 10
234.5803110235009
 20
350.8914901164263
 30
0.0
 10
234.5803770774879
 20
350.8921594544306
 30
0.0
 10
234.5804023365391
 20
350.8924154093501
 30
0.0
  0
SPLINE
  5
298
330
1F
100
AcDbEntity
  8
0
  6
Continuous
 62
     7
370
    25
100
AcDbSpline
210
0.0
220
0.0
230
1.0
 70
     8
 71
     3
 72
     9
 73
     5
 74
     0
 42
0.00000001
 43
0.00000001
 40
0.0
 40
0.0
 40
0.0
 40
0.0
 40
0.5960149826601469
 40
1.0
 40
1.0
 40
1.0
 40
1.0
 10
226.0646159788928
 20
365.5588285670244
 30
0.0
 10
226.0653738061668
 20
365.5588409454772
 30
0.0
 10
226.0666452964752
 20
365.5588617141712
 30
0.0
 10
226.0748516640838
 20
365.5547215565829
 30
0.0
 10
226.0781669136444
 20
365.5530489949477
 30
0.0
  0
SPLINE
  5
299
330
1F
100
AcDbEntity
  8
0
  6
Continuous
 62
     7
370
    25
100
AcDbSpline
210
0.0
220
0.0
230
1.0
 70
     8
 71
     3
 72
     9
 73
     5
 74
     0
 42
0.00000001
 43
0.00000001
 40
0.0
 40
0.0
 40
0.0
 40
0.0
 40
0.6175999004164134
 40
0.9999999999999999
 40
0.9999999999999999
 40
0.9999999999999999
 40
0.9999999999999999
 10
231.3643936108754
 20
356.3153770288535
 30
0.0
 10
231.3638520495798
 20
356.3098004838482
 30
0.0
 10
231.3629751691022
 20
356.300771102526
 30
0.0
 10
231.3630412230891
 20
356.3014404405303
 30
0.0
 10
231.3630664821403
 20
356.3016963954498
 30
0.0
  0
SPLINE
  5
29A
330
1F
100
AcDbEntity
  8
0
  6
Continuous
 62
     7
370
    25
100
AcDbSpline
210
0.0
220
0.0
230
1.0
 70
     8
 71
     3
 72
    13
 73
     9
 74
     0
 42
0.00000001
 43
0.00000001
 40
0.0
 40
0.0
 40
0.0
 40
0.0
 40
0.1616109046011374
 40
0.3255213860729329
 40
0.5046856585063876
 40
0.6922951120397496
 40
0.8590710774035838
 40
0.9999999999999999
 40
0.9999999999999999
 40
0.9999999999999999
 40
0.9999999999999999
 10
231.2729978571639
 20
355.4502318614862
 30
0.0
 10
231.279412224905
 20
355.4459997995727
 30
0.0
 10
231.2923322310334
 20
355.4374754573359
 30
0.0
 10
231.3161148865115
 20
355.4126254131687
 30
0.0
 10
231.3381795035913
 20
355.3804019594249
 30
0.0
 10
231.3546846770434
 20
355.3448154870888
 30
0.0
 10
231.3632973175059
 20
355.3128293981225
 30
0.0
 10
231.3640492332566
 20
355.2984917347942
 30
0.0
 10
231.3643936108754
 20
355.29192508108
 30
0.0
  0
SPLINE
  5
29B
330
1F
100
AcDbEntity
  8
0
  6
Continuous
 62
     7
370
    25
100
AcDbSpline
210
0.0
220
0.0
230
1.0
 70
     8
 71
     3
 72
    13
 73
     9
 74
     0
 42
0.00000001
 43
0.00000001
 40
0.0
 40
0.0
 40
0.0
 40
0.0
 40
0.1616109046011383
 40
0.3255213860729346
 40
0.5046856585063902
 40
0.6922951120397444
 40
0.8590710774035831
 40
0.9999999999999999
 40
0.9999999999999999
 40
0.9999999999999999
 40
0.9999999999999999
 10
225.0504581827223
 20
366.1463326169122
 30
0.0
 10
225.0568725504634
 20
366.1421005549987
 30
0.0
 10
225.0697925565918
 20
366.1335762127619
 30
0.0
 10
225.0935752120699
 20
366.1087261685946
 30
0.0
 10
225.1156398291497
 20
366.0765027148508
 30
0.0
 10
225.1321450026018
 20
366.0409162425147
 30
0.0
 10
225.1407576430643
 20
366.0089301535485
 30
0.0
 10
225.141509558815
 20
365.9945924902202
 30
0.0
 10
225.1418539364338
 20
365.9880258365059
 30
0.0
  0
LINE
  5
29C
330
1F
100
AcDbEntity
  8
0
  6
Continuous
 62
     7
370
    25
100
AcDbLine
 10
231.3643936109
 20
355.2919250811
 30
0.0
 11
231.3643936109
 21
352.7634244972
 31
0.0
  0
LINE
  5
29D
330
1F
100
AcDbEntity
  8
0
  6
Continuous
 62
     7
370
    25
100
AcDbLine
 10
228.4091938542
 20
357.1034707222
 30
0.0
 11
231.2729978572
 21
355.4502318615
 31
0.0
  0
LINE
  5
29E
330
1F
100
AcDbEntity
  8
0
  6
Continuous
 62
     7
370
    25
100
AcDbLine
 10
225.1418539364
 20
365.9880258365
 30
0.0
 11
225.1418539364
 21
363.4595252526
 31
0.0
  0
LINE
  5
29F
330
1F
100
AcDbEntity
  8
0
  6
Continuous
 62
     7
370
    25
100
AcDbLine
 10
222.8608310592
 20
367.4103774493
 30
0.0
 11
225.0504581827
 21
366.1463326169
 31
0.0
  0
SPLINE
  5
2A0
330
1F
100
AcDbEntity
  8
0
  6
Continuous
 62
     7
370
    25
100
AcDbSpline
210
0.0
220
0.0
230
1.0
 70
     8
 71
     3
 72
     9
 73
     5
 74
     0
 42
0.00000001
 43
0.00000001
 40
0.0
 40
0.0
 40
0.0
 40
0.0
 40
0.5960149826601469
 40
1.0
 40
1.0
 40
1.0
 40
1.0
 10
226.0646159788928
 20
362.0068760353214
 30
0.0
 10
226.0653738061668
 20
362.0068884137742
 30
0.0
 10
226.0666452964752
 20
362.0069091824682
 30
0.0
 10
226.0748516640838
 20
362.0027690248799
 30
0.0
 10
226.0781669136444
 20
362.0010964632447
 30
0.0
  0
SPLINE
  5
2A1
330
1F
100
AcDbEntity
  8
0
  6
Continuous
 62
     7
370
    25
100
AcDbSpline
210
0.0
220
0.0
230
1.0
 70
     8
 71
     3
 72
     9
 73
     5
 74
     0
 42
0.00000001
 43
0.00000001
 40
0.0
 40
0.0
 40
0.0
 40
0.0
 40
0.6175999004164134
 40
0.9999999999999999
 40
0.9999999999999999
 40
0.9999999999999999
 40
0.9999999999999999
 10
231.3643936108754
 20
352.7634244971505
 30
0.0
 10
231.3638520495798
 20
352.7578479521451
 30
0.0
 10
231.3629751691022
 20
352.7488185708229
 30
0.0
 10
231.3630412230891
 20
352.7494879088273
 30
0.0
 10
231.3630664821403
 20
352.7497438637467
 30
0.0
  0
ARC
  5
2A2
330
1F
100
AcDbEntity
  8
0
  6
Continuous
 62
     7
370
    25
100
AcDbCircle
 10
228.4591897908
 20
357.8869609767
 30
0.0
 40
0.100000000000009
100
AcDbArc
 50
121.7290602778
 51
180.0
  0
SPLINE
  5
2A3
330
1F
100
AcDbEntity
  8
0
  6
Continuous
 62
     7
370
    25
100
AcDbSpline
210
0.0
220
0.0
230
1.0
 70
     8
 71
     3
 72
    10
 73
     6
 74
     0
 42
0.00000001
 43
0.00000001
 40
0.0
 40
0.0
 40
0.0
 40
0.0
 40
0.2345848983597846
 40
0.9184627445204184
 40
1.0
 40
1.0
 40
1.0
 40
1.0
 10
228.4190740208918
 20
357.982344606532
 30
0.0
 10
228.4192099950693
 20
357.9826938969239
 30
0.0
 10
228.4197423704145
 20
357.9840614624165
 30
0.0
 10
228.4142509285394
 20
357.9757813005284
 30
0.0
 10
228.4106133170039
 20
357.9747470489615
 30
0.0
 10
228.4102258137257
 20
357.9746368734057
 30
0.0
  0
LINE
  5
2A4
330
1F
100
AcDbEntity
  8
0
  6
Continuous
 62
     7
370
    25
100
AcDbLine
 10
228.4100279949
 20
357.9741353222
 30
0.0
 11
228.4065994796
 21
357.9720154249
 31
0.0
  0
LINE
  5
2A5
330
1F
100
AcDbEntity
  8
0
  6
Continuous
 62
     7
370
    25
100
AcDbLine
 10
228.3591897908
 20
357.8869609767
 30
0.0
 11
228.3591897908
 21
357.1900756085
 31
0.0
  0
SPLINE
  5
2A6
330
1F
100
AcDbEntity
  8
0
  6
Continuous
 62
     7
370
    25
100
AcDbSpline
210
0.0
220
0.0
230
1.0
 70
     8
 71
     3
 72
     9
 73
     5
 74
     0
 42
0.00000001
 43
0.00000001
 40
0.0
 40
0.0
 40
0.0
 40
0.0
 40
0.6175999004164359
 40
1.0
 40
1.0
 40
1.0
 40
1.0
 10
225.1418539364338
 20
363.4595252525764
 30
0.0
 10
225.1413123751382
 20
363.4539487075711
 30
0.0
 10
225.1404354946605
 20
363.4449193262489
 30
0.0
 10
225.1405015486475
 20
363.4455886642532
 30
0.0
 10
225.1405268076987
 20
363.4458446191727
 30
0.0
  0
SPLINE
  5
2A7
330
1F
100
AcDbEntity
  8
0
  6
Continuous
 62
     7
370
    25
100
AcDbSpline
210
0.0
220
0.0
230
1.0
 70
     8
 71
     3
 72
     9
 73
     5
 74
     0
 42
0.00000001
 43
0.00000001
 40
0.0
 40
0.0
 40
0.0
 40
0.0
 40
0.5960149826601329
 40
1.0
 40
1.0
 40
1.0
 40
1.0
 10
222.847280124494
 20
367.4161570214211
 30
0.0
 10
222.8480379517681
 20
367.4161693998739
 30
0.0
 10
222.8493094420764
 20
367.4161901685679
 30
0.0
 10
222.857515809685
 20
367.4120500109796
 30
0.0
 10
222.8608310592456
 20
367.4103774493444
 30
0.0
  0
ARC
  5
2A8
330
1F
100
AcDbEntity
  8
0
  6
Continuous
 62
     7
370
    25
100
AcDbCircle
 10
228.4591897908
 20
357.1900756085
 30
0.0
 40
0.0999999999999943
100
AcDbArc
 50
180.0
 51
240.0026882663
  0
SPLINE
  5
2A9
330
1F
100
AcDbEntity
  8
0
  6
Continuous
 62
     7
370
    25
100
AcDbSpline
210
0.0
220
0.0
230
1.0
 70
     8
 71
     3
 72
    13
 73
     9
 74
     0
 42
0.00000001
 43
0.00000001
 40
0.0
 40
0.0
 40
0.0
 40
0.0
 40
0.1616109046011374
 40
0.3255213860729329
 40
0.5046856585063876
 40
0.6922951120397496
 40
0.8590710774035838
 40
0.9999999999999999
 40
0.9999999999999999
 40
0.9999999999999999
 40
0.9999999999999999
 10
225.0504581827223
 20
362.5943800852091
 30
0.0
 10
225.0568725504634
 20
362.5901480232956
 30
0.0
 10
225.0697925565918
 20
362.5816236810588
 30
0.0
 10
225.0935752120699
 20
362.5567736368916
 30
0.0
 10
225.1156398291497
 20
362.5245501831478
 30
0.0
 10
225.1321450026018
 20
362.4889637108117
 30
0.0
 10
225.1407576430643
 20
362.4569776218455
 30
0.0
 10
225.141509558815
 20
362.4426399585171
 30
0.0
 10
225.1418539364338
 20
362.4360733048029
 30
0.0
  0
LINE
  5
2AA
330
1F
100
AcDbEntity
  8
0
  6
Continuous
 62
     7
370
    25
100
AcDbLine
 10
225.1418539364
 20
362.4360733048
 30
0.0
 11
225.1418539364
 21
356.3556201892
 31
0.0
  0
LINE
  5
2AB
330
1F
100
AcDbEntity
  8
0
  6
Continuous
 62
     7
370
    25
100
AcDbLine
 10
222.8608310592
 20
363.8584249176
 30
0.0
 11
225.0504581827
 21
362.5943800852
 31
0.0
  0
SPLINE
  5
2AC
330
1F
100
AcDbEntity
  8
0
  6
Continuous
 62
     7
370
    25
100
AcDbSpline
210
0.0
220
0.0
230
1.0
 70
     8
 71
     3
 72
     9
 73
     5
 74
     0
 42
0.00000001
 43
0.00000001
 40
0.0
 40
0.0
 40
0.0
 40
0.0
 40
0.5960149826601329
 40
1.0
 40
1.0
 40
1.0
 40
1.0
 10
222.847280124494
 20
363.8642044897181
 30
0.0
 10
222.8480379517681
 20
363.8642168681709
 30
0.0
 10
222.8493094420764
 20
363.8642376368649
 30
0.0
 10
222.857515809685
 20
363.8600974792765
 30
0.0
 10
222.8608310592456
 20
363.8584249176414
 30
0.0
  0
LINE
  5
2AD
330
1F
100
AcDbEntity
  8
0
  6
Continuous
 62
     7
370
    25
100
AcDbLine
 10
222.4218139683
 20
312.0604720455
 30
0.0
 11
266.2624344019
 21
286.751820579
 31
0.0
  0
LINE
  5
2AE
330
1F
100
AcDbEntity
  8
0
  6
Continuous
 62
     7
370
    25
100
AcDbLine
 10
217.2249730424
 20
371.6871291927
 30
0.0
 11
217.2249730424
 21
321.0615988558
 31
0.0
  0
SPLINE
  5
2AF
330
1F
100
AcDbEntity
  8
0
  6
Continuous
 62
     7
370
    25
100
AcDbSpline
210
0.0
220
0.0
230
1.0
 70
     8
 71
     3
 72
     9
 73
     5
 74
     0
 42
0.00000001
 43
0.00000001
 40
0.0
 40
0.0
 40
0.0
 40
0.0
 40
0.6175999004164359
 40
1.0
 40
1.0
 40
1.0
 40
1.0
 10
225.1418539364338
 20
356.3556201891705
 30
0.0
 10
225.1413123751382
 20
356.3500436441651
 30
0.0
 10
225.1404354946605
 20
356.3410142628429
 30
0.0
 10
225.1405015486475
 20
356.3416836008471
 30
0.0
 10
225.1405268076987
 20
356.3419395557667
 30
0.0
  0
SPLINE
  5
2B0
330
1F
100
AcDbEntity
  8
0
  6
Continuous
 62
     7
370
    25
100
AcDbSpline
210
0.0
220
0.0
230
1.0
 70
     8
 71
     3
 72
    17
 73
    13
 74
     0
 42
0.00000001
 43
0.00000001
 40
0.0
 40
0.0
 40
0.0
 40
0.0
 40
0.0613457406172555
 40
0.174166172769523
 40
0.2866112541905364
 40
0.3986307481529093
 40
0.5103644267512195
 40
0.6221241584564086
 40
0.7342095264164865
 40
0.8469691452340288
 40
0.9607871777016682
 40
1.0
 40
1.0
 40
1.0
 40
1.0
 10
217.2249730424002
 20
321.0615988557622
 30
0.0
 10
217.2299264492833
 20
320.8584193636387
 30
0.0
 10
217.2439896248247
 20
320.2815741878803
 30
0.0
 10
217.3944795555247
 20
319.2937508996864
 30
0.0
 10
217.7159744745349
 20
318.1140431892409
 30
0.0
 10
218.1802507249261
 20
316.9450033964363
 30
0.0
 10
218.770473325783
 20
315.8163562328458
 30
0.0
 10
219.4722332184955
 20
314.7554779957312
 30
0.0
 10
220.2693302643405
 20
313.7879199792648
 30
0.0
 10
221.146009572136
 20
312.9406965885987
 30
0.0
 10
221.877211497974
 20
312.3866383124911
 30
0.0
 10
222.3107289109386
 20
312.1270016711733
 30
0.0
 10
222.4218139682873
 20
312.0604720455386
 30
0.0
  0
SPLINE
  5
2B1
330
1F
100
AcDbEntity
  8
0
  6
Continuous
 62
     7
370
    25
100
AcDbSpline
210
0.0
220
0.0
230
1.0
 70
     8
 71
     3
 72
    13
 73
     9
 74
     0
 42
0.00000001
 43
0.00000001
 40
0.0
 40
0.0
 40
0.0
 40
0.0
 40
0.1117640727737467
 40
0.3229052099266206
 40
0.5338005813842679
 40
0.7443417219035792
 40
0.9436578632582521
 40
1.0
 40
1.0
 40
1.0
 40
1.0
 10
279.3875738973856
 20
344.5437480539741
 30
0.0
 10
279.3832370798437
 20
344.7364487148907
 30
0.0
 10
279.3707072843198
 20
345.2931933450927
 30
0.0
 10
279.2327797272693
 20
346.2640623948992
 30
0.0
 10
278.9306296914119
 20
347.4449036704517
 30
0.0
 10
278.4958389007127
 20
348.6088941248713
 30
0.0
 10
278.0815696851232
 20
349.4662646707543
 30
0.0
 10
277.8240402447548
 20
349.9206691822815
 30
0.0
 10
277.7672857400609
 20
350.0208111425387
 30
0.0
  0
SPLINE
  5
2B2
330
1F
100
AcDbEntity
  8
0
  6
Continuous
 62
     7
370
    25
100
AcDbSpline
210
0.0
220
0.0
230
1.0
 70
     8
 71
     3
 72
    13
 73
     9
 74
     0
 42
0.00000001
 43
0.00000001
 40
0.0
 40
0.0
 40
0.0
 40
0.0
 40
0.1109007080693507
 40
0.3210396155183798
 40
0.5315767646127132
 40
0.7425649202168777
 40
0.9430850476823535
 40
1.0
 40
1.0
 40
1.0
 40
1.0
 10
277.7672857400609
 20
350.0208111425387
 30
0.0
 10
277.6510022216978
 20
350.2153343814957
 30
0.0
 10
277.3143802408615
 20
350.7784477008903
 30
0.0
 10
276.6803936400435
 20
351.6549378806268
 30
0.0
 10
275.8539613552931
 20
352.5951523664837
 30
0.0
 10
274.9813285416192
 20
353.3917874560906
 30
0.0
 10
274.297860312094
 20
353.8872941220573
 30
0.0
 10
273.9181916470788
 20
354.1125568544608
 30
0.0
 10
273.8342527216454
 20
354.1623589936427
 30
0.0
  0
LINE
  5
2B3
330
1F
100
AcDbEntity
  8
0
  6
Continuous
 62
     7
370
    25
100
AcDbLine
 10
279.3875738974
 20
343.7559703345
 30
0.0
 11
279.3875738974
 21
344.543748054
 31
0.0
  0
LINE
  5
2B4
330
1F
100
AcDbEntity
  8
0
  6
Continuous
 62
     7
370
    25
100
AcDbLine
 10
273.8342527216
 20
354.1623589936
 30
0.0
 11
273.1520541598
 21
354.5561838406
 31
0.0
  0
SPLINE
  5
2B5
330
1F
100
AcDbEntity
  8
0
  6
Continuous
 62
     7
370
    25
100
AcDbSpline
210
0.0
220
0.0
230
1.0
 70
     8
 71
     3
 72
    13
 73
     9
 74
     0
 42
0.00000001
 43
0.00000001
 40
0.0
 40
0.0
 40
0.0
 40
0.0
 40
0.1679290947775787
 40
0.3538502398349438
 40
0.5573692195076656
 40
0.7714518493559486
 40
0.9641917673531113
 40
1.0
 40
1.0
 40
1.0
 40
1.0
 10
278.8218884724363
 20
342.6297536853698
 30
0.0
 10
278.8237537881632
 20
342.664097138609
 30
0.0
 10
278.8276842709555
 20
342.736463628654
 30
0.0
 10
278.8707976800476
 20
342.8938957528264
 30
0.0
 10
278.9513116163176
 20
343.0691125989753
 30
0.0
 10
279.062329522652
 20
343.2325156037942
 30
0.0
 10
279.1524252083501
 20
343.326013076919
 30
0.0
 10
279.1959754583297
 20
343.3621875943355
 30
0.0
 10
279.2027987797117
 20
343.3678553082588
 30
0.0
  0
SPLINE
  5
2B6
330
1F
100
AcDbEntity
  8
0
  6
Continuous
 62
     7
370
    25
100
AcDbSpline
210
0.0
220
0.0
230
1.0
 70
     8
 71
     3
 72
    13
 73
     9
 74
     0
 42
0.00000001
 43
0.00000001
 40
0.0
 40
0.0
 40
0.0
 40
0.0
 40
0.1694684993977617
 40
0.3696891423757279
 40
0.5825233352422141
 40
0.7965955847121368
 40
0.9742021845117809
 40
1.0
 40
1.0
 40
1.0
 40
1.0
 10
272.7236003444377
 20
354.5902214867732
 30
0.0
 10
272.6811921614388
 20
354.5762820008716
 30
0.0
 10
272.5886803090395
 20
354.545873537904
 30
0.0
 10
272.4031461312885
 20
354.5231344099334
 30
0.0
 10
272.1996616820695
 20
354.5307523147501
 30
0.0
 10
272.0221955390762
 20
354.5695187940833
 30
0.0
 10
271.9300589569015
 20
354.6089506330239
 30
0.0
 10
271.8979575163839
 20
354.6270826353862
 30
0.0
 10
271.8938860853965
 20
354.6293823202319
 30
0.0
  0
ARC
  5
2B7
330
1F
100
AcDbEntity
  8
0
  6
Continuous
 62
     7
370
    25
100
AcDbCircle
 10
278.8875738974
 20
343.7559703345
 30
0.0
 40
0.5000000000000081
100
AcDbArc
 50
309.0833131565
 51
0.0
  0
ARC
  5
2B8
330
1F
100
AcDbEntity
  8
0
  6
Continuous
 62
     7
370
    25
100
AcDbCircle
 10
272.9020744767
 20
354.1231594094
 30
0.0
 40
0.4999999999999893
100
AcDbArc
 50
60.0026882664
 51
110.9128963445
  0
LINE
  5
2B9
330
1F
100
AcDbEntity
  8
0
  6
Continuous
 62
     7
370
    25
100
AcDbLine
 10
278.8218884724
 20
332.3478338226
 30
0.0
 11
278.8218884724
 21
342.6297536854
 31
0.0
  0
LINE
  5
2BA
330
1F
100
AcDbEntity
  8
0
  6
Continuous
 62
     7
370
    25
100
AcDbLine
 10
271.8938860854
 20
354.6293823202
 30
0.0
 11
262.9899646246
 21
359.7695067689
 31
0.0
  0
SPLINE
  5
2BB
330
1F
100
AcDbEntity
  8
0
  6
Continuous
 62
     7
370
    25
100
AcDbSpline
210
0.0
220
0.0
230
1.0
 70
     8
 71
     3
 72
    10
 73
     6
 74
     0
 42
0.00000001
 43
0.00000001
 40
0.0
 40
0.0
 40
0.0
 40
0.0
 40
0.4814411304591497
 40
0.8577601254858022
 40
1.0
 40
1.0
 40
1.0
 40
1.0
 10
278.8794809418465
 20
332.0988038111641
 30
0.0
 10
278.8753158491598
 20
332.0989364981708
 30
0.0
 10
278.8678951071429
 20
332.0991729001238
 30
0.0
 10
278.8252283700321
 20
332.2231751641457
 30
0.0
 10
278.8226074002781
 20
332.3210004908489
 30
0.0
 10
278.8218884724363
 20
332.3478338226303
 30
0.0
  0
SPLINE
  5
2BC
330
1F
100
AcDbEntity
  8
0
  6
Continuous
 62
     7
370
    25
100
AcDbSpline
210
0.0
220
0.0
230
1.0
 70
     8
 71
     3
 72
    10
 73
     6
 74
     0
 42
0.00000001
 43
0.00000001
 40
0.0
 40
0.0
 40
0.0
 40
0.0
 40
0.2544082228530105
 40
0.6313437130652529
 40
0.9999999999999999
 40
0.9999999999999999
 40
0.9999999999999999
 40
0.9999999999999999
 10
262.9899646246073
 20
359.7695067689202
 30
0.0
 10
262.9505525747513
 20
359.7950999830189
 30
0.0
 10
262.8527469707635
 20
359.8586125324055
 30
0.0
 10
262.7989076297627
 20
359.9419859367691
 30
0.0
 10
262.8008313528802
 20
359.9445874842561
 30
0.0
 10
262.8017825337318
 20
359.9458738139425
 30
0.0
  0
SPLINE
  5
2BD
330
1F
100
AcDbEntity
  8
0
  6
Continuous
 62
     7
370
    25
100
AcDbSpline
210
0.0
220
0.0
230
1.0
 70
     8
 71
     3
 72
    10
 73
     6
 74
     0
 42
0.00000001
 43
0.00000001
 40
0.0
 40
0.0
 40
0.0
 40
0.0
 40
0.160291619915529
 40
0.6367774901497895
 40
1.0
 40
1.0
 40
1.0
 40
1.0
 10
297.8167072914281
 20
331.5091758766029
 30
0.0
 10
297.7978637548093
 20
331.6646598401173
 30
0.0
 10
297.7230055684614
 20
332.282338344442
 30
0.0
 10
297.5194479100795
 20
333.1960512749932
 30
0.0
 10
297.2431142642994
 20
333.8718881559662
 30
0.0
 10
297.1235839574014
 20
334.1642267511004
 30
0.0
  0
SPLINE
  5
2BE
330
1F
100
AcDbEntity
  8
0
  6
Continuous
 62
     7
370
    25
100
AcDbSpline
210
0.0
220
0.0
230
1.0
 70
     8
 71
     3
 72
    24
 73
    20
 74
     0
 42
0.00000001
 43
0.00000001
 40
0.0
 40
0.0
 40
0.0
 40
0.0
 40
0.0076924064941492
 40
0.0702359906501185
 40
0.1332192401000408
 40
0.1964573229485637
 40
0.2597976603300608
 40
0.32313326683804
 40
0.3864274359338867
 40
0.4496735461311381
 40
0.5128778403276761
 40
0.5760525639466804
 40
0.6392125598697926
 40
0.7023737690552875
 40
0.7655487353614963
 40
0.8287526759601304
 40
0.892002315126692
 40
0.955313412174737
 40
1.0
 40
1.0
 40
1.0
 40
1.0
 10
273.7193552144809
 20
374.7151465126078
 30
0.0
 10
273.6925614007686
 20
374.7560067597124
 30
0.0
 10
273.4479188365967
 20
375.1290837591912
 30
0.0
 10
272.805611715061
 20
375.782179945344
 30
0.0
 10
271.7916640487119
 20
376.6577993278062
 30
0.0
 10
270.5925659871684
 20
377.4510536143148
 30
0.0
 10
269.2496783438058
 20
378.1576516978422
 30
0.0
 10
267.7758645343301
 20
378.7661476742843
 30
0.0
 10
266.1935290924112
 20
379.2693097000518
 30
0.0
 10
264.5236989214214
 20
379.6608754443893
 30
0.0
 10
262.7888416092448
 20
379.9361858548136
 30
0.0
 10
261.0119662325031
 20
380.0919487921745
 30
0.0
 10
259.2166164121206
 20
380.1263051340799
 30
0.0
 10
257.4264975242156
 20
380.0388946147494
 30
0.0
 10
255.6654883094227
 20
379.8306472573551
 30
0.0
 10
253.9561302009528
 20
379.504589257878
 30
0.0
 10
252.3237198646869
 20
379.0626522030491
 30
0.0
 10
250.931572927414
 20
378.5709158694694
 30
0.0
 10
250.1256628168602
 20
378.2009363527781
 30
0.0
 10
249.7921985117987
 20
378.0478486066327
 30
0.0
  0
LINE
  5
2BF
330
1F
100
AcDbEntity
  8
0
  6
Continuous
 62
     7
370
    25
100
AcDbLine
 10
294.7646265088
 20
337.0887872881
 30
0.0
 11
294.3959620478
 21
337.3231743588
 31
0.0
  0
LINE
  5
2C0
330
1F
100
AcDbEntity
  8
0
  6
Continuous
 62
     7
370
    25
100
AcDbLine
 10
275.0868965083
 20
370.7680794127
 30
0.0
 11
275.0682230999
 21
371.2045804584
 31
0.0
  0
SPLINE
  5
2C1
330
1F
100
AcDbEntity
  8
0
  6
Continuous
 62
     7
370
    25
100
AcDbSpline
210
0.0
220
0.0
230
1.0
 70
     8
 71
     3
 72
    19
 73
    15
 74
     0
 42
0.00000001
 43
0.00000001
 40
0.0
 40
0.0
 40
0.0
 40
0.0
 40
0.0476054042236203
 40
0.1378857621935732
 40
0.2281230942679905
 40
0.3182938954786017
 40
0.4084111572221332
 40
0.498494143170031
 40
0.5885647714662223
 40
0.6786453067037952
 40
0.7687524348183903
 40
0.8589101077901795
 40
0.9491418691784258
 40
1.0
 40
1.0
 40
1.0
 40
1.0
 10
288.0541938771024
 20
311.776047684372
 30
0.0
 10
288.2779202860856
 20
311.9331376844127
 30
0.0
 10
288.9259283626598
 20
312.3881380093097
 30
0.0
 10
289.9795546806832
 20
313.2613503327578
 30
0.0
 10
291.1879990072207
 20
314.430904350554
 30
0.0
 10
292.3374694618809
 20
315.7279041799732
 30
0.0
 10
293.4131646857014
 20
317.1318695691511
 30
0.0
 10
294.4010049396039
 20
318.6247809810974
 30
0.0
 10
295.2881602909114
 20
320.1866414503494
 30
0.0
 10
296.0625361390909
 20
321.7967096999075
 30
0.0
 10
296.7150671526705
 20
323.434205250071
 30
0.0
 10
297.2320045204068
 20
325.075959786222
 30
0.0
 10
297.567042091935
 20
326.4691260801515
 30
0.0
 10
297.6905700791982
 20
327.2958097337323
 30
0.0
 10
297.7350977376857
 20
327.5938012109626
 30
0.0
  0
SPLINE
  5
2C2
330
1F
100
AcDbEntity
  8
0
  6
Continuous
 62
     7
370
    25
100
AcDbSpline
210
0.0
220
0.0
230
1.0
 70
     8
 71
     3
 72
    13
 73
     9
 74
     0
 42
0.00000001
 43
0.00000001
 40
0.0
 40
0.0
 40
0.0
 40
0.0
 40
0.0825181961480649
 40
0.2802232504300819
 40
0.4900992788094711
 40
0.7080702170202022
 40
0.9259437359993197
 40
0.9999999999999999
 40
0.9999999999999999
 40
0.9999999999999999
 40
0.9999999999999999
 10
287.3132562560665
 20
310.4202921796747
 30
0.0
 10
287.3119326204015
 20
310.4512551379924
 30
0.0
 10
287.3074376907286
 20
310.5564021386271
 30
0.0
 10
287.3668219045459
 20
310.8182441267468
 30
0.0
 10
287.5078638561088
 20
311.1552379733249
 30
0.0
 10
287.720287542078
 20
311.4748000229394
 30
0.0
 10
287.9235892665934
 20
311.6892689019754
 30
0.0
 10
288.0261926675603
 20
311.750872462437
 30
0.0
 10
288.0522209284381
 20
311.7664999516584
 30
0.0
  0
SPLINE
  5
2C3
330
1F
100
AcDbEntity
  8
0
  6
Continuous
 62
     7
370
    25
100
AcDbSpline
210
0.0
220
0.0
230
1.0
 70
     8
 71
     3
 72
    13
 73
     9
 74
     0
 42
0.00000001
 43
0.00000001
 40
0.0
 40
0.0
 40
0.0
 40
0.0
 40
0.082881131683905
 40
0.2844238204767107
 40
0.4980711253815212
 40
0.7172053060292657
 40
0.9329837931616102
 40
1.0
 40
1.0
 40
1.0
 40
1.0
 10
249.783391426125
 20
378.0505477739309
 30
0.0
 10
249.7526162283008
 20
378.0341910531337
 30
0.0
 10
249.647004743959
 20
377.978059567896
 30
0.0
 10
249.3705467372458
 20
377.911266745362
 30
0.0
 10
248.9944735974333
 20
377.8845083857812
 30
0.0
 10
248.6185233651667
 20
377.9301570567117
 30
0.0
 10
248.3530558133283
 20
378.013686623531
 30
0.0
 10
248.2678935918546
 20
378.0703626578993
 30
0.0
 10
248.2477119930808
 20
378.0837936483775
 30
0.0
  0
LINE
  5
2C4
330
1F
100
AcDbEntity
  8
0
  6
Continuous
 62
     7
370
    25
100
AcDbLine
 10
287.3071698467
 20
300.0775342671
 30
0.0
 11
287.3071698467
 21
310.4126988585
 31
0.0
  0
LINE
  5
2C5
330
1F
100
AcDbEntity
  8
0
  6
Continuous
 62
     7
370
    25
100
AcDbLine
 10
248.2379396993
 20
378.0825668285
 30
0.0
 11
239.2879094487
 21
383.249309315
 31
0.0
  0
SPLINE
  5
2C6
330
1F
100
AcDbEntity
  8
0
  6
Continuous
 62
     7
370
    25
100
AcDbSpline
210
0.0
220
0.0
230
1.0
 70
     8
 71
     3
 72
     9
 73
     5
 74
     0
 42
0.00000001
 43
0.00000001
 40
0.0
 40
0.0
 40
0.0
 40
0.0
 40
0.3530483966559145
 40
1.0
 40
1.0
 40
1.0
 40
1.0
 10
287.3127305335809
 20
300.010730222753
 30
0.0
 10
287.3134062368388
 20
300.0085826617899
 30
0.0
 10
287.3153201479749
 20
300.0024997536574
 30
0.0
 10
287.3103714286055
 20
300.0480593883973
 30
0.0
 10
287.3071698466749
 20
300.0775342671401
 30
0.0
  0
SPLINE
  5
2C7
330
1F
100
AcDbEntity
  8
0
  6
Continuous
 62
     7
370
    25
100
AcDbSpline
210
0.0
220
0.0
230
1.0
 70
     8
 71
     3
 72
     9
 73
     5
 74
     0
 42
0.00000001
 43
0.00000001
 40
0.0
 40
0.0
 40
0.0
 40
0.0
 40
0.5985438414997283
 40
1.0
 40
1.0
 40
1.0
 40
1.0
 10
239.2879094486686
 20
383.2493093150358
 30
0.0
 10
239.2657516029372
 20
383.2649951711518
 30
0.0
 10
239.2287320160747
 20
383.2912018665155
 30
0.0
 10
239.2310375579951
 20
383.2899458062344
 30
0.0
 10
239.2319631319977
 20
383.2894415530992
 30
0.0
  0
ARC
  5
2C8
330
1F
100
AcDbEntity
  8
0
  6
Continuous
 62
     7
370
    25
100
AcDbCircle
 10
287.3728552716
 20
299.6044441075
 30
0.0
 40
0.5
100
AcDbArc
 50
0.0
 51
56.5412924772
  0
ARC
  5
2C9
330
1F
100
AcDbEntity
  8
0
  6
Continuous
 62
     7
370
    25
100
AcDbCircle
 10
238.911132541
 20
383.542609853
 30
0.0
 40
0.5000000000000048
100
AcDbArc
 50
3.4611054326
 51
60.0026882664
  0
LINE
  5
2CA
330
1F
100
AcDbEntity
  8
0
  6
Continuous
 62
     7
370
    25
100
AcDbLine
 10
287.8728552716
 20
298.816666388
 30
0.0
 11
287.8728552716
 21
299.6044441075
 31
0.0
  0
LINE
  5
2CB
330
1F
100
AcDbEntity
  8
0
  6
Continuous
 62
     7
370
    25
100
AcDbLine
 10
239.1611122241
 20
383.9756342841
 30
0.0
 11
238.4789136623
 21
384.3694591311
 31
0.0
  0
LINE
  5
2CC
330
1F
100
AcDbEntity
  8
0
  6
Continuous
 62
     7
370
    25
100
AcDbLine
 10
287.6485232062
 20
300.0215857979
 30
0.0
 11
287.3071698467
 21
300.2471690415
 31
0.0
  0
LINE
  5
2CD
330
1F
100
AcDbEntity
  8
0
  6
Continuous
 62
     7
370
    25
100
AcDbLine
 10
239.4349182164
 20
383.1644429598
 30
0.0
 11
239.4102205462
 21
383.5727953297
 31
0.0
  0
SPLINE
  5
2CE
330
1F
100
AcDbEntity
  8
0
  6
Continuous
 62
     7
370
    25
100
AcDbSpline
210
0.0
220
0.0
230
1.0
 70
     8
 71
     3
 72
    11
 73
     7
 74
     0
 42
0.00000001
 43
0.00000001
 40
0.0
 40
0.0
 40
0.0
 40
0.0
 40
0.274628914668916
 40
0.567680403654996
 40
0.8666114988990943
 40
1.0
 40
1.0
 40
1.0
 40
1.0
 10
287.0195718385013
 20
295.8122603952623
 30
0.0
 10
287.1644364501843
 20
296.0342994651571
 30
0.0
 10
287.4638834378936
 20
296.4932723631021
 30
0.0
 10
287.7381447027653
 20
297.3556816491338
 30
0.0
 10
287.8602053572387
 20
298.1510934642767
 30
0.0
 10
287.8698725440893
 20
298.6597307261767
 30
0.0
 10
287.8728552716241
 20
298.8166663879938
 30
0.0
  0
SPLINE
  5
2CF
330
1F
100
AcDbEntity
  8
0
  6
Continuous
 62
     7
370
    25
100
AcDbSpline
210
0.0
220
0.0
230
1.0
 70
     8
 71
     3
 72
    10
 73
     6
 74
     0
 42
0.00000001
 43
0.00000001
 40
0.0
 40
0.0
 40
0.0
 40
0.0
 40
0.3551950118334742
 40
0.9727264997252193
 40
1.0
 40
1.0
 40
1.0
 40
1.0
 10
286.0695950398036
 20
294.9500170547122
 30
0.0
 10
286.1957629091874
 20
295.032786538433
 30
0.0
 10
286.5412824854054
 20
295.2594565858757
 30
0.0
 10
286.8672439110703
 20
295.5508676528978
 30
0.0
 10
287.0133902453659
 20
295.8016528618368
 30
0.0
 10
287.0195718385013
 20
295.8122603952623
 30
0.0
  0
SPLINE
  5
2D0
330
1F
100
AcDbEntity
  8
0
  6
Continuous
 62
     7
370
    25
100
AcDbSpline
210
0.0
220
0.0
230
1.0
 70
     8
 71
     3
 72
    13
 73
     9
 74
     0
 42
0.00000001
 43
0.00000001
 40
0.0
 40
0.0
 40
0.0
 40
0.0
 40
0.1100061239956482
 40
0.3187765451694411
 40
0.5274784591795822
 40
0.7337124791216749
 40
0.93523639539514
 40
0.9999999999999999
 40
0.9999999999999999
 40
0.9999999999999999
 40
0.9999999999999999
 10
238.4789136623181
 20
384.369459131083
 30
0.0
 10
238.3132030074118
 20
384.4600901746396
 30
0.0
 10
237.8330054679465
 20
384.7227214709775
 30
0.0
 10
237.0355176428472
 20
385.0196475753729
 30
0.0
 10
236.112142296942
 20
385.1851500836206
 30
0.0
 10
235.2404484016489
 20
385.1410727129107
 30
0.0
 10
234.6207511410248
 20
384.9529503856062
 30
0.0
 10
234.3055525776533
 20
384.7821086614646
 30
0.0
 10
234.2288933520806
 20
384.7405583633663
 30
0.0
  0
SPLINE
  5
2D1
330
1F
100
AcDbEntity
  8
0
  6
Continuous
 62
     7
370
    25
100
AcDbSpline
210
0.0
220
0.0
230
1.0
 70
     8
 71
     3
 72
    10
 73
     6
 74
     0
 42
0.00000001
 43
0.00000001
 40
0.0
 40
0.0
 40
0.0
 40
0.0
 40
0.3013884833214217
 40
0.6944784745531075
 40
1.0
 40
1.0
 40
1.0
 40
1.0
 10
286.4820211602976
 20
333.6900346526537
 30
0.0
 10
286.7494831827823
 20
333.8406791515839
 30
0.0
 10
287.3657861527204
 20
334.187803768503
 30
0.0
 10
288.2293768568759
 20
334.5194820033141
 30
0.0
 10
288.7873623294469
 20
334.631312258924
 30
0.0
 10
289.0313843197623
 20
334.6802186245785
 30
0.0
  0
SPLINE
  5
2D2
330
1F
100
AcDbEntity
  8
0
  6
Continuous
 62
     7
370
    25
100
AcDbSpline
210
0.0
220
0.0
230
1.0
 70
     8
 71
     3
 72
    22
 73
    18
 74
     0
 42
0.00000001
 43
0.00000001
 40
0.0
 40
0.0
 40
0.0
 40
0.0
 40
0.0607409266873183
 40
0.131511982584155
 40
0.202154231205591
 40
0.2728494806694597
 40
0.3437072690581997
 40
0.4147407056241826
 40
0.4859192547522395
 40
0.5571942282778765
 40
0.628510065675007
 40
0.699802294404016
 40
0.7709988011873955
 40
0.8420407827638563
 40
0.9128733757380944
 40
0.9834553224391456
 40
1.0
 40
1.0
 40
1.0
 40
1.0
 10
278.3602061183686
 20
317.0069459426189
 30
0.0
 10
278.2921350718111
 20
317.2952306178518
 30
0.0
 10
278.1447524292078
 20
317.9194043217479
 30
0.0
 10
278.0751985350741
 20
319.0358707839283
 30
0.0
 10
278.1269933071161
 20
320.2926605426852
 30
0.0
 10
278.3210749147046
 20
321.6278296108854
 30
0.0
 10
278.6520493131289
 20
323.0126457508852
 30
0.0
 10
279.1169473535691
 20
324.4231275393554
 30
0.0
 10
279.7082940785873
 20
325.8325991293926
 30
0.0
 10
280.4160837845751
 20
327.2147010620648
 30
0.0
 10
281.227494594903
 20
328.5433336259923
 30
0.0
 10
282.1273089104744
 20
329.7939120724783
 30
0.0
 10
283.0979571848907
 20
330.9419163490579
 30
0.0
 10
284.1207286256856
 20
331.971105169941
 30
0.0
 10
285.1729079068819
 20
332.8456933755577
 30
0.0
 10
285.9690552997085
 20
333.4206059022785
 30
0.0
 10
286.4001580543661
 20
333.6470371044199
 30
0.0
 10
286.4820211602976
 20
333.6900346526537
 30
0.0
  0
SPLINE
  5
2D3
330
1F
100
AcDbEntity
  8
0
  6
Continuous
 62
     7
370
    25
100
AcDbSpline
210
0.0
220
0.0
230
1.0
 70
     8
 71
     3
 72
     9
 73
     5
 74
     0
 42
0.00000001
 43
0.00000001
 40
0.0
 40
0.0
 40
0.0
 40
0.0
 40
0.4313034993136022
 40
0.9999999999999999
 40
0.9999999999999999
 40
0.9999999999999999
 40
0.9999999999999999
 10
269.5784442655352
 20
366.8885795356662
 30
0.0
 10
269.3846846746851
 20
366.7108555950172
 30
0.0
 10
268.935442804034
 20
366.2987932284192
 30
0.0
 10
268.3370816650676
 20
365.9330322653438
 30
0.0
 10
267.9967957791907
 20
365.7250252855551
 30
0.0
  0
SPLINE
  5
2D4
330
1F
100
AcDbEntity
  8
0
  6
Continuous
 62
     7
370
    25
100
AcDbSpline
210
0.0
220
0.0
230
1.0
 70
     8
 71
     3
 72
    22
 73
    18
 74
     0
 42
0.00000001
 43
0.00000001
 40
0.0
 40
0.0
 40
0.0
 40
0.0
 40
0.0165814332646615
 40
0.0903886831167015
 40
0.1643940288609195
 40
0.238585575855115
 40
0.3129442089517189
 40
0.3874241791200766
 40
0.4619692752884937
 40
0.5365194862802631
 40
0.6109939585367276
 40
0.6853298574061644
 40
0.7594675088557773
 40
0.8333565478949405
 40
0.9069730595863894
 40
0.9803559832548772
 40
1.0
 40
1.0
 40
1.0
 40
1.0
 10
267.6721358463453
 20
365.5498680777868
 30
0.0
 10
267.5908796707845
 20
365.5053772246805
 30
0.0
 10
267.1479361334674
 20
365.2628487557099
 30
0.0
 10
266.2432494280599
 20
364.8740629908847
 30
0.0
 10
264.9227485008612
 20
364.4298516041694
 30
0.0
 10
263.4982093671059
 20
364.0880611195422
 30
0.0
 10
262.0025213795728
 20
363.8532210478735
 30
0.0
 10
260.4612666669214
 20
363.7316875960094
 30
0.0
 10
258.9035567442739
 20
363.7261168621289
 30
0.0
 10
257.3584335059602
 20
363.8368347871153
 30
0.0
 10
255.8550866262395
 20
364.061402038925
 30
0.0
 10
254.4214506520598
 20
364.3945858939098
 30
0.0
 10
253.0855936684902
 20
364.8288060769749
 30
0.0
 10
251.8674460099368
 20
365.3525607313725
 30
0.0
 10
250.8065565416801
 20
365.9564540880751
 30
0.0
 10
250.08679229672
 20
366.4519736029831
 30
0.0
 10
249.7834805419653
 20
366.7514456157062
 30
0.0
 10
249.7194317711157
 20
366.8146835681367
 30
0.0
  0
LINE
  5
2D5
330
1F
100
AcDbEntity
  8
0
  6
Continuous
 62
     7
370
    25
100
AcDbLine
 10
267.9967957792
 20
365.7250252856
 30
0.0
 11
267.6721358463
 21
365.5498680778
 31
0.0
  0
LINE
  5
2D6
330
1F
100
AcDbEntity
  8
0
  6
Continuous
 62
     7
370
    25
100
AcDbLine
 10
280.0189690149
 20
312.7571055733
 30
0.0
 11
280.3673136959
 21
312.5754015523
 31
0.0
  0
LINE
  5
2D7
330
1F
100
AcDbEntity
  8
0
  6
Continuous
 62
     7
370
    25
100
AcDbLine
 10
246.6403576518
 20
370.991500883
 30
0.0
 11
246.6235635234
 21
370.5989290247
 31
0.0
  0
SPLINE
  5
2D8
330
1F
100
AcDbEntity
  8
0
  6
Continuous
 62
     7
370
    25
100
AcDbSpline
210
0.0
220
0.0
230
1.0
 70
     8
 71
     3
 72
    11
 73
     7
 74
     0
 42
0.00000001
 43
0.00000001
 40
0.0
 40
0.0
 40
0.0
 40
0.0
 40
0.1881733362403288
 40
0.545659357992942
 40
0.9036884023997417
 40
1.0
 40
1.0
 40
1.0
 40
1.0
 10
297.7244867029565
 20
327.4783793740177
 30
0.0
 10
297.7620617059764
 20
327.7557765835014
 30
0.0
 10
297.8710205650479
 20
328.5601646347532
 30
0.0
 10
297.9366548205141
 20
329.8480693831454
 30
0.0
 10
297.8905050883124
 20
330.9494731305916
 30
0.0
 10
297.8182171143851
 20
331.5355179401619
 30
0.0
 10
297.8028934351618
 20
331.6597483229551
 30
0.0
  0
ARC
  5
2D9
330
1F
100
AcDbEntity
  8
0
  6
Continuous
 62
     7
370
    25
100
AcDbCircle
 10
260.5699796885
 20
340.0922312271
 30
0.0
 40
11.87279152376236
100
AcDbArc
 50
2.4763980378
 51
57.5236021078
  0
ARC
  5
2DA
330
1F
100
AcDbEntity
  8
0
  6
Continuous
 62
     7
370
    25
100
AcDbCircle
 10
265.7882124305
 20
343.1046519255
 30
0.0
 40
12.07397609695111
100
AcDbArc
 50
2.4763980378
 51
57.5236021078
  0
LINE
  5
2DB
330
1F
100
AcDbEntity
  8
0
  6
Continuous
 62
     7
370
    25
100
AcDbLine
 10
272.4316832721
 20
340.6052289487
 30
0.0
 11
272.4316832721
 21
289.9796986118
 31
0.0
  0
LINE
  5
2DC
330
1F
100
AcDbEntity
  8
0
  6
Continuous
 62
     7
370
    25
100
AcDbLine
 10
223.1044800802
 20
375.4169204846
 30
0.0
 11
266.9451005138
 21
350.1082690181
 31
0.0
  0
ELLIPSE
  5
2DD
330
1F
100
AcDbEntity
  8
0
  6
Continuous
 62
     7
370
    25
100
AcDbEllipse
 10
287.269918989
 20
323.564487336
 30
0.0
 11
6.719620509273739
 21
11.23711835574471
 31
0.0
210
0.0
220
0.0
230
1.0
 40
0.5873687163
 41
2.365149892935186
 42
3.792515766712738
  0
ELLIPSE
  5
2DE
330
1F
100
AcDbEntity
  8
0
  6
Continuous
 62
     7
370
    25
100
AcDbEllipse
 10
285.8310202371
 20
311.4546369628
 30
0.0
 11
0.4619366386775141
 21
0.7724895586752609
 31
0.0
210
0.0
220
0.0
230
1.0
 40
0.5873687163
 41
5.506742546524841
 42
6.934108420302604
  0
LINE
  5
2DF
330
1F
100
AcDbEntity
  8
0
  6
Continuous
 62
     7
370
    25
100
AcDbLine
 10
286.4785246754
 20
297.8105354572
 30
0.0
 11
286.4785246754
 21
311.8156079076
 31
0.0
  0
LINE
  5
2E0
330
1F
100
AcDbEntity
  8
0
  6
Continuous
 62
     7
370
    25
100
AcDbLine
 10
277.850912702
 20
343.6263423987
 30
0.0
 11
277.850912702
 21
318.3135772302
 31
0.0
  0
LINE
  5
2E1
330
1F
100
AcDbEntity
  8
0
  6
Continuous
 62
     7
370
    25
100
AcDbLine
 10
249.0384308396
 20
376.6637524812
 30
0.0
 11
236.9103393143
 21
383.6651506898
 31
0.0
  0
ELLIPSE
  5
2E2
330
1F
100
AcDbEntity
  8
0
  6
Continuous
 62
     7
370
    25
100
AcDbEllipse
 10
248.4020347365
 20
376.2835413352
 30
0.0
 11
0.8999632648063596
 21
0.01384623060448575
 31
0.0
210
0.0
220
0.0
230
1.0
 40
0.5872748834
 41
5.632182425576522
 42
7.059548299354254
  0
ELLIPSE
  5
2E3
330
1F
100
AcDbEntity
  8
0
  6
Continuous
 62
     7
370
    25
100
AcDbEllipse
 10
259.6084669904
 20
371.4755274682
 30
0.0
 11
13.09143095706577
 21
0.2014159678106466
 31
0.0
210
0.0
220
0.0
230
1.0
 40
0.5872748834
 41
2.490589771986892
 42
3.917955645764429
  0
LINE
  5
2E4
330
1F
100
AcDbEntity
  8
0
  6
Continuous
 62
     7
370
    25
100
AcDbLine
 10
272.271359743
 20
353.2904115788
 30
0.0
 11
250.3510495263
 21
365.944737312
 31
0.0
  0
ELLIPSE
  5
2E5
330
1F
100
AcDbEntity
  8
0
  6
Continuous
 62
     7
370
    25
100
AcDbEllipse
 10
286.5628122078
 20
323.9726913919
 30
0.0
 11
6.719620509273795
 21
11.23711835574471
 31
0.0
210
0.0
220
0.0
230
1.0
 40
0.5873687163
 41
3.203734119977736
 42
3.468780157590766
  0
LINE
  5
2E6
330
1F
100
AcDbEntity
  8
0
  6
Continuous
 62
     7
370
    25
100
AcDbLine
 10
237.4341197951
 20
358.9949834689
 30
0.0
 11
235.3225611401
 21
356.7316356444
 31
0.0
  0
LINE
  5
2E7
330
1F
100
AcDbEntity
  8
0
  6
Continuous
 62
     7
370
    25
100
AcDbLine
 10
237.4366103649
 20
358.9963456018
 30
0.0
 11
237.4341197951
 21
358.9949834689
 31
0.0
  0
LINE
  5
2E8
330
1F
100
AcDbEntity
  8
0
  6
Continuous
 62
     7
370
    25
100
AcDbLine
 10
235.3250517099
 20
356.7329977773
 30
0.0
 11
237.4366103649
 21
358.9963456018
 31
0.0
  0
LINE
  5
2E9
330
1F
100
AcDbEntity
  8
0
  6
Continuous
 62
     7
370
    25
100
AcDbLine
 10
235.3225611401
 20
356.7316356444
 30
0.0
 11
235.3250517099
 21
356.7329977773
 31
0.0
  0
LINE
  5
2EA
330
1F
100
AcDbEntity
  8
0
  6
Continuous
 62
     7
370
    25
100
AcDbLine
 10
232.2812797693
 20
361.9256268827
 30
0.0
 11
232.2787685447
 21
361.9242766735
 31
0.0
  0
LINE
  5
2EB
330
1F
100
AcDbEntity
  8
0
  6
Continuous
 62
     7
370
    25
100
AcDbLine
 10
232.2787685447
 20
361.9242766735
 30
0.0
 11
232.2787685447
 21
352.2918710262
 31
0.0
  0
LINE
  5
2EC
330
1F
100
AcDbEntity
  8
0
  6
Continuous
 62
     7
370
    25
100
AcDbLine
 10
232.2812797693
 20
352.2933207334
 30
0.0
 11
232.2812797693
 21
361.9256268827
 31
0.0
  0
LINE
  5
2ED
330
1F
100
AcDbEntity
  8
0
  6
Continuous
 62
     7
370
    25
100
AcDbLine
 10
232.2787685447
 20
352.2918710262
 30
0.0
 11
232.2812797693
 21
352.2933207334
 31
0.0
  0
LINE
  5
2EE
330
1F
100
AcDbEntity
  8
0
  6
Continuous
 62
     7
370
    25
100
AcDbLine
 10
237.4366103649
 20
349.2703840051
 30
0.0
 11
235.3250517099
 21
353.9716855593
 31
0.0
  0
LINE
  5
2EF
330
1F
100
AcDbEntity
  8
0
  6
Continuous
 62
     7
370
    25
100
AcDbLine
 10
235.3225611401
 20
353.9702239284
 30
0.0
 11
237.4341197951
 21
349.2689223742
 31
0.0
  0
LINE
  5
2F0
330
1F
100
AcDbEntity
  8
0
  6
Continuous
 62
     7
370
    25
100
AcDbLine
 10
237.4341197951
 20
349.2689223742
 30
0.0
 11
237.4366103649
 21
349.2703840051
 31
0.0
  0
LINE
  5
2F1
330
1F
100
AcDbEntity
  8
0
  6
Continuous
 62
     7
370
    25
100
AcDbLine
 10
235.3250517099
 20
353.9716855593
 30
0.0
 11
235.3225611401
 21
353.9702239284
 31
0.0
  0
LINE
  5
2F2
330
1F
100
AcDbEntity
  8
0
  6
Continuous
 62
     7
370
    25
100
AcDbLine
 10
240.1650749209
 20
347.6575616166
 30
0.0
 11
240.1674603049
 21
347.65908397
 31
0.0
  0
LINE
  5
2F3
330
1F
100
AcDbEntity
  8
0
  6
Continuous
 62
     7
370
    25
100
AcDbLine
 10
237.4920337697
 20
349.2006754271
 30
0.0
 11
240.1650749209
 21
347.6575616166
 31
0.0
  0
LINE
  5
2F4
330
1F
100
AcDbEntity
  8
0
  6
Continuous
 62
     7
370
    25
100
AcDbLine
 10
240.1674603049
 20
347.65908397
 30
0.0
 11
237.4945243395
 21
349.202137058
 31
0.0
  0
LINE
  5
2F5
330
1F
100
AcDbEntity
  8
0
  6
Continuous
 62
     7
370
    25
100
AcDbLine
 10
237.4945243395
 20
349.202137058
 30
0.0
 11
237.4920337697
 21
349.2006754271
 31
0.0
  0
LINE
  5
2F6
330
1F
100
AcDbEntity
  8
0
  6
Continuous
 62
     7
370
    25
100
AcDbLine
 10
235.3250517099
 20
353.9716855593
 30
0.0
 11
235.2671377353
 21
354.0399325064
 31
0.0
  0
ARC
  5
2F7
330
1F
100
AcDbEntity
  8
0
  6
Continuous
 62
     7
370
    25
100
AcDbCircle
 10
235.1804910033
 20
353.9083602208
 30
0.0
 40
0.1549549679398232
100
AcDbArc
 50
23.5304685926
 51
57.1050278816
  0
LINE
  5
2F8
330
1F
100
AcDbEntity
  8
0
  6
Continuous
 62
     7
370
    25
100
AcDbLine
 10
234.6804953938
 20
354.3756945153
 30
0.0
 11
235.2646471654
 21
354.0384708755
 31
0.0
  0
LINE
  5
2F9
330
1F
100
AcDbEntity
  8
0
  6
Continuous
 62
     7
370
    25
100
AcDbLine
 10
235.2671377353
 20
354.0399325064
 30
0.0
 11
234.6829204552
 21
354.3771939634
 31
0.0
  0
LINE
  5
2FA
330
1F
100
AcDbEntity
  8
0
  6
Continuous
 62
     7
370
    25
100
AcDbLine
 10
235.2646471654
 20
354.0384708755
 30
0.0
 11
235.2671377353
 21
354.0399325064
 31
0.0
  0
LINE
  5
2FB
330
1F
100
AcDbEntity
  8
0
  6
Continuous
 62
     7
370
    25
100
AcDbLine
 10
234.6829204552
 20
354.3771939634
 30
0.0
 11
234.6804953938
 21
354.3756945153
 31
0.0
  0
LINE
  5
2FC
330
1F
100
AcDbEntity
  8
0
  6
Continuous
 62
     7
370
    25
100
AcDbLine
 10
231.3217597223
 20
359.8666038783
 30
0.0
 11
231.3241847837
 21
359.8681033264
 31
0.0
  0
LINE
  5
2FD
330
1F
100
AcDbEntity
  8
0
  6
Continuous
 62
     7
370
    25
100
AcDbLine
 10
237.4341197951
 20
349.2689223742
 30
0.0
 11
237.4920337697
 21
349.2006754271
 31
0.0
  0
ARC
  5
2FE
330
1F
100
AcDbEntity
  8
0
  6
Continuous
 62
     7
370
    25
100
AcDbCircle
 10
237.5786805017
 20
349.3322477127
 30
0.0
 40
0.154954967939753
100
AcDbArc
 50
203.5304685926
 51
237.1050278816
  0
LINE
  5
2FF
330
1F
100
AcDbEntity
  8
0
  6
Continuous
 62
     7
370
    25
100
AcDbLine
 10
226.1269287788
 20
362.8655159483
 30
0.0
 11
231.3217597223
 21
359.8666038783
 31
0.0
  0
LINE
  5
300
330
1F
100
AcDbEntity
  8
0
  6
Continuous
 62
     7
370
    25
100
AcDbLine
 10
231.3241847837
 20
359.8681033264
 30
0.0
 11
226.1294400034
 21
362.8669656555
 31
0.0
  0
LINE
  5
301
330
1F
100
AcDbEntity
  8
0
  6
Continuous
 62
     7
370
    25
100
AcDbLine
 10
226.1294400034
 20
362.8669656555
 30
0.0
 11
226.1269287788
 21
362.8655159483
 31
0.0
  0
ARC
  5
302
330
1F
100
AcDbEntity
  8
0
  6
Continuous
 62
     7
370
    25
100
AcDbCircle
 10
282.4513133785
 20
297.4049513595
 30
0.0
 40
4.047583141887144
100
AcDbArc
 50
304.6106337985
 51
5.7509189096
  0
ARC
  5
303
330
1F
100
AcDbEntity
  8
0
  6
Continuous
 62
     7
370
    25
100
AcDbCircle
 10
234.5568351123
 20
380.4994398246
 30
0.0
 40
3.94470623878308
100
AcDbArc
 50
53.3715498867
 51
116.2687036225
  0
ELLIPSE
  5
304
330
1F
100
AcDbEntity
  8
0
  6
Continuous
 62
     7
370
    25
100
AcDbEllipse
 10
285.1239134559
 20
311.8628410187
 30
0.0
 11
0.461936638677571
 21
0.7724895586752609
 31
0.0
210
0.0
220
0.0
230
1.0
 40
0.5873687163
 41
0.0090366668050291
 42
0.2904649104240428
  0
ELLIPSE
  5
305
330
1F
100
AcDbEntity
  8
0
  6
Continuous
 62
     7
370
    25
100
AcDbEllipse
 10
248.4020347365
 20
375.4670005233
 30
0.0
 11
0.8999632648063596
 21
0.01384623060448575
 31
0.0
210
0.0
220
0.0
230
1.0
 40
0.5872748834
 41
5.992854510086681
 42
6.274150135956946
  0
LINE
  5
306
330
1F
100
AcDbEntity
  8
0
  6
Continuous
 62
     7
370
    25
100
AcDbLine
 10
234.5390955767
 20
350.9053703605
 30
0.0
 11
234.5415206381
 21
350.9068698086
 31
0.0
  0
LINE
  5
307
330
1F
100
AcDbEntity
  8
0
  6
Continuous
 62
     7
370
    25
100
AcDbLine
 10
226.0587400948
 20
365.5178225747
 30
0.0
 11
226.0562288702
 21
365.5164723656
 31
0.0
  0
LINE
  5
308
330
1F
100
AcDbEntity
  8
0
  6
Continuous
 62
     7
370
    25
100
AcDbLine
 10
232.3494684532
 20
352.1694151929
 30
0.0
 11
234.5390955767
 21
350.9053703605
 31
0.0
  0
LINE
  5
309
330
1F
100
AcDbEntity
  8
0
  6
Continuous
 62
     7
370
    25
100
AcDbLine
 10
234.5415206381
 20
350.9068698086
 30
0.0
 11
232.3519796778
 21
352.1708649001
 31
0.0
  0
LINE
  5
30A
330
1F
100
AcDbEntity
  8
0
  6
Continuous
 62
     7
370
    25
100
AcDbLine
 10
232.3519796778
 20
352.1708649001
 30
0.0
 11
232.3494684532
 21
352.1694151929
 31
0.0
  0
LINE
  5
30B
330
1F
100
AcDbEntity
  8
0
  6
Continuous
 62
     7
370
    25
100
AcDbLine
 10
231.3217597223
 20
356.3146513466
 30
0.0
 11
231.3241847837
 21
356.3161507947
 31
0.0
  0
LINE
  5
30C
330
1F
100
AcDbEntity
  8
0
  6
Continuous
 62
     7
370
    25
100
AcDbLine
 10
226.0562288702
 20
365.5164723656
 30
0.0
 11
226.0562288702
 21
362.9879717816
 31
0.0
  0
LINE
  5
30D
330
1F
100
AcDbEntity
  8
0
  6
Continuous
 62
     7
370
    25
100
AcDbLine
 10
226.0587400948
 20
362.9894214888
 30
0.0
 11
226.0587400948
 21
365.5178225747
 31
0.0
  0
LINE
  5
30E
330
1F
100
AcDbEntity
  8
0
  6
Continuous
 62
     7
370
    25
100
AcDbLine
 10
226.0562288702
 20
362.9879717816
 30
0.0
 11
226.0587400948
 21
362.9894214888
 31
0.0
  0
LINE
  5
30F
330
1F
100
AcDbEntity
  8
0
  6
Continuous
 62
     7
370
    25
100
AcDbLine
 10
228.4579557193
 20
357.9678902073
 30
0.0
 11
231.3217597223
 21
356.3146513466
 31
0.0
  0
LINE
  5
310
330
1F
100
AcDbEntity
  8
0
  6
Continuous
 62
     7
370
    25
100
AcDbLine
 10
231.3241847837
 20
356.3161507947
 30
0.0
 11
228.4603807807
 21
357.9693896554
 31
0.0
  0
LINE
  5
311
330
1F
100
AcDbEntity
  8
0
  6
Continuous
 62
     7
370
    25
100
AcDbLine
 10
228.4603807807
 20
357.9693896554
 30
0.0
 11
228.4579557193
 21
357.9678902073
 31
0.0
  0
LINE
  5
312
330
1F
100
AcDbEntity
  8
0
  6
Continuous
 62
     7
370
    25
100
AcDbLine
 10
232.2787685447
 20
352.2918710262
 30
0.0
 11
232.3494684532
 21
352.1694151929
 31
0.0
  0
ARC
  5
313
330
1F
100
AcDbEntity
  8
0
  6
Continuous
 62
     7
370
    25
100
AcDbCircle
 10
232.4395533538
 20
352.303062808
 30
0.0
 40
0.158573123751912
100
AcDbArc
 50
183.5222329597
 51
236.4777671859
  0
LINE
  5
314
330
1F
100
AcDbEntity
  8
0
  6
Continuous
 62
     7
370
    25
100
AcDbLine
 10
226.0562288702
 20
362.9879717816
 30
0.0
 11
226.1269287788
 21
362.8655159483
 31
0.0
  0
ARC
  5
315
330
1F
100
AcDbEntity
  8
0
  6
Continuous
 62
     7
370
    25
100
AcDbCircle
 10
226.2170136794
 20
362.9991635634
 30
0.0
 40
0.1585731237524401
100
AcDbArc
 50
183.5222329598
 51
236.4777671858
  0
LINE
  5
316
330
1F
100
AcDbEntity
  8
0
  6
Continuous
 62
     7
370
    25
100
AcDbLine
 10
226.0587400948
 20
361.965870043
 30
0.0
 11
226.0562288702
 21
361.9645198339
 31
0.0
  0
LINE
  5
317
330
1F
100
AcDbEntity
  8
0
  6
Continuous
 62
     7
370
    25
100
AcDbLine
 10
231.3217597223
 20
352.7626988149
 30
0.0
 11
231.3241847837
 21
352.764198263
 31
0.0
  0
LINE
  5
318
330
1F
100
AcDbEntity
  8
0
  6
Continuous
 62
     7
370
    25
100
AcDbLine
 10
226.0562288702
 20
361.9645198339
 30
0.0
 11
226.0562288702
 21
355.8840667182
 31
0.0
  0
LINE
  5
319
330
1F
100
AcDbEntity
  8
0
  6
Continuous
 62
     7
370
    25
100
AcDbLine
 10
226.0587400948
 20
355.8855164254
 30
0.0
 11
226.0587400948
 21
361.965870043
 31
0.0
  0
LINE
  5
31A
330
1F
100
AcDbEntity
  8
0
  6
Continuous
 62
     7
370
    25
100
AcDbLine
 10
225.0992200479
 20
363.4587995703
 30
0.0
 11
225.1016451093
 21
363.4602990184
 31
0.0
  0
LINE
  5
31B
330
1F
100
AcDbEntity
  8
0
  6
Continuous
 62
     7
370
    25
100
AcDbLine
 10
226.0562288702
 20
355.8840667182
 30
0.0
 11
226.0587400948
 21
355.8855164254
 31
0.0
  0
LINE
  5
31C
330
1F
100
AcDbEntity
  8
0
  6
Continuous
 62
     7
370
    25
100
AcDbLine
 10
222.8414042404
 20
367.3751510291
 30
0.0
 11
222.8388930158
 21
367.37380082
 31
0.0
  0
LINE
  5
31D
330
1F
100
AcDbEntity
  8
0
  6
Continuous
 62
     7
370
    25
100
AcDbLine
 10
226.1269287788
 20
355.7616108849
 30
0.0
 11
231.3217597223
 21
352.7626988149
 31
0.0
  0
LINE
  5
31E
330
1F
100
AcDbEntity
  8
0
  6
Continuous
 62
     7
370
    25
100
AcDbLine
 10
231.3241847837
 20
352.764198263
 30
0.0
 11
226.1294400034
 21
355.7630605921
 31
0.0
  0
LINE
  5
31F
330
1F
100
AcDbEntity
  8
0
  6
Continuous
 62
     7
370
    25
100
AcDbLine
 10
226.1294400034
 20
355.7630605921
 30
0.0
 11
226.1269287788
 21
355.7616108849
 31
0.0
  0
LINE
  5
320
330
1F
100
AcDbEntity
  8
0
  6
Continuous
 62
     7
370
    25
100
AcDbLine
 10
222.9095929244
 20
364.7228444027
 30
0.0
 11
225.0992200479
 21
363.4587995703
 31
0.0
  0
LINE
  5
321
330
1F
100
AcDbEntity
  8
0
  6
Continuous
 62
     7
370
    25
100
AcDbLine
 10
222.8388930158
 20
367.37380082
 30
0.0
 11
222.8388930158
 21
364.845300236
 31
0.0
  0
LINE
  5
322
330
1F
100
AcDbEntity
  8
0
  6
Continuous
 62
     7
370
    25
100
AcDbLine
 10
225.1016451093
 20
363.4602990184
 30
0.0
 11
222.912104149
 21
364.7242941099
 31
0.0
  0
LINE
  5
323
330
1F
100
AcDbEntity
  8
0
  6
Continuous
 62
     7
370
    25
100
AcDbLine
 10
222.8414042404
 20
364.8467499432
 30
0.0
 11
222.8414042404
 21
367.3751510291
 31
0.0
  0
LINE
  5
324
330
1F
100
AcDbEntity
  8
0
  6
Continuous
 62
     7
370
    25
100
AcDbLine
 10
222.912104149
 20
364.7242941099
 30
0.0
 11
222.9095929244
 21
364.7228444027
 31
0.0
  0
LINE
  5
325
330
1F
100
AcDbEntity
  8
0
  6
Continuous
 62
     7
370
    25
100
AcDbLine
 10
222.8388930158
 20
364.845300236
 30
0.0
 11
222.8414042404
 21
364.8467499432
 31
0.0
  0
LINE
  5
326
330
1F
100
AcDbEntity
  8
0
  6
Continuous
 62
     7
370
    25
100
AcDbLine
 10
222.8388930158
 20
364.845300236
 30
0.0
 11
222.9095929244
 21
364.7228444027
 31
0.0
  0
ARC
  5
327
330
1F
100
AcDbEntity
  8
0
  6
Continuous
 62
     7
370
    25
100
AcDbCircle
 10
222.999677825
 20
364.8564920178
 30
0.0
 40
0.1585731237521608
100
AcDbArc
 50
183.5222329597
 51
236.4777671859
  0
LINE
  5
328
330
1F
100
AcDbEntity
  8
0
  6
Continuous
 62
     7
370
    25
100
AcDbLine
 10
222.8414042404
 20
363.8231984974
 30
0.0
 11
222.8388930158
 21
363.8218482883
 31
0.0
  0
LINE
  5
329
330
1F
100
AcDbEntity
  8
0
  6
Continuous
 62
     7
370
    25
100
AcDbLine
 10
222.8388930158
 20
363.8218482883
 30
0.0
 11
222.8388930158
 21
357.7413951726
 31
0.0
  0
LINE
  5
32A
330
1F
100
AcDbEntity
  8
0
  6
Continuous
 62
     7
370
    25
100
AcDbLine
 10
222.8414042404
 20
357.7428448798
 30
0.0
 11
222.8414042404
 21
363.8231984974
 31
0.0
  0
LINE
  5
32B
330
1F
100
AcDbEntity
  8
0
  6
Continuous
 62
     7
370
    25
100
AcDbLine
 10
222.8388930158
 20
357.7413951726
 30
0.0
 11
222.8414042404
 21
357.7428448798
 31
0.0
  0
LINE
  5
32C
330
1F
100
AcDbEntity
  8
0
  6
Continuous
 62
     7
370
    25
100
AcDbLine
 10
226.0562288702
 20
355.8840667182
 30
0.0
 11
226.1269287788
 21
355.7616108849
 31
0.0
  0
ARC
  5
32D
330
1F
100
AcDbEntity
  8
0
  6
Continuous
 62
     7
370
    25
100
AcDbCircle
 10
226.2170136794
 20
355.8952585
 30
0.0
 40
0.158573123752334
100
AcDbArc
 50
183.5222329598
 51
236.4777671859
  0
LINE
  5
32E
330
1F
100
AcDbEntity
  8
0
  6
Continuous
 62
     7
370
    25
100
AcDbLine
 10
225.0992200479
 20
356.3548945069
 30
0.0
 11
225.1016451093
 21
356.356393955
 31
0.0
  0
LINE
  5
32F
330
1F
100
AcDbEntity
  8
0
  6
Continuous
 62
     7
370
    25
100
AcDbLine
 10
222.9095929244
 20
357.6189393393
 30
0.0
 11
225.0992200479
 21
356.3548945069
 31
0.0
  0
LINE
  5
330
330
1F
100
AcDbEntity
  8
0
  6
Continuous
 62
     7
370
    25
100
AcDbLine
 10
225.1016451093
 20
356.356393955
 30
0.0
 11
222.912104149
 21
357.6203890465
 31
0.0
  0
LINE
  5
331
330
1F
100
AcDbEntity
  8
0
  6
Continuous
 62
     7
370
    25
100
AcDbLine
 10
222.912104149
 20
357.6203890465
 30
0.0
 11
222.9095929244
 21
357.6189393393
 31
0.0
  0
LINE
  5
332
330
1F
100
AcDbEntity
  8
0
  6
Continuous
 62
     7
370
    25
100
AcDbLine
 10
222.8388930158
 20
357.7413951726
 30
0.0
 11
222.9095929244
 21
357.6189393393
 31
0.0
  0
ARC
  5
333
330
1F
100
AcDbEntity
  8
0
  6
Continuous
 62
     7
370
    25
100
AcDbCircle
 10
222.999677825
 20
357.7525869544
 30
0.0
 40
0.1585731237521459
100
AcDbArc
 50
183.5222329597
 51
236.4777671859
  0
ARC
  5
334
330
1F
100
AcDbEntity
  8
0
  6
Continuous
 62
     7
370
    25
100
AcDbCircle
 10
267.0602465949
 20
343.5731359704
 30
0.0
 40
11.54245003199311
100
AcDbArc
 50
1.956498643
 51
31.1437277994
  0
LINE
  5
335
330
1F
100
AcDbEntity
  8
0
  6
Continuous
 62
     7
370
    25
100
AcDbLine
 10
278.5959677955
 20
343.9672033787
 30
0.0
 11
278.5959696775
 21
343.9386902317
 31
0.0
  0
LINE
  5
336
330
1F
100
AcDbEntity
  8
0
  6
Continuous
 62
     7
370
    25
100
AcDbLine
 10
277.8641683014
 20
344.3611526349
 30
0.0
 11
278.5959696775
 21
343.9386902317
 31
0.0
  0
ARC
  5
337
330
1F
100
AcDbEntity
  8
0
  6
Continuous
 62
     7
370
    25
100
AcDbCircle
 10
267.7704122509
 20
344.0163436526
 30
0.0
 40
10.09964377799471
100
AcDbArc
 50
1.956498643
 51
31.1437277994
  0
LINE
  5
338
330
1F
100
AcDbEntity
  8
0
  6
Continuous
 62
     7
370
    25
100
AcDbLine
 10
272.939113546
 20
353.7651623211
 30
0.0
 11
272.9144227151
 21
353.7794182073
 31
0.0
  0
ARC
  5
339
330
1F
100
AcDbEntity
  8
0
  6
Continuous
 62
     7
370
    25
100
AcDbCircle
 10
266.8310619863
 20
343.9730066805
 30
0.0
 40
11.54099674837694
100
AcDbArc
 50
28.8556088792
 51
58.0453283505
  0
ARC
  5
33A
330
1F
100
AcDbEntity
  8
0
  6
Continuous
 62
     7
370
    25
100
AcDbCircle
 10
267.5698757183
 20
344.3662305239
 30
0.0
 40
10.09837215483063
100
AcDbArc
 50
28.8556088792
 51
58.0453283505
  0
LINE
  5
33B
330
1F
100
AcDbEntity
  8
0
  6
Continuous
 62
     7
370
    25
100
AcDbLine
 10
272.9144208331
 20
352.9343667094
 30
0.0
 11
272.9144227151
 21
353.7794182073
 31
0.0
  0
LINE
  5
33C
330
1F
100
AcDbEntity
  8
0
  6
Continuous
 62
     7
370
    25
100
AcDbLine
 10
277.8641683014
 20
344.3611526349
 30
0.0
 11
277.8188160498
 21
344.3349713373
 31
0.0
  0
LINE
  5
33D
330
1F
100
AcDbEntity
  8
0
  6
Continuous
 62
     7
370
    25
100
AcDbLine
 10
272.9144208331
 20
352.9343667094
 30
0.0
 11
272.8691468339
 21
352.908230586
 31
0.0
  0
ARC
  5
33E
330
1F
100
AcDbEntity
  8
0
  6
Continuous
 62
     7
370
    25
100
AcDbCircle
 10
291.2478868237
 20
357.586220122
 30
0.0
 40
9.378240650992232
100
AcDbArc
 50
1.956498643
 51
31.1437277994
  0
ARC
  5
33F
330
1F
100
AcDbEntity
  8
0
  6
Continuous
 62
     7
370
    25
100
AcDbCircle
 10
291.0616743291
 20
357.911115074
 30
0.0
 40
9.377059858056795
100
AcDbArc
 50
28.8556088792
 51
58.0453283505
  0
LINE
  5
340
330
1F
100
AcDbEntity
  8
0
  6
Continuous
 62
     7
370
    25
100
AcDbLine
 10
278.0302823706
 20
343.6121259005
 30
0.0
 11
278.0302823706
 21
329.8022176821
 31
0.0
  0
LINE
  5
341
330
1F
100
AcDbEntity
  8
0
  6
Continuous
 62
     7
370
    25
100
AcDbLine
 10
277.850912702
 20
329.8917886089
 30
0.0
 11
278.0302823706
 21
329.8022176821
 31
0.0
  0
LINE
  5
342
330
1F
100
AcDbEntity
  8
0
  6
Continuous
 62
     7
370
    25
100
AcDbLine
 10
278.0302823706
 20
343.6121259005
 30
0.0
 11
277.8503763806
 21
343.715984557
 31
0.0
  0
LINE
  5
343
330
1F
100
AcDbEntity
  8
0
  6
Continuous
 62
     7
370
    25
100
AcDbLine
 10
272.3487354082
 20
353.4528538761
 30
0.0
 11
272.3487354082
 21
353.2451239841
 31
0.0
  0
LINE
  5
344
330
1F
100
AcDbEntity
  8
0
  6
Continuous
 62
     7
370
    25
100
AcDbLine
 10
260.3775482167
 20
360.1565628228
 30
0.0
 11
260.3896519103
 21
360.3566858272
 31
0.0
  0
LINE
  5
345
330
1F
100
AcDbEntity
  8
0
  6
Continuous
 62
     7
370
    25
100
AcDbLine
 10
260.3896519103
 20
360.3566858272
 30
0.0
 11
272.3487354082
 21
353.4528538761
 31
0.0
  0
LINE
  5
346
330
1F
100
AcDbEntity
  8
0
  6
Continuous
 62
     7
370
    25
100
AcDbLine
 10
278.5959696775
 20
343.9386902317
 30
0.0
 11
278.0302823706
 21
343.6121259005
 31
0.0
  0
LINE
  5
347
330
1F
100
AcDbEntity
  8
0
  6
Continuous
 62
     7
370
    25
100
AcDbLine
 10
272.3487354082
 20
353.4528538761
 30
0.0
 11
272.9144227151
 21
353.7794182073
 31
0.0
  0
LWPOLYLINE
  5
348
330
1F
100
AcDbEntity
  8
0
  6
Continuous
 62
     7
370
    25
100
AcDbPolyline
 90
       12
 70
   128
 43
0.0
 10
287.1856314566
 20
335.0874882093
 10
288.4662164655
 20
335.731065764
 10
289.7254430089
 20
336.1725324254
 10
290.9423088527
 20
336.404525113
 10
292.0965182829
 20
336.4231744954
 10
293.1688206117
 20
336.2281695257
 10
294.1413312537
 20
335.8227626289
 10
294.9978300167
 20
335.2137154563
 10
295.7240316334
 20
334.4111861097
 10
296.3078240208
 20
333.4285597178
 10
296.7394702934
 20
332.2822251901
 10
297.011771162
 20
330.9913018714
  0
LINE
  5
349
330
1F
100
AcDbEntity
  8
0
  6
Continuous
 62
     7
370
    25
100
AcDbLine
 10
278.0302823706
 20
329.8022176821
 30
0.0
 11
287.1856314566
 21
335.0874882093
 31
0.0
  0
LINE
  5
34A
330
1F
100
AcDbEntity
  8
0
  6
Continuous
 62
     7
370
    25
100
AcDbLine
 10
237.0427817747
 20
383.631444414
 30
0.0
 11
249.0244839413
 21
376.7145549834
 31
0.0
  0
LINE
  5
34B
330
1F
100
AcDbEntity
  8
0
  6
Continuous
 62
     7
370
    25
100
AcDbLine
 10
237.5837744867
 20
383.9722624585
 30
0.0
 11
237.6084690816
 21
383.9580087452
 31
0.0
  0
LINE
  5
34C
330
1F
100
AcDbEntity
  8
0
  6
Continuous
 62
     7
370
    25
100
AcDbLine
 10
269.5450009963
 20
365.6419563545
 30
0.0
 11
260.3896519103
 21
360.3566858272
 31
0.0
  0
LWPOLYLINE
  5
34D
330
1F
100
AcDbEntity
  8
0
  6
Continuous
 62
     7
370
    25
100
AcDbPolyline
 90
       26
 70
   128
 43
0.0
 10
249.0244839413
 20
376.7145549834
 10
250.294874434
 20
377.4527986496
 10
251.7185152938
 20
378.0910878479
 10
253.2719812441
 20
378.6189198584
 10
254.9297108027
 20
379.0276094773
 10
256.664426884
 20
379.3104319273
 10
258.4475856285
 20
379.4627335109
 10
260.2498460777
 20
379.482008184
 10
262.0415529644
 20
379.3679387916
 10
263.793224675
 20
379.1224022869
 10
265.4760383538
 20
378.7494388467
 10
267.0623041688
 20
378.255185392
 10
268.5259209331
 20
377.647774609
 10
269.842805587
 20
376.9372011291
 10
270.991289472
 20
376.1351570729
 10
271.9524748773
 20
375.254839662
 10
272.7105459924
 20
374.3107340659
 10
273.2530291476
 20
373.3183750559
 10
273.570998062
 20
372.2940913882
 10
273.6592207211
 20
371.2547371228
 10
273.5162454663
 20
370.2174142987
 10
273.1444248819
 20
369.1991915286
 10
272.549877084
 20
368.2168231435
 10
271.7423850503
 20
367.2864735092
 10
270.7352356462
 20
366.4234510495
 10
269.5450009963
 20
365.6419563545
  0
LINE
  5
34E
330
1F
100
AcDbEntity
  8
0
  6
Continuous
 62
     7
370
    25
100
AcDbLine
 10
300.6206602992
 20
357.0898590794
 30
0.0
 11
300.6206602992
 21
357.9063998912
 31
0.0
  0
ARC
  5
34F
330
1F
100
AcDbEntity
  8
0
  6
Continuous
 62
     7
370
    25
100
AcDbCircle
 10
303.7358886272
 20
354.3017137805
 30
0.0
 40
4.180717850199615
100
AcDbArc
 50
138.1712943826
 51
177.2457815971
  0
LINE
  5
350
330
1F
100
AcDbEntity
  8
0
  6
Continuous
 62
     7
370
    25
100
AcDbLine
 10
299.5600001274
 20
354.5026042493
 30
0.0
 11
299.5600001274
 21
332.9192971105
 31
0.0
  0
LINE
  5
351
330
1F
100
AcDbEntity
  8
0
  6
Continuous
 62
     7
370
    25
100
AcDbLine
 10
252.8909525691
 20
390.7676889425
 30
0.0
 11
252.1838457879
 21
391.1758929984
 31
0.0
  0
ARC
  5
352
330
1F
100
AcDbEntity
  8
0
  6
Continuous
 62
     7
370
    25
100
AcDbCircle
 10
253.9400012735
 20
390.2619945247
 30
0.0
 40
1.16457289529638
100
AcDbArc
 50
154.2635869151
 51
249.9403887463
  0
LINE
  5
353
330
1F
100
AcDbEntity
  8
0
  6
Continuous
 62
     7
370
    25
100
AcDbLine
 10
253.540555535
 20
389.1680689649
 30
0.0
 11
292.5464361309
 21
366.6504533978
 31
0.0
  0
ARC
  5
354
330
1F
100
AcDbEntity
  8
0
  6
Continuous
 62
     7
370
    25
100
AcDbCircle
 10
294.4603728573
 20
370.3678385535
 30
0.0
 40
4.181160866217974
100
AcDbArc
 50
242.7578264826
 51
281.827379432
  0
LINE
  5
355
330
1F
100
AcDbEntity
  8
0
  6
Continuous
 62
     7
370
    25
100
AcDbLine
 10
296.0244662215
 20
365.8672415319
 30
0.0
 11
295.3173594403
 21
366.2754455878
 31
0.0
  0
LINE
  5
356
330
1F
100
AcDbEntity
  8
0
  6
Continuous
 62
     7
370
    25
100
AcDbLine
 10
279.3942413541
 20
332.1366004508
 30
0.0
 11
286.8444169014
 21
336.4374952472
 31
0.0
  0
LINE
  5
357
330
1F
100
AcDbEntity
  8
0
  6
Continuous
 62
     7
370
    25
100
AcDbLine
 10
270.5434985042
 20
364.6715140384
 30
0.0
 11
263.0933229569
 21
360.370619242
 31
0.0
  0
LINE
  5
358
330
1F
100
AcDbEntity
  8
0
  6
Continuous
 62
     7
370
    25
100
AcDbLine
 10
286.4661858401
 20
336.6710956404
 30
0.0
 11
279.0292184124
 21
332.3778257292
 31
0.0
  0
LINE
  5
359
330
1F
100
AcDbEntity
  8
0
  6
Continuous
 62
     7
370
    25
100
AcDbLine
 10
263.1197391963
 20
359.9338519727
 30
0.0
 11
270.5567066239
 21
364.2271218838
 31
0.0
  0
ARC
  5
35A
330
1F
100
AcDbEntity
  8
0
  6
Continuous
 62
     7
370
    25
100
AcDbCircle
 10
291.7261851028
 20
332.2473741786
 30
0.0
 40
5.680459817654425
100
AcDbArc
 50
21.3714218717
 51
91.9614230056
  0
ARC
  5
35B
330
1F
100
AcDbEntity
  8
0
  6
Continuous
 62
     7
370
    25
100
AcDbCircle
 10
269.4458155298
 20
370.9998230157
 30
0.0
 40
5.606911063325684
100
AcDbArc
 50
328.0863247085
 51
39.2466073209
  0
LINE
  5
35C
330
1F
100
AcDbEntity
  8
0
  6
Continuous
 62
     7
370
    25
100
AcDbLine
 10
249.0244839413
 20
376.7145549834
 30
0.0
 11
249.0245751641
 21
376.6717511924
 31
0.0
  0
ARC
  5
35D
330
1F
100
AcDbEntity
  8
0
  6
Continuous
 62
     7
370
    25
100
AcDbCircle
 10
291.4391820256
 20
332.5383904383
 30
0.0
 40
5.624651568416891
100
AcDbArc
 50
58.2858102996
 51
90.4934273532
  0
ARC
  5
35E
330
1F
100
AcDbEntity
  8
0
  6
Continuous
 62
     7
370
    25
100
AcDbCircle
 10
269.4584039051
 20
370.6016990243
 30
0.0
 40
5.630951200158496
100
AcDbArc
 50
329.5222186796
 51
1.6931920344
  0
ARC
  5
35F
330
1F
100
AcDbEntity
  8
0
  6
Continuous
 62
     7
370
    25
100
AcDbCircle
 10
275.7450043116
 20
330.3222241488
 30
0.0
 40
21.44503407238031
100
AcDbArc
 50
300.1483252497
 51
351.072951211
  0
LINE
  5
360
330
1F
100
AcDbEntity
  8
0
  6
Continuous
 62
     7
370
    25
100
AcDbLine
 10
286.5155637448
 20
311.7781001237
 30
0.0
 11
286.4785246754
 21
311.7995879478
 31
0.0
  0
ELLIPSE
  5
361
330
1F
100
AcDbEntity
  8
0
  6
Continuous
 62
     7
370
    25
100
AcDbEllipse
 10
287.8682610314
 20
300.2828802459
 30
0.0
 11
0.5005688238520635
 21
0.867104245667747
 31
0.0
210
0.0
220
0.0
230
1.0
 40
0.5766787367
 41
2.356722411266214
 42
3.725663404341978
  0
LINE
  5
362
330
1F
100
AcDbEntity
  8
0
  6
Continuous
 62
     7
370
    25
100
AcDbLine
 10
287.0812491698
 20
298.2401217127
 30
0.0
 11
287.7264086622
 21
298.61256436
 31
0.0
  0
LINE
  5
363
330
1F
100
AcDbEntity
  8
0
  6
Continuous
 62
     7
370
    25
100
AcDbLine
 10
287.0812491698
 20
298.2401217127
 30
0.0
 11
287.0812510517
 21
298.2686370326
 31
0.0
  0
LINE
  5
364
330
1F
100
AcDbEntity
  8
0
  6
Continuous
 62
     7
370
    25
100
AcDbLine
 10
286.5155637448
 20
297.9420727015
 30
0.0
 11
287.0812510517
 21
298.2686370326
 31
0.0
  0
LINE
  5
365
330
1F
100
AcDbEntity
  8
0
  6
Continuous
 62
     7
370
    25
100
AcDbLine
 10
286.5155637448
 20
311.7781001237
 30
0.0
 11
286.5155637448
 21
297.9420727015
 31
0.0
  0
SPLINE
  5
366
330
1F
100
AcDbEntity
  8
0
  6
Continuous
 62
     7
370
    25
100
AcDbSpline
210
0.0
220
0.0
230
1.0
 70
     8
 71
     3
 72
     9
 73
     5
 74
     0
 42
0.00000001
 43
0.00000001
 40
0.0
 40
0.0
 40
0.0
 40
0.0
 40
0.4922391081532352
 40
1.0
 40
1.0
 40
1.0
 40
1.0
 10
297.7383741895364
 20
327.5932340121072
 30
0.0
 10
297.7360545342026
 20
327.5751962456023
 30
0.0
 10
297.7313420778062
 20
327.538551927412
 30
0.0
 10
297.7125461423396
 20
327.5069822183758
 30
0.0
 10
297.703002301384
 20
327.4909523547603
 30
0.0
  0
LINE
  5
367
330
1F
100
AcDbEntity
  8
0
  6
Continuous
 62
     7
370
    25
100
AcDbLine
 10
300.6206602992
 20
307.2808695543
 30
0.0
 11
300.6206602992
 21
308.0974103662
 31
0.0
  0
ARC
  5
368
330
1F
100
AcDbEntity
  8
0
  6
Continuous
 62
     7
370
    25
100
AcDbCircle
 10
300.7074443314
 20
309.2590838724
 30
0.0
 40
1.164910641696877
100
AcDbArc
 50
170.0656916815
 51
265.7275952575
  0
LINE
  5
369
330
1F
100
AcDbEntity
  8
0
  6
Continuous
 62
     7
370
    25
100
AcDbLine
 10
299.5600001274
 20
330.1829715757
 30
0.0
 11
299.5600001274
 21
309.4600530286
 31
0.0
  0
LINE
  5
36A
330
1F
100
AcDbEntity
  8
0
  6
Continuous
 62
     7
370
    25
100
AcDbLine
 10
286.5155637448
 20
297.9420727015
 30
0.0
 11
286.4785246754
 21
297.9605687147
 31
0.0
  0
LINE
  5
36B
330
1F
100
AcDbEntity
  8
0
  6
Continuous
 62
     7
370
    25
100
AcDbLine
 10
237.0427817747
 20
383.631444414
 30
0.0
 11
237.0402833643
 21
383.5901355864
 31
0.0
  0
ARC
  5
36C
330
1F
100
AcDbEntity
  8
0
  6
Continuous
 62
     7
370
    25
100
AcDbCircle
 10
283.0759725828
 20
297.8459625666
 30
0.0
 40
4.024624450834645
100
AcDbArc
 50
305.6980385288
 51
5.6203789637
  0
LINE
  5
36D
330
1F
100
AcDbEntity
  8
0
  6
Continuous
 62
     7
370
    25
100
AcDbLine
 10
286.0695544127
 20
294.9499935974
 30
0.0
 11
285.4243949203
 21
294.5775509501
 31
0.0
  0
LINE
  5
36E
330
1F
100
AcDbEntity
  8
0
  6
Continuous
 62
     7
370
    25
100
AcDbLine
 10
233.5837744867
 20
384.3681391734
 30
0.0
 11
234.2289339792
 21
384.7405818207
 31
0.0
  0
LINE
  5
36F
330
1F
100
AcDbEntity
  8
0
  6
Continuous
 62
     7
370
    25
100
AcDbLine
 10
299.2744662215
 20
304.3050308097
 30
0.0
 11
287.7571848178
 21
297.6562457787
 31
0.0
  0
ARC
  5
370
330
1F
100
AcDbEntity
  8
0
  6
Continuous
 62
     7
370
    25
100
AcDbCircle
 10
297.3663730723
 20
306.9606152481
 30
0.0
 40
3.270007366302689
100
AcDbArc
 50
305.6980385288
 51
5.6203789637
  0
ARC
  5
371
330
1F
100
AcDbEntity
  8
0
  6
Continuous
 62
     7
370
    25
100
AcDbCircle
 10
250.2799074309
 20
388.5182812997
 30
0.0
 40
3.269232510584266
100
AcDbArc
 50
54.3818273401
 51
114.3139521614
  0
LINE
  5
372
330
1F
100
AcDbEntity
  8
0
  6
Continuous
 62
     7
370
    25
100
AcDbLine
 10
237.4131340527
 20
384.84677751
 30
0.0
 11
248.9338457879
 21
391.4975428293
 31
0.0
  0
LINE
  5
373
330
1F
100
AcDbEntity
  8
0
  6
Continuous
 62
     7
370
    25
100
AcDbLine
 10
299.7590632312
 20
308.5947997663
 30
0.0
 11
300.6206602992
 21
308.0974103662
 31
0.0
  0
LINE
  5
374
330
1F
100
AcDbEntity
  8
0
  6
Continuous
 62
     7
370
    25
100
AcDbLine
 10
252.8909525691
 20
389.7727508891
 30
0.0
 11
252.8909525691
 21
390.7676889425
 31
0.0
  0
ELLIPSE
  5
375
330
1F
100
AcDbEntity
  8
0
  6
Continuous
 62
     7
370
    25
100
AcDbEllipse
 10
286.4553243238
 20
324.028281803
 30
0.0
 11
6.663903823794328
 21
11.14393998280519
 31
0.0
210
0.0
220
0.0
230
1.0
 40
0.5873687143
 41
3.147258145548474
 42
3.175768393358743
  0
ELLIPSE
  5
376
330
1F
100
AcDbEntity
  8
0
  6
Continuous
 62
     7
370
    25
100
AcDbEllipse
 10
285.0327501981
 20
311.9313550413
 30
0.0
 11
0.5146662512451031
 21
0.8593925842840238
 31
0.0
210
0.0
220
0.0
230
1.0
 40
0.5864299108
 41
5.807852828971177
 42
6.078732312296303
  0
LINE
  5
377
330
1F
100
AcDbEntity
  8
0
  6
Continuous
 62
     7
370
    25
100
AcDbLine
 10
282.0861718704
 20
312.0911739236
 30
0.0
 11
282.1695438522
 21
312.074320044
 31
0.0
  0
ELLIPSE
  5
378
330
1F
100
AcDbEntity
  8
0
  6
Continuous
 62
     7
370
    25
100
AcDbEllipse
 10
248.4157943037
 20
375.3537817661
 30
0.0
 11
1.001587354722545
 21
0.0160647399373488
 31
0.0
210
0.0
220
0.0
230
1.0
 40
0.5863361774
 41
0.2045226069795738
 42
0.4753345262337336
  0
ELLIPSE
  5
379
330
1F
100
AcDbEntity
  8
0
  6
Continuous
 62
     7
370
    25
100
AcDbEllipse
 10
259.6028709735
 20
370.5380951771
 30
0.0
 11
12.98287785315409
 21
0.1997480049103615
 31
0.0
210
0.0
220
0.0
230
1.0
 40
0.5872748814
 41
3.107424467448262
 42
3.135898086017449
  0
ARC
  5
37A
330
1F
100
AcDbEntity
  8
0
  6
Continuous
 62
     7
370
    25
100
AcDbCircle
 10
290.1213361608
 20
330.7235056394
 30
0.0
 40
6.423113833813126
100
AcDbArc
 50
1.8672004622
 51
55.3011438591
  0
ARC
  5
37B
330
1F
100
AcDbEntity
  8
0
  6
Continuous
 62
     7
370
    25
100
AcDbCircle
 10
282.8148396525
 20
329.5702312252
 30
0.0
 40
13.79366266822343
100
AcDbArc
 50
351.3590289247
 51
5.6690090815
  0
ARC
  5
37C
330
1F
100
AcDbEntity
  8
0
  6
Continuous
 62
     7
370
    25
100
AcDbCircle
 10
274.9616307429
 20
330.7760242447
 30
0.0
 40
21.7388959690986
100
AcDbArc
 50
301.4240615462
 51
351.3268167854
  0
ELLIPSE
  5
37D
330
1F
100
AcDbEntity
  8
0
  6
Continuous
 62
     7
370
    25
100
AcDbEllipse
 10
285.2957665145
 20
311.7986546938
 30
0.0
 11
0.500603590600008
 21
0.8669034627179714
 31
0.0
210
0.0
220
0.0
230
1.0
 40
0.576771809
 41
5.765129227615973
 42
6.92654640784523
  0
ARC
  5
37E
330
1F
100
AcDbEntity
  8
0
  6
Continuous
 62
     7
370
    25
100
AcDbCircle
 10
282.835208503
 20
317.5082882789
 30
0.0
 40
5.478358834440867
100
AcDbArc
 50
233.6533372853
 51
297.8721726972
  0
LWPOLYLINE
  5
37F
330
1F
100
AcDbEntity
  8
0
  6
Continuous
 62
     7
370
    25
100
AcDbPolyline
 90
       24
 70
   128
 43
0.0
 10
286.6906567098
 20
334.1627554303
 10
287.9009451241
 20
334.7658418479
 10
289.0886881552
 20
335.1664974826
 10
290.2317603977
 20
335.3572588779
 10
291.3088685785
 20
335.3345725101
 10
292.2999482102
 20
335.0988609831
 10
293.1865373545
 20
334.6545151568
 10
293.952120533
 20
334.0098123532
 10
294.5824363797
 20
333.1767621657
 10
295.0657433029
 20
332.170882743
 10
295.3930382092
 20
331.0109117157
 10
295.5582242138
 20
329.7184571492
 10
295.5582242138
 20
328.3175950268
 10
295.3930382092
 20
326.834420759
 10
295.0657433029
 20
325.2965630765
 10
294.5824363797
 20
323.7326693579
 10
293.952120533
 20
322.1718719843
 10
293.1865373545
 20
320.6432456576
 10
292.2999482102
 20
319.175265794
 10
291.3088685785
 20
317.7952780809
 10
290.2317603977
 20
316.5289890783
 10
289.0886881552
 20
315.3999873544
 10
287.9009451241
 20
314.4293040751
 10
286.6906567098
 20
313.6350212335
  0
LWPOLYLINE
  5
380
330
1F
100
AcDbEntity
  8
0
  6
Continuous
 62
     7
370
    25
100
AcDbPolyline
 90
       20
 70
   128
 43
0.0
 10
273.6356183983
 20
370.8922989251
 10
273.5458811172
 20
371.7251200061
 10
273.2272899387
 20
372.7481124341
 10
272.6843479398
 20
373.7391214705
 10
271.925999321
 20
374.6818216452
 10
270.9647368018
 20
375.5606833079
 10
269.8163958209
 20
376.3612284572
 10
268.4998936695
 20
377.0702692458
 10
267.0369178561
 20
377.6761252307
 10
265.4515688353
 20
378.1688157926
 10
263.7699629869
 20
378.5402245524
 10
262.0198023857
 20
378.7842330767
 10
260.2299184489
 20
378.8968216707
 10
258.4297969794
 20
378.8761355966
 10
256.6490924291
 20
378.7225156284
 10
254.9171393835
 20
378.4384924374
 10
253.2624693161
 20
378.0287449034
 10
251.7123405728
 20
377.5000230368
 10
250.2922893293
 20
376.8610367815
 10
249.3019415785
 20
376.3002165681
  0
ARC
  5
381
330
1F
100
AcDbEntity
  8
0
  6
Continuous
 62
     7
370
    25
100
AcDbCircle
 10
252.1455453188
 20
370.6624561579
 30
0.0
 40
5.477564720193254
100
AcDbArc
 50
122.1182570073
 51
186.3438590869
  0
ELLIPSE
  5
382
330
1F
100
AcDbEntity
  8
0
  6
Continuous
 62
     7
370
    25
100
AcDbEllipse
 10
248.4323675632
 20
375.6479365313
 30
0.0
 11
1.00106129676476
 21
0.0001308657139134084
 31
0.0
210
0.0
220
0.0
230
0.9999999999999999
 40
0.5766780292
 41
5.639741673618388
 42
6.80124325801602
  0
LWPOLYLINE
  5
383
330
1F
100
AcDbEntity
  8
0
  6
Continuous
 62
     7
370
    25
100
AcDbPolyline
 90
       24
 70
   128
 43
0.0
 10
250.7201788352
 20
375.9377163019
 10
252.013253245
 20
376.5886095936
 10
253.4478121162
 20
377.131795299
 10
254.9971323313
 20
377.557154896
 10
256.6323529861
 20
377.8567647401
 10
258.3230130138
 20
378.025043667
 10
260.0376186169
 20
378.0588569586
 10
261.7442299372
 20
377.9575747371
 10
263.4110560348
 20
377.7230836989
 10
265.0070470932
 20
377.3597519681
 10
266.5024728189
 20
376.8743477277
 10
267.8694762599
 20
376.27591314
 10
269.0825927287
 20
375.5755959093
 10
270.1192241607
 20
374.7864416204
 10
270.9600600737
 20
373.9231507246
 10
271.5894372857
 20
373.0018046979
 10
271.9956316899
 20
372.0395664736
 10
272.1710766531
 20
371.0543607291
 10
272.1125039678
 20
370.0645399834
 10
271.821004732
 20
369.0885427241
 10
271.3020090252
 20
368.1445499335
 10
270.5651847553
 20
367.2501464113
 10
269.6242575643
 20
366.4219932027
 10
268.4967551455
 20
365.6755172351
  0
LINE
  5
384
330
1F
100
AcDbEntity
  8
0
  6
Continuous
 62
     7
370
    25
100
AcDbLine
 10
278.3504442846
 20
317.0045665902
 30
0.0
 11
278.3754923929
 21
316.9110056462
 31
0.0
  0
LWPOLYLINE
  5
385
330
1F
100
AcDbEntity
  8
0
  6
Continuous
 62
     7
370
    25
100
AcDbPolyline
 90
        3
 70
   128
 43
0.0
 10
289.0747658836
 20
334.7033217135
 10
288.7300624885
 20
334.6306791503
 10
288.5837548599
 20
334.5941509018
  0
LINE
  5
386
330
1F
100
AcDbEntity
  8
0
  6
Continuous
 62
     7
370
    25
100
AcDbLine
 10
249.3985666443
 20
367.1002720193
 30
0.0
 11
249.7248223098
 21
366.7893748251
 31
0.0
  0
LINE
  5
387
330
1F
100
AcDbEntity
  8
0
  6
Continuous
 62
     7
370
    25
100
AcDbLine
 10
269.5794754275
 20
366.8690152936
 30
0.0
 11
269.8183673364
 21
367.1002720193
 31
0.0
  0
ARC
  5
388
330
1F
100
AcDbEntity
  8
0
  6
Continuous
 62
     7
370
    25
100
AcDbCircle
 10
283.4486062312
 20
329.2686222932
 30
0.0
 40
13.67212740823185
100
AcDbArc
 50
350.4251355976
 51
7.2384723732
  0
LINE
  5
389
330
1F
100
AcDbEntity
  8
0
  6
Continuous
 62
     7
370
    25
100
AcDbLine
 10
299.5600001274
 20
332.9192971105
 30
0.0
 11
299.5600001274
 21
330.1829715757
 31
0.0
  0
LINE
  5
38A
330
1F
100
AcDbEntity
  8
0
  6
Continuous
 62
     7
370
    25
100
AcDbLine
 10
232.3004524693
 20
361.9705890882
 30
0.0
 11
232.2787685447
 21
361.9242766735
 31
0.0
  0
LWPOLYLINE
  5
38B
330
1F
100
AcDbEntity
  8
0
  6
Continuous
 62
     7
370
    25
100
AcDbPolyline
 90
        3
 70
   128
 43
0.0
 10
235.3225611401
 20
356.7316356444
 10
235.317221816
 20
356.7269719574
 10
235.3138652492
 20
356.7248732137
  0
ARC
  5
38C
330
1F
100
AcDbEntity
  8
0
  6
Continuous
 62
     7
370
    25
100
AcDbCircle
 10
232.3376644475
 20
361.9288779122
 30
0.0
 40
0.0564783244691391
100
AcDbArc
 50
140.1529290653
 51
183.2999082505
  0
LINE
  5
38D
330
1F
100
AcDbEntity
  8
0
  6
Continuous
 62
     7
370
    25
100
AcDbLine
 10
240.1650749209
 20
347.6575616166
 30
0.0
 11
240.2150675582
 21
347.6525540884
 31
0.0
  0
ARC
  5
38E
330
1F
100
AcDbEntity
  8
0
  6
Continuous
 62
     7
370
    25
100
AcDbCircle
 10
240.1985292907
 20
347.7081156835
 30
0.0
 40
0.0580464538639838
100
AcDbArc
 50
237.6395750532
 51
278.5933594516
  0
ARC
  5
38F
330
1F
100
AcDbEntity
  8
0
  6
Continuous
 62
     7
370
    25
100
AcDbCircle
 10
234.6513755485
 20
354.3349099124
 30
0.0
 40
0.050113363699953
100
AcDbArc
 50
54.4734995059
 51
116.3415921428
  0
LINE
  5
390
330
1F
100
AcDbEntity
  8
0
  6
Continuous
 62
     7
370
    25
100
AcDbLine
 10
234.6829204552
 20
354.3771939634
 30
0.0
 11
234.6328127354
 21
354.3820897038
 31
0.0
  0
LINE
  5
391
330
1F
100
AcDbEntity
  8
0
  6
Continuous
 62
     7
370
    25
100
AcDbLine
 10
231.3217597223
 20
359.8666038783
 30
0.0
 11
231.3718674421
 21
359.8617081379
 31
0.0
  0
ARC
  5
392
330
1F
100
AcDbEntity
  8
0
  6
Continuous
 62
     7
370
    25
100
AcDbCircle
 10
231.3552247996
 20
359.9154198531
 30
0.0
 40
0.0565891888194635
100
AcDbArc
 50
236.734808286
 51
279.5388715263
  0
ARC
  5
393
330
1F
100
AcDbEntity
  8
0
  6
Continuous
 62
     7
370
    25
100
AcDbCircle
 10
268.6652160421
 20
289.5458211885
 30
0.0
 40
3.791375082041553
100
AcDbArc
 50
304.3781688681
 51
6.571211454
  0
ARC
  5
394
330
1F
100
AcDbEntity
  8
0
  6
Continuous
 62
     7
370
    25
100
AcDbCircle
 10
220.8436525402
 20
372.2815946811
 30
0.0
 40
3.865437757859059
100
AcDbArc
 50
54.2052986837
 51
115.9495195437
  0
LINE
  5
395
330
1F
100
AcDbEntity
  8
0
  6
Continuous
 62
     7
370
    25
100
AcDbLine
 10
234.5390955767
 20
350.9053703605
 30
0.0
 11
234.5892032965
 21
350.9004746201
 31
0.0
  0
LINE
  5
396
330
1F
100
AcDbEntity
  8
0
  6
Continuous
 62
     7
370
    25
100
AcDbLine
 10
226.0779127949
 20
365.5627847802
 30
0.0
 11
226.0562288702
 21
365.5164723656
 31
0.0
  0
ARC
  5
397
330
1F
100
AcDbEntity
  8
0
  6
Continuous
 62
     7
370
    25
100
AcDbCircle
 10
234.572560654
 20
350.9541863353
 30
0.0
 40
0.0565891888229885
100
AcDbArc
 50
236.7348082874
 51
279.5388715249
  0
LINE
  5
398
330
1F
100
AcDbEntity
  8
0
  6
Continuous
 62
     7
370
    25
100
AcDbLine
 10
231.3217597223
 20
356.3146513466
 30
0.0
 11
231.3718674421
 21
356.3097556062
 31
0.0
  0
ARC
  5
399
330
1F
100
AcDbEntity
  8
0
  6
Continuous
 62
     7
370
    25
100
AcDbCircle
 10
226.1151247731
 20
365.5210736042
 30
0.0
 40
0.0564783244684177
100
AcDbArc
 50
140.152929065
 51
183.2999082509
  0
ARC
  5
39A
330
1F
100
AcDbEntity
  8
0
  6
Continuous
 62
     7
370
    25
100
AcDbCircle
 10
231.3552247996
 20
356.3634673214
 30
0.0
 40
0.0565891888265984
100
AcDbArc
 50
236.7348082887
 51
279.5388715234
  0
LINE
  5
39B
330
1F
100
AcDbEntity
  8
0
  6
Continuous
 62
     7
370
    25
100
AcDbLine
 10
226.0779127949
 20
362.0108322485
 30
0.0
 11
226.0562288702
 21
361.9645198339
 31
0.0
  0
LINE
  5
39C
330
1F
100
AcDbEntity
  8
0
  6
Continuous
 62
     7
370
    25
100
AcDbLine
 10
231.3217597223
 20
352.7626988149
 30
0.0
 11
231.3718674421
 21
352.7578030745
 31
0.0
  0
ARC
  5
39D
330
1F
100
AcDbEntity
  8
0
  6
Continuous
 62
     7
370
    25
100
AcDbCircle
 10
228.4288358741
 20
357.9271056044
 30
0.0
 40
0.0501133637013356
100
AcDbArc
 50
54.4734995068
 51
116.3415921418
  0
LINE
  5
39E
330
1F
100
AcDbEntity
  8
0
  6
Continuous
 62
     7
370
    25
100
AcDbLine
 10
228.4603807807
 20
357.9693896554
 30
0.0
 11
228.410273061
 21
357.9742853958
 31
0.0
  0
ARC
  5
39F
330
1F
100
AcDbEntity
  8
0
  6
Continuous
 62
     7
370
    25
100
AcDbCircle
 10
226.1151247731
 20
361.9691210725
 30
0.0
 40
0.0564783244700291
100
AcDbArc
 50
140.1529290655
 51
183.2999082501
  0
LINE
  5
3A0
330
1F
100
AcDbEntity
  8
0
  6
Continuous
 62
     7
370
    25
100
AcDbLine
 10
225.0992200479
 20
363.4587995703
 30
0.0
 11
225.1493277676
 21
363.4539038299
 31
0.0
  0
LINE
  5
3A1
330
1F
100
AcDbEntity
  8
0
  6
Continuous
 62
     7
370
    25
100
AcDbLine
 10
222.8605769405
 20
367.4201132346
 30
0.0
 11
222.8388930158
 21
367.37380082
 31
0.0
  0
ARC
  5
3A2
330
1F
100
AcDbEntity
  8
0
  6
Continuous
 62
     7
370
    25
100
AcDbCircle
 10
231.3552247996
 20
352.8115147897
 30
0.0
 40
0.0565891888229838
100
AcDbArc
 50
236.7348082874
 51
279.5388715249
  0
ARC
  5
3A3
330
1F
100
AcDbEntity
  8
0
  6
Continuous
 62
     7
370
    25
100
AcDbCircle
 10
225.1326851252
 20
363.5076155451
 30
0.0
 40
0.0565891888231944
100
AcDbArc
 50
236.7348082873
 51
279.5388715247
  0
ARC
  5
3A4
330
1F
100
AcDbEntity
  8
0
  6
Continuous
 62
     7
370
    25
100
AcDbCircle
 10
222.8977889187
 20
367.3784020586
 30
0.0
 40
0.0564783244681907
100
AcDbArc
 50
140.1529290649
 51
183.2999082509
  0
LINE
  5
3A5
330
1F
100
AcDbEntity
  8
0
  6
Continuous
 62
     7
370
    25
100
AcDbLine
 10
222.8605769405
 20
363.8681607029
 30
0.0
 11
222.8388930158
 21
363.8218482883
 31
0.0
  0
ARC
  5
3A6
330
1F
100
AcDbEntity
  8
0
  6
Continuous
 62
     7
370
    25
100
AcDbCircle
 10
222.8977889187
 20
363.8264495269
 30
0.0
 40
0.056478324469974
100
AcDbArc
 50
140.1529290656
 51
183.2999082502
  0
LINE
  5
3A7
330
1F
100
AcDbEntity
  8
0
  6
Continuous
 62
     7
370
    25
100
AcDbLine
 10
225.0992200479
 20
356.3548945069
 30
0.0
 11
225.1493277676
 21
356.3499987665
 31
0.0
  0
ARC
  5
3A8
330
1F
100
AcDbEntity
  8
0
  6
Continuous
 62
     7
370
    25
100
AcDbCircle
 10
225.1326851252
 20
356.4037104817
 30
0.0
 40
0.0565891888228764
100
AcDbArc
 50
236.7348082873
 51
279.538871525
  0
ARC
  5
3A9
330
1F
100
AcDbEntity
  8
0
  6
Continuous
 62
     7
370
    25
100
AcDbCircle
 10
262.885973531
 20
359.5450729164
 30
0.0
 40
0.2473554157316382
100
AcDbArc
 50
65.1394218438
 51
126.1710365853
  0
ELLIPSE
  5
3AA
330
1F
100
AcDbEntity
  8
0
  6
Continuous
 62
     7
370
    25
100
AcDbEllipse
 10
238.9358252539
 20
382.7260690411
 30
0.0
 11
1.001218717505708
 21
0.0
 31
0.0
210
0.0
220
0.0
230
1.0
 40
0.5765850178
 41
0.3098582823503788
 42
0.7847891758117851
  0
LINE
  5
3AB
330
1F
100
AcDbEntity
  8
0
  6
Continuous
 62
     7
370
    25
100
AcDbLine
 10
239.429252178
 20
383.2581254897
 30
0.0
 11
239.6442248112
 21
383.1340244301
 31
0.0
  0
ELLIPSE
  5
3AC
330
1F
100
AcDbEntity
  8
0
  6
Continuous
 62
     7
370
    25
100
AcDbEllipse
 10
279.3831951636
 20
332.9620058328
 30
0.0
 11
0.4750179891095173
 21
0.8830876571000773
 31
0.0
210
0.0
220
0.0
230
1.0
 40
0.5756289676
 41
3.078254415726197
 42
3.909004585000805
  0
ELLIPSE
  5
3AD
330
1F
100
AcDbEntity
  8
0
  6
Continuous
 62
     7
370
    25
100
AcDbEllipse
 10
263.8025842775
 20
359.9484154213
 30
0.0
 11
1.002286821249186
 21
-0.03011717694334947
 31
0.0
210
0.0
220
0.0
230
1.0
 40
0.5755370371
 41
2.374095756467559
 42
3.199488164487153
  0
ARC
  5
3AE
330
1F
100
AcDbEntity
  8
0
  6
Continuous
 62
     7
370
    25
100
AcDbCircle
 10
279.4225193726
 20
332.9775548668
 30
0.0
 40
0.7171894336490696
100
AcDbArc
 50
213.1251697685
 51
236.7432315826
  0
ARC
  5
3AF
330
1F
100
AcDbEntity
  8
0
  6
Continuous
 62
     7
370
    25
100
AcDbCircle
 10
292.0927226389
 20
328.0250344056
 30
0.0
 40
9.915352264300274
100
AcDbArc
 50
93.2432365268
 51
121.9589185571
  0
ARC
  5
3B0
330
1F
100
AcDbEntity
  8
0
  6
Continuous
 62
     7
370
    25
100
AcDbCircle
 10
265.8644680532
 20
373.4391100205
 30
0.0
 40
9.938011132417813
100
AcDbArc
 50
298.0876425655
 51
327.0639014011
  0
ARC
  5
3B1
330
1F
100
AcDbEntity
  8
0
  6
Continuous
 62
     7
370
    25
100
AcDbCircle
 10
291.6980725247
 20
328.2738740635
 30
0.0
 40
9.89373379936615
100
AcDbArc
 50
91.7800649348
 51
121.9249590345
  0
ARC
  5
3B2
330
1F
100
AcDbEntity
  8
0
  6
Continuous
 62
     7
370
    25
100
AcDbCircle
 10
265.8933467808
 20
372.9658667321
 30
0.0
 40
9.905179783845556
100
AcDbArc
 50
298.0862466768
 51
328.1957945549
  0
LINE
  5
3B3
330
1F
100
AcDbEntity
  8
0
  6
Continuous
 62
     7
370
    25
100
AcDbLine
 10
287.385632641
 20
300.4434806868
 30
0.0
 11
287.385632641
 21
300.1953169324
 31
0.0
  0
ELLIPSE
  5
3B4
330
1F
100
AcDbEntity
  8
0
  6
Continuous
 62
     7
370
    25
100
AcDbEllipse
 10
286.6780948469
 20
300.03403268
 30
0.0
 11
0.5005688238520065
 21
0.8671042456677469
 31
0.0
210
0.0
220
0.0
230
1.0
 40
0.5766787367
 41
5.498315064855869
 42
5.973726572876547
  0
ARC
  5
3B5
330
1F
100
AcDbEntity
  8
0
  6
Continuous
 62
     7
370
    25
100
AcDbCircle
 10
287.6328406485
 20
299.6220686465
 30
0.0
 40
0.2406608478813634
100
AcDbArc
 50
292.8796137384
 51
355.800245304
  0
LINE
  5
3B6
330
1F
100
AcDbEntity
  8
0
  6
Continuous
 62
     7
370
    25
100
AcDbLine
 10
285.4243949203
 20
294.5775509501
 30
0.0
 11
285.4177057558
 21
294.5884099414
 31
0.0
  0
LINE
  5
3B7
330
1F
100
AcDbEntity
  8
0
  6
Continuous
 62
     7
370
    25
100
AcDbLine
 10
233.589730918
 20
384.3571077234
 30
0.0
 11
233.5837744867
 21
384.3681391734
 31
0.0
  0
ARC
  5
3B8
330
1F
100
AcDbEntity
  8
0
  6
Continuous
 62
     7
370
    25
100
AcDbCircle
 10
287.6328406485
 20
298.834290927
 30
0.0
 40
0.240660847881481
100
AcDbArc
 50
292.8796137384
 51
355.800245304
  0
LWPOLYLINE
  5
3B9
330
1F
100
AcDbEntity
  8
0
  6
Continuous
 62
     7
370
    25
100
AcDbPolyline
 90
        3
 70
   128
 43
0.0
 10
287.385632641
 20
300.4434806868
 10
287.3246672453
 20
300.4007862548
 10
287.3071698467
 20
300.3846924411
  0
LWPOLYLINE
  5
3BA
330
1F
100
AcDbEntity
  8
0
  6
Continuous
 62
     7
370
    25
100
AcDbPolyline
 90
       12
 70
   128
 43
0.0
 10
286.6906567098
 20
313.6350212335
 10
285.4803682955
 20
313.0319348158
 10
284.2926252644
 20
312.6312791812
 10
283.1495530219
 20
312.4405177858
 10
282.0724448411
 20
312.4632041537
 10
281.0813652094
 20
312.6989156807
 10
280.1947760652
 20
313.1432615069
 10
279.4291928866
 20
313.7879643106
 10
278.7988770399
 20
314.6210144981
 10
278.3155701167
 20
315.6268939207
 10
277.9882752104
 20
316.786864948
 10
277.8859769439
 20
317.4115664588
  0
ARC
  5
3BB
330
1F
100
AcDbEntity
  8
0
  6
Continuous
 62
     7
370
    25
100
AcDbCircle
 10
297.1917955298
 20
317.7884992295
 30
0.0
 40
19.45225392197835
100
AcDbArc
 50
122.6728668082
 51
173.8659638103
  0
ARC
  5
3BC
330
1F
100
AcDbEntity
  8
0
  6
Continuous
 62
     7
370
    25
100
AcDbCircle
 10
259.5643040823
 20
383.0410743891
 30
0.0
 40
19.52821695054659
100
AcDbArc
 50
246.2427531847
 51
297.2202682217
  0
LWPOLYLINE
  5
3BD
330
1F
100
AcDbEntity
  8
0
  6
Continuous
 62
     7
370
    25
100
AcDbPolyline
 90
       12
 70
   128
 43
0.0
 10
249.5865693982
 20
366.4266461662
 10
249.09770982
 20
366.8267919166
 10
248.256873907
 20
367.6900828124
 10
247.627496695
 20
368.6114288391
 10
247.2213022908
 20
369.5736670634
 10
247.0458573276
 20
370.5588728079
 10
247.104430013
 20
371.5486935536
 10
247.3959292487
 20
372.5246908129
 10
247.9149249555
 20
373.4686836035
 10
248.6517492255
 20
374.3630871258
 10
249.5926764164
 20
375.1912403344
 10
250.7201788352
 20
375.9377163019
  0
LWPOLYLINE
  5
3BE
330
1F
100
AcDbEntity
  8
0
  6
Continuous
 62
     7
370
    25
100
AcDbPolyline
 90
       31
 70
   128
 43
0.0
 10
278.3754923929
 20
316.9110056462
 10
278.4166448468
 20
316.7673158477
 10
278.8309427163
 20
315.7238022817
 10
279.3991034771
 20
314.8502534116
 10
280.1095610146
 20
314.1644521735
 10
280.947852462
 20
313.6803595027
 10
281.896912623
 20
313.4078301302
 10
282.9374213695
 20
313.3524119679
 10
284.0481969441
 20
313.5152331698
 10
285.2066271592
 20
313.8929791659
 10
286.3891297163
 20
314.477960137
 10
287.5716322734
 20
315.2582675574
 10
288.7300624885
 20
316.2180166183
 10
289.8408380631
 20
317.3376695965
 10
290.8813468096
 20
318.5944335861
 10
291.8304069706
 20
319.9627244967
 10
292.668698418
 20
321.4146878709
 10
293.3791559555
 20
322.9207659217
 10
293.9473167163
 20
324.4502992431
 10
294.3616145858
 20
325.9721509475
 10
294.613615654
 20
327.4553405229
 10
294.6981899061
 20
328.8696745066
 10
294.613615654
 20
330.1863611374
 10
294.3616145858
 20
331.3785964725
 10
293.9473167163
 20
332.4221100385
 10
293.3791559555
 20
333.2956589085
 10
292.668698418
 20
333.9814601467
 10
291.8304069706
 20
334.4655528174
 10
290.8813468096
 20
334.73808219
 10
289.8408380631
 20
334.7935003523
 10
289.0747658836
 20
334.7033217135
  0
LWPOLYLINE
  5
3BF
330
1F
100
AcDbEntity
  8
0
  6
Continuous
 62
     7
370
    25
100
AcDbPolyline
 90
       11
 70
   128
 43
0.0
 10
251.2994068005
 20
375.2551428722
 10
250.2014784955
 20
374.523675
 10
249.2950493487
 20
373.7094503513
 10
248.5985716436
 20
372.8290441921
 10
248.1262236579
 20
371.9003790527
 10
247.8876210343
 20
370.9423598774
 10
247.8876210343
 20
369.9744891739
 10
248.1262236579
 20
369.0164699986
 10
248.5985716436
 20
368.0878048592
 10
249.2950493487
 20
367.2073986999
 10
249.3985666443
 20
367.1002720193
  0
LWPOLYLINE
  5
3C0
330
1F
100
AcDbEntity
  8
0
  6
Continuous
 62
     7
370
    25
100
AcDbPolyline
 90
       22
 70
   128
 43
0.0
 10
269.8183673364
 20
367.1002720193
 10
269.921884632
 20
367.2073986999
 10
270.6183623371
 20
368.0878048592
 10
271.0907103229
 20
369.0164699986
 10
271.3293129464
 20
369.9744891739
 10
271.3293129464
 20
370.9423598774
 10
271.0907103229
 20
371.9003790527
 10
270.6183623371
 20
372.8290441921
 10
269.921884632
 20
373.7094503513
 10
269.0154554852
 20
374.523675
 10
267.9175271802
 20
375.2551428722
 10
266.650450371
 20
375.8889633915
 10
265.2400190876
 20
376.4122337998
 10
263.7149456436
 20
376.8143018207
 10
262.1062761362
 20
377.0869825087
 10
260.4467584378
 20
377.2247248713
 10
258.7701755429
 20
377.2247248713
 10
257.1106578445
 20
377.0869825087
 10
255.5019883372
 20
376.8143018207
 10
253.9769148931
 20
376.4122337998
 10
252.5664836097
 20
375.8889633915
 10
251.2994068005
 20
375.2551428722
  0
LINE
  5
3C1
330
1F
100
AcDbEntity
  8
0
  6
Continuous
 62
     7
370
    25
100
AcDbLine
 10
247.1008127273
 20
372.8043491236
 30
0.0
 11
247.1007751417
 21
372.8045420322
 31
0.0
  0
LINE
  5
3C2
330
1F
100
AcDbEntity
  8
0
  6
Continuous
 62
     7
370
    25
100
AcDbLine
 10
282.1715696929
 20
312.0725575431
 30
0.0
 11
282.1777971138
 21
312.0671396269
 31
0.0
  0
LINE
  5
3C3
330
1F
100
AcDbEntity
  8
0
  6
Continuous
 62
     7
100
AcDbLine
 10
334.8652861642
 20
199.0698615823
 30
0.0
 11
334.7838134469
 21
199.0698615823
 31
0.0
  0
LINE
  5
3C4
330
1F
100
AcDbEntity
  8
0
  6
Continuous
 62
     7
100
AcDbLine
 10
334.8652861642
 20
199.0698615823
 30
0.0
 11
334.8652861642
 21
199.2328070169
 31
0.0
  0
LINE
  5
3C5
330
1F
100
AcDbEntity
  8
0
  6
Continuous
 62
     7
100
AcDbLine
 10
334.8652861642
 20
199.0698615823
 30
0.0
 11
334.7838134469
 21
199.0698615823
 31
0.0
  0
LINE
  5
3C6
330
1F
100
AcDbEntity
  8
0
  6
Continuous
 62
     7
100
AcDbLine
 10
334.8652861642
 20
199.0698615823
 30
0.0
 11
334.8652861642
 21
199.2328070169
 31
0.0
  0
LINE
  5
3C7
330
1F
100
AcDbEntity
  8
0
  6
Continuous
 62
     7
100
AcDbLine
 10
334.8652861642
 20
199.0698615823
 30
0.0
 11
334.7838134469
 21
199.0698615823
 31
0.0
  0
LINE
  5
3C8
330
1F
100
AcDbEntity
  8
0
  6
Continuous
 62
     7
100
AcDbLine
 10
334.8652861642
 20
199.0698615823
 30
0.0
 11
334.8652861642
 21
199.2328070169
 31
0.0
  0
POINT
  5
3C9
330
1F
100
AcDbEntity
  8
0
  6
Continuous
 62
     7
100
AcDbPoint
 10
334.8652861642
 20
199.0698615823
 30
0.0
  0
POINT
  5
3CA
330
1F
100
AcDbEntity
  8
0
  6
Continuous
 62
     7
100
AcDbPoint
 10
334.8652861642
 20
199.0698615823
 30
0.0
  0
POINT
  5
3CB
330
1F
100
AcDbEntity
  8
0
  6
Continuous
 62
     7
100
AcDbPoint
 10
334.8652861642
 20
199.0698615823
 30
0.0
  0
LINE
  5
3CC
330
1F
100
AcDbEntity
  8
0
  6
Continuous
 62
     7
370
    25
100
AcDbLine
 10
321.016997685
 20
159.9698615823
 30
0.0
 11
303.8652861642
 21
159.9698615823
 31
0.0
  0
ARC
  5
3CD
330
1F
100
AcDbEntity
  8
0
  6
Continuous
 62
     7
370
    25
100
AcDbCircle
 10
303.8652861642
 20
168.0698615823
 30
0.0
 40
8.100000000000023
100
AcDbArc
 50
180.0
 51
270.0
  0
LINE
  5
3CE
330
1F
100
AcDbEntity
  8
0
  6
Continuous
 62
     7
370
    25
100
AcDbLine
 10
295.7652861642
 20
168.0698615823
 30
0.0
 11
295.7652861642
 21
185.2215731031
 31
0.0
  0
ELLIPSE
  5
3CF
330
1F
100
AcDbEntity
  8
0
  6
Continuous
 62
     7
370
    25
100
AcDbEllipse
 10
295.7809957226
 20
185.2215731031
 30
0.0
 11
0.0
 21
0.9000000000000057
 31
0.0
210
0.0
220
0.0
230
1.0
 40
0.0174550649
 41
0.1434304530192163
 42
1.570796326794897
  0
ELLIPSE
  5
3D0
330
1F
100
AcDbEntity
  8
0
  6
Continuous
 62
     7
370
    25
100
AcDbEllipse
 10
321.016997685
 20
159.9855711407
 30
0.0
 11
0.8999999999999773
 21
0.0
 31
0.0
210
0.0
220
0.0
230
1.0
 40
0.0174550649
 41
4.71238898038469
 42
6.139754854161135
  0
ELLIPSE
  5
3D1
330
1F
100
AcDbEntity
  8
0
  6
Continuous
 62
     7
370
    25
100
AcDbEllipse
 10
348.7135746434
 20
238.1541520238
 30
0.0
 11
0.9000000000000341
 21
0.0
 31
0.0
210
0.0
220
0.0
230
1.0
 40
0.0174550649
 41
1.570796326794897
 42
2.998162200574412
  0
ARC
  5
3D2
330
1F
100
AcDbEntity
  8
0
  6
Continuous
 62
     7
370
    25
100
AcDbCircle
 10
365.8652861642
 20
230.0698615823
 30
0.0
 40
8.099999999999994
100
AcDbArc
 50
0.0
 51
90.0
  0
LINE
  5
3D3
330
1F
100
AcDbEntity
  8
0
  6
Continuous
 62
     7
370
    25
100
AcDbLine
 10
373.9652861642
 20
230.0698615823
 30
0.0
 11
373.9652861642
 21
212.9181500615
 31
0.0
  0
LINE
  5
3D4
330
1F
100
AcDbEntity
  8
0
  6
Continuous
 62
     7
370
    25
100
AcDbLine
 10
348.7135746434
 20
238.1698615823
 30
0.0
 11
365.8652861642
 21
238.1698615823
 31
0.0
  0
ELLIPSE
  5
3D5
330
1F
100
AcDbEntity
  8
0
  6
Continuous
 62
     7
370
    25
100
AcDbEllipse
 10
373.9495766058
 20
212.9181500615
 30
0.0
 11
0.0
 21
0.9000000000000341
 31
0.0
210
0.0
220
0.0
230
1.0
 40
0.0174550649
 41
3.285023106606214
 42
4.71238898038469
  0
ELLIPSE
  5
3D6
330
1F
100
AcDbEntity
  8
0
  6
Continuous
 62
     7
370
    25
100
AcDbEllipse
 10
295.7460855928
 20
199.0698615823
 30
0.0
 11
0.0
 21
13.09196533026773
 31
0.0
210
0.0
220
0.0
230
1.0
 40
0.0174550649
 41
3.285023106608296
 42
3.690338172989615
  0
ELLIPSE
  5
3D7
330
1F
100
AcDbEntity
  8
0
  6
Continuous
 62
     7
370
    25
100
AcDbEllipse
 10
334.8652861642
 20
159.9506610108
 30
0.0
 11
13.09196533026767
 21
0.0
 31
0.0
210
0.0
220
0.0
230
1.0
 40
0.0174550649
 41
2.592847134189666
 42
2.998162200572358
  0
ELLIPSE
  5
3D8
330
1F
100
AcDbEntity
  8
0
  6
Continuous
 62
     7
370
    25
100
AcDbEllipse
 10
334.8652861642
 20
238.1890621537
 30
0.0
 11
13.09196533026773
 21
0.0
 31
0.0
210
0.0
220
0.0
230
1.0
 40
0.0174550649
 41
5.734439787782767
 42
6.139754854162924
  0
ELLIPSE
  5
3D9
330
1F
100
AcDbEntity
  8
0
  6
Continuous
 62
     7
370
    25
100
AcDbEllipse
 10
373.9844867356
 20
199.0698615823
 30
0.0
 11
0.0
 21
13.09196533026775
 31
0.0
210
0.0
220
0.0
230
1.0
 40
0.0174550649
 41
0.1434304530174789
 42
0.548745519398417
  0
ARC
  5
3DA
330
1F
100
AcDbEntity
  8
0
  6
Continuous
 62
     7
370
    25
100
AcDbCircle
 10
354.8652861642
 20
197.3198615823
 30
0.0
 40
3.447618845762354
100
AcDbArc
 50
180.0
 51
190.5075606668
  0
ARC
  5
3DB
330
1F
100
AcDbEntity
  8
0
  6
Continuous
 62
     7
370
    25
100
AcDbCircle
 10
354.8652861642
 20
197.3198615823
 30
0.0
 40
3.46629794778795
100
AcDbArc
 50
180.0
 51
190.5174224987
  0
LINE
  5
3DC
330
1F
100
AcDbEntity
  8
0
  6
Continuous
 62
     7
370
    25
100
AcDbLine
 10
351.4754809509
 20
196.691135631
 30
0.0
 11
351.4572239356
 21
196.6871426015
 31
0.0
  0
ARC
  5
3DD
330
1F
100
AcDbEntity
  8
0
  6
Continuous
 62
     7
370
    25
100
AcDbCircle
 10
354.8652861642
 20
197.3198615823
 30
0.0
 40
3.466297947788064
100
AcDbArc
 50
210.6639123839
 51
0.0
  0
ARC
  5
3DE
330
1F
100
AcDbEntity
  8
0
  6
Continuous
 62
     7
370
    25
100
AcDbCircle
 10
354.8652861642
 20
197.3198615823
 30
0.0
 40
3.447618845762463
100
AcDbArc
 50
210.7667686158
 51
0.0
  0
LINE
  5
3DF
330
1F
100
AcDbEntity
  8
0
  6
Continuous
 62
     7
370
    25
100
AcDbLine
 10
351.8836679534
 20
195.5520453283
 30
0.0
 11
351.9028964485
 21
195.5562508321
 31
0.0
  0
ARC
  5
3E0
330
1F
100
AcDbEntity
  8
0
  6
Continuous
 62
     7
370
    25
100
AcDbCircle
 10
354.8652861642
 20
197.3198615823
 30
0.0
 40
2.052381154237651
100
AcDbArc
 50
224.4140768431
 51
0.0
  0
LINE
  5
3E1
330
1F
100
AcDbEntity
  8
0
  6
Continuous
 62
     7
370
    25
100
AcDbLine
 10
353.3992687465
 20
195.8835255027
 30
0.0
 11
353.4318477312
 21
195.8906509196
 31
0.0
  0
LINE
  5
3E2
330
1F
100
AcDbEntity
  8
0
  6
Continuous
 62
     7
370
    25
100
AcDbLine
 10
299.31290501
 20
169.0698615823
 30
0.0
 11
297.3652861642
 21
169.0698615823
 31
0.0
  0
ELLIPSE
  5
3E3
330
1F
100
AcDbEntity
  8
0
  6
Continuous
 62
     7
370
    25
100
AcDbEllipse
 10
299.2710000866
 20
171.4885389068
 30
0.0
 11
0.0
 21
2.700000000000017
 31
0.0
210
0.0
220
0.0
230
1.0
 40
0.0349207695
 41
3.602146645271137
 42
4.71238898038469
  0
LINE
  5
3E4
330
1F
100
AcDbEntity
  8
0
  6
Continuous
 62
     7
370
    25
100
AcDbLine
 10
297.3652861642
 20
171.4885389068
 30
0.0
 11
297.3652861642
 21
169.0698615823
 31
0.0
  0
LINE
  5
3E5
330
1F
100
AcDbEntity
  8
0
  6
Continuous
 62
     7
370
    25
100
AcDbLine
 10
304.8652861642
 20
161.5698615823
 30
0.0
 11
304.8652861642
 21
163.517480428
 31
0.0
  0
LINE
  5
3E6
330
1F
100
AcDbEntity
  8
0
  6
Continuous
 62
     7
370
    25
100
AcDbLine
 10
304.8652861642
 20
161.5698615823
 30
0.0
 11
303.8652861642
 21
161.5698615823
 31
0.0
  0
ARC
  5
3E7
330
1F
100
AcDbEntity
  8
0
  6
Continuous
 62
     7
370
    25
100
AcDbCircle
 10
303.8652861642
 20
168.0698615823
 30
0.0
 40
6.499999999999992
100
AcDbArc
 50
225.0
 51
270.0
  0
ARC
  5
3E8
330
1F
100
AcDbEntity
  8
0
  6
Continuous
 62
     7
370
    25
100
AcDbCircle
 10
303.8652861642
 20
168.0698615823
 30
0.0
 40
6.5
100
AcDbArc
 50
180.0
 51
225.0
  0
LINE
  5
3E9
330
1F
100
AcDbEntity
  8
0
  6
Continuous
 62
     7
370
    25
100
AcDbLine
 10
299.31290501
 20
169.0698615823
 30
0.0
 11
299.31290501
 21
168.0698615823
 31
0.0
  0
ARC
  5
3EA
330
1F
100
AcDbEntity
  8
0
  6
Continuous
 62
     7
370
    25
100
AcDbCircle
 10
303.8652861642
 20
168.0698615823
 30
0.0
 40
4.552381154237651
100
AcDbArc
 50
180.0
 51
270.0
  0
LINE
  5
3EB
330
1F
100
AcDbEntity
  8
0
  6
Continuous
 62
     7
370
    25
100
AcDbLine
 10
303.8652861642
 20
163.517480428
 30
0.0
 11
304.8652861642
 21
163.517480428
 31
0.0
  0
LINE
  5
3EC
330
1F
100
AcDbEntity
  8
0
  6
Continuous
 62
     7
370
    25
100
AcDbLine
 10
297.3652861642
 20
168.0698615823
 30
0.0
 11
297.3652861642
 21
169.0698615823
 31
0.0
  0
LINE
  5
3ED
330
1F
100
AcDbEntity
  8
0
  6
Continuous
 62
     7
370
    25
100
AcDbLine
 10
304.8652861642
 20
234.6222427365
 30
0.0
 11
304.8652861642
 21
236.5698615823
 31
0.0
  0
LINE
  5
3EE
330
1F
100
AcDbEntity
  8
0
  6
Continuous
 62
     7
370
    25
100
AcDbLine
 10
304.8652861642
 20
234.6222427365
 30
0.0
 11
303.8652861642
 21
234.6222427365
 31
0.0
  0
ARC
  5
3EF
330
1F
100
AcDbEntity
  8
0
  6
Continuous
 62
     7
370
    25
100
AcDbCircle
 10
303.8652861642
 20
230.0698615823
 30
0.0
 40
4.552381154237651
100
AcDbArc
 50
90.0
 51
180.0
  0
LINE
  5
3F0
330
1F
100
AcDbEntity
  8
0
  6
Continuous
 62
     7
370
    25
100
AcDbLine
 10
299.31290501
 20
230.0698615823
 30
0.0
 11
299.31290501
 21
229.0698615823
 31
0.0
  0
LINE
  5
3F1
330
1F
100
AcDbEntity
  8
0
  6
Continuous
 62
     7
370
    25
100
AcDbLine
 10
299.31290501
 20
229.0698615823
 30
0.0
 11
297.3652861642
 21
229.0698615823
 31
0.0
  0
ARC
  5
3F2
330
1F
100
AcDbEntity
  8
0
  6
Continuous
 62
     7
370
    25
100
AcDbCircle
 10
303.8652861642
 20
230.0698615823
 30
0.0
 40
6.500000000000033
100
AcDbArc
 50
90.0
 51
135.0
  0
LINE
  5
3F3
330
1F
100
AcDbEntity
  8
0
  6
Continuous
 62
     7
370
    25
100
AcDbLine
 10
303.8652861642
 20
236.5698615823
 30
0.0
 11
304.8652861642
 21
236.5698615823
 31
0.0
  0
ARC
  5
3F4
330
1F
100
AcDbEntity
  8
0
  6
Continuous
 62
     7
370
    25
100
AcDbCircle
 10
303.8652861642
 20
230.0698615823
 30
0.0
 40
6.500000000000033
100
AcDbArc
 50
135.0
 51
180.0
  0
LINE
  5
3F5
330
1F
100
AcDbEntity
  8
0
  6
Continuous
 62
     7
370
    25
100
AcDbLine
 10
297.3652861642
 20
229.0698615823
 30
0.0
 11
297.3652861642
 21
230.0698615823
 31
0.0
  0
ELLIPSE
  5
3F6
330
1F
100
AcDbEntity
  8
0
  6
Continuous
 62
     7
370
    25
100
AcDbEllipse
 10
299.2710000866
 20
226.6511842578
 30
0.0
 11
0.0
 21
2.699999999999988
 31
0.0
210
0.0
220
0.0
230
1.0
 40
0.0349207695
 41
4.71238898038469
 42
5.822631315498882
  0
LINE
  5
3F7
330
1F
100
AcDbEntity
  8
0
  6
Continuous
 62
     7
370
    25
100
AcDbLine
 10
297.3652861642
 20
229.0698615823
 30
0.0
 11
297.3652861642
 21
226.6511842578
 31
0.0
  0
LINE
  5
3F8
330
1F
100
AcDbEntity
  8
0
  6
Continuous
 62
     7
370
    25
100
AcDbLine
 10
299.3652861642
 20
171.4885389068
 30
0.0
 11
299.3652861642
 21
168.0698615823
 31
0.0
  0
ARC
  5
3F9
330
1F
100
AcDbEntity
  8
0
  6
Continuous
 62
     7
370
    25
100
AcDbCircle
 10
303.8652861642
 20
168.0698615823
 30
0.0
 40
4.5
100
AcDbArc
 50
180.0
 51
270.0
  0
ARC
  5
3FA
330
1F
100
AcDbEntity
  8
0
  6
Continuous
 62
     7
370
    25
100
AcDbCircle
 10
303.8652861642
 20
230.0698615823
 30
0.0
 40
4.5
100
AcDbArc
 50
90.0
 51
180.0
  0
LINE
  5
3FB
330
1F
100
AcDbEntity
  8
0
  6
Continuous
 62
     7
370
    25
100
AcDbLine
 10
299.3652861642
 20
230.0698615823
 30
0.0
 11
299.3652861642
 21
226.6511842578
 31
0.0
  0
LINE
  5
3FC
330
1F
100
AcDbEntity
  8
0
  6
Continuous
 62
     7
370
    25
100
AcDbLine
 10
303.8652861642
 20
163.5698615823
 30
0.0
 11
307.2839634887
 21
163.5698615823
 31
0.0
  0
ELLIPSE
  5
3FD
330
1F
100
AcDbEntity
  8
0
  6
Continuous
 62
     7
370
    25
100
AcDbEllipse
 10
307.2839634887
 20
163.4755755046
 30
0.0
 11
2.699999999999988
 21
0.0
 31
0.0
210
0.0
220
0.0
230
1.0
 40
0.0349207695
 41
1.570796326794897
 42
2.68103866190904
  0
ELLIPSE
  5
3FE
330
1F
100
AcDbEntity
  8
0
  6
Continuous
 62
     7
370
    25
100
AcDbEllipse
 10
307.2839634887
 20
234.6641476599
 30
0.0
 11
2.699999999999988
 21
0.0
 31
0.0
210
0.0
220
0.0
230
1.0
 40
0.0349207695
 41
3.602146645271398
 42
4.71238898038469
  0
LINE
  5
3FF
330
1F
100
AcDbEntity
  8
0
  6
Continuous
 62
     7
370
    25
100
AcDbLine
 10
307.2839634887
 20
234.5698615823
 30
0.0
 11
303.8652861642
 21
234.5698615823
 31
0.0
  0
LINE
  5
400
330
1F
100
AcDbEntity
  8
0
  6
Continuous
 62
     7
370
    25
100
AcDbLine
 10
307.2839634887
 20
161.5698615823
 30
0.0
 11
304.8652861642
 21
161.5698615823
 31
0.0
  0
LINE
  5
401
330
1F
100
AcDbEntity
  8
0
  6
Continuous
 62
     7
370
    25
100
AcDbLine
 10
307.2839634887
 20
236.5698615823
 30
0.0
 11
304.8652861642
 21
236.5698615823
 31
0.0
  0
ARC
  5
402
330
1F
100
AcDbEntity
  8
0
  6
Continuous
 62
     7
370
    25
100
AcDbCircle
 10
313.1152861642
 20
199.0698615823
 30
0.0
 40
3.447618845762378
100
AcDbArc
 50
90.0
 51
270.0
  0
LINE
  5
403
330
1F
100
AcDbEntity
  8
0
  6
Continuous
 62
     7
370
    25
100
AcDbLine
 10
315.4652861642
 20
195.6222427365
 30
0.0
 11
316.6152861642
 21
195.6222427365
 31
0.0
  0
LINE
  5
404
330
1F
100
AcDbEntity
  8
0
  6
Continuous
 62
     7
370
    25
100
AcDbLine
 10
315.4652861642
 20
197.017480428
 30
0.0
 11
316.6152861642
 21
197.017480428
 31
0.0
  0
ARC
  5
405
330
1F
100
AcDbEntity
  8
0
  6
Continuous
 62
     7
370
    25
100
AcDbCircle
 10
316.6152861642
 20
199.0698615823
 30
0.0
 40
2.052381154237651
100
AcDbArc
 50
270.0
 51
90.0
  0
LINE
  5
406
330
1F
100
AcDbEntity
  8
0
  6
Continuous
 62
     7
370
    25
100
AcDbLine
 10
316.6152861642
 20
201.1222427365
 30
0.0
 11
313.1152861642
 21
201.1222427365
 31
0.0
  0
ARC
  5
407
330
1F
100
AcDbEntity
  8
0
  6
Continuous
 62
     7
370
    25
100
AcDbCircle
 10
313.1152861642
 20
199.0698615823
 30
0.0
 40
2.052381154237651
100
AcDbArc
 50
90.0
 51
270.0
  0
LINE
  5
408
330
1F
100
AcDbEntity
  8
0
  6
Continuous
 62
     7
370
    25
100
AcDbLine
 10
313.1152861642
 20
197.017480428
 30
0.0
 11
314.2652861642
 21
197.017480428
 31
0.0
  0
LINE
  5
409
330
1F
100
AcDbEntity
  8
0
  6
Continuous
 62
     7
370
    25
100
AcDbLine
 10
313.1152861642
 20
195.6222427365
 30
0.0
 11
314.2652861642
 21
195.6222427365
 31
0.0
  0
LINE
  5
40A
330
1F
100
AcDbEntity
  8
0
  6
Continuous
 62
     7
370
    25
100
AcDbLine
 10
316.6152861642
 20
202.517480428
 30
0.0
 11
313.1152861642
 21
202.517480428
 31
0.0
  0
ARC
  5
40B
330
1F
100
AcDbEntity
  8
0
  6
Continuous
 62
     7
370
    25
100
AcDbCircle
 10
316.6152861642
 20
199.0698615823
 30
0.0
 40
3.447618845762378
100
AcDbArc
 50
270.0
 51
90.0
  0
LINE
  5
40C
330
1F
100
AcDbEntity
  8
0
  6
Continuous
 62
     7
370
    25
100
AcDbLine
 10
314.2652861642
 20
197.0456607871
 30
0.0
 11
314.2652861642
 21
197.017480428
 31
0.0
  0
LINE
  5
40D
330
1F
100
AcDbEntity
  8
0
  6
Continuous
 62
     7
370
    25
100
AcDbLine
 10
314.2652861642
 20
195.6222427365
 30
0.0
 11
314.2652861642
 21
195.6035636345
 31
0.0
  0
LINE
  5
40E
330
1F
100
AcDbEntity
  8
0
  6
Continuous
 62
     7
370
    25
100
AcDbLine
 10
315.4652861642
 20
197.017480428
 30
0.0
 11
315.4652861642
 21
197.0456607871
 31
0.0
  0
LINE
  5
40F
330
1F
100
AcDbEntity
  8
0
  6
Continuous
 62
     7
370
    25
100
AcDbLine
 10
315.4652861642
 20
195.6035636345
 30
0.0
 11
315.4652861642
 21
195.6222427365
 31
0.0
  0
ARC
  5
410
330
1F
100
AcDbEntity
  8
0
  6
Continuous
 62
     7
370
    25
100
AcDbCircle
 10
316.6152861642
 20
199.0698615823
 30
0.0
 40
3.466297947787979
100
AcDbArc
 50
270.0
 51
90.0
  0
ARC
  5
411
330
1F
100
AcDbEntity
  8
0
  6
Continuous
 62
     7
370
    25
100
AcDbCircle
 10
354.8652861642
 20
200.8198615823
 30
0.0
 40
3.447618845762463
100
AcDbArc
 50
0.0
 51
180.0
  0
ARC
  5
412
330
1F
100
AcDbEntity
  8
0
  6
Continuous
 62
     7
370
    25
100
AcDbCircle
 10
354.8652861642
 20
200.8198615823
 30
0.0
 40
3.466297947788064
100
AcDbArc
 50
0.0
 51
180.0
  0
LINE
  5
413
330
1F
100
AcDbEntity
  8
0
  6
Continuous
 62
     7
370
    25
100
AcDbLine
 10
351.4176673184
 20
200.8198615823
 30
0.0
 11
351.4176673184
 21
197.3198615823
 31
0.0
  0
LINE
  5
414
330
1F
100
AcDbEntity
  8
0
  6
Continuous
 62
     7
370
    25
100
AcDbLine
 10
358.31290501
 20
197.3198615823
 30
0.0
 11
358.31290501
 21
200.8198615823
 31
0.0
  0
LINE
  5
415
330
1F
100
AcDbEntity
  8
0
  6
Continuous
 62
     7
370
    25
100
AcDbLine
 10
356.9176673184
 20
197.3198615823
 30
0.0
 11
356.9176673184
 21
200.8198615823
 31
0.0
  0
ARC
  5
416
330
1F
100
AcDbEntity
  8
0
  6
Continuous
 62
     7
370
    25
100
AcDbCircle
 10
354.8652861642
 20
200.8198615823
 30
0.0
 40
2.052381154237651
100
AcDbArc
 50
0.0
 51
180.0
  0
LINE
  5
417
330
1F
100
AcDbEntity
  8
0
  6
Continuous
 62
     7
370
    25
100
AcDbLine
 10
352.81290501
 20
200.8198615823
 30
0.0
 11
352.81290501
 21
197.3198615823
 31
0.0
  0
ARC
  5
418
330
1F
100
AcDbEntity
  8
0
  6
Continuous
 62
     7
370
    25
100
AcDbCircle
 10
354.8652861642
 20
197.3198615823
 30
0.0
 40
2.052381154237572
100
AcDbArc
 50
180.0
 51
189.2629207542
  0
LINE
  5
419
330
1F
100
AcDbEntity
  8
0
  6
Continuous
 62
     7
370
    25
100
AcDbLine
 10
352.8672377068
 20
196.9955296207
 30
0.0
 11
352.8396678705
 21
196.989499765
 31
0.0
  0
LINE
  5
41A
330
1F
100
AcDbEntity
  8
0
  6
Continuous
 62
     7
370
    25
100
AcDbLine
 10
365.8652861642
 20
234.6222427365
 30
0.0
 11
364.8652861642
 21
234.6222427365
 31
0.0
  0
LINE
  5
41B
330
1F
100
AcDbEntity
  8
0
  6
Continuous
 62
     7
370
    25
100
AcDbLine
 10
365.8652861642
 20
234.5698615823
 30
0.0
 11
362.4466088397
 21
234.5698615823
 31
0.0
  0
ELLIPSE
  5
41C
330
1F
100
AcDbEntity
  8
0
  6
Continuous
 62
     7
370
    25
100
AcDbEllipse
 10
362.4466088397
 20
234.6641476599
 30
0.0
 11
2.699999999999932
 21
0.0
 31
0.0
210
0.0
220
0.0
230
1.0
 40
0.0349207695
 41
4.71238898038469
 42
5.822631315498624
  0
LINE
  5
41D
330
1F
100
AcDbEntity
  8
0
  6
Continuous
 62
     7
370
    25
100
AcDbLine
 10
364.8652861642
 20
234.6222427365
 30
0.0
 11
364.8652861642
 21
236.5698615823
 31
0.0
  0
LINE
  5
41E
330
1F
100
AcDbEntity
  8
0
  6
Continuous
 62
     7
370
    25
100
AcDbLine
 10
364.8652861642
 20
236.5698615823
 30
0.0
 11
362.4466088397
 21
236.5698615823
 31
0.0
  0
LINE
  5
41F
330
1F
100
AcDbEntity
  8
0
  6
Continuous
 62
     7
370
    25
100
AcDbLine
 10
364.8652861642
 20
161.5698615823
 30
0.0
 11
364.8652861642
 21
163.517480428
 31
0.0
  0
ELLIPSE
  5
420
330
1F
100
AcDbEntity
  8
0
  6
Continuous
 62
     7
370
    25
100
AcDbEllipse
 10
362.4466088397
 20
163.4755755046
 30
0.0
 11
2.699999999999932
 21
0.0
 31
0.0
210
0.0
220
0.0
230
1.0
 40
0.0349207695
 41
0.4605539916812894
 42
1.570796326794897
  0
LINE
  5
421
330
1F
100
AcDbEntity
  8
0
  6
Continuous
 62
     7
370
    25
100
AcDbLine
 10
364.8652861642
 20
161.5698615823
 30
0.0
 11
362.4466088397
 21
161.5698615823
 31
0.0
  0
LINE
  5
422
330
1F
100
AcDbEntity
  8
0
  6
Continuous
 62
     7
370
    25
100
AcDbLine
 10
362.4466088397
 20
163.5698615823
 30
0.0
 11
365.8652861642
 21
163.5698615823
 31
0.0
  0
LINE
  5
423
330
1F
100
AcDbEntity
  8
0
  6
Continuous
 62
     7
370
    25
100
AcDbLine
 10
364.8652861642
 20
163.517480428
 30
0.0
 11
365.8652861642
 21
163.517480428
 31
0.0
  0
LINE
  5
424
330
1F
100
AcDbEntity
  8
0
  6
Continuous
 62
     7
370
    25
100
AcDbLine
 10
372.3652861642
 20
169.0698615823
 30
0.0
 11
372.3652861642
 21
168.0698615823
 31
0.0
  0
ARC
  5
425
330
1F
100
AcDbEntity
  8
0
  6
Continuous
 62
     7
370
    25
100
AcDbCircle
 10
365.8652861642
 20
168.0698615823
 30
0.0
 40
6.5
100
AcDbArc
 50
270.0
 51
0.0
  0
ARC
  5
426
330
1F
100
AcDbEntity
  8
0
  6
Continuous
 62
     7
370
    25
100
AcDbCircle
 10
365.8652861642
 20
168.0698615823
 30
0.0
 40
4.552381154237651
100
AcDbArc
 50
270.0
 51
0.0
  0
LINE
  5
427
330
1F
100
AcDbEntity
  8
0
  6
Continuous
 62
     7
370
    25
100
AcDbLine
 10
370.4176673184
 20
168.0698615823
 30
0.0
 11
370.4176673184
 21
169.0698615823
 31
0.0
  0
LINE
  5
428
330
1F
100
AcDbEntity
  8
0
  6
Continuous
 62
     7
370
    25
100
AcDbLine
 10
372.3652861642
 20
169.0698615823
 30
0.0
 11
370.4176673184
 21
169.0698615823
 31
0.0
  0
LINE
  5
429
330
1F
100
AcDbEntity
  8
0
  6
Continuous
 62
     7
370
    25
100
AcDbLine
 10
365.8652861642
 20
161.5698615823
 30
0.0
 11
364.8652861642
 21
161.5698615823
 31
0.0
  0
ARC
  5
42A
330
1F
100
AcDbEntity
  8
0
  6
Continuous
 62
     7
370
    25
100
AcDbCircle
 10
365.8652861642
 20
230.0698615823
 30
0.0
 40
4.552381154237622
100
AcDbArc
 50
0.0
 51
90.0
  0
ARC
  5
42B
330
1F
100
AcDbEntity
  8
0
  6
Continuous
 62
     7
370
    25
100
AcDbCircle
 10
365.8652861642
 20
230.0698615823
 30
0.0
 40
6.5
100
AcDbArc
 50
45.0
 51
90.0
  0
ARC
  5
42C
330
1F
100
AcDbEntity
  8
0
  6
Continuous
 62
     7
370
    25
100
AcDbCircle
 10
365.8652861642
 20
230.0698615823
 30
0.0
 40
6.5
100
AcDbArc
 50
0.0
 51
45.0
  0
LINE
  5
42D
330
1F
100
AcDbEntity
  8
0
  6
Continuous
 62
     7
370
    25
100
AcDbLine
 10
372.3652861642
 20
230.0698615823
 30
0.0
 11
372.3652861642
 21
229.0698615823
 31
0.0
  0
LINE
  5
42E
330
1F
100
AcDbEntity
  8
0
  6
Continuous
 62
     7
370
    25
100
AcDbLine
 10
372.3652861642
 20
229.0698615823
 30
0.0
 11
370.4176673184
 21
229.0698615823
 31
0.0
  0
LINE
  5
42F
330
1F
100
AcDbEntity
  8
0
  6
Continuous
 62
     7
370
    25
100
AcDbLine
 10
370.4176673184
 20
229.0698615823
 30
0.0
 11
370.4176673184
 21
230.0698615823
 31
0.0
  0
LINE
  5
430
330
1F
100
AcDbEntity
  8
0
  6
Continuous
 62
     7
370
    25
100
AcDbLine
 10
364.8652861642
 20
236.5698615823
 30
0.0
 11
365.8652861642
 21
236.5698615823
 31
0.0
  0
ARC
  5
431
330
1F
100
AcDbEntity
  8
0
  6
Continuous
 62
     7
370
    25
100
AcDbCircle
 10
365.8652861642
 20
168.0698615823
 30
0.0
 40
4.5
100
AcDbArc
 50
270.0
 51
0.0
  0
ARC
  5
432
330
1F
100
AcDbEntity
  8
0
  6
Continuous
 62
     7
370
    25
100
AcDbCircle
 10
365.8652861642
 20
230.0698615823
 30
0.0
 40
4.5
100
AcDbArc
 50
0.0
 51
90.0
  0
LINE
  5
433
330
1F
100
AcDbEntity
  8
0
  6
Continuous
 62
     7
370
    25
100
AcDbLine
 10
370.3652861642
 20
168.0698615823
 30
0.0
 11
370.3652861642
 21
171.4885389068
 31
0.0
  0
ELLIPSE
  5
434
330
1F
100
AcDbEntity
  8
0
  6
Continuous
 62
     7
370
    25
100
AcDbEllipse
 10
370.4595722418
 20
171.4885389068
 30
0.0
 11
0.0
 21
2.700000000000017
 31
0.0
210
0.0
220
0.0
230
1.0
 40
0.0349207695
 41
1.570796326794897
 42
2.68103866190823
  0
LINE
  5
435
330
1F
100
AcDbEntity
  8
0
  6
Continuous
 62
     7
370
    25
100
AcDbLine
 10
372.3652861642
 20
171.4885389068
 30
0.0
 11
372.3652861642
 21
169.0698615823
 31
0.0
  0
LINE
  5
436
330
1F
100
AcDbEntity
  8
0
  6
Continuous
 62
     7
370
    25
100
AcDbLine
 10
370.3652861642
 20
226.6511842578
 30
0.0
 11
370.3652861642
 21
230.0698615823
 31
0.0
  0
ELLIPSE
  5
437
330
1F
100
AcDbEntity
  8
0
  6
Continuous
 62
     7
370
    25
100
AcDbEllipse
 10
370.4595722418
 20
226.6511842578
 30
0.0
 11
0.0
 21
2.699999999999988
 31
0.0
210
0.0
220
0.0
230
1.0
 40
0.0349207695
 41
0.4605539916815678
 42
1.570796326794897
  0
LINE
  5
438
330
1F
100
AcDbEntity
  8
0
  6
Continuous
 62
     7
370
    25
100
AcDbLine
 10
372.3652861642
 20
229.0698615823
 30
0.0
 11
372.3652861642
 21
226.6511842578
 31
0.0
  0
LINE
  5
439
330
1F
100
AcDbEntity
  8
0
  6
Continuous
 62
     7
370
    25
100
AcDbLine
 10
333.1152861642
 20
217.0698615823
 30
0.0
 11
336.6152861642
 21
217.0698615823
 31
0.0
  0
ARC
  5
43A
330
1F
100
AcDbEntity
  8
0
  6
Continuous
 62
     7
370
    25
100
AcDbCircle
 10
336.6152861642
 20
219.0698615823
 30
0.0
 40
2.0
100
AcDbArc
 50
270.0
 51
90.0
  0
LINE
  5
43B
330
1F
100
AcDbEntity
  8
0
  6
Continuous
 62
     7
370
    25
100
AcDbLine
 10
336.6152861642
 20
221.0698615823
 30
0.0
 11
333.1152861642
 21
221.0698615823
 31
0.0
  0
ARC
  5
43C
330
1F
100
AcDbEntity
  8
0
  6
Continuous
 62
     7
370
    25
100
AcDbCircle
 10
333.1152861642
 20
219.0698615823
 30
0.0
 40
2.0
100
AcDbArc
 50
90.0
 51
270.0
  0
CIRCLE
  5
43D
330
1F
100
AcDbEntity
  8
0
  6
Continuous
 62
     7
370
    25
100
AcDbCircle
 10
334.8652861642
 20
199.0698615823
 30
0.0
 40
3.25
  0
CIRCLE
  5
43E
330
1F
100
AcDbEntity
  8
0
  6
Continuous
 62
     7
370
    25
100
AcDbCircle
 10
334.8652861642
 20
177.3198615823
 30
0.0
 40
10.75
  0
LINE
  5
43F
330
1F
100
AcDbEntity
  8
0
  6
Continuous
 62
     7
370
    25
100
AcDbLine
 10
372.3652861642
 20
226.6511842578
 30
0.0
 11
372.3652861642
 21
171.4885389068
 31
0.0
  0
LINE
  5
440
330
1F
100
AcDbEntity
  8
0
  6
Continuous
 62
     7
370
    25
100
AcDbLine
 10
362.4466088397
 20
161.5698615823
 30
0.0
 11
307.2839634887
 21
161.5698615823
 31
0.0
  0
LINE
  5
441
330
1F
100
AcDbEntity
  8
0
  6
Continuous
 62
     7
370
    25
100
AcDbLine
 10
362.4466088397
 20
236.5698615823
 30
0.0
 11
307.2839634887
 21
236.5698615823
 31
0.0
  0
LINE
  5
442
330
1F
100
AcDbEntity
  8
0
  6
Continuous
 62
     7
370
    25
100
AcDbLine
 10
297.3652861642
 20
226.6511842578
 30
0.0
 11
297.3652861642
 21
200.2185714298
 31
0.0
  0
LINE
  5
443
330
1F
100
AcDbEntity
  8
0
  6
Continuous
 62
     7
370
    25
100
AcDbLine
 10
297.3652861642
 20
196.8674523002
 30
0.0
 11
297.3652861642
 21
171.4885389068
 31
0.0
  0
CIRCLE
  5
444
330
1F
100
AcDbEntity
  8
0
  6
Continuous
 62
     7
370
    25
100
AcDbCircle
 10
334.8652861642
 20
177.3198615823
 30
0.0
 40
9.223809422881175
  0
ARC
  5
445
330
1F
100
AcDbEntity
  8
0
  6
Continuous
 62
     7
370
    25
100
AcDbCircle
 10
333.1152861642
 20
219.0698615823
 30
0.0
 40
1.0
100
AcDbArc
 50
90.0
 51
270.0
  0
ARC
  5
446
330
1F
100
AcDbEntity
  8
0
  6
Continuous
 62
     7
370
    25
100
AcDbCircle
 10
336.6152861642
 20
219.0698615823
 30
0.0
 40
1.0
100
AcDbArc
 50
270.0
 51
90.0
  0
LINE
  5
447
330
1F
100
AcDbEntity
  8
0
  6
Continuous
 62
     7
370
    25
100
AcDbLine
 10
333.1152861642
 20
218.0698615823
 30
0.0
 11
336.6152861642
 21
218.0698615823
 31
0.0
  0
LINE
  5
448
330
1F
100
AcDbEntity
  8
0
  6
Continuous
 62
     7
370
    25
100
AcDbLine
 10
336.6152861642
 20
220.0698615823
 30
0.0
 11
333.1152861642
 21
220.0698615823
 31
0.0
  0
CIRCLE
  5
449
330
1F
100
AcDbEntity
  8
0
  6
Continuous
 62
     7
370
    25
100
AcDbCircle
 10
334.8652861642
 20
199.0698615823
 30
0.0
 40
2.25
  0
ARC
  5
44A
330
1F
100
AcDbEntity
  8
0
  6
Continuous
 62
     7
370
    25
100
AcDbCircle
 10
336.6152861642
 20
219.0698615823
 30
0.0
 40
1.019450166676393
100
AcDbArc
 50
270.0
 51
90.0
  0
ARC
  5
44B
330
1F
100
AcDbEntity
  8
0
  6
Continuous
 62
     7
370
    25
100
AcDbCircle
 10
318.8824417768
 20
237.0698615823
 30
0.0
 40
0.5
100
AcDbArc
 50
270.0
 51
358.0
  0
ARC
  5
44C
330
1F
100
AcDbEntity
  8
0
  6
Continuous
 62
     7
370
    25
100
AcDbCircle
 10
350.8481305516
 20
161.0698615823
 30
0.0
 40
0.500000000000037
100
AcDbArc
 50
90.0
 51
178.0
  0
ARC
  5
44D
330
1F
100
AcDbEntity
  8
0
  6
Continuous
 62
     7
370
    25
100
AcDbCircle
 10
372.8652861642
 20
183.0870171949
 30
0.0
 40
0.5
100
AcDbArc
 50
92.0
 51
180.0
  0
ARC
  5
44E
330
1F
100
AcDbEntity
  8
0
  6
Continuous
 62
     7
370
    25
100
AcDbCircle
 10
296.8652861642
 20
215.0527059697
 30
0.0
 40
0.5000000000000077
100
AcDbArc
 50
272.0
 51
0.0
  0
LINE
  5
44F
330
1F
100
AcDbEntity
  8
0
  6
Continuous
 62
     7
370
    25
100
AcDbLine
 10
319.4008162923
 20
237.5873113306
 30
0.0
 11
319.3821371903
 21
237.0524118339
 31
0.0
  0
LINE
  5
450
330
1F
100
AcDbEntity
  8
0
  6
Continuous
 62
     7
370
    25
100
AcDbLine
 10
350.3297560361
 20
160.5524118339
 30
0.0
 11
350.3484351381
 21
161.0873113306
 31
0.0
  0
LINE
  5
451
330
1F
100
AcDbEntity
  8
0
  6
Continuous
 62
     7
370
    25
100
AcDbLine
 10
373.3827359126
 20
183.6053917104
 30
0.0
 11
372.8478364159
 21
183.5867126084
 31
0.0
  0
ARC
  5
452
330
1F
100
AcDbEntity
  8
0
  6
Continuous
 62
     7
370
    25
100
AcDbCircle
 10
319.9005117058
 20
237.5698615823
 30
0.0
 40
0.5
100
AcDbArc
 50
90.0
 51
178.0
  0
LINE
  5
453
330
1F
100
AcDbEntity
  8
0
  6
Continuous
 62
     7
370
    25
100
AcDbLine
 10
319.9005117058
 20
238.0698615823
 30
0.0
 11
349.7707903104
 21
238.0698615823
 31
0.0
  0
ARC
  5
454
330
1F
100
AcDbEntity
  8
0
  6
Continuous
 62
     7
370
    25
100
AcDbCircle
 10
349.8300606226
 20
160.5698615823
 30
0.0
 40
0.500000000000037
100
AcDbArc
 50
270.0
 51
358.0
  0
LINE
  5
455
330
1F
100
AcDbEntity
  8
0
  6
Continuous
 62
     7
370
    25
100
AcDbLine
 10
349.8300606226
 20
160.0698615823
 30
0.0
 11
319.959782018
 21
160.0698615823
 31
0.0
  0
LINE
  5
456
330
1F
100
AcDbEntity
  8
0
  6
Continuous
 62
     7
370
    25
100
AcDbLine
 10
373.8652861642
 20
213.9753657284
 30
0.0
 11
373.8652861642
 21
184.1050871239
 31
0.0
  0
ARC
  5
457
330
1F
100
AcDbEntity
  8
0
  6
Continuous
 62
     7
370
    25
100
AcDbCircle
 10
373.3652861642
 20
184.1050871239
 30
0.0
 40
0.5
100
AcDbArc
 50
272.0
 51
0.0
  0
LINE
  5
458
330
1F
100
AcDbEntity
  8
0
  6
Continuous
 62
     7
370
    25
100
AcDbLine
 10
296.3478364159
 20
214.5343314541
 30
0.0
 11
296.8827359126
 21
214.5530105562
 31
0.0
  0
LINE
  5
459
330
1F
100
AcDbEntity
  8
0
  6
Continuous
 62
     7
370
    25
100
AcDbLine
 10
295.8652861642
 20
201.1587304357
 30
0.0
 11
295.8652861642
 21
214.0346360406
 31
0.0
  0
ARC
  5
45A
330
1F
100
AcDbEntity
  8
0
  6
Continuous
 62
     7
370
    25
100
AcDbCircle
 10
296.3652861642
 20
214.0346360406
 30
0.0
 40
0.5000000000000568
100
AcDbArc
 50
92.0
 51
180.0
  0
LINE
  5
45B
330
1F
100
AcDbEntity
  8
0
  6
Continuous
 62
     7
370
    25
100
AcDbLine
 10
295.8652861642
 20
184.1643574361
 30
0.0
 11
295.8652861642
 21
196.3214969488
 31
0.0
  0
SPLINE
  5
45C
330
1F
100
AcDbEntity
  8
0
  6
Continuous
 62
     7
370
    25
100
AcDbSpline
210
0.0
220
0.0
230
1.0
 70
    24
 71
     3
 72
    14
 73
    10
 74
     0
 42
0.00000001
 43
0.00000001
 40
0.0
 40
0.0
 40
0.0
 40
0.0
 40
0.5000000000000024
 40
0.5000000000000024
 40
0.6250000000000018
 40
0.6250000000000018
 40
0.7500000000000012
 40
0.7500000000000012
 40
1.0
 40
1.0
 40
1.0
 40
1.0
 10
295.8652861642043
 20
182.6712085593264
 30
0.0
 10
295.8652861642043
 20
183.0447198156363
 30
0.0
 10
295.8652861642043
 20
183.410250173547
 30
0.0
 10
295.8652861642043
 20
183.7516022834744
 30
0.0
 10
295.8652861642043
 20
183.8147008583138
 30
0.0
 10
295.8652861642043
 20
183.9253660932133
 30
0.0
 10
295.8652861642043
 20
183.9737098958404
 30
0.0
 10
295.8652861642043
 20
184.0972690664309
 30
0.0
 10
295.8652861642043
 20
184.1477523847206
 30
0.0
 10
295.8652861642043
 20
184.1643574360991
 30
0.0
  0
SPLINE
  5
45D
330
1F
100
AcDbEntity
  8
0
  6
Continuous
 62
     7
370
    25
100
AcDbSpline
210
0.0
220
0.0
230
1.0
 70
    24
 71
     3
 72
    14
 73
    10
 74
     0
 42
0.00000001
 43
0.00000001
 40
0.0
 40
0.0
 40
0.0
 40
0.0
 40
0.5000000000000024
 40
0.5000000000000024
 40
0.6250000000000018
 40
0.6250000000000018
 40
0.7500000000000012
 40
0.7500000000000012
 40
1.0
 40
1.0
 40
1.0
 40
1.0
 10
373.8652861642044
 20
215.468514605197
 30
0.0
 10
373.8652861642044
 20
215.0950033488871
 30
0.0
 10
373.8652861642044
 20
214.7294729909763
 30
0.0
 10
373.8652861642044
 20
214.388120881049
 30
0.0
 10
373.8652861642044
 20
214.3250223062096
 30
0.0
 10
373.8652861642044
 20
214.2143570713101
 30
0.0
 10
373.8652861642044
 20
214.166013268683
 30
0.0
 10
373.8652861642044
 20
214.0424540980925
 30
0.0
 10
373.8652861642044
 20
213.9919707798028
 30
0.0
 10
373.8652861642044
 20
213.9753657284243
 30
0.0
  0
SPLINE
  5
45E
330
1F
100
AcDbEntity
  8
0
  6
Continuous
 62
     7
370
    25
100
AcDbSpline
210
0.0
220
0.0
230
1.0
 70
    24
 71
     3
 72
    14
 73
    10
 74
     0
 42
0.00000001
 43
0.00000001
 40
0.0
 40
0.0
 40
0.0
 40
0.0
 40
0.5000000000000052
 40
0.5000000000000052
 40
0.6250000000000054
 40
0.6250000000000054
 40
0.7500000000000036
 40
0.7500000000000036
 40
1.0
 40
1.0
 40
1.0
 40
1.0
 10
319.9597820180418
 20
160.0698615822617
 30
0.0
 10
319.926571797263
 20
160.0698615822617
 30
0.0
 10
319.7514461544869
 20
160.0698615822617
 30
0.0
 10
319.4099509903549
 20
160.0698615822617
 30
0.0
 10
319.335017625936
 20
160.0698615822617
 30
0.0
 10
319.1783561306966
 20
160.0698615822617
 30
0.0
 10
319.0959344426706
 20
160.0698615822617
 30
0.0
 10
318.8361004889101
 20
160.0698615822617
 30
0.0
 10
318.6533881059398
 20
160.0698615822617
 30
0.0
 10
318.4666331412691
 20
160.0698615822617
 30
0.0
  0
SPLINE
  5
45F
330
1F
100
AcDbEntity
  8
0
  6
Continuous
 62
     7
370
    25
100
AcDbSpline
210
0.0
220
0.0
230
1.0
 70
    24
 71
     3
 72
    14
 73
    10
 74
     0
 42
0.00000001
 43
0.00000001
 40
0.0
 40
0.0
 40
0.0
 40
0.0
 40
0.5000000000000052
 40
0.5000000000000052
 40
0.6250000000000054
 40
0.6250000000000054
 40
0.7500000000000036
 40
0.7500000000000036
 40
1.0
 40
1.0
 40
1.0
 40
1.0
 10
349.770790310367
 20
238.0698615822617
 30
0.0
 10
349.8040005311458
 20
238.0698615822617
 30
0.0
 10
349.9791261739218
 20
238.0698615822617
 30
0.0
 10
350.3206213380539
 20
238.0698615822617
 30
0.0
 10
350.3955547024728
 20
238.0698615822617
 30
0.0
 10
350.5522161977122
 20
238.0698615822617
 30
0.0
 10
350.6346378857381
 20
238.0698615822617
 30
0.0
 10
350.8944718394986
 20
238.0698615822617
 30
0.0
 10
351.0771842224689
 20
238.0698615822617
 30
0.0
 10
351.2639391871397
 20
238.0698615822617
 30
0.0
  0
ARC
  5
460
330
1F
100
AcDbEntity
  8
0
  6
Continuous
 62
     7
370
    25
100
AcDbCircle
 10
303.8652861642
 20
168.0698615823
 30
0.0
 40
8.000000000000057
100
AcDbArc
 50
180.0
 51
225.0
  0
LINE
  5
461
330
1F
100
AcDbEntity
  8
0
  6
Continuous
 62
     7
370
    25
100
AcDbLine
 10
295.8652861642
 20
168.0698615823
 30
0.0
 11
295.8652861642
 21
169.0346360406
 31
0.0
  0
ARC
  5
462
330
1F
100
AcDbEntity
  8
0
  6
Continuous
 62
     7
370
    25
100
AcDbCircle
 10
303.8652861642
 20
168.0698615823
 30
0.0
 40
8.000000000000044
100
AcDbArc
 50
225.0
 51
270.0
  0
LINE
  5
463
330
1F
100
AcDbEntity
  8
0
  6
Continuous
 62
     7
370
    25
100
AcDbLine
 10
304.8300606226
 20
160.0698615823
 30
0.0
 11
303.8652861642
 21
160.0698615823
 31
0.0
  0
LINE
  5
464
330
1F
100
AcDbEntity
  8
0
  6
Continuous
 62
     7
370
    25
100
AcDbLine
 10
364.9005117058
 20
238.0698615823
 30
0.0
 11
365.8652861642
 21
238.0698615823
 31
0.0
  0
ARC
  5
465
330
1F
100
AcDbEntity
  8
0
  6
Continuous
 62
     7
370
    25
100
AcDbCircle
 10
365.8652861642
 20
230.0698615823
 30
0.0
 40
8.000000000000025
100
AcDbArc
 50
45.0
 51
90.0
  0
ARC
  5
466
330
1F
100
AcDbEntity
  8
0
  6
Continuous
 62
     7
370
    25
100
AcDbCircle
 10
365.8652861642
 20
230.0698615823
 30
0.0
 40
8.000000000000025
100
AcDbArc
 50
0.0
 51
45.0
  0
LINE
  5
467
330
1F
100
AcDbEntity
  8
0
  6
Continuous
 62
     7
370
    25
100
AcDbLine
 10
373.8652861642
 20
230.0698615823
 30
0.0
 11
373.8652861642
 21
229.1050871239
 31
0.0
  0
LINE
  5
468
330
1F
100
AcDbEntity
  8
0
  6
Continuous
 62
     7
370
    25
100
AcDbLine
 10
295.8652861642
 20
169.0346360406
 30
0.0
 11
295.8652861642
 21
170.0139543952
 31
0.0
  0
LINE
  5
469
330
1F
100
AcDbEntity
  8
0
  6
Continuous
 62
     7
370
    25
100
AcDbLine
 10
305.8093789772
 20
160.0698615823
 30
0.0
 11
304.8300606226
 21
160.0698615823
 31
0.0
  0
LINE
  5
46A
330
1F
100
AcDbEntity
  8
0
  6
Continuous
 62
     7
370
    25
100
AcDbLine
 10
363.9211933512
 20
238.0698615823
 30
0.0
 11
364.9005117058
 21
238.0698615823
 31
0.0
  0
LINE
  5
46B
330
1F
100
AcDbEntity
  8
0
  6
Continuous
 62
     7
370
    25
100
AcDbLine
 10
373.8652861642
 20
229.1050871239
 30
0.0
 11
373.8652861642
 21
228.1257687693
 31
0.0
  0
LINE
  5
46C
330
1F
100
AcDbEntity
  8
0
  6
Continuous
 62
     7
370
    25
100
AcDbLine
 10
295.8652861642
 20
170.0139543952
 30
0.0
 11
295.8652861642
 21
182.6712085593
 31
0.0
  0
LINE
  5
46D
330
1F
100
AcDbEntity
  8
0
  6
Continuous
 62
     7
370
    25
100
AcDbLine
 10
318.4666331413
 20
160.0698615823
 30
0.0
 11
305.8093789772
 21
160.0698615823
 31
0.0
  0
LINE
  5
46E
330
1F
100
AcDbEntity
  8
0
  6
Continuous
 62
     7
370
    25
100
AcDbLine
 10
351.2639391871
 20
238.0698615823
 30
0.0
 11
363.9211933512
 21
238.0698615823
 31
0.0
  0
LINE
  5
46F
330
1F
100
AcDbEntity
  8
0
  6
Continuous
 62
     7
370
    25
100
AcDbLine
 10
373.8652861642
 20
228.1257687693
 30
0.0
 11
373.8652861642
 21
215.4685146052
 31
0.0
  0
LINE
  5
470
330
1F
100
AcDbEntity
  8
0
  6
Continuous
 62
     7
370
    25
100
AcDbLine
 10
295.8652861642
 20
214.0346360406
 30
0.0
 11
295.8652861642
 21
215.5337222811
 31
0.0
  0
LINE
  5
471
330
1F
100
AcDbEntity
  8
0
  6
Continuous
 62
     7
370
    25
100
AcDbLine
 10
318.4014254653
 20
238.0698615823
 30
0.0
 11
319.9005117058
 21
238.0698615823
 31
0.0
  0
LINE
  5
472
330
1F
100
AcDbEntity
  8
0
  6
Continuous
 62
     7
370
    25
100
AcDbLine
 10
351.3291468631
 20
160.0698615823
 30
0.0
 11
349.8300606226
 21
160.0698615823
 31
0.0
  0
LINE
  5
473
330
1F
100
AcDbEntity
  8
0
  6
Continuous
 62
     7
370
    25
100
AcDbLine
 10
373.8652861642
 20
184.1050871239
 30
0.0
 11
373.8652861642
 21
182.6060008834
 31
0.0
  0
LINE
  5
474
330
1F
100
AcDbEntity
  8
0
  6
Continuous
 62
     7
370
    25
100
AcDbLine
 10
295.8652861642
 20
229.1050871239
 30
0.0
 11
295.8652861642
 21
230.0698615823
 31
0.0
  0
ARC
  5
475
330
1F
100
AcDbEntity
  8
0
  6
Continuous
 62
     7
370
    25
100
AcDbCircle
 10
303.8652861642
 20
230.0698615823
 30
0.0
 40
8.000000000000064
100
AcDbArc
 50
135.0
 51
180.0
  0
ARC
  5
476
330
1F
100
AcDbEntity
  8
0
  6
Continuous
 62
     7
370
    25
100
AcDbCircle
 10
303.8652861642
 20
230.0698615823
 30
0.0
 40
8.000000000000064
100
AcDbArc
 50
90.0
 51
135.0
  0
LINE
  5
477
330
1F
100
AcDbEntity
  8
0
  6
Continuous
 62
     7
370
    25
100
AcDbLine
 10
303.8652861642
 20
238.0698615823
 30
0.0
 11
304.8300606226
 21
238.0698615823
 31
0.0
  0
LINE
  5
478
330
1F
100
AcDbEntity
  8
0
  6
Continuous
 62
     7
370
    25
100
AcDbLine
 10
365.8652861642
 20
160.0698615823
 30
0.0
 11
364.9005117058
 21
160.0698615823
 31
0.0
  0
ARC
  5
479
330
1F
100
AcDbEntity
  8
0
  6
Continuous
 62
     7
370
    25
100
AcDbCircle
 10
365.8652861642
 20
168.0698615823
 30
0.0
 40
8.000000000000004
100
AcDbArc
 50
270.0
 51
315.0
  0
ARC
  5
47A
330
1F
100
AcDbEntity
  8
0
  6
Continuous
 62
     7
370
    25
100
AcDbCircle
 10
365.8652861642
 20
168.0698615823
 30
0.0
 40
8.000000000000004
100
AcDbArc
 50
315.0
 51
0.0
  0
LINE
  5
47B
330
1F
100
AcDbEntity
  8
0
  6
Continuous
 62
     7
370
    25
100
AcDbLine
 10
373.8652861642
 20
169.0346360406
 30
0.0
 11
373.8652861642
 21
168.0698615823
 31
0.0
  0
LINE
  5
47C
330
1F
100
AcDbEntity
  8
0
  6
Continuous
 62
     7
370
    25
100
AcDbLine
 10
295.8652861642
 20
228.1257687693
 30
0.0
 11
295.8652861642
 21
229.1050871239
 31
0.0
  0
LINE
  5
47D
330
1F
100
AcDbEntity
  8
0
  6
Continuous
 62
     7
370
    25
100
AcDbLine
 10
304.8300606226
 20
238.0698615823
 30
0.0
 11
305.8093789772
 21
238.0698615823
 31
0.0
  0
LINE
  5
47E
330
1F
100
AcDbEntity
  8
0
  6
Continuous
 62
     7
370
    25
100
AcDbLine
 10
364.9005117058
 20
160.0698615823
 30
0.0
 11
363.9211933512
 21
160.0698615823
 31
0.0
  0
LINE
  5
47F
330
1F
100
AcDbEntity
  8
0
  6
Continuous
 62
     7
370
    25
100
AcDbLine
 10
373.8652861642
 20
170.0139543952
 30
0.0
 11
373.8652861642
 21
169.0346360406
 31
0.0
  0
LINE
  5
480
330
1F
100
AcDbEntity
  8
0
  6
Continuous
 62
     7
370
    25
100
AcDbLine
 10
295.8652861642
 20
215.5337222811
 30
0.0
 11
295.8652861642
 21
228.1257687693
 31
0.0
  0
LINE
  5
481
330
1F
100
AcDbEntity
  8
0
  6
Continuous
 62
     7
370
    25
100
AcDbLine
 10
305.8093789772
 20
238.0698615823
 30
0.0
 11
318.4014254653
 21
238.0698615823
 31
0.0
  0
LINE
  5
482
330
1F
100
AcDbEntity
  8
0
  6
Continuous
 62
     7
370
    25
100
AcDbLine
 10
363.9211933512
 20
160.0698615823
 30
0.0
 11
351.3291468631
 21
160.0698615823
 31
0.0
  0
LINE
  5
483
330
1F
100
AcDbEntity
  8
0
  6
Continuous
 62
     7
370
    25
100
AcDbLine
 10
373.8652861642
 20
182.6060008834
 30
0.0
 11
373.8652861642
 21
170.0139543952
 31
0.0
  0
ARC
  5
484
330
1F
100
AcDbEntity
  8
0
  6
Continuous
 62
     7
370
    25
100
AcDbCircle
 10
354.8652861642
 20
197.3198615823
 30
0.0
 40
3.466297947787935
100
AcDbArc
 50
190.5174224987
 51
210.6639123839
  0
ARC
  5
485
330
1F
100
AcDbEntity
  8
0
  6
Continuous
 62
     7
370
    25
100
AcDbCircle
 10
354.8652861642
 20
197.3198615823
 30
0.0
 40
3.447618845762361
100
AcDbArc
 50
190.5075606668
 51
210.7667686158
  0
ARC
  5
486
330
1F
100
AcDbEntity
  8
0
  6
Continuous
 62
     7
370
    25
100
AcDbCircle
 10
354.8652861642
 20
197.3198615823
 30
0.0
 40
2.052381154237581
100
AcDbArc
 50
189.2629207542
 51
224.4140768431
  0
LINE
  5
487
330
1F
100
AcDbEntity
  8
0
  6
Continuous
 62
     7
370
    25
100
AcDbLine
 10
314.2652861642
 20
195.6222427365
 30
0.0
 11
315.4652861642
 21
195.6222427365
 31
0.0
  0
LINE
  5
488
330
1F
100
AcDbEntity
  8
0
  6
Continuous
 62
     7
370
    25
100
AcDbLine
 10
314.2652861642
 20
197.017480428
 30
0.0
 11
315.4652861642
 21
197.017480428
 31
0.0
  0
ARC
  5
489
330
1F
100
AcDbEntity
  8
0
  6
Continuous
 62
     7
370
    25
100
AcDbCircle
 10
313.0652861642
 20
199.0698615823
 30
0.0
 40
1.0
100
AcDbArc
 50
90.0
 51
270.0
  0
LINE
  5
48A
330
1F
100
AcDbEntity
  8
0
  6
Continuous
 62
     7
370
    25
100
AcDbLine
 10
313.0652861642
 20
200.0698615823
 30
0.0
 11
316.6652861642
 21
200.0698615823
 31
0.0
  0
LINE
  5
48B
330
1F
100
AcDbEntity
  8
0
  6
Continuous
 62
     7
370
    25
100
AcDbLine
 10
316.6652861642
 20
198.0698615823
 30
0.0
 11
313.0652861642
 21
198.0698615823
 31
0.0
  0
ARC
  5
48C
330
1F
100
AcDbEntity
  8
0
  6
Continuous
 62
     7
370
    25
100
AcDbCircle
 10
316.6652861642
 20
199.0698615823
 30
0.0
 40
1.0
100
AcDbArc
 50
270.0
 51
90.0
  0
ARC
  5
48D
330
1F
100
AcDbEntity
  8
0
  6
Continuous
 62
     7
370
    25
100
AcDbCircle
 10
354.8652861642
 20
197.2698615823
 30
0.0
 40
1.0
100
AcDbArc
 50
180.0
 51
0.0
  0
ARC
  5
48E
330
1F
100
AcDbEntity
  8
0
  6
Continuous
 62
     7
370
    25
100
AcDbCircle
 10
354.8652861642
 20
200.8698615823
 30
0.0
 40
1.0
100
AcDbArc
 50
0.0
 51
180.0
  0
LINE
  5
48F
330
1F
100
AcDbEntity
  8
0
  6
Continuous
 62
     7
370
    25
100
AcDbLine
 10
353.8652861642
 20
197.2698615823
 30
0.0
 11
353.8652861642
 21
200.8698615823
 31
0.0
  0
LINE
  5
490
330
1F
100
AcDbEntity
  8
0
  6
Continuous
 62
     7
370
    25
100
AcDbLine
 10
355.8652861642
 20
200.8698615823
 30
0.0
 11
355.8652861642
 21
197.2698615823
 31
0.0
  0
LINE
  5
491
330
1F
100
AcDbEntity
  8
0
  6
Continuous
 62
     7
370
    25
100
AcDbLine
 10
316.6152861642
 20
201.0940623774
 30
0.0
 11
313.1152861642
 21
201.0940623774
 31
0.0
  0
ARC
  5
492
330
1F
100
AcDbEntity
  8
0
  6
Continuous
 62
     7
370
    25
100
AcDbCircle
 10
316.6152861642
 20
199.0698615823
 30
0.0
 40
2.024200795188278
100
AcDbArc
 50
270.0
 51
90.0
  0
LINE
  5
493
330
1F
100
AcDbEntity
  8
0
  6
Continuous
 62
     7
370
    25
100
AcDbLine
 10
313.1152861642
 20
197.0456607871
 30
0.0
 11
316.6152861642
 21
197.0456607871
 31
0.0
  0
ARC
  5
494
330
1F
100
AcDbEntity
  8
0
  6
Continuous
 62
     7
370
    25
100
AcDbCircle
 10
313.1152861642
 20
199.0698615823
 30
0.0
 40
2.024200795188278
100
AcDbArc
 50
90.0
 51
270.0
  0
LINE
  5
495
330
1F
100
AcDbEntity
  8
0
  6
Continuous
 62
     7
370
    25
100
AcDbLine
 10
356.8894869594
 20
197.3198615823
 30
0.0
 11
356.8894869594
 21
200.8198615823
 31
0.0
  0
ARC
  5
496
330
1F
100
AcDbEntity
  8
0
  6
Continuous
 62
     7
370
    25
100
AcDbCircle
 10
354.8652861642
 20
197.3198615823
 30
0.0
 40
2.024200795188335
100
AcDbArc
 50
180.0
 51
0.0
  0
LINE
  5
497
330
1F
100
AcDbEntity
  8
0
  6
Continuous
 62
     7
370
    25
100
AcDbLine
 10
352.841085369
 20
200.8198615823
 30
0.0
 11
352.841085369
 21
197.3198615823
 31
0.0
  0
ARC
  5
498
330
1F
100
AcDbEntity
  8
0
  6
Continuous
 62
     7
370
    25
100
AcDbCircle
 10
354.8652861642
 20
200.8198615823
 30
0.0
 40
2.024200795188335
100
AcDbArc
 50
0.0
 51
180.0
  0
LINE
  5
499
330
1F
100
AcDbEntity
  8
0
  6
Continuous
 62
     7
370
    25
100
AcDbLine
 10
297.3652861642
 20
200.2185714298
 30
0.0
 11
297.3652861642
 21
196.8674523002
 31
0.0
  0
LINE
  5
49A
330
1F
100
AcDbEntity
  8
0
  6
Continuous
 62
     7
370
    25
100
AcDbLine
 10
295.8652861642
 20
196.3214969488
 30
0.0
 11
295.8652861642
 21
201.1587304357
 31
0.0
  0
ENDSEC
  0
SECTION
  2
OBJECTS
  0
DICTIONARY
  5
C
330
0
100
AcDbDictionary
281
     1
  3
ACAD_GROUP
350
D
  3
ACAD_LAYOUT
350
1A
  3
ACAD_MLINESTYLE
350
17
  3
ACAD_PLOTSETTINGS
350
19
  3
ACAD_PLOTSTYLENAME
350
E
  3
ACAD_SCALELIST
350
47
  3
DWGPROPS
350
49B
  0
DICTIONARY
  5
D
102
{ACAD_REACTORS
330
C
102
}
330
C
100
AcDbDictionary
281
     1
  0
DICTIONARY
  5
1A
102
{ACAD_REACTORS
330
C
102
}
330
C
100
AcDbDictionary
281
     1
  3
Layout1
350
1E
  3
Layout2
350
26
  3
Model
350
22
  0
DICTIONARY
  5
17
102
{ACAD_REACTORS
330
C
102
}
330
C
100
AcDbDictionary
281
     1
  3
Standard
350
18
  0
DICTIONARY
  5
19
102
{ACAD_REACTORS
330
C
102
}
330
C
100
AcDbDictionary
281
     1
  0
ACDBDICTIONARYWDFLT
  5
E
102
{ACAD_REACTORS
330
C
102
}
330
C
100
AcDbDictionary
281
     1
  3
Normal
350
F
100
AcDbDictionaryWithDefault
340
F
  0
DICTIONARY
  5
47
102
{ACAD_REACTORS
330
C
102
}
330
C
100
AcDbDictionary
281
     1
  3
A0
350
48
  3
A1
350
49
  3
A2
350
4A
  3
A3
350
4B
  3
A4
350
4C
  3
A5
350
4D
  3
A6
350
4E
  3
A7
350
4F
  3
A8
350
50
  3
A9
350
51
  3
B0
350
52
  3
B1
350
53
  3
B2
350
54
  3
B3
350
55
  3
B4
350
56
  3
B5
350
57
  3
B6
350
58
  0
XRECORD
  5
49B
102
{ACAD_REACTORS
330
C
102
}
330
C
100
AcDbXrecord
280
     1
  1
DWGPROPS COOKIE
  2

  3

  4

  6

  7

  8
grigorievsin
  9

300
=
301
=
302
=
303
=
304
=
305
=
306
=
307
=
308
=
309
=
 40
0.0
 41
2459786.38199478
 42
2459786.381996736
  1

 90
        0
  0
LAYOUT
  5
1E
102
{ACAD_REACTORS
330
1A
102
}
330
1A
100
AcDbPlotSettings
  1

  2
none_device
  4

  6

 40
0.0
 41
0.0
 42
0.0
 43
0.0
 44
0.0
 45
0.0
 46
0.0
 47
0.0
 48
0.0
 49
0.0
140
0.0
141
0.0
142
1.0
143
1.0
 70
   688
 72
     1
 73
     0
 74
     5
  7

 75
    16
147
1.0
148
0.0
149
0.0
100
AcDbLayout
  1
Layout1
 70
     1
 71
     1
 10
0.0
 20
0.0
 11
420.0
 21
297.0
 12
0.0
 22
0.0
 32
0.0
 14
1.0000000000E+20
 24
1.0000000000E+20
 34
1.0000000000E+20
 15
-1.0000000000E+20
 25
-1.0000000000E+20
 35
-1.0000000000E+20
146
0.0
 13
0.0
 23
0.0
 33
0.0
 16
1.0
 26
0.0
 36
0.0
 17
0.0
 27
1.0
 37
0.0
 76
     0
330
1B
  0
LAYOUT
  5
26
102
{ACAD_REACTORS
330
1A
102
}
330
1A
100
AcDbPlotSettings
  1

  2
none_device
  4

  6

 40
0.0
 41
0.0
 42
0.0
 43
0.0
 44
0.0
 45
0.0
 46
0.0
 47
0.0
 48
0.0
 49
0.0
140
0.0
141
0.0
142
1.0
143
1.0
 70
   688
 72
     1
 73
     0
 74
     5
  7

 75
    16
147
1.0
148
0.0
149
0.0
100
AcDbLayout
  1
Layout2
 70
     1
 71
     2
 10
0.0
 20
0.0
 11
0.0
 21
0.0
 12
0.0
 22
0.0
 32
0.0
 14
0.0
 24
0.0
 34
0.0
 15
0.0
 25
0.0
 35
0.0
146
0.0
 13
0.0
 23
0.0
 33
0.0
 16
1.0
 26
0.0
 36
0.0
 17
0.0
 27
1.0
 37
0.0
 76
     0
330
23
  0
LAYOUT
  5
22
102
{ACAD_REACTORS
330
1A
102
}
330
1A
100
AcDbPlotSettings
  1

  2
none_device
  4
Letter_(8.50_x_11.00_Inches)
  6

 40
6.35
 41
6.35
 42
6.35000508
 43
6.35000508
 44
215.9
 45
279.4
 46
0.0
 47
0.0
 48
0.0
 49
0.0
140
0.0
141
0.0
142
1.0
143
1.0
 70
  1712
 72
     1
 73
     0
 74
     0
  7

 75
     0
147
1.0
148
0.0
149
0.0
100
AcDbLayout
  1
Model
 70
     1
 71
     0
 10
0.0
 20
0.0
 11
597.0
 21
420.0
 12
0.0
 22
0.0
 32
0.0
 14
0.0
 24
0.0
 34
0.0
 15
597.0
 25
420.0
 35
0.0
146
0.0
 13
0.0
 23
0.0
 33
0.0
 16
1.0
 26
0.0
 36
0.0
 17
0.0
 27
1.0
 37
0.0
 76
     0
330
1F
331
29
  0
MLINESTYLE
  5
18
102
{ACAD_REACTORS
330
17
102
}
330
17
100
AcDbMlineStyle
  2
Standard
 70
     0
  3

 62
   256
 51
90.0
 52
90.0
 71
     2
 49
0.5
 62
   256
  6
BYLAYER
 49
-0.5
 62
   256
  6
BYLAYER
  0
ACDBPLACEHOLDER
  5
F
102
{ACAD_REACTORS
330
E
102
}
330
E
  0
SCALE
  5
48
102
{ACAD_REACTORS
330
47
102
}
330
47
100
AcDbScale
 70
     0
300
1:1
140
1.0
141
1.0
290
     1
  0
SCALE
  5
49
102
{ACAD_REACTORS
330
47
102
}
330
47
100
AcDbScale
 70
     0
300
1:2
140
1.0
141
2.0
290
     0
  0
SCALE
  5
4A
102
{ACAD_REACTORS
330
47
102
}
330
47
100
AcDbScale
 70
     0
300
1:4
140
1.0
141
4.0
290
     0
  0
SCALE
  5
4B
102
{ACAD_REACTORS
330
47
102
}
330
47
100
AcDbScale
 70
     0
300
1:5
140
1.0
141
5.0
290
     0
  0
SCALE
  5
4C
102
{ACAD_REACTORS
330
47
102
}
330
47
100
AcDbScale
 70
     0
300
1:8
140
1.0
141
8.0
290
     0
  0
SCALE
  5
4D
102
{ACAD_REACTORS
330
47
102
}
330
47
100
AcDbScale
 70
     0
300
1:10
140
1.0
141
10.0
290
     0
  0
SCALE
  5
4E
102
{ACAD_REACTORS
330
47
102
}
330
47
100
AcDbScale
 70
     0
300
1:16
140
1.0
141
16.0
290
     0
  0
SCALE
  5
4F
102
{ACAD_REACTORS
330
47
102
}
330
47
100
AcDbScale
 70
     0
300
1:20
140
1.0
141
20.0
290
     0
  0
SCALE
  5
50
102
{ACAD_REACTORS
330
47
102
}
330
47
100
AcDbScale
 70
     0
300
1:30
140
1.0
141
30.0
290
     0
  0
SCALE
  5
51
102
{ACAD_REACTORS
330
47
102
}
330
47
100
AcDbScale
 70
     0
300
1:40
140
1.0
141
40.0
290
     0
  0
SCALE
  5
52
102
{ACAD_REACTORS
330
47
102
}
330
47
100
AcDbScale
 70
     0
300
1:50
140
1.0
141
50.0
290
     0
  0
SCALE
  5
53
102
{ACAD_REACTORS
330
47
102
}
330
47
100
AcDbScale
 70
     0
300
1:100
140
1.0
141
100.0
290
     0
  0
SCALE
  5
54
102
{ACAD_REACTORS
330
47
102
}
330
47
100
AcDbScale
 70
     0
300
2:1
140
2.0
141
1.0
290
     0
  0
SCALE
  5
55
102
{ACAD_REACTORS
330
47
102
}
330
47
100
AcDbScale
 70
     0
300
4:1
140
4.0
141
1.0
290
     0
  0
SCALE
  5
56
102
{ACAD_REACTORS
330
47
102
}
330
47
100
AcDbScale
 70
     0
300
8:1
140
8.0
141
1.0
290
     0
  0
SCALE
  5
57
102
{ACAD_REACTORS
330
47
102
}
330
47
100
AcDbScale
 70
     0
300
10:1
140
10.0
141
1.0
290
     0
  0
SCALE
  5
58
102
{ACAD_REACTORS
330
47
102
}
330
47
100
AcDbScale
 70
     0
300
100:1
140
100.0
141
1.0
290
     0
  0
ENDSEC
  0
EOF
