ISO-10303-21;
HEADER;
FILE_DESCRIPTION (( 'STEP AP203' ),
    '1' );
FILE_NAME ('CTR11-AL-016-3 Òðóáà àëþìèíèåâàÿ d16ìì.STEP',
    '2016-05-17T12:42:33',
    ( '' ),
    ( '' ),
    'SwSTEP 2.0',
    'SolidWorks 2014',
    '' );
FILE_SCHEMA (( 'CONFIG_CONTROL_DESIGN' ));
ENDSEC;

DATA;
#1 = FACE_OUTER_BOUND ( 'NONE', #5, .T. ) ;
#2 = ADVANCED_FACE ( 'NONE', ( #97, #20 ), #6, .F. ) ;
#3 = PRODUCT_RELATED_PRODUCT_CATEGORY ( 'detail', '', ( #155 ) ) ;
#4 = PERSON_AND_ORGANIZATION ( #39, #23 ) ;
#5 = EDGE_LOOP ( 'NONE', ( #46 ) ) ;
#6 = PLANE ( 'NONE',  #87 ) ;
#7 = DATE_AND_TIME ( #142, #101 ) ;
#8 = DIRECTION ( 'NONE',  ( 1.000000000000000000, 0.0000000000000000000, 0.0000000000000000000 ) ) ;
#9 = CARTESIAN_POINT ( 'NONE',  ( 0.0000000000000000000, 0.0000000000000000000, 0.0000000000000000000 ) ) ;
#10 = CLOSED_SHELL ( 'NONE', ( #126, #2, #125, #38 ) ) ;
#11 = APPLICATION_PROTOCOL_DEFINITION ( 'international standard', 'config_control_design', 1994, #161 ) ;
#12 = APPROVAL_STATUS ( 'not_yet_approved' ) ;
#13 = COORDINATED_UNIVERSAL_TIME_OFFSET ( 3, 0, .AHEAD. ) ;
#14 = CARTESIAN_POINT ( 'NONE',  ( 3000.000000000000000, 0.0000000000000000000, 0.0000000000000000000 ) ) ;
#15 = ORIENTED_EDGE ( 'NONE', *, *, #120, .F. ) ;
#16 = APPROVAL_PERSON_ORGANIZATION ( #148, #145, #35 ) ;
#17 = AXIS2_PLACEMENT_3D ( 'NONE', #119, #49, #32 ) ;
#18 = APPROVAL_DATE_TIME ( #156, #145 ) ;
#19 = DIRECTION ( 'NONE',  ( 0.0000000000000000000, 0.0000000000000000000, -1.000000000000000000 ) ) ;
#20 = FACE_BOUND ( 'NONE', #112, .T. ) ;
#21 = APPLICATION_CONTEXT ( 'configuration controlled 3d designs of mechanical parts and assemblies' ) ;
#22 = PERSON_AND_ORGANIZATION_ROLE ( 'creator' ) ;
#23 = ORGANIZATION ( 'UNSPECIFIED', 'UNSPECIFIED', '' ) ;
#24 = LOCAL_TIME ( 15, 42, 33.00000000000000000, #164 ) ;
#25 = CYLINDRICAL_SURFACE ( 'NONE', #41, 7.000000000000000000 ) ;
#26 = CARTESIAN_POINT ( 'NONE',  ( 0.0000000000000000000, 0.0000000000000000000, -7.000000000000000000 ) ) ;
#27 = FACE_BOUND ( 'NONE', #37, .T. ) ;
#28 = DIRECTION ( 'NONE',  ( 0.0000000000000000000, 0.0000000000000000000, 1.000000000000000000 ) ) ;
#29 = COORDINATED_UNIVERSAL_TIME_OFFSET ( 3, 0, .AHEAD. ) ;
#30 = AXIS2_PLACEMENT_3D ( 'NONE', #31, #139, #163 ) ;
#31 = CARTESIAN_POINT ( 'NONE',  ( 0.0000000000000000000, 0.0000000000000000000, 0.0000000000000000000 ) ) ;
#32 = DIRECTION ( 'NONE',  ( 0.0000000000000000000, 0.0000000000000000000, -1.000000000000000000 ) ) ;
#33 = FACE_OUTER_BOUND ( 'NONE', #72, .T. ) ;
#34 = APPROVAL_ROLE ( '' ) ;
#35 = APPROVAL_ROLE ( '' ) ;
#36 = APPROVAL_PERSON_ORGANIZATION ( #4, #78, #34 ) ;
#37 = EDGE_LOOP ( 'NONE', ( #15 ) ) ;
#38 = ADVANCED_FACE ( 'NONE', ( #64, #33 ), #25, .F. ) ;
#39 = PERSON ( 'UNSPECIFIED', 'UNSPECIFIED', 'UNSPECIFIED', ('UNSPECIFIED'), ('UNSPECIFIED'), ('UNSPECIFIED') ) ;
#40 = APPROVAL_DATE_TIME ( #7, #78 ) ;
#41 = AXIS2_PLACEMENT_3D ( 'NONE', #134, #104, #28 ) ;
#42 = DATE_TIME_ROLE ( 'creation_date' ) ;
#43 = LOCAL_TIME ( 15, 42, 33.00000000000000000, #13 ) ;
#44 = CARTESIAN_POINT ( 'NONE',  ( 0.0000000000000000000, 0.0000000000000000000, 0.0000000000000000000 ) ) ;
#45 = CIRCLE ( 'NONE', #17, 8.000000000000000000 ) ;
#46 = ORIENTED_EDGE ( 'NONE', *, *, #143, .T. ) ;
#47 = DIRECTION ( 'NONE',  ( 0.0000000000000000000, 0.0000000000000000000, 1.000000000000000000 ) ) ;
#48 = PERSON_AND_ORGANIZATION_ROLE ( 'creator' ) ;
#49 = DIRECTION ( 'NONE',  ( 1.000000000000000000, 0.0000000000000000000, 0.0000000000000000000 ) ) ;
#50 = COORDINATED_UNIVERSAL_TIME_OFFSET ( 3, 0, .AHEAD. ) ;
#51 = CARTESIAN_POINT ( 'NONE',  ( 0.0000000000000000000, 0.0000000000000000000, 0.0000000000000000000 ) ) ;
#52 = CC_DESIGN_PERSON_AND_ORGANIZATION_ASSIGNMENT ( #58, #118, ( #155 ) ) ;
#53 =( LENGTH_UNIT ( ) NAMED_UNIT ( * ) SI_UNIT ( .MILLI., .METRE. ) );
#54 = DIRECTION ( 'NONE',  ( 1.000000000000000000, 0.0000000000000000000, 0.0000000000000000000 ) ) ;
#55 = AXIS2_PLACEMENT_3D ( 'NONE', #9, #47, #86 ) ;
#56 = APPROVAL_STATUS ( 'not_yet_approved' ) ;
#57 = CYLINDRICAL_SURFACE ( 'NONE', #158, 8.000000000000000000 ) ;
#58 = PERSON_AND_ORGANIZATION ( #39, #23 ) ;
#59 = DIRECTION ( 'NONE',  ( 1.000000000000000000, 0.0000000000000000000, 0.0000000000000000000 ) ) ;
#60 = CALENDAR_DATE ( 2016, 17, 5 ) ;
#61 = FACE_OUTER_BOUND ( 'NONE', #144, .T. ) ;
#62 = CIRCLE ( 'NONE', #99, 8.000000000000000000 ) ;
#63 = LOCAL_TIME ( 15, 42, 33.00000000000000000, #29 ) ;
#64 = FACE_OUTER_BOUND ( 'NONE', #137, .T. ) ;
#65 = DIRECTION ( 'NONE',  ( 0.0000000000000000000, 0.0000000000000000000, -1.000000000000000000 ) ) ;
#66 = DIRECTION ( 'NONE',  ( -1.000000000000000000, -0.0000000000000000000, -0.0000000000000000000 ) ) ;
#67 = CARTESIAN_POINT ( 'NONE',  ( 0.0000000000000000000, 0.0000000000000000000, -8.000000000000000000 ) ) ;
#68 = COORDINATED_UNIVERSAL_TIME_OFFSET ( 3, 0, .AHEAD. ) ;
#69 = ORIENTED_EDGE ( 'NONE', *, *, #150, .F. ) ;
#70 = PERSON_AND_ORGANIZATION ( #39, #23 ) ;
#71 = DIRECTION ( 'NONE',  ( 0.0000000000000000000, 0.0000000000000000000, 1.000000000000000000 ) ) ;
#72 = EDGE_LOOP ( 'NONE', ( #69 ) ) ;
#73 = APPROVAL ( #92, 'UNSPECIFIED' ) ;
#74 = CALENDAR_DATE ( 2016, 17, 5 ) ;
#75 = CIRCLE ( 'NONE', #30, 7.000000000000000000 ) ;
#76 = LOCAL_TIME ( 15, 42, 33.00000000000000000, #50 ) ;
#77 = VERTEX_POINT ( 'NONE', #94 ) ;
#78 = APPROVAL ( #56, 'UNSPECIFIED' ) ;
#79 = EDGE_LOOP ( 'NONE', ( #147 ) ) ;
#80 = PLANE ( 'NONE',  #167 ) ;
#81 = MECHANICAL_CONTEXT ( 'NONE', #21, 'mechanical' ) ;
#82 = UNCERTAINTY_MEASURE_WITH_UNIT (LENGTH_MEASURE( 1.000000000000000100E-005 ), #53, 'distance_accuracy_value', 'NONE');
#83 = AXIS2_PLACEMENT_3D ( 'NONE', #88, #8, #19 ) ;
#84 = CC_DESIGN_APPROVAL ( #78, ( #91 ) ) ;
#85 = PERSON_AND_ORGANIZATION ( #39, #23 ) ;
#86 = DIRECTION ( 'NONE',  ( 1.000000000000000000, 0.0000000000000000000, 0.0000000000000000000 ) ) ;
#87 = AXIS2_PLACEMENT_3D ( 'NONE', #51, #132, #65 ) ;
#88 = CARTESIAN_POINT ( 'NONE',  ( 3000.000000000000000, 0.0000000000000000000, 0.0000000000000000000 ) ) ;
#89 = DATE_AND_TIME ( #60, #24 ) ;
#90 =( NAMED_UNIT ( * ) SI_UNIT ( $, .STERADIAN. ) SOLID_ANGLE_UNIT ( ) );
#91 = PRODUCT_DEFINITION_FORMATION_WITH_SPECIFIED_SOURCE ( 'ANY', '', #155, .NOT_KNOWN. ) ;
#92 = APPROVAL_STATUS ( 'not_yet_approved' ) ;
#93 = CIRCLE ( 'NONE', #83, 7.000000000000000000 ) ;
#94 = CARTESIAN_POINT ( 'NONE',  ( 3000.000000000000000, 0.0000000000000000000, -8.000000000000000000 ) ) ;
#95 = CC_DESIGN_PERSON_AND_ORGANIZATION_ASSIGNMENT ( #70, #22, ( #91 ) ) ;
#96 = CALENDAR_DATE ( 2016, 17, 5 ) ;
#97 = FACE_OUTER_BOUND ( 'NONE', #108, .T. ) ;
#98 =( GEOMETRIC_REPRESENTATION_CONTEXT ( 3 ) GLOBAL_UNCERTAINTY_ASSIGNED_CONTEXT ( ( #82 ) ) GLOBAL_UNIT_ASSIGNED_CONTEXT ( ( #53, #141, #90 ) ) REPRESENTATION_CONTEXT ( 'NONE', 'WORKASPACE' ) );
#99 = AXIS2_PLACEMENT_3D ( 'NONE', #44, #59, #135 ) ;
#100 = MANIFOLD_SOLID_BREP ( 'Áîáûøêà-Âûòÿíóòü1', #10 ) ;
#101 = LOCAL_TIME ( 15, 42, 33.00000000000000000, #68 ) ;
#102 = ORIENTED_EDGE ( 'NONE', *, *, #130, .F. ) ;
#103 = CC_DESIGN_DATE_AND_TIME_ASSIGNMENT ( #138, #42, ( #159 ) ) ;
#104 = DIRECTION ( 'NONE',  ( -1.000000000000000000, -0.0000000000000000000, -0.0000000000000000000 ) ) ;
#105 = CC_DESIGN_PERSON_AND_ORGANIZATION_ASSIGNMENT ( #107, #153, ( #91 ) ) ;
#106 = ORIENTED_EDGE ( 'NONE', *, *, #150, .T. ) ;
#107 = PERSON_AND_ORGANIZATION ( #39, #23 ) ;
#108 = EDGE_LOOP ( 'NONE', ( #102 ) ) ;
#109 = PERSON_AND_ORGANIZATION_ROLE ( 'classification_officer' ) ;
#110 = DATE_AND_TIME ( #74, #43 ) ;
#111 = VERTEX_POINT ( 'NONE', #151 ) ;
#112 = EDGE_LOOP ( 'NONE', ( #106 ) ) ;
#113 = CC_DESIGN_PERSON_AND_ORGANIZATION_ASSIGNMENT ( #168, #48, ( #159 ) ) ;
#114 = CALENDAR_DATE ( 2016, 17, 5 ) ;
#115 = SECURITY_CLASSIFICATION ( '', '', #154 ) ;
#116 = VERTEX_POINT ( 'NONE', #26 ) ;
#117 = CARTESIAN_POINT ( 'NONE',  ( 3000.000000000000000, 0.0000000000000000000, 0.0000000000000000000 ) ) ;
#118 = PERSON_AND_ORGANIZATION_ROLE ( 'design_owner' ) ;
#119 = CARTESIAN_POINT ( 'NONE',  ( 3000.000000000000000, 0.0000000000000000000, 0.0000000000000000000 ) ) ;
#120 = EDGE_CURVE ( 'NONE', #111, #111, #93, .T. ) ;
#121 = ORIENTED_EDGE ( 'NONE', *, *, #120, .T. ) ;
#122 = APPLICATION_PROTOCOL_DEFINITION ( 'international standard', 'config_control_design', 1994, #21 ) ;
#123 = APPROVAL_ROLE ( '' ) ;
#124 = CC_DESIGN_PERSON_AND_ORGANIZATION_ASSIGNMENT ( #146, #109, ( #115 ) ) ;
#125 = ADVANCED_FACE ( 'NONE', ( #133, #61 ), #57, .T. ) ;
#126 = ADVANCED_FACE ( 'NONE', ( #1, #27 ), #80, .T. ) ;
#127 = PRODUCT_DEFINITION_SHAPE ( 'NONE', 'NONE',  #159 ) ;
#128 = ADVANCED_BREP_SHAPE_REPRESENTATION ( 'CTR11-AL-016-3 T¨ºñð ðû¦üøýøõòð  d16üü', ( #100, #55 ), #98 ) ;
#129 = APPROVAL_PERSON_ORGANIZATION ( #85, #73, #123 ) ;
#130 = EDGE_CURVE ( 'NONE', #149, #149, #62, .T. ) ;
#131 = APPROVAL_DATE_TIME ( #89, #73 ) ;
#132 = DIRECTION ( 'NONE',  ( 1.000000000000000000, 0.0000000000000000000, 0.0000000000000000000 ) ) ;
#133 = FACE_OUTER_BOUND ( 'NONE', #79, .T. ) ;
#134 = CARTESIAN_POINT ( 'NONE',  ( 3000.000000000000000, 0.0000000000000000000, 0.0000000000000000000 ) ) ;
#135 = DIRECTION ( 'NONE',  ( 0.0000000000000000000, 0.0000000000000000000, -1.000000000000000000 ) ) ;
#136 = CC_DESIGN_DATE_AND_TIME_ASSIGNMENT ( #110, #165, ( #115 ) ) ;
#137 = EDGE_LOOP ( 'NONE', ( #121 ) ) ;
#138 = DATE_AND_TIME ( #96, #63 ) ;
#139 = DIRECTION ( 'NONE',  ( 1.000000000000000000, 0.0000000000000000000, 0.0000000000000000000 ) ) ;
#140 = ORIENTED_EDGE ( 'NONE', *, *, #130, .T. ) ;
#141 =( NAMED_UNIT ( * ) PLANE_ANGLE_UNIT ( ) SI_UNIT ( $, .RADIAN. ) );
#142 = CALENDAR_DATE ( 2016, 17, 5 ) ;
#143 = EDGE_CURVE ( 'NONE', #77, #77, #45, .T. ) ;
#144 = EDGE_LOOP ( 'NONE', ( #140 ) ) ;
#145 = APPROVAL ( #12, 'UNSPECIFIED' ) ;
#146 = PERSON_AND_ORGANIZATION ( #39, #23 ) ;
#147 = ORIENTED_EDGE ( 'NONE', *, *, #143, .F. ) ;
#148 = PERSON_AND_ORGANIZATION ( #39, #23 ) ;
#149 = VERTEX_POINT ( 'NONE', #67 ) ;
#150 = EDGE_CURVE ( 'NONE', #116, #116, #75, .T. ) ;
#151 = CARTESIAN_POINT ( 'NONE',  ( 3000.000000000000000, 0.0000000000000000000, -7.000000000000000000 ) ) ;
#152 = DESIGN_CONTEXT ( 'detailed design', #161, 'design' ) ;
#153 = PERSON_AND_ORGANIZATION_ROLE ( 'design_supplier' ) ;
#154 = SECURITY_CLASSIFICATION_LEVEL ( 'unclassified' ) ;
#155 = PRODUCT ( 'CTR11-AL-016-3 Òðóáà àëþìèíèåâàÿ d16ìì', 'CTR11-AL-016-3 Òðóáà àëþìèíèåâàÿ d16ìì', '', ( #81 ) ) ;
#156 = DATE_AND_TIME ( #114, #76 ) ;
#157 = CC_DESIGN_APPROVAL ( #145, ( #115 ) ) ;
#158 = AXIS2_PLACEMENT_3D ( 'NONE', #14, #66, #71 ) ;
#159 = PRODUCT_DEFINITION ( 'UNKNOWN', '', #91, #152 ) ;
#160 = SHAPE_DEFINITION_REPRESENTATION ( #127, #128 ) ;
#161 = APPLICATION_CONTEXT ( 'configuration controlled 3d designs of mechanical parts and assemblies' ) ;
#162 = CC_DESIGN_SECURITY_CLASSIFICATION ( #115, ( #91 ) ) ;
#163 = DIRECTION ( 'NONE',  ( 0.0000000000000000000, 0.0000000000000000000, -1.000000000000000000 ) ) ;
#164 = COORDINATED_UNIVERSAL_TIME_OFFSET ( 3, 0, .AHEAD. ) ;
#165 = DATE_TIME_ROLE ( 'classification_date' ) ;
#166 = DIRECTION ( 'NONE',  ( 0.0000000000000000000, 0.0000000000000000000, -1.000000000000000000 ) ) ;
#167 = AXIS2_PLACEMENT_3D ( 'NONE', #117, #54, #166 ) ;
#168 = PERSON_AND_ORGANIZATION ( #39, #23 ) ;
#169 = CC_DESIGN_APPROVAL ( #73, ( #159 ) ) ;
ENDSEC;
END-ISO-10303-21;
