ISO-10303-21;
HEADER;
FILE_DESCRIPTION (( 'STEP AP203' ),
    '1' );
FILE_NAME ('CLP1K-080-3 Êðûøêà íà ëîòîê îñí. 80.STEP',
    '2016-03-14T06:17:26',
    ( '' ),
    ( '' ),
    'SwSTEP 2.0',
    'SolidWorks 2014',
    '' );
FILE_SCHEMA (( 'CONFIG_CONTROL_DESIGN' ));
ENDSEC;

DATA;
#1 =( LENGTH_UNIT ( ) NAMED_UNIT ( * ) SI_UNIT ( .MILLI., .METRE. ) );
#2 = EDGE_CURVE ( 'NONE', #134, #52, #302, .T. ) ;
#3 = APPLICATION_PROTOCOL_DEFINITION ( 'international standard', 'config_control_design', 1994, #188 ) ;
#4 = APPROVAL_STATUS ( 'not_yet_approved' ) ;
#5 = ORIENTED_EDGE ( 'NONE', *, *, #151, .T. ) ;
#6 = VERTEX_POINT ( 'NONE', #228 ) ;
#7 = CC_DESIGN_APPROVAL ( #357, ( #341 ) ) ;
#8 = LINE ( 'NONE', #209, #125 ) ;
#9 = ORIENTED_EDGE ( 'NONE', *, *, #167, .F. ) ;
#10 = VERTEX_POINT ( 'NONE', #358 ) ;
#11 = LOCAL_TIME ( 9, 17, 26.00000000000000000, #84 ) ;
#12 = VECTOR ( 'NONE', #291, 1000.000000000000000 ) ;
#13 = ORIENTED_EDGE ( 'NONE', *, *, #109, .T. ) ;
#14 = FACE_OUTER_BOUND ( 'NONE', #284, .T. ) ;
#15 = CARTESIAN_POINT ( 'NONE',  ( -1492.500000000000000, 0.0000000000000000000, 78.00000000000000000 ) ) ;
#16 = ORIENTED_EDGE ( 'NONE', *, *, #213, .T. ) ;
#17 = CARTESIAN_POINT ( 'NONE',  ( -1492.500000000000000, -16.15000000000000200, -1.000000000000056400 ) ) ;
#18 = ADVANCED_FACE ( 'NONE', ( #215 ), #41, .T. ) ;
#19 = CARTESIAN_POINT ( 'NONE',  ( 1492.500000000000000, -16.14999999999999900, -1.700000000000056600 ) ) ;
#20 = EDGE_CURVE ( 'NONE', #337, #231, #350, .T. ) ;
#21 = LINE ( 'NONE', #259, #136 ) ;
#22 = DIRECTION ( 'NONE',  ( 1.000000000000000000, 0.0000000000000000000, 0.0000000000000000000 ) ) ;
#23 = CARTESIAN_POINT ( 'NONE',  ( 1492.500000000000000, 2.444036937190193300E-015, 79.70000000000000300 ) ) ;
#24 = CLOSED_SHELL ( 'NONE', ( #287, #226, #253, #18, #147, #176, #334, #117, #361, #87 ) ) ;
#25 = DIRECTION ( 'NONE',  ( 0.0000000000000000000, 3.491481338843133400E-015, -1.000000000000000000 ) ) ;
#26 = LINE ( 'NONE', #29, #180 ) ;
#27 = CC_DESIGN_PERSON_AND_ORGANIZATION_ASSIGNMENT ( #359, #238, ( #341 ) ) ;
#28 = ORIENTED_EDGE ( 'NONE', *, *, #178, .T. ) ;
#29 = CARTESIAN_POINT ( 'NONE',  ( -1492.500000000000000, 2.681033929435362400E-013, 79.00000000000000000 ) ) ;
#30 = CALENDAR_DATE ( 2016, 14, 3 ) ;
#31 =( NAMED_UNIT ( * ) SI_UNIT ( $, .STERADIAN. ) SOLID_ANGLE_UNIT ( ) );
#32 = APPROVAL_PERSON_ORGANIZATION ( #135, #225, #218 ) ;
#33 = APPROVAL_ROLE ( '' ) ;
#34 = LINE ( 'NONE', #255, #219 ) ;
#35 = ORIENTED_EDGE ( 'NONE', *, *, #151, .F. ) ;
#36 = ORIENTED_EDGE ( 'NONE', *, *, #2, .F. ) ;
#37 = AXIS2_PLACEMENT_3D ( 'NONE', #183, #123, #316 ) ;
#38 = APPROVAL_DATE_TIME ( #267, #96 ) ;
#39 = VECTOR ( 'NONE', #250, 1000.000000000000000 ) ;
#40 = ORIENTED_EDGE ( 'NONE', *, *, #190, .F. ) ;
#41 = PLANE ( 'NONE',  #257 ) ;
#42 = EDGE_CURVE ( 'NONE', #231, #111, #62, .T. ) ;
#43 = VERTEX_POINT ( 'NONE', #51 ) ;
#44 = ORIENTED_EDGE ( 'NONE', *, *, #2, .T. ) ;
#45 = DIRECTION ( 'NONE',  ( -0.0000000000000000000, 0.0000000000000000000, -1.000000000000000000 ) ) ;
#46 = LINE ( 'NONE', #60, #12 ) ;
#47 = DIRECTION ( 'NONE',  ( -0.0000000000000000000, -0.0000000000000000000, -1.000000000000000000 ) ) ;
#48 = CC_DESIGN_DATE_AND_TIME_ASSIGNMENT ( #319, #72, ( #341 ) ) ;
#49 = ORIENTED_EDGE ( 'NONE', *, *, #246, .F. ) ;
#50 = PRODUCT ( 'CLP1K-080-3 Êðûøêà íà ëîòîê îñí. 80', 'CLP1K-080-3 Êðûøêà íà ëîòîê îñí. 80', '', ( #160 ) ) ;
#51 = CARTESIAN_POINT ( 'NONE',  ( -1492.500000000000000, -16.14999999999999900, -1.700000000000056600 ) ) ;
#52 = VERTEX_POINT ( 'NONE', #172 ) ;
#53 = CARTESIAN_POINT ( 'NONE',  ( -1492.500000000000000, 0.6999999999999999600, 78.00000000000000000 ) ) ;
#54 = DATE_AND_TIME ( #103, #345 ) ;
#55 = VECTOR ( 'NONE', #205, 1000.000000000000000 ) ;
#56 = DIRECTION ( 'NONE',  ( 0.0000000000000000000, -1.000000000000000000, 3.437222986455592900E-015 ) ) ;
#57 = VECTOR ( 'NONE', #201, 1000.000000000000000 ) ;
#58 = CARTESIAN_POINT ( 'NONE',  ( 1492.500000000000000, -16.14999999999999900, -1.700000000000056600 ) ) ;
#59 = CALENDAR_DATE ( 2016, 14, 3 ) ;
#60 = CARTESIAN_POINT ( 'NONE',  ( 1492.500000000000000, 0.0000000000000000000, 78.00000000000000000 ) ) ;
#61 = DATE_AND_TIME ( #140, #168 ) ;
#62 = LINE ( 'NONE', #77, #243 ) ;
#63 = ORIENTED_EDGE ( 'NONE', *, *, #42, .F. ) ;
#64 = CARTESIAN_POINT ( 'NONE',  ( -1492.500000000000000, 0.6999999999999999600, 78.00000000000000000 ) ) ;
#65 = ORIENTED_EDGE ( 'NONE', *, *, #139, .T. ) ;
#66 = DESIGN_CONTEXT ( 'detailed design', #188, 'design' ) ;
#67 = VECTOR ( 'NONE', #122, 1000.000000000000000 ) ;
#68 = DIRECTION ( 'NONE',  ( 0.0000000000000000000, -3.491481338843133400E-015, 1.000000000000000000 ) ) ;
#69 = APPLICATION_PROTOCOL_DEFINITION ( 'international standard', 'config_control_design', 1994, #101 ) ;
#70 = ORIENTED_EDGE ( 'NONE', *, *, #89, .T. ) ;
#71 = EDGE_CURVE ( 'NONE', #43, #111, #73, .T. ) ;
#72 = DATE_TIME_ROLE ( 'creation_date' ) ;
#73 = LINE ( 'NONE', #82, #239 ) ;
#74 = ORIENTED_EDGE ( 'NONE', *, *, #213, .F. ) ;
#75 = PRODUCT_DEFINITION_FORMATION_WITH_SPECIFIED_SOURCE ( 'ANY', '', #50, .NOT_KNOWN. ) ;
#76 = CARTESIAN_POINT ( 'NONE',  ( 1492.500000000000000, 0.6999999999999999600, 78.00000000000000000 ) ) ;
#77 = CARTESIAN_POINT ( 'NONE',  ( -1492.500000000000000, 0.0000000000000000000, -1.000000000000000000 ) ) ;
#78 = AXIS2_PLACEMENT_3D ( 'NONE', #256, #166, #200 ) ;
#79 = EDGE_LOOP ( 'NONE', ( #16, #133, #224, #44 ) ) ;
#80 = CARTESIAN_POINT ( 'NONE',  ( -1492.500000000000000, 0.7000000000000086200, 79.70000000000000300 ) ) ;
#81 = ORIENTED_EDGE ( 'NONE', *, *, #131, .T. ) ;
#82 = CARTESIAN_POINT ( 'NONE',  ( -1492.500000000000000, -16.14999999999999900, -1.700000000000056600 ) ) ;
#83 = FACE_OUTER_BOUND ( 'NONE', #107, .T. ) ;
#84 = COORDINATED_UNIVERSAL_TIME_OFFSET ( 3, 0, .AHEAD. ) ;
#85 = DIRECTION ( 'NONE',  ( 0.0000000000000000000, 1.000000000000000000, -3.437222986455592900E-015 ) ) ;
#86 = DIRECTION ( 'NONE',  ( -1.232031413424064400E-016, -1.000000000000000000, 3.491481338843133400E-015 ) ) ;
#87 = ADVANCED_FACE ( 'NONE', ( #143 ), #305, .T. ) ;
#88 = DIRECTION ( 'NONE',  ( -0.0000000000000000000, -0.0000000000000000000, -1.000000000000000000 ) ) ;
#89 = EDGE_CURVE ( 'NONE', #115, #100, #91, .T. ) ;
#90 = DIRECTION ( 'NONE',  ( -1.000000000000000000, -0.0000000000000000000, -0.0000000000000000000 ) ) ;
#91 = LINE ( 'NONE', #53, #169 ) ;
#92 = ORIENTED_EDGE ( 'NONE', *, *, #109, .F. ) ;
#93 = CARTESIAN_POINT ( 'NONE',  ( -1492.500000000000000, 0.0000000000000000000, 78.00000000000000000 ) ) ;
#94 = VECTOR ( 'NONE', #68, 1000.000000000000000 ) ;
#95 = DIRECTION ( 'NONE',  ( 0.0000000000000000000, 0.0000000000000000000, -1.000000000000000000 ) ) ;
#96 = APPROVAL ( #269, 'UNSPECIFIED' ) ;
#97 = DIRECTION ( 'NONE',  ( 0.0000000000000000000, 3.491481338843133700E-015, -1.000000000000000000 ) ) ;
#98 = VERTEX_POINT ( 'NONE', #332 ) ;
#99 = PLANE ( 'NONE',  #233 ) ;
#100 = VERTEX_POINT ( 'NONE', #198 ) ;
#101 = APPLICATION_CONTEXT ( 'configuration controlled 3d designs of mechanical parts and assemblies' ) ;
#102 = APPROVAL_ROLE ( '' ) ;
#103 = CALENDAR_DATE ( 2016, 14, 3 ) ;
#104 = ORIENTED_EDGE ( 'NONE', *, *, #204, .F. ) ;
#105 = ORIENTED_EDGE ( 'NONE', *, *, #20, .T. ) ;
#106 = APPROVAL_DATE_TIME ( #61, #225 ) ;
#107 = EDGE_LOOP ( 'NONE', ( #177, #165, #149, #81 ) ) ;
#108 = ORGANIZATION ( 'UNSPECIFIED', 'UNSPECIFIED', '' ) ;
#109 = EDGE_CURVE ( 'NONE', #100, #43, #365, .T. ) ;
#110 = VECTOR ( 'NONE', #56, 1000.000000000000000 ) ;
#111 = VERTEX_POINT ( 'NONE', #17 ) ;
#112 = FACE_OUTER_BOUND ( 'NONE', #79, .T. ) ;
#113 = PERSON_AND_ORGANIZATION ( #171, #108 ) ;
#114 = CC_DESIGN_APPROVAL ( #96, ( #75 ) ) ;
#115 = VERTEX_POINT ( 'NONE', #80 ) ;
#116 = CARTESIAN_POINT ( 'NONE',  ( 0.0000000000000000000, -16.15000000000000200, -1.000000000000056400 ) ) ;
#117 = ADVANCED_FACE ( 'NONE', ( #119 ), #282, .T. ) ;
#118 = CARTESIAN_POINT ( 'NONE',  ( 1492.500000000000000, -16.14999999999999900, 79.70000000000006000 ) ) ;
#119 = FACE_OUTER_BOUND ( 'NONE', #247, .T. ) ;
#120 = CARTESIAN_POINT ( 'NONE',  ( 0.0000000000000000000, -3.851859888774471700E-031, -1.000000000000000000 ) ) ;
#121 = VERTEX_POINT ( 'NONE', #285 ) ;
#122 = DIRECTION ( 'NONE',  ( 1.000000000000000000, -0.0000000000000000000, -0.0000000000000000000 ) ) ;
#123 = DIRECTION ( 'NONE',  ( 0.0000000000000000000, 3.491481338843133700E-015, -1.000000000000000000 ) ) ;
#124 = AXIS2_PLACEMENT_3D ( 'NONE', #93, #126, #317 ) ;
#125 = VECTOR ( 'NONE', #236, 1000.000000000000000 ) ;
#126 = DIRECTION ( 'NONE',  ( 0.0000000000000000000, -1.000000000000000000, 0.0000000000000000000 ) ) ;
#127 = VECTOR ( 'NONE', #90, 1000.000000000000000 ) ;
#128 = CARTESIAN_POINT ( 'NONE',  ( 0.0000000000000000000, 0.0000000000000000000, -1.000000000000000000 ) ) ;
#129 = APPROVAL_PERSON_ORGANIZATION ( #187, #96, #102 ) ;
#130 = DIRECTION ( 'NONE',  ( 0.0000000000000000000, 0.0000000000000000000, 1.000000000000000000 ) ) ;
#131 = EDGE_CURVE ( 'NONE', #115, #182, #313, .T. ) ;
#132 = PERSON_AND_ORGANIZATION_ROLE ( 'design_supplier' ) ;
#133 = ORIENTED_EDGE ( 'NONE', *, *, #42, .T. ) ;
#134 = VERTEX_POINT ( 'NONE', #335 ) ;
#135 = PERSON_AND_ORGANIZATION ( #171, #108 ) ;
#136 = VECTOR ( 'NONE', #88, 1000.000000000000000 ) ;
#137 = CC_DESIGN_PERSON_AND_ORGANIZATION_ASSIGNMENT ( #113, #300, ( #75 ) ) ;
#138 = ORIENTED_EDGE ( 'NONE', *, *, #71, .F. ) ;
#139 = EDGE_CURVE ( 'NONE', #280, #245, #354, .T. ) ;
#140 = CALENDAR_DATE ( 2016, 14, 3 ) ;
#141 = LINE ( 'NONE', #203, #110 ) ;
#142 = EDGE_LOOP ( 'NONE', ( #28, #36, #194, #348, #40, #342, #65, #293 ) ) ;
#143 = FACE_OUTER_BOUND ( 'NONE', #367, .T. ) ;
#144 = VECTOR ( 'NONE', #196, 1000.000000000000000 ) ;
#145 = EDGE_LOOP ( 'NONE', ( #92, #208, #351, #49 ) ) ;
#146 = DIRECTION ( 'NONE',  ( -0.0000000000000000000, -1.000000000000000000, -3.491481338843133700E-015 ) ) ;
#147 = ADVANCED_FACE ( 'NONE', ( #189 ), #148, .T. ) ;
#148 = PLANE ( 'NONE',  #364 ) ;
#149 = ORIENTED_EDGE ( 'NONE', *, *, #89, .F. ) ;
#150 = PLANE ( 'NONE',  #78 ) ;
#151 = EDGE_CURVE ( 'NONE', #6, #10, #283, .T. ) ;
#152 = CARTESIAN_POINT ( 'NONE',  ( 1492.500000000000000, 0.7000000000000086200, 79.70000000000000300 ) ) ;
#153 = ORIENTED_EDGE ( 'NONE', *, *, #336, .T. ) ;
#154 = DIRECTION ( 'NONE',  ( -0.0000000000000000000, 1.000000000000000000, -3.437222986455592900E-015 ) ) ;
#155 = CARTESIAN_POINT ( 'NONE',  ( -1.989730732679841300E-015, -16.14999999999981700, 79.00000000000005700 ) ) ;
#156 = CC_DESIGN_PERSON_AND_ORGANIZATION_ASSIGNMENT ( #344, #132, ( #75 ) ) ;
#157 = APPROVAL_DATE_TIME ( #363, #357 ) ;
#158 = EDGE_CURVE ( 'NONE', #100, #271, #330, .T. ) ;
#159 = DIRECTION ( 'NONE',  ( 0.0000000000000000000, 1.000000000000000000, -3.437222986455592900E-015 ) ) ;
#160 = MECHANICAL_CONTEXT ( 'NONE', #101, 'mechanical' ) ;
#161 = LOCAL_TIME ( 9, 17, 26.00000000000000000, #281 ) ;
#162 = SECURITY_CLASSIFICATION_LEVEL ( 'unclassified' ) ;
#163 = AXIS2_PLACEMENT_3D ( 'NONE', #64, #262, #95 ) ;
#164 = ORIENTED_EDGE ( 'NONE', *, *, #229, .F. ) ;
#165 = ORIENTED_EDGE ( 'NONE', *, *, #158, .F. ) ;
#166 = DIRECTION ( 'NONE',  ( -1.000000000000000000, 0.0000000000000000000, 0.0000000000000000000 ) ) ;
#167 = EDGE_CURVE ( 'NONE', #182, #280, #323, .T. ) ;
#168 = LOCAL_TIME ( 9, 17, 26.00000000000000000, #360 ) ;
#169 = VECTOR ( 'NONE', #47, 1000.000000000000000 ) ;
#170 = ORIENTED_EDGE ( 'NONE', *, *, #139, .F. ) ;
#171 = PERSON ( 'UNSPECIFIED', 'UNSPECIFIED', 'UNSPECIFIED', ('UNSPECIFIED'), ('UNSPECIFIED'), ('UNSPECIFIED') ) ;
#172 = CARTESIAN_POINT ( 'NONE',  ( 1492.500000000000000, -3.851859888774471700E-031, -1.000000000000000000 ) ) ;
#173 = VECTOR ( 'NONE', #185, 1000.000000000000000 ) ;
#174 = SECURITY_CLASSIFICATION ( '', '', #162 ) ;
#175 = CARTESIAN_POINT ( 'NONE',  ( -1493.489949493661000, 0.7000000000000086200, 79.70000000000000300 ) ) ;
#176 = ADVANCED_FACE ( 'NONE', ( #199 ), #338, .T. ) ;
#177 = ORIENTED_EDGE ( 'NONE', *, *, #190, .T. ) ;
#178 = EDGE_CURVE ( 'NONE', #121, #52, #46, .T. ) ;
#179 = CARTESIAN_POINT ( 'NONE',  ( -1493.489949493661000, 0.7000000000000001800, -1.700000000000000200 ) ) ;
#180 = VECTOR ( 'NONE', #237, 1000.000000000000000 ) ;
#181 = LINE ( 'NONE', #120, #127 ) ;
#182 = VERTEX_POINT ( 'NONE', #152 ) ;
#183 = CARTESIAN_POINT ( 'NONE',  ( 0.0000000000000000000, 2.444036937190193300E-015, -1.700000000000000200 ) ) ;
#184 = LINE ( 'NONE', #116, #67 ) ;
#185 = DIRECTION ( 'NONE',  ( -0.0000000000000000000, 1.000000000000000000, 3.491481338843133700E-015 ) ) ;
#186 = ORIENTED_EDGE ( 'NONE', *, *, #178, .F. ) ;
#187 = PERSON_AND_ORGANIZATION ( #171, #108 ) ;
#188 = APPLICATION_CONTEXT ( 'configuration controlled 3d designs of mechanical parts and assemblies' ) ;
#189 = FACE_OUTER_BOUND ( 'NONE', #331, .T. ) ;
#190 = EDGE_CURVE ( 'NONE', #182, #271, #21, .T. ) ;
#191 = DATE_TIME_ROLE ( 'classification_date' ) ;
#192 = ORIENTED_EDGE ( 'NONE', *, *, #289, .F. ) ;
#193 = CC_DESIGN_PERSON_AND_ORGANIZATION_ASSIGNMENT ( #241, #349, ( #174 ) ) ;
#194 = ORIENTED_EDGE ( 'NONE', *, *, #353, .F. ) ;
#195 = EDGE_CURVE ( 'NONE', #121, #245, #141, .T. ) ;
#196 = DIRECTION ( 'NONE',  ( 0.0000000000000000000, -1.000000000000000000, -3.491481338843133700E-015 ) ) ;
#197 = AXIS2_PLACEMENT_3D ( 'NONE', #128, #97, #296 ) ;
#198 = CARTESIAN_POINT ( 'NONE',  ( -1492.500000000000000, 0.7000000000000001800, -1.700000000000000200 ) ) ;
#199 = FACE_OUTER_BOUND ( 'NONE', #145, .T. ) ;
#200 = DIRECTION ( 'NONE',  ( 0.0000000000000000000, 0.0000000000000000000, 1.000000000000000000 ) ) ;
#201 = DIRECTION ( 'NONE',  ( -0.0000000000000000000, 1.000000000000000000, 3.491481338843133700E-015 ) ) ;
#202 = CARTESIAN_POINT ( 'NONE',  ( 1492.500000000000000, -16.15000000000000200, 79.00000000000005700 ) ) ;
#203 = CARTESIAN_POINT ( 'NONE',  ( 1492.500000000000000, 2.681033929435362400E-013, 79.00000000000000000 ) ) ;
#204 = EDGE_CURVE ( 'NONE', #337, #121, #34, .T. ) ;
#205 = DIRECTION ( 'NONE',  ( -0.0000000000000000000, -1.000000000000000000, 3.437222986455592900E-015 ) ) ;
#206 = DIRECTION ( 'NONE',  ( 0.0000000000000000000, -1.000000000000000000, -3.491481338843133400E-015 ) ) ;
#207 = PLANE ( 'NONE',  #163 ) ;
#208 = ORIENTED_EDGE ( 'NONE', *, *, #158, .T. ) ;
#209 = CARTESIAN_POINT ( 'NONE',  ( 1492.500000000000000, -16.14999999999999900, 79.70000000000006000 ) ) ;
#210 = CC_DESIGN_DATE_AND_TIME_ASSIGNMENT ( #54, #191, ( #174 ) ) ;
#211 = ADVANCED_BREP_SHAPE_REPRESENTATION ( 'CLP1K-080-3 ¦¨v°úð ýð ûþªþú þ¸ý. 80', ( #333, #308 ), #220 ) ;
#212 = CARTESIAN_POINT ( 'NONE',  ( 1492.500000000000000, -16.14999999999999900, -1.700000000000056600 ) ) ;
#213 = EDGE_CURVE ( 'NONE', #52, #231, #181, .T. ) ;
#214 =( NAMED_UNIT ( * ) PLANE_ANGLE_UNIT ( ) SI_UNIT ( $, .RADIAN. ) );
#215 = FACE_OUTER_BOUND ( 'NONE', #142, .T. ) ;
#216 = APPROVAL_STATUS ( 'not_yet_approved' ) ;
#217 = ORIENTED_EDGE ( 'NONE', *, *, #268, .T. ) ;
#218 = APPROVAL_ROLE ( '' ) ;
#219 = VECTOR ( 'NONE', #314, 1000.000000000000000 ) ;
#220 =( GEOMETRIC_REPRESENTATION_CONTEXT ( 3 ) GLOBAL_UNCERTAINTY_ASSIGNED_CONTEXT ( ( #278 ) ) GLOBAL_UNIT_ASSIGNED_CONTEXT ( ( #1, #214, #31 ) ) REPRESENTATION_CONTEXT ( 'NONE', 'WORKASPACE' ) );
#221 = ORIENTED_EDGE ( 'NONE', *, *, #289, .T. ) ;
#222 = LOCAL_TIME ( 9, 17, 26.00000000000000000, #329 ) ;
#223 = LINE ( 'NONE', #155, #273 ) ;
#224 = ORIENTED_EDGE ( 'NONE', *, *, #229, .T. ) ;
#225 = APPROVAL ( #4, 'UNSPECIFIED' ) ;
#226 = ADVANCED_FACE ( 'NONE', ( #309 ), #150, .T. ) ;
#227 = ORIENTED_EDGE ( 'NONE', *, *, #204, .T. ) ;
#228 = CARTESIAN_POINT ( 'NONE',  ( -1492.500000000000000, -16.14999999999962900, 79.70000000000006000 ) ) ;
#229 = EDGE_CURVE ( 'NONE', #111, #134, #184, .T. ) ;
#230 = CARTESIAN_POINT ( 'NONE',  ( -1492.500000000000000, -16.14999999999962900, 79.70000000000006000 ) ) ;
#231 = VERTEX_POINT ( 'NONE', #312 ) ;
#232 = CARTESIAN_POINT ( 'NONE',  ( 1492.500000000000000, -16.14999999999999900, 79.70000000000006000 ) ) ;
#233 = AXIS2_PLACEMENT_3D ( 'NONE', #297, #318, #159 ) ;
#234 = ORIENTED_EDGE ( 'NONE', *, *, #320, .T. ) ;
#235 = VECTOR ( 'NONE', #261, 1000.000000000000000 ) ;
#236 = DIRECTION ( 'NONE',  ( -1.000000000000000000, 1.232031413424064400E-016, -8.758115402030106700E-047 ) ) ;
#237 = DIRECTION ( 'NONE',  ( 0.0000000000000000000, 1.000000000000000000, -3.437222986455592900E-015 ) ) ;
#238 = PERSON_AND_ORGANIZATION_ROLE ( 'creator' ) ;
#239 = VECTOR ( 'NONE', #322, 1000.000000000000000 ) ;
#240 = ORIENTED_EDGE ( 'NONE', *, *, #336, .F. ) ;
#241 = PERSON_AND_ORGANIZATION ( #171, #108 ) ;
#242 = VECTOR ( 'NONE', #154, 1000.000000000000000 ) ;
#243 = VECTOR ( 'NONE', #146, 1000.000000000000000 ) ;
#244 = CC_DESIGN_APPROVAL ( #225, ( #174 ) ) ;
#245 = VERTEX_POINT ( 'NONE', #202 ) ;
#246 = EDGE_CURVE ( 'NONE', #43, #98, #260, .T. ) ;
#247 = EDGE_LOOP ( 'NONE', ( #192, #170, #234, #5 ) ) ;
#248 = DIRECTION ( 'NONE',  ( 1.000000000000000000, 0.0000000000000000000, -0.0000000000000000000 ) ) ;
#249 = COORDINATED_UNIVERSAL_TIME_OFFSET ( 3, 0, .AHEAD. ) ;
#250 = DIRECTION ( 'NONE',  ( -0.0000000000000000000, -0.0000000000000000000, -1.000000000000000000 ) ) ;
#251 = DIRECTION ( 'NONE',  ( -4.234766694256566800E-031, -3.437222986455592900E-015, -1.000000000000000000 ) ) ;
#252 = ORIENTED_EDGE ( 'NONE', *, *, #195, .T. ) ;
#253 = ADVANCED_FACE ( 'NONE', ( #14 ), #292, .T. ) ;
#254 = CALENDAR_DATE ( 2016, 14, 3 ) ;
#255 = CARTESIAN_POINT ( 'NONE',  ( 3.303118021520122200E-029, 0.0000000000000000000, 79.00000000000000000 ) ) ;
#256 = CARTESIAN_POINT ( 'NONE',  ( -1492.500000000000000, 0.0000000000000000000, 78.00000000000000000 ) ) ;
#257 = AXIS2_PLACEMENT_3D ( 'NONE', #76, #248, #45 ) ;
#258 = ORIENTED_EDGE ( 'NONE', *, *, #20, .F. ) ;
#259 = CARTESIAN_POINT ( 'NONE',  ( 1492.500000000000000, 0.6999999999999999600, 78.00000000000000000 ) ) ;
#260 = LINE ( 'NONE', #19, #235 ) ;
#261 = DIRECTION ( 'NONE',  ( 1.000000000000000000, 0.0000000000000000000, 0.0000000000000000000 ) ) ;
#262 = DIRECTION ( 'NONE',  ( 0.0000000000000000000, -1.000000000000000000, 0.0000000000000000000 ) ) ;
#263 = VECTOR ( 'NONE', #366, 1000.000000000000000 ) ;
#264 = ORIENTED_EDGE ( 'NONE', *, *, #131, .F. ) ;
#265 = PLANE ( 'NONE',  #197 ) ;
#266 = CC_DESIGN_SECURITY_CLASSIFICATION ( #174, ( #75 ) ) ;
#267 = DATE_AND_TIME ( #30, #11 ) ;
#268 = EDGE_CURVE ( 'NONE', #6, #115, #295, .T. ) ;
#269 = APPROVAL_STATUS ( 'not_yet_approved' ) ;
#270 = ORIENTED_EDGE ( 'NONE', *, *, #268, .F. ) ;
#271 = VERTEX_POINT ( 'NONE', #368 ) ;
#272 = APPROVAL_PERSON_ORGANIZATION ( #299, #357, #33 ) ;
#273 = VECTOR ( 'NONE', #343, 1000.000000000000000 ) ;
#274 = VECTOR ( 'NONE', #311, 1000.000000000000000 ) ;
#275 = ORIENTED_EDGE ( 'NONE', *, *, #353, .T. ) ;
#276 = PRODUCT_DEFINITION_SHAPE ( 'NONE', 'NONE',  #341 ) ;
#277 = ORIENTED_EDGE ( 'NONE', *, *, #71, .T. ) ;
#278 = UNCERTAINTY_MEASURE_WITH_UNIT (LENGTH_MEASURE( 1.000000000000000100E-005 ), #1, 'distance_accuracy_value', 'NONE');
#279 = CARTESIAN_POINT ( 'NONE',  ( 3.303118021520122200E-029, 2.681033929435362400E-013, 79.00000000000000000 ) ) ;
#280 = VERTEX_POINT ( 'NONE', #232 ) ;
#281 = COORDINATED_UNIVERSAL_TIME_OFFSET ( 3, 0, .AHEAD. ) ;
#282 = PLANE ( 'NONE',  #327 ) ;
#283 = LINE ( 'NONE', #230, #263 ) ;
#284 = EDGE_LOOP ( 'NONE', ( #105, #74, #186, #104 ) ) ;
#285 = CARTESIAN_POINT ( 'NONE',  ( 1492.500000000000000, 0.0000000000000000000, 79.00000000000000000 ) ) ;
#286 = PRODUCT_RELATED_PRODUCT_CATEGORY ( 'detail', '', ( #50 ) ) ;
#287 = ADVANCED_FACE ( 'NONE', ( #83 ), #207, .F. ) ;
#288 = DIRECTION ( 'NONE',  ( 0.0000000000000000000, -3.491481338843133400E-015, -1.000000000000000000 ) ) ;
#289 = EDGE_CURVE ( 'NONE', #245, #10, #223, .T. ) ;
#290 = PERSON_AND_ORGANIZATION ( #171, #108 ) ;
#291 = DIRECTION ( 'NONE',  ( -0.0000000000000000000, -0.0000000000000000000, -1.000000000000000000 ) ) ;
#292 = PLANE ( 'NONE',  #124 ) ;
#293 = ORIENTED_EDGE ( 'NONE', *, *, #195, .F. ) ;
#294 = CARTESIAN_POINT ( 'NONE',  ( 1492.500000000000000, 2.444036937190193300E-015, -1.700000000000000200 ) ) ;
#295 = LINE ( 'NONE', #340, #242 ) ;
#296 = DIRECTION ( 'NONE',  ( 0.0000000000000000000, 1.000000000000000000, 3.491481338843133700E-015 ) ) ;
#297 = CARTESIAN_POINT ( 'NONE',  ( 3.303118021520122200E-029, 2.705474298807264700E-013, 79.70000000000000300 ) ) ;
#298 = CARTESIAN_POINT ( 'NONE',  ( 0.0000000000000000000, 0.0000000000000000000, 0.0000000000000000000 ) ) ;
#299 = PERSON_AND_ORGANIZATION ( #171, #108 ) ;
#300 = PERSON_AND_ORGANIZATION_ROLE ( 'creator' ) ;
#301 = AXIS2_PLACEMENT_3D ( 'NONE', #279, #251, #85 ) ;
#302 = LINE ( 'NONE', #307, #57 ) ;
#303 = LINE ( 'NONE', #294, #173 ) ;
#304 = EDGE_CURVE ( 'NONE', #98, #271, #303, .T. ) ;
#305 = PLANE ( 'NONE',  #301 ) ;
#306 = EDGE_LOOP ( 'NONE', ( #9, #264, #270, #355 ) ) ;
#307 = CARTESIAN_POINT ( 'NONE',  ( 1492.500000000000000, 0.0000000000000000000, -1.000000000000000000 ) ) ;
#308 = AXIS2_PLACEMENT_3D ( 'NONE', #298, #130, #321 ) ;
#309 = FACE_OUTER_BOUND ( 'NONE', #315, .T. ) ;
#310 = CARTESIAN_POINT ( 'NONE',  ( 1492.500000000000000, -16.14999999999999900, 79.70000000000006000 ) ) ;
#311 = DIRECTION ( 'NONE',  ( 1.000000000000000000, 0.0000000000000000000, 0.0000000000000000000 ) ) ;
#312 = CARTESIAN_POINT ( 'NONE',  ( -1492.500000000000000, 0.0000000000000000000, -1.000000000000000000 ) ) ;
#313 = LINE ( 'NONE', #175, #274 ) ;
#314 = DIRECTION ( 'NONE',  ( 1.000000000000000000, -1.478560888735122600E-045, -4.234766694256566800E-031 ) ) ;
#315 = EDGE_LOOP ( 'NONE', ( #70, #13, #277, #63, #258, #240, #35, #217 ) ) ;
#316 = DIRECTION ( 'NONE',  ( 0.0000000000000000000, 1.000000000000000000, 3.491481338843133700E-015 ) ) ;
#317 = DIRECTION ( 'NONE',  ( 0.0000000000000000000, -0.0000000000000000000, -1.000000000000000000 ) ) ;
#318 = DIRECTION ( 'NONE',  ( -4.234766694256566800E-031, -3.437222986455592900E-015, -1.000000000000000000 ) ) ;
#319 = DATE_AND_TIME ( #254, #161 ) ;
#320 = EDGE_CURVE ( 'NONE', #280, #6, #8, .T. ) ;
#321 = DIRECTION ( 'NONE',  ( 1.000000000000000000, 0.0000000000000000000, 0.0000000000000000000 ) ) ;
#322 = DIRECTION ( 'NONE',  ( 0.0000000000000000000, -3.491481338843133400E-015, 1.000000000000000000 ) ) ;
#323 = LINE ( 'NONE', #23, #55 ) ;
#324 = SHAPE_DEFINITION_REPRESENTATION ( #276, #211 ) ;
#325 = CC_DESIGN_PERSON_AND_ORGANIZATION_ASSIGNMENT ( #290, #347, ( #50 ) ) ;
#326 = ORIENTED_EDGE ( 'NONE', *, *, #246, .T. ) ;
#327 = AXIS2_PLACEMENT_3D ( 'NONE', #310, #86, #288 ) ;
#328 = FACE_OUTER_BOUND ( 'NONE', #306, .T. ) ;
#329 = COORDINATED_UNIVERSAL_TIME_OFFSET ( 3, 0, .AHEAD. ) ;
#330 = LINE ( 'NONE', #179, #339 ) ;
#331 = EDGE_LOOP ( 'NONE', ( #164, #138, #326, #275 ) ) ;
#332 = CARTESIAN_POINT ( 'NONE',  ( 1492.500000000000000, -16.14999999999999900, -1.700000000000056600 ) ) ;
#333 = MANIFOLD_SOLID_BREP ( 'Áîáûøêà-Âûòÿíóòü1', #24 ) ;
#334 = ADVANCED_FACE ( 'NONE', ( #112 ), #265, .F. ) ;
#335 = CARTESIAN_POINT ( 'NONE',  ( 1492.500000000000000, -16.15000000000000200, -1.000000000000056400 ) ) ;
#336 = EDGE_CURVE ( 'NONE', #10, #337, #26, .T. ) ;
#337 = VERTEX_POINT ( 'NONE', #369 ) ;
#338 = PLANE ( 'NONE',  #37 ) ;
#339 = VECTOR ( 'NONE', #22, 1000.000000000000000 ) ;
#340 = CARTESIAN_POINT ( 'NONE',  ( -1492.500000000000000, -16.14999999999962900, 79.70000000000006000 ) ) ;
#341 = PRODUCT_DEFINITION ( 'UNKNOWN', '', #75, #66 ) ;
#342 = ORIENTED_EDGE ( 'NONE', *, *, #167, .T. ) ;
#343 = DIRECTION ( 'NONE',  ( -1.000000000000000000, 1.232031413424064400E-016, -8.758115402030106700E-047 ) ) ;
#344 = PERSON_AND_ORGANIZATION ( #171, #108 ) ;
#345 = LOCAL_TIME ( 9, 17, 26.00000000000000000, #249 ) ;
#346 = VECTOR ( 'NONE', #362, 1000.000000000000000 ) ;
#347 = PERSON_AND_ORGANIZATION_ROLE ( 'design_owner' ) ;
#348 = ORIENTED_EDGE ( 'NONE', *, *, #304, .T. ) ;
#349 = PERSON_AND_ORGANIZATION_ROLE ( 'classification_officer' ) ;
#350 = LINE ( 'NONE', #15, #39 ) ;
#351 = ORIENTED_EDGE ( 'NONE', *, *, #304, .F. ) ;
#352 = LINE ( 'NONE', #212, #94 ) ;
#353 = EDGE_CURVE ( 'NONE', #98, #134, #352, .T. ) ;
#354 = LINE ( 'NONE', #118, #346 ) ;
#355 = ORIENTED_EDGE ( 'NONE', *, *, #320, .F. ) ;
#356 = CARTESIAN_POINT ( 'NONE',  ( -1492.500000000000000, -16.14999999999999900, -1.700000000000056600 ) ) ;
#357 = APPROVAL ( #216, 'UNSPECIFIED' ) ;
#358 = CARTESIAN_POINT ( 'NONE',  ( -1492.500000000000000, -16.14999999999963300, 79.00000000000005700 ) ) ;
#359 = PERSON_AND_ORGANIZATION ( #171, #108 ) ;
#360 = COORDINATED_UNIVERSAL_TIME_OFFSET ( 3, 0, .AHEAD. ) ;
#361 = ADVANCED_FACE ( 'NONE', ( #328 ), #99, .F. ) ;
#362 = DIRECTION ( 'NONE',  ( 0.0000000000000000000, -3.491481338843133400E-015, -1.000000000000000000 ) ) ;
#363 = DATE_AND_TIME ( #59, #222 ) ;
#364 = AXIS2_PLACEMENT_3D ( 'NONE', #58, #206, #25 ) ;
#365 = LINE ( 'NONE', #356, #144 ) ;
#366 = DIRECTION ( 'NONE',  ( 0.0000000000000000000, -3.491481338843133400E-015, -1.000000000000000000 ) ) ;
#367 = EDGE_LOOP ( 'NONE', ( #252, #221, #153, #227 ) ) ;
#368 = CARTESIAN_POINT ( 'NONE',  ( 1492.500000000000000, 0.7000000000000001800, -1.700000000000000200 ) ) ;
#369 = CARTESIAN_POINT ( 'NONE',  ( -1492.500000000000000, 5.127050073817025300E-016, 79.00000000000000000 ) ) ;
ENDSEC;
END-ISO-10303-21;
