  0
SECTION
  2
HEADER
  9
$ACADVER
  1
AC1015
  9
$ACADMAINTVER
 70
     6
  9
$DWGCODEPAGE
  3
ANSI_1251
  9
$INSBASE
 10
0.0
 20
0.0
 30
0.0
  9
$EXTMIN
 10
0.0
 20
0.0
 30
0.0
  9
$EXTMAX
 10
431.8
 20
279.4
 30
0.0
  9
$LIMMIN
 10
0.0
 20
0.0
  9
$LIMMAX
 10
431.8
 20
279.4
  9
$ORTHOMODE
 70
     0
  9
$REGENMODE
 70
     1
  9
$FILLMODE
 70
     1
  9
$QTEXTMODE
 70
     0
  9
$MIRRTEXT
 70
     1
  9
$LTSCALE
 40
1.0
  9
$ATTMODE
 70
     1
  9
$TEXTSIZE
 40
3.5
  9
$TRACEWID
 40
1.0
  9
$TEXTSTYLE
  7
STANDARD
  9
$CLAYER
  8
0
  9
$CELTYPE
  6
ByLayer
  9
$CECOLOR
 62
   256
  9
$CELTSCALE
 40
1.0
  9
$DISPSILH
 70
     0
  9
$DIMSCALE
 40
1.0
  9
$DIMASZ
 40
5.0
  9
$DIMEXO
 40
0.0
  9
$DIMDLI
 40
3.75
  9
$DIMRND
 40
0.0
  9
$DIMDLE
 40
0.0
  9
$DIMEXE
 40
1.0
  9
$DIMTP
 40
0.0
  9
$DIMTM
 40
0.0
  9
$DIMTXT
 40
3.5
  9
$DIMCEN
 40
2.5
  9
$DIMTSZ
 40
0.0
  9
$DIMTOL
 70
     0
  9
$DIMLIM
 70
     0
  9
$DIMTIH
 70
     1
  9
$DIMTOH
 70
     1
  9
$DIMSE1
 70
     0
  9
$DIMSE2
 70
     0
  9
$DIMTAD
 70
     1
  9
$DIMZIN
 70
     0
  9
$DIMBLK
  1

  9
$DIMASO
 70
     1
  9
$DIMSHO
 70
     1
  9
$DIMPOST
  1

  9
$DIMAPOST
  1

  9
$DIMALT
 70
     0
  9
$DIMALTD
 70
     3
  9
$DIMALTF
 40
0.0393700787
  9
$DIMLFAC
 40
1.0
  9
$DIMTOFL
 70
     1
  9
$DIMTVP
 40
0.0
  9
$DIMTIX
 70
     0
  9
$DIMSOXD
 70
     0
  9
$DIMSAH
 70
     0
  9
$DIMBLK1
  1

  9
$DIMBLK2
  1

  9
$DIMSTYLE
  2
ISO-25
  9
$DIMCLRD
 70
     0
  9
$DIMCLRE
 70
     0
  9
$DIMCLRT
 70
     0
  9
$DIMTFAC
 40
1.0
  9
$DIMGAP
 40
1.5
  9
$DIMJUST
 70
     0
  9
$DIMSD1
 70
     0
  9
$DIMSD2
 70
     0
  9
$DIMTOLJ
 70
     0
  9
$DIMTZIN
 70
     0
  9
$DIMALTZ
 70
     0
  9
$DIMALTTZ
 70
     0
  9
$DIMUPT
 70
     0
  9
$DIMDEC
 70
     1
  9
$DIMTDEC
 70
     3
  9
$DIMALTU
 70
     2
  9
$DIMALTTD
 70
     3
  9
$DIMTXSTY
  7
STANDARD
  9
$DIMAUNIT
 70
     0
  9
$DIMADEC
 70
     2
  9
$DIMALTRND
 40
0.0
  9
$DIMAZIN
 70
     0
  9
$DIMDSEP
 70
    44
  9
$DIMATFIT
 70
     3
  9
$DIMFRAC
 70
     0
  9
$DIMLDRBLK
  1

  9
$DIMLUNIT
 70
     2
  9
$DIMLWD
 70
    -2
  9
$DIMLWE
 70
    -2
  9
$DIMTMOVE
 70
     0
  9
$LUNITS
 70
     2
  9
$LUPREC
 70
     1
  9
$SKETCHINC
 40
1.0
  9
$FILLETRAD
 40
0.0
  9
$AUNITS
 70
     0
  9
$AUPREC
 70
     2
  9
$MENU
  1
.
  9
$ELEVATION
 40
0.0
  9
$PELEVATION
 40
0.0
  9
$THICKNESS
 40
0.0
  9
$LIMCHECK
 70
     0
  9
$CHAMFERA
 40
0.0
  9
$CHAMFERB
 40
0.0
  9
$CHAMFERC
 40
0.0
  9
$CHAMFERD
 40
0.0
  9
$SKPOLY
 70
     0
  9
$TDCREATE
 40
2460927.75956941
  9
$TDUCREATE
 40
2460927.63456941
  9
$TDUPDATE
 40
2460927.759570232
  9
$TDUUPDATE
 40
2460927.634570232
  9
$TDINDWG
 40
0.0000000116
  9
$TDUSRTIMER
 40
0.0000000116
  9
$USRTIMER
 70
     1
  9
$ANGBASE
 50
0.0
  9
$ANGDIR
 70
     0
  9
$PDMODE
 70
     0
  9
$PDSIZE
 40
-1.0
  9
$PLINEWID
 40
0.0
  9
$SPLFRAME
 70
     0
  9
$SPLINETYPE
 70
     6
  9
$SPLINESEGS
 70
     8
  9
$HANDSEED
  5
4F0
  9
$SURFTAB1
 70
     6
  9
$SURFTAB2
 70
     6
  9
$SURFTYPE
 70
     6
  9
$SURFU
 70
     6
  9
$SURFV
 70
     6
  9
$UCSBASE
  2

  9
$UCSNAME
  2

  9
$UCSORG
 10
0.0
 20
0.0
 30
0.0
  9
$UCSXDIR
 10
1.0
 20
0.0
 30
0.0
  9
$UCSYDIR
 10
0.0
 20
1.0
 30
0.0
  9
$UCSORTHOREF
  2

  9
$UCSORTHOVIEW
 70
     0
  9
$UCSORGTOP
 10
0.0
 20
0.0
 30
0.0
  9
$UCSORGBOTTOM
 10
0.0
 20
0.0
 30
0.0
  9
$UCSORGLEFT
 10
0.0
 20
0.0
 30
0.0
  9
$UCSORGRIGHT
 10
0.0
 20
0.0
 30
0.0
  9
$UCSORGFRONT
 10
0.0
 20
0.0
 30
0.0
  9
$UCSORGBACK
 10
0.0
 20
0.0
 30
0.0
  9
$PUCSBASE
  2

  9
$PUCSNAME
  2

  9
$PUCSORG
 10
0.0
 20
0.0
 30
0.0
  9
$PUCSXDIR
 10
1.0
 20
0.0
 30
0.0
  9
$PUCSYDIR
 10
0.0
 20
1.0
 30
0.0
  9
$PUCSORTHOREF
  2

  9
$PUCSORTHOVIEW
 70
     0
  9
$PUCSORGTOP
 10
0.0
 20
0.0
 30
0.0
  9
$PUCSORGBOTTOM
 10
0.0
 20
0.0
 30
0.0
  9
$PUCSORGLEFT
 10
0.0
 20
0.0
 30
0.0
  9
$PUCSORGRIGHT
 10
0.0
 20
0.0
 30
0.0
  9
$PUCSORGFRONT
 10
0.0
 20
0.0
 30
0.0
  9
$PUCSORGBACK
 10
0.0
 20
0.0
 30
0.0
  9
$USERI1
 70
     0
  9
$USERI2
 70
     0
  9
$USERI3
 70
     0
  9
$USERI4
 70
     0
  9
$USERI5
 70
     0
  9
$USERR1
 40
0.0
  9
$USERR2
 40
0.0
  9
$USERR3
 40
0.0
  9
$USERR4
 40
0.0
  9
$USERR5
 40
0.0
  9
$WORLDVIEW
 70
     1
  9
$SHADEDGE
 70
     3
  9
$SHADEDIF
 70
    70
  9
$TILEMODE
 70
     1
  9
$MAXACTVP
 70
    64
  9
$PINSBASE
 10
0.0
 20
0.0
 30
0.0
  9
$PLIMCHECK
 70
     0
  9
$PEXTMIN
 10
1.0000000000E+20
 20
1.0000000000E+20
 30
1.0000000000E+20
  9
$PEXTMAX
 10
-1.0000000000E+20
 20
-1.0000000000E+20
 30
-1.0000000000E+20
  9
$PLIMMIN
 10
0.0
 20
0.0
  9
$PLIMMAX
 10
420.0
 20
297.0
  9
$UNITMODE
 70
     0
  9
$VISRETAIN
 70
     1
  9
$PLINEGEN
 70
     0
  9
$PSLTSCALE
 70
     1
  9
$TREEDEPTH
 70
  3020
  9
$CMLSTYLE
  2
Standard
  9
$CMLJUST
 70
     0
  9
$CMLSCALE
 40
20.0
  9
$PROXYGRAPHICS
 70
     1
  9
$MEASUREMENT
 70
     1
  9
$CELWEIGHT
370
    -1
  9
$ENDCAPS
280
     0
  9
$JOINSTYLE
280
     0
  9
$LWDISPLAY
290
     1
  9
$INSUNITS
 70
     4
  9
$HYPERLINKBASE
  1

  9
$STYLESHEET
  1

  9
$XEDIT
290
     1
  9
$CEPSNTYPE
380
     0
  9
$PSTYLEMODE
290
     1
  9
$FINGERPRINTGUID
  2
{2151dbd0-67f9-4103-8698-905cf5eee516}
  9
$VERSIONGUID
  2
{FAEB1C32-E019-11D5-929B-00C0DF256EC4}
  9
$EXTNAMES
290
     1
  9
$PSVPSCALE
 40
0.0
  9
$OLESTARTUP
290
     0
  0
ENDSEC
  0
SECTION
  2
CLASSES
  0
CLASS
  1
ACDBDICTIONARYWDFLT
  2
AcDbDictionaryWithDefault
  3
ObjectDBX Classes
 90
        0
280
     0
281
     0
  0
CLASS
  1
VISUALSTYLE
  2
AcDbVisualStyle
  3
ObjectDBX Classes
 90
     4095
280
     0
281
     0
  0
CLASS
  1
MATERIAL
  2
AcDbMaterial
  3
ObjectDBX Classes
 90
     1153
280
     0
281
     0
  0
CLASS
  1
SCALE
  2
AcDbScale
  3
ObjectDBX Classes
 90
     1153
280
     0
281
     0
  0
CLASS
  1
TABLESTYLE
  2
AcDbTableStyle
  3
ObjectDBX Classes
 90
     4095
280
     0
281
     0
  0
CLASS
  1
MLEADERSTYLE
  2
AcDbMLeaderStyle
  3
ACDB_MLEADERSTYLE_CLASS
 90
     4095
280
     0
281
     0
  0
CLASS
  1
SUN
  2
AcDbSun
  3
SCENEOE
 90
     1153
280
     0
281
     0
  0
CLASS
  1
ACDBPLACEHOLDER
  2
AcDbPlaceHolder
  3
ObjectDBX Classes
 90
        0
280
     0
281
     0
  0
CLASS
  1
LAYOUT
  2
AcDbLayout
  3
ObjectDBX Classes
 90
        0
280
     0
281
     0
  0
ENDSEC
  0
SECTION
  2
TABLES
  0
TABLE
  2
VPORT
  5
8
330
0
100
AcDbSymbolTable
 70
     1
  0
VPORT
  5
29
330
8
100
AcDbSymbolTableRecord
100
AcDbViewportTableRecord
  2
*Active
 70
     0
 10
0.0
 20
0.0
 11
1.0
 21
1.0
 12
215.9
 22
139.7
 13
0.0
 23
0.0
 14
10.0
 24
10.0
 15
10.0
 25
10.0
 16
0.0
 26
0.0
 36
1.0
 17
0.0
 27
0.0
 37
0.0
 40
279.4
 41
1.5454545455
 42
50.0
 43
0.0
 44
0.0
 50
0.0
 51
0.0
 71
     0
 72
  2000
 73
     1
 74
     3
 75
     0
 76
     0
 77
     0
 78
     0
281
     0
 65
     1
110
0.0
120
0.0
130
0.0
111
1.0
121
0.0
131
0.0
112
0.0
122
1.0
132
0.0
 79
     0
146
0.0
  0
ENDTAB
  0
TABLE
  2
LTYPE
  5
5
330
0
100
AcDbSymbolTable
 70
     8
  0
LTYPE
  5
14
330
5
100
AcDbSymbolTableRecord
100
AcDbLinetypeTableRecord
  2
ByBlock
 70
     0
  3

 72
    65
 73
     0
 40
0.0
  0
LTYPE
  5
15
330
5
100
AcDbSymbolTableRecord
100
AcDbLinetypeTableRecord
  2
ByLayer
 70
     0
  3

 72
    65
 73
     0
 40
0.0
  0
LTYPE
  5
16
330
5
100
AcDbSymbolTableRecord
100
AcDbLinetypeTableRecord
  2
Continuous
 70
     0
  3
Solid line
 72
    65
 73
     0
 40
0.0
  0
LTYPE
  5
5E
330
5
100
AcDbSymbolTableRecord
100
AcDbLinetypeTableRecord
  2
SLD-Сплошная
 70
     0
  3
SolidWorks Line Style
 72
    65
 73
     0
 40
0.0
  0
LTYPE
  5
5F
330
5
100
AcDbSymbolTableRecord
100
AcDbLinetypeTableRecord
  2
SLD-Штриховая
 70
     0
  3
SolidWorks Line Style
 72
    65
 73
     2
 40
1.905
 49
1.27
 74
     0
 49
-0.635
 74
     0
  0
LTYPE
  5
60
330
5
100
AcDbSymbolTableRecord
100
AcDbLinetypeTableRecord
  2
SLD-Штрихпункт.-с-двумя-точками
 70
     0
  3
SolidWorks Line Style
 72
    65
 73
     6
 40
12.7
 49
6.35
 74
     0
 49
-1.27
 74
     0
 49
1.27
 74
     0
 49
-1.27
 74
     0
 49
1.27
 74
     0
 49
-1.27
 74
     0
  0
LTYPE
  5
61
330
5
100
AcDbSymbolTableRecord
100
AcDbLinetypeTableRecord
  2
SLD-Штрихпункт.-утолщ.
 70
     0
  3
SolidWorks Line Style
 72
    65
 73
     4
 40
10.16
 49
6.35
 74
     0
 49
-1.27
 74
     0
 49
1.27
 74
     0
 49
-1.27
 74
     0
  0
LTYPE
  5
62
330
5
100
AcDbSymbolTableRecord
100
AcDbLinetypeTableRecord
  2
SLD-Осевая
 70
     0
  3
SolidWorks Line Style
 72
    65
 73
     4
 40
19.05
 49
15.24
 74
     0
 49
-1.27
 74
     0
 49
1.27
 74
     0
 49
-1.27
 74
     0
  0
LTYPE
  5
63
330
5
100
AcDbSymbolTableRecord
100
AcDbLinetypeTableRecord
  2
SLD-Сшитая
 70
     0
  3
SolidWorks Line Style
 72
    65
 73
     2
 40
0.635
 49
0.0
 74
     0
 49
-0.635
 74
     0
  0
LTYPE
  5
64
330
5
100
AcDbSymbolTableRecord
100
AcDbLinetypeTableRecord
  2
SLD-Тонкая-Толстая
 70
     0
  3
SolidWorks Line Style
 72
    65
 73
     2
 40
5.080508
 49
0.000508
 74
     0
 49
-5.08
 74
     0
  0
ENDTAB
  0
TABLE
  2
LAYER
  5
2
330
0
100
AcDbSymbolTable
 70
     3
  0
LAYER
  5
10
330
2
100
AcDbSymbolTableRecord
100
AcDbLayerTableRecord
  2
0
 70
     0
 62
     7
  6
Continuous
370
    -3
390
F
  0
LAYER
  5
65
330
2
100
AcDbSymbolTableRecord
100
AcDbLayerTableRecord
  2
ВОДЯНОЙ_ЗНАК
 70
     0
 62
    11
  6
SLD-Сплошная
370
    -3
390
F
  0
LAYER
  5
66
330
2
100
AcDbSymbolTableRecord
100
AcDbLayerTableRecord
  2
ОСНОВНОЙ
 70
     0
 62
     7
  6
SLD-Сплошная
370
    -3
390
F
  0
ENDTAB
  0
TABLE
  2
STYLE
  5
3
330
0
100
AcDbSymbolTable
 70
     1
  0
STYLE
  5
11
330
3
100
AcDbSymbolTableRecord
100
AcDbTextStyleTableRecord
  2
STANDARD
 70
     0
 40
0.0
 41
1.0
 50
0.0
 71
     0
 42
3.5
  3
GOST-TYPE-A.TTF
  4

1001
ACAD
1000
GOST TYPE A
1071
 16777250
  0
ENDTAB
  0
TABLE
  2
VIEW
  5
6
330
0
100
AcDbSymbolTable
 70
     0
  0
ENDTAB
  0
TABLE
  2
UCS
  5
7
330
0
100
AcDbSymbolTable
 70
     0
  0
ENDTAB
  0
TABLE
  2
APPID
  5
9
330
0
100
AcDbSymbolTable
 70
     1
  0
APPID
  5
12
330
9
100
AcDbSymbolTableRecord
100
AcDbRegAppTableRecord
  2
ACAD
 70
     0
  0
ENDTAB
  0
TABLE
  2
DIMSTYLE
  5
A
330
0
100
AcDbSymbolTable
 70
     1
100
AcDbDimStyleTable
  0
DIMSTYLE
105
27
330
A
100
AcDbSymbolTableRecord
100
AcDbDimStyleTableRecord
  2
ISO-25
 70
     0
 41
2.5
 42
0.625
 43
3.75
 44
1.25
 73
     0
 74
     0
 77
     1
 78
     8
140
2.5
141
2.5
143
0.0393700787
147
0.625
171
     3
172
     1
178
     0
271
     2
272
     2
274
     3
278
    44
283
     0
284
     8
340
11
  0
ENDTAB
  0
TABLE
  2
BLOCK_RECORD
  5
1
330
0
100
AcDbSymbolTable
 70
     1
  0
BLOCK_RECORD
  5
1F
330
1
100
AcDbSymbolTableRecord
100
AcDbBlockTableRecord
  2
*Model_Space
340
22
  0
BLOCK_RECORD
  5
1B
330
1
100
AcDbSymbolTableRecord
100
AcDbBlockTableRecord
  2
*Paper_Space
340
1E
  0
BLOCK_RECORD
  5
23
330
1
100
AcDbSymbolTableRecord
100
AcDbBlockTableRecord
  2
*Paper_Space0
340
26
  0
ENDTAB
  0
ENDSEC
  0
SECTION
  2
BLOCKS
  0
BLOCK
  5
20
330
1F
100
AcDbEntity
  8
0
100
AcDbBlockBegin
  2
*Model_Space
 70
     0
 10
0.0
 20
0.0
 30
0.0
  3
*Model_Space
  1

  0
ENDBLK
  5
21
330
1F
100
AcDbEntity
  8
0
100
AcDbBlockEnd
  0
BLOCK
  5
1C
330
1B
100
AcDbEntity
 67
     1
  8
0
100
AcDbBlockBegin
  2
*Paper_Space
 70
     0
 10
0.0
 20
0.0
 30
0.0
  3
*Paper_Space
  1

  0
ENDBLK
  5
1D
330
1B
100
AcDbEntity
 67
     1
  8
0
100
AcDbBlockEnd
  0
BLOCK
  5
24
330
23
100
AcDbEntity
  8
0
100
AcDbBlockBegin
  2
*Paper_Space0
 70
     0
 10
0.0
 20
0.0
 30
0.0
  3
*Paper_Space0
  1

  0
ENDBLK
  5
25
330
23
100
AcDbEntity
  8
0
100
AcDbBlockEnd
  0
ENDSEC
  0
SECTION
  2
ENTITIES
  0
LINE
  5
67
330
1F
100
AcDbEntity
  8
0
  6
SLD-Сплошная
 62
     7
370
    25
100
AcDbLine
 10
238.2993401651
 20
98.2929054292
 30
0.0
 11
247.7993401651
 21
98.2929054292
 31
0.0
  0
LINE
  5
68
330
1F
100
AcDbEntity
  8
0
  6
SLD-Сплошная
 62
     7
370
    25
100
AcDbLine
 10
247.7993401651
 20
198.4929054292
 30
0.0
 11
238.2993401651
 21
198.4929054292
 31
0.0
  0
LINE
  5
69
330
1F
100
AcDbEntity
  8
0
  6
SLD-Сплошная
 62
     7
370
    25
100
AcDbLine
 10
179.2993401651
 20
187.3929054292
 30
0.0
 11
171.7993401647
 21
187.3929054292
 31
0.0
  0
LINE
  5
6A
330
1F
100
AcDbEntity
  8
0
  6
SLD-Сплошная
 62
     7
370
    25
100
AcDbLine
 10
225.7993401651
 20
187.3929054292
 30
0.0
 11
219.225252368
 21
187.3929054292
 31
0.0
  0
LINE
  5
6B
330
1F
100
AcDbEntity
  8
0
  6
SLD-Сплошная
 62
     7
370
    25
100
AcDbLine
 10
248.2993401651
 20
185.8929054292
 30
0.0
 11
247.7993401651
 21
185.8929054292
 31
0.0
  0
LINE
  5
6C
330
1F
100
AcDbEntity
  8
0
  6
SLD-Сплошная
 62
     7
370
    25
100
AcDbLine
 10
269.2993401651
 20
185.8929054292
 30
0.0
 11
266.2993401651
 21
185.8929054292
 31
0.0
  0
LINE
  5
6D
330
1F
100
AcDbEntity
  8
0
  6
SLD-Сплошная
 62
     7
370
    25
100
AcDbLine
 10
247.7993401651
 20
110.8929054292
 30
0.0
 11
269.2993401651
 21
110.8929054292
 31
0.0
  0
LINE
  5
6E
330
1F
100
AcDbEntity
  8
0
  6
SLD-Сплошная
 62
     7
370
    25
100
AcDbLine
 10
270.7993401651
 20
147.7282990523
 30
0.0
 11
269.2993401651
 21
147.7282990523
 31
0.0
  0
LINE
  5
6F
330
1F
100
AcDbEntity
  8
0
  6
SLD-Сплошная
 62
     7
370
    25
100
AcDbLine
 10
269.2993401651
 20
136.3282990523
 30
0.0
 11
270.7993401651
 21
136.3282990523
 31
0.0
  0
LINE
  5
70
330
1F
100
AcDbEntity
  8
0
  6
SLD-Сплошная
 62
     7
370
    25
100
AcDbLine
 10
270.7993401651
 20
168.0574655766
 30
0.0
 11
269.2993401651
 21
168.0574655766
 31
0.0
  0
LINE
  5
71
330
1F
100
AcDbEntity
  8
0
  6
SLD-Сплошная
 62
     7
370
    25
100
AcDbLine
 10
269.2993401651
 20
156.6574655766
 30
0.0
 11
270.7993401651
 21
156.6574655766
 31
0.0
  0
LINE
  5
72
330
1F
100
AcDbEntity
  8
0
  6
SLD-Сплошная
 62
     7
370
    25
100
AcDbLine
 10
269.2993401651
 20
121.5429054292
 30
0.0
 11
289.2993401651
 21
121.5429054292
 31
0.0
  0
LINE
  5
73
330
1F
100
AcDbEntity
  8
0
  6
SLD-Сплошная
 62
     7
370
    25
100
AcDbLine
 10
175.033424255
 20
102.8929054292
 30
0.0
 11
225.7993401651
 21
102.8929054292
 31
0.0
  0
LINE
  5
74
330
1F
100
AcDbEntity
  8
0
  6
SLD-Сплошная
 62
     7
370
    25
100
AcDbLine
 10
290.7993401651
 20
135.1398517391
 30
0.0
 11
289.2993401651
 21
135.1398517391
 31
0.0
  0
LINE
  5
75
330
1F
100
AcDbEntity
  8
0
  6
SLD-Сплошная
 62
     7
370
    25
100
AcDbLine
 10
289.2993401651
 20
123.7398517391
 30
0.0
 11
290.7993401651
 21
123.7398517391
 31
0.0
  0
LINE
  5
76
330
1F
100
AcDbEntity
  8
0
  6
SLD-Сплошная
 62
     7
370
    25
100
AcDbLine
 10
270.7993401651
 20
151.7929054292
 30
0.0
 11
269.2993401651
 21
151.7929054292
 31
0.0
  0
LINE
  5
77
330
1F
100
AcDbEntity
  8
0
  6
SLD-Сплошная
 62
     7
370
    25
100
AcDbLine
 10
289.4993401651
 20
141.8431948443
 30
0.0
 11
289.2993401651
 21
141.8431948443
 31
0.0
  0
LINE
  5
78
330
1F
100
AcDbEntity
  8
0
  6
SLD-Сплошная
 62
     7
370
    25
100
AcDbLine
 10
289.2993401651
 20
135.8431948449
 30
0.0
 11
289.4993401651
 21
135.8431948449
 31
0.0
  0
LINE
  5
79
330
1F
100
AcDbEntity
  8
0
  6
SLD-Сплошная
 62
     7
370
    25
100
AcDbLine
 10
152.6993401647
 20
144.8392120211
 30
0.0
 11
166.8993401647
 21
144.8392120211
 31
0.0
  0
LINE
  5
7A
330
1F
100
AcDbEntity
  8
0
  6
SLD-Сплошная
 62
     7
370
    25
100
AcDbLine
 10
166.8993401647
 20
152.8392120211
 30
0.0
 11
152.6993401647
 21
152.8392120211
 31
0.0
  0
LINE
  5
7B
330
1F
100
AcDbEntity
  8
0
  6
SLD-Сплошная
 62
     7
370
    25
100
AcDbLine
 10
171.7993401647
 20
204.3929054293
 30
0.0
 11
170.4679584089
 21
204.3929054293
 31
0.0
  0
ARC
  5
7C
330
1F
100
AcDbEntity
  8
0
  6
SLD-Сплошная
 62
     7
370
    25
100
AcDbCircle
 10
166.8993401647
 20
121.4303320046
 30
0.0
 40
3.900000000000011
100
AcDbArc
 50
270.0
 51
313.0038408682
  0
ARC
  5
7D
330
1F
100
AcDbEntity
  8
0
  6
SLD-Сплошная
 62
     7
370
    25
100
AcDbCircle
 10
152.6993401647
 20
121.4303320046
 30
0.0
 40
3.90000000000002
100
AcDbArc
 50
180.0
 51
270.0
  0
ARC
  5
7E
330
1F
100
AcDbEntity
  8
0
  6
SLD-Сплошная
 62
     7
370
    25
100
AcDbCircle
 10
166.8993401647
 20
176.1285045467
 30
0.0
 40
3.90000000000004
100
AcDbArc
 50
44.8632832807
 51
90.0
  0
ARC
  5
7F
330
1F
100
AcDbEntity
  8
0
  6
SLD-Сплошная
 62
     7
370
    25
100
AcDbCircle
 10
152.6993401647
 20
176.1285045467
 30
0.0
 40
3.900000000000034
100
AcDbArc
 50
90.0
 51
180.0
  0
LINE
  5
80
330
1F
100
AcDbEntity
  8
0
  6
SLD-Сплошная
 62
     7
370
    25
100
AcDbLine
 10
152.6993401647
 20
117.5303320046
 30
0.0
 11
166.8993401647
 21
117.5303320046
 31
0.0
  0
LINE
  5
81
330
1F
100
AcDbEntity
  8
0
  6
SLD-Сплошная
 62
     7
370
    25
100
AcDbLine
 10
166.8993401647
 20
180.0285045467
 30
0.0
 11
152.6993401647
 21
180.0285045467
 31
0.0
  0
ARC
  5
82
330
1F
100
AcDbEntity
  8
0
  6
SLD-Сплошная
 62
     7
370
    25
100
AcDbCircle
 10
148.7993401647
 20
199.8929054293
 30
0.0
 40
3.000000000000028
100
AcDbArc
 50
90.0
 51
180.0
  0
LINE
  5
83
330
1F
100
AcDbEntity
  8
0
  6
SLD-Сплошная
 62
     7
370
    25
100
AcDbLine
 10
147.6082503853
 20
94.9716496083
 30
0.0
 11
170.4045179395
 21
94.9716496083
 31
0.0
  0
SPLINE
  5
84
330
1F
100
AcDbEntity
  8
0
  6
SLD-Сплошная
 62
     7
370
    25
100
AcDbSpline
210
0.0
220
0.0
230
1.0
 70
     8
 71
     3
 72
    11
 73
     7
 74
     0
 42
0.00000001
 43
0.00000001
 40
0.0
 40
0.0
 40
0.0
 40
0.0
 40
0.2259457062378645
 40
0.4757119400338001
 40
0.7384456951351087
 40
1.0
 40
1.0
 40
1.0
 40
1.0
 10
170.309488812293
 20
94.9723108671316
 30
0.0
 10
170.4850054034528
 20
94.98525847168813
 30
0.0
 10
170.8545425789054
 20
95.0125186935571
 30
0.0
 10
171.3871618331721
 20
95.24462984221837
 30
0.0
 10
171.8680084954342
 20
95.62223587743932
 30
0.0
 10
172.0732562949418
 20
95.97639274813166
 30
0.0
 10
172.1756493296577
 20
96.15307282383857
 30
0.0
  0
SPLINE
  5
85
330
1F
100
AcDbEntity
  8
0
  6
SLD-Сплошная
 62
     7
370
    25
100
AcDbSpline
210
0.0
220
0.0
230
1.0
 70
     8
 71
     3
 72
    11
 73
     7
 74
     0
 42
0.00000001
 43
0.00000001
 40
0.0
 40
0.0
 40
0.0
 40
0.0
 40
0.2598950487983484
 40
0.5182284927862878
 40
0.7670909063351314
 40
0.9999999999999999
 40
0.9999999999999999
 40
0.9999999999999999
 40
0.9999999999999999
 10
146.1055870735605
 20
95.71138483864225
 30
0.0
 10
146.2129686495452
 20
95.59806760182056
 30
0.0
 10
146.4270865888167
 20
95.37211400587353
 30
0.0
 10
146.8291268468773
 20
95.1414402466374
 30
0.0
 10
147.2517222684873
 20
94.99794943466156
 30
0.0
 10
147.5399465415311
 20
94.98074756008674
 30
0.0
 10
147.6792865672521
 20
94.97243143313327
 30
0.0
  0
ARC
  5
86
330
1F
100
AcDbEntity
  8
0
  6
SLD-Сплошная
 62
     7
370
    25
100
AcDbCircle
 10
166.8993401647
 20
195.9128606065
 30
0.0
 40
3.899999999999985
100
AcDbArc
 50
24.7970403845
 51
90.0
  0
ARC
  5
87
330
1F
100
AcDbEntity
  8
0
  6
SLD-Сплошная
 62
     7
370
    25
100
AcDbCircle
 10
152.6993401647
 20
195.9128606065
 30
0.0
 40
3.900000000000006
100
AcDbArc
 50
90.0
 51
180.0
  0
LINE
  5
88
330
1F
100
AcDbEntity
  8
0
  6
SLD-Сплошная
 62
     7
370
    25
100
AcDbLine
 10
141.15708912
 20
101.8010974376
 30
0.0
 11
146.0848191076
 21
95.7354395313
 31
0.0
  0
LINE
  5
89
330
1F
100
AcDbEntity
  8
0
  6
SLD-Сплошная
 62
     7
370
    25
100
AcDbLine
 10
172.2320355792
 20
96.2590608458
 30
0.0
 11
175.1914338475
 21
103.2670809545
 31
0.0
  0
SPLINE
  5
8A
330
1F
100
AcDbEntity
  8
0
  6
SLD-Сплошная
 62
     7
370
    25
100
AcDbSpline
210
0.0
220
0.0
230
1.0
 70
     8
 71
     3
 72
    13
 73
     9
 74
     0
 42
0.00000001
 43
0.00000001
 40
0.0
 40
0.0
 40
0.0
 40
0.0
 40
0.1350359896746994
 40
0.2545344552830685
 40
0.447686610649111
 40
0.6759983578400225
 40
0.8280652491885834
 40
1.0
 40
1.0
 40
1.0
 40
1.0
 10
143.86207900744
 20
105.7359790543019
 30
0.0
 10
143.6530486357879
 20
105.7286046030478
 30
0.0
 10
143.2590393652648
 20
105.7147042203611
 30
0.0
 10
142.5765041742939
 20
105.5760476115225
 30
0.0
 10
141.8078061517138
 20
105.2814484978998
 30
0.0
 10
141.1270783104432
 20
104.6916493557467
 30
0.0
 10
140.7132214774491
 20
103.9531829193344
 30
0.0
 10
140.6662812518037
 20
103.4709742957179
 30
0.0
 10
140.641371945957
 20
103.2150854088965
 30
0.0
  0
LINE
  5
8B
330
1F
100
AcDbEntity
  8
0
  6
SLD-Сплошная
 62
     7
370
    25
100
AcDbLine
 10
145.7993401647
 20
105.7363258558
 30
0.0
 11
143.8620790074
 21
105.7363258558
 31
0.0
  0
LINE
  5
8C
330
1F
100
AcDbEntity
  8
0
  6
SLD-Сплошная
 62
     7
370
    25
100
AcDbLine
 10
166.8993401647
 20
199.8128606065
 30
0.0
 11
152.6993401647
 21
199.8128606065
 31
0.0
  0
SPLINE
  5
8D
330
1F
100
AcDbEntity
  8
0
  6
SLD-Сплошная
 62
     7
370
    25
100
AcDbSpline
210
0.0
220
0.0
230
1.0
 70
     8
 71
     3
 72
    10
 73
     6
 74
     0
 42
0.00000001
 43
0.00000001
 40
0.0
 40
0.0
 40
0.0
 40
0.0
 40
0.2761377169588524
 40
0.5369249132815597
 40
1.0
 40
1.0
 40
1.0
 40
1.0
 10
140.641373785179
 20
103.2148938008585
 30
0.0
 10
140.6508021443063
 20
103.0709553449737
 30
0.0
 10
140.6691347392251
 20
102.7910799849721
 30
0.0
 10
140.8203733093374
 20
102.2881114710464
 30
0.0
 10
141.0376317286936
 20
101.9773420066714
 30
0.0
 10
141.1766180576415
 20
101.7785340289159
 30
0.0
  0
LINE
  5
8E
330
1F
100
AcDbEntity
  8
0
  6
SLD-Сплошная
 62
     7
370
    25
100
AcDbLine
 10
170.4679584089
 20
92.3929054293
 30
0.0
 11
171.7993401647
 21
92.3929054293
 31
0.0
  0
ARC
  5
8F
330
1F
100
AcDbEntity
  8
0
  6
SLD-Сплошная
 62
     7
370
    25
100
AcDbCircle
 10
148.7993401647
 20
96.8929054293
 30
0.0
 40
3.0
100
AcDbArc
 50
200.099816416
 51
270.0
  0
ARC
  5
90
330
1F
100
AcDbEntity
  8
0
  6
SLD-Сплошная
 62
     7
370
    25
100
AcDbCircle
 10
166.8993401647
 20
93.7947328873
 30
0.0
 40
3.899999999999999
100
AcDbArc
 50
270.0
 51
338.9646103287
  0
ARC
  5
91
330
1F
100
AcDbEntity
  8
0
  6
SLD-Сплошная
 62
     7
370
    25
100
AcDbCircle
 10
152.6993401647
 20
93.7947328873
 30
0.0
 40
3.900000000000006
100
AcDbArc
 50
180.0
 51
270.0
  0
ARC
  5
92
330
1F
100
AcDbEntity
  8
0
  6
SLD-Сплошная
 62
     7
370
    25
100
AcDbCircle
 10
152.6993401647
 20
202.9910779714
 30
0.0
 40
3.900000000000006
100
AcDbArc
 50
90.0
 51
180.0
  0
ARC
  5
93
330
1F
100
AcDbEntity
  8
0
  6
SLD-Сплошная
 62
     7
370
    25
100
AcDbCircle
 10
166.8993401647
 20
202.9910779714
 30
0.0
 40
3.899999999999981
100
AcDbArc
 50
21.0626934662
 51
90.0
  0
SPLINE
  5
94
330
1F
100
AcDbEntity
  8
0
  6
SLD-Сплошная
 62
     7
370
    25
100
AcDbSpline
210
0.0
220
0.0
230
1.0
 70
     8
 71
     3
 72
    10
 73
     6
 74
     0
 42
0.00000001
 43
0.00000001
 40
0.0
 40
0.0
 40
0.0
 40
0.0
 40
0.4630750867184682
 40
0.7238622830412204
 40
1.0
 40
1.0
 40
1.0
 40
1.0
 10
141.1766180576413
 20
195.0072768297618
 30
0.0
 10
141.0376317286937
 20
194.8084688520066
 30
0.0
 10
140.8203733093377
 20
194.4976993876319
 30
0.0
 10
140.6691347392254
 20
193.994730873707
 30
0.0
 10
140.6508021443064
 20
193.7148555137058
 30
0.0
 10
140.6413737851789
 20
193.5709170578211
 30
0.0
  0
LINE
  5
95
330
1F
100
AcDbEntity
  8
0
  6
SLD-Сплошная
 62
     7
370
    25
100
AcDbLine
 10
145.9820541051
 20
200.9238754861
 30
0.0
 11
141.15708912
 21
194.9847134211
 31
0.0
  0
LINE
  5
96
330
1F
100
AcDbEntity
  8
0
  6
SLD-Сплошная
 62
     7
370
    25
100
AcDbLine
 10
174.5153457113
 20
195.1197443079
 30
0.0
 11
172.2320355792
 21
200.5267500129
 31
0.0
  0
SPLINE
  5
97
330
1F
100
AcDbEntity
  8
0
  6
SLD-Сплошная
 62
     7
370
    25
100
AcDbSpline
210
0.0
220
0.0
230
1.0
 70
     8
 71
     3
 72
    13
 73
     9
 74
     0
 42
0.00000001
 43
0.00000001
 40
0.0
 40
0.0
 40
0.0
 40
0.0
 40
0.0465232929774828
 40
0.1669059824433894
 40
0.3494343260601634
 40
0.6111406615081796
 40
0.7928665970595751
 40
1.0
 40
1.0
 40
1.0
 40
1.0
 10
140.6869055723434
 20
193.2104738785043
 30
0.0
 10
140.6927879714752
 20
193.149491991607
 30
0.0
 10
140.713891542254
 20
192.930714663253
 30
0.0
 10
140.9041026005189
 20
192.48478176982
 30
0.0
 10
141.3758381765467
 20
191.8128657130331
 30
0.0
 10
142.1176414331082
 20
191.3729372797017
 30
0.0
 10
143.0159261279263
 20
191.0942872879654
 30
0.0
 10
143.5680040747146
 20
191.0652820187075
 30
0.0
 10
143.86207900744
 20
191.0498318043759
 30
0.0
  0
LINE
  5
98
330
1F
100
AcDbEntity
  8
0
  6
SLD-Сплошная
 62
     7
370
    25
100
AcDbLine
 10
143.8620790074
 20
191.0494850029
 30
0.0
 11
145.7993401647
 21
191.0494850029
 31
0.0
  0
SPLINE
  5
99
330
1F
100
AcDbEntity
  8
0
  6
SLD-Сплошная
 62
     7
370
    25
100
AcDbSpline
210
0.0
220
0.0
230
1.0
 70
     8
 71
     3
 72
     9
 73
     5
 74
     0
 42
0.00000001
 43
0.00000001
 40
0.0
 40
0.0
 40
0.0
 40
0.0
 40
0.923210775897689
 40
1.0
 40
1.0
 40
1.0
 40
1.0
 10
172.1756493296577
 20
200.6327380348393
 30
0.0
 10
172.083819667908
 20
200.819940826196
 30
0.0
 10
171.9843519578822
 20
201.0227144465262
 30
0.0
 10
171.8125339372289
 20
201.1597190794385
 30
0.0
 10
171.7993401647362
 20
201.1702395588983
 30
0.0
  0
LINE
  5
9A
330
1F
100
AcDbEntity
  8
0
  6
SLD-Сплошная
 62
     7
370
    25
100
AcDbLine
 10
225.7993401651
 20
201.8929054292
 30
0.0
 11
225.7993401651
 21
206.8929054292
 31
0.0
  0
LINE
  5
9B
330
1F
100
AcDbEntity
  8
0
  6
SLD-Сплошная
 62
     7
370
    25
100
AcDbLine
 10
225.7993401651
 20
206.8929054292
 30
0.0
 11
235.2993401651
 21
206.8929054292
 31
0.0
  0
LINE
  5
9C
330
1F
100
AcDbEntity
  8
0
  6
SLD-Сплошная
 62
     7
370
    25
100
AcDbLine
 10
235.2993401651
 20
206.8929054292
 30
0.0
 11
235.2993401651
 21
201.8929054292
 31
0.0
  0
LINE
  5
9D
330
1F
100
AcDbEntity
  8
0
  6
SLD-Сплошная
 62
     7
370
    25
100
AcDbLine
 10
235.2993401651
 20
201.8929054292
 30
0.0
 11
235.2993401651
 21
94.8929054292
 31
0.0
  0
LINE
  5
9E
330
1F
100
AcDbEntity
  8
0
  6
SLD-Сплошная
 62
     7
370
    25
100
AcDbLine
 10
225.7993401651
 20
94.8929054292
 30
0.0
 11
225.7993401651
 21
201.8929054292
 31
0.0
  0
LINE
  5
9F
330
1F
100
AcDbEntity
  8
0
  6
SLD-Сплошная
 62
     7
370
    25
100
AcDbLine
 10
235.2993401651
 20
89.8929054292
 30
0.0
 11
225.7993401651
 21
89.8929054292
 31
0.0
  0
LINE
  5
A0
330
1F
100
AcDbEntity
  8
0
  6
SLD-Сплошная
 62
     7
370
    25
100
AcDbLine
 10
235.2993401651
 20
94.8929054292
 30
0.0
 11
235.2993401651
 21
89.8929054292
 31
0.0
  0
LINE
  5
A1
330
1F
100
AcDbEntity
  8
0
  6
SLD-Сплошная
 62
     7
370
    25
100
AcDbLine
 10
225.7993401651
 20
89.8929054292
 30
0.0
 11
225.7993401651
 21
94.8929054292
 31
0.0
  0
LINE
  5
A2
330
1F
100
AcDbEntity
  8
0
  6
SLD-Сплошная
 62
     7
370
    25
100
AcDbLine
 10
247.7993401651
 20
148.3929054292
 30
0.0
 11
247.7993401651
 21
98.2929054292
 31
0.0
  0
LINE
  5
A3
330
1F
100
AcDbEntity
  8
0
  6
SLD-Сплошная
 62
     7
370
    25
100
AcDbLine
 10
247.7993401651
 20
198.4929054292
 30
0.0
 11
247.7993401651
 21
148.3929054292
 31
0.0
  0
LINE
  5
A4
330
1F
100
AcDbEntity
  8
0
  6
SLD-Сплошная
 62
     7
370
    25
100
AcDbLine
 10
189.4660068318
 20
130.1356252836
 30
0.0
 11
189.4660068318
 21
166.6501855748
 31
0.0
  0
LINE
  5
A5
330
1F
100
AcDbEntity
  8
0
  6
SLD-Сплошная
 62
     7
370
    25
100
AcDbLine
 10
189.4660068318
 20
130.1356252836
 30
0.0
 11
212.1326734984
 21
130.1356252836
 31
0.0
  0
LINE
  5
A6
330
1F
100
AcDbEntity
  8
0
  6
SLD-Сплошная
 62
     7
370
    25
100
AcDbLine
 10
212.1326734984
 20
130.1356252836
 30
0.0
 11
212.1326734984
 21
166.6501855748
 31
0.0
  0
LINE
  5
A7
330
1F
100
AcDbEntity
  8
0
  6
SLD-Сплошная
 62
     7
370
    25
100
AcDbLine
 10
212.1326734984
 20
166.6501855748
 30
0.0
 11
189.4660068318
 21
166.6501855748
 31
0.0
  0
LINE
  5
A8
330
1F
100
AcDbEntity
  8
0
  6
SLD-Сплошная
 62
     7
370
    25
100
AcDbLine
 10
224.2993401651
 20
184.1804731029
 30
0.0
 11
179.2993401651
 21
184.1804731029
 31
0.0
  0
LINE
  5
A9
330
1F
100
AcDbEntity
  8
0
  6
SLD-Сплошная
 62
     7
370
    25
100
AcDbLine
 10
225.7993401651
 20
110.3152027265
 30
0.0
 11
171.7993401647
 21
110.3152027265
 31
0.0
  0
LINE
  5
AA
330
1F
100
AcDbEntity
  8
0
  6
SLD-Сплошная
 62
     7
370
    25
100
AcDbLine
 10
198.1300991136
 20
149.4978012771
 30
0.0
 11
194.9270253636
 21
149.4978012771
 31
0.0
  0
LINE
  5
AB
330
1F
100
AcDbEntity
  8
0
  6
SLD-Сплошная
 62
     7
370
    25
100
AcDbLine
 10
194.9270253636
 20
138.3128825244
 30
0.0
 11
198.1300991136
 21
138.3128825244
 31
0.0
  0
LINE
  5
AC
330
1F
100
AcDbEntity
  8
0
  6
SLD-Сплошная
 62
     7
370
    25
100
AcDbLine
 10
198.1300991136
 20
138.3128825244
 30
0.0
 11
198.1300991136
 21
149.4978012771
 31
0.0
  0
LINE
  5
AD
330
1F
100
AcDbEntity
  8
0
  6
SLD-Сплошная
 62
     7
370
    25
100
AcDbLine
 10
194.9270253636
 20
138.3128825244
 30
0.0
 11
194.9270253636
 21
149.4978012771
 31
0.0
  0
LINE
  5
AE
330
1F
100
AcDbEntity
  8
0
  6
SLD-Сплошная
 62
     7
370
    25
100
AcDbLine
 10
202.4008770401
 20
149.4978012771
 30
0.0
 11
199.1978032901
 21
149.4978012771
 31
0.0
  0
LINE
  5
AF
330
1F
100
AcDbEntity
  8
0
  6
SLD-Сплошная
 62
     7
370
    25
100
AcDbLine
 10
203.4685812166
 20
141.9624751552
 30
0.0
 11
202.4008770401
 21
141.9624751552
 31
0.0
  0
LINE
  5
B0
330
1F
100
AcDbEntity
  8
0
  6
SLD-Сплошная
 62
     7
370
    25
100
AcDbLine
 10
206.6716549666
 20
149.4978012771
 30
0.0
 11
203.4685812166
 21
149.4978012771
 31
0.0
  0
LINE
  5
B1
330
1F
100
AcDbEntity
  8
0
  6
SLD-Сплошная
 62
     7
370
    25
100
AcDbLine
 10
206.6716549666
 20
138.3128825244
 30
0.0
 11
206.6716549666
 21
149.4978012771
 31
0.0
  0
LINE
  5
B2
330
1F
100
AcDbEntity
  8
0
  6
SLD-Сплошная
 62
     7
370
    25
100
AcDbLine
 10
199.1978032901
 20
138.3128825244
 30
0.0
 11
206.6716549666
 21
138.3128825244
 31
0.0
  0
LINE
  5
B3
330
1F
100
AcDbEntity
  8
0
  6
SLD-Сплошная
 62
     7
370
    25
100
AcDbLine
 10
202.4008770401
 20
141.9624751552
 30
0.0
 11
202.4008770401
 21
149.4978012771
 31
0.0
  0
LINE
  5
B4
330
1F
100
AcDbEntity
  8
0
  6
SLD-Сплошная
 62
     7
370
    25
100
AcDbLine
 10
203.4685812166
 20
141.9624751552
 30
0.0
 11
203.4685812166
 21
149.4978012771
 31
0.0
  0
LINE
  5
B5
330
1F
100
AcDbEntity
  8
0
  6
SLD-Сплошная
 62
     7
370
    25
100
AcDbLine
 10
199.1978032901
 20
138.3128825244
 30
0.0
 11
199.1978032901
 21
149.4978012771
 31
0.0
  0
LINE
  5
B6
330
1F
100
AcDbEntity
  8
0
  6
SLD-Сплошная
 62
     7
370
    25
100
AcDbLine
 10
200.6493958073
 20
154.2795962483
 30
0.0
 11
194.9270253636
 21
154.2795962483
 31
0.0
  0
LINE
  5
B7
330
1F
100
AcDbEntity
  8
0
  6
SLD-Сплошная
 62
     7
370
    25
100
AcDbLine
 10
200.6493958073
 20
154.2795962483
 30
0.0
 11
200.6493958073
 21
154.4036124114
 31
0.0
  0
SPLINE
  5
B8
330
1F
100
AcDbEntity
  8
0
  6
SLD-Сплошная
 62
     7
370
    25
100
AcDbSpline
210
0.0
220
0.0
230
1.0
 70
     8
 71
     3
 72
     8
 73
     4
 74
     0
 42
0.00000001
 43
0.00000001
 40
0.0
 40
0.0
 40
0.0
 40
0.0
 40
1.0
 40
1.0
 40
1.0
 40
1.0
 10
194.9270253635853
 20
159.0775423211726
 30
0.0
 10
196.8347637816351
 20
157.542544583805
 30
0.0
 10
198.7418881343133
 20
155.9808789488846
 30
0.0
 10
200.6493958072881
 20
154.403612411397
 30
0.0
  0
LINE
  5
B9
330
1F
100
AcDbEntity
  8
0
  6
SLD-Сплошная
 62
     7
370
    25
100
AcDbLine
 10
194.9270253636
 20
159.0775423212
 30
0.0
 11
194.9270253636
 21
163.0233897216
 31
0.0
  0
SPLINE
  5
BA
330
1F
100
AcDbEntity
  8
0
  6
SLD-Сплошная
 62
     7
370
    25
100
AcDbSpline
210
0.0
220
0.0
230
1.0
 70
     8
 71
     3
 72
     8
 73
     4
 74
     0
 42
0.00000001
 43
0.00000001
 40
0.0
 40
0.0
 40
0.0
 40
0.0
 40
1.0
 40
1.0
 40
1.0
 40
1.0
 10
200.7993401650876
 20
158.3661435533507
 30
0.0
 10
198.8419149471384
 20
159.9494164456932
 30
0.0
 10
196.8848416338779
 20
161.5057023005622
 30
0.0
 10
194.9270253635853
 20
163.0233897215856
 30
0.0
  0
SPLINE
  5
BB
330
1F
100
AcDbEntity
  8
0
  6
SLD-Сплошная
 62
     7
370
    25
100
AcDbSpline
210
0.0
220
0.0
230
1.0
 70
     8
 71
     3
 72
     8
 73
     4
 74
     0
 42
0.00000001
 43
0.00000001
 40
0.0
 40
0.0
 40
0.0
 40
0.0
 40
1.0
 40
1.0
 40
1.0
 40
1.0
 10
206.6716549665854
 20
163.0233897215856
 30
0.0
 10
204.7138386059167
 20
161.505702230502
 30
0.0
 10
202.7567654599878
 20
159.9494165079366
 30
0.0
 10
200.7993401650876
 20
158.3661435533507
 30
0.0
  0
LINE
  5
BC
330
1F
100
AcDbEntity
  8
0
  6
SLD-Сплошная
 62
     7
370
    25
100
AcDbLine
 10
206.6716549666
 20
159.0775423212
 30
0.0
 11
206.6716549666
 21
163.0233897216
 31
0.0
  0
SPLINE
  5
BD
330
1F
100
AcDbEntity
  8
0
  6
SLD-Сплошная
 62
     7
370
    25
100
AcDbSpline
210
0.0
220
0.0
230
1.0
 70
     8
 71
     3
 72
     8
 73
     4
 74
     0
 42
0.00000001
 43
0.00000001
 40
0.0
 40
0.0
 40
0.0
 40
0.0
 40
1.0
 40
1.0
 40
1.0
 40
1.0
 10
200.9492845228808
 20
154.4036124113988
 30
0.0
 10
202.8567921537664
 20
155.9808789140828
 30
0.0
 10
204.7639166004403
 20
157.5425446255694
 30
0.0
 10
206.6716549665855
 20
159.0775423211726
 30
0.0
  0
LINE
  5
BE
330
1F
100
AcDbEntity
  8
0
  6
SLD-Сплошная
 62
     7
370
    25
100
AcDbLine
 10
200.9492845229
 20
154.2795962483
 30
0.0
 11
200.9492845229
 21
154.4036124114
 31
0.0
  0
LINE
  5
BF
330
1F
100
AcDbEntity
  8
0
  6
SLD-Сплошная
 62
     7
370
    25
100
AcDbLine
 10
206.6716549666
 20
154.2795962483
 30
0.0
 11
200.9492845229
 21
154.2795962483
 31
0.0
  0
LINE
  5
C0
330
1F
100
AcDbEntity
  8
0
  6
SLD-Сплошная
 62
     7
370
    25
100
AcDbLine
 10
194.9270253636
 20
150.5645194461
 30
0.0
 11
206.6716549666
 21
150.5645194461
 31
0.0
  0
LINE
  5
C1
330
1F
100
AcDbEntity
  8
0
  6
SLD-Сплошная
 62
     7
370
    25
100
AcDbLine
 10
206.6716549666
 20
150.5645194461
 30
0.0
 11
206.6716549666
 21
154.2795962483
 31
0.0
  0
LINE
  5
C2
330
1F
100
AcDbEntity
  8
0
  6
SLD-Сплошная
 62
     7
370
    25
100
AcDbLine
 10
194.9270253636
 20
150.5645194461
 30
0.0
 11
194.9270253636
 21
154.2795962483
 31
0.0
  0
LINE
  5
C3
330
1F
100
AcDbEntity
  8
0
  6
SLD-Сплошная
 62
     7
370
    25
100
AcDbLine
 10
269.2993401651
 20
148.3929054292
 30
0.0
 11
269.2993401651
 21
185.8929054292
 31
0.0
  0
LINE
  5
C4
330
1F
100
AcDbEntity
  8
0
  6
SLD-Сплошная
 62
     7
370
    25
100
AcDbLine
 10
248.2993401651
 20
185.8929054292
 30
0.0
 11
248.2993401651
 21
185.8520498402
 31
0.0
  0
LINE
  5
C5
330
1F
100
AcDbEntity
  8
0
  6
SLD-Сплошная
 62
     7
370
    25
100
AcDbLine
 10
266.2993401651
 20
185.8520498402
 30
0.0
 11
248.2993401651
 21
185.8520498402
 31
0.0
  0
LINE
  5
C6
330
1F
100
AcDbEntity
  8
0
  6
SLD-Сплошная
 62
     7
370
    25
100
AcDbLine
 10
266.2993401651
 20
185.8520498402
 30
0.0
 11
266.2993401651
 21
185.8929054292
 31
0.0
  0
LINE
  5
C7
330
1F
100
AcDbEntity
  8
0
  6
SLD-Сплошная
 62
     7
370
    25
100
AcDbLine
 10
248.2993401651
 20
185.1399224768
 30
0.0
 11
248.2993401651
 21
183.1907675876
 31
0.0
  0
LINE
  5
C8
330
1F
100
AcDbEntity
  8
0
  6
SLD-Сплошная
 62
     7
370
    25
100
AcDbLine
 10
248.2993401651
 20
183.1907675876
 30
0.0
 11
266.2993401651
 21
183.1907675876
 31
0.0
  0
LINE
  5
C9
330
1F
100
AcDbEntity
  8
0
  6
SLD-Сплошная
 62
     7
370
    25
100
AcDbLine
 10
266.2993401651
 20
183.1907675876
 30
0.0
 11
266.2993401651
 21
185.1399224768
 31
0.0
  0
LINE
  5
CA
330
1F
100
AcDbEntity
  8
0
  6
SLD-Сплошная
 62
     7
370
    25
100
AcDbLine
 10
248.2993401651
 20
185.1399224768
 30
0.0
 11
266.2993401651
 21
185.1399224768
 31
0.0
  0
LINE
  5
CB
330
1F
100
AcDbEntity
  8
0
  6
SLD-Сплошная
 62
     7
370
    25
100
AcDbLine
 10
248.2993401651
 20
173.3138188271
 30
0.0
 11
248.2993401651
 21
167.2958985622
 31
0.0
  0
LINE
  5
CC
330
1F
100
AcDbEntity
  8
0
  6
SLD-Сплошная
 62
     7
370
    25
100
AcDbLine
 10
266.2993401651
 20
167.2958985622
 30
0.0
 11
248.2993401651
 21
167.2958985622
 31
0.0
  0
LINE
  5
CD
330
1F
100
AcDbEntity
  8
0
  6
SLD-Сплошная
 62
     7
370
    25
100
AcDbLine
 10
266.2993401651
 20
167.2958985622
 30
0.0
 11
266.2993401651
 21
173.3138188271
 31
0.0
  0
LINE
  5
CE
330
1F
100
AcDbEntity
  8
0
  6
SLD-Сплошная
 62
     7
370
    25
100
AcDbLine
 10
248.2993401651
 20
173.3138188271
 30
0.0
 11
266.2993401651
 21
173.3138188271
 31
0.0
  0
LINE
  5
CF
330
1F
100
AcDbEntity
  8
0
  6
SLD-Сплошная
 62
     7
370
    25
100
AcDbLine
 10
269.2993401651
 20
110.8929054292
 30
0.0
 11
269.2993401651
 21
148.3929054292
 31
0.0
  0
LINE
  5
D0
330
1F
100
AcDbEntity
  8
0
  6
SLD-Сплошная
 62
     7
370
    25
100
AcDbLine
 10
199.1978032901
 20
133.7624211369
 30
0.0
 11
199.1978032901
 21
137.2857978973
 31
0.0
  0
LINE
  5
D1
330
1F
100
AcDbEntity
  8
0
  6
SLD-Сплошная
 62
     7
370
    25
100
AcDbLine
 10
206.6716549666
 20
137.2857978973
 30
0.0
 11
199.1978032901
 21
137.2857978973
 31
0.0
  0
LINE
  5
D2
330
1F
100
AcDbEntity
  8
0
  6
SLD-Сплошная
 62
     7
370
    25
100
AcDbLine
 10
206.6716549666
 20
133.7624211369
 30
0.0
 11
206.6716549666
 21
137.2857978973
 31
0.0
  0
LINE
  5
D3
330
1F
100
AcDbEntity
  8
0
  6
SLD-Сплошная
 62
     7
370
    25
100
AcDbLine
 10
199.1978032901
 20
133.7624211369
 30
0.0
 11
206.6716549666
 21
133.7624211369
 31
0.0
  0
LINE
  5
D4
330
1F
100
AcDbEntity
  8
0
  6
SLD-Сплошная
 62
     7
370
    25
100
AcDbLine
 10
194.9270253636
 20
133.7624211369
 30
0.0
 11
198.1300991136
 21
133.7624211369
 31
0.0
  0
LINE
  5
D5
330
1F
100
AcDbEntity
  8
0
  6
SLD-Сплошная
 62
     7
370
    25
100
AcDbLine
 10
198.1300991136
 20
137.2857978973
 30
0.0
 11
194.9270253636
 21
137.2857978973
 31
0.0
  0
LINE
  5
D6
330
1F
100
AcDbEntity
  8
0
  6
SLD-Сплошная
 62
     7
370
    25
100
AcDbLine
 10
194.9270253636
 20
133.7624211369
 30
0.0
 11
194.9270253636
 21
137.2857978973
 31
0.0
  0
LINE
  5
D7
330
1F
100
AcDbEntity
  8
0
  6
SLD-Сплошная
 62
     7
370
    25
100
AcDbLine
 10
198.1300991136
 20
133.7624211369
 30
0.0
 11
198.1300991136
 21
137.2857978973
 31
0.0
  0
LINE
  5
D8
330
1F
100
AcDbEntity
  8
0
  6
SLD-Сплошная
 62
     7
370
    25
100
AcDbLine
 10
270.7993401651
 20
142.0282990523
 30
0.0
 11
270.7993401651
 21
147.7282990523
 31
0.0
  0
LINE
  5
D9
330
1F
100
AcDbEntity
  8
0
  6
SLD-Сплошная
 62
     7
370
    25
100
AcDbLine
 10
270.7993401651
 20
136.3282990523
 30
0.0
 11
270.7993401651
 21
142.0282990523
 31
0.0
  0
LINE
  5
DA
330
1F
100
AcDbEntity
  8
0
  6
SLD-Сплошная
 62
     7
370
    25
100
AcDbLine
 10
270.7993401651
 20
162.3574655766
 30
0.0
 11
270.7993401651
 21
168.0574655766
 31
0.0
  0
LINE
  5
DB
330
1F
100
AcDbEntity
  8
0
  6
SLD-Сплошная
 62
     7
370
    25
100
AcDbLine
 10
270.7993401651
 20
156.6574655766
 30
0.0
 11
270.7993401651
 21
162.3574655766
 31
0.0
  0
LINE
  5
DC
330
1F
100
AcDbEntity
  8
0
  6
SLD-Сплошная
 62
     7
370
    25
100
AcDbLine
 10
224.2993401651
 20
184.1804731029
 30
0.0
 11
193.6104015969
 21
203.3570502568
 31
0.0
  0
ARC
  5
DD
330
1F
100
AcDbEntity
  8
0
  6
SLD-Сплошная
 62
     7
370
    25
100
AcDbCircle
 10
190.0993401651
 20
196.8929054292
 30
0.0
 40
2.100000000000023
100
AcDbArc
 50
270.0
 51
90.0
  0
LINE
  5
DE
330
1F
100
AcDbEntity
  8
0
  6
SLD-Сплошная
 62
     7
370
    25
100
AcDbLine
 10
190.0993401651
 20
198.9929054292
 30
0.0
 11
186.2993401651
 21
198.9929054292
 31
0.0
  0
ARC
  5
DF
330
1F
100
AcDbEntity
  8
0
  6
SLD-Сплошная
 62
     7
370
    25
100
AcDbCircle
 10
186.2993401651
 20
196.8929054292
 30
0.0
 40
2.100000000000023
100
AcDbArc
 50
90.0
 51
270.0
  0
LINE
  5
E0
330
1F
100
AcDbEntity
  8
0
  6
SLD-Сплошная
 62
     7
370
    25
100
AcDbLine
 10
186.2993401651
 20
194.7929054292
 30
0.0
 11
190.0993401651
 21
194.7929054292
 31
0.0
  0
ARC
  5
E1
330
1F
100
AcDbEntity
  8
0
  6
SLD-Сплошная
 62
     7
370
    25
100
AcDbCircle
 10
187.2513704261
 20
193.1804731029
 30
0.0
 40
12.00000000000006
100
AcDbArc
 50
58.0
 51
90.0
  0
LINE
  5
E2
330
1F
100
AcDbEntity
  8
0
  6
SLD-Сплошная
 62
     7
370
    25
100
AcDbLine
 10
179.2993401651
 20
198.6804731029
 30
0.0
 11
179.2993401651
 21
184.1804731029
 31
0.0
  0
LINE
  5
E3
330
1F
100
AcDbEntity
  8
0
  6
SLD-Сплошная
 62
     7
370
    25
100
AcDbLine
 10
187.2513704261
 20
205.1804731029
 30
0.0
 11
185.7993401651
 21
205.1804731029
 31
0.0
  0
ARC
  5
E4
330
1F
100
AcDbEntity
  8
0
  6
SLD-Сплошная
 62
     7
370
    25
100
AcDbCircle
 10
185.7993401651
 20
198.6804731029
 30
0.0
 40
6.500000000000114
100
AcDbArc
 50
90.0
 51
180.0
  0
LINE
  5
E5
330
1F
100
AcDbEntity
  8
0
  6
SLD-Сплошная
 62
     7
370
    25
100
AcDbLine
 10
289.2993401651
 20
138.6438678341
 30
0.0
 11
270.7993401651
 21
138.6438678341
 31
0.0
  0
LINE
  5
E6
330
1F
100
AcDbEntity
  8
0
  6
SLD-Сплошная
 62
     7
370
    25
100
AcDbLine
 10
289.2993401651
 20
138.6438678341
 30
0.0
 11
289.2993401651
 21
130.1429054292
 31
0.0
  0
LINE
  5
E7
330
1F
100
AcDbEntity
  8
0
  6
SLD-Сплошная
 62
     7
370
    25
100
AcDbLine
 10
289.2993401651
 20
130.1429054292
 30
0.0
 11
289.2993401651
 21
121.5429054292
 31
0.0
  0
LINE
  5
E8
330
1F
100
AcDbEntity
  8
0
  6
SLD-Сплошная
 62
     7
370
    25
100
AcDbLine
 10
290.7993401651
 20
135.1398517391
 30
0.0
 11
290.7993401651
 21
129.4398517391
 31
0.0
  0
LINE
  5
E9
330
1F
100
AcDbEntity
  8
0
  6
SLD-Сплошная
 62
     7
370
    25
100
AcDbLine
 10
290.7993401651
 20
129.4398517391
 30
0.0
 11
290.7993401651
 21
123.7398517391
 31
0.0
  0
LINE
  5
EA
330
1F
100
AcDbEntity
  8
0
  6
SLD-Сплошная
 62
     7
370
    25
100
AcDbLine
 10
270.7993401651
 20
147.7282990523
 30
0.0
 11
270.7993401651
 21
151.7929054292
 31
0.0
  0
SPLINE
  5
EB
330
1F
100
AcDbEntity
  8
0
  6
SLD-Сплошная
 62
     7
370
    25
100
AcDbSpline
210
0.0
220
0.0
230
1.0
 70
     8
 71
     3
 72
    11
 73
     7
 74
     0
 42
0.00000001
 43
0.00000001
 40
0.0
 40
0.0
 40
0.0
 40
0.0
 40
0.2331160595458067
 40
0.4770057445076298
 40
0.7324166961097961
 40
1.0
 40
1.0
 40
1.0
 40
1.0
 10
271.1098056174595
 20
147.0367316302409
 30
0.0
 10
271.0892654582447
 20
147.0029771735972
 30
0.0
 10
271.0472358616664
 20
146.9339082739549
 30
0.0
 10
270.97371003939
 20
146.8324137518718
 30
0.0
 10
270.8913764463456
 20
146.7293330415332
 30
0.0
 10
270.8304912797673
 20
146.6621742657013
 30
0.0
 10
270.7993401650851
 20
146.627813339298
 30
0.0
  0
LINE
  5
EC
330
1F
100
AcDbEntity
  8
0
  6
SLD-Сплошная
 62
     7
370
    25
100
AcDbLine
 10
289.2993401651
 20
147.0367316302
 30
0.0
 11
271.1098056175
 21
147.0367316302
 31
0.0
  0
LINE
  5
ED
330
1F
100
AcDbEntity
  8
0
  6
SLD-Сплошная
 62
     7
370
    25
100
AcDbLine
 10
289.2993401651
 20
138.6438678341
 30
0.0
 11
289.2993401651
 21
147.0367316302
 31
0.0
  0
LINE
  5
EE
330
1F
100
AcDbEntity
  8
0
  6
SLD-Сплошная
 62
     7
370
    25
100
AcDbLine
 10
289.4993401651
 20
141.8431948443
 30
0.0
 11
289.4993401651
 21
138.8431948446
 31
0.0
  0
LINE
  5
EF
330
1F
100
AcDbEntity
  8
0
  6
SLD-Сплошная
 62
     7
370
    25
100
AcDbLine
 10
289.4993401651
 20
138.8431948446
 30
0.0
 11
289.4993401651
 21
135.8431948449
 31
0.0
  0
SPLINE
  5
F0
330
1F
100
AcDbEntity
  8
0
  6
SLD-Сплошная
 62
     7
370
    25
100
AcDbSpline
210
0.0
220
0.0
230
1.0
 70
     8
 71
     3
 72
    11
 73
     7
 74
     0
 42
0.00000001
 43
0.00000001
 40
0.0
 40
0.0
 40
0.0
 40
0.0
 40
0.2444431646936211
 40
0.492824111206035
 40
0.7447348830888053
 40
1.0
 40
1.0
 40
1.0
 40
1.0
 10
271.1098056174595
 20
147.0367316302409
 30
0.0
 10
271.0882600698986
 20
147.0175343054774
 30
0.0
 10
271.0448218934189
 20
146.9788304025642
 30
0.0
 10
270.9697993895645
 20
146.9229287234922
 30
0.0
 10
270.888251109365
 20
146.8678530826402
 30
0.0
 10
270.8291075338605
 20
146.8325003747725
 30
0.0
 10
270.7993401650851
 20
146.814707113487
 30
0.0
  0
LINE
  5
F1
330
1F
100
AcDbEntity
  8
0
  6
SLD-Сплошная
 62
     7
370
    25
100
AcDbLine
 10
235.2993401651
 20
91.8929054292
 30
0.0
 11
238.2993401651
 21
91.8929054292
 31
0.0
  0
LINE
  5
F2
330
1F
100
AcDbEntity
  8
0
  6
SLD-Сплошная
 62
     7
370
    25
100
AcDbLine
 10
238.2993401651
 20
91.8929054292
 30
0.0
 11
238.2993401651
 21
94.8929054292
 31
0.0
  0
LINE
  5
F3
330
1F
100
AcDbEntity
  8
0
  6
SLD-Сплошная
 62
     7
370
    25
100
AcDbLine
 10
235.2993401651
 20
204.8929054292
 30
0.0
 11
238.2993401651
 21
204.8929054292
 31
0.0
  0
LINE
  5
F4
330
1F
100
AcDbEntity
  8
0
  6
SLD-Сплошная
 62
     7
370
    25
100
AcDbLine
 10
238.2993401651
 20
201.8929054292
 30
0.0
 11
238.2993401651
 21
204.8929054292
 31
0.0
  0
LINE
  5
F5
330
1F
100
AcDbEntity
  8
0
  6
SLD-Сплошная
 62
     7
370
    25
100
AcDbLine
 10
238.2993401651
 20
94.8929054292
 30
0.0
 11
238.2993401651
 21
201.8929054292
 31
0.0
  0
LINE
  5
F6
330
1F
100
AcDbEntity
  8
0
  6
SLD-Сплошная
 62
     7
370
    25
100
AcDbLine
 10
166.8993401647
 20
144.840838268
 30
0.0
 11
166.8993401647
 21
144.8392139701
 31
0.0
  0
LINE
  5
F7
330
1F
100
AcDbEntity
  8
0
  6
SLD-Сплошная
 62
     7
370
    25
100
AcDbLine
 10
152.6993401647
 20
144.840838268
 30
0.0
 11
152.6993401647
 21
144.8392139701
 31
0.0
  0
ARC
  5
F8
330
1F
100
AcDbEntity
  8
0
  6
SLD-Сплошная
 62
     7
370
    25
100
AcDbCircle
 10
152.6992747797
 20
148.7392807614
 30
0.0
 40
3.899934615535252
100
AcDbArc
 50
180.0009606343
 51
270.0009606021
  0
LINE
  5
F9
330
1F
100
AcDbEntity
  8
0
  6
SLD-Сплошная
 62
     7
370
    25
100
AcDbLine
 10
148.7993401647
 20
148.7392153742
 30
0.0
 11
148.7993401647
 21
148.9392078746
 31
0.0
  0
ARC
  5
FA
330
1F
100
AcDbEntity
  8
0
  6
SLD-Сплошная
 62
     7
370
    25
100
AcDbCircle
 10
152.6992747797
 20
148.9391432807
 30
0.0
 40
3.899934615533566
100
AcDbArc
 50
89.9990393979
 51
179.999039984
  0
SPLINE
  5
FB
330
1F
100
AcDbEntity
  8
0
  6
SLD-Сплошная
 62
     7
370
    25
100
AcDbSpline
210
0.0
220
0.0
230
1.0
 70
     8
 71
     3
 72
    28
 73
    24
 74
     0
 42
0.00000001
 43
0.00000001
 40
0.0
 40
0.0
 40
0.0
 40
0.0
 40
0.0179573985709738
 40
0.0358193046127261
 40
0.0536283605444978
 40
0.0714275886303416
 40
0.0892600822595713
 40
0.1071686946762127
 40
0.1251957362842986
 40
0.1876223104418499
 40
0.2502764683832173
 40
0.3126239151508783
 40
0.3753468839539662
 40
0.5000175541189346
 40
0.6245402110126225
 40
0.6871499128086616
 40
0.7494051712054055
 40
0.8119969834626809
 40
0.8743867400795647
 40
0.9059545775977753
 40
0.9372577863859802
 40
0.9685286077003297
 40
1.0
 40
1.0
 40
1.0
 40
1.0
 10
167.7993401647361
 20
152.4918953234678
 30
0.0
 10
167.8559106882935
 20
152.4763541974096
 30
0.0
 10
167.9687509088517
 20
152.4453545887466
 30
0.0
 10
168.1345813487228
 20
152.3886456343339
 30
0.0
 10
168.2971151175031
 20
152.3246452720919
 30
0.0
 10
168.4561582687211
 20
152.2526171635113
 30
0.0
 10
168.6117570900963
 20
152.1727608023821
 30
0.0
 10
168.7639034761948
 20
152.0850082603745
 30
0.0
 10
169.0340876611375
 20
151.9113055829746
 30
0.0
 10
169.3999052684532
 20
151.6166709847315
 30
0.0
 10
169.8056731920048
 20
151.1550929050768
 30
0.0
 10
170.1316830897776
 20
150.6327888117487
 30
0.0
 10
170.4442600275823
 20
149.8761511432278
 30
0.0
 10
170.6026204622396
 20
148.8519538663159
 30
0.0
 10
170.4444805391324
 20
147.8279662884089
 30
0.0
 10
170.1327252673584
 20
147.0719166387069
 30
0.0
 10
169.8076039012147
 20
146.5498039939746
 30
0.0
 10
169.4026899209895
 20
146.0879118635816
 30
0.0
 10
169.0029447389927
 20
145.7650037329452
 30
0.0
 10
168.6550062791893
 20
145.5490535134325
 30
0.0
 10
168.3803388000208
 20
145.4101514878353
 30
0.0
 10
168.0953938180338
 20
145.2938982606993
 30
0.0
 10
167.8982348049903
 20
145.2374628014657
 30
0.0
 10
167.7993401647234
 20
145.2091548669054
 30
0.0
  0
ARC
  5
FC
330
1F
100
AcDbEntity
  8
0
  6
SLD-Сплошная
 62
     7
370
    25
100
AcDbCircle
 10
166.8993404886
 20
148.7394706241
 30
0.0
 40
3.900124477620821
100
AcDbArc
 50
269.9999952419
 51
283.3419252002
  0
ARC
  5
FD
330
1F
100
AcDbEntity
  8
0
  6
SLD-Сплошная
 62
     7
370
    25
100
AcDbCircle
 10
166.8993404886
 20
148.9389534181
 30
0.0
 40
3.900124477621559
100
AcDbArc
 50
76.6580747998
 51
90.0000047581
  0
SPLINE
  5
FE
330
1F
100
AcDbEntity
  8
0
  6
SLD-Сплошная
 62
     7
370
    25
100
AcDbSpline
210
0.0
220
0.0
230
1.0
 70
     8
 71
     3
 72
    12
 73
     8
 74
     0
 42
0.00000001
 43
0.00000001
 40
0.0
 40
0.0
 40
0.0
 40
0.0
 40
0.1493537344742793
 40
0.3618267070327013
 40
0.5741636231548782
 40
0.7866592915813804
 40
1.0
 40
1.0
 40
1.0
 40
1.0
 10
170.4071997978685
 20
197.5277833330585
 30
0.0
 10
170.4668001815088
 20
197.3926881755543
 30
0.0
 10
170.6111890086536
 20
197.0654045214303
 30
0.0
 10
170.4062572888821
 20
196.5038606669293
 30
0.0
 10
169.8508326087983
 20
195.9321833409307
 30
0.0
 10
168.95745473902
 20
195.4553089780899
 30
0.0
 10
168.1858887275656
 20
195.2985479898209
 30
0.0
 10
167.7993401647234
 20
195.2200119555406
 30
0.0
  0
LINE
  5
FF
330
1F
100
AcDbEntity
  8
0
  6
SLD-Сплошная
 62
     7
370
    25
100
AcDbLine
 10
167.7993401647
 20
204.3023297901
 30
0.0
 11
167.7993401647
 21
199.7075937987
 31
0.0
  0
SPLINE
  5
100
330
1F
100
AcDbEntity
  8
0
  6
SLD-Сплошная
 62
     7
370
    25
100
AcDbSpline
210
0.0
220
0.0
230
1.0
 70
     8
 71
     3
 72
    11
 73
     7
 74
     0
 42
0.00000001
 43
0.00000001
 40
0.0
 40
0.0
 40
0.0
 40
0.0
 40
0.1710481470907394
 40
0.4468620709891987
 40
0.7228822053610605
 40
0.9999999999999999
 40
0.9999999999999999
 40
0.9999999999999999
 40
0.9999999999999999
 10
170.4679584089285
 20
204.3898456917061
 30
0.0
 10
170.4420033894756
 20
204.3900211431101
 30
0.0
 10
170.37419608526
 20
204.3904795086585
 30
0.0
 10
169.8386443880754
 20
204.364129967133
 30
0.0
 10
168.9605168879358
 20
204.3266046911569
 30
0.0
 10
168.1869107933343
 20
204.3104321215586
 30
0.0
 10
167.7993401647234
 20
204.3023297901406
 30
0.0
  0
LINE
  5
101
330
1F
100
AcDbEntity
  8
0
  6
SLD-Сплошная
 62
     7
370
    25
100
AcDbLine
 10
171.7993401647
 20
204.3929054293
 30
0.0
 11
171.7993401647
 21
101.6027355051
 31
0.0
  0
SPLINE
  5
102
330
1F
100
AcDbEntity
  8
0
  6
SLD-Сплошная
 62
     7
370
    25
100
AcDbSpline
210
0.0
220
0.0
230
1.0
 70
     8
 71
     3
 72
    14
 73
    10
 74
     0
 42
0.00000001
 43
0.00000001
 40
0.0
 40
0.0
 40
0.0
 40
0.0
 40
0.1449416422338207
 40
0.2885783617615627
 40
0.4312706787403821
 40
0.5733863007990454
 40
0.7152974184567038
 40
0.8573778293543259
 40
1.0
 40
1.0
 40
1.0
 40
1.0
 10
170.6379117584616
 20
101.7169395005535
 30
0.0
 10
170.6952140688251
 20
101.7164659775367
 30
0.0
 10
170.8093027916723
 20
101.7155231946735
 30
0.0
 10
170.9793826128553
 20
101.7082130828604
 30
0.0
 10
171.1474896911065
 20
101.6965689207351
 30
0.0
 10
171.3136396663494
 20
101.6802143499686
 30
0.0
 10
171.4777570800662
 20
101.6591648025283
 30
0.0
 10
171.6401076123519
 20
101.6337990252926
 30
0.0
 10
171.7461953559177
 20
101.613103139241
 30
0.0
 10
171.7993401647362
 20
101.6027355051433
 30
0.0
  0
LINE
  5
103
330
1F
100
AcDbEntity
  8
0
  6
SLD-Сплошная
 62
     7
370
    25
100
AcDbLine
 10
170.6379117585
 20
101.7169395006
 30
0.0
 11
167.7993401647
 21
101.7169395006
 31
0.0
  0
LINE
  5
104
330
1F
100
AcDbEntity
  8
0
  6
SLD-Сплошная
 62
     7
370
    25
100
AcDbLine
 10
167.7993401647
 20
117.6809843826
 30
0.0
 11
167.7993401647
 21
101.7169395006
 31
0.0
  0
SPLINE
  5
105
330
1F
100
AcDbEntity
  8
0
  6
SLD-Сплошная
 62
     7
370
    25
100
AcDbSpline
210
0.0
220
0.0
230
1.0
 70
     8
 71
     3
 72
    14
 73
    10
 74
     0
 42
0.00000001
 43
0.00000001
 40
0.0
 40
0.0
 40
0.0
 40
0.0
 40
0.1588365912376206
 40
0.3177234034736385
 40
0.4766258843044559
 40
0.6355595461045078
 40
0.7943045164411346
 40
0.952947834907981
 40
1.0
 40
1.0
 40
1.0
 40
1.0
 10
167.7993401647361
 20
124.0178432148477
 30
0.0
 10
168.1847269755673
 20
123.8893620154931
 30
0.0
 10
168.9556224489405
 20
123.632358993562
 30
0.0
 10
169.8471140532264
 20
122.8397626479779
 30
0.0
 10
170.4135441369286
 20
121.8652382442959
 30
0.0
 10
170.6054762838099
 20
120.7856691149078
 30
0.0
 10
170.4009952606849
 20
119.7408382981069
 30
0.0
 10
170.0176601179882
 20
118.9761324527055
 30
0.0
 10
169.6241263277283
 20
118.6775247175116
 30
0.0
 10
169.5341067679975
 20
118.6092191805548
 30
0.0
  0
LINE
  5
106
330
1F
100
AcDbEntity
  8
0
  6
SLD-Сплошная
 62
     7
370
    25
100
AcDbLine
 10
167.7993401647
 20
145.2091548669
 30
0.0
 11
167.7993401647
 21
124.0178432148
 31
0.0
  0
LINE
  5
107
330
1F
100
AcDbEntity
  8
0
  6
SLD-Сплошная
 62
     7
370
    25
100
AcDbLine
 10
167.7993401647
 20
173.5904087434
 30
0.0
 11
167.7993401647
 21
152.4918953235
 31
0.0
  0
SPLINE
  5
108
330
1F
100
AcDbEntity
  8
0
  6
SLD-Сплошная
 62
     7
370
    25
100
AcDbSpline
210
0.0
220
0.0
230
1.0
 70
     8
 71
     3
 72
    14
 73
    10
 74
     0
 42
0.00000001
 43
0.00000001
 40
0.0
 40
0.0
 40
0.0
 40
0.0
 40
0.0278418475213962
 40
0.1898741960448173
 40
0.351938339702259
 40
0.5138100752814543
 40
0.6755781567760507
 40
0.8374671831170668
 40
0.9999999999999999
 40
0.9999999999999999
 40
0.9999999999999999
 40
0.9999999999999999
 10
169.6414004796214
 20
178.8633911303855
 30
0.0
 10
169.6930603252335
 20
178.823751042155
 30
0.0
 10
170.045367105373
 20
178.5534158972576
 30
0.0
 10
170.3972914824978
 20
177.8279601032554
 30
0.0
 10
170.6063791538128
 20
176.7958856948121
 30
0.0
 10
170.4135950722127
 20
175.7259640124185
 30
0.0
 10
169.8488750213524
 20
174.7611014100128
 30
0.0
 10
168.9579465601326
 20
173.9739375534843
 30
0.0
 10
168.1860528846778
 20
173.7184206980072
 30
0.0
 10
167.7993401647234
 20
173.5904087433587
 30
0.0
  0
LINE
  5
109
330
1F
100
AcDbEntity
  8
0
  6
SLD-Сплошная
 62
     7
370
    25
100
AcDbLine
 10
167.7993401647
 20
195.2200119555
 30
0.0
 11
167.7993401647
 21
179.8676264002
 31
0.0
  0
SPLINE
  5
10A
330
1F
100
AcDbEntity
  8
0
  6
SLD-Сплошная
 62
     7
370
    25
100
AcDbSpline
210
0.0
220
0.0
230
1.0
 70
     8
 71
     3
 72
    23
 73
    19
 74
     0
 42
0.00000001
 43
0.00000001
 40
0.0
 40
0.0
 40
0.0
 40
0.0
 40
0.0312517231556088
 40
0.0624344626195608
 40
0.0936235703560029
 40
0.124894352288605
 40
0.1874758966967025
 40
0.2501015018981637
 40
0.3123676673845324
 40
0.3746623197420665
 40
0.4997926814624767
 40
0.6244030802047597
 40
0.686889317422642
 40
0.7493702563053796
 40
0.8119567398648782
 40
0.8745531232155953
 40
0.9372752340513857
 40
0.9999999999999999
 40
0.9999999999999999
 40
0.9999999999999999
 40
0.9999999999999999
 10
152.6993401647361
 20
144.8408382680151
 30
0.0
 10
152.6355531901436
 20
144.8417331324558
 30
0.0
 10
152.5081200415463
 20
144.8435208860525
 30
0.0
 10
152.3174869341447
 20
144.8580502838459
 30
0.0
 10
152.1277328365146
 20
144.8812706463888
 30
0.0
 10
151.8762161684825
 20
144.9248632623698
 30
0.0
 10
151.5658547774488
 20
145.0022868414959
 30
0.0
 10
151.2051147763551
 20
145.1313241948302
 30
0.0
 10
150.8591484211283
 20
145.2945520019403
 30
0.0
 10
150.4214479082571
 20
145.5564260607898
 30
0.0
 10
149.9255091714359
 20
145.9623754927331
 30
0.0
 10
149.5184814760029
 20
146.4578942342574
 30
0.0
 10
149.2558361711772
 20
146.8949151428619
 30
0.0
 10
149.0917540744963
 20
147.2413211117372
 30
0.0
 10
148.9619484585997
 20
147.6022985602653
 30
0.0
 10
148.8690514327936
 20
147.9748398279982
 30
0.0
 10
148.8101933747039
 20
148.3550225306624
 30
0.0
 10
148.8029579524385
 20
148.6111488974
 30
0.0
 10
148.7993401647362
 20
148.7392147912563
 30
0.0
  0
SPLINE
  5
10B
330
1F
100
AcDbEntity
  8
0
  6
SLD-Сплошная
 62
     7
370
    25
100
AcDbSpline
210
0.0
220
0.0
230
1.0
 70
     8
 71
     3
 72
    12
 73
     8
 74
     0
 42
0.00000001
 43
0.00000001
 40
0.0
 40
0.0
 40
0.0
 40
0.0
 40
0.19951807466194
 40
0.3988445040831871
 40
0.5984129591608427
 40
0.7986555383428924
 40
0.9999999999999999
 40
0.9999999999999999
 40
0.9999999999999999
 40
0.9999999999999999
 10
167.7993401647362
 20
144.9459567809506
 30
0.0
 10
167.740385724827
 20
144.9328261661898
 30
0.0
 10
167.6225334731504
 20
144.9065775491588
 30
0.0
 10
167.4436231425834
 20
144.8776399553395
 30
0.0
 10
167.2634562876223
 20
144.8566035833832
 30
0.0
 10
167.0818595674186
 20
144.8434662708652
 30
0.0
 10
166.9602911529047
 20
144.8417158698934
 30
0.0
 10
166.8993401647362
 20
144.8408382680151
 30
0.0
  0
SPLINE
  5
10C
330
1F
100
AcDbEntity
  8
0
  6
SLD-Сплошная
 62
     7
370
    25
100
AcDbSpline
210
0.0
220
0.0
230
1.0
 70
     8
 71
     3
 72
    23
 73
    19
 74
     0
 42
0.00000001
 43
0.00000001
 40
0.0
 40
0.0
 40
0.0
 40
0.0
 40
0.031492542758794
 40
0.062910441454343
 40
0.0943306803901751
 40
0.1258302267113581
 40
0.188063952164136
 40
0.2503161727208839
 40
0.3129060154226113
 40
0.3755138819209336
 40
0.5000365643753758
 40
0.6248118547905659
 40
0.6873377072809761
 40
0.7498835151493402
 40
0.8121372546717185
 40
0.8744271799047634
 40
0.9372024784002413
 40
1.0
 40
1.0
 40
1.0
 40
1.0
 10
148.7993401647362
 20
148.9392078745743
 30
0.0
 10
148.8002495997179
 20
149.0034828236292
 30
0.0
 10
148.8020663141259
 20
149.1318803763602
 30
0.0
 10
148.816834658902
 20
149.3239254228861
 30
0.0
 10
148.8404362793969
 20
149.5150364154873
 30
0.0
 10
148.8844660480516
 20
149.766665023689
 30
0.0
 10
148.9621204466948
 20
150.0758479303419
 30
0.0
 10
149.0912657779095
 20
150.4355566661817
 30
0.0
 10
149.2551242357004
 20
150.7816763982327
 30
0.0
 10
149.5177745573614
 20
151.2187541446413
 30
0.0
 10
149.9242868053957
 20
151.7134588905792
 30
0.0
 10
150.4196085079883
 20
152.1190365542674
 30
0.0
 10
150.8574123325031
 20
152.3811158938079
 30
0.0
 10
151.2035835622449
 20
152.5443656599224
 30
0.0
 10
151.5635502853638
 20
152.6732593387248
 30
0.0
 10
151.9349328477354
 20
152.7656221678473
 30
0.0
 10
152.314737923726
 20
152.8243432911888
 30
0.0
 10
152.5711242931725
 20
152.8315684250092
 30
0.0
 10
152.6993401647361
 20
152.8351816312493
 30
0.0
  0
SPLINE
  5
10D
330
1F
100
AcDbEntity
  8
0
  6
SLD-Сплошная
 62
     7
370
    25
100
AcDbSpline
210
0.0
220
0.0
230
1.0
 70
     8
 71
     3
 72
    23
 73
    19
 74
     0
 42
0.00000001
 43
0.00000001
 40
0.0
 40
0.0
 40
0.0
 40
0.0
 40
0.0312517231515798
 40
0.062434462614076
 40
0.0936235703516184
 40
0.124894352287841
 40
0.1874758966753284
 40
0.2501015018965668
 40
0.3123676673988585
 40
0.3746623197402035
 40
0.4997926814599007
 40
0.6244030802483241
 40
0.686889317390213
 40
0.7493702563071667
 40
0.8119567399115778
 40
0.8745531232581849
 40
0.9372752340563287
 40
1.0
 40
1.0
 40
1.0
 40
1.0
 10
152.6993401647362
 20
172.5087864599818
 30
0.0
 10
152.6355531901515
 20
172.509590678898
 30
0.0
 10
152.5081200415647
 20
172.5111973415327
 30
0.0
 10
152.317486934171
 20
172.5242537613263
 30
0.0
 10
152.1277328365333
 20
172.5451159803885
 30
0.0
 10
151.8762161685302
 20
172.5842702067377
 30
0.0
 10
151.5658547774905
 20
172.6537758583481
 30
0.0
 10
151.2051147763653
 20
172.7694843660844
 30
0.0
 10
150.8591484210783
 20
172.9156306442269
 30
0.0
 10
150.4214479082387
 20
173.1496651751008
 30
0.0
 10
149.9255091714119
 20
173.5113454878206
 30
0.0
 10
149.5184814758252
 20
173.9503236720022
 30
0.0
 10
149.2558361710434
 20
174.335487023077
 30
0.0
 10
149.0917540745021
 20
174.6397110970694
 30
0.0
 10
148.9619484585893
 20
174.9555630586212
 30
0.0
 10
148.8690514327516
 20
175.2802493404728
 30
0.0
 10
148.8101933746874
 20
175.6103761705255
 30
0.0
 10
148.8029579524337
 20
175.8316358227253
 30
0.0
 10
148.7993401647362
 20
175.9422679903604
 30
0.0
  0
LINE
  5
10E
330
1F
100
AcDbEntity
  8
0
  6
SLD-Сплошная
 62
     7
370
    25
100
AcDbLine
 10
166.8993401647
 20
172.50878646
 30
0.0
 11
152.6993401647
 21
172.50878646
 31
0.0
  0
SPLINE
  5
10F
330
1F
100
AcDbEntity
  8
0
  6
SLD-Сплошная
 62
     7
370
    25
100
AcDbSpline
210
0.0
220
0.0
230
1.0
 70
     8
 71
     3
 72
    12
 73
     8
 74
     0
 42
0.00000001
 43
0.00000001
 40
0.0
 40
0.0
 40
0.0
 40
0.0
 40
0.1995180746654163
 40
0.3988445040884088
 40
0.598412959166052
 40
0.7986555383463586
 40
1.0
 40
1.0
 40
1.0
 40
1.0
 10
167.7993401647362
 20
172.603203633748
 30
0.0
 10
167.7403857248259
 20
172.5914145872649
 30
0.0
 10
167.6225334731478
 20
172.5678478181584
 30
0.0
 10
167.4436231425792
 20
172.5418539412086
 30
0.0
 10
167.2634562876181
 20
172.5229538360124
 30
0.0
 10
167.081859567416
 20
172.51114822735
 30
0.0
 10
166.9602911529036
 20
172.509575154514
 30
0.0
 10
166.8993401647362
 20
172.5087864599818
 30
0.0
  0
LINE
  5
110
330
1F
100
AcDbEntity
  8
0
  6
SLD-Сплошная
 62
     7
370
    25
100
AcDbLine
 10
152.6993401647
 20
125.0807024258
 30
0.0
 11
166.8993401647
 21
125.0807024258
 31
0.0
  0
SPLINE
  5
111
330
1F
100
AcDbEntity
  8
0
  6
SLD-Сплошная
 62
     7
370
    25
100
AcDbSpline
210
0.0
220
0.0
230
1.0
 70
     8
 71
     3
 72
    23
 73
    19
 74
     0
 42
0.00000001
 43
0.00000001
 40
0.0
 40
0.0
 40
0.0
 40
0.0
 40
0.0314925427025798
 40
0.0629104413794599
 40
0.0943306803339556
 40
0.1258302267106199
 40
0.1880639521706696
 40
0.2503161727218087
 40
0.3129060154476697
 40
0.375513881920697
 40
0.5000365643753195
 40
0.6248118547906868
 40
0.6873377073433555
 40
0.74988351514896
 40
0.8121372546542523
 40
0.8744271799044516
 40
0.9372024783861627
 40
1.0
 40
1.0
 40
1.0
 40
1.0
 10
148.7993401647362
 20
121.6173862794609
 30
0.0
 10
148.8002495997191
 20
121.6734050289864
 30
0.0
 10
148.8020663141307
 20
121.7853097516841
 30
0.0
 10
148.8168346589128
 20
121.9531167792286
 30
0.0
 10
148.8404362794169
 20
122.1204194369017
 30
0.0
 10
148.8844660480076
 20
122.3411490358467
 30
0.0
 10
148.9621204465622
 20
122.6131672712991
 30
0.0
 10
149.0912657779363
 20
122.930848142521
 30
0.0
 10
149.2551242358382
 20
123.2376545073763
 30
0.0
 10
149.5177745573295
 20
123.6264486339169
 30
0.0
 10
149.9242868054251
 20
124.0687627788649
 30
0.0
 10
150.4196085080637
 20
124.4334377483546
 30
0.0
 10
150.8574123326505
 20
124.6698075312141
 30
0.0
 10
151.2035835623246
 20
124.8173156365533
 30
0.0
 10
151.5635502853355
 20
124.9339554687042
 30
0.0
 10
151.9349328476726
 20
125.017631573041
 30
0.0
 10
152.3147379236965
 20
125.0708719773009
 30
0.0
 10
152.5711242931438
 20
125.0774252230719
 30
0.0
 10
152.6993401647361
 20
125.0807024258346
 30
0.0
  0
SPLINE
  5
112
330
1F
100
AcDbEntity
  8
0
  6
SLD-Сплошная
 62
     7
370
    25
100
AcDbSpline
210
0.0
220
0.0
230
1.0
 70
     8
 71
     3
 72
    12
 73
     8
 74
     0
 42
0.00000001
 43
0.00000001
 40
0.0
 40
0.0
 40
0.0
 40
0.0
 40
0.2013359503669737
 40
0.4015742139753763
 40
0.6011426226535578
 40
0.8004733214695359
 40
1.0
 40
1.0
 40
1.0
 40
1.0
 10
166.8993401647362
 20
125.0807024258347
 30
0.0
 10
166.960288602248
 20
125.0799080517876
 30
0.0
 10
167.0818531854345
 20
125.0783236346333
 30
0.0
 10
167.2634461148024
 20
125.0664248516815
 30
0.0
 10
167.4436129813537
 20
125.0473743128319
 30
0.0
 10
167.6225271229667
 20
125.0211724964769
 30
0.0
 10
167.7403831811758
 20
124.9974167567248
 30
0.0
 10
167.7993401647362
 20
124.9855330506235
 30
0.0
  0
SPLINE
  5
113
330
1F
100
AcDbEntity
  8
0
  6
SLD-Сплошная
 62
     7
370
    25
100
AcDbSpline
210
0.0
220
0.0
230
1.0
 70
     8
 71
     3
 72
    25
 73
    21
 74
     0
 42
0.00000001
 43
0.00000001
 40
0.0
 40
0.0
 40
0.0
 40
0.0
 40
0.0454662489949983
 40
0.0902492435772398
 40
0.1343490279368395
 40
0.1777656563826397
 40
0.2204991939722548
 40
0.262549717110913
 40
0.3039173141247812
 40
0.3446020858153142
 40
0.3846041460017323
 40
0.4239236220595878
 40
0.4625606554639355
 40
0.5005154023464099
 40
0.5853438701677948
 40
0.6695368906341971
 40
0.7530966536227975
 40
0.8360254677800236
 40
0.9183257477766653
 40
1.0
 40
1.0
 40
1.0
 40
1.0
 10
145.9659352580969
 20
104.7504762821356
 30
0.0
 10
145.9852412833841
 20
104.7049611457782
 30
0.0
 10
146.0235632082661
 20
104.6146148621422
 30
0.0
 10
146.0915223617987
 20
104.4838723215968
 30
0.0
 10
146.1659225400791
 20
104.3582739895451
 30
0.0
 10
146.2469652272767
 20
104.2382632841776
 30
0.0
 10
146.3338608858469
 20
104.1239441111745
 30
0.0
 10
146.4260879839802
 20
104.0154606840733
 30
0.0
 10
146.5230671526012
 20
103.9129005393968
 30
0.0
 10
146.6242495911825
 20
103.816322583846
 30
0.0
 10
146.7290973816809
 20
103.7257520843327
 30
0.0
 10
146.8370892370154
 20
103.6411859122295
 30
0.0
 10
146.9477282109322
 20
103.5625894873755
 30
0.0
 10
147.1076221154196
 20
103.4595642959461
 30
0.0
 10
147.3240525004256
 20
103.3410531450665
 30
0.0
 10
147.6041759080031
 20
103.2210621987772
 30
0.0
 10
147.8950299332341
 20
103.1272956074819
 30
0.0
 10
148.193240668002
 20
103.06084430588
 30
0.0
 10
148.4954998695762
 20
103.0193687709982
 30
0.0
 10
148.6983181753185
 20
103.0142515306855
 30
0.0
 10
148.7993401647362
 20
103.0117026789197
 30
0.0
  0
SPLINE
  5
114
330
1F
100
AcDbEntity
  8
0
  6
SLD-Сплошная
 62
     7
370
    25
100
AcDbSpline
210
0.0
220
0.0
230
1.0
 70
     8
 71
     3
 72
    15
 73
    11
 74
     0
 42
0.00000001
 43
0.00000001
 40
0.0
 40
0.0
 40
0.0
 40
0.0
 40
0.1235370837935227
 40
0.2464712567810048
 40
0.3693100682014276
 40
0.4925682186274206
 40
0.6167614511377165
 40
0.7424004699066167
 40
0.8699852444480779
 40
1.0
 40
1.0
 40
1.0
 40
1.0
 10
145.7993401647363
 20
105.4611876307651
 30
0.0
 10
145.7997636871873
 20
105.4389501660257
 30
0.0
 10
145.8006086651291
 20
105.394583764346
 30
0.0
 10
145.8078075795844
 20
105.3196766798301
 30
0.0
 10
145.8197330167659
 20
105.2391271292489
 30
0.0
 10
145.8370841372606
 20
105.1524635293482
 30
0.0
 10
145.8600062880369
 20
105.0600447789941
 30
0.0
 10
145.8889341196573
 20
104.9619738323523
 30
0.0
 10
145.9236397687002
 20
104.8586967608547
 30
0.0
 10
145.951748377173
 20
104.7867759222868
 30
0.0
 10
145.9659352580969
 20
104.7504762821356
 30
0.0
  0
LINE
  5
115
330
1F
100
AcDbEntity
  8
0
  6
SLD-Сплошная
 62
     7
370
    25
100
AcDbLine
 10
145.7993401647
 20
105.4611876308
 30
0.0
 11
145.7993401647
 21
174.5072789072
 31
0.0
  0
LINE
  5
116
330
1F
100
AcDbEntity
  8
0
  6
SLD-Сплошная
 62
     7
370
    25
100
AcDbLine
 10
148.7993401647
 20
121.4303320046
 30
0.0
 11
148.7993401647
 21
121.6173862795
 31
0.0
  0
LINE
  5
117
330
1F
100
AcDbEntity
  8
0
  6
SLD-Сплошная
 62
     7
370
    25
100
AcDbLine
 10
148.7993401647
 20
175.9423143658
 30
0.0
 11
148.7993401647
 21
176.1285045467
 31
0.0
  0
ARC
  5
118
330
1F
100
AcDbEntity
  8
0
  6
SLD-Сплошная
 62
     7
370
    25
100
AcDbCircle
 10
478.2699270955
 20
148.3929054292
 30
0.0
 40
335.0
100
AcDbArc
 50
172.9547120806
 51
187.0452879194
  0
LINE
  5
119
330
1F
100
AcDbEntity
  8
0
  6
SLD-Сплошная
 62
     7
370
    25
100
AcDbLine
 10
148.7993401647
 20
103.0117026789
 30
0.0
 11
167.7993401647
 21
103.0117026789
 31
0.0
  0
LINE
  5
11A
330
1F
100
AcDbEntity
  8
0
  6
SLD-Сплошная
 62
     7
370
    25
100
AcDbLine
 10
145.7993401647
 20
174.5072789072
 30
0.0
 11
145.7993401647
 21
199.8929054293
 31
0.0
  0
SPLINE
  5
11B
330
1F
100
AcDbEntity
  8
0
  6
SLD-Сплошная
 62
     7
370
    25
100
AcDbSpline
210
0.0
220
0.0
230
1.0
 70
     8
 71
     3
 72
    23
 73
    19
 74
     0
 42
0.00000001
 43
0.00000001
 40
0.0
 40
0.0
 40
0.0
 40
0.0
 40
0.0312517231523646
 40
0.062434462615264
 40
0.0936235703528282
 40
0.1248943522886953
 40
0.1874758966811205
 40
0.2501015018983104
 40
0.3123676673484718
 40
0.3746623197422185
 40
0.4997926814627626
 40
0.6244030802112922
 40
0.6868893174292138
 40
0.7493702563050222
 40
0.8119567398666085
 40
0.8745531232154979
 40
0.937275234059004
 40
1.0
 40
1.0
 40
1.0
 40
1.0
 10
152.6993401647362
 20
193.7149038050236
 30
0.0
 10
152.6355531901504
 20
193.715401888606
 30
0.0
 10
152.508120041562
 20
193.716396956323
 30
0.0
 10
152.3174869341671
 20
193.7244819409765
 30
0.0
 10
152.1277328365305
 20
193.7373960018069
 30
0.0
 10
151.8762161685199
 20
193.7616204952087
 30
0.0
 10
151.5658547774825
 20
193.8045842360772
 30
0.0
 10
151.2051147764515
 20
193.8759598969779
 30
0.0
 10
150.8591484212004
 20
193.965864869
 30
0.0
 10
150.4214479083114
 20
194.109350508236
 30
0.0
 10
149.9255091714178
 20
194.3298497539603
 30
0.0
 10
149.5184814760154
 20
194.5946635311707
 30
0.0
 10
149.2558361711787
 20
194.8247651157606
 30
0.0
 10
149.091754074489
 20
195.0052906998021
 30
0.0
 10
148.9619484585867
 20
195.1913848961098
 30
0.0
 10
148.8690514327905
 20
195.3812167650743
 30
0.0
 10
148.8101933747089
 20
195.5728305051372
 30
0.0
 10
148.8029579524399
 20
195.699937097802
 30
0.0
 10
148.7993401647362
 20
195.7634917392471
 30
0.0
  0
LINE
  5
11C
330
1F
100
AcDbEntity
  8
0
  6
SLD-Сплошная
 62
     7
370
    25
100
AcDbLine
 10
166.8993401647
 20
193.714903805
 30
0.0
 11
152.6993401647
 21
193.714903805
 31
0.0
  0
SPLINE
  5
11D
330
1F
100
AcDbEntity
  8
0
  6
SLD-Сплошная
 62
     7
370
    25
100
AcDbSpline
210
0.0
220
0.0
230
1.0
 70
     8
 71
     3
 72
    12
 73
     8
 74
     0
 42
0.00000001
 43
0.00000001
 40
0.0
 40
0.0
 40
0.0
 40
0.0
 40
0.1995180746622554
 40
0.3988445040836877
 40
0.5984129591613438
 40
0.7986555383432243
 40
1.0
 40
1.0
 40
1.0
 40
1.0
 10
167.7993401647362
 20
193.7733206341581
 30
0.0
 10
167.7403857248269
 20
193.7660320214378
 30
0.0
 10
167.6225334731501
 20
193.7514617970065
 30
0.0
 10
167.443623142583
 20
193.7353766752636
 30
0.0
 10
167.2634562876219
 20
193.7236771047517
 30
0.0
 10
167.0818595674183
 20
193.716366503252
 30
0.0
 10
166.9602911529046
 20
193.7153922621472
 30
0.0
 10
166.8993401647361
 20
193.7149038050238
 30
0.0
  0
SPLINE
  5
11E
330
1F
100
AcDbEntity
  8
0
  6
SLD-Сплошная
 62
     7
370
    25
100
AcDbSpline
210
0.0
220
0.0
230
1.0
 70
     8
 71
     3
 72
    14
 73
    10
 74
     0
 42
0.00000001
 43
0.00000001
 40
0.0
 40
0.0
 40
0.0
 40
0.0
 40
0.25
 40
0.25
 40
0.5
 40
0.5
 40
0.75
 40
0.75
 40
1.0
 40
1.0
 40
1.0
 40
1.0
 10
172.0645240728373
 20
105.0952370056982
 30
0.0
 10
172.4407677324902
 20
105.0952370056981
 30
0.0
 10
172.8466875817082
 20
105.0625629975112
 30
0.0
 10
173.6326698124568
 20
104.9142953406534
 30
0.0
 10
174.0102955775843
 20
104.7981992229707
 30
0.0
 10
174.6336764839247
 20
104.5011614402432
 30
0.0
 10
174.8773226032807
 20
104.3212247132223
 30
0.0
 10
175.1884858009867
 20
103.9467082390887
 30
0.0
 10
175.2570573902651
 20
103.7532895271095
 30
0.0
 10
175.2570573902651
 20
103.5740113662101
 30
0.0
  0
LINE
  5
11F
330
1F
100
AcDbEntity
  8
0
  6
SLD-Сплошная
 62
     7
370
    25
100
AcDbLine
 10
172.1817990603
 20
96.2800610961
 30
0.0
 11
172.134462014
 21
96.1622908881
 31
0.0
  0
LINE
  5
120
330
1F
100
AcDbEntity
  8
0
  6
SLD-Сплошная
 62
     7
370
    25
100
AcDbLine
 10
148.7993401647
 20
195.7635714809
 30
0.0
 11
148.7993401647
 21
195.9128606065
 31
0.0
  0
LINE
  5
121
330
1F
100
AcDbEntity
  8
0
  6
SLD-Сплошная
 62
     7
370
    25
100
AcDbLine
 10
175.2570573903
 20
103.5740113662
 30
0.0
 11
175.1696060981
 21
103.2755730831
 31
0.0
  0
LINE
  5
122
330
1F
100
AcDbEntity
  8
0
  6
SLD-Сплошная
 62
     7
370
    25
100
AcDbLine
 10
172.0645240728
 20
105.0952370057
 30
0.0
 11
171.7993401647
 21
105.0952370057
 31
0.0
  0
SPLINE
  5
123
330
1F
100
AcDbEntity
  8
0
  6
SLD-Сплошная
 62
     7
370
    25
100
AcDbSpline
210
0.0
220
0.0
230
1.0
 70
     8
 71
     3
 72
    11
 73
     7
 74
     0
 42
0.00000001
 43
0.00000001
 40
0.0
 40
0.0
 40
0.0
 40
0.0
 40
0.2653934856250739
 40
0.5305573100181906
 40
0.7955985553684101
 40
1.0
 40
1.0
 40
1.0
 40
1.0
 10
152.6993401647361
 20
202.777028285936
 30
0.0
 10
152.1878759334942
 20
202.7810845461938
 30
0.0
 10
151.1653900723244
 20
202.7891935565791
 30
0.0
 10
149.8829957675078
 20
202.8396228680529
 30
0.0
 10
149.0301690694158
 20
202.8855129490342
 30
0.0
 10
148.9174596602341
 20
202.8881188716877
 30
0.0
 10
148.8683845195364
 20
202.8892535242584
 30
0.0
  0
LINE
  5
124
330
1F
100
AcDbEntity
  8
0
  6
SLD-Сплошная
 62
     7
370
    25
100
AcDbLine
 10
166.8993401647
 20
202.7770282859
 30
0.0
 11
152.6993401647
 21
202.7770282859
 31
0.0
  0
SPLINE
  5
125
330
1F
100
AcDbEntity
  8
0
  6
SLD-Сплошная
 62
     7
370
    25
100
AcDbSpline
210
0.0
220
0.0
230
1.0
 70
     8
 71
     3
 72
    12
 73
     8
 74
     0
 42
0.00000001
 43
0.00000001
 40
0.0
 40
0.0
 40
0.0
 40
0.0
 40
0.199518074662225
 40
0.3988445040836289
 40
0.5984129591612968
 40
0.7986555383431786
 40
1.0
 40
1.0
 40
1.0
 40
1.0
 10
167.7993401647362
 20
202.7837920282478
 30
0.0
 10
167.7403857248269
 20
202.7829568271823
 30
0.0
 10
167.6225334731502
 20
202.781287227296
 30
0.0
 10
167.443623142583
 20
202.7794208561407
 30
0.0
 10
167.2634562876219
 20
202.7780567107837
 30
0.0
 10
167.0818595674184
 20
202.7771999862147
 30
0.0
 10
166.9602911529046
 20
202.7770856239587
 30
0.0
 10
166.8993401647362
 20
202.7770282859359
 30
0.0
  0
SPLINE
  5
126
330
1F
100
AcDbEntity
  8
0
  6
SLD-Сплошная
 62
     7
370
    25
100
AcDbSpline
210
0.0
220
0.0
230
1.0
 70
     8
 71
     3
 72
    12
 73
     8
 74
     0
 42
0.00000001
 43
0.00000001
 40
0.0
 40
0.0
 40
0.0
 40
0.0
 40
0.2491479565661889
 40
0.498374688803881
 40
0.7476259984916228
 40
0.9969262180350521
 40
1.0
 40
1.0
 40
1.0
 40
1.0
 10
167.7993401647362
 20
92.54312224401366
 30
0.0
 10
168.1841176006759
 20
92.53282334562171
 30
0.0
 10
168.953794131594
 20
92.51222229252923
 30
0.0
 10
169.8544303210019
 20
92.45870259566323
 30
0.0
 10
170.3861031272918
 20
92.4161706905306
 30
0.0
 10
170.6020309412798
 20
92.39370668066853
 30
0.0
 10
170.5378575473382
 20
92.39480766969929
 30
0.0
 10
170.537075949314
 20
92.39482107916386
 30
0.0
  0
LINE
  5
127
330
1F
100
AcDbEntity
  8
0
  6
SLD-Сплошная
 62
     7
370
    25
100
AcDbLine
 10
167.7993401647
 20
94.9716496083
 30
0.0
 11
167.7993401647
 21
92.543122244
 31
0.0
  0
LINE
  5
128
330
1F
100
AcDbEntity
  8
0
  6
SLD-Сплошная
 62
     7
370
    25
100
AcDbLine
 10
171.7993401647
 20
95.5801348783
 30
0.0
 11
171.7993401647
 21
92.3929054293
 31
0.0
  0
LINE
  5
129
330
1F
100
AcDbEntity
  8
0
  6
SLD-Сплошная
 62
     7
370
    25
100
AcDbLine
 10
152.6993401647
 20
94.0742513394
 30
0.0
 11
166.8993401647
 21
94.0742513394
 31
0.0
  0
SPLINE
  5
12A
330
1F
100
AcDbEntity
  8
0
  6
SLD-Сплошная
 62
     7
370
    25
100
AcDbSpline
210
0.0
220
0.0
230
1.0
 70
     8
 71
     3
 72
    23
 73
    19
 74
     0
 42
0.00000001
 43
0.00000001
 40
0.0
 40
0.0
 40
0.0
 40
0.0
 40
0.0314925426955879
 40
0.062910441370138
 40
0.0943306803268989
 40
0.1258302267103797
 40
0.1880639521243619
 40
0.2503161727212253
 40
0.3129060154544662
 40
0.3755138819208128
 40
0.500036564375362
 40
0.6248118547906215
 40
0.6873377073283861
 40
0.7498835151492369
 40
0.8121372546691746
 40
0.8744271799045613
 40
0.9372024783895783
 40
1.0
 40
1.0
 40
1.0
 40
1.0
 10
148.7993401647362
 20
93.8956435381362
 30
0.0
 10
148.8002495997195
 20
93.89635355996892
 30
0.0
 10
148.8020663141315
 20
93.89777192073164
 30
0.0
 10
148.816834658914
 20
93.90075419809588
 30
0.0
 10
148.8404362794205
 20
93.90434556417804
 30
0.0
 10
148.8844660479806
 20
93.90997122771458
 30
0.0
 10
148.962120446559
 20
93.91848719520878
 30
0.0
 10
149.0912657779133
 20
93.930815131241
 30
0.0
 10
149.2551242357745
 20
93.94493089967737
 30
0.0
 10
149.5177745573784
 20
93.96547828894964
 30
0.0
 10
149.9242868054074
 20
93.99325282431877
 30
0.0
 10
150.4196085080532
 20
94.02012164312391
 30
0.0
 10
150.8574123326047
 20
94.03892647735623
 30
0.0
 10
151.2035835623264
 20
94.05118579871296
 30
0.0
 10
151.5635502853658
 20
94.0612150626795
 30
0.0
 10
151.9349328477088
 20
94.06859015856034
 30
0.0
 10
152.3147379237039
 20
94.07336299793795
 30
0.0
 10
152.5711242931509
 20
94.07395519062351
 30
0.0
 10
152.6993401647363
 20
94.07425133936766
 30
0.0
  0
SPLINE
  5
12B
330
1F
100
AcDbEntity
  8
0
  6
SLD-Сплошная
 62
     7
370
    25
100
AcDbSpline
210
0.0
220
0.0
230
1.0
 70
     8
 71
     3
 72
    12
 73
     8
 74
     0
 42
0.00000001
 43
0.00000001
 40
0.0
 40
0.0
 40
0.0
 40
0.0
 40
0.2013359503669913
 40
0.4015742139754101
 40
0.6011426226535903
 40
0.8004733214695586
 40
1.0
 40
1.0
 40
1.0
 40
1.0
 10
166.8993401647363
 20
94.07425133936768
 30
0.0
 10
166.9602886022481
 20
94.07417968897143
 30
0.0
 10
167.0818531854346
 20
94.074036778818
 30
0.0
 10
167.2634461148025
 20
94.07296507030058
 30
0.0
 10
167.4436129813538
 20
94.07125657517368
 30
0.0
 10
167.6225271229668
 20
94.06891643934519
 30
0.0
 10
167.7403831811759
 20
94.0668170952581
 30
0.0
 10
167.7993401647363
 20
94.06576690745518
 30
0.0
  0
LWPOLYLINE
  5
12C
330
1F
100
AcDbEntity
  8
0
  6
SLD-Сплошная
 62
     7
370
    25
100
AcDbPolyline
 90
        3
 70
   128
 43
0.0
 10
180.3923757273
 20
202.2880672554
 10
179.6038362821
 20
201.2712872939
 10
178.9290628532
 20
200.0040165403
  0
ARC
  5
12D
330
1F
100
AcDbEntity
  8
0
  6
SLD-Сплошная
 62
     7
370
    25
100
AcDbCircle
 10
186.2993401651
 20
196.8929054292
 30
0.0
 40
2.100000000000023
100
AcDbArc
 50
270.0
 51
0.0
  0
ARC
  5
12E
330
1F
100
AcDbEntity
  8
0
  6
SLD-Сплошная
 62
     7
370
    25
100
AcDbCircle
 10
169.7162162133
 20
203.8929054292
 30
0.0
 40
10.00000000000001
100
AcDbArc
 50
282.0234725996
 51
337.1146195238
  0
ARC
  5
12F
330
1F
100
AcDbEntity
  8
0
  6
SLD-Сплошная
 62
     7
370
    25
100
AcDbCircle
 10
186.2993401651
 20
196.8929054292
 30
0.0
 40
2.099999999999994
100
AcDbArc
 50
0.0
 51
90.0
  0
LINE
  5
130
330
1F
100
AcDbEntity
  8
0
  6
SLD-Сплошная
 62
     7
370
    25
100
AcDbLine
 10
179.2993401651
 20
188.8929054292
 30
0.0
 11
171.7993401647
 21
188.8929054292
 31
0.0
  0
LINE
  5
131
330
1F
100
AcDbEntity
  8
0
  6
SLD-Сплошная
 62
     7
370
    25
100
AcDbLine
 10
166.8993401647
 20
89.8948670126
 30
0.0
 11
152.6993401647
 21
89.8948670126
 31
0.0
  0
LINE
  5
132
330
1F
100
AcDbEntity
  8
0
  6
SLD-Сплошная
 62
     7
370
    25
100
AcDbLine
 10
148.7993401647
 20
93.7947328873
 30
0.0
 11
148.7993401647
 21
93.8956435381
 31
0.0
  0
LINE
  5
133
330
1F
100
AcDbEntity
  8
0
  6
SLD-Сплошная
 62
     7
370
    25
100
AcDbLine
 10
166.8993401647
 20
206.8909438461
 30
0.0
 11
152.6993401647
 21
206.8909438461
 31
0.0
  0
LINE
  5
134
330
1F
100
AcDbEntity
  8
0
  6
SLD-Сплошная
 62
     7
370
    25
100
AcDbLine
 10
148.7993401647
 20
202.8918968826
 30
0.0
 11
148.7993401647
 21
202.9910779714
 31
0.0
  0
LINE
  5
135
330
1F
100
AcDbEntity
  8
0
  6
SLD-Сплошная
 62
     7
370
    25
100
AcDbLine
 10
172.1817990604
 20
200.5057497626
 30
0.0
 11
172.1344620141
 21
200.6235199706
 31
0.0
  0
SPLINE
  5
136
330
1F
100
AcDbEntity
  8
0
  6
SLD-Сплошная
 62
     7
370
    25
100
AcDbSpline
210
0.0
220
0.0
230
1.0
 70
     8
 71
     3
 72
     9
 73
     5
 74
     0
 42
0.00000001
 43
0.00000001
 40
0.0
 40
0.0
 40
0.0
 40
0.0
 40
0.1420790410331732
 40
1.0
 40
1.0
 40
1.0
 40
1.0
 10
173.2511115565275
 20
194.6104790766939
 30
0.0
 10
173.2003770275362
 20
194.6246851322168
 30
0.0
 10
172.8432903761737
 20
194.7246721212875
 30
0.0
 10
172.4241302931907
 20
194.7291680125836
 30
0.0
 10
172.0645240728373
 20
194.7330251319559
 30
0.0
  0
LINE
  5
137
330
1F
100
AcDbEntity
  8
0
  6
SLD-Сплошная
 62
     7
370
    25
100
AcDbLine
 10
172.0645240728
 20
194.733025132
 30
0.0
 11
171.7993401647
 21
194.733025132
 31
0.0
  0
LINE
  5
138
330
1F
100
AcDbEntity
  8
0
  6
SLD-Сплошная
 62
     7
370
    25
100
AcDbLine
 10
380.6555170302
 20
204.8929054292
 30
0.0
 11
373.6722563262
 21
204.8929054292
 31
0.0
  0
LINE
  5
139
330
1F
100
AcDbEntity
  8
0
  6
SLD-Сплошная
 62
     7
370
    25
100
AcDbLine
 10
366.7461645483
 20
204.8929054292
 30
0.0
 11
360.6555170302
 21
204.8929054292
 31
0.0
  0
LINE
  5
13A
330
1F
100
AcDbEntity
  8
0
  6
SLD-Сплошная
 62
     7
370
    25
100
AcDbLine
 10
360.1555170302
 20
205.1804731029
 30
0.0
 11
360.1555170302
 21
203.3997231888
 31
0.0
  0
LINE
  5
13B
330
1F
100
AcDbEntity
  8
0
  6
SLD-Сплошная
 62
     7
370
    25
100
AcDbLine
 10
355.1555170302
 20
205.1804731029
 30
0.0
 11
360.1555170302
 21
205.1804731029
 31
0.0
  0
LINE
  5
13C
330
1F
100
AcDbEntity
  8
0
  6
SLD-Сплошная
 62
     7
370
    25
100
AcDbLine
 10
355.1555170302
 20
202.2050787736
 30
0.0
 11
355.1555170302
 21
205.1804731029
 31
0.0
  0
LINE
  5
13D
330
1F
100
AcDbEntity
  8
0
  6
SLD-Сплошная
 62
     7
370
    25
100
AcDbLine
 10
381.1555170302
 20
203.3997231884
 30
0.0
 11
381.1555170302
 21
205.1804731029
 31
0.0
  0
LINE
  5
13E
330
1F
100
AcDbEntity
  8
0
  6
SLD-Сплошная
 62
     7
370
    25
100
AcDbLine
 10
381.1555170302
 20
205.1804731029
 30
0.0
 11
386.1555170302
 21
205.1804731029
 31
0.0
  0
LINE
  5
13F
330
1F
100
AcDbEntity
  8
0
  6
SLD-Сплошная
 62
     7
370
    25
100
AcDbLine
 10
386.1555170302
 20
205.1804731029
 30
0.0
 11
386.1555170302
 21
202.205078773
 31
0.0
  0
LINE
  5
140
330
1F
100
AcDbEntity
  8
0
  6
SLD-Сплошная
 62
     7
370
    25
100
AcDbLine
 10
317.1555170302
 20
89.8929054292
 30
0.0
 11
424.1555170302
 21
89.8929054292
 31
0.0
  0
ARC
  5
141
330
1F
100
AcDbEntity
  8
0
  6
SLD-Сплошная
 62
     7
370
    25
100
AcDbCircle
 10
317.1555170302
 20
94.8929054292
 30
0.0
 40
5.000000000000057
100
AcDbArc
 50
180.0
 51
270.0
  0
LINE
  5
142
330
1F
100
AcDbEntity
  8
0
  6
SLD-Сплошная
 62
     7
370
    25
100
AcDbLine
 10
312.1555170302
 20
201.8929054292
 30
0.0
 11
312.1555170302
 21
94.8929054292
 31
0.0
  0
ARC
  5
143
330
1F
100
AcDbEntity
  8
0
  6
SLD-Сплошная
 62
     7
370
    25
100
AcDbCircle
 10
317.1555170302
 20
201.8929054292
 30
0.0
 40
5.000000000000057
100
AcDbArc
 50
90.0
 51
180.0
  0
LINE
  5
144
330
1F
100
AcDbEntity
  8
0
  6
SLD-Сплошная
 62
     7
370
    25
100
AcDbLine
 10
424.1555170302
 20
206.8929054292
 30
0.0
 11
317.1555170302
 21
206.8929054292
 31
0.0
  0
ARC
  5
145
330
1F
100
AcDbEntity
  8
0
  6
SLD-Сплошная
 62
     7
370
    25
100
AcDbCircle
 10
419.1555170302
 20
196.8929054292
 30
0.0
 40
2.100000000000023
100
AcDbArc
 50
0.0
 51
180.0
  0
ARC
  5
146
330
1F
100
AcDbEntity
  8
0
  6
SLD-Сплошная
 62
     7
370
    25
100
AcDbCircle
 10
322.1555170302
 20
196.8929054292
 30
0.0
 40
2.100000000000023
100
AcDbArc
 50
180.0
 51
0.0
  0
ARC
  5
147
330
1F
100
AcDbEntity
  8
0
  6
SLD-Сплошная
 62
     7
370
    25
100
AcDbCircle
 10
322.1555170302
 20
196.8929054292
 30
0.0
 40
2.100000000000023
100
AcDbArc
 50
0.0
 51
180.0
  0
ARC
  5
148
330
1F
100
AcDbEntity
  8
0
  6
SLD-Сплошная
 62
     7
370
    25
100
AcDbCircle
 10
322.1555170302
 20
99.8929054292
 30
0.0
 40
2.100000000000023
100
AcDbArc
 50
0.0
 51
180.0
  0
ARC
  5
149
330
1F
100
AcDbEntity
  8
0
  6
SLD-Сплошная
 62
     7
370
    25
100
AcDbCircle
 10
419.1555170302
 20
99.8929054292
 30
0.0
 40
2.100000000000023
100
AcDbArc
 50
180.0
 51
0.0
  0
ARC
  5
14A
330
1F
100
AcDbEntity
  8
0
  6
SLD-Сплошная
 62
     7
370
    25
100
AcDbCircle
 10
419.1555170302
 20
99.8929054292
 30
0.0
 40
2.100000000000023
100
AcDbArc
 50
0.0
 51
180.0
  0
LINE
  5
14B
330
1F
100
AcDbEntity
  8
0
  6
SLD-Сплошная
 62
     7
370
    25
100
AcDbLine
 10
429.1555170302
 20
94.8929054292
 30
0.0
 11
429.1555170302
 21
201.8929054292
 31
0.0
  0
ARC
  5
14C
330
1F
100
AcDbEntity
  8
0
  6
SLD-Сплошная
 62
     7
370
    25
100
AcDbCircle
 10
322.1555170302
 20
99.8929054292
 30
0.0
 40
2.100000000000023
100
AcDbArc
 50
180.0
 51
0.0
  0
ARC
  5
14D
330
1F
100
AcDbEntity
  8
0
  6
SLD-Сплошная
 62
     7
370
    25
100
AcDbCircle
 10
424.1555170302
 20
94.8929054292
 30
0.0
 40
5.000000000000014
100
AcDbArc
 50
270.0
 51
0.0
  0
ARC
  5
14E
330
1F
100
AcDbEntity
  8
0
  6
SLD-Сплошная
 62
     7
370
    25
100
AcDbCircle
 10
419.1555170302
 20
196.8929054292
 30
0.0
 40
2.100000000000023
100
AcDbArc
 50
180.0
 51
0.0
  0
ARC
  5
14F
330
1F
100
AcDbEntity
  8
0
  6
SLD-Сплошная
 62
     7
370
    25
100
AcDbCircle
 10
424.1555170302
 20
201.8929054292
 30
0.0
 40
5.0
100
AcDbArc
 50
0.0
 51
90.0
  0
ARC
  5
150
330
1F
100
AcDbEntity
  8
0
  6
SLD-Сплошная
 62
     7
370
    25
100
AcDbCircle
 10
344.9466776682
 20
194.0636354292
 30
0.0
 40
2.000000000000024
100
AcDbArc
 50
300.4692067871
 51
30.4692067871
  0
SPLINE
  5
151
330
1F
100
AcDbEntity
  8
0
  6
SLD-Сплошная
 62
     7
370
    25
100
AcDbSpline
210
0.0
220
0.0
230
1.0
 70
    24
 71
     3
 72
    14
 73
    10
 74
     0
 42
0.00000001
 43
0.00000001
 40
0.0
 40
0.0
 40
0.0
 40
0.0
 40
0.25
 40
0.25
 40
0.5
 40
0.5
 40
0.75
 40
0.75
 40
1.0
 40
1.0
 40
1.0
 40
1.0
 10
345.9608280945254
 20
192.3398318113803
 30
0.0
 10
345.9608280945254
 20
192.3398318113803
 30
0.0
 10
345.942315530689
 20
192.328940475318
 30
0.0
 10
345.8583094777205
 20
192.279517923032
 30
0.0
 10
345.7925312977843
 20
192.2408192171378
 30
0.0
 10
345.6242345010432
 20
192.1418066228953
 30
0.0
 10
345.5222852658461
 20
192.0818277138883
 30
0.0
 10
345.3100902974326
 20
191.9569888891771
 30
0.0
 10
345.2005023879182
 20
191.892515985184
 30
0.0
 10
345.0989262856191
 20
191.8327565982176
 30
0.0
  0
SPLINE
  5
152
330
1F
100
AcDbEntity
  8
0
  6
SLD-Сплошная
 62
     7
370
    25
100
AcDbSpline
210
0.0
220
0.0
230
1.0
 70
    24
 71
     3
 72
    14
 73
    10
 74
     0
 42
0.00000001
 43
0.00000001
 40
0.0
 40
0.0
 40
0.0
 40
0.0
 40
0.25
 40
0.25
 40
0.5
 40
0.5
 40
0.75
 40
0.75
 40
1.0
 40
1.0
 40
1.0
 40
1.0
 10
345.0989262856191
 20
191.8327565982176
 30
0.0
 10
344.9973501833201
 20
191.7729972112511
 30
0.0
 10
344.8877622738056
 20
191.708524307258
 30
0.0
 10
344.6755673053922
 20
191.5836854825468
 30
0.0
 10
344.5736180701951
 20
191.5237065735398
 30
0.0
 10
344.405321273454
 20
191.4246939792973
 30
0.0
 10
344.3395430935178
 20
191.3859952734031
 30
0.0
 10
344.2555370405492
 20
191.3365727211171
 30
0.0
 10
344.2370244767128
 20
191.3256813850548
 30
0.0
 10
344.2370244767128
 20
191.3256813850548
 30
0.0
  0
ARC
  5
153
330
1F
100
AcDbEntity
  8
0
  6
SLD-Сплошная
 62
     7
370
    25
100
AcDbCircle
 10
343.2228740504
 20
193.0494850029
 30
0.0
 40
2.000000000000014
100
AcDbArc
 50
210.4692067871
 51
300.4692067871
  0
SPLINE
  5
154
330
1F
100
AcDbEntity
  8
0
  6
SLD-Сплошная
 62
     7
370
    25
100
AcDbSpline
210
0.0
220
0.0
230
1.0
 70
    24
 71
     3
 72
    14
 73
    10
 74
     0
 42
0.00000001
 43
0.00000001
 40
0.0
 40
0.0
 40
0.0
 40
0.0
 40
0.25
 40
0.25
 40
0.5
 40
0.5
 40
0.75
 40
0.75
 40
1.0
 40
1.0
 40
1.0
 40
1.0
 10
396.2121077724202
 20
104.9530542604602
 30
0.0
 10
396.3136838747193
 20
105.0128136474266
 30
0.0
 10
396.4232717842337
 20
105.0772865514197
 30
0.0
 10
396.6354667526472
 20
105.2021253761309
 30
0.0
 10
396.7374159878443
 20
105.2621042851379
 30
0.0
 10
396.9057127845854
 20
105.3611168793803
 30
0.0
 10
396.9714909645215
 20
105.3998155852746
 30
0.0
 10
397.0554970174902
 20
105.4492381375605
 30
0.0
 10
397.0740095813265
 20
105.4601294736228
 30
0.0
 10
397.0740095813265
 20
105.4601294736229
 30
0.0
  0
ARC
  5
155
330
1F
100
AcDbEntity
  8
0
  6
SLD-Сплошная
 62
     7
370
    25
100
AcDbCircle
 10
398.0881600077
 20
103.7363258558
 30
0.0
 40
2.000000000000017
100
AcDbArc
 50
30.4692067871
 51
120.4692067871
  0
ARC
  5
156
330
1F
100
AcDbEntity
  8
0
  6
SLD-Сплошная
 62
     7
370
    25
100
AcDbCircle
 10
396.3643563898
 20
102.7221754295
 30
0.0
 40
2.000000000000024
100
AcDbArc
 50
120.4692067871
 51
210.4692067871
  0
SPLINE
  5
157
330
1F
100
AcDbEntity
  8
0
  6
SLD-Сплошная
 62
     7
370
    25
100
AcDbSpline
210
0.0
220
0.0
230
1.0
 70
    24
 71
     3
 72
    14
 73
    10
 74
     0
 42
0.00000001
 43
0.00000001
 40
0.0
 40
0.0
 40
0.0
 40
0.0
 40
0.25
 40
0.25
 40
0.5
 40
0.5
 40
0.75
 40
0.75
 40
1.0
 40
1.0
 40
1.0
 40
1.0
 10
395.3502059635139
 20
104.4459790472974
 30
0.0
 10
395.3502059635139
 20
104.4459790472974
 30
0.0
 10
395.3687185273503
 20
104.4568703833597
 30
0.0
 10
395.4527245803189
 20
104.5062929356457
 30
0.0
 10
395.518502760255
 20
104.5449916415399
 30
0.0
 10
395.6867995569962
 20
104.6440042357824
 30
0.0
 10
395.7887487921933
 20
104.7039831447894
 30
0.0
 10
396.0009437606067
 20
104.8288219695006
 30
0.0
 10
396.1105316701211
 20
104.8932948734937
 30
0.0
 10
396.2121077724202
 20
104.9530542604602
 30
0.0
  0
LINE
  5
158
330
1F
100
AcDbEntity
  8
0
  6
SLD-Сплошная
 62
     7
370
    25
100
AcDbLine
 10
343.5773224857
 20
200.3353868898
 30
0.0
 11
346.670481286
 21
195.0777858555
 31
0.0
  0
LINE
  5
159
330
1F
100
AcDbEntity
  8
0
  6
SLD-Сплошная
 62
     7
370
    25
100
AcDbLine
 10
341.4990704326
 20
192.0353345765
 30
0.0
 11
338.4059116323
 21
197.2929356109
 31
0.0
  0
LINE
  5
15A
330
1F
100
AcDbEntity
  8
0
  6
SLD-Сплошная
 62
     7
370
    25
100
AcDbLine
 10
397.7337115723
 20
96.4504239688
 30
0.0
 11
394.640552772
 21
101.7080250032
 31
0.0
  0
LINE
  5
15B
330
1F
100
AcDbEntity
  8
0
  6
SLD-Сплошная
 62
     7
370
    25
100
AcDbLine
 10
399.8119636255
 20
104.7504762821
 30
0.0
 11
402.9051224258
 21
99.4928752478
 31
0.0
  0
ARC
  5
15C
330
1F
100
AcDbEntity
  8
0
  6
SLD-Сплошная
 62
     7
370
    25
100
AcDbCircle
 10
370.655517029
 20
148.3929054293
 30
0.0
 40
48.75000000000005
100
AcDbArc
 50
30.4692067871
 51
210.4692067871
  0
ARC
  5
15D
330
1F
100
AcDbEntity
  8
0
  6
SLD-Сплошная
 62
     7
370
    25
100
AcDbCircle
 10
370.655517029
 20
148.3929054293
 30
0.0
 40
48.75000000000005
100
AcDbArc
 50
210.4692067871
 51
30.4692067871
  0
ARC
  5
15E
330
1F
100
AcDbEntity
  8
0
  6
SLD-Сплошная
 62
     7
370
    25
100
AcDbCircle
 10
370.655517029
 20
148.3929054293
 30
0.0
 40
54.5000000000001
100
AcDbArc
 50
0.5743366725
 51
30.3640770344
  0
ARC
  5
15F
330
1F
100
AcDbEntity
  8
0
  6
SLD-Сплошная
 62
     7
370
    25
100
AcDbCircle
 10
370.655517029
 20
148.3929054293
 30
0.0
 40
54.49999999999999
100
AcDbArc
 50
0.3640770344
 51
0.5743366725
  0
ARC
  5
160
330
1F
100
AcDbEntity
  8
0
  6
SLD-Сплошная
 62
     7
370
    25
100
AcDbCircle
 10
370.655517029
 20
148.3929054293
 30
0.0
 40
54.5
100
AcDbArc
 50
330.5743366725
 51
0.3640770344
  0
ARC
  5
161
330
1F
100
AcDbEntity
  8
0
  6
SLD-Сплошная
 62
     7
370
    25
100
AcDbCircle
 10
370.655517029
 20
148.3929054293
 30
0.0
 40
54.5
100
AcDbArc
 50
330.3640770344
 51
330.5743366725
  0
ARC
  5
162
330
1F
100
AcDbEntity
  8
0
  6
SLD-Сплошная
 62
     7
370
    25
100
AcDbCircle
 10
370.655517029
 20
148.3929054293
 30
0.0
 40
54.50000000000004
100
AcDbArc
 50
303.6246978255
 51
330.3640770344
  0
ARC
  5
163
330
1F
100
AcDbEntity
  8
0
  6
SLD-Сплошная
 62
     7
370
    25
100
AcDbCircle
 10
370.655517029
 20
148.3929054293
 30
0.0
 40
54.50000000000001
100
AcDbArc
 50
30.3640770344
 51
30.4692067871
  0
ARC
  5
164
330
1F
100
AcDbEntity
  8
0
  6
SLD-Сплошная
 62
     7
370
    25
100
AcDbCircle
 10
370.655517029
 20
148.3929054293
 30
0.0
 40
54.50000000000005
100
AcDbArc
 50
270.5743366725
 51
297.3137157487
  0
ARC
  5
165
330
1F
100
AcDbEntity
  8
0
  6
SLD-Сплошная
 62
     7
370
    25
100
AcDbCircle
 10
370.655517029
 20
148.3929054293
 30
0.0
 40
54.50000000000005
100
AcDbArc
 50
270.3640770344
 51
270.5743366725
  0
ARC
  5
166
330
1F
100
AcDbEntity
  8
0
  6
SLD-Сплошная
 62
     7
370
    25
100
AcDbCircle
 10
370.655517029
 20
148.3929054293
 30
0.0
 40
54.50000000000001
100
AcDbArc
 50
240.5743366725
 51
270.3640770344
  0
ARC
  5
167
330
1F
100
AcDbEntity
  8
0
  6
SLD-Сплошная
 62
     7
370
    25
100
AcDbCircle
 10
370.655517029
 20
148.3929054293
 30
0.0
 40
54.50000000000001
100
AcDbArc
 50
240.3640770344
 51
240.5743366725
  0
ARC
  5
168
330
1F
100
AcDbEntity
  8
0
  6
SLD-Сплошная
 62
     7
370
    25
100
AcDbCircle
 10
370.655517029
 20
148.3929054293
 30
0.0
 40
54.50000000000001
100
AcDbArc
 50
210.5743366725
 51
240.3640770344
  0
ARC
  5
169
330
1F
100
AcDbEntity
  8
0
  6
SLD-Сплошная
 62
     7
370
    25
100
AcDbCircle
 10
370.655517029
 20
148.3929054293
 30
0.0
 40
54.5
100
AcDbArc
 50
210.3640770344
 51
210.5743366725
  0
ARC
  5
16A
330
1F
100
AcDbEntity
  8
0
  6
SLD-Сплошная
 62
     7
370
    25
100
AcDbCircle
 10
370.655517029
 20
148.3929054293
 30
0.0
 40
54.50000000000004
100
AcDbArc
 50
180.5743366725
 51
210.3640770344
  0
ARC
  5
16B
330
1F
100
AcDbEntity
  8
0
  6
SLD-Сплошная
 62
     7
370
    25
100
AcDbCircle
 10
370.655517029
 20
148.3929054293
 30
0.0
 40
54.50000000000004
100
AcDbArc
 50
180.3640770344
 51
180.5743366725
  0
ARC
  5
16C
330
1F
100
AcDbEntity
  8
0
  6
SLD-Сплошная
 62
     7
370
    25
100
AcDbCircle
 10
370.655517029
 20
148.3929054293
 30
0.0
 40
54.50000000000005
100
AcDbArc
 50
150.5743366725
 51
180.3640770344
  0
ARC
  5
16D
330
1F
100
AcDbEntity
  8
0
  6
SLD-Сплошная
 62
     7
370
    25
100
AcDbCircle
 10
370.655517029
 20
148.3929054293
 30
0.0
 40
54.50000000000007
100
AcDbArc
 50
150.3640770344
 51
150.5743366725
  0
ARC
  5
16E
330
1F
100
AcDbEntity
  8
0
  6
SLD-Сплошная
 62
     7
370
    25
100
AcDbCircle
 10
370.655517029
 20
148.3929054293
 30
0.0
 40
54.49999999999999
100
AcDbArc
 50
123.6246978255
 51
150.3640770344
  0
ARC
  5
16F
330
1F
100
AcDbEntity
  8
0
  6
SLD-Сплошная
 62
     7
370
    25
100
AcDbCircle
 10
370.655517029
 20
148.3929054293
 30
0.0
 40
54.50000000000004
100
AcDbArc
 50
90.5743366725
 51
117.3137157487
  0
ARC
  5
170
330
1F
100
AcDbEntity
  8
0
  6
SLD-Сплошная
 62
     7
370
    25
100
AcDbCircle
 10
370.655517029
 20
148.3929054293
 30
0.0
 40
54.5
100
AcDbArc
 50
90.3640770344
 51
90.5743366725
  0
ARC
  5
171
330
1F
100
AcDbEntity
  8
0
  6
SLD-Сплошная
 62
     7
370
    25
100
AcDbCircle
 10
370.655517029
 20
148.3929054293
 30
0.0
 40
54.49999999999999
100
AcDbArc
 50
60.5743366725
 51
90.3640770344
  0
ARC
  5
172
330
1F
100
AcDbEntity
  8
0
  6
SLD-Сплошная
 62
     7
370
    25
100
AcDbCircle
 10
370.655517029
 20
148.3929054293
 30
0.0
 40
54.49999999999999
100
AcDbArc
 50
60.3640770344
 51
60.5743366725
  0
ARC
  5
173
330
1F
100
AcDbEntity
  8
0
  6
SLD-Сплошная
 62
     7
370
    25
100
AcDbCircle
 10
370.655517029
 20
148.3929054293
 30
0.0
 40
54.50000000000004
100
AcDbArc
 50
30.5743366725
 51
60.3640770344
  0
ARC
  5
174
330
1F
100
AcDbEntity
  8
0
  6
SLD-Сплошная
 62
     7
370
    25
100
AcDbCircle
 10
370.655517029
 20
148.3929054293
 30
0.0
 40
54.50000000000004
100
AcDbArc
 50
30.4692067871
 51
30.5743366725
  0
SPLINE
  5
175
330
1F
100
AcDbEntity
  8
0
  6
SLD-Сплошная
 62
     7
370
    25
100
AcDbSpline
210
0.0
220
0.0
230
1.0
 70
     8
 71
     3
 72
    24
 73
    20
 74
     0
 42
0.00000001
 43
0.00000001
 40
0.0
 40
0.0
 40
0.0
 40
0.0
 40
0.03896842283359
 40
0.0754371120473976
 40
0.1094059640268364
 40
0.1408748914546925
 40
0.1698438257847872
 40
0.1963127208836463
 40
0.2202815585711599
 40
0.2417503573869501
 40
0.3789196425469206
 40
0.5022618616329245
 40
0.5769885012440935
 40
0.6504739572242128
 40
0.7227376643005832
 40
0.7938000630969572
 40
0.863682651883892
 40
0.932408039620977
 40
0.9999999999999999
 40
0.9999999999999999
 40
0.9999999999999999
 40
0.9999999999999999
 10
338.4059116322823
 20
197.2929356108707
 30
0.0
 10
338.3760312832042
 20
197.3458139622711
 30
0.0
 10
338.3181873398902
 20
197.4481786419119
 30
0.0
 10
338.2456106343976
 20
197.6026184491087
 30
0.0
 10
338.18540718609
 20
197.7496633013083
 30
0.0
 10
338.1367874896309
 20
197.8886459776799
 30
0.0
 10
338.0980666413988
 20
198.0185570658909
 30
0.0
 10
338.0678517627945
 20
198.1387016850105
 30
0.0
 10
338.0447841470429
 20
198.2485248124136
 30
0.0
 10
337.9961042844327
 20
198.5293548855524
 30
0.0
 10
337.9748221291364
 20
198.9735044371844
 30
0.0
 10
338.0573686134442
 20
199.4956994121698
 30
0.0
 10
338.1887175253565
 20
199.9025556983262
 30
0.0
 10
338.3333162311002
 20
200.2188475888991
 30
0.0
 10
338.5104920148856
 20
200.5118917960555
 30
0.0
 10
338.7162861963695
 20
200.7790542009141
 30
0.0
 10
338.9471549846479
 20
201.0172842887435
 30
0.0
 10
339.1973933465655
 20
201.2276738536863
 30
0.0
 10
339.3798978806628
 20
201.3427881131705
 30
0.0
 10
339.470391419513
 20
201.3998666770778
 30
0.0
  0
SPLINE
  5
176
330
1F
100
AcDbEntity
  8
0
  6
SLD-Сплошная
 62
     7
370
    25
100
AcDbSpline
210
0.0
220
0.0
230
1.0
 70
     8
 71
     3
 72
    26
 73
    22
 74
     0
 42
0.00000001
 43
0.00000001
 40
0.0
 40
0.0
 40
0.0
 40
0.0
 40
0.0362625927955768
 40
0.07285115067729
 40
0.1097695196440076
 40
0.1470214434602675
 40
0.1846105661451034
 40
0.222540434448615
 40
0.2608145003108424
 40
0.299436123298111
 40
0.3384085730125356
 40
0.3777350314709102
 40
0.4174185954496655
 40
0.4574622787930195
 40
0.4978690146818771
 40
0.6211796520836971
 40
0.7583498805346605
 40
0.8037658735479423
 40
0.8591814882517705
 40
0.9245940313146414
 40
1.0
 40
1.0
 40
1.0
 40
1.0
 10
339.470391419513
 20
201.3998666770778
 30
0.0
 10
339.5203115584903
 20
201.428132713668
 30
0.0
 10
339.6206005694546
 20
201.4849188707497
 30
0.0
 10
339.7776207849798
 20
201.5592720312956
 30
0.0
 10
339.9397757366629
 20
201.6255921619962
 30
0.0
 10
340.1070779090234
 20
201.6826169995566
 30
0.0
 10
340.2789084358312
 20
201.7301074268412
 30
0.0
 10
340.4547679739653
 20
201.7675752806715
 30
0.0
 10
340.634073462536
 20
201.794633289869
 30
0.0
 10
340.8162144986916
 20
201.8109044864001
 30
0.0
 10
341.0005390282801
 20
201.8160515362017
 30
0.0
 10
341.1863606744973
 20
201.8097726801686
 30
0.0
 10
341.3729528109743
 20
201.7918099398454
 30
0.0
 10
341.559576069555
 20
201.7619418523652
 30
0.0
 10
341.8718995103242
 20
201.6914866771112
 30
0.0
 10
342.3177983795878
 20
201.528535792073
 30
0.0
 10
342.7275927152893
 20
201.2743132561253
 30
0.0
 10
343.0125029052584
 20
201.0356481908821
 30
0.0
 10
343.1974282387116
 20
200.8535699684503
 30
0.0
 10
343.3965910113507
 20
200.6202385184253
 30
0.0
 10
343.5142943222604
 20
200.4347258404666
 30
0.0
 10
343.5773224857202
 20
200.335386889847
 30
0.0
  0
SPLINE
  5
177
330
1F
100
AcDbEntity
  8
0
  6
SLD-Сплошная
 62
     7
370
    25
100
AcDbSpline
210
0.0
220
0.0
230
1.0
 70
     8
 71
     3
 72
    26
 73
    22
 74
     0
 42
0.00000001
 43
0.00000001
 40
0.0
 40
0.0
 40
0.0
 40
0.0
 40
0.0362625929966767
 40
0.0728511510459404
 40
0.1097695201466544
 40
0.1470214440633609
 40
0.1846105668151086
 40
0.2225404351520202
 40
0.2608145010141713
 40
0.2994361239679262
 40
0.33840857361545
 40
0.3777350319735904
 40
0.4174185958188401
 40
0.4574622789954846
 40
0.4978690146845023
 40
0.6211796520507732
 40
0.7583498805362524
 40
0.8037658721536951
 40
0.859181486392369
 40
0.9245940299202344
 40
1.0
 40
1.0
 40
1.0
 40
1.0
 10
401.8406426385263
 20
95.38594418159998
 30
0.0
 10
401.7907224992694
 20
95.35767814485747
 30
0.0
 10
401.6904334877921
 20
95.30089198749725
 30
0.0
 10
401.5334132715114
 20
95.22653882668348
 30
0.0
 10
401.3712583191932
 20
95.160218695853
 30
0.0
 10
401.2039561463303
 20
95.10319385828491
 30
0.0
 10
401.0321256191675
 20
95.05570343108855
 30
0.0
 10
400.8562660808367
 20
95.01823557741629
 30
0.0
 10
400.6769605922359
 20
94.9911775684185
 30
0.0
 10
400.4948195562212
 20
94.97490637209957
 30
0.0
 10
400.3104950269463
 20
94.96975932249269
 30
0.0
 10
400.1246733812123
 20
94.9760381786722
 30
0.0
 10
399.9380812453823
 20
94.99400091906301
 30
0.0
 10
399.7514579876017
 20
95.0238690065015
 30
0.0
 10
399.4391345474851
 20
95.0943241816607
 30
0.0
 10
398.9932356785417
 20
95.25727506655998
 30
0.0
 10
398.5834413446618
 20
95.51149760135533
 30
0.0
 10
398.2985311566175
 20
95.75016266445994
 30
0.0
 10
398.1136058242622
 20
95.93224088488915
 30
0.0
 10
397.9144430495851
 20
96.16557233606105
 30
0.0
 10
397.796739737006
 20
96.35108501640737
 30
0.0
 10
397.7337115723192
 20
96.45042396883085
 30
0.0
  0
SPLINE
  5
178
330
1F
100
AcDbEntity
  8
0
  6
SLD-Сплошная
 62
     7
370
    25
100
AcDbSpline
210
0.0
220
0.0
230
1.0
 70
     8
 71
     3
 72
    24
 73
    20
 74
     0
 42
0.00000001
 43
0.00000001
 40
0.0
 40
0.0
 40
0.0
 40
0.0
 40
0.0389684230381639
 40
0.0754371123980827
 40
0.1094059644651641
 40
0.1408748919221867
 40
0.1698438262229707
 40
0.1963127212340351
 40
0.220281558775268
 40
0.2417503573862898
 40
0.3789196425718143
 40
0.5022618616321549
 40
0.5769885011632708
 40
0.6504739570899206
 40
0.7227376641395116
 40
0.7938000629358728
 40
0.8636826517496266
 40
0.9324080395404015
 40
1.0
 40
1.0
 40
1.0
 40
1.0
 10
402.9051224257572
 20
99.4928752478071
 30
0.0
 10
402.9350027749874
 20
99.43999689612627
 30
0.0
 10
402.9928467185613
 20
99.33763221600398
 30
0.0
 10
403.0654234242759
 20
99.1831924081548
 30
0.0
 10
403.125626872649
 20
99.03614755553893
 30
0.0
 10
403.1742465690548
 20
98.89716487900397
 30
0.0
 10
403.2129674171562
 20
98.76725379089704
 30
0.0
 10
403.2431822955865
 20
98.64710917215713
 30
0.0
 10
403.2662499111498
 20
98.53728604541398
 30
0.0
 10
403.3149297736294
 20
98.25645597276319
 30
0.0
 10
403.3362119289006
 20
97.81230642144345
 30
0.0
 10
403.2536654446018
 20
97.29011144659388
 30
0.0
 10
403.1223165327955
 20
96.88325516067603
 30
0.0
 10
402.9777178272121
 20
96.56696327031104
 30
0.0
 10
402.8005420435616
 20
96.27391906322265
 30
0.0
 10
402.5947478621458
 20
96.00675665831102
 30
0.0
 10
402.3638790738336
 20
95.7685265703358
 30
0.0
 10
402.1136407117559
 20
95.55813700518317
 30
0.0
 10
401.9311361774825
 20
95.4430227455787
 30
0.0
 10
401.8406426385263
 20
95.38594418159995
 30
0.0
  0
ARC
  5
179
330
1F
100
AcDbEntity
  8
0
  6
SLD-Сплошная
 62
     7
370
    25
100
AcDbCircle
 10
370.2092104373
 20
202.8910779714
 30
0.0
 40
4.000000000000013
100
AcDbArc
 50
358.3661371637
 51
0.4692067871
  0
ARC
  5
17A
330
1F
100
AcDbEntity
  8
0
  6
SLD-Сплошная
 62
     7
370
    25
100
AcDbCircle
 10
425.1536895711
 20
148.8392120211
 30
0.0
 40
3.999999999999985
100
AcDbArc
 50
268.3661371637
 51
270.4692067871
  0
ARC
  5
17B
330
1F
100
AcDbEntity
  8
0
  6
SLD-Сплошная
 62
     7
370
    25
100
AcDbCircle
 10
418.0754722062
 20
121.5303320046
 30
0.0
 40
4.0
100
AcDbArc
 50
238.3661371637
 51
240.4692067871
  0
ARC
  5
17C
330
1F
100
AcDbEntity
  8
0
  6
SLD-Сплошная
 62
     7
370
    25
100
AcDbCircle
 10
370.2092104373
 20
202.8910779714
 30
0.0
 40
4.000000000000014
100
AcDbArc
 50
180.4692067871
 51
182.5722764104
  0
ARC
  5
17D
330
1F
100
AcDbEntity
  8
0
  6
SLD-Сплошная
 62
     7
370
    25
100
AcDbCircle
 10
397.5180904537
 20
195.8128606065
 30
0.0
 40
4.00000000000008
100
AcDbArc
 50
150.4692067871
 51
152.5722764104
  0
ARC
  5
17E
330
1F
100
AcDbEntity
  8
0
  6
SLD-Сплошная
 62
     7
370
    25
100
AcDbCircle
 10
397.5180904537
 20
195.8128606065
 30
0.0
 40
4.00000000000008
100
AcDbArc
 50
60.4692067871
 51
150.4692067871
  0
ARC
  5
17F
330
1F
100
AcDbEntity
  8
0
  6
SLD-Сплошная
 62
     7
370
    25
100
AcDbCircle
 10
397.5180904537
 20
195.8128606065
 30
0.0
 40
4.000000000000037
100
AcDbArc
 50
330.4692067871
 51
60.4692067871
  0
ARC
  5
180
330
1F
100
AcDbEntity
  8
0
  6
SLD-Сплошная
 62
     7
370
    25
100
AcDbCircle
 10
425.1536895711
 20
148.8392120211
 30
0.0
 40
4.000000000000014
100
AcDbArc
 50
0.4692067871
 51
90.4692067871
  0
ARC
  5
181
330
1F
100
AcDbEntity
  8
0
  6
SLD-Сплошная
 62
     7
370
    25
100
AcDbCircle
 10
425.1536895711
 20
148.8392120211
 30
0.0
 40
3.999999999999985
100
AcDbArc
 50
270.4692067871
 51
0.4692067871
  0
ARC
  5
182
330
1F
100
AcDbEntity
  8
0
  6
SLD-Сплошная
 62
     7
370
    25
100
AcDbCircle
 10
417.6291656144
 20
176.0285045467
 30
0.0
 40
4.000000000000022
100
AcDbArc
 50
298.3661371637
 51
300.4692067871
  0
ARC
  5
183
330
1F
100
AcDbEntity
  8
0
  6
SLD-Сплошная
 62
     7
370
    25
100
AcDbCircle
 10
417.6291656144
 20
176.0285045467
 30
0.0
 40
4.000000000000004
100
AcDbArc
 50
300.4692067871
 51
30.4692067871
  0
ARC
  5
184
330
1F
100
AcDbEntity
  8
0
  6
SLD-Сплошная
 62
     7
370
    25
100
AcDbCircle
 10
417.6291656144
 20
176.0285045467
 30
0.0
 40
3.999999999999975
100
AcDbArc
 50
30.4692067871
 51
120.4692067871
  0
ARC
  5
185
330
1F
100
AcDbEntity
  8
0
  6
SLD-Сплошная
 62
     7
370
    25
100
AcDbCircle
 10
417.6291656144
 20
176.0285045467
 30
0.0
 40
3.999999999999991
100
AcDbArc
 50
120.4692067871
 51
122.5722764104
  0
ARC
  5
186
330
1F
100
AcDbEntity
  8
0
  6
SLD-Сплошная
 62
     7
370
    25
100
AcDbCircle
 10
418.0754722062
 20
121.5303320046
 30
0.0
 40
4.000000000000059
100
AcDbArc
 50
330.4692067871
 51
60.4692067871
  0
ARC
  5
187
330
1F
100
AcDbEntity
  8
0
  6
SLD-Сплошная
 62
     7
370
    25
100
AcDbCircle
 10
418.0754722062
 20
121.5303320046
 30
0.0
 40
4.000000000000059
100
AcDbArc
 50
240.4692067871
 51
330.4692067871
  0
ARC
  5
188
330
1F
100
AcDbEntity
  8
0
  6
SLD-Сплошная
 62
     7
370
    25
100
AcDbCircle
 10
370.2092104373
 20
202.8910779714
 30
0.0
 40
4.000000000000014
100
AcDbArc
 50
90.4692067871
 51
180.4692067871
  0
ARC
  5
189
330
1F
100
AcDbEntity
  8
0
  6
SLD-Сплошная
 62
     7
370
    25
100
AcDbCircle
 10
370.2092104373
 20
202.8910779714
 30
0.0
 40
4.000000000000013
100
AcDbArc
 50
0.4692067871
 51
90.4692067871
  0
ARC
  5
18A
330
1F
100
AcDbEntity
  8
0
  6
SLD-Сплошная
 62
     7
370
    25
100
AcDbCircle
 10
397.5180904537
 20
195.8128606065
 30
0.0
 40
3.999999999999988
100
AcDbArc
 50
328.3661371637
 51
330.4692067871
  0
ARC
  5
18B
330
1F
100
AcDbEntity
  8
0
  6
SLD-Сплошная
 62
     7
370
    25
100
AcDbCircle
 10
418.0754722062
 20
121.5303320046
 30
0.0
 40
4.000000000000018
100
AcDbArc
 50
60.4692067871
 51
62.5722764104
  0
ARC
  5
18C
330
1F
100
AcDbEntity
  8
0
  6
SLD-Сплошная
 62
     7
370
    25
100
AcDbCircle
 10
425.1536895711
 20
148.8392120211
 30
0.0
 40
4.00000000000001
100
AcDbArc
 50
90.4692067871
 51
92.5722764104
  0
ARC
  5
18D
330
1F
100
AcDbEntity
  8
0
  6
SLD-Сплошная
 62
     7
370
    25
100
AcDbCircle
 10
371.1018236208
 20
93.8947328873
 30
0.0
 40
4.000000000000014
100
AcDbArc
 50
270.4692067871
 51
0.4692067871
  0
ARC
  5
18E
330
1F
100
AcDbEntity
  8
0
  6
SLD-Сплошная
 62
     7
370
    25
100
AcDbCircle
 10
371.1018236208
 20
93.8947328873
 30
0.0
 40
3.999999999999956
100
AcDbArc
 50
180.4692067871
 51
270.4692067871
  0
ARC
  5
18F
330
1F
100
AcDbEntity
  8
0
  6
SLD-Сплошная
 62
     7
370
    25
100
AcDbCircle
 10
323.2355618519
 20
175.255478854
 30
0.0
 40
4.000000000000034
100
AcDbArc
 50
240.4692067871
 51
242.5722764104
  0
ARC
  5
190
330
1F
100
AcDbEntity
  8
0
  6
SLD-Сплошная
 62
     7
370
    25
100
AcDbCircle
 10
323.2355618519
 20
175.255478854
 30
0.0
 40
3.999999999999969
100
AcDbArc
 50
58.3661371637
 51
60.4692067871
  0
ARC
  5
191
330
1F
100
AcDbEntity
  8
0
  6
SLD-Сплошная
 62
     7
370
    25
100
AcDbCircle
 10
316.1573444869
 20
147.9465988376
 30
0.0
 40
4.000000000000013
100
AcDbArc
 50
88.3661371637
 51
90.4692067871
  0
ARC
  5
192
330
1F
100
AcDbEntity
  8
0
  6
SLD-Сплошная
 62
     7
370
    25
100
AcDbCircle
 10
316.1573444869
 20
147.9465988376
 30
0.0
 40
4.000000000000014
100
AcDbArc
 50
180.4692067871
 51
270.4692067871
  0
ARC
  5
193
330
1F
100
AcDbEntity
  8
0
  6
SLD-Сплошная
 62
     7
370
    25
100
AcDbCircle
 10
316.1573444869
 20
147.9465988376
 30
0.0
 40
4.000000000000013
100
AcDbArc
 50
90.4692067871
 51
180.4692067871
  0
ARC
  5
194
330
1F
100
AcDbEntity
  8
0
  6
SLD-Сплошная
 62
     7
370
    25
100
AcDbCircle
 10
316.1573444869
 20
147.9465988376
 30
0.0
 40
4.000000000000014
100
AcDbArc
 50
270.4692067871
 51
272.5722764104
  0
ARC
  5
195
330
1F
100
AcDbEntity
  8
0
  6
SLD-Сплошная
 62
     7
370
    25
100
AcDbCircle
 10
323.2355618519
 20
175.255478854
 30
0.0
 40
4.000000000000034
100
AcDbArc
 50
150.4692067871
 51
240.4692067871
  0
ARC
  5
196
330
1F
100
AcDbEntity
  8
0
  6
SLD-Сплошная
 62
     7
370
    25
100
AcDbCircle
 10
323.2355618519
 20
175.255478854
 30
0.0
 40
3.999999999999967
100
AcDbArc
 50
60.4692067871
 51
150.4692067871
  0
ARC
  5
197
330
1F
100
AcDbEntity
  8
0
  6
SLD-Сплошная
 62
     7
370
    25
100
AcDbCircle
 10
343.7929436043
 20
100.9729502522
 30
0.0
 40
4.00000000000003
100
AcDbArc
 50
240.4692067871
 51
330.4692067871
  0
ARC
  5
198
330
1F
100
AcDbEntity
  8
0
  6
SLD-Сплошная
 62
     7
370
    25
100
AcDbCircle
 10
343.7929436043
 20
100.9729502522
 30
0.0
 40
3.999999999999981
100
AcDbArc
 50
150.4692067871
 51
240.4692067871
  0
ARC
  5
199
330
1F
100
AcDbEntity
  8
0
  6
SLD-Сплошная
 62
     7
370
    25
100
AcDbCircle
 10
323.6818684436
 20
120.757306312
 30
0.0
 40
4.00000000000002
100
AcDbArc
 50
210.4692067871
 51
300.4692067871
  0
ARC
  5
19A
330
1F
100
AcDbEntity
  8
0
  6
SLD-Сплошная
 62
     7
370
    25
100
AcDbCircle
 10
323.6818684436
 20
120.757306312
 30
0.0
 40
3.999999999999965
100
AcDbArc
 50
120.4692067871
 51
210.4692067871
  0
ARC
  5
19B
330
1F
100
AcDbEntity
  8
0
  6
SLD-Сплошная
 62
     7
370
    25
100
AcDbCircle
 10
371.1018236208
 20
93.8947328873
 30
0.0
 40
3.999999999999956
100
AcDbArc
 50
178.3661371637
 51
180.4692067871
  0
ARC
  5
19C
330
1F
100
AcDbEntity
  8
0
  6
SLD-Сплошная
 62
     7
370
    25
100
AcDbCircle
 10
371.1018236208
 20
93.8947328873
 30
0.0
 40
4.000000000000014
100
AcDbArc
 50
0.4692067871
 51
2.5722764104
  0
ARC
  5
19D
330
1F
100
AcDbEntity
  8
0
  6
SLD-Сплошная
 62
     7
370
    25
100
AcDbCircle
 10
343.7929436043
 20
100.9729502522
 30
0.0
 40
4.00000000000003
100
AcDbArc
 50
330.4692067871
 51
332.5722764104
  0
ARC
  5
19E
330
1F
100
AcDbEntity
  8
0
  6
SLD-Сплошная
 62
     7
370
    25
100
AcDbCircle
 10
343.7929436043
 20
100.9729502522
 30
0.0
 40
3.999999999999984
100
AcDbArc
 50
148.3661371637
 51
150.4692067871
  0
ARC
  5
19F
330
1F
100
AcDbEntity
  8
0
  6
SLD-Сплошная
 62
     7
370
    25
100
AcDbCircle
 10
323.6818684436
 20
120.757306312
 30
0.0
 40
4.000000000000059
100
AcDbArc
 50
300.4692067871
 51
302.5722764104
  0
ARC
  5
1A0
330
1F
100
AcDbEntity
  8
0
  6
SLD-Сплошная
 62
     7
370
    25
100
AcDbCircle
 10
323.6818684436
 20
120.757306312
 30
0.0
 40
3.99999999999997
100
AcDbArc
 50
118.3661371637
 51
120.4692067871
  0
ARC
  5
1A1
330
1F
100
AcDbEntity
  8
0
  6
SLD-Сплошная
 62
     7
370
    25
100
AcDbCircle
 10
370.655517029
 20
148.3929054293
 30
0.0
 40
56.00000000000009
100
AcDbArc
 50
184.19759003
 51
206.7408235441
  0
ARC
  5
1A2
330
1F
100
AcDbEntity
  8
0
  6
SLD-Сплошная
 62
     7
370
    25
100
AcDbCircle
 10
370.655517029
 20
148.3929054293
 30
0.0
 40
55.99999999999999
100
AcDbArc
 50
34.19759003
 51
56.7408235441
  0
ARC
  5
1A3
330
1F
100
AcDbEntity
  8
0
  6
SLD-Сплошная
 62
     7
370
    25
100
AcDbCircle
 10
370.655517029
 20
148.3929054293
 30
0.0
 40
56.00000000000001
100
AcDbArc
 50
334.19759003
 51
356.7408235441
  0
ARC
  5
1A4
330
1F
100
AcDbEntity
  8
0
  6
SLD-Сплошная
 62
     7
370
    25
100
AcDbCircle
 10
370.655517029
 20
148.3929054293
 30
0.0
 40
56.00000000000001
100
AcDbArc
 50
64.19759003
 51
86.7408235441
  0
ARC
  5
1A5
330
1F
100
AcDbEntity
  8
0
  6
SLD-Сплошная
 62
     7
370
    25
100
AcDbCircle
 10
370.655517029
 20
148.3929054293
 30
0.0
 40
56.00000000000002
100
AcDbArc
 50
4.19759003
 51
26.7408235441
  0
ARC
  5
1A6
330
1F
100
AcDbEntity
  8
0
  6
SLD-Сплошная
 62
     7
370
    25
100
AcDbCircle
 10
370.655517029
 20
148.3929054293
 30
0.0
 40
56.00000000000011
100
AcDbArc
 50
154.19759003
 51
176.7408235441
  0
ARC
  5
1A7
330
1F
100
AcDbEntity
  8
0
  6
SLD-Сплошная
 62
     7
370
    25
100
AcDbCircle
 10
370.655517029
 20
148.3929054293
 30
0.0
 40
56.00000000000007
100
AcDbArc
 50
123.5400935981
 51
146.7408235441
  0
ARC
  5
1A8
330
1F
100
AcDbEntity
  8
0
  6
SLD-Сплошная
 62
     7
370
    25
100
AcDbCircle
 10
370.655517029
 20
148.3929054293
 30
0.0
 40
56.00000000000001
100
AcDbArc
 50
94.19759003
 51
117.398319976
  0
ARC
  5
1A9
330
1F
100
AcDbEntity
  8
0
  6
SLD-Сплошная
 62
     7
370
    25
100
AcDbCircle
 10
370.655517029
 20
148.3929054293
 30
0.0
 40
56.00000000000009
100
AcDbArc
 50
244.3937932839
 51
266.7408235441
  0
ARC
  5
1AA
330
1F
100
AcDbEntity
  8
0
  6
SLD-Сплошная
 62
     7
370
    25
100
AcDbCircle
 10
370.655517029
 20
148.3929054293
 30
0.0
 40
56.0000000000001
100
AcDbArc
 50
214.19759003
 51
236.7408235441
  0
ARC
  5
1AB
330
1F
100
AcDbEntity
  8
0
  6
SLD-Сплошная
 62
     7
370
    25
100
AcDbCircle
 10
370.655517029
 20
148.3929054293
 30
0.0
 40
56.00000000000006
100
AcDbArc
 50
274.19759003
 51
297.398319976
  0
ARC
  5
1AC
330
1F
100
AcDbEntity
  8
0
  6
SLD-Сплошная
 62
     7
370
    25
100
AcDbCircle
 10
370.655517029
 20
148.3929054293
 30
0.0
 40
56.00000000000003
100
AcDbArc
 50
303.5400935981
 51
326.7408235441
  0
LINE
  5
1AD
330
1F
100
AcDbEntity
  8
0
  6
SLD-Сплошная
 62
     7
370
    25
100
AcDbLine
 10
380.6555170302
 20
204.8929054292
 30
0.0
 11
380.6555170302
 21
203.492814685
 31
0.0
  0
LINE
  5
1AE
330
1F
100
AcDbEntity
  8
0
  6
SLD-Сплошная
 62
     7
370
    25
100
AcDbLine
 10
360.6555170302
 20
203.4928146854
 30
0.0
 11
360.6555170302
 21
204.8929054292
 31
0.0
  0
LINE
  5
1AF
330
1F
100
AcDbEntity
  8
0
  6
SLD-Сплошная
 62
     7
370
    25
100
AcDbLine
 10
31.2211214658
 20
175.2574655766
 30
0.0
 11
31.2211214658
 21
171.9574655766
 31
0.0
  0
LINE
  5
1B0
330
1F
100
AcDbEntity
  8
0
  6
SLD-Сплошная
 62
     7
370
    25
100
AcDbLine
 10
38.2211214658
 20
171.9574655766
 30
0.0
 11
38.2211214658
 21
175.2574655766
 31
0.0
  0
LINE
  5
1B1
330
1F
100
AcDbEntity
  8
0
  6
SLD-Сплошная
 62
     7
370
    25
100
AcDbLine
 10
32.2211214658
 20
171.9574655766
 30
0.0
 11
32.2211214658
 21
169.9568076534
 31
0.0
  0
LINE
  5
1B2
330
1F
100
AcDbEntity
  8
0
  6
SLD-Сплошная
 62
     7
370
    25
100
AcDbLine
 10
32.2211214658
 20
164.8069553194
 30
0.0
 11
32.2211214658
 21
161.9574655766
 31
0.0
  0
LINE
  5
1B3
330
1F
100
AcDbEntity
  8
0
  6
SLD-Сплошная
 62
     7
370
    25
100
AcDbLine
 10
37.2211214658
 20
161.9574655766
 30
0.0
 11
37.2211214658
 21
164.8069553194
 31
0.0
  0
LINE
  5
1B4
330
1F
100
AcDbEntity
  8
0
  6
SLD-Сплошная
 62
     7
370
    25
100
AcDbLine
 10
37.2211214658
 20
169.9568076534
 30
0.0
 11
37.2211214658
 21
171.9574655766
 31
0.0
  0
LINE
  5
1B5
330
1F
100
AcDbEntity
  8
0
  6
SLD-Сплошная
 62
     7
370
    25
100
AcDbLine
 10
47.0726545895
 20
127.8954279934
 30
0.0
 11
48.4323135826
 21
130.3996083417
 31
0.0
  0
LINE
  5
1B6
330
1F
100
AcDbEntity
  8
0
  6
SLD-Сплошная
 62
     7
370
    25
100
AcDbLine
 10
44.0382280193
 20
132.785402143
 30
0.0
 11
42.6785690262
 21
130.2812217947
 31
0.0
  0
LINE
  5
1B7
330
1F
100
AcDbEntity
  8
0
  6
SLD-Сплошная
 62
     7
370
    25
100
AcDbLine
 10
46.9482023202
 20
147.3929054292
 30
0.0
 11
46.9482023202
 21
148.9157810848
 31
0.0
  0
LINE
  5
1B8
330
1F
100
AcDbEntity
  8
0
  6
SLD-Сплошная
 62
     7
370
    25
100
AcDbLine
 10
46.9482023202
 20
152.8844080514
 30
0.0
 11
46.9482023202
 21
153.3929054292
 31
0.0
  0
LINE
  5
1B9
330
1F
100
AcDbEntity
  8
0
  6
SLD-Сплошная
 62
     7
370
    25
100
AcDbLine
 10
43.9482023202
 20
153.3929054292
 30
0.0
 11
43.9482023202
 21
152.8844080514
 31
0.0
  0
LINE
  5
1BA
330
1F
100
AcDbEntity
  8
0
  6
SLD-Сплошная
 62
     7
370
    25
100
AcDbLine
 10
43.9482023202
 20
148.9157810848
 30
0.0
 11
43.9482023202
 21
147.3929054292
 31
0.0
  0
LINE
  5
1BB
330
1F
100
AcDbEntity
  8
0
  6
SLD-Сплошная
 62
     7
370
    25
100
AcDbLine
 10
19.8056626761
 20
152.2405055889
 30
0.0
 11
21.2003029399
 21
149.2496898917
 31
0.0
  0
LINE
  5
1BC
330
1F
100
AcDbEntity
  8
0
  6
SLD-Сплошная
 62
     7
370
    25
100
AcDbLine
 10
27.5444574491
 20
152.2080177239
 30
0.0
 11
26.1498171854
 21
155.1988334211
 31
0.0
  0
LINE
  5
1BD
330
1F
100
AcDbEntity
  8
0
  6
SLD-Сплошная
 62
     7
370
    25
100
AcDbLine
 10
22.1066107269
 20
149.6723081535
 30
0.0
 11
22.9521253007
 21
147.8590962985
 31
0.0
  0
LINE
  5
1BE
330
1F
100
AcDbEntity
  8
0
  6
SLD-Сплошная
 62
     7
370
    25
100
AcDbLine
 10
25.1285469424
 20
143.1917450261
 30
0.0
 11
26.3327933443
 21
140.6092302831
 31
0.0
  0
LINE
  5
1BF
330
1F
100
AcDbEntity
  8
0
  6
SLD-Сплошная
 62
     7
370
    25
100
AcDbLine
 10
30.8643322795
 20
142.7223215918
 30
0.0
 11
29.6600858775
 21
145.3048363348
 31
0.0
  0
LINE
  5
1C0
330
1F
100
AcDbEntity
  8
0
  6
SLD-Сплошная
 62
     7
370
    25
100
AcDbLine
 10
27.4836642359
 20
149.9721876072
 30
0.0
 11
26.6381496621
 21
151.7853994622
 31
0.0
  0
LINE
  5
1C1
330
1F
100
AcDbEntity
  8
0
  6
SLD-Сплошная
 62
     7
370
    25
100
AcDbLine
 10
52.6752831745
 20
175.2574655766
 30
0.0
 11
52.6752831745
 21
171.9574655766
 31
0.0
  0
LINE
  5
1C2
330
1F
100
AcDbEntity
  8
0
  6
SLD-Сплошная
 62
     7
370
    25
100
AcDbLine
 10
59.6752831745
 20
171.9574655766
 30
0.0
 11
59.6752831745
 21
175.2574655766
 31
0.0
  0
LINE
  5
1C3
330
1F
100
AcDbEntity
  8
0
  6
SLD-Сплошная
 62
     7
370
    25
100
AcDbLine
 10
53.6752831745
 20
171.9574655766
 30
0.0
 11
53.6752831745
 21
169.9568076534
 31
0.0
  0
LINE
  5
1C4
330
1F
100
AcDbEntity
  8
0
  6
SLD-Сплошная
 62
     7
370
    25
100
AcDbLine
 10
53.6752831745
 20
164.8069553194
 30
0.0
 11
53.6752831745
 21
161.9574655766
 31
0.0
  0
LINE
  5
1C5
330
1F
100
AcDbEntity
  8
0
  6
SLD-Сплошная
 62
     7
370
    25
100
AcDbLine
 10
58.6752831745
 20
161.9574655766
 30
0.0
 11
58.6752831745
 21
164.8069553194
 31
0.0
  0
LINE
  5
1C6
330
1F
100
AcDbEntity
  8
0
  6
SLD-Сплошная
 62
     7
370
    25
100
AcDbLine
 10
58.6752831745
 20
169.9568076534
 30
0.0
 11
58.6752831745
 21
171.9574655766
 31
0.0
  0
LINE
  5
1C7
330
1F
100
AcDbEntity
  8
0
  6
SLD-Сплошная
 62
     7
370
    25
100
AcDbLine
 10
64.746587455
 20
155.1988334211
 30
0.0
 11
63.3519471913
 21
152.2080177239
 31
0.0
  0
LINE
  5
1C8
330
1F
100
AcDbEntity
  8
0
  6
SLD-Сплошная
 62
     7
370
    25
100
AcDbLine
 10
69.6961017005
 20
149.2496898917
 30
0.0
 11
71.0907419643
 21
152.2405055889
 31
0.0
  0
LINE
  5
1C9
330
1F
100
AcDbEntity
  8
0
  6
SLD-Сплошная
 62
     7
370
    25
100
AcDbLine
 10
64.2582549783
 20
151.7853994622
 30
0.0
 11
63.4127404045
 21
149.9721876072
 31
0.0
  0
LINE
  5
1CA
330
1F
100
AcDbEntity
  8
0
  6
SLD-Сплошная
 62
     7
370
    25
100
AcDbLine
 10
61.2363187628
 20
145.3048363348
 30
0.0
 11
60.0320723609
 21
142.7223215918
 31
0.0
  0
LINE
  5
1CB
330
1F
100
AcDbEntity
  8
0
  6
SLD-Сплошная
 62
     7
370
    25
100
AcDbLine
 10
64.5636112961
 20
140.6092302831
 30
0.0
 11
65.767857698
 21
143.1917450261
 31
0.0
  0
LINE
  5
1CC
330
1F
100
AcDbEntity
  8
0
  6
SLD-Сплошная
 62
     7
370
    25
100
AcDbLine
 10
67.9442793396
 20
147.8590962985
 30
0.0
 11
68.7897939135
 21
149.6723081535
 31
0.0
  0
ARC
  5
1CD
330
1F
100
AcDbEntity
  8
0
  6
SLD-Сплошная
 62
     7
370
    25
100
AcDbCircle
 10
45.066475312
 20
129.4398517391
 30
0.0
 40
4.500000000000014
100
AcDbArc
 50
180.0
 51
0.0
  0
ARC
  5
1CE
330
1F
100
AcDbEntity
  8
0
  6
SLD-Сплошная
 62
     7
370
    25
100
AcDbCircle
 10
45.066475312
 20
129.4398517391
 30
0.0
 40
4.500000000000014
100
AcDbArc
 50
0.0
 51
180.0
  0
ARC
  5
1CF
330
1F
100
AcDbEntity
  8
0
  6
SLD-Сплошная
 62
     7
370
    25
100
AcDbCircle
 10
45.066475312
 20
129.4398517391
 30
0.0
 40
5.70000000000001
100
AcDbArc
 50
0.0
 51
180.0
  0
ARC
  5
1D0
330
1F
100
AcDbEntity
  8
0
  6
SLD-Сплошная
 62
     7
370
    25
100
AcDbCircle
 10
45.066475312
 20
129.4398517391
 30
0.0
 40
5.70000000000001
100
AcDbArc
 50
180.0
 51
0.0
  0
ARC
  5
1D1
330
1F
100
AcDbEntity
  8
0
  6
SLD-Сплошная
 62
     7
370
    25
100
AcDbCircle
 10
50.1720740468
 20
138.8431948446
 30
0.0
 40
2.727272726999168
100
AcDbArc
 50
0.0
 51
180.0
  0
ARC
  5
1D2
330
1F
100
AcDbEntity
  8
0
  6
SLD-Сплошная
 62
     7
370
    25
100
AcDbCircle
 10
50.1720740468
 20
138.8431948446
 30
0.0
 40
2.999999999699178
100
AcDbArc
 50
180.0
 51
0.0
  0
ARC
  5
1D3
330
1F
100
AcDbEntity
  8
0
  6
SLD-Сплошная
 62
     7
370
    25
100
AcDbCircle
 10
50.1720740468
 20
138.8431948446
 30
0.0
 40
2.999999999699178
100
AcDbArc
 50
0.0
 51
180.0
  0
ARC
  5
1D4
330
1F
100
AcDbEntity
  8
0
  6
SLD-Сплошная
 62
     7
370
    25
100
AcDbCircle
 10
50.1720740468
 20
138.8431948446
 30
0.0
 40
2.727272726999168
100
AcDbArc
 50
180.0
 51
0.0
  0
ARC
  5
1D5
330
1F
100
AcDbEntity
  8
0
  6
SLD-Сплошная
 62
     7
370
    25
100
AcDbCircle
 10
50.4400865569
 20
140.0165975663
 30
0.0
 40
0.2045454545250219
100
AcDbArc
 50
61.5
 51
180.0
  0
ARC
  5
1D6
330
1F
100
AcDbEntity
  8
0
  6
SLD-Сплошная
 62
     7
370
    25
100
AcDbCircle
 10
50.4400865569
 20
140.0165975663
 30
0.0
 40
0.2045454545250118
100
AcDbArc
 50
180.0
 51
241.5
  0
ARC
  5
1D7
330
1F
100
AcDbEntity
  8
0
  6
SLD-Сплошная
 62
     7
370
    25
100
AcDbCircle
 10
51.0102022989
 20
139.7070499747
 30
0.0
 40
0.2045454545250367
100
AcDbArc
 50
241.5
 51
61.5
  0
LINE
  5
1D8
330
1F
100
AcDbEntity
  8
0
  6
SLD-Сплошная
 62
     7
370
    25
100
AcDbLine
 10
51.1078029544
 20
139.8868080205
 30
0.0
 11
50.5376872124
 21
140.1963556121
 31
0.0
  0
LINE
  5
1D9
330
1F
100
AcDbEntity
  8
0
  6
SLD-Сплошная
 62
     7
370
    25
100
AcDbLine
 10
50.9126016434
 20
139.527291929
 30
0.0
 11
50.3424859014
 21
139.8368395206
 31
0.0
  0
ARC
  5
1DA
330
1F
100
AcDbEntity
  8
0
  6
SLD-Сплошная
 62
     7
370
    25
100
AcDbCircle
 10
49.6190036656
 20
137.8245659186
 30
0.0
 40
0.2045454545250078
100
AcDbArc
 50
151.5
 51
180.0
  0
LINE
  5
1DB
330
1F
100
AcDbEntity
  8
0
  6
SLD-Сплошная
 62
     7
370
    25
100
AcDbLine
 10
49.4392456198
 20
137.9221665741
 30
0.0
 11
49.7320475863
 21
138.4614407114
 31
0.0
  0
LINE
  5
1DC
330
1F
100
AcDbEntity
  8
0
  6
SLD-Сплошная
 62
     7
370
    25
100
AcDbLine
 10
49.7320475863
 20
138.4614407114
 30
0.0
 11
48.3085220922
 21
139.234351992
 31
0.0
  0
ARC
  5
1DD
330
1F
100
AcDbEntity
  8
0
  6
SLD-Сплошная
 62
     7
370
    25
100
AcDbCircle
 10
48.4061227477
 20
139.4141100378
 30
0.0
 40
0.204545454525018
100
AcDbArc
 50
180.0
 51
241.5
  0
ARC
  5
1DE
330
1F
100
AcDbEntity
  8
0
  6
SLD-Сплошная
 62
     7
370
    25
100
AcDbCircle
 10
48.4061227477
 20
139.4141100378
 30
0.0
 40
0.2045454545250389
100
AcDbArc
 50
61.5
 51
180.0
  0
LINE
  5
1DF
330
1F
100
AcDbEntity
  8
0
  6
SLD-Сплошная
 62
     7
370
    25
100
AcDbLine
 10
49.7987617114
 20
137.7269652632
 30
0.0
 11
50.0915636778
 21
138.2662394004
 31
0.0
  0
ARC
  5
1E0
330
1F
100
AcDbEntity
  8
0
  6
SLD-Сплошная
 62
     7
370
    25
100
AcDbCircle
 10
49.6190036656
 20
137.8245659186
 30
0.0
 40
0.2045454545250089
100
AcDbArc
 50
180.0
 51
331.5
  0
LINE
  5
1E1
330
1F
100
AcDbEntity
  8
0
  6
SLD-Сплошная
 62
     7
370
    25
100
AcDbLine
 10
51.515089172
 20
137.4933281198
 30
0.0
 11
50.0915636778
 21
138.2662394004
 31
0.0
  0
ARC
  5
1E2
330
1F
100
AcDbEntity
  8
0
  6
SLD-Сплошная
 62
     7
370
    25
100
AcDbCircle
 10
51.6126898275
 20
137.6730861656
 30
0.0
 40
0.2045454545250232
100
AcDbArc
 50
241.5
 51
61.5
  0
LINE
  5
1E3
330
1F
100
AcDbEntity
  8
0
  6
SLD-Сплошная
 62
     7
370
    25
100
AcDbLine
 10
51.710290483
 20
137.8528442113
 30
0.0
 11
48.5037234032
 21
139.5938680835
 31
0.0
  0
ARC
  5
1E4
330
1F
100
AcDbEntity
  8
0
  6
SLD-Сплошная
 62
     7
370
    25
100
AcDbCircle
 10
49.5155575527
 20
139.7427395988
 30
0.0
 40
0.2045454545250401
100
AcDbArc
 50
180.0
 51
241.5
  0
ARC
  5
1E5
330
1F
100
AcDbEntity
  8
0
  6
SLD-Сплошная
 62
     7
370
    25
100
AcDbCircle
 10
49.5155575527
 20
139.7427395988
 30
0.0
 40
0.2045454545249967
100
AcDbArc
 50
61.5
 51
180.0
  0
LINE
  5
1E6
330
1F
100
AcDbEntity
  8
0
  6
SLD-Сплошная
 62
     7
370
    25
100
AcDbLine
 10
51.3816609219
 20
138.9622790163
 30
0.0
 11
49.6131582082
 21
139.9224976446
 31
0.0
  0
LINE
  5
1E7
330
1F
100
AcDbEntity
  8
0
  6
SLD-Сплошная
 62
     7
370
    25
100
AcDbLine
 10
51.1864596109
 20
138.6027629248
 30
0.0
 11
49.4179568972
 21
139.562981553
 31
0.0
  0
ARC
  5
1E8
330
1F
100
AcDbEntity
  8
0
  6
SLD-Сплошная
 62
     7
370
    25
100
AcDbCircle
 10
51.2840602664
 20
138.7825209706
 30
0.0
 40
0.2045454545250367
100
AcDbArc
 50
241.5
 51
61.5
  0
ARC
  5
1E9
330
1F
100
AcDbEntity
  8
0
  6
SLD-Сплошная
 62
     7
370
    25
100
AcDbCircle
 10
45.4482023202
 20
130.1429054292
 30
0.0
 40
8.599999999999994
100
AcDbArc
 50
0.0
 51
24.2962560093
  0
ARC
  5
1EA
330
1F
100
AcDbEntity
  8
0
  6
SLD-Сплошная
 62
     7
370
    25
100
AcDbCircle
 10
45.4482023202
 20
130.1429054292
 30
0.0
 40
8.600000000000001
100
AcDbArc
 50
180.0
 51
0.0
  0
ARC
  5
1EB
330
1F
100
AcDbEntity
  8
0
  6
SLD-Сплошная
 62
     7
370
    25
100
AcDbCircle
 10
45.4482023202
 20
130.1429054292
 30
0.0
 40
8.600000000000001
100
AcDbArc
 50
98.7037439907
 51
180.0
  0
LINE
  5
1EC
330
1F
100
AcDbEntity
  8
0
  6
SLD-Сплошная
 62
     7
370
    25
100
AcDbLine
 10
53.2865017399
 20
133.6814167274
 30
0.0
 11
57.8434549743
 21
142.0742805235
 31
0.0
  0
LINE
  5
1ED
330
1F
100
AcDbEntity
  8
0
  6
SLD-Сплошная
 62
     7
370
    25
100
AcDbLine
 10
44.1468037682
 20
138.6438678341
 30
0.0
 11
48.7037570026
 21
147.0367316302
 31
0.0
  0
LINE
  5
1EE
330
1F
100
AcDbEntity
  8
0
  6
SLD-Сплошная
 62
     7
370
    25
100
AcDbLine
 10
57.8434549743
 20
142.0742805235
 30
0.0
 11
48.7037570026
 21
147.0367316302
 31
0.0
  0
ARC
  5
1EF
330
1F
100
AcDbEntity
  8
0
  6
SLD-Сплошная
 62
     7
370
    25
100
AcDbCircle
 10
45.066475312
 20
129.4398517391
 30
0.0
 40
3.50000000000002
100
AcDbArc
 50
151.5
 51
331.5
  0
ARC
  5
1F0
330
1F
100
AcDbEntity
  8
0
  6
SLD-Сплошная
 62
     7
370
    25
100
AcDbCircle
 10
45.066475312
 20
129.4398517391
 30
0.0
 40
3.50000000000002
100
AcDbArc
 50
331.5
 51
151.5
  0
ARC
  5
1F1
330
1F
100
AcDbEntity
  8
0
  6
SLD-Сплошная
 62
     7
370
    25
100
AcDbCircle
 10
45.4482023202
 20
147.5929054292
 30
0.0
 40
4.199999999999996
100
AcDbArc
 50
180.0
 51
289.6063710286
  0
ARC
  5
1F2
330
1F
100
AcDbEntity
  8
0
  6
SLD-Сплошная
 62
     7
370
    25
100
AcDbCircle
 10
45.4482023202
 20
147.5929054292
 30
0.0
 40
4.199999999999996
100
AcDbArc
 50
0.0
 51
180.0
  0
ARC
  5
1F3
330
1F
100
AcDbEntity
  8
0
  6
SLD-Сплошная
 62
     7
370
    25
100
AcDbCircle
 10
45.4482023202
 20
147.5929054292
 30
0.0
 40
4.199999999999998
100
AcDbArc
 50
346.1838946435
 51
0.0
  0
ARC
  5
1F4
330
1F
100
AcDbEntity
  8
0
  6
SLD-Сплошная
 62
     7
370
    25
100
AcDbCircle
 10
45.4482023202
 20
147.5929054292
 30
0.0
 40
2.999999999999993
100
AcDbArc
 50
0.0
 51
180.0
  0
ARC
  5
1F5
330
1F
100
AcDbEntity
  8
0
  6
SLD-Сплошная
 62
     7
370
    25
100
AcDbCircle
 10
45.4482023202
 20
147.5929054292
 30
0.0
 40
2.999999999999993
100
AcDbArc
 50
180.0
 51
0.0
  0
ARC
  5
1F6
330
1F
100
AcDbEntity
  8
0
  6
SLD-Сплошная
 62
     7
370
    25
100
AcDbCircle
 10
62.4668891332
 20
142.0282990523
 30
0.0
 40
5.700000000000022
100
AcDbArc
 50
195.7186965037
 51
173.8304530849
  0
ARC
  5
1F7
330
1F
100
AcDbEntity
  8
0
  6
SLD-Сплошная
 62
     7
370
    25
100
AcDbCircle
 10
62.4668891332
 20
142.0282990523
 30
0.0
 40
4.5
100
AcDbArc
 50
180.0
 51
0.0
  0
ARC
  5
1F8
330
1F
100
AcDbEntity
  8
0
  6
SLD-Сплошная
 62
     7
370
    25
100
AcDbCircle
 10
62.4668891332
 20
142.0282990523
 30
0.0
 40
4.5
100
AcDbArc
 50
0.0
 51
180.0
  0
ARC
  5
1F9
330
1F
100
AcDbEntity
  8
0
  6
SLD-Сплошная
 62
     7
370
    25
100
AcDbCircle
 10
56.1752831745
 20
162.3574655766
 30
0.0
 40
5.700000000000003
100
AcDbArc
 50
180.0
 51
0.0
  0
ARC
  5
1FA
330
1F
100
AcDbEntity
  8
0
  6
SLD-Сплошная
 62
     7
370
    25
100
AcDbCircle
 10
56.1752831745
 20
162.3574655766
 30
0.0
 40
4.5
100
AcDbArc
 50
180.0
 51
0.0
  0
ARC
  5
1FB
330
1F
100
AcDbEntity
  8
0
  6
SLD-Сплошная
 62
     7
370
    25
100
AcDbCircle
 10
56.1752831745
 20
162.3574655766
 30
0.0
 40
5.700000000000003
100
AcDbArc
 50
0.0
 51
180.0
  0
ARC
  5
1FC
330
1F
100
AcDbEntity
  8
0
  6
SLD-Сплошная
 62
     7
370
    25
100
AcDbCircle
 10
56.1752831745
 20
162.3574655766
 30
0.0
 40
4.5
100
AcDbArc
 50
0.0
 51
180.0
  0
ARC
  5
1FD
330
1F
100
AcDbEntity
  8
0
  6
SLD-Сплошная
 62
     7
370
    25
100
AcDbCircle
 10
34.7211214658
 20
162.3574655766
 30
0.0
 40
5.700000000000014
100
AcDbArc
 50
180.0
 51
0.0
  0
ARC
  5
1FE
330
1F
100
AcDbEntity
  8
0
  6
SLD-Сплошная
 62
     7
370
    25
100
AcDbCircle
 10
34.7211214658
 20
162.3574655766
 30
0.0
 40
5.700000000000014
100
AcDbArc
 50
0.0
 51
180.0
  0
ARC
  5
1FF
330
1F
100
AcDbEntity
  8
0
  6
SLD-Сплошная
 62
     7
370
    25
100
AcDbCircle
 10
34.7211214658
 20
162.3574655766
 30
0.0
 40
4.500000000000014
100
AcDbArc
 50
0.0
 51
180.0
  0
ARC
  5
200
330
1F
100
AcDbEntity
  8
0
  6
SLD-Сплошная
 62
     7
370
    25
100
AcDbCircle
 10
34.7211214658
 20
162.3574655766
 30
0.0
 40
4.500000000000014
100
AcDbArc
 50
180.0
 51
0.0
  0
ARC
  5
201
330
1F
100
AcDbEntity
  8
0
  6
SLD-Сплошная
 62
     7
370
    25
100
AcDbCircle
 10
28.4295155072
 20
142.0282990523
 30
0.0
 40
5.700000000000017
100
AcDbArc
 50
0.0
 51
180.0
  0
ARC
  5
202
330
1F
100
AcDbEntity
  8
0
  6
SLD-Сплошная
 62
     7
370
    25
100
AcDbCircle
 10
28.4295155072
 20
142.0282990523
 30
0.0
 40
4.500000000000021
100
AcDbArc
 50
180.0
 51
0.0
  0
ARC
  5
203
330
1F
100
AcDbEntity
  8
0
  6
SLD-Сплошная
 62
     7
370
    25
100
AcDbCircle
 10
28.4295155072
 20
142.0282990523
 30
0.0
 40
4.500000000000021
100
AcDbArc
 50
0.0
 51
180.0
  0
ARC
  5
204
330
1F
100
AcDbEntity
  8
0
  6
SLD-Сплошная
 62
     7
370
    25
100
AcDbCircle
 10
28.4295155072
 20
142.0282990523
 30
0.0
 40
5.700000000000017
100
AcDbArc
 50
180.0
 51
0.0
  0
ARC
  5
205
330
1F
100
AcDbEntity
  8
0
  6
SLD-Сплошная
 62
     7
370
    25
100
AcDbCircle
 10
45.4482023202
 20
148.3929054292
 30
0.0
 40
37.50000000000018
100
AcDbArc
 50
0.0
 51
180.0
  0
LINE
  5
206
330
1F
100
AcDbEntity
  8
0
  6
SLD-Сплошная
 62
     7
370
    25
100
AcDbLine
 10
28.8416756318
 20
150.0176747495
 30
0.0
 11
24.6154930144
 21
159.0807526199
 31
0.0
  0
LINE
  5
207
330
1F
100
AcDbEntity
  8
0
  6
SLD-Сплошная
 62
     7
370
    25
100
AcDbLine
 10
24.6154930144
 20
159.0807526199
 30
0.0
 11
17.8181846116
 21
155.9111156568
 31
0.0
  0
LINE
  5
208
330
1F
100
AcDbEntity
  8
0
  6
SLD-Сплошная
 62
     7
370
    25
100
AcDbLine
 10
17.8181846116
 20
155.9111156568
 30
0.0
 11
22.044367229
 21
146.8480377864
 31
0.0
  0
ARC
  5
209
330
1F
100
AcDbEntity
  8
0
  6
SLD-Сплошная
 62
     7
370
    25
100
AcDbCircle
 10
28.4295155072
 20
142.0282990523
 30
0.0
 40
8.000000000000023
100
AcDbArc
 50
87.0468131166
 51
142.9531868834
  0
LINE
  5
20A
330
1F
100
AcDbEntity
  8
0
  6
SLD-Сплошная
 62
     7
370
    25
100
AcDbLine
 10
73.0782200288
 20
155.9111156568
 30
0.0
 11
66.280911626
 21
159.0807526199
 31
0.0
  0
LINE
  5
20B
330
1F
100
AcDbEntity
  8
0
  6
SLD-Сплошная
 62
     7
370
    25
100
AcDbLine
 10
66.280911626
 20
159.0807526199
 30
0.0
 11
62.0547290086
 21
150.0176747495
 31
0.0
  0
ARC
  5
20C
330
1F
100
AcDbEntity
  8
0
  6
SLD-Сплошная
 62
     7
370
    25
100
AcDbCircle
 10
62.4668891332
 20
142.0282990523
 30
0.0
 40
8.000000000000016
100
AcDbArc
 50
37.0468131166
 51
92.9531868834
  0
LINE
  5
20D
330
1F
100
AcDbEntity
  8
0
  6
SLD-Сплошная
 62
     7
370
    25
100
AcDbLine
 10
68.8520374113
 20
146.8480377864
 30
0.0
 11
73.0782200288
 21
155.9111156568
 31
0.0
  0
LINE
  5
20E
330
1F
100
AcDbEntity
  8
0
  6
SLD-Сплошная
 62
     7
370
    25
100
AcDbLine
 10
47.6982023202
 20
152.6116204042
 30
0.0
 11
47.6982023202
 21
158.1116204042
 31
0.0
  0
LINE
  5
20F
330
1F
100
AcDbEntity
  8
0
  6
SLD-Сплошная
 62
     7
370
    25
100
AcDbLine
 10
47.6982023202
 20
158.1116204042
 30
0.0
 11
43.1982023202
 21
158.1116204042
 31
0.0
  0
LINE
  5
210
330
1F
100
AcDbEntity
  8
0
  6
SLD-Сплошная
 62
     7
370
    25
100
AcDbLine
 10
43.1982023202
 20
158.1116204042
 30
0.0
 11
43.1982023202
 21
152.6116204042
 31
0.0
  0
ARC
  5
211
330
1F
100
AcDbEntity
  8
0
  6
SLD-Сплошная
 62
     7
370
    25
100
AcDbCircle
 10
45.4482023202
 20
147.5929054292
 30
0.0
 40
5.500000000000019
100
AcDbArc
 50
65.852260083
 51
114.147739917
  0
ARC
  5
212
330
1F
100
AcDbEntity
  8
0
  6
SLD-Сплошная
 62
     7
370
    25
100
AcDbCircle
 10
34.7211214658
 20
162.3574655766
 30
0.0
 40
8.000000000000009
100
AcDbArc
 50
62.0468131166
 51
117.9531868834
  0
LINE
  5
213
330
1F
100
AcDbEntity
  8
0
  6
SLD-Сплошная
 62
     7
370
    25
100
AcDbLine
 10
38.4711214658
 20
169.4241125891
 30
0.0
 11
38.4711214658
 21
179.4241125891
 31
0.0
  0
LINE
  5
214
330
1F
100
AcDbEntity
  8
0
  6
SLD-Сплошная
 62
     7
370
    25
100
AcDbLine
 10
38.4711214658
 20
179.4241125891
 30
0.0
 11
30.9711214658
 21
179.4241125891
 31
0.0
  0
LINE
  5
215
330
1F
100
AcDbEntity
  8
0
  6
SLD-Сплошная
 62
     7
370
    25
100
AcDbLine
 10
30.9711214658
 20
179.4241125891
 30
0.0
 11
30.9711214658
 21
169.4241125891
 31
0.0
  0
LINE
  5
216
330
1F
100
AcDbEntity
  8
0
  6
SLD-Сплошная
 62
     7
370
    25
100
AcDbLine
 10
59.9252831745
 20
179.4241125891
 30
0.0
 11
52.4252831745
 21
179.4241125891
 31
0.0
  0
LINE
  5
217
330
1F
100
AcDbEntity
  8
0
  6
SLD-Сплошная
 62
     7
370
    25
100
AcDbLine
 10
52.4252831745
 20
179.4241125891
 30
0.0
 11
52.4252831745
 21
169.4241125891
 31
0.0
  0
ARC
  5
218
330
1F
100
AcDbEntity
  8
0
  6
SLD-Сплошная
 62
     7
370
    25
100
AcDbCircle
 10
56.1752831745
 20
162.3574655766
 30
0.0
 40
8.000000000000009
100
AcDbArc
 50
62.0468131166
 51
117.9531868834
  0
LINE
  5
219
330
1F
100
AcDbEntity
  8
0
  6
SLD-Сплошная
 62
     7
370
    25
100
AcDbLine
 10
59.9252831745
 20
169.4241125891
 30
0.0
 11
59.9252831745
 21
179.4241125891
 31
0.0
  0
ARC
  5
21A
330
1F
100
AcDbEntity
  8
0
  6
SLD-Сплошная
 62
     7
370
    25
100
AcDbCircle
 10
45.4482023202
 20
148.3929054292
 30
0.0
 40
37.50000000000018
100
AcDbArc
 50
180.0
 51
0.0
  0
LINE
  5
21B
330
1F
100
AcDbEntity
  8
0
  6
SLD-Сплошная
 62
     7
370
    25
100
AcDbLine
 10
47.1982023202
 20
157.9929054292
 30
0.0
 11
47.6982023202
 21
157.9929054292
 31
0.0
  0
LINE
  5
21C
330
1F
100
AcDbEntity
  8
0
  6
SLD-Сплошная
 62
     7
370
    25
100
AcDbLine
 10
47.1982023202
 20
158.1116204042
 30
0.0
 11
47.1982023202
 21
157.9929054292
 31
0.0
  0
LINE
  5
21D
330
1F
100
AcDbEntity
  8
0
  6
SLD-Сплошная
 62
     7
370
    25
100
AcDbLine
 10
43.6982023202
 20
157.9929054292
 30
0.0
 11
43.6982023202
 21
158.1116204042
 31
0.0
  0
LINE
  5
21E
330
1F
100
AcDbEntity
  8
0
  6
SLD-Сплошная
 62
     7
370
    25
100
AcDbLine
 10
43.1982023202
 20
157.9929054292
 30
0.0
 11
43.6982023202
 21
157.9929054292
 31
0.0
  0
ARC
  5
21F
330
1F
100
AcDbEntity
  8
0
  6
SLD-Сплошная
 62
     7
370
    25
100
AcDbCircle
 10
62.4668891332
 20
142.0282990523
 30
0.0
 40
3.500000000000015
100
AcDbArc
 50
155.0
 51
335.0
  0
ARC
  5
220
330
1F
100
AcDbEntity
  8
0
  6
SLD-Сплошная
 62
     7
370
    25
100
AcDbCircle
 10
62.4668891332
 20
142.0282990523
 30
0.0
 40
3.500000000000015
100
AcDbArc
 50
335.0
 51
155.0
  0
ARC
  5
221
330
1F
100
AcDbEntity
  8
0
  6
SLD-Сплошная
 62
     7
370
    25
100
AcDbCircle
 10
56.1752831745
 20
162.3574655766
 30
0.0
 40
3.500000000000007
100
AcDbArc
 50
180.0
 51
0.0
  0
ARC
  5
222
330
1F
100
AcDbEntity
  8
0
  6
SLD-Сплошная
 62
     7
370
    25
100
AcDbCircle
 10
56.1752831745
 20
162.3574655766
 30
0.0
 40
3.500000000000007
100
AcDbArc
 50
0.0
 51
180.0
  0
ARC
  5
223
330
1F
100
AcDbEntity
  8
0
  6
SLD-Сплошная
 62
     7
370
    25
100
AcDbCircle
 10
34.7211214658
 20
162.3574655766
 30
0.0
 40
3.500000000000007
100
AcDbArc
 50
180.0
 51
0.0
  0
ARC
  5
224
330
1F
100
AcDbEntity
  8
0
  6
SLD-Сплошная
 62
     7
370
    25
100
AcDbCircle
 10
34.7211214658
 20
162.3574655766
 30
0.0
 40
3.500000000000007
100
AcDbArc
 50
0.0
 51
180.0
  0
ARC
  5
225
330
1F
100
AcDbEntity
  8
0
  6
SLD-Сплошная
 62
     7
370
    25
100
AcDbCircle
 10
28.4295155072
 20
142.0282990523
 30
0.0
 40
3.50000000000003
100
AcDbArc
 50
205.0
 51
25.0
  0
ARC
  5
226
330
1F
100
AcDbEntity
  8
0
  6
SLD-Сплошная
 62
     7
370
    25
100
AcDbCircle
 10
28.4295155072
 20
142.0282990523
 30
0.0
 40
3.50000000000003
100
AcDbArc
 50
25.0
 51
205.0
  0
ARC
  5
227
330
1F
100
AcDbEntity
  8
0
  6
SLD-Сплошная
 62
     7
370
    25
100
AcDbCircle
 10
45.4482023202
 20
147.5929054292
 30
0.0
 40
2.0
100
AcDbArc
 50
180.0
 51
0.0
  0
ARC
  5
228
330
1F
100
AcDbEntity
  8
0
  6
SLD-Сплошная
 62
     7
370
    25
100
AcDbCircle
 10
45.4482023202
 20
147.5929054292
 30
0.0
 40
2.0
100
AcDbArc
 50
0.0
 51
180.0
  0
LINE
  5
229
330
1F
100
AcDbEntity
  8
0
  6
SLD-Сплошная
 62
     7
370
    25
100
AcDbLine
 10
58.1496421489
 20
178.8574655766
 30
0.0
 11
58.1496421489
 21
179.4241125891
 31
0.0
  0
LINE
  5
22A
330
1F
100
AcDbEntity
  8
0
  6
SLD-Сплошная
 62
     7
370
    25
100
AcDbLine
 10
58.713744713
 20
179.4241125891
 30
0.0
 11
58.713744713
 21
178.8574655766
 31
0.0
  0
LINE
  5
22B
330
1F
100
AcDbEntity
  8
0
  6
SLD-Сплошная
 62
     7
370
    25
100
AcDbLine
 10
58.713744713
 20
178.8574655766
 30
0.0
 11
58.1496421489
 21
178.8574655766
 31
0.0
  0
SPLINE
  5
22C
330
1F
100
AcDbEntity
  8
0
  6
SLD-Сплошная
 62
     7
370
    25
100
AcDbSpline
210
0.0
220
0.0
230
1.0
 70
     8
 71
     3
 72
     9
 73
     5
 74
     0
 42
0.00000001
 43
0.00000001
 40
0.0
 40
0.0
 40
0.0
 40
0.0
 40
0.4603800318979804
 40
0.9999999999999999
 40
0.9999999999999999
 40
0.9999999999999999
 40
0.9999999999999999
 10
54.24412421167963
 20
179.4241125891289
 30
0.0
 10
54.29515804162727
 20
179.3938845440776
 30
0.0
 10
54.40600956952096
 20
179.328225647173
 30
0.0
 10
54.5351068718469
 20
179.3222361112822
 30
0.0
 10
54.60477035401008
 20
179.3190040381159
 30
0.0
  0
SPLINE
  5
22D
330
1F
100
AcDbEntity
  8
0
  6
SLD-Сплошная
 62
     7
370
    25
100
AcDbSpline
210
0.0
220
0.0
230
1.0
 70
     8
 71
     3
 72
     9
 73
     5
 74
     0
 42
0.00000001
 43
0.00000001
 40
0.0
 40
0.0
 40
0.0
 40
0.0
 40
0.7480201156780633
 40
1.0
 40
1.0
 40
1.0
 40
1.0
 10
54.60477035401008
 20
179.3190040381158
 30
0.0
 10
54.70259527055066
 20
179.3217507576097
 30
0.0
 10
54.83337372756034
 20
179.3254227437453
 30
0.0
 10
54.93237845082326
 20
179.4042497653448
 30
0.0
 10
54.95732564953838
 20
179.4241125891289
 30
0.0
  0
SPLINE
  5
22E
330
1F
100
AcDbEntity
  8
0
  6
SLD-Сплошная
 62
     7
370
    25
100
AcDbSpline
210
0.0
220
0.0
230
1.0
 70
     8
 71
     3
 72
    10
 73
     6
 74
     0
 42
0.00000001
 43
0.00000001
 40
0.0
 40
0.0
 40
0.0
 40
0.0
 40
0.3826889733503964
 40
0.6910798424235836
 40
1.0
 40
1.0
 40
1.0
 40
1.0
 10
55.63098097230505
 20
179.4241125891289
 30
0.0
 10
55.53958534177806
 20
179.2965482285118
 30
0.0
 10
55.37453831314325
 20
179.0661858079217
 30
0.0
 10
54.99576187281053
 20
178.8840208318505
 30
0.0
 10
54.74585604485985
 20
178.8663223866084
 30
0.0
 10
54.62079599503571
 20
178.8574655765774
 30
0.0
  0
SPLINE
  5
22F
330
1F
100
AcDbEntity
  8
0
  6
SLD-Сплошная
 62
     7
370
    25
100
AcDbSpline
210
0.0
220
0.0
230
1.0
 70
     8
 71
     3
 72
    10
 73
     6
 74
     0
 42
0.00000001
 43
0.00000001
 40
0.0
 40
0.0
 40
0.0
 40
0.0
 40
0.3892677312312436
 40
0.7777392265731927
 40
1.0
 40
1.0
 40
1.0
 40
1.0
 10
54.62079599503571
 20
178.8574655765774
 30
0.0
 10
54.46320822035362
 20
178.8735521773714
 30
0.0
 10
54.14835501222623
 20
178.9056924742825
 30
0.0
 10
53.77606664071706
 20
179.1264190433083
 30
0.0
 10
53.65446063660156
 20
179.3446814361821
 30
0.0
 10
53.61020516507957
 20
179.4241125891289
 30
0.0
  0
LINE
  5
230
330
1F
100
AcDbEntity
  8
0
  6
SLD-Сплошная
 62
     7
370
    25
100
AcDbLine
 10
36.7954804402
 20
178.8574655766
 30
0.0
 11
36.7954804402
 21
179.4241125891
 31
0.0
  0
LINE
  5
231
330
1F
100
AcDbEntity
  8
0
  6
SLD-Сплошная
 62
     7
370
    25
100
AcDbLine
 10
37.3595830043
 20
178.8574655766
 30
0.0
 11
36.7954804402
 21
178.8574655766
 31
0.0
  0
LINE
  5
232
330
1F
100
AcDbEntity
  8
0
  6
SLD-Сплошная
 62
     7
370
    25
100
AcDbLine
 10
37.3595830043
 20
179.4241125891
 30
0.0
 11
37.3595830043
 21
178.8574655766
 31
0.0
  0
SPLINE
  5
233
330
1F
100
AcDbEntity
  8
0
  6
SLD-Сплошная
 62
     7
370
    25
100
AcDbSpline
210
0.0
220
0.0
230
1.0
 70
     8
 71
     3
 72
     9
 73
     5
 74
     0
 42
0.00000001
 43
0.00000001
 40
0.0
 40
0.0
 40
0.0
 40
0.0
 40
0.4330621596283082
 40
1.0
 40
1.0
 40
1.0
 40
1.0
 10
32.86404114987861
 20
179.4241125891289
 30
0.0
 10
32.91844194951771
 20
179.3949528068503
 30
0.0
 10
33.04406086687079
 20
179.3276188649893
 30
0.0
 10
33.18712715694088
 20
179.3221209909502
 30
0.0
 10
33.26823685046321
 20
179.3190040381158
 30
0.0
  0
SPLINE
  5
234
330
1F
100
AcDbEntity
  8
0
  6
SLD-Сплошная
 62
     7
370
    25
100
AcDbSpline
210
0.0
220
0.0
230
1.0
 70
     8
 71
     3
 72
     9
 73
     5
 74
     0
 42
0.00000001
 43
0.00000001
 40
0.0
 40
0.0
 40
0.0
 40
0.0
 40
0.7800843758247488
 40
1.0
 40
1.0
 40
1.0
 40
1.0
 10
33.26823685046321
 20
179.3190040381158
 30
0.0
 10
33.38315172945867
 20
179.3196481159185
 30
0.0
 10
33.53046256217978
 20
179.320473767377
 30
0.0
 10
33.6442716803702
 20
179.4054294968538
 30
0.0
 10
33.66930008363386
 20
179.4241125891289
 30
0.0
  0
SPLINE
  5
235
330
1F
100
AcDbEntity
  8
0
  6
SLD-Сплошная
 62
     7
370
    25
100
AcDbSpline
210
0.0
220
0.0
230
1.0
 70
     8
 71
     3
 72
    10
 73
     6
 74
     0
 42
0.00000001
 43
0.00000001
 40
0.0
 40
0.0
 40
0.0
 40
0.0
 40
0.3469197010278975
 40
0.6730104601694321
 40
1.0
 40
1.0
 40
1.0
 40
1.0
 10
34.34812741929188
 20
179.4077612562729
 30
0.0
 10
34.26091018570057
 20
179.2841357225935
 30
0.0
 10
34.09171221181766
 20
179.0443070905967
 30
0.0
 10
33.67474179612609
 20
178.8820371793954
 30
0.0
 10
33.39638755855154
 20
178.8656636220434
 30
0.0
 10
33.25701890174525
 20
178.8574655765774
 30
0.0
  0
SPLINE
  5
236
330
1F
100
AcDbEntity
  8
0
  6
SLD-Сплошная
 62
     7
370
    25
100
AcDbSpline
210
0.0
220
0.0
230
1.0
 70
     8
 71
     3
 72
    10
 73
     6
 74
     0
 42
0.00000001
 43
0.00000001
 40
0.0
 40
0.0
 40
0.0
 40
0.0
 40
0.4055453700058168
 40
0.809172953482741
 40
1.0
 40
1.0
 40
1.0
 40
1.0
 10
33.25701890174525
 20
178.8574655765774
 30
0.0
 10
33.08437697376792
 20
178.8705868840972
 30
0.0
 10
32.7399095255158
 20
178.8967674496877
 30
0.0
 10
32.34669237808678
 20
179.130107544892
 30
0.0
 10
32.2230747935106
 20
179.3526680158872
 30
0.0
 10
32.18339207026811
 20
179.4241125891289
 30
0.0
  0
ARC
  5
237
330
1F
100
AcDbEntity
  8
0
  6
SLD-Сплошная
 62
     7
370
    25
100
AcDbCircle
 10
89.9482023202
 20
148.3929054292
 30
0.0
 40
4.000000000000014
100
AcDbArc
 50
0.0
 51
180.0
  0
ARC
  5
238
330
1F
100
AcDbEntity
  8
0
  6
SLD-Сплошная
 62
     7
370
    25
100
AcDbCircle
 10
89.9482023202
 20
148.3929054292
 30
0.0
 40
4.000000000000014
100
AcDbArc
 50
180.0
 51
0.0
  0
ARC
  5
239
330
1F
100
AcDbEntity
  8
0
  6
SLD-Сплошная
 62
     7
370
    25
100
AcDbCircle
 10
0.9482023202
 20
148.3929054292
 30
0.0
 40
4.000000000000004
100
AcDbArc
 50
0.0
 51
180.0
  0
ARC
  5
23A
330
1F
100
AcDbEntity
  8
0
  6
SLD-Сплошная
 62
     7
370
    25
100
AcDbCircle
 10
0.9482023202
 20
148.3929054292
 30
0.0
 40
4.000000000000004
100
AcDbArc
 50
180.0
 51
0.0
  0
ARC
  5
23B
330
1F
100
AcDbEntity
  8
0
  6
SLD-Сплошная
 62
     7
370
    25
100
AcDbCircle
 10
45.4482023202
 20
192.8929054292
 30
0.0
 40
4.000000000000021
100
AcDbArc
 50
0.0
 51
180.0
  0
ARC
  5
23C
330
1F
100
AcDbEntity
  8
0
  6
SLD-Сплошная
 62
     7
370
    25
100
AcDbCircle
 10
45.4482023202
 20
192.8929054292
 30
0.0
 40
4.000000000000021
100
AcDbArc
 50
180.0
 51
0.0
  0
ARC
  5
23D
330
1F
100
AcDbEntity
  8
0
  6
SLD-Сплошная
 62
     7
370
    25
100
AcDbCircle
 10
45.4482023202
 20
103.8929054292
 30
0.0
 40
4.000000000000021
100
AcDbArc
 50
0.0
 51
180.0
  0
ARC
  5
23E
330
1F
100
AcDbEntity
  8
0
  6
SLD-Сплошная
 62
     7
370
    25
100
AcDbCircle
 10
45.4482023202
 20
103.8929054292
 30
0.0
 40
4.000000000000021
100
AcDbArc
 50
180.0
 51
0.0
  0
ARC
  5
23F
330
1F
100
AcDbEntity
  8
0
  6
SLD-Сплошная
 62
     7
370
    25
100
AcDbCircle
 10
45.4482023202
 20
148.3929054292
 30
0.0
 40
50.1
100
AcDbArc
 50
180.0
 51
0.0
  0
ARC
  5
240
330
1F
100
AcDbEntity
  8
0
  6
SLD-Сплошная
 62
     7
370
    25
100
AcDbCircle
 10
45.4482023202
 20
148.3929054292
 30
0.0
 40
50.1
100
AcDbArc
 50
0.0
 51
180.0
  0
ARC
  5
241
330
1F
100
AcDbEntity
  8
0
  6
SLD-Сплошная
 62
     7
370
    25
100
AcDbCircle
 10
98.9482023202
 20
94.8929054292
 30
0.0
 40
5.000000000000014
100
AcDbArc
 50
270.0
 51
0.0
  0
LINE
  5
242
330
1F
100
AcDbEntity
  8
0
  6
SLD-Сплошная
 62
     7
370
    25
100
AcDbLine
 10
-8.0517976798
 20
89.8929054292
 30
0.0
 11
98.9482023202
 21
89.8929054292
 31
0.0
  0
ARC
  5
243
330
1F
100
AcDbEntity
  8
0
  6
SLD-Сплошная
 62
     7
370
    25
100
AcDbCircle
 10
-8.0517976798
 20
94.8929054292
 30
0.0
 40
5.000000000000014
100
AcDbArc
 50
180.0
 51
270.0
  0
LINE
  5
244
330
1F
100
AcDbEntity
  8
0
  6
SLD-Сплошная
 62
     7
370
    25
100
AcDbLine
 10
-13.0517976798
 20
201.8929054292
 30
0.0
 11
-13.0517976798
 21
94.8929054292
 31
0.0
  0
ARC
  5
245
330
1F
100
AcDbEntity
  8
0
  6
SLD-Сплошная
 62
     7
370
    25
100
AcDbCircle
 10
-8.0517976798
 20
201.8929054292
 30
0.0
 40
5.000000000000005
100
AcDbArc
 50
90.0
 51
180.0
  0
LINE
  5
246
330
1F
100
AcDbEntity
  8
0
  6
SLD-Сплошная
 62
     7
370
    25
100
AcDbLine
 10
98.9482023202
 20
206.8929054292
 30
0.0
 11
-8.0517976798
 21
206.8929054292
 31
0.0
  0
ARC
  5
247
330
1F
100
AcDbEntity
  8
0
  6
SLD-Сплошная
 62
     7
370
    25
100
AcDbCircle
 10
98.9482023202
 20
201.8929054292
 30
0.0
 40
5.0
100
AcDbArc
 50
0.0
 51
90.0
  0
LINE
  5
248
330
1F
100
AcDbEntity
  8
0
  6
SLD-Сплошная
 62
     7
370
    25
100
AcDbLine
 10
103.9482023202
 20
94.8929054292
 30
0.0
 11
103.9482023202
 21
201.8929054292
 31
0.0
  0
LINE
  5
249
330
1F
100
AcDbEntity
  8
0
  6
SLD-Сплошная
 62
     7
370
    25
100
AcDbLine
 10
31.2211214658
 20
175.2574655766
 30
0.0
 11
31.7257138512
 21
175.2574655766
 31
0.0
  0
LINE
  5
24A
330
1F
100
AcDbEntity
  8
0
  6
SLD-Сплошная
 62
     7
370
    25
100
AcDbLine
 10
31.7257138512
 20
173.4574655766
 30
0.0
 11
31.7257138512
 21
175.2574655766
 31
0.0
  0
LINE
  5
24B
330
1F
100
AcDbEntity
  8
0
  6
SLD-Сплошная
 62
     7
370
    25
100
AcDbLine
 10
31.7257138512
 20
173.4574655766
 30
0.0
 11
32.6748738403
 21
173.4574655766
 31
0.0
  0
LINE
  5
24C
330
1F
100
AcDbEntity
  8
0
  6
SLD-Сплошная
 62
     7
370
    25
100
AcDbLine
 10
32.6748738403
 20
173.4574655766
 30
0.0
 11
32.6748738403
 21
175.2574655766
 31
0.0
  0
LINE
  5
24D
330
1F
100
AcDbEntity
  8
0
  6
SLD-Сплошная
 62
     7
370
    25
100
AcDbLine
 10
32.6748738403
 20
175.2574655766
 30
0.0
 11
37.0940214387
 21
175.2574655766
 31
0.0
  0
LINE
  5
24E
330
1F
100
AcDbEntity
  8
0
  6
SLD-Сплошная
 62
     7
370
    25
100
AcDbLine
 10
31.2211214658
 20
171.9574655766
 30
0.0
 11
37.0940214387
 21
171.9574655766
 31
0.0
  0
LINE
  5
24F
330
1F
100
AcDbEntity
  8
0
  6
SLD-Сплошная
 62
     7
370
    25
100
AcDbLine
 10
37.0940214387
 20
175.2574655766
 30
0.0
 11
38.2211214658
 21
175.2574655766
 31
0.0
  0
LINE
  5
250
330
1F
100
AcDbEntity
  8
0
  6
SLD-Сплошная
 62
     7
370
    25
100
AcDbLine
 10
37.0940214387
 20
171.9574655766
 30
0.0
 11
38.2211214658
 21
171.9574655766
 31
0.0
  0
LINE
  5
251
330
1F
100
AcDbEntity
  8
0
  6
SLD-Сплошная
 62
     7
370
    25
100
AcDbLine
 10
32.2211214658
 20
161.9574655766
 30
0.0
 11
36.4160500179
 21
161.9574655766
 31
0.0
  0
LINE
  5
252
330
1F
100
AcDbEntity
  8
0
  6
SLD-Сплошная
 62
     7
370
    25
100
AcDbLine
 10
36.4160500179
 20
161.9574655766
 30
0.0
 11
37.2211214658
 21
161.9574655766
 31
0.0
  0
LINE
  5
253
330
1F
100
AcDbEntity
  8
0
  6
SLD-Сплошная
 62
     7
370
    25
100
AcDbLine
 10
32.6748738403
 20
175.2574655766
 30
0.0
 11
31.7257138512
 21
175.2574655766
 31
0.0
  0
LINE
  5
254
330
1F
100
AcDbEntity
  8
0
  6
SLD-Сплошная
 62
     7
370
    25
100
AcDbLine
 10
44.8756118079
 20
129.088324894
 30
0.0
 11
47.0726545895
 21
127.8954279934
 31
0.0
  0
LINE
  5
255
330
1F
100
AcDbEntity
  8
0
  6
SLD-Сплошная
 62
     7
370
    25
100
AcDbLine
 10
42.6785690262
 20
130.2812217947
 30
0.0
 11
44.8756118079
 21
129.088324894
 31
0.0
  0
LINE
  5
256
330
1F
100
AcDbEntity
  8
0
  6
SLD-Сплошная
 62
     7
370
    25
100
AcDbLine
 10
-8.0517976798
 20
204.8929054292
 30
0.0
 11
98.9482023202
 21
204.8929054292
 31
0.0
  0
ARC
  5
257
330
1F
100
AcDbEntity
  8
0
  6
SLD-Сплошная
 62
     7
370
    25
100
AcDbCircle
 10
98.9482023202
 20
201.8929054292
 30
0.0
 40
3.0
100
AcDbArc
 50
0.0
 51
90.0
  0
LINE
  5
258
330
1F
100
AcDbEntity
  8
0
  6
SLD-Сплошная
 62
     7
370
    25
100
AcDbLine
 10
101.9482023202
 20
201.8929054292
 30
0.0
 11
101.9482023202
 21
94.8929054292
 31
0.0
  0
ARC
  5
259
330
1F
100
AcDbEntity
  8
0
  6
SLD-Сплошная
 62
     7
370
    25
100
AcDbCircle
 10
98.9482023202
 20
94.8929054292
 30
0.0
 40
3.000000000000014
100
AcDbArc
 50
270.0
 51
0.0
  0
LINE
  5
25A
330
1F
100
AcDbEntity
  8
0
  6
SLD-Сплошная
 62
     7
370
    25
100
AcDbLine
 10
98.9482023202
 20
91.8929054292
 30
0.0
 11
-8.0517976798
 21
91.8929054292
 31
0.0
  0
ARC
  5
25B
330
1F
100
AcDbEntity
  8
0
  6
SLD-Сплошная
 62
     7
370
    25
100
AcDbCircle
 10
-8.0517976798
 20
94.8929054292
 30
0.0
 40
3.000000000000014
100
AcDbArc
 50
180.0
 51
270.0
  0
LINE
  5
25C
330
1F
100
AcDbEntity
  8
0
  6
SLD-Сплошная
 62
     7
370
    25
100
AcDbLine
 10
-11.0517976798
 20
94.8929054292
 30
0.0
 11
-11.0517976798
 21
201.8929054292
 31
0.0
  0
ARC
  5
25D
330
1F
100
AcDbEntity
  8
0
  6
SLD-Сплошная
 62
     7
370
    25
100
AcDbCircle
 10
-8.0517976798
 20
201.8929054292
 30
0.0
 40
3.000000000000004
100
AcDbArc
 50
90.0
 51
180.0
  0
LINE
  5
25E
330
1F
100
AcDbEntity
  8
0
  6
SLD-Сплошная
 62
     7
370
    25
100
AcDbLine
 10
8.9482023202
 20
198.8929054292
 30
0.0
 11
81.9482023202
 21
198.8929054292
 31
0.0
  0
ARC
  5
25F
330
1F
100
AcDbEntity
  8
0
  6
SLD-Сплошная
 62
     7
370
    25
100
AcDbCircle
 10
8.9482023202
 20
195.8929054292
 30
0.0
 40
3.000000000000002
100
AcDbArc
 50
90.0
 51
180.0
  0
LINE
  5
260
330
1F
100
AcDbEntity
  8
0
  6
SLD-Сплошная
 62
     7
370
    25
100
AcDbLine
 10
5.9482023202
 20
190.8929054292
 30
0.0
 11
5.9482023202
 21
195.8929054292
 31
0.0
  0
ARC
  5
261
330
1F
100
AcDbEntity
  8
0
  6
SLD-Сплошная
 62
     7
370
    25
100
AcDbCircle
 10
2.9482023202
 20
190.8929054292
 30
0.0
 40
3.000000000000003
100
AcDbArc
 50
270.0
 51
0.0
  0
LINE
  5
262
330
1F
100
AcDbEntity
  8
0
  6
SLD-Сплошная
 62
     7
370
    25
100
AcDbLine
 10
-2.0517976798
 20
187.8929054292
 30
0.0
 11
2.9482023202
 21
187.8929054292
 31
0.0
  0
ARC
  5
263
330
1F
100
AcDbEntity
  8
0
  6
SLD-Сплошная
 62
     7
370
    25
100
AcDbCircle
 10
-2.0517976798
 20
184.8929054292
 30
0.0
 40
3.000000000000003
100
AcDbArc
 50
90.0
 51
180.0
  0
LINE
  5
264
330
1F
100
AcDbEntity
  8
0
  6
SLD-Сплошная
 62
     7
370
    25
100
AcDbLine
 10
-5.0517976798
 20
111.8929054292
 30
0.0
 11
-5.0517976798
 21
184.8929054292
 31
0.0
  0
ARC
  5
265
330
1F
100
AcDbEntity
  8
0
  6
SLD-Сплошная
 62
     7
370
    25
100
AcDbCircle
 10
-2.0517976798
 20
111.8929054292
 30
0.0
 40
3.000000000000003
100
AcDbArc
 50
180.0
 51
270.0
  0
LINE
  5
266
330
1F
100
AcDbEntity
  8
0
  6
SLD-Сплошная
 62
     7
370
    25
100
AcDbLine
 10
2.9482023202
 20
108.8929054292
 30
0.0
 11
-2.0517976798
 21
108.8929054292
 31
0.0
  0
ARC
  5
267
330
1F
100
AcDbEntity
  8
0
  6
SLD-Сплошная
 62
     7
370
    25
100
AcDbCircle
 10
2.9482023202
 20
105.8929054292
 30
0.0
 40
3.000000000000003
100
AcDbArc
 50
0.0
 51
90.0
  0
LINE
  5
268
330
1F
100
AcDbEntity
  8
0
  6
SLD-Сплошная
 62
     7
370
    25
100
AcDbLine
 10
5.9482023202
 20
100.8929054292
 30
0.0
 11
5.9482023202
 21
105.8929054292
 31
0.0
  0
ARC
  5
269
330
1F
100
AcDbEntity
  8
0
  6
SLD-Сплошная
 62
     7
370
    25
100
AcDbCircle
 10
8.9482023202
 20
100.8929054292
 30
0.0
 40
3.000000000000002
100
AcDbArc
 50
180.0
 51
270.0
  0
LINE
  5
26A
330
1F
100
AcDbEntity
  8
0
  6
SLD-Сплошная
 62
     7
370
    25
100
AcDbLine
 10
81.9482023202
 20
97.8929054292
 30
0.0
 11
8.9482023202
 21
97.8929054292
 31
0.0
  0
ARC
  5
26B
330
1F
100
AcDbEntity
  8
0
  6
SLD-Сплошная
 62
     7
370
    25
100
AcDbCircle
 10
81.9482023202
 20
100.8929054292
 30
0.0
 40
3.0
100
AcDbArc
 50
270.0
 51
0.0
  0
LINE
  5
26C
330
1F
100
AcDbEntity
  8
0
  6
SLD-Сплошная
 62
     7
370
    25
100
AcDbLine
 10
84.9482023202
 20
105.8929054292
 30
0.0
 11
84.9482023202
 21
100.8929054292
 31
0.0
  0
ARC
  5
26D
330
1F
100
AcDbEntity
  8
0
  6
SLD-Сплошная
 62
     7
370
    25
100
AcDbCircle
 10
87.9482023202
 20
105.8929054292
 30
0.0
 40
3.0
100
AcDbArc
 50
90.0
 51
180.0
  0
LINE
  5
26E
330
1F
100
AcDbEntity
  8
0
  6
SLD-Сплошная
 62
     7
370
    25
100
AcDbLine
 10
92.9482023202
 20
108.8929054292
 30
0.0
 11
87.9482023202
 21
108.8929054292
 31
0.0
  0
ARC
  5
26F
330
1F
100
AcDbEntity
  8
0
  6
SLD-Сплошная
 62
     7
370
    25
100
AcDbCircle
 10
92.9482023202
 20
111.8929054292
 30
0.0
 40
3.000000000000057
100
AcDbArc
 50
270.0
 51
0.0
  0
LINE
  5
270
330
1F
100
AcDbEntity
  8
0
  6
SLD-Сплошная
 62
     7
370
    25
100
AcDbLine
 10
95.9482023202
 20
184.8929054292
 30
0.0
 11
95.9482023202
 21
111.8929054292
 31
0.0
  0
ARC
  5
271
330
1F
100
AcDbEntity
  8
0
  6
SLD-Сплошная
 62
     7
370
    25
100
AcDbCircle
 10
92.9482023202
 20
184.8929054292
 30
0.0
 40
3.0
100
AcDbArc
 50
0.0
 51
90.0
  0
LINE
  5
272
330
1F
100
AcDbEntity
  8
0
  6
SLD-Сплошная
 62
     7
370
    25
100
AcDbLine
 10
87.9482023202
 20
187.8929054292
 30
0.0
 11
92.9482023202
 21
187.8929054292
 31
0.0
  0
ARC
  5
273
330
1F
100
AcDbEntity
  8
0
  6
SLD-Сплошная
 62
     7
370
    25
100
AcDbCircle
 10
87.9482023202
 20
190.8929054292
 30
0.0
 40
3.0
100
AcDbArc
 50
180.0
 51
270.0
  0
LINE
  5
274
330
1F
100
AcDbEntity
  8
0
  6
SLD-Сплошная
 62
     7
370
    25
100
AcDbLine
 10
84.9482023202
 20
195.8929054292
 30
0.0
 11
84.9482023202
 21
190.8929054292
 31
0.0
  0
ARC
  5
275
330
1F
100
AcDbEntity
  8
0
  6
SLD-Сплошная
 62
     7
370
    25
100
AcDbCircle
 10
81.9482023202
 20
195.8929054292
 30
0.0
 40
3.0
100
AcDbArc
 50
0.0
 51
90.0
  0
ARC
  5
276
330
1F
100
AcDbEntity
  8
0
  6
SLD-Сплошная
 62
     7
370
    25
100
AcDbCircle
 10
93.9482023202
 20
99.8929054292
 30
0.0
 40
2.100000000000009
100
AcDbArc
 50
180.0
 51
0.0
  0
ARC
  5
277
330
1F
100
AcDbEntity
  8
0
  6
SLD-Сплошная
 62
     7
370
    25
100
AcDbCircle
 10
93.9482023202
 20
99.8929054292
 30
0.0
 40
2.100000000000009
100
AcDbArc
 50
0.0
 51
180.0
  0
ARC
  5
278
330
1F
100
AcDbEntity
  8
0
  6
SLD-Сплошная
 62
     7
370
    25
100
AcDbCircle
 10
-3.0517976798
 20
99.8929054292
 30
0.0
 40
2.100000000000005
100
AcDbArc
 50
180.0
 51
0.0
  0
ARC
  5
279
330
1F
100
AcDbEntity
  8
0
  6
SLD-Сплошная
 62
     7
370
    25
100
AcDbCircle
 10
-3.0517976798
 20
99.8929054292
 30
0.0
 40
2.100000000000005
100
AcDbArc
 50
0.0
 51
180.0
  0
ARC
  5
27A
330
1F
100
AcDbEntity
  8
0
  6
SLD-Сплошная
 62
     7
370
    25
100
AcDbCircle
 10
-3.0517976798
 20
196.8929054292
 30
0.0
 40
2.100000000000005
100
AcDbArc
 50
180.0
 51
0.0
  0
ARC
  5
27B
330
1F
100
AcDbEntity
  8
0
  6
SLD-Сплошная
 62
     7
370
    25
100
AcDbCircle
 10
-3.0517976798
 20
196.8929054292
 30
0.0
 40
2.100000000000005
100
AcDbArc
 50
0.0
 51
180.0
  0
ARC
  5
27C
330
1F
100
AcDbEntity
  8
0
  6
SLD-Сплошная
 62
     7
370
    25
100
AcDbCircle
 10
93.9482023202
 20
196.8929054292
 30
0.0
 40
2.100000000000009
100
AcDbArc
 50
180.0
 51
0.0
  0
ARC
  5
27D
330
1F
100
AcDbEntity
  8
0
  6
SLD-Сплошная
 62
     7
370
    25
100
AcDbCircle
 10
93.9482023202
 20
196.8929054292
 30
0.0
 40
2.100000000000009
100
AcDbArc
 50
0.0
 51
180.0
  0
LINE
  5
27E
330
1F
100
AcDbEntity
  8
0
  6
SLD-Сплошная
 62
     7
370
    25
100
AcDbLine
 10
43.718394958
 20
155.3929054292
 30
0.0
 11
46.5120124002
 21
155.3929054292
 31
0.0
  0
LINE
  5
27F
330
1F
100
AcDbEntity
  8
0
  6
SLD-Сплошная
 62
     7
370
    25
100
AcDbLine
 10
46.5120124002
 20
154.2929054292
 30
0.0
 11
46.5120124002
 21
155.3929054292
 31
0.0
  0
LINE
  5
280
330
1F
100
AcDbEntity
  8
0
  6
SLD-Сплошная
 62
     7
370
    25
100
AcDbLine
 10
46.5120124002
 20
154.2929054292
 30
0.0
 11
47.203935345
 21
154.2929054292
 31
0.0
  0
LINE
  5
281
330
1F
100
AcDbEntity
  8
0
  6
SLD-Сплошная
 62
     7
370
    25
100
AcDbLine
 10
47.203935345
 20
154.2929054292
 30
0.0
 11
47.203935345
 21
155.3929054292
 31
0.0
  0
LINE
  5
282
330
1F
100
AcDbEntity
  8
0
  6
SLD-Сплошная
 62
     7
370
    25
100
AcDbLine
 10
47.203935345
 20
155.3929054292
 30
0.0
 11
47.6982023202
 21
155.3929054292
 31
0.0
  0
LINE
  5
283
330
1F
100
AcDbEntity
  8
0
  6
SLD-Сплошная
 62
     7
370
    25
100
AcDbLine
 10
43.718394958
 20
153.3929054292
 30
0.0
 11
47.6982023202
 21
153.3929054292
 31
0.0
  0
LINE
  5
284
330
1F
100
AcDbEntity
  8
0
  6
SLD-Сплошная
 62
     7
370
    25
100
AcDbLine
 10
44.294997412
 20
147.3929054292
 30
0.0
 11
46.9482023202
 21
147.3929054292
 31
0.0
  0
LINE
  5
285
330
1F
100
AcDbEntity
  8
0
  6
SLD-Сплошная
 62
     7
370
    25
100
AcDbLine
 10
43.1982023202
 20
155.3929054292
 30
0.0
 11
43.718394958
 21
155.3929054292
 31
0.0
  0
LINE
  5
286
330
1F
100
AcDbEntity
  8
0
  6
SLD-Сплошная
 62
     7
370
    25
100
AcDbLine
 10
43.1982023202
 20
153.3929054292
 30
0.0
 11
43.718394958
 21
153.3929054292
 31
0.0
  0
LINE
  5
287
330
1F
100
AcDbEntity
  8
0
  6
SLD-Сплошная
 62
     7
370
    25
100
AcDbLine
 10
47.203935345
 20
155.3929054292
 30
0.0
 11
46.5120124002
 21
155.3929054292
 31
0.0
  0
LINE
  5
288
330
1F
100
AcDbEntity
  8
0
  6
SLD-Сплошная
 62
     7
370
    25
100
AcDbLine
 10
43.9482023202
 20
147.3929054292
 30
0.0
 11
44.294997412
 21
147.3929054292
 31
0.0
  0
LINE
  5
289
330
1F
100
AcDbEntity
  8
0
  6
SLD-Сплошная
 62
     7
370
    25
100
AcDbLine
 10
19.8056626761
 20
152.2405055889
 30
0.0
 11
20.2629786842
 21
152.4537555457
 31
0.0
  0
LINE
  5
28A
330
1F
100
AcDbEntity
  8
0
  6
SLD-Сплошная
 62
     7
370
    25
100
AcDbLine
 10
21.0236915554
 20
150.8224015291
 30
0.0
 11
20.2629786842
 21
152.4537555457
 31
0.0
  0
LINE
  5
28B
330
1F
100
AcDbEntity
  8
0
  6
SLD-Сплошная
 62
     7
370
    25
100
AcDbLine
 10
21.0236915554
 20
150.8224015291
 30
0.0
 11
21.8839226447
 21
151.2235338738
 31
0.0
  0
LINE
  5
28C
330
1F
100
AcDbEntity
  8
0
  6
SLD-Сплошная
 62
     7
370
    25
100
AcDbLine
 10
21.8839226447
 20
151.2235338738
 30
0.0
 11
21.1232097735
 21
152.8548878905
 31
0.0
  0
LINE
  5
28D
330
1F
100
AcDbEntity
  8
0
  6
SLD-Сплошная
 62
     7
370
    25
100
AcDbLine
 10
21.1232097735
 20
152.8548878905
 30
0.0
 11
25.128317654
 21
154.7225003668
 31
0.0
  0
LINE
  5
28E
330
1F
100
AcDbEntity
  8
0
  6
SLD-Сплошная
 62
     7
370
    25
100
AcDbLine
 10
21.2003029399
 20
149.2496898917
 30
0.0
 11
26.5229579177
 21
151.7316846696
 31
0.0
  0
LINE
  5
28F
330
1F
100
AcDbEntity
  8
0
  6
SLD-Сплошная
 62
     7
370
    25
100
AcDbLine
 10
25.128317654
 20
154.7225003668
 30
0.0
 11
26.1498171854
 21
155.1988334211
 31
0.0
  0
LINE
  5
290
330
1F
100
AcDbEntity
  8
0
  6
SLD-Сплошная
 62
     7
370
    25
100
AcDbLine
 10
26.5229579177
 20
151.7316846696
 30
0.0
 11
27.5444574491
 21
152.2080177239
 31
0.0
  0
LINE
  5
291
330
1F
100
AcDbEntity
  8
0
  6
SLD-Сплошная
 62
     7
370
    25
100
AcDbLine
 10
26.3327933443
 20
140.6092302831
 30
0.0
 11
30.1346897571
 21
142.3820836959
 31
0.0
  0
LINE
  5
292
330
1F
100
AcDbEntity
  8
0
  6
SLD-Сплошная
 62
     7
370
    25
100
AcDbLine
 10
30.1346897571
 20
142.3820836959
 30
0.0
 11
30.8643322795
 21
142.7223215918
 31
0.0
  0
LINE
  5
293
330
1F
100
AcDbEntity
  8
0
  6
SLD-Сплошная
 62
     7
370
    25
100
AcDbLine
 10
21.1232097735
 20
152.8548878905
 30
0.0
 11
20.2629786842
 21
152.4537555457
 31
0.0
  0
LINE
  5
294
330
1F
100
AcDbEntity
  8
0
  6
SLD-Сплошная
 62
     7
370
    25
100
AcDbLine
 10
52.6752831745
 20
175.2574655766
 30
0.0
 11
53.1798755599
 21
175.2574655766
 31
0.0
  0
LINE
  5
295
330
1F
100
AcDbEntity
  8
0
  6
SLD-Сплошная
 62
     7
370
    25
100
AcDbLine
 10
53.1798755599
 20
173.4574655766
 30
0.0
 11
53.1798755599
 21
175.2574655766
 31
0.0
  0
LINE
  5
296
330
1F
100
AcDbEntity
  8
0
  6
SLD-Сплошная
 62
     7
370
    25
100
AcDbLine
 10
53.1798755599
 20
173.4574655766
 30
0.0
 11
54.129035549
 21
173.4574655766
 31
0.0
  0
LINE
  5
297
330
1F
100
AcDbEntity
  8
0
  6
SLD-Сплошная
 62
     7
370
    25
100
AcDbLine
 10
54.129035549
 20
173.4574655766
 30
0.0
 11
54.129035549
 21
175.2574655766
 31
0.0
  0
LINE
  5
298
330
1F
100
AcDbEntity
  8
0
  6
SLD-Сплошная
 62
     7
370
    25
100
AcDbLine
 10
54.129035549
 20
175.2574655766
 30
0.0
 11
58.5481831474
 21
175.2574655766
 31
0.0
  0
LINE
  5
299
330
1F
100
AcDbEntity
  8
0
  6
SLD-Сплошная
 62
     7
370
    25
100
AcDbLine
 10
52.6752831745
 20
171.9574655766
 30
0.0
 11
58.5481831474
 21
171.9574655766
 31
0.0
  0
LINE
  5
29A
330
1F
100
AcDbEntity
  8
0
  6
SLD-Сплошная
 62
     7
370
    25
100
AcDbLine
 10
58.5481831474
 20
175.2574655766
 30
0.0
 11
59.6752831745
 21
175.2574655766
 31
0.0
  0
LINE
  5
29B
330
1F
100
AcDbEntity
  8
0
  6
SLD-Сплошная
 62
     7
370
    25
100
AcDbLine
 10
58.5481831474
 20
171.9574655766
 30
0.0
 11
59.6752831745
 21
171.9574655766
 31
0.0
  0
LINE
  5
29C
330
1F
100
AcDbEntity
  8
0
  6
SLD-Сплошная
 62
     7
370
    25
100
AcDbLine
 10
53.6752831745
 20
161.9574655766
 30
0.0
 11
57.8702117266
 21
161.9574655766
 31
0.0
  0
LINE
  5
29D
330
1F
100
AcDbEntity
  8
0
  6
SLD-Сплошная
 62
     7
370
    25
100
AcDbLine
 10
57.8702117266
 20
161.9574655766
 30
0.0
 11
58.6752831745
 21
161.9574655766
 31
0.0
  0
LINE
  5
29E
330
1F
100
AcDbEntity
  8
0
  6
SLD-Сплошная
 62
     7
370
    25
100
AcDbLine
 10
54.129035549
 20
175.2574655766
 30
0.0
 11
53.1798755599
 21
175.2574655766
 31
0.0
  0
LINE
  5
29F
330
1F
100
AcDbEntity
  8
0
  6
SLD-Сплошная
 62
     7
370
    25
100
AcDbLine
 10
64.746587455
 20
155.1988334211
 30
0.0
 11
65.2039034631
 21
154.9855834643
 31
0.0
  0
LINE
  5
2A0
330
1F
100
AcDbEntity
  8
0
  6
SLD-Сплошная
 62
     7
370
    25
100
AcDbLine
 10
64.443190592
 20
153.3542294477
 30
0.0
 11
65.2039034631
 21
154.9855834643
 31
0.0
  0
LINE
  5
2A1
330
1F
100
AcDbEntity
  8
0
  6
SLD-Сплошная
 62
     7
370
    25
100
AcDbLine
 10
64.443190592
 20
153.3542294477
 30
0.0
 11
65.3034216813
 21
152.953097103
 31
0.0
  0
LINE
  5
2A2
330
1F
100
AcDbEntity
  8
0
  6
SLD-Сплошная
 62
     7
370
    25
100
AcDbLine
 10
65.3034216813
 20
152.953097103
 30
0.0
 11
66.0641345524
 21
154.5844511196
 31
0.0
  0
LINE
  5
2A3
330
1F
100
AcDbEntity
  8
0
  6
SLD-Сплошная
 62
     7
370
    25
100
AcDbLine
 10
63.3519471913
 20
152.2080177239
 30
0.0
 11
68.6746021691
 21
149.726022946
 31
0.0
  0
LINE
  5
2A4
330
1F
100
AcDbEntity
  8
0
  6
SLD-Сплошная
 62
     7
370
    25
100
AcDbLine
 10
66.0641345524
 20
154.5844511196
 30
0.0
 11
70.0692424329
 21
152.7168386432
 31
0.0
  0
LINE
  5
2A5
330
1F
100
AcDbEntity
  8
0
  6
SLD-Сплошная
 62
     7
370
    25
100
AcDbLine
 10
68.6746021691
 20
149.726022946
 30
0.0
 11
69.6961017005
 21
149.2496898917
 31
0.0
  0
LINE
  5
2A6
330
1F
100
AcDbEntity
  8
0
  6
SLD-Сплошная
 62
     7
370
    25
100
AcDbLine
 10
70.0692424329
 20
152.7168386432
 30
0.0
 11
71.0907419643
 21
152.2405055889
 31
0.0
  0
LINE
  5
2A7
330
1F
100
AcDbEntity
  8
0
  6
SLD-Сплошная
 62
     7
370
    25
100
AcDbLine
 10
60.0320723609
 20
142.7223215918
 30
0.0
 11
63.8339687737
 21
140.949468179
 31
0.0
  0
LINE
  5
2A8
330
1F
100
AcDbEntity
  8
0
  6
SLD-Сплошная
 62
     7
370
    25
100
AcDbLine
 10
63.8339687737
 20
140.949468179
 30
0.0
 11
64.5636112961
 21
140.6092302831
 31
0.0
  0
LINE
  5
2A9
330
1F
100
AcDbEntity
  8
0
  6
SLD-Сплошная
 62
     7
370
    25
100
AcDbLine
 10
66.0641345524
 20
154.5844511196
 30
0.0
 11
65.2039034631
 21
154.9855834643
 31
0.0
  0
LINE
  5
2AA
330
1F
100
AcDbEntity
  8
0
  6
SLD-Сплошная
 62
     7
370
    25
100
AcDbLine
 10
189.4660068318
 20
333.210262645
 30
0.0
 11
185.2993401651
 21
333.210262645
 31
0.0
  0
LINE
  5
2AB
330
1F
100
AcDbEntity
  8
0
  6
SLD-Сплошная
 62
     7
370
    25
100
AcDbLine
 10
215.2993401651
 20
333.210262645
 30
0.0
 11
212.1326734984
 21
333.210262645
 31
0.0
  0
LINE
  5
2AC
330
1F
100
AcDbEntity
  8
0
  6
SLD-Сплошная
 62
     7
370
    25
100
AcDbLine
 10
194.9270253636
 20
333.010262645
 30
0.0
 11
189.4660068318
 21
333.010262645
 31
0.0
  0
LINE
  5
2AD
330
1F
100
AcDbEntity
  8
0
  6
SLD-Сплошная
 62
     7
370
    25
100
AcDbLine
 10
199.1978032901
 20
333.010262645
 30
0.0
 11
198.1300991136
 21
333.010262645
 31
0.0
  0
LINE
  5
2AE
330
1F
100
AcDbEntity
  8
0
  6
SLD-Сплошная
 62
     7
370
    25
100
AcDbLine
 10
203.4685812166
 20
333.010262645
 30
0.0
 11
202.4008770401
 21
333.010262645
 31
0.0
  0
LINE
  5
2AF
330
1F
100
AcDbEntity
  8
0
  6
SLD-Сплошная
 62
     7
370
    25
100
AcDbLine
 10
212.1326734984
 20
333.010262645
 30
0.0
 11
206.6716549666
 21
333.010262645
 31
0.0
  0
LINE
  5
2B0
330
1F
100
AcDbEntity
  8
0
  6
SLD-Сплошная
 62
     7
370
    25
100
AcDbLine
 10
269.2993401651
 20
271.491575832
 30
0.0
 11
270.7993401651
 21
271.491575832
 31
0.0
  0
LINE
  5
2B1
330
1F
100
AcDbEntity
  8
0
  6
SLD-Сплошная
 62
     7
370
    25
100
AcDbLine
 10
198.1300991136
 20
333.210262645
 30
0.0
 11
194.9270253636
 21
333.210262645
 31
0.0
  0
LINE
  5
2B2
330
1F
100
AcDbEntity
  8
0
  6
SLD-Сплошная
 62
     7
370
    25
100
AcDbLine
 10
202.4008770401
 20
333.210262645
 30
0.0
 11
199.1978032901
 21
333.210262645
 31
0.0
  0
LINE
  5
2B3
330
1F
100
AcDbEntity
  8
0
  6
SLD-Сплошная
 62
     7
370
    25
100
AcDbLine
 10
206.6716549666
 20
333.210262645
 30
0.0
 11
203.4685812166
 21
333.210262645
 31
0.0
  0
LINE
  5
2B4
330
1F
100
AcDbEntity
  8
0
  6
SLD-Сплошная
 62
     7
370
    25
100
AcDbLine
 10
152.6993401647
 20
290.6565692356
 30
0.0
 11
166.8993401647
 21
290.6565692356
 31
0.0
  0
LINE
  5
2B5
330
1F
100
AcDbEntity
  8
0
  6
SLD-Сплошная
 62
     7
370
    25
100
AcDbLine
 10
166.8993401647
 20
298.6565692356
 30
0.0
 11
152.6993401647
 21
298.6565692356
 31
0.0
  0
ARC
  5
2B6
330
1F
100
AcDbEntity
  8
0
  6
SLD-Сплошная
 62
     7
370
    25
100
AcDbCircle
 10
148.7993401647
 20
242.7102626439
 30
0.0
 40
3.0
100
AcDbArc
 50
180.0
 51
270.0
  0
LINE
  5
2B7
330
1F
100
AcDbEntity
  8
0
  6
SLD-Сплошная
 62
     7
370
    25
100
AcDbLine
 10
170.052164807
 20
326.8741626139
 30
0.0
 11
147.8705753113
 21
326.8741626139
 31
0.0
  0
SPLINE
  5
2B8
330
1F
100
AcDbEntity
  8
0
  6
SLD-Сплошная
 62
     7
370
    25
100
AcDbSpline
210
0.0
220
0.0
230
1.0
 70
     8
 71
     3
 72
    11
 73
     7
 74
     0
 42
0.00000001
 43
0.00000001
 40
0.0
 40
0.0
 40
0.0
 40
0.0
 40
0.274194795673418
 40
0.5451002737504015
 40
0.7912759431516176
 40
1.0
 40
1.0
 40
1.0
 40
1.0
 10
171.9559757456123
 20
325.872965709129
 30
0.0
 10
171.8216618695306
 20
326.0382087231132
 30
0.0
 10
171.5546453842585
 20
326.3667124495859
 30
0.0
 10
171.0310629534147
 20
326.6824130644516
 30
0.0
 10
170.506376318326
 20
326.8527307415927
 30
0.0
 10
170.1874378060975
 20
326.8668848049695
 30
0.0
 10
170.0410975550134
 20
326.8733791890247
 30
0.0
  0
SPLINE
  5
2B9
330
1F
100
AcDbEntity
  8
0
  6
SLD-Сплошная
 62
     7
370
    25
100
AcDbSpline
210
0.0
220
0.0
230
1.0
 70
     8
 71
     3
 72
    10
 73
     6
 74
     0
 42
0.00000001
 43
0.00000001
 40
0.0
 40
0.0
 40
0.0
 40
0.0
 40
0.3699322930868
 40
0.6481229311978538
 40
1.0
 40
1.0
 40
1.0
 40
1.0
 10
147.878799382882
 20
326.8733797675063
 30
0.0
 10
147.7144608912519
 20
326.8637424422088
 30
0.0
 10
147.426539163697
 20
326.8468578078111
 30
0.0
 10
146.979791817536
 20
326.7044766812722
 30
0.0
 10
146.7280274653696
 20
326.5467576800004
 30
0.0
 10
146.5874233663225
 20
326.4586755592171
 30
0.0
  0
LINE
  5
2BA
330
1F
100
AcDbEntity
  8
0
  6
SLD-Сплошная
 62
     7
370
    25
100
AcDbLine
 10
146.5872507152
 20
326.4585541251
 30
0.0
 11
141.8153092775
 21
323.0028169476
 31
0.0
  0
ARC
  5
2BB
330
1F
100
AcDbEntity
  8
0
  6
SLD-Сплошная
 62
     7
370
    25
100
AcDbCircle
 10
166.8993401647
 20
267.2476892192
 30
0.0
 40
3.900000000000034
100
AcDbArc
 50
270.0
 51
313.0038408681
  0
LINE
  5
2BC
330
1F
100
AcDbEntity
  8
0
  6
SLD-Сплошная
 62
     7
370
    25
100
AcDbLine
 10
174.819433624
 20
321.8848494891
 30
0.0
 11
171.9298664899
 21
325.9105299775
 31
0.0
  0
ARC
  5
2BD
330
1F
100
AcDbEntity
  8
0
  6
SLD-Сплошная
 62
     7
370
    25
100
AcDbCircle
 10
152.6993401647
 20
267.2476892192
 30
0.0
 40
3.900000000000006
100
AcDbArc
 50
180.0
 51
270.0
  0
LINE
  5
2BE
330
1F
100
AcDbEntity
  8
0
  6
SLD-Сплошная
 62
     7
370
    25
100
AcDbLine
 10
152.6993401647
 20
263.3476892192
 30
0.0
 11
166.8993401647
 21
263.3476892192
 31
0.0
  0
ARC
  5
2BF
330
1F
100
AcDbEntity
  8
0
  6
SLD-Сплошная
 62
     7
370
    25
100
AcDbCircle
 10
478.2699270955
 20
294.210262645
 30
0.0
 40
335.0
100
AcDbArc
 50
180.0
 51
187.0452879194
  0
LWPOLYLINE
  5
2C0
330
1F
100
AcDbEntity
  8
0
  6
SLD-Сплошная
 62
     7
370
    25
100
AcDbPolyline
 90
        3
 70
   128
 43
0.0
 10
145.7993401647
 20
335.299297994
 10
145.2774128512
 20
330.8297309261
 10
144.6960935678
 20
325.089018864
  0
ARC
  5
2C1
330
1F
100
AcDbEntity
  8
0
  6
SLD-Сплошная
 62
     7
370
    25
100
AcDbCircle
 10
478.2699270955
 20
294.210262645
 30
0.0
 40
335.0
100
AcDbArc
 50
175.9416328507
 51
180.0
  0
SPLINE
  5
2C2
330
1F
100
AcDbEntity
  8
0
  6
SLD-Сплошная
 62
     7
370
    25
100
AcDbSpline
210
0.0
220
0.0
230
1.0
 70
     8
 71
     3
 72
    15
 73
    11
 74
     0
 42
0.00000001
 43
0.00000001
 40
0.0
 40
0.0
 40
0.0
 40
0.0
 40
0.1116153624924408
 40
0.2297477631720648
 40
0.3524193293239325
 40
0.4779212766866107
 40
0.6052801214559225
 40
0.7343620833449125
 40
0.865675673903023
 40
1.0
 40
1.0
 40
1.0
 40
1.0
 10
140.6413725447242
 20
320.7893743881688
 30
0.0
 10
140.6514348842412
 20
320.6152617357813
 30
0.0
 10
140.6721470867972
 20
320.2568702784343
 30
0.0
 10
140.8480654191078
 20
319.7309422410434
 30
0.0
 10
141.1364473353992
 20
319.2291458723346
 30
0.0
 10
141.539102755575
 20
318.7818743605979
 30
0.0
 10
142.0348569537011
 20
318.4114206380175
 30
0.0
 10
142.6027692934072
 20
318.1359083557233
 30
0.0
 10
143.2223263287688
 20
317.955761929041
 30
0.0
 10
143.6472228579196
 20
317.931644296804
 30
0.0
 10
143.86207900744
 20
317.9194488062728
 30
0.0
  0
LINE
  5
2C3
330
1F
100
AcDbEntity
  8
0
  6
SLD-Сплошная
 62
     7
370
    25
100
AcDbLine
 10
171.7993401647
 20
350.2102626439
 30
0.0
 11
170.4679584089
 21
350.2102626439
 31
0.0
  0
LINE
  5
2C4
330
1F
100
AcDbEntity
  8
0
  6
SLD-Сплошная
 62
     7
370
    25
100
AcDbLine
 10
143.8620790074
 20
317.9191020047
 30
0.0
 11
145.7993401647
 21
317.9191020047
 31
0.0
  0
SPLINE
  5
2C5
330
1F
100
AcDbEntity
  8
0
  6
SLD-Сплошная
 62
     7
370
    25
100
AcDbSpline
210
0.0
220
0.0
230
1.0
 70
     8
 71
     3
 72
    11
 73
     7
 74
     0
 42
0.00000001
 43
0.00000001
 40
0.0
 40
0.0
 40
0.0
 40
0.0
 40
0.2231185203513364
 40
0.4633141679763195
 40
0.7230742920716823
 40
1.0
 40
1.0
 40
1.0
 40
1.0
 10
141.8147519159526
 20
323.0024124601764
 30
0.0
 10
141.6653656992053
 20
322.8814892973297
 30
0.0
 10
141.3551594885759
 20
322.6303877101769
 30
0.0
 10
140.98367378482
 20
322.1225215483713
 30
0.0
 10
140.7015630150576
 20
321.5006035874659
 30
0.0
 10
140.6618597544565
 20
321.0314783651733
 30
0.0
 10
140.6413731813201
 20
320.7894134054919
 30
0.0
  0
ARC
  5
2C6
330
1F
100
AcDbEntity
  8
0
  6
SLD-Сплошная
 62
     7
370
    25
100
AcDbCircle
 10
148.7993401647
 20
345.7102626439
 30
0.0
 40
3.0
100
AcDbArc
 50
90.0
 51
180.0
  0
ARC
  5
2C7
330
1F
100
AcDbEntity
  8
0
  6
SLD-Сплошная
 62
     7
370
    25
100
AcDbCircle
 10
152.6993401647
 20
247.1366140585
 30
0.0
 40
3.900000000000006
100
AcDbArc
 50
180.0
 51
270.0
  0
ARC
  5
2C8
330
1F
100
AcDbEntity
  8
0
  6
SLD-Сплошная
 62
     7
370
    25
100
AcDbCircle
 10
166.8993401647
 20
247.1366140585
 30
0.0
 40
3.900000000000006
100
AcDbArc
 50
270.0
 51
335.0580847647
  0
ARC
  5
2C9
330
1F
100
AcDbEntity
  8
0
  6
SLD-Сплошная
 62
     7
370
    25
100
AcDbCircle
 10
152.6993401647
 20
341.730217821
 30
0.0
 40
3.900000000000006
100
AcDbArc
 50
90.0
 51
180.0
  0
ARC
  5
2CA
330
1F
100
AcDbEntity
  8
0
  6
SLD-Сплошная
 62
     7
370
    25
100
AcDbCircle
 10
166.8993401647
 20
341.730217821
 30
0.0
 40
3.900000000000009
100
AcDbArc
 50
24.7970403845
 51
90.0
  0
LINE
  5
2CB
330
1F
100
AcDbEntity
  8
0
  6
SLD-Сплошная
 62
     7
370
    25
100
AcDbLine
 10
152.6993401647
 20
243.2366140585
 30
0.0
 11
166.8993401647
 21
243.2366140585
 31
0.0
  0
LINE
  5
2CC
330
1F
100
AcDbEntity
  8
0
  6
SLD-Сплошная
 62
     7
370
    25
100
AcDbLine
 10
166.8993401647
 20
345.630217821
 30
0.0
 11
152.6993401647
 21
345.630217821
 31
0.0
  0
LINE
  5
2CD
330
1F
100
AcDbEntity
  8
0
  6
SLD-Сплошная
 62
     7
370
    25
100
AcDbLine
 10
170.4679584089
 20
238.2102626439
 30
0.0
 11
171.7993401647
 21
238.2102626439
 31
0.0
  0
ARC
  5
2CE
330
1F
100
AcDbEntity
  8
0
  6
SLD-Сплошная
 62
     7
370
    25
100
AcDbCircle
 10
152.6993401647
 20
239.6120901018
 30
0.0
 40
3.900000000000006
100
AcDbArc
 50
180.0
 51
270.0
  0
ARC
  5
2CF
330
1F
100
AcDbEntity
  8
0
  6
SLD-Сплошная
 62
     7
370
    25
100
AcDbCircle
 10
166.8993401647
 20
239.6120901018
 30
0.0
 40
3.900000000000005
100
AcDbArc
 50
270.0
 51
338.9646103287
  0
ARC
  5
2D0
330
1F
100
AcDbEntity
  8
0
  6
SLD-Сплошная
 62
     7
370
    25
100
AcDbCircle
 10
152.6993401647
 20
348.8084351859
 30
0.0
 40
3.900000000000006
100
AcDbArc
 50
90.0
 51
180.0
  0
ARC
  5
2D1
330
1F
100
AcDbEntity
  8
0
  6
SLD-Сплошная
 62
     7
370
    25
100
AcDbCircle
 10
166.8993401647
 20
348.8084351859
 30
0.0
 40
3.899999999999998
100
AcDbArc
 50
21.0626934662
 51
90.0
  0
SPLINE
  5
2D2
330
1F
100
AcDbEntity
  8
0
  6
SLD-Сплошная
 62
     7
370
    25
100
AcDbSpline
210
0.0
220
0.0
230
1.0
 70
     8
 71
     3
 72
    11
 73
     7
 74
     0
 42
0.00000001
 43
0.00000001
 40
0.0
 40
0.0
 40
0.0
 40
0.0
 40
0.2769257079283525
 40
0.5366858320237231
 40
0.7768814796486627
 40
1.0
 40
1.0
 40
1.0
 40
1.0
 10
140.6413731813201
 20
267.6311118822475
 30
0.0
 10
140.6618597544563
 20
267.3890469225659
 30
0.0
 10
140.701563015057
 20
266.919921700273
 30
0.0
 10
140.9836737848197
 20
266.2980037393672
 30
0.0
 10
141.3551594885757
 20
265.7901375775612
 30
0.0
 10
141.6653656992053
 20
265.5390359904083
 30
0.0
 10
141.8147519159527
 20
265.4181128275615
 30
0.0
  0
LINE
  5
2D3
330
1F
100
AcDbEntity
  8
0
  6
SLD-Сплошная
 62
     7
370
    25
100
AcDbLine
 10
141.8153092775
 20
265.4177083401
 30
0.0
 11
144.696093568
 21
263.3315064236
 31
0.0
  0
SPLINE
  5
2D4
330
1F
100
AcDbEntity
  8
0
  6
SLD-Сплошная
 62
     7
370
    25
100
AcDbSpline
210
0.0
220
0.0
230
1.0
 70
     8
 71
     3
 72
    13
 73
     9
 74
     0
 42
0.00000001
 43
0.00000001
 40
0.0
 40
0.0
 40
0.0
 40
0.0
 40
0.1782809427982711
 40
0.3969230909980501
 40
0.5259208955357972
 40
0.6697982898479785
 40
0.8286653288896797
 40
1.0
 40
1.0
 40
1.0
 40
1.0
 10
143.8620790074399
 20
270.5010764814651
 30
0.0
 10
143.5747959969686
 20
270.4806323309759
 30
0.0
 10
142.9351916807823
 20
270.4351156578102
 30
0.0
 10
142.1341566921218
 20
270.0879170994241
 30
0.0
 10
141.4999648441342
 20
269.6052263361647
 30
0.0
 10
141.0520480550849
 20
269.074451566381
 30
0.0
 10
140.710900750645
 20
268.397301282945
 30
0.0
 10
140.6651247444437
 20
267.8928829071784
 30
0.0
 10
140.6413725447242
 20
267.6311508995695
 30
0.0
  0
LINE
  5
2D5
330
1F
100
AcDbEntity
  8
0
  6
SLD-Сплошная
 62
     7
370
    25
100
AcDbLine
 10
144.1099490369
 20
270.501423283
 30
0.0
 11
143.8620790074
 21
270.501423283
 31
0.0
  0
LINE
  5
2D6
330
1F
100
AcDbEntity
  8
0
  6
SLD-Сплошная
 62
     7
370
    25
100
AcDbLine
 10
225.7993401651
 20
235.710262645
 30
0.0
 11
225.7993401651
 21
240.710262645
 31
0.0
  0
LINE
  5
2D7
330
1F
100
AcDbEntity
  8
0
  6
SLD-Сплошная
 62
     7
370
    25
100
AcDbLine
 10
235.2993401651
 20
240.710262645
 30
0.0
 11
235.2993401651
 21
235.710262645
 31
0.0
  0
LINE
  5
2D8
330
1F
100
AcDbEntity
  8
0
  6
SLD-Сплошная
 62
     7
370
    25
100
AcDbLine
 10
235.2993401651
 20
235.710262645
 30
0.0
 11
225.7993401651
 21
235.710262645
 31
0.0
  0
LINE
  5
2D9
330
1F
100
AcDbEntity
  8
0
  6
SLD-Сплошная
 62
     7
370
    25
100
AcDbLine
 10
235.2993401651
 20
347.710262645
 30
0.0
 11
235.2993401651
 21
240.710262645
 31
0.0
  0
LINE
  5
2DA
330
1F
100
AcDbEntity
  8
0
  6
SLD-Сплошная
 62
     7
370
    25
100
AcDbLine
 10
225.7993401651
 20
240.710262645
 30
0.0
 11
225.7993401651
 21
347.710262645
 31
0.0
  0
LINE
  5
2DB
330
1F
100
AcDbEntity
  8
0
  6
SLD-Сплошная
 62
     7
370
    25
100
AcDbLine
 10
225.7993401651
 20
352.710262645
 30
0.0
 11
235.2993401651
 21
352.710262645
 31
0.0
  0
LINE
  5
2DC
330
1F
100
AcDbEntity
  8
0
  6
SLD-Сплошная
 62
     7
370
    25
100
AcDbLine
 10
235.2993401651
 20
352.710262645
 30
0.0
 11
235.2993401651
 21
347.710262645
 31
0.0
  0
LINE
  5
2DD
330
1F
100
AcDbEntity
  8
0
  6
SLD-Сплошная
 62
     7
370
    25
100
AcDbLine
 10
225.7993401651
 20
347.710262645
 30
0.0
 11
225.7993401651
 21
352.710262645
 31
0.0
  0
LINE
  5
2DE
330
1F
100
AcDbEntity
  8
0
  6
SLD-Сплошная
 62
     7
370
    25
100
AcDbLine
 10
247.7993401651
 20
344.310262645
 30
0.0
 11
238.2993401651
 21
344.3102598141
 31
0.0
  0
LINE
  5
2DF
330
1F
100
AcDbEntity
  8
0
  6
SLD-Сплошная
 62
     7
370
    25
100
AcDbLine
 10
247.7993401651
 20
344.310262645
 30
0.0
 11
247.7993401651
 21
244.110262645
 31
0.0
  0
LINE
  5
2E0
330
1F
100
AcDbEntity
  8
0
  6
SLD-Сплошная
 62
     7
370
    25
100
AcDbLine
 10
247.7993401651
 20
244.110262645
 30
0.0
 11
238.2993401651
 21
244.110265476
 31
0.0
  0
LINE
  5
2E1
330
1F
100
AcDbEntity
  8
0
  6
SLD-Сплошная
 62
     7
370
    25
100
AcDbLine
 10
225.7993401651
 20
285.7788596251
 30
0.0
 11
171.7993401647
 21
285.7788596251
 31
0.0
  0
LINE
  5
2E2
330
1F
100
AcDbEntity
  8
0
  6
SLD-Сплошная
 62
     7
370
    25
100
AcDbLine
 10
225.7993401651
 20
302.6416656649
 30
0.0
 11
171.7993401647
 21
302.6416656649
 31
0.0
  0
LINE
  5
2E3
330
1F
100
AcDbEntity
  8
0
  6
SLD-Сплошная
 62
     7
370
    25
100
AcDbLine
 10
225.7993401651
 20
255.210262645
 30
0.0
 11
171.7993401647
 21
255.210262645
 31
0.0
  0
LINE
  5
2E4
330
1F
100
AcDbEntity
  8
0
  6
SLD-Сплошная
 62
     7
370
    25
100
AcDbLine
 10
189.4660068318
 20
328.6728760352
 30
0.0
 11
189.4660068318
 21
333.210262645
 31
0.0
  0
LINE
  5
2E5
330
1F
100
AcDbEntity
  8
0
  6
SLD-Сплошная
 62
     7
370
    25
100
AcDbLine
 10
189.4660068318
 20
328.6728760352
 30
0.0
 11
212.1326734984
 21
328.6728760352
 31
0.0
  0
LINE
  5
2E6
330
1F
100
AcDbEntity
  8
0
  6
SLD-Сплошная
 62
     7
370
    25
100
AcDbLine
 10
212.1326734984
 20
328.6728760352
 30
0.0
 11
212.1326734984
 21
333.210262645
 31
0.0
  0
LINE
  5
2E7
330
1F
100
AcDbEntity
  8
0
  6
SLD-Сплошная
 62
     7
370
    25
100
AcDbLine
 10
185.2993401651
 20
333.210262645
 30
0.0
 11
171.7993401647
 21
333.210262645
 31
0.0
  0
LINE
  5
2E8
330
1F
100
AcDbEntity
  8
0
  6
SLD-Сплошная
 62
     7
370
    25
100
AcDbLine
 10
225.7993401651
 20
333.210262645
 30
0.0
 11
215.2993401651
 21
333.210262645
 31
0.0
  0
LINE
  5
2E9
330
1F
100
AcDbEntity
  8
0
  6
SLD-Сплошная
 62
     7
370
    25
100
AcDbLine
 10
247.7993401651
 20
256.710262645
 30
0.0
 11
269.2993401651
 21
256.710262645
 31
0.0
  0
LINE
  5
2EA
330
1F
100
AcDbEntity
  8
0
  6
SLD-Сплошная
 62
     7
370
    25
100
AcDbLine
 10
247.7993401651
 20
331.710262645
 30
0.0
 11
269.2993401651
 21
331.710262645
 31
0.0
  0
LINE
  5
2EB
330
1F
100
AcDbEntity
  8
0
  6
SLD-Сплошная
 62
     7
370
    25
100
AcDbLine
 10
269.2993401651
 20
256.710262645
 30
0.0
 11
269.2993401651
 21
331.710262645
 31
0.0
  0
LINE
  5
2EC
330
1F
100
AcDbEntity
  8
0
  6
SLD-Сплошная
 62
     7
370
    25
100
AcDbLine
 10
289.2993401651
 20
302.810262645
 30
0.0
 11
269.2993401651
 21
302.810262645
 31
0.0
  0
LINE
  5
2ED
330
1F
100
AcDbEntity
  8
0
  6
SLD-Сплошная
 62
     7
370
    25
100
AcDbLine
 10
289.2993401651
 20
285.610262645
 30
0.0
 11
269.2993401651
 21
285.610262645
 31
0.0
  0
LINE
  5
2EE
330
1F
100
AcDbEntity
  8
0
  6
SLD-Сплошная
 62
     7
370
    25
100
AcDbLine
 10
289.2993401651
 20
302.810262645
 30
0.0
 11
289.2993401651
 21
285.610262645
 31
0.0
  0
LINE
  5
2EF
330
1F
100
AcDbEntity
  8
0
  6
SLD-Сплошная
 62
     7
370
    25
100
AcDbLine
 10
290.7993401651
 20
300.2919896532
 30
0.0
 11
289.2993401651
 21
300.2919896532
 31
0.0
  0
LINE
  5
2F0
330
1F
100
AcDbEntity
  8
0
  6
SLD-Сплошная
 62
     7
370
    25
100
AcDbLine
 10
290.7993401651
 20
300.2919896532
 30
0.0
 11
290.7993401651
 21
288.8919896532
 31
0.0
  0
LINE
  5
2F1
330
1F
100
AcDbEntity
  8
0
  6
SLD-Сплошная
 62
     7
370
    25
100
AcDbLine
 10
290.7993401651
 20
288.8919896532
 30
0.0
 11
289.2993401651
 21
288.8919896532
 31
0.0
  0
LINE
  5
2F2
330
1F
100
AcDbEntity
  8
0
  6
SLD-Сплошная
 62
     7
370
    25
100
AcDbLine
 10
194.9270253636
 20
330.1461629311
 30
0.0
 11
198.1300991136
 21
330.1461629311
 31
0.0
  0
LINE
  5
2F3
330
1F
100
AcDbEntity
  8
0
  6
SLD-Сплошная
 62
     7
370
    25
100
AcDbLine
 10
199.1978032901
 20
330.1461629311
 30
0.0
 11
206.6716549666
 21
330.1461629311
 31
0.0
  0
LINE
  5
2F4
330
1F
100
AcDbEntity
  8
0
  6
SLD-Сплошная
 62
     7
370
    25
100
AcDbLine
 10
199.1978032901
 20
331.6780239637
 30
0.0
 11
206.6716549666
 21
331.6780239637
 31
0.0
  0
LINE
  5
2F5
330
1F
100
AcDbEntity
  8
0
  6
SLD-Сплошная
 62
     7
370
    25
100
AcDbLine
 10
194.9270253636
 20
331.6780239637
 30
0.0
 11
198.1300991136
 21
331.6780239637
 31
0.0
  0
LINE
  5
2F6
330
1F
100
AcDbEntity
  8
0
  6
SLD-Сплошная
 62
     7
370
    25
100
AcDbLine
 10
270.7993401651
 20
281.8150099909
 30
0.0
 11
289.2993401651
 21
281.8150099909
 31
0.0
  0
LINE
  5
2F7
330
1F
100
AcDbEntity
  8
0
  6
SLD-Сплошная
 62
     7
370
    25
100
AcDbLine
 10
270.7993401651
 20
282.678415178
 30
0.0
 11
269.2993401651
 21
282.678415178
 31
0.0
  0
LINE
  5
2F8
330
1F
100
AcDbEntity
  8
0
  6
SLD-Сплошная
 62
     7
370
    25
100
AcDbLine
 10
289.2993401651
 20
285.610262645
 30
0.0
 11
289.2993401651
 21
281.8150099909
 31
0.0
  0
LINE
  5
2F9
330
1F
100
AcDbEntity
  8
0
  6
SLD-Сплошная
 62
     7
370
    25
100
AcDbLine
 10
194.9270253636
 20
330.3620112801
 30
0.0
 11
198.1300991136
 21
330.3620112801
 31
0.0
  0
LINE
  5
2FA
330
1F
100
AcDbEntity
  8
0
  6
SLD-Сплошная
 62
     7
370
    25
100
AcDbLine
 10
198.1300991136
 20
330.1461629311
 30
0.0
 11
198.1300991136
 21
330.3620112801
 31
0.0
  0
LINE
  5
2FB
330
1F
100
AcDbEntity
  8
0
  6
SLD-Сплошная
 62
     7
370
    25
100
AcDbLine
 10
194.9270253636
 20
330.1461629311
 30
0.0
 11
194.9270253636
 21
330.3620112801
 31
0.0
  0
LINE
  5
2FC
330
1F
100
AcDbEntity
  8
0
  6
SLD-Сплошная
 62
     7
370
    25
100
AcDbLine
 10
199.1978032901
 20
330.3620112801
 30
0.0
 11
206.6716549666
 21
330.3620112801
 31
0.0
  0
LINE
  5
2FD
330
1F
100
AcDbEntity
  8
0
  6
SLD-Сплошная
 62
     7
370
    25
100
AcDbLine
 10
206.6716549666
 20
330.1461629311
 30
0.0
 11
206.6716549666
 21
330.3620112801
 31
0.0
  0
LINE
  5
2FE
330
1F
100
AcDbEntity
  8
0
  6
SLD-Сплошная
 62
     7
370
    25
100
AcDbLine
 10
199.1978032901
 20
330.1461629311
 30
0.0
 11
199.1978032901
 21
330.3620112801
 31
0.0
  0
LINE
  5
2FF
330
1F
100
AcDbEntity
  8
0
  6
SLD-Сплошная
 62
     7
370
    25
100
AcDbLine
 10
206.6716549666
 20
331.5951815599
 30
0.0
 11
199.1978032901
 21
331.5951815599
 31
0.0
  0
LINE
  5
300
330
1F
100
AcDbEntity
  8
0
  6
SLD-Сплошная
 62
     7
370
    25
100
AcDbLine
 10
206.6716549666
 20
330.3620112801
 30
0.0
 11
206.6716549666
 21
331.5951815599
 31
0.0
  0
LINE
  5
301
330
1F
100
AcDbEntity
  8
0
  6
SLD-Сплошная
 62
     7
370
    25
100
AcDbLine
 10
199.1978032901
 20
330.3620112801
 30
0.0
 11
199.1978032901
 21
331.5951815599
 31
0.0
  0
LINE
  5
302
330
1F
100
AcDbEntity
  8
0
  6
SLD-Сплошная
 62
     7
370
    25
100
AcDbLine
 10
198.1300991136
 20
331.5951815599
 30
0.0
 11
194.9270253636
 21
331.5951815599
 31
0.0
  0
LINE
  5
303
330
1F
100
AcDbEntity
  8
0
  6
SLD-Сплошная
 62
     7
370
    25
100
AcDbLine
 10
198.1300991136
 20
330.3620112801
 30
0.0
 11
198.1300991136
 21
331.5951815599
 31
0.0
  0
LINE
  5
304
330
1F
100
AcDbEntity
  8
0
  6
SLD-Сплошная
 62
     7
370
    25
100
AcDbLine
 10
194.9270253636
 20
330.3620112801
 30
0.0
 11
194.9270253636
 21
331.5951815599
 31
0.0
  0
LINE
  5
305
330
1F
100
AcDbEntity
  8
0
  6
SLD-Сплошная
 62
     7
370
    25
100
AcDbLine
 10
289.4993401651
 20
286.4863909187
 30
0.0
 11
289.2993401651
 21
286.4863909187
 31
0.0
  0
LINE
  5
306
330
1F
100
AcDbEntity
  8
0
  6
SLD-Сплошная
 62
     7
370
    25
100
AcDbLine
 10
289.4993401651
 20
288.8919896532
 30
0.0
 11
289.4993401651
 21
286.4863909187
 31
0.0
  0
LINE
  5
307
330
1F
100
AcDbEntity
  8
0
  6
SLD-Сплошная
 62
     7
370
    25
100
AcDbLine
 10
270.7993401651
 20
271.491575832
 30
0.0
 11
270.7993401651
 21
282.678415178
 31
0.0
  0
LINE
  5
308
330
1F
100
AcDbEntity
  8
0
  6
SLD-Сплошная
 62
     7
370
    25
100
AcDbLine
 10
270.7993401651
 20
316.928949458
 30
0.0
 11
269.2993401651
 21
316.928949458
 31
0.0
  0
LINE
  5
309
330
1F
100
AcDbEntity
  8
0
  6
SLD-Сплошная
 62
     7
370
    25
100
AcDbLine
 10
270.7993401651
 20
305.528949458
 30
0.0
 11
269.2993401651
 21
305.528949458
 31
0.0
  0
LINE
  5
30A
330
1F
100
AcDbEntity
  8
0
  6
SLD-Сплошная
 62
     7
370
    25
100
AcDbLine
 10
270.7993401651
 20
305.528949458
 30
0.0
 11
270.7993401651
 21
316.928949458
 31
0.0
  0
LINE
  5
30B
330
1F
100
AcDbEntity
  8
0
  6
SLD-Сплошная
 62
     7
370
    25
100
AcDbLine
 10
194.9270253636
 20
331.8850969278
 30
0.0
 11
198.1300991136
 21
331.8850969278
 31
0.0
  0
LINE
  5
30C
330
1F
100
AcDbEntity
  8
0
  6
SLD-Сплошная
 62
     7
370
    25
100
AcDbLine
 10
198.1300991136
 20
331.6780239637
 30
0.0
 11
198.1300991136
 21
331.8850969278
 31
0.0
  0
LINE
  5
30D
330
1F
100
AcDbEntity
  8
0
  6
SLD-Сплошная
 62
     7
370
    25
100
AcDbLine
 10
194.9270253636
 20
331.6780239637
 30
0.0
 11
194.9270253636
 21
331.8850969278
 31
0.0
  0
LINE
  5
30E
330
1F
100
AcDbEntity
  8
0
  6
SLD-Сплошная
 62
     7
370
    25
100
AcDbLine
 10
198.1300991136
 20
331.8850969278
 30
0.0
 11
198.1300991136
 21
333.210262645
 31
0.0
  0
LINE
  5
30F
330
1F
100
AcDbEntity
  8
0
  6
SLD-Сплошная
 62
     7
370
    25
100
AcDbLine
 10
194.9270253636
 20
331.8850969278
 30
0.0
 11
194.9270253636
 21
333.210262645
 31
0.0
  0
LINE
  5
310
330
1F
100
AcDbEntity
  8
0
  6
SLD-Сплошная
 62
     7
370
    25
100
AcDbLine
 10
199.1978032901
 20
331.8850969278
 30
0.0
 11
199.1978032901
 21
331.6780239637
 31
0.0
  0
LINE
  5
311
330
1F
100
AcDbEntity
  8
0
  6
SLD-Сплошная
 62
     7
370
    25
100
AcDbLine
 10
199.1978032901
 20
331.8850969278
 30
0.0
 11
206.6716549666
 21
331.8850969278
 31
0.0
  0
LINE
  5
312
330
1F
100
AcDbEntity
  8
0
  6
SLD-Сплошная
 62
     7
370
    25
100
AcDbLine
 10
206.6716549666
 20
331.8850969278
 30
0.0
 11
206.6716549666
 21
331.6780239637
 31
0.0
  0
LINE
  5
313
330
1F
100
AcDbEntity
  8
0
  6
SLD-Сплошная
 62
     7
370
    25
100
AcDbLine
 10
202.4008770401
 20
332.6764759561
 30
0.0
 11
202.4008770401
 21
333.210262645
 31
0.0
  0
LINE
  5
314
330
1F
100
AcDbEntity
  8
0
  6
SLD-Сплошная
 62
     7
370
    25
100
AcDbLine
 10
203.4685812166
 20
332.6764759561
 30
0.0
 11
202.4008770401
 21
332.6764759561
 31
0.0
  0
LINE
  5
315
330
1F
100
AcDbEntity
  8
0
  6
SLD-Сплошная
 62
     7
370
    25
100
AcDbLine
 10
203.4685812166
 20
332.6764759561
 30
0.0
 11
203.4685812166
 21
333.210262645
 31
0.0
  0
LINE
  5
316
330
1F
100
AcDbEntity
  8
0
  6
SLD-Сплошная
 62
     7
370
    25
100
AcDbLine
 10
199.1978032901
 20
331.8850969278
 30
0.0
 11
199.1978032901
 21
333.210262645
 31
0.0
  0
LINE
  5
317
330
1F
100
AcDbEntity
  8
0
  6
SLD-Сплошная
 62
     7
370
    25
100
AcDbLine
 10
206.6716549666
 20
331.8850969278
 30
0.0
 11
206.6716549666
 21
333.210262645
 31
0.0
  0
LINE
  5
318
330
1F
100
AcDbEntity
  8
0
  6
SLD-Сплошная
 62
     7
370
    25
100
AcDbLine
 10
198.1300991136
 20
333.1497553556
 30
0.0
 11
199.1978032901
 21
333.1497553556
 31
0.0
  0
LINE
  5
319
330
1F
100
AcDbEntity
  8
0
  6
SLD-Сплошная
 62
     7
370
    25
100
AcDbLine
 10
202.4008770401
 20
333.1497553556
 30
0.0
 11
203.4685812166
 21
333.1497553556
 31
0.0
  0
LINE
  5
31A
330
1F
100
AcDbEntity
  8
0
  6
SLD-Сплошная
 62
     7
370
    25
100
AcDbLine
 10
270.7993401651
 20
302.810262645
 30
0.0
 11
270.7993401651
 21
305.528949458
 31
0.0
  0
LINE
  5
31B
330
1F
100
AcDbEntity
  8
0
  6
SLD-Сплошная
 62
     7
370
    25
100
AcDbLine
 10
235.2993401651
 20
237.710262645
 30
0.0
 11
238.2993401651
 21
237.710262645
 31
0.0
  0
LINE
  5
31C
330
1F
100
AcDbEntity
  8
0
  6
SLD-Сплошная
 62
     7
370
    25
100
AcDbLine
 10
238.2993401651
 20
237.710262645
 30
0.0
 11
238.2993401651
 21
240.710262645
 31
0.0
  0
LINE
  5
31D
330
1F
100
AcDbEntity
  8
0
  6
SLD-Сплошная
 62
     7
370
    25
100
AcDbLine
 10
238.2993401651
 20
240.710262645
 30
0.0
 11
238.2993401651
 21
347.710262645
 31
0.0
  0
LINE
  5
31E
330
1F
100
AcDbEntity
  8
0
  6
SLD-Сплошная
 62
     7
370
    25
100
AcDbLine
 10
235.2993401651
 20
350.710262645
 30
0.0
 11
238.2993401651
 21
350.710262645
 31
0.0
  0
LINE
  5
31F
330
1F
100
AcDbEntity
  8
0
  6
SLD-Сплошная
 62
     7
370
    25
100
AcDbLine
 10
238.2993401651
 20
347.710262645
 30
0.0
 11
238.2993401651
 21
350.710262645
 31
0.0
  0
SPLINE
  5
320
330
1F
100
AcDbEntity
  8
0
  6
SLD-Сплошная
 62
     7
370
    25
100
AcDbSpline
210
0.0
220
0.0
230
1.0
 70
     8
 71
     3
 72
    28
 73
    24
 74
     0
 42
0.00000001
 43
0.00000001
 40
0.0
 40
0.0
 40
0.0
 40
0.0
 40
0.0179573985940872
 40
0.0358193046511964
 40
0.053628360590589
 40
0.0714275886763888
 40
0.0892600822980408
 40
0.1071686946997517
 40
0.1251957362857899
 40
0.1876223105041055
 40
0.2502764683834943
 40
0.3126239152108045
 40
0.375346883954816
 40
0.5000175541194908
 40
0.6245402110128704
 40
0.6871499127497398
 40
0.7494051712050037
 40
0.8119969834328975
 40
0.8743867400800552
 40
0.9059545776022623
 40
0.9372577863917848
 40
0.9685286077046549
 40
1.0
 40
1.0
 40
1.0
 40
1.0
 10
167.7993401647362
 20
298.3092525379977
 30
0.0
 10
167.8559106883668
 20
298.2937114119209
 30
0.0
 10
167.9687509090471
 20
298.2627118032272
 30
0.0
 10
168.1345813490652
 20
298.2060028487788
 30
0.0
 10
168.2971151179193
 20
298.1420024865193
 30
0.0
 10
168.4561582691389
 20
298.0699743779406
 30
0.0
 10
168.6117570904414
 20
297.9901180168307
 30
0.0
 10
168.7639034763979
 20
297.9023654748663
 30
0.0
 10
169.0340876613194
 20
297.7286627972904
 30
0.0
 10
169.3999052685556
 20
297.4340281990795
 30
0.0
 10
169.8056731922338
 20
296.9724501192909
 30
0.0
 10
170.1316830899368
 20
296.4501460261403
 30
0.0
 10
170.444260027569
 20
295.6935083575519
 30
0.0
 10
170.6026204622493
 20
294.6693110808605
 30
0.0
 10
170.4444805391765
 20
293.6453235031333
 30
0.0
 10
170.1327252674276
 20
292.8892738534313
 30
0.0
 10
169.8076039013829
 20
292.3671612087549
 30
0.0
 10
169.4026899211493
 20
291.9052690781052
 30
0.0
 10
169.0029447390704
 20
291.5823609475306
 30
0.0
 10
168.6550062791673
 20
291.3664107279621
 30
0.0
 10
168.380338799986
 20
291.227508702361
 30
0.0
 10
168.0953938180144
 20
291.1112554752259
 30
0.0
 10
167.8982348049894
 20
291.0548200159957
 30
0.0
 10
167.7993401647362
 20
291.0265120814384
 30
0.0
  0
ARC
  5
321
330
1F
100
AcDbEntity
  8
0
  6
SLD-Сплошная
 62
     7
370
    25
100
AcDbCircle
 10
166.8993404886
 20
294.5568278386
 30
0.0
 40
3.900124477626169
100
AcDbArc
 50
269.9999952419
 51
283.3419252001
  0
ARC
  5
322
330
1F
100
AcDbEntity
  8
0
  6
SLD-Сплошная
 62
     7
370
    25
100
AcDbCircle
 10
166.8993404886
 20
294.7563106326
 30
0.0
 40
3.90012447762622
100
AcDbArc
 50
76.6580747999
 51
90.0000047581
  0
LINE
  5
323
330
1F
100
AcDbEntity
  8
0
  6
SLD-Сплошная
 62
     7
370
    25
100
AcDbLine
 10
166.8993401647
 20
290.6581954825
 30
0.0
 11
166.8993401647
 21
290.6565711846
 31
0.0
  0
LINE
  5
324
330
1F
100
AcDbEntity
  8
0
  6
SLD-Сплошная
 62
     7
370
    25
100
AcDbLine
 10
152.6993401647
 20
290.6581954825
 30
0.0
 11
152.6993401647
 21
290.6565711846
 31
0.0
  0
ARC
  5
325
330
1F
100
AcDbEntity
  8
0
  6
SLD-Сплошная
 62
     7
370
    25
100
AcDbCircle
 10
152.6992747797
 20
294.556637976
 30
0.0
 40
3.899934615535385
100
AcDbArc
 50
180.0009606343
 51
270.0009606021
  0
LINE
  5
326
330
1F
100
AcDbEntity
  8
0
  6
SLD-Сплошная
 62
     7
370
    25
100
AcDbLine
 10
148.7993401647
 20
294.5565725887
 30
0.0
 11
148.7993401647
 21
294.7565650891
 31
0.0
  0
ARC
  5
327
330
1F
100
AcDbEntity
  8
0
  6
SLD-Сплошная
 62
     7
370
    25
100
AcDbCircle
 10
152.6992747797
 20
294.7565004953
 30
0.0
 40
3.899934615533737
100
AcDbArc
 50
89.9990393979
 51
179.999039984
  0
LINE
  5
328
330
1F
100
AcDbEntity
  8
0
  6
SLD-Сплошная
 62
     7
370
    25
100
AcDbLine
 10
167.7993401647
 20
263.4983415971
 30
0.0
 11
167.7993401647
 21
247.8924265566
 31
0.0
  0
SPLINE
  5
329
330
1F
100
AcDbEntity
  8
0
  6
SLD-Сплошная
 62
     7
370
    25
100
AcDbSpline
210
0.0
220
0.0
230
1.0
 70
     8
 71
     3
 72
    14
 73
    10
 74
     0
 42
0.00000001
 43
0.00000001
 40
0.0
 40
0.0
 40
0.0
 40
0.0
 40
0.1588365912373873
 40
0.3177234034731869
 40
0.4766258843038296
 40
0.6355595461036461
 40
0.7943045164400331
 40
0.9529478349067149
 40
1.0
 40
1.0
 40
1.0
 40
1.0
 10
167.7993401647362
 20
269.8352004293776
 30
0.0
 10
168.1847269755669
 20
269.7067192300233
 30
0.0
 10
168.9556224489391
 20
269.4497162080928
 30
0.0
 10
169.8471140532245
 20
268.6571198625102
 30
0.0
 10
170.4135441369269
 20
267.6825954588299
 30
0.0
 10
170.6054762838098
 20
266.6030263294435
 30
0.0
 10
170.4009952606874
 20
265.5581955126434
 30
0.0
 10
170.0176601179915
 20
264.7934896672398
 30
0.0
 10
169.6241263277301
 20
264.4948819320437
 30
0.0
 10
169.534106767997
 20
264.4265763950848
 30
0.0
  0
LINE
  5
32A
330
1F
100
AcDbEntity
  8
0
  6
SLD-Сплошная
 62
     7
370
    25
100
AcDbLine
 10
167.7993401647
 20
291.0265120814
 30
0.0
 11
167.7993401647
 21
269.8352004294
 31
0.0
  0
LINE
  5
32B
330
1F
100
AcDbEntity
  8
0
  6
SLD-Сплошная
 62
     7
370
    25
100
AcDbLine
 10
167.7993401647
 20
319.9799927619
 30
0.0
 11
167.7993401647
 21
298.309252538
 31
0.0
  0
LINE
  5
32C
330
1F
100
AcDbEntity
  8
0
  6
SLD-Сплошная
 62
     7
370
    25
100
AcDbLine
 10
170.6379117585
 20
319.9799927619
 30
0.0
 11
167.7993401647
 21
319.9799927619
 31
0.0
  0
SPLINE
  5
32D
330
1F
100
AcDbEntity
  8
0
  6
SLD-Сплошная
 62
     7
370
    25
100
AcDbSpline
210
0.0
220
0.0
230
1.0
 70
     8
 71
     3
 72
    14
 73
    10
 74
     0
 42
0.00000001
 43
0.00000001
 40
0.0
 40
0.0
 40
0.0
 40
0.0
 40
0.1426221706456417
 40
0.2847025815432308
 40
0.4266136992008681
 40
0.5687293212595388
 40
0.711421638238363
 40
0.8550583577661458
 40
1.0
 40
1.0
 40
1.0
 40
1.0
 10
171.7993401647362
 20
320.1638410741356
 30
0.0
 10
171.7461953559178
 20
320.1471254722545
 30
0.0
 10
171.640107612352
 20
320.1137577638115
 30
0.0
 10
171.4777570800662
 20
320.0729114551398
 30
0.0
 10
171.3136396663495
 20
320.039036869559
 30
0.0
 10
171.1474896911066
 20
320.0127347538266
 30
0.0
 10
170.9793826128553
 20
319.994016177759
 30
0.0
 10
170.8093027916723
 20
319.9822685064934
 30
0.0
 10
170.6952140688251
 20
319.9807536267937
 30
0.0
 10
170.6379117584616
 20
319.9799927618761
 30
0.0
  0
LINE
  5
32E
330
1F
100
AcDbEntity
  8
0
  6
SLD-Сплошная
 62
     7
370
    25
100
AcDbLine
 10
171.7993401647
 20
320.1638410741
 30
0.0
 11
171.7993401647
 21
245.9437613451
 31
0.0
  0
SPLINE
  5
32F
330
1F
100
AcDbEntity
  8
0
  6
SLD-Сплошная
 62
     7
370
    25
100
AcDbSpline
210
0.0
220
0.0
230
1.0
 70
     8
 71
     3
 72
    21
 73
    17
 74
     0
 42
0.00000001
 43
0.00000001
 40
0.0
 40
0.0
 40
0.0
 40
0.0
 40
0.0358819369089078
 40
0.071572650710407
 40
0.1071573440989638
 40
0.1427219817499721
 40
0.1783526734897106
 40
0.2141350522590189
 40
0.2501536691089222
 40
0.3748907951162085
 40
0.5000773897110738
 40
0.6246539494057574
 40
0.7499805661366191
 40
0.832999505080567
 40
0.9160357214322632
 40
1.0
 40
1.0
 40
1.0
 40
1.0
 10
167.7993401647362
 20
247.8924265565887
 30
0.0
 10
167.8559119960969
 20
247.8836709337103
 30
0.0
 10
167.9687541744973
 20
247.8662063486847
 30
0.0
 10
168.1345866581781
 20
247.8343125507147
 30
0.0
 10
168.2971205656717
 20
247.7983768486602
 30
0.0
 10
168.4561619677328
 20
247.7580106234259
 30
0.0
 10
168.6117571236381
 20
247.7133519638754
 30
0.0
 10
168.763898014365
 20
247.6643923715936
 30
0.0
 10
169.0340781240245
 20
247.567722871777
 30
0.0
 10
169.3998884196806
 20
247.4046923764875
 30
0.0
 10
169.8056622089121
 20
247.1523262019804
 30
0.0
 10
170.1316492452399
 20
246.8709083143688
 30
0.0
 10
170.3402618868455
 20
246.6028223964396
 30
0.0
 10
170.4622487833025
 20
246.3618620297802
 30
0.0
 10
170.5275502306259
 20
246.1526797179561
 30
0.0
 10
170.5354322157592
 20
246.0136583279121
 30
0.0
 10
170.5393951093765
 20
245.9437613451147
 30
0.0
  0
SPLINE
  5
330
330
1F
100
AcDbEntity
  8
0
  6
SLD-Сплошная
 62
     7
370
    25
100
AcDbSpline
210
0.0
220
0.0
230
1.0
 70
     8
 71
     3
 72
    23
 73
    19
 74
     0
 42
0.00000001
 43
0.00000001
 40
0.0
 40
0.0
 40
0.0
 40
0.0
 40
0.0312517231241059
 40
0.0624344625775762
 40
0.0936235703244289
 40
0.1248943522880598
 40
0.1874758966218555
 40
0.2501015018976476
 40
0.31236766738476
 40
0.3746623197421942
 40
0.4997926814625354
 40
0.6244030802835602
 40
0.6868893174140884
 40
0.7493702563051324
 40
0.8119567398640386
 40
0.8745531232007587
 40
0.9372752340842315
 40
1.0
 40
1.0
 40
1.0
 40
1.0
 10
152.6993401647363
 20
290.6581954825452
 30
0.0
 10
152.6355531902081
 20
290.6590903469867
 30
0.0
 10
152.5081200416965
 20
290.6608781005854
 30
0.0
 10
152.3174869343596
 20
290.6754074983816
 30
0.0
 10
152.1277328366673
 20
290.6986278609317
 30
0.0
 10
151.8762161686903
 20
290.7422204768388
 30
0.0
 10
151.5658547775919
 20
290.8196440559751
 30
0.0
 10
151.2051147764994
 20
290.948681409312
 30
0.0
 10
150.8591484210961
 20
291.1119092164115
 30
0.0
 10
150.4214479082757
 20
291.3737832753534
 30
0.0
 10
149.9255091713111
 20
291.7797327073579
 30
0.0
 10
149.5184814758973
 20
292.2752514488939
 30
0.0
 10
149.2558361711286
 20
292.7122723575294
 30
0.0
 10
149.0917540745169
 20
293.0586783262542
 30
0.0
 10
148.961948458541
 20
293.4196557747425
 30
0.0
 10
148.8690514327932
 20
293.7921970425627
 30
0.0
 10
148.8101933747323
 20
294.1723797452307
 30
0.0
 10
148.8029579524465
 20
294.4285061119975
 30
0.0
 10
148.7993401647362
 20
294.5565720057862
 30
0.0
  0
SPLINE
  5
331
330
1F
100
AcDbEntity
  8
0
  6
SLD-Сплошная
 62
     7
370
    25
100
AcDbSpline
210
0.0
220
0.0
230
1.0
 70
     8
 71
     3
 72
    12
 73
     8
 74
     0
 42
0.00000001
 43
0.00000001
 40
0.0
 40
0.0
 40
0.0
 40
0.0
 40
0.1995180746586401
 40
0.3988445040782444
 40
0.5984129591559313
 40
0.7986555383396271
 40
1.0
 40
1.0
 40
1.0
 40
1.0
 10
167.7993401647363
 20
290.7633139954802
 30
0.0
 10
167.7403857248281
 20
290.7501833807196
 30
0.0
 10
167.6225334731529
 20
290.723934763689
 30
0.0
 10
167.4436231425874
 20
290.6949971698704
 30
0.0
 10
167.2634562876263
 20
290.6739607979141
 30
0.0
 10
167.0818595674212
 20
290.6608234853959
 30
0.0
 10
166.9602911529058
 20
290.6590730844238
 30
0.0
 10
166.8993401647363
 20
290.6581954825453
 30
0.0
  0
LINE
  5
332
330
1F
100
AcDbEntity
  8
0
  6
SLD-Сплошная
 62
     7
370
    25
100
AcDbLine
 10
152.6993401647
 20
270.8980596404
 30
0.0
 11
166.8993401647
 21
270.8980596404
 31
0.0
  0
SPLINE
  5
333
330
1F
100
AcDbEntity
  8
0
  6
SLD-Сплошная
 62
     7
370
    25
100
AcDbSpline
210
0.0
220
0.0
230
1.0
 70
     8
 71
     3
 72
    23
 73
    19
 74
     0
 42
0.00000001
 43
0.00000001
 40
0.0
 40
0.0
 40
0.0
 40
0.0
 40
0.0314925426889335
 40
0.0629104413612355
 40
0.0943306803201837
 40
0.1258302267101826
 40
0.188063952126952
 40
0.2503161727211313
 40
0.3129060154280759
 40
0.3755138819201471
 40
0.50003656437459
 40
0.6248118547898052
 40
0.6873377071692665
 40
0.7498835151490644
 40
0.8121372546208022
 40
0.874427179904576
 40
0.9372024783802027
 40
0.9999999999999999
 40
0.9999999999999999
 40
0.9999999999999999
 40
0.9999999999999999
 10
148.7993401647362
 20
267.434743493991
 30
0.0
 10
148.8002495997196
 20
267.4907622434924
 30
0.0
 10
148.8020663141321
 20
267.6026669661577
 30
0.0
 10
148.8168346589154
 20
267.7704739936776
 30
0.0
 10
148.8404362794228
 20
267.9377766513738
 30
0.0
 10
148.884466047976
 20
268.1585062502787
 30
0.0
 10
148.9621204465448
 20
268.4305244857525
 30
0.0
 10
149.0912657778907
 20
268.7482053569458
 30
0.0
 10
149.2551242357918
 20
269.0550117218893
 30
0.0
 10
149.5177745573218
 20
269.4438058484095
 30
0.0
 10
149.9242868054073
 20
269.8861199934167
 30
0.0
 10
150.4196085078254
 20
270.250794962627
 30
0.0
 10
150.8574123322772
 20
270.48716474569
 30
0.0
 10
151.2035835619442
 20
270.6346728509175
 30
0.0
 10
151.563550285259
 20
270.7513126832424
 30
0.0
 10
151.9349328475957
 20
270.8349887875503
 30
0.0
 10
152.3147379236829
 20
270.8882291918366
 30
0.0
 10
152.5711242931311
 20
270.8947824376035
 30
0.0
 10
152.6993401647362
 20
270.8980596403644
 30
0.0
  0
SPLINE
  5
334
330
1F
100
AcDbEntity
  8
0
  6
SLD-Сплошная
 62
     7
370
    25
100
AcDbSpline
210
0.0
220
0.0
230
1.0
 70
     8
 71
     3
 72
    12
 73
     8
 74
     0
 42
0.00000001
 43
0.00000001
 40
0.0
 40
0.0
 40
0.0
 40
0.0
 40
0.2013359503670696
 40
0.4015742139755302
 40
0.6011426226536783
 40
0.8004733214696221
 40
1.0
 40
1.0
 40
1.0
 40
1.0
 10
166.8993401647363
 20
270.8980596403644
 30
0.0
 10
166.9602886022481
 20
270.8972652663173
 30
0.0
 10
167.0818531854347
 20
270.8956808491631
 30
0.0
 10
167.2634461148026
 20
270.8837820662113
 30
0.0
 10
167.4436129813539
 20
270.8647315273618
 30
0.0
 10
167.6225271229669
 20
270.8385297110068
 30
0.0
 10
167.7403831811759
 20
270.8147739712548
 30
0.0
 10
167.7993401647363
 20
270.8028902651534
 30
0.0
  0
SPLINE
  5
335
330
1F
100
AcDbEntity
  8
0
  6
SLD-Сплошная
 62
     7
370
    25
100
AcDbSpline
210
0.0
220
0.0
230
1.0
 70
     8
 71
     3
 72
    23
 73
    19
 74
     0
 42
0.00000001
 43
0.00000001
 40
0.0
 40
0.0
 40
0.0
 40
0.0
 40
0.0314925426955879
 40
0.062910441370138
 40
0.0943306803268989
 40
0.1258302267103797
 40
0.1880639521243619
 40
0.2503161727212253
 40
0.3129060154544662
 40
0.3755138819208128
 40
0.500036564375362
 40
0.6248118547906215
 40
0.6873377073283861
 40
0.7498835151492369
 40
0.8121372546691746
 40
0.8744271799045613
 40
0.9372024783895783
 40
1.0
 40
1.0
 40
1.0
 40
1.0
 10
148.7993401647362
 20
294.7565650891045
 30
0.0
 10
148.8002495997195
 20
294.8208400380304
 30
0.0
 10
148.8020663141315
 20
294.9492375905893
 30
0.0
 10
148.816834658914
 20
295.1412826369852
 30
0.0
 10
148.8404362794205
 20
295.3323936297118
 30
0.0
 10
148.8844660479806
 20
295.5840222380207
 30
0.0
 10
148.962120446559
 20
295.8932051448293
 30
0.0
 10
149.0912657779133
 20
296.2529138806942
 30
0.0
 10
149.2551242357745
 20
296.5990336127957
 30
0.0
 10
149.5177745573784
 20
297.0361113592375
 30
0.0
 10
149.9242868054074
 20
297.5308161050984
 30
0.0
 10
150.4196085080532
 20
297.9363937688753
 30
0.0
 10
150.8574123326047
 20
298.198473108355
 30
0.0
 10
151.2035835623264
 20
298.3617228744954
 30
0.0
 10
151.5635502853658
 20
298.4906165532336
 30
0.0
 10
151.9349328477088
 20
298.5829793823743
 30
0.0
 10
152.3147379237039
 20
298.6417005057251
 30
0.0
 10
152.5711242931509
 20
298.6489256395407
 30
0.0
 10
152.6993401647363
 20
298.6525388457789
 30
0.0
  0
LINE
  5
336
330
1F
100
AcDbEntity
  8
0
  6
SLD-Сплошная
 62
     7
370
    25
100
AcDbLine
 10
148.7993401647
 20
319.2182559748
 30
0.0
 11
167.7993401647
 21
319.2182559748
 31
0.0
  0
LINE
  5
337
330
1F
100
AcDbEntity
  8
0
  6
SLD-Сплошная
 62
     7
370
    25
100
AcDbLine
 10
145.7993401647
 20
242.7102626439
 30
0.0
 11
145.7993401647
 21
317.9196553244
 31
0.0
  0
SPLINE
  5
338
330
1F
100
AcDbEntity
  8
0
  6
SLD-Сплошная
 62
     7
370
    25
100
AcDbSpline
210
0.0
220
0.0
230
1.0
 70
     8
 71
     3
 72
    15
 73
    11
 74
     0
 42
0.00000001
 43
0.00000001
 40
0.0
 40
0.0
 40
0.0
 40
0.0
 40
0.1300147555519754
 40
0.25759953009346
 40
0.3832385488623878
 40
0.5074317813726938
 40
0.6306899317986736
 40
0.7535287432190677
 40
0.8764629162065416
 40
1.0
 40
1.0
 40
1.0
 40
1.0
 10
145.965935258097
 20
318.195298386876
 30
0.0
 10
145.9517483771729
 20
318.1743724741272
 30
0.0
 10
145.9236397687001
 20
318.1329117547806
 30
0.0
 10
145.8889341196574
 20
318.0791762870255
 30
0.0
 10
145.8600062880369
 20
318.032686053493
 30
0.0
 10
145.8370841372606
 20
317.994062665131
 30
0.0
 10
145.8197330167658
 20
317.9631979689786
 30
0.0
 10
145.8078075795844
 20
317.9403866292008
 30
0.0
 10
145.8006086651291
 20
317.9249521840729
 30
0.0
 10
145.7997636871873
 20
317.9214238212527
 30
0.0
 10
145.7993401647363
 20
317.9196553243535
 30
0.0
  0
SPLINE
  5
339
330
1F
100
AcDbEntity
  8
0
  6
SLD-Сплошная
 62
     7
370
    25
100
AcDbSpline
210
0.0
220
0.0
230
1.0
 70
     8
 71
     3
 72
    20
 73
    16
 74
     0
 42
0.00000001
 43
0.00000001
 40
0.0
 40
0.0
 40
0.0
 40
0.0
 40
0.0417799200303011
 40
0.0833523739877729
 40
0.1248272870385694
 40
0.1663153596777417
 40
0.2079271873745916
 40
0.2497723843683739
 40
0.3749905159477768
 40
0.500471211674403
 40
0.6251956109708647
 40
0.7501922436813561
 40
0.833549272578483
 40
0.9165198811538484
 40
1.0
 40
1.0
 40
1.0
 40
1.0
 10
145.9659352580969
 20
318.195298386876
 30
0.0
 10
145.9835911700993
 20
318.219910939063
 30
0.0
 10
146.018815320343
 20
318.2690138251672
 30
0.0
 10
146.0808700859983
 20
318.340696041388
 30
0.0
 10
146.1494622589655
 20
318.410598104057
 30
0.0
 10
146.2252530669274
 20
318.4786007777383
 30
0.0
 10
146.3080788068671
 20
318.5447354465639
 30
0.0
 10
146.4572968042856
 20
318.6514484442524
 30
0.0
 10
146.696363777682
 20
318.7901047102189
 30
0.0
 10
147.0542403092146
 20
318.9413121689358
 30
0.0
 10
147.4529090847888
 20
319.0632082396216
 30
0.0
 10
147.8360479018479
 20
319.1420703660636
 30
0.0
 10
148.1846466923603
 20
319.1886429776936
 30
0.0
 10
148.4902939933965
 20
319.2136868472329
 30
0.0
 10
148.6961147666005
 20
319.2167298274159
 30
0.0
 10
148.7993401647362
 20
319.2182559748305
 30
0.0
  0
SPLINE
  5
33A
330
1F
100
AcDbEntity
  8
0
  6
SLD-Сплошная
 62
     7
370
    25
100
AcDbSpline
210
0.0
220
0.0
230
1.0
 70
     8
 71
     3
 72
    14
 73
    10
 74
     0
 42
0.00000001
 43
0.00000001
 40
0.0
 40
0.0
 40
0.0
 40
0.0
 40
0.25
 40
0.25
 40
0.5
 40
0.5
 40
0.75
 40
0.75
 40
1.0
 40
1.0
 40
1.0
 40
1.0
 10
175.2570573902651
 20
320.5781737283299
 30
0.0
 10
175.2570573902651
 20
320.2734454214326
 30
0.0
 10
175.1884858009867
 20
319.9446816928894
 30
0.0
 10
174.8773226032808
 20
319.308096787649
 30
0.0
 10
174.6336764839247
 20
319.0022490820577
 30
0.0
 10
174.0102955775843
 20
318.4973586918343
 30
0.0
 10
173.6326698124568
 20
318.3000241520259
 30
0.0
 10
172.8466875817082
 20
318.0480059931201
 30
0.0
 10
172.4407677324902
 20
317.9924683016109
 30
0.0
 10
172.0645240728373
 20
317.9924683016109
 30
0.0
  0
SPLINE
  5
33B
330
1F
100
AcDbEntity
  8
0
  6
SLD-Сплошная
 62
     7
370
    25
100
AcDbSpline
210
0.0
220
0.0
230
1.0
 70
     8
 71
     3
 72
     9
 73
     5
 74
     0
 42
0.00000001
 43
0.00000001
 40
0.0
 40
0.0
 40
0.0
 40
0.0
 40
0.3773383233418374
 40
0.9999999999999999
 40
0.9999999999999999
 40
0.9999999999999999
 40
0.9999999999999999
 10
174.7808317000622
 20
321.8580221901608
 30
0.0
 10
174.8949103250998
 20
321.714349032541
 30
0.0
 10
175.197234838622
 20
321.3335948161462
 30
0.0
 10
175.234101766894
 20
320.8680503969472
 30
0.0
 10
175.2570573902651
 20
320.5781737283299
 30
0.0
  0
LINE
  5
33C
330
1F
100
AcDbEntity
  8
0
  6
SLD-Сплошная
 62
     7
370
    25
100
AcDbLine
 10
148.7993401647
 20
267.2476892192
 30
0.0
 11
148.7993401647
 21
267.434743494
 31
0.0
  0
LINE
  5
33D
330
1F
100
AcDbEntity
  8
0
  6
SLD-Сплошная
 62
     7
370
    25
100
AcDbLine
 10
152.6993401647
 20
249.3900664035
 30
0.0
 11
166.8993401647
 21
249.3900664035
 31
0.0
  0
SPLINE
  5
33E
330
1F
100
AcDbEntity
  8
0
  6
SLD-Сплошная
 62
     7
370
    25
100
AcDbSpline
210
0.0
220
0.0
230
1.0
 70
     8
 71
     3
 72
    23
 73
    19
 74
     0
 42
0.00000001
 43
0.00000001
 40
0.0
 40
0.0
 40
0.0
 40
0.0
 40
0.031492542682348
 40
0.0629104413524751
 40
0.0943306803136278
 40
0.1258302267101614
 40
0.1880639520694727
 40
0.2503161727208143
 40
0.312906015385866
 40
0.3755138819204631
 40
0.500036564375003
 40
0.624811854790255
 40
0.6873377072585296
 40
0.7498835151489226
 40
0.8121372546210055
 40
0.8744271799043931
 40
0.9372024783736232
 40
0.9999999999999999
 40
0.9999999999999999
 40
0.9999999999999999
 40
0.9999999999999999
 10
148.7993401647362
 20
247.2874006320116
 30
0.0
 10
148.8002495997197
 20
247.3201530034051
 30
0.0
 10
148.8020663141327
 20
247.3855801161183
 30
0.0
 10
148.8168346589162
 20
247.4841853672607
 30
0.0
 10
148.8404362794265
 20
247.5828510778985
 30
0.0
 10
148.8844660479435
 20
247.7135373495527
 30
0.0
 10
148.9621204465489
 20
247.8755038471541
 30
0.0
 10
149.091265777814
 20
248.0660345208042
 30
0.0
 10
149.2551242357046
 20
248.2513190009719
 30
0.0
 10
149.5177745572918
 20
248.4876524352895
 30
0.0
 10
149.9242868054059
 20
248.7590582614887
 30
0.0
 10
150.4196085079452
 20
248.985116172979
 30
0.0
 10
150.8574123324753
 20
249.1324413068957
 30
0.0
 10
151.2035835621065
 20
249.2246830736746
 30
0.0
 10
151.5635502852662
 20
249.2978155104674
 30
0.0
 10
151.9349328475824
 20
249.3503839454146
 30
0.0
 10
152.3147379236694
 20
249.3838779072648
 30
0.0
 10
152.5711242931179
 20
249.3880033280769
 30
0.0
 10
152.6993401647363
 20
249.3900664035296
 30
0.0
  0
SPLINE
  5
33F
330
1F
100
AcDbEntity
  8
0
  6
SLD-Сплошная
 62
     7
370
    25
100
AcDbSpline
210
0.0
220
0.0
230
1.0
 70
     8
 71
     3
 72
    12
 73
     8
 74
     0
 42
0.00000001
 43
0.00000001
 40
0.0
 40
0.0
 40
0.0
 40
0.0
 40
0.2013359503607147
 40
0.4015742139659588
 40
0.6011426226440835
 40
0.8004733214632368
 40
0.9999999999999999
 40
0.9999999999999999
 40
0.9999999999999999
 40
0.9999999999999999
 10
166.8993401647363
 20
249.3900664035296
 30
0.0
 10
166.9602886022462
 20
249.3895664040844
 30
0.0
 10
167.0818531854299
 20
249.3885691311988
 30
0.0
 10
167.263446114795
 20
249.3810806144579
 30
0.0
 10
167.4436129813463
 20
249.3690953806033
 30
0.0
 10
167.6225271229621
 20
249.3526166768264
 30
0.0
 10
167.7403831811741
 20
249.3376892372116
 30
0.0
 10
167.7993401647363
 20
249.3302218500841
 30
0.0
  0
LINE
  5
340
330
1F
100
AcDbEntity
  8
0
  6
SLD-Сплошная
 62
     7
370
    25
100
AcDbLine
 10
172.0645240728
 20
317.9924683016
 30
0.0
 11
171.7993401647
 21
317.9924683016
 31
0.0
  0
LINE
  5
341
330
1F
100
AcDbEntity
  8
0
  6
SLD-Сплошная
 62
     7
370
    25
100
AcDbLine
 10
171.7993401647
 20
350.2102626439
 30
0.0
 11
171.7993401647
 21
326.0755556461
 31
0.0
  0
LINE
  5
342
330
1F
100
AcDbEntity
  8
0
  6
SLD-Сплошная
 62
     7
370
    25
100
AcDbLine
 10
167.7993401647
 20
341.0373691701
 30
0.0
 11
167.7993401647
 21
326.8741626139
 31
0.0
  0
SPLINE
  5
343
330
1F
100
AcDbEntity
  8
0
  6
SLD-Сплошная
 62
     7
370
    25
100
AcDbSpline
210
0.0
220
0.0
230
1.0
 70
     8
 71
     3
 72
    12
 73
     8
 74
     0
 42
0.00000001
 43
0.00000001
 40
0.0
 40
0.0
 40
0.0
 40
0.0
 40
0.1493537344742626
 40
0.3618267070326912
 40
0.5741636231548586
 40
0.7866592915813909
 40
1.0
 40
1.0
 40
1.0
 40
1.0
 10
170.4071997978686
 20
343.3451405475889
 30
0.0
 10
170.4668001815088
 20
343.2100453900847
 30
0.0
 10
170.6111890086537
 20
342.8827617359607
 30
0.0
 10
170.4062572888821
 20
342.3212178814597
 30
0.0
 10
169.8508326087982
 20
341.7495405554611
 30
0.0
 10
168.9574547390202
 20
341.2726661926202
 30
0.0
 10
168.1858887275657
 20
341.1159052043512
 30
0.0
 10
167.7993401647234
 20
341.037369170071
 30
0.0
  0
LINE
  5
344
330
1F
100
AcDbEntity
  8
0
  6
SLD-Сплошная
 62
     7
370
    25
100
AcDbLine
 10
167.7993401647
 20
350.1196870047
 30
0.0
 11
167.7993401647
 21
345.5249510132
 31
0.0
  0
SPLINE
  5
345
330
1F
100
AcDbEntity
  8
0
  6
SLD-Сплошная
 62
     7
370
    25
100
AcDbSpline
210
0.0
220
0.0
230
1.0
 70
     8
 71
     3
 72
    11
 73
     7
 74
     0
 42
0.00000001
 43
0.00000001
 40
0.0
 40
0.0
 40
0.0
 40
0.0
 40
0.1710481470905793
 40
0.446862070989083
 40
0.7228822053609795
 40
1.0
 40
1.0
 40
1.0
 40
1.0
 10
170.4679584089283
 20
350.2072029062362
 30
0.0
 10
170.4420033894755
 20
350.2073783576402
 30
0.0
 10
170.3741960852599
 20
350.2078367231886
 30
0.0
 10
169.8386443880754
 20
350.1814871816631
 30
0.0
 10
168.9605168879359
 20
350.143961905687
 30
0.0
 10
168.1869107933343
 20
350.1277893360887
 30
0.0
 10
167.7993401647234
 20
350.1196870046707
 30
0.0
  0
LINE
  5
346
330
1F
100
AcDbEntity
  8
0
  6
SLD-Сплошная
 62
     7
370
    25
100
AcDbLine
 10
145.7993401647
 20
325.88796628
 30
0.0
 11
145.7993401647
 21
345.7102626439
 31
0.0
  0
SPLINE
  5
347
330
1F
100
AcDbEntity
  8
0
  6
SLD-Сплошная
 62
     7
370
    25
100
AcDbSpline
210
0.0
220
0.0
230
1.0
 70
     8
 71
     3
 72
    23
 73
    19
 74
     0
 42
0.00000001
 43
0.00000001
 40
0.0
 40
0.0
 40
0.0
 40
0.0
 40
0.0312517231295672
 40
0.0624344625847516
 40
0.0936235703295946
 40
0.1248943522875393
 40
0.1874758966406003
 40
0.2501015018965781
 40
0.3123676673985511
 40
0.3746623197403807
 40
0.4997926814601497
 40
0.6244030802010325
 40
0.6868893174484783
 40
0.7493702563073334
 40
0.8119567399881785
 40
0.8745531233297086
 40
0.9372752341030226
 40
1.0
 40
1.0
 40
1.0
 40
1.0
 10
152.6993401647361
 20
339.532261019554
 30
0.0
 10
152.6355531901965
 20
339.5327591031368
 30
0.0
 10
152.5081200416696
 20
339.5337541708545
 30
0.0
 10
152.3174869343212
 20
339.5418391555093
 30
0.0
 10
152.12773283664
 20
339.5547532163421
 30
0.0
 10
151.8762161686408
 20
339.5789777097189
 30
0.0
 10
151.5658547775519
 20
339.6219414505834
 30
0.0
 10
151.2051147764333
 20
339.693317111521
 30
0.0
 10
150.8591484210738
 20
339.7832220835236
 30
0.0
 10
150.4214479082425
 20
339.9267077228193
 30
0.0
 10
149.9255091714878
 20
340.1472069685075
 30
0.0
 10
149.5184814758047
 20
340.4120207456336
 30
0.0
 10
149.2558361710498
 20
340.6421223302646
 30
0.0
 10
149.0917540743846
 20
340.822647914468
 30
0.0
 10
148.9619484585153
 20
341.0087421108857
 30
0.0
 10
148.8690514326683
 20
341.198573979885
 30
0.0
 10
148.8101933746849
 20
341.3901877198275
 30
0.0
 10
148.8029579524324
 20
341.5172943123767
 30
0.0
 10
148.7993401647362
 20
341.5808489537774
 30
0.0
  0
LINE
  5
348
330
1F
100
AcDbEntity
  8
0
  6
SLD-Сплошная
 62
     7
370
    25
100
AcDbLine
 10
166.8993401647
 20
339.5322610196
 30
0.0
 11
152.6993401647
 21
339.5322610196
 31
0.0
  0
SPLINE
  5
349
330
1F
100
AcDbEntity
  8
0
  6
SLD-Сплошная
 62
     7
370
    25
100
AcDbSpline
210
0.0
220
0.0
230
1.0
 70
     8
 71
     3
 72
    12
 73
     8
 74
     0
 42
0.00000001
 43
0.00000001
 40
0.0
 40
0.0
 40
0.0
 40
0.0
 40
0.1995180746653123
 40
0.3988445040882519
 40
0.5984129591658839
 40
0.7986555383462447
 40
1.0
 40
1.0
 40
1.0
 40
1.0
 10
167.7993401647362
 20
339.5906778486886
 30
0.0
 10
167.740385724826
 20
339.5833892359681
 30
0.0
 10
167.6225334731479
 20
339.5688190115366
 30
0.0
 10
167.4436231425794
 20
339.5527338897934
 30
0.0
 10
167.2634562876183
 20
339.5410343192816
 30
0.0
 10
167.0818595674162
 20
339.5337237177819
 30
0.0
 10
166.9602911529037
 20
339.5327494766773
 30
0.0
 10
166.8993401647362
 20
339.5322610195541
 30
0.0
  0
LINE
  5
34A
330
1F
100
AcDbEntity
  8
0
  6
SLD-Сплошная
 62
     7
370
    25
100
AcDbLine
 10
148.7993401647
 20
247.1366140585
 30
0.0
 11
148.7993401647
 21
247.287400632
 31
0.0
  0
LINE
  5
34B
330
1F
100
AcDbEntity
  8
0
  6
SLD-Сплошная
 62
     7
370
    25
100
AcDbLine
 10
170.5393951094
 20
245.9437613451
 30
0.0
 11
170.403310693
 21
245.5089389119
 31
0.0
  0
LINE
  5
34C
330
1F
100
AcDbEntity
  8
0
  6
SLD-Сплошная
 62
     7
370
    25
100
AcDbLine
 10
148.7993401647
 20
341.5809286955
 30
0.0
 11
148.7993401647
 21
341.730217821
 31
0.0
  0
SPLINE
  5
34D
330
1F
100
AcDbEntity
  8
0
  6
SLD-Сплошная
 62
     7
370
    25
100
AcDbSpline
210
0.0
220
0.0
230
1.0
 70
     8
 71
     3
 72
    12
 73
     8
 74
     0
 42
0.00000001
 43
0.00000001
 40
0.0
 40
0.0
 40
0.0
 40
0.0
 40
0.2491479565662062
 40
0.4983746888038781
 40
0.7476259984915786
 40
0.9969262180350194
 40
1.0
 40
1.0
 40
1.0
 40
1.0
 10
167.7993401647362
 20
238.3604794585438
 30
0.0
 10
168.1841176006759
 20
238.3501805601518
 30
0.0
 10
168.953794131594
 20
238.3295795070593
 30
0.0
 10
169.8544303210019
 20
238.2760598101934
 30
0.0
 10
170.3861031272918
 20
238.2335279050606
 30
0.0
 10
170.6020309412798
 20
238.2110638951989
 30
0.0
 10
170.5378575473382
 20
238.2121648842294
 30
0.0
 10
170.537075949314
 20
238.212178293694
 30
0.0
  0
LINE
  5
34E
330
1F
100
AcDbEntity
  8
0
  6
SLD-Сплошная
 62
     7
370
    25
100
AcDbLine
 10
167.7993401647
 20
243.3418808663
 30
0.0
 11
167.7993401647
 21
238.3604794585
 31
0.0
  0
LINE
  5
34F
330
1F
100
AcDbEntity
  8
0
  6
SLD-Сплошная
 62
     7
370
    25
100
AcDbLine
 10
171.7993401647
 20
245.9437613451
 30
0.0
 11
171.7993401647
 21
238.2102626439
 31
0.0
  0
LINE
  5
350
330
1F
100
AcDbEntity
  8
0
  6
SLD-Сплошная
 62
     7
370
    25
100
AcDbLine
 10
152.6993401647
 20
239.8916085539
 30
0.0
 11
166.8993401647
 21
239.8916085539
 31
0.0
  0
SPLINE
  5
351
330
1F
100
AcDbEntity
  8
0
  6
SLD-Сплошная
 62
     7
370
    25
100
AcDbSpline
210
0.0
220
0.0
230
1.0
 70
     8
 71
     3
 72
    23
 73
    19
 74
     0
 42
0.00000001
 43
0.00000001
 40
0.0
 40
0.0
 40
0.0
 40
0.0
 40
0.0314925426988478
 40
0.0629104413744905
 40
0.0943306803302136
 40
0.1258302267105503
 40
0.1880639521585415
 40
0.2503161727217088
 40
0.3129060154244033
 40
0.375513881920526
 40
0.5000365643751554
 40
0.6248118547905315
 40
0.6873377073123185
 40
0.7498835151487876
 40
0.8121372546414997
 40
0.8744271799044947
 40
0.9372024783908995
 40
0.9999999999999999
 40
0.9999999999999999
 40
0.9999999999999999
 40
0.9999999999999999
 10
148.7993401647362
 20
239.7130007526663
 30
0.0
 10
148.8002495997193
 20
239.7137107744991
 30
0.0
 10
148.8020663141312
 20
239.7151291352619
 30
0.0
 10
148.8168346589136
 20
239.7181114126264
 30
0.0
 10
148.8404362794187
 20
239.7217027787085
 30
0.0
 10
148.8844660479988
 20
239.7273284422464
 30
0.0
 10
148.9621204465588
 20
239.735844409741
 30
0.0
 10
149.091265777907
 20
239.748172345772
 30
0.0
 10
149.255124235824
 20
239.7622881142032
 30
0.0
 10
149.5177745572949
 20
239.7828355034783
 30
0.0
 10
149.924286805427
 20
239.810610038848
 30
0.0
 10
150.419608508014
 20
239.8374788576541
 30
0.0
 10
150.8574123325957
 20
239.8562836918826
 30
0.0
 10
151.2035835622437
 20
239.8685430132406
 30
0.0
 10
151.5635502853041
 20
239.8785722772104
 30
0.0
 10
151.9349328476576
 20
239.8859473730892
 30
0.0
 10
152.3147379237062
 20
239.8907202124681
 30
0.0
 10
152.5711242931536
 20
239.8913124051537
 30
0.0
 10
152.6993401647362
 20
239.8916085538978
 30
0.0
  0
SPLINE
  5
352
330
1F
100
AcDbEntity
  8
0
  6
SLD-Сплошная
 62
     7
370
    25
100
AcDbSpline
210
0.0
220
0.0
230
1.0
 70
     8
 71
     3
 72
    12
 73
     8
 74
     0
 42
0.00000001
 43
0.00000001
 40
0.0
 40
0.0
 40
0.0
 40
0.0
 40
0.2013359503680314
 40
0.4015742139769891
 40
0.6011426226551716
 40
0.8004733214706213
 40
1.0
 40
1.0
 40
1.0
 40
1.0
 10
166.8993401647363
 20
239.8916085538978
 30
0.0
 10
166.9602886022484
 20
239.8915369035015
 30
0.0
 10
167.0818531854354
 20
239.8913939933481
 30
0.0
 10
167.2634461148037
 20
239.8903222848307
 30
0.0
 10
167.4436129813551
 20
239.8886137897037
 30
0.0
 10
167.6225271229675
 20
239.8862736538753
 30
0.0
 10
167.7403831811762
 20
239.8841743097882
 30
0.0
 10
167.7993401647363
 20
239.8831241219853
 30
0.0
  0
SPLINE
  5
353
330
1F
100
AcDbEntity
  8
0
  6
SLD-Сплошная
 62
     7
370
    25
100
AcDbSpline
210
0.0
220
0.0
230
1.0
 70
     8
 71
     3
 72
    11
 73
     7
 74
     0
 42
0.00000001
 43
0.00000001
 40
0.0
 40
0.0
 40
0.0
 40
0.0
 40
0.2653934856251176
 40
0.530557310018265
 40
0.7955985553685204
 40
1.0
 40
1.0
 40
1.0
 40
1.0
 10
152.6993401647361
 20
348.594385500466
 30
0.0
 10
152.1878759334942
 20
348.598441760724
 30
0.0
 10
151.1653900723244
 20
348.6065507711093
 30
0.0
 10
149.8829957675079
 20
348.656980082583
 30
0.0
 10
149.0301690694159
 20
348.7028701635643
 30
0.0
 10
148.9174596602342
 20
348.7054760862178
 30
0.0
 10
148.8683845195366
 20
348.7066107387885
 30
0.0
  0
LINE
  5
354
330
1F
100
AcDbEntity
  8
0
  6
SLD-Сплошная
 62
     7
370
    25
100
AcDbLine
 10
166.8993401647
 20
348.5943855005
 30
0.0
 11
152.6993401647
 21
348.5943855005
 31
0.0
  0
SPLINE
  5
355
330
1F
100
AcDbEntity
  8
0
  6
SLD-Сплошная
 62
     7
370
    25
100
AcDbSpline
210
0.0
220
0.0
230
1.0
 70
     8
 71
     3
 72
    12
 73
     8
 74
     0
 42
0.00000001
 43
0.00000001
 40
0.0
 40
0.0
 40
0.0
 40
0.0
 40
0.19951807466194
 40
0.3988445040831871
 40
0.5984129591608427
 40
0.7986555383428924
 40
0.9999999999999999
 40
0.9999999999999999
 40
0.9999999999999999
 40
0.9999999999999999
 10
167.7993401647362
 20
348.601149242778
 30
0.0
 10
167.740385724827
 20
348.6003140417124
 30
0.0
 10
167.6225334731504
 20
348.5986444418261
 30
0.0
 10
167.4436231425834
 20
348.5967780706709
 30
0.0
 10
167.2634562876223
 20
348.5954139253138
 30
0.0
 10
167.0818595674186
 20
348.5945572007448
 30
0.0
 10
166.9602911529047
 20
348.5944428384888
 30
0.0
 10
166.8993401647362
 20
348.594385500466
 30
0.0
  0
LINE
  5
356
330
1F
100
AcDbEntity
  8
0
  6
SLD-Сплошная
 62
     7
370
    25
100
AcDbLine
 10
148.7993401647
 20
239.6120901018
 30
0.0
 11
148.7993401647
 21
239.7130007527
 31
0.0
  0
LINE
  5
357
330
1F
100
AcDbEntity
  8
0
  6
SLD-Сплошная
 62
     7
370
    25
100
AcDbLine
 10
166.8993401647
 20
235.7122242271
 30
0.0
 11
152.6993401647
 21
235.7122242271
 31
0.0
  0
LINE
  5
358
330
1F
100
AcDbEntity
  8
0
  6
SLD-Сплошная
 62
     7
370
    25
100
AcDbLine
 10
166.8993401647
 20
352.7083010606
 30
0.0
 11
152.6993401647
 21
352.7083010606
 31
0.0
  0
LINE
  5
359
330
1F
100
AcDbEntity
  8
0
  6
SLD-Сплошная
 62
     7
370
    25
100
AcDbLine
 10
148.7993401647
 20
348.7092540971
 30
0.0
 11
148.7993401647
 21
348.8084351859
 31
0.0
  0
LINE
  5
35A
330
1F
100
AcDbEntity
  8
0
  6
SLD-Сплошная
 62
     7
370
    25
100
AcDbLine
 10
212.1326734984
 20
-31.2468592111
 30
0.0
 11
215.2993401651
 21
-31.2468592111
 31
0.0
  0
LINE
  5
35B
330
1F
100
AcDbEntity
  8
0
  6
SLD-Сплошная
 62
     7
370
    25
100
AcDbLine
 10
185.2993401651
 20
-31.2468592111
 30
0.0
 11
189.4660068318
 21
-31.2468592111
 31
0.0
  0
LINE
  5
35C
330
1F
100
AcDbEntity
  8
0
  6
SLD-Сплошная
 62
     7
370
    25
100
AcDbLine
 10
206.6716549666
 20
-31.0468592111
 30
0.0
 11
212.1326734984
 21
-31.0468592111
 31
0.0
  0
LINE
  5
35D
330
1F
100
AcDbEntity
  8
0
  6
SLD-Сплошная
 62
     7
370
    25
100
AcDbLine
 10
189.4660068318
 20
-31.0468592111
 30
0.0
 11
194.9270253636
 21
-31.0468592111
 31
0.0
  0
LINE
  5
35E
330
1F
100
AcDbEntity
  8
0
  6
SLD-Сплошная
 62
     7
370
    25
100
AcDbLine
 10
203.4685812166
 20
-31.2468592111
 30
0.0
 11
206.6716549666
 21
-31.2468592111
 31
0.0
  0
LINE
  5
35F
330
1F
100
AcDbEntity
  8
0
  6
SLD-Сплошная
 62
     7
370
    25
100
AcDbLine
 10
199.1978032901
 20
-31.2468592111
 30
0.0
 11
202.4008770401
 21
-31.2468592111
 31
0.0
  0
LINE
  5
360
330
1F
100
AcDbEntity
  8
0
  6
SLD-Сплошная
 62
     7
370
    25
100
AcDbLine
 10
194.9270253636
 20
-31.2468592111
 30
0.0
 11
198.1300991136
 21
-31.2468592111
 31
0.0
  0
LINE
  5
361
330
1F
100
AcDbEntity
  8
0
  6
SLD-Сплошная
 62
     7
370
    25
100
AcDbLine
 10
270.7993401651
 20
30.4718276019
 30
0.0
 11
269.2993401651
 21
30.4718276019
 31
0.0
  0
LINE
  5
362
330
1F
100
AcDbEntity
  8
0
  6
SLD-Сплошная
 62
     7
370
    25
100
AcDbLine
 10
152.6993401647
 20
4.1994473818
 30
0.0
 11
166.8993401647
 21
4.1994473818
 31
0.0
  0
LINE
  5
363
330
1F
100
AcDbEntity
  8
0
  6
SLD-Сплошная
 62
     7
370
    25
100
AcDbLine
 10
166.8993401647
 20
12.1994473818
 30
0.0
 11
152.6993401647
 21
12.1994473818
 31
0.0
  0
LINE
  5
364
330
1F
100
AcDbEntity
  8
0
  6
SLD-Сплошная
 62
     7
370
    25
100
AcDbLine
 10
194.2993401651
 20
-2.2468592111
 30
0.0
 11
194.2993401651
 21
17.7531407889
 31
0.0
  0
LINE
  5
365
330
1F
100
AcDbEntity
  8
0
  6
SLD-Сплошная
 62
     7
370
    25
100
AcDbLine
 10
170.4679584089
 20
-48.24685921
 30
0.0
 11
171.7993401647
 21
-48.24685921
 31
0.0
  0
LINE
  5
366
330
1F
100
AcDbEntity
  8
0
  6
SLD-Сплошная
 62
     7
370
    25
100
AcDbLine
 10
170.052164807
 20
40.41704076
 30
0.0
 11
147.8705753112
 21
40.41704076
 31
0.0
  0
SPLINE
  5
367
330
1F
100
AcDbEntity
  8
0
  6
SLD-Сплошная
 62
     7
370
    25
100
AcDbSpline
210
0.0
220
0.0
230
1.0
 70
     8
 71
     3
 72
    11
 73
     7
 74
     0
 42
0.00000001
 43
0.00000001
 40
0.0
 40
0.0
 40
0.0
 40
0.0
 40
0.2741947956731373
 40
0.5451002737499593
 40
0.7912759431513239
 40
1.0
 40
1.0
 40
1.0
 40
1.0
 10
171.9559757456128
 20
39.41584385526507
 30
0.0
 10
171.8216618695311
 20
39.58108686924926
 30
0.0
 10
171.5546453842591
 20
39.90959059572197
 30
0.0
 10
171.0310629534152
 20
40.22529121058806
 30
0.0
 10
170.506376318326
 20
40.39560888772911
 30
0.0
 10
170.1874378060975
 20
40.40976295110605
 30
0.0
 10
170.0410975550132
 20
40.41625733516137
 30
0.0
  0
SPLINE
  5
368
330
1F
100
AcDbEntity
  8
0
  6
SLD-Сплошная
 62
     7
370
    25
100
AcDbSpline
210
0.0
220
0.0
230
1.0
 70
     8
 71
     3
 72
    10
 73
     6
 74
     0
 42
0.00000001
 43
0.00000001
 40
0.0
 40
0.0
 40
0.0
 40
0.0
 40
0.3699322924744653
 40
0.6481229306904829
 40
0.9999999999999999
 40
0.9999999999999999
 40
0.9999999999999999
 40
0.9999999999999999
 10
147.8787993819487
 20
40.41625791376886
 30
0.0
 10
147.714460890336
 20
40.40662058832589
 30
0.0
 10
147.4265391625603
 20
40.38973595365849
 30
0.0
 10
146.9797918172609
 20
40.24735482723869
 30
0.0
 10
146.7280274653135
 20
40.08963582610274
 30
0.0
 10
146.5874233663227
 20
40.00155370535401
 30
0.0
  0
LINE
  5
369
330
1F
100
AcDbEntity
  8
0
  6
SLD-Сплошная
 62
     7
370
    25
100
AcDbLine
 10
146.5872507152
 20
40.0014322712
 30
0.0
 11
141.8153092775
 21
36.5456950938
 31
0.0
  0
ARC
  5
36A
330
1F
100
AcDbEntity
  8
0
  6
SLD-Сплошная
 62
     7
370
    25
100
AcDbCircle
 10
166.8993401647
 20
-19.2094326347
 30
0.0
 40
3.899999999999999
100
AcDbArc
 50
270.0
 51
313.0038408682
  0
LINE
  5
36B
330
1F
100
AcDbEntity
  8
0
  6
SLD-Сплошная
 62
     7
370
    25
100
AcDbLine
 10
174.819433624
 20
35.4277276352
 30
0.0
 11
171.9298664899
 21
39.4534081236
 31
0.0
  0
ARC
  5
36C
330
1F
100
AcDbEntity
  8
0
  6
SLD-Сплошная
 62
     7
370
    25
100
AcDbCircle
 10
152.6993401647
 20
-19.2094326347
 30
0.0
 40
3.900000000000006
100
AcDbArc
 50
180.0
 51
270.0
  0
LINE
  5
36D
330
1F
100
AcDbEntity
  8
0
  6
SLD-Сплошная
 62
     7
370
    25
100
AcDbLine
 10
152.6993401647
 20
-23.1094326347
 30
0.0
 11
166.8993401647
 21
-23.1094326347
 31
0.0
  0
LWPOLYLINE
  5
36E
330
1F
100
AcDbEntity
  8
0
  6
SLD-Сплошная
 62
     7
370
    25
100
AcDbPolyline
 90
        3
 70
   128
 43
0.0
 10
145.7993401647
 20
48.8421761378
 10
145.2774128511
 20
44.3726090708
 10
144.696093568
 20
38.6318970103
  0
ARC
  5
36F
330
1F
100
AcDbEntity
  8
0
  6
SLD-Сплошная
 62
     7
370
    25
100
AcDbCircle
 10
478.2699270955
 20
7.7531407889
 30
0.0
 40
335.0
100
AcDbArc
 50
175.9416328503
 51
180.0
  0
ARC
  5
370
330
1F
100
AcDbEntity
  8
0
  6
SLD-Сплошная
 62
     7
370
    25
100
AcDbCircle
 10
478.2699270955
 20
7.7531407889
 30
0.0
 40
335.0
100
AcDbArc
 50
180.0
 51
187.0452879194
  0
SPLINE
  5
371
330
1F
100
AcDbEntity
  8
0
  6
SLD-Сплошная
 62
     7
370
    25
100
AcDbSpline
210
0.0
220
0.0
230
1.0
 70
     8
 71
     3
 72
    15
 73
    11
 74
     0
 42
0.00000001
 43
0.00000001
 40
0.0
 40
0.0
 40
0.0
 40
0.0
 40
0.1116153624924212
 40
0.2297477631720331
 40
0.3524193293238736
 40
0.477921276686592
 40
0.6052801214558681
 40
0.7343620833448936
 40
0.8656756739029869
 40
1.0
 40
1.0
 40
1.0
 40
1.0
 10
140.6413725447242
 20
34.33225253430516
 30
0.0
 10
140.6514348842412
 20
34.15813988191773
 30
0.0
 10
140.672147086797
 20
33.7997484245708
 30
0.0
 10
140.8480654191081
 20
33.27382038718027
 30
0.0
 10
141.1364473353989
 20
32.77202401847133
 30
0.0
 10
141.539102755575
 20
32.3247525067348
 30
0.0
 10
142.0348569537009
 20
31.95429878415419
 30
0.0
 10
142.6027692934071
 20
31.67878650186024
 30
0.0
 10
143.2223263287686
 20
31.49864007517784
 30
0.0
 10
143.6472228579195
 20
31.47452244294076
 30
0.0
 10
143.8620790074399
 20
31.46232695240954
 30
0.0
  0
LINE
  5
372
330
1F
100
AcDbEntity
  8
0
  6
SLD-Сплошная
 62
     7
370
    25
100
AcDbLine
 10
171.7993401647
 20
63.75314079
 30
0.0
 11
170.4679584089
 21
63.75314079
 31
0.0
  0
LINE
  5
373
330
1F
100
AcDbEntity
  8
0
  6
SLD-Сплошная
 62
     7
370
    25
100
AcDbLine
 10
143.8620790074
 20
31.4619801508
 30
0.0
 11
145.7993401647
 21
31.4619801508
 31
0.0
  0
SPLINE
  5
374
330
1F
100
AcDbEntity
  8
0
  6
SLD-Сплошная
 62
     7
370
    25
100
AcDbSpline
210
0.0
220
0.0
230
1.0
 70
     8
 71
     3
 72
    11
 73
     7
 74
     0
 42
0.00000001
 43
0.00000001
 40
0.0
 40
0.0
 40
0.0
 40
0.0
 40
0.22311852035133
 40
0.4633141679762715
 40
0.7230742920716431
 40
1.0
 40
1.0
 40
1.0
 40
1.0
 10
141.8147519159527
 20
36.54529060631323
 30
0.0
 10
141.6653656992053
 20
36.42436744346642
 30
0.0
 10
141.3551594885757
 20
36.17326585631348
 30
0.0
 10
140.9836737848197
 20
35.66539969450751
 30
0.0
 10
140.7015630150572
 20
35.04348173360162
 30
0.0
 10
140.6618597544563
 20
34.57435651130874
 30
0.0
 10
140.6413731813201
 20
34.33229155162716
 30
0.0
  0
ARC
  5
375
330
1F
100
AcDbEntity
  8
0
  6
SLD-Сплошная
 62
     7
370
    25
100
AcDbCircle
 10
148.7993401647
 20
59.25314079
 30
0.0
 40
3.0
100
AcDbArc
 50
90.0
 51
180.0
  0
ARC
  5
376
330
1F
100
AcDbEntity
  8
0
  6
SLD-Сплошная
 62
     7
370
    25
100
AcDbCircle
 10
166.8993401647
 20
-39.3205077954
 30
0.0
 40
3.90000000000003
100
AcDbArc
 50
270.0
 51
335.058062338
  0
ARC
  5
377
330
1F
100
AcDbEntity
  8
0
  6
SLD-Сплошная
 62
     7
370
    25
100
AcDbCircle
 10
152.6993401647
 20
-39.3205077954
 30
0.0
 40
3.900000000000006
100
AcDbArc
 50
180.0
 51
270.0
  0
ARC
  5
378
330
1F
100
AcDbEntity
  8
0
  6
SLD-Сплошная
 62
     7
370
    25
100
AcDbCircle
 10
166.8993401647
 20
55.2730959671
 30
0.0
 40
3.900000000000006
100
AcDbArc
 50
24.7970403845
 51
90.0
  0
ARC
  5
379
330
1F
100
AcDbEntity
  8
0
  6
SLD-Сплошная
 62
     7
370
    25
100
AcDbCircle
 10
152.6993401647
 20
55.2730959671
 30
0.0
 40
3.900000000000006
100
AcDbArc
 50
90.0
 51
180.0
  0
LINE
  5
37A
330
1F
100
AcDbEntity
  8
0
  6
SLD-Сплошная
 62
     7
370
    25
100
AcDbLine
 10
152.6993401647
 20
-43.2205077954
 30
0.0
 11
166.8993401647
 21
-43.2205077954
 31
0.0
  0
LINE
  5
37B
330
1F
100
AcDbEntity
  8
0
  6
SLD-Сплошная
 62
     7
370
    25
100
AcDbLine
 10
166.8993401647
 20
59.1730959671
 30
0.0
 11
152.6993401647
 21
59.1730959671
 31
0.0
  0
ARC
  5
37C
330
1F
100
AcDbEntity
  8
0
  6
SLD-Сплошная
 62
     7
370
    25
100
AcDbCircle
 10
148.7993401647
 20
-43.74685921
 30
0.0
 40
3.0
100
AcDbArc
 50
180.0
 51
270.0
  0
ARC
  5
37D
330
1F
100
AcDbEntity
  8
0
  6
SLD-Сплошная
 62
     7
370
    25
100
AcDbCircle
 10
166.8993401647
 20
-46.8450317521
 30
0.0
 40
3.900000000000019
100
AcDbArc
 50
270.0
 51
338.9646103288
  0
ARC
  5
37E
330
1F
100
AcDbEntity
  8
0
  6
SLD-Сплошная
 62
     7
370
    25
100
AcDbCircle
 10
152.6993401647
 20
-46.8450317521
 30
0.0
 40
3.900000000000006
100
AcDbArc
 50
180.0
 51
270.0
  0
ARC
  5
37F
330
1F
100
AcDbEntity
  8
0
  6
SLD-Сплошная
 62
     7
370
    25
100
AcDbCircle
 10
152.6993401647
 20
62.3513133321
 30
0.0
 40
3.900000000000006
100
AcDbArc
 50
90.0
 51
180.0
  0
ARC
  5
380
330
1F
100
AcDbEntity
  8
0
  6
SLD-Сплошная
 62
     7
370
    25
100
AcDbCircle
 10
166.8993401647
 20
62.3513133321
 30
0.0
 40
3.899999999999991
100
AcDbArc
 50
21.0626934662
 51
90.0
  0
SPLINE
  5
381
330
1F
100
AcDbEntity
  8
0
  6
SLD-Сплошная
 62
     7
370
    25
100
AcDbSpline
210
0.0
220
0.0
230
1.0
 70
     8
 71
     3
 72
    11
 73
     7
 74
     0
 42
0.00000001
 43
0.00000001
 40
0.0
 40
0.0
 40
0.0
 40
0.0
 40
0.2769257079283228
 40
0.5366858320236813
 40
0.7768814796486663
 40
1.0
 40
1.0
 40
1.0
 40
1.0
 10
140.6413731813201
 20
-18.82600997161724
 30
0.0
 10
140.6618597544565
 20
-19.06807493129866
 30
0.0
 10
140.7015630150575
 20
-19.53720015359122
 30
0.0
 10
140.9836737848201
 20
-20.15911811449658
 30
0.0
 10
141.3551594885759
 20
-20.66698427630222
 30
0.0
 10
141.6653656992053
 20
-20.918085863455
 30
0.0
 10
141.8147519159526
 20
-21.03900902630174
 30
0.0
  0
LINE
  5
382
330
1F
100
AcDbEntity
  8
0
  6
SLD-Сплошная
 62
     7
370
    25
100
AcDbLine
 10
141.8153092775
 20
-21.0394135137
 30
0.0
 11
144.6960935678
 21
-23.1256154301
 31
0.0
  0
SPLINE
  5
383
330
1F
100
AcDbEntity
  8
0
  6
SLD-Сплошная
 62
     7
370
    25
100
AcDbSpline
210
0.0
220
0.0
230
1.0
 70
     8
 71
     3
 72
    13
 73
     9
 74
     0
 42
0.00000001
 43
0.00000001
 40
0.0
 40
0.0
 40
0.0
 40
0.0
 40
0.1782809427982496
 40
0.3969230909980229
 40
0.5259208955358078
 40
0.6697982898479552
 40
0.8286653288896841
 40
1.0
 40
1.0
 40
1.0
 40
1.0
 10
143.86207900744
 20
-15.95604537239813
 30
0.0
 10
143.5747959969686
 20
-15.97648952288738
 30
0.0
 10
142.9351916807824
 20
-16.02200619605309
 30
0.0
 10
142.1341566921218
 20
-16.36920475443921
 30
0.0
 10
141.4999648441342
 20
-16.85189551769858
 30
0.0
 10
141.0520480550852
 20
-17.38267028748258
 30
0.0
 10
140.7109007506448
 20
-18.05982057091848
 30
0.0
 10
140.6651247444436
 20
-18.56423894668522
 30
0.0
 10
140.6413725447242
 20
-18.82597095429415
 30
0.0
  0
LINE
  5
384
330
1F
100
AcDbEntity
  8
0
  6
SLD-Сплошная
 62
     7
370
    25
100
AcDbLine
 10
144.1099490368
 20
-15.9556985708
 30
0.0
 11
143.8620790074
 21
-15.9556985708
 31
0.0
  0
LINE
  5
385
330
1F
100
AcDbEntity
  8
0
  6
SLD-Сплошная
 62
     7
370
    25
100
AcDbLine
 10
225.7993401651
 20
66.2531407889
 30
0.0
 11
235.2993401651
 21
66.2531407889
 31
0.0
  0
LINE
  5
386
330
1F
100
AcDbEntity
  8
0
  6
SLD-Сплошная
 62
     7
370
    25
100
AcDbLine
 10
235.2993401651
 20
66.2531407889
 30
0.0
 11
235.2993401651
 21
61.2531407889
 31
0.0
  0
LINE
  5
387
330
1F
100
AcDbEntity
  8
0
  6
SLD-Сплошная
 62
     7
370
    25
100
AcDbLine
 10
225.7993401651
 20
61.2531407889
 30
0.0
 11
225.7993401651
 21
66.2531407889
 31
0.0
  0
LINE
  5
388
330
1F
100
AcDbEntity
  8
0
  6
SLD-Сплошная
 62
     7
370
    25
100
AcDbLine
 10
235.2993401651
 20
61.2531407889
 30
0.0
 11
235.2993401651
 21
-45.7468592111
 31
0.0
  0
LINE
  5
389
330
1F
100
AcDbEntity
  8
0
  6
SLD-Сплошная
 62
     7
370
    25
100
AcDbLine
 10
225.7993401651
 20
-45.7468592111
 30
0.0
 11
225.7993401651
 21
61.2531407889
 31
0.0
  0
LINE
  5
38A
330
1F
100
AcDbEntity
  8
0
  6
SLD-Сплошная
 62
     7
370
    25
100
AcDbLine
 10
235.2993401651
 20
-50.7468592111
 30
0.0
 11
225.7993401651
 21
-50.7468592111
 31
0.0
  0
LINE
  5
38B
330
1F
100
AcDbEntity
  8
0
  6
SLD-Сплошная
 62
     7
370
    25
100
AcDbLine
 10
235.2993401651
 20
-45.7468592111
 30
0.0
 11
235.2993401651
 21
-50.7468592111
 31
0.0
  0
LINE
  5
38C
330
1F
100
AcDbEntity
  8
0
  6
SLD-Сплошная
 62
     7
370
    25
100
AcDbLine
 10
225.7993401651
 20
-50.7468592111
 30
0.0
 11
225.7993401651
 21
-45.7468592111
 31
0.0
  0
LINE
  5
38D
330
1F
100
AcDbEntity
  8
0
  6
SLD-Сплошная
 62
     7
370
    25
100
AcDbLine
 10
185.7993401651
 20
18.2531407889
 30
0.0
 11
179.2993401651
 21
18.2531407889
 31
0.0
  0
LINE
  5
38E
330
1F
100
AcDbEntity
  8
0
  6
SLD-Сплошная
 62
     7
370
    25
100
AcDbLine
 10
179.2993401651
 20
18.2531407889
 30
0.0
 11
179.2993401651
 21
23.2531407889
 31
0.0
  0
LINE
  5
38F
330
1F
100
AcDbEntity
  8
0
  6
SLD-Сплошная
 62
     7
370
    25
100
AcDbLine
 10
179.2993401651
 20
23.2531407889
 30
0.0
 11
185.7993401651
 21
23.2531407889
 31
0.0
  0
LINE
  5
390
330
1F
100
AcDbEntity
  8
0
  6
SLD-Сплошная
 62
     7
370
    25
100
AcDbLine
 10
193.6104015969
 20
18.2531407889
 30
0.0
 11
187.2513704261
 21
18.2531407889
 31
0.0
  0
LINE
  5
391
330
1F
100
AcDbEntity
  8
0
  6
SLD-Сплошная
 62
     7
370
    25
100
AcDbLine
 10
187.2513704261
 20
23.2531407889
 30
0.0
 11
193.6104015969
 21
23.2531407889
 31
0.0
  0
LINE
  5
392
330
1F
100
AcDbEntity
  8
0
  6
SLD-Сплошная
 62
     7
370
    25
100
AcDbLine
 10
187.2513704261
 20
18.2531407889
 30
0.0
 11
185.7993401651
 21
18.2531407889
 31
0.0
  0
LINE
  5
393
330
1F
100
AcDbEntity
  8
0
  6
SLD-Сплошная
 62
     7
370
    25
100
AcDbLine
 10
185.7993401651
 20
23.2531407889
 30
0.0
 11
187.2513704261
 21
23.2531407889
 31
0.0
  0
LINE
  5
394
330
1F
100
AcDbEntity
  8
0
  6
SLD-Сплошная
 62
     7
370
    25
100
AcDbLine
 10
187.2513704261
 20
-2.7468592111
 30
0.0
 11
193.6104015969
 21
-2.7468592111
 31
0.0
  0
LINE
  5
395
330
1F
100
AcDbEntity
  8
0
  6
SLD-Сплошная
 62
     7
370
    25
100
AcDbLine
 10
193.6104015969
 20
-7.7468592111
 30
0.0
 11
187.2513704261
 21
-7.7468592111
 31
0.0
  0
LINE
  5
396
330
1F
100
AcDbEntity
  8
0
  6
SLD-Сплошная
 62
     7
370
    25
100
AcDbLine
 10
179.2993401651
 20
-2.7468592111
 30
0.0
 11
185.7993401651
 21
-2.7468592111
 31
0.0
  0
LINE
  5
397
330
1F
100
AcDbEntity
  8
0
  6
SLD-Сплошная
 62
     7
370
    25
100
AcDbLine
 10
185.7993401651
 20
-7.7468592111
 30
0.0
 11
179.2993401651
 21
-7.7468592111
 31
0.0
  0
LINE
  5
398
330
1F
100
AcDbEntity
  8
0
  6
SLD-Сплошная
 62
     7
370
    25
100
AcDbLine
 10
179.2993401651
 20
-7.7468592111
 30
0.0
 11
179.2993401651
 21
-2.7468592111
 31
0.0
  0
LINE
  5
399
330
1F
100
AcDbEntity
  8
0
  6
SLD-Сплошная
 62
     7
370
    25
100
AcDbLine
 10
187.2513704261
 20
-7.7468592111
 30
0.0
 11
185.7993401651
 21
-7.7468592111
 31
0.0
  0
LINE
  5
39A
330
1F
100
AcDbEntity
  8
0
  6
SLD-Сплошная
 62
     7
370
    25
100
AcDbLine
 10
187.2513704261
 20
-2.7468592111
 30
0.0
 11
185.7993401651
 21
-2.7468592111
 31
0.0
  0
LINE
  5
39B
330
1F
100
AcDbEntity
  8
0
  6
SLD-Сплошная
 62
     7
370
    25
100
AcDbLine
 10
198.5656336101
 20
18.2531407889
 30
0.0
 11
198.5656336101
 21
-2.7468592111
 31
0.0
  0
SPLINE
  5
39C
330
1F
100
AcDbEntity
  8
0
  6
SLD-Сплошная
 62
     7
370
    25
100
AcDbSpline
210
0.0
220
0.0
230
1.0
 70
     8
 71
     3
 72
    18
 73
    14
 74
     0
 42
0.00000001
 43
0.00000001
 40
0.0
 40
0.0
 40
0.0
 40
0.0
 40
0.2499999999999999
 40
0.2499999999999999
 40
0.3749999999999999
 40
0.3749999999999999
 40
0.4999999999999999
 40
0.4999999999999999
 40
0.6249999999999999
 40
0.6249999999999999
 40
0.7499999999999998
 40
0.7499999999999998
 40
1.0
 40
1.0
 40
1.0
 40
1.0
 10
224.2993401650849
 20
-7.746859211136811
 30
0.0
 10
222.6562616582382
 20
-5.376315198562352
 30
0.0
 10
221.3593244691551
 20
-2.852907449609416
 30
0.0
 10
220.0472081776062
 20
1.06063780187856
 30
0.0
 10
219.7148018182088
 20
2.386166802807068
 30
0.0
 10
219.2703752692938
 20
5.05886202336236
 30
0.0
 10
219.158373791107
 20
6.405991748803883
 30
0.0
 10
219.158373791107
 20
9.100289828922449
 30
0.0
 10
219.2703752692938
 20
10.44741955436401
 30
0.0
 10
219.7148018182088
 20
13.1201147749193
 30
0.0
 10
220.0472081776062
 20
14.44564377584778
 30
0.0
 10
221.3593244691551
 20
18.35918902733576
 30
0.0
 10
222.6562616582382
 20
20.88259677628873
 30
0.0
 10
224.2993401650849
 20
23.2531407888632
 30
0.0
  0
LINE
  5
39D
330
1F
100
AcDbEntity
  8
0
  6
SLD-Сплошная
 62
     7
370
    25
100
AcDbLine
 10
224.2993401651
 20
-7.7468592111
 30
0.0
 11
193.6104015969
 21
-7.7468592111
 31
0.0
  0
LINE
  5
39E
330
1F
100
AcDbEntity
  8
0
  6
SLD-Сплошная
 62
     7
370
    25
100
AcDbLine
 10
198.5656336101
 20
-2.7468592111
 30
0.0
 11
193.6104015969
 21
-2.7468592111
 31
0.0
  0
LINE
  5
39F
330
1F
100
AcDbEntity
  8
0
  6
SLD-Сплошная
 62
     7
370
    25
100
AcDbLine
 10
224.2993401651
 20
23.2531407889
 30
0.0
 11
193.6104015969
 21
23.2531407889
 31
0.0
  0
LINE
  5
3A0
330
1F
100
AcDbEntity
  8
0
  6
SLD-Сплошная
 62
     7
370
    25
100
AcDbLine
 10
193.6104015969
 20
18.2531407889
 30
0.0
 11
198.5656336101
 21
18.2531407889
 31
0.0
  0
LINE
  5
3A1
330
1F
100
AcDbEntity
  8
0
  6
SLD-Сплошная
 62
     7
370
    25
100
AcDbLine
 10
197.0034602303
 20
-2.7468592111
 30
0.0
 11
197.0034602303
 21
18.2531407889
 31
0.0
  0
LINE
  5
3A2
330
1F
100
AcDbEntity
  8
0
  6
SLD-Сплошная
 62
     7
370
    25
100
AcDbLine
 10
247.7993401651
 20
-42.3468592111
 30
0.0
 11
238.2993401651
 21
-42.3468563802
 31
0.0
  0
LINE
  5
3A3
330
1F
100
AcDbEntity
  8
0
  6
SLD-Сплошная
 62
     7
370
    25
100
AcDbLine
 10
247.7993401651
 20
57.8531407889
 30
0.0
 11
238.2993401651
 21
57.8531379579
 31
0.0
  0
LINE
  5
3A4
330
1F
100
AcDbEntity
  8
0
  6
SLD-Сплошная
 62
     7
370
    25
100
AcDbLine
 10
247.7993401651
 20
57.8531407889
 30
0.0
 11
247.7993401651
 21
-42.3468592111
 31
0.0
  0
LINE
  5
3A5
330
1F
100
AcDbEntity
  8
0
  6
SLD-Сплошная
 62
     7
370
    25
100
AcDbLine
 10
189.4660068318
 20
-31.2468592111
 30
0.0
 11
189.4660068318
 21
-26.7094726014
 31
0.0
  0
LINE
  5
3A6
330
1F
100
AcDbEntity
  8
0
  6
SLD-Сплошная
 62
     7
370
    25
100
AcDbLine
 10
212.1326734984
 20
-31.2468592111
 30
0.0
 11
212.1326734984
 21
-26.7094726014
 31
0.0
  0
LINE
  5
3A7
330
1F
100
AcDbEntity
  8
0
  6
SLD-Сплошная
 62
     7
370
    25
100
AcDbLine
 10
212.1326734984
 20
-26.7094726014
 30
0.0
 11
189.4660068318
 21
-26.7094726014
 31
0.0
  0
LINE
  5
3A8
330
1F
100
AcDbEntity
  8
0
  6
SLD-Сплошная
 62
     7
370
    25
100
AcDbLine
 10
185.2993401651
 20
-31.2468592111
 30
0.0
 11
171.7993401647
 21
-31.2468592111
 31
0.0
  0
LINE
  5
3A9
330
1F
100
AcDbEntity
  8
0
  6
SLD-Сплошная
 62
     7
370
    25
100
AcDbLine
 10
225.7993401651
 20
46.7531407889
 30
0.0
 11
171.7993401647
 21
46.7531407889
 31
0.0
  0
LINE
  5
3AA
330
1F
100
AcDbEntity
  8
0
  6
SLD-Сплошная
 62
     7
370
    25
100
AcDbLine
 10
225.7993401651
 20
-31.2468592111
 30
0.0
 11
215.2993401651
 21
-31.2468592111
 31
0.0
  0
LINE
  5
3AB
330
1F
100
AcDbEntity
  8
0
  6
SLD-Сплошная
 62
     7
370
    25
100
AcDbLine
 10
247.7993401651
 20
45.2531407889
 30
0.0
 11
269.2993401651
 21
45.2531407889
 31
0.0
  0
LINE
  5
3AC
330
1F
100
AcDbEntity
  8
0
  6
SLD-Сплошная
 62
     7
370
    25
100
AcDbLine
 10
247.7993401651
 20
-29.7468592111
 30
0.0
 11
269.2993401651
 21
-29.7468592111
 31
0.0
  0
LINE
  5
3AD
330
1F
100
AcDbEntity
  8
0
  6
SLD-Сплошная
 62
     7
370
    25
100
AcDbLine
 10
248.2993401651
 20
21.7302216432
 30
0.0
 11
248.2993401651
 21
15.2302216432
 31
0.0
  0
LINE
  5
3AE
330
1F
100
AcDbEntity
  8
0
  6
SLD-Сплошная
 62
     7
370
    25
100
AcDbLine
 10
248.2993401651
 20
15.2302216432
 30
0.0
 11
266.2993401651
 21
15.2302216432
 31
0.0
  0
LINE
  5
3AF
330
1F
100
AcDbEntity
  8
0
  6
SLD-Сплошная
 62
     7
370
    25
100
AcDbLine
 10
266.2993401651
 20
15.2302216432
 30
0.0
 11
266.2993401651
 21
21.7302216432
 31
0.0
  0
LINE
  5
3B0
330
1F
100
AcDbEntity
  8
0
  6
SLD-Сплошная
 62
     7
370
    25
100
AcDbLine
 10
248.2993401651
 20
21.7302216432
 30
0.0
 11
266.2993401651
 21
21.7302216432
 31
0.0
  0
LINE
  5
3B1
330
1F
100
AcDbEntity
  8
0
  6
SLD-Сплошная
 62
     7
370
    25
100
AcDbLine
 10
248.2993401651
 20
9.5031407889
 30
0.0
 11
248.2993401651
 21
6.0031407889
 31
0.0
  0
LINE
  5
3B2
330
1F
100
AcDbEntity
  8
0
  6
SLD-Сплошная
 62
     7
370
    25
100
AcDbLine
 10
266.2993401651
 20
6.0031407889
 30
0.0
 11
248.2993401651
 21
6.0031407889
 31
0.0
  0
LINE
  5
3B3
330
1F
100
AcDbEntity
  8
0
  6
SLD-Сплошная
 62
     7
370
    25
100
AcDbLine
 10
266.2993401651
 20
6.0031407889
 30
0.0
 11
266.2993401651
 21
9.5031407889
 31
0.0
  0
LINE
  5
3B4
330
1F
100
AcDbEntity
  8
0
  6
SLD-Сплошная
 62
     7
370
    25
100
AcDbLine
 10
248.2993401651
 20
9.5031407889
 30
0.0
 11
266.2993401651
 21
9.5031407889
 31
0.0
  0
LINE
  5
3B5
330
1F
100
AcDbEntity
  8
0
  6
SLD-Сплошная
 62
     7
370
    25
100
AcDbLine
 10
248.2993401651
 20
0.2760599345
 30
0.0
 11
248.2993401651
 21
-6.2239400655
 31
0.0
  0
LINE
  5
3B6
330
1F
100
AcDbEntity
  8
0
  6
SLD-Сплошная
 62
     7
370
    25
100
AcDbLine
 10
248.2993401651
 20
-6.2239400655
 30
0.0
 11
266.2993401651
 21
-6.2239400655
 31
0.0
  0
LINE
  5
3B7
330
1F
100
AcDbEntity
  8
0
  6
SLD-Сплошная
 62
     7
370
    25
100
AcDbLine
 10
266.2993401651
 20
-6.2239400655
 30
0.0
 11
266.2993401651
 21
0.2760599345
 31
0.0
  0
LINE
  5
3B8
330
1F
100
AcDbEntity
  8
0
  6
SLD-Сплошная
 62
     7
370
    25
100
AcDbLine
 10
248.2993401651
 20
0.2760599345
 30
0.0
 11
266.2993401651
 21
0.2760599345
 31
0.0
  0
LINE
  5
3B9
330
1F
100
AcDbEntity
  8
0
  6
SLD-Сплошная
 62
     7
370
    25
100
AcDbLine
 10
248.2993401651
 20
-20.2682452478
 30
0.0
 11
248.2993401651
 21
-24.6339994155
 31
0.0
  0
LINE
  5
3BA
330
1F
100
AcDbEntity
  8
0
  6
SLD-Сплошная
 62
     7
370
    25
100
AcDbLine
 10
266.2993401651
 20
-24.6339994155
 30
0.0
 11
248.2993401651
 21
-24.6339994155
 31
0.0
  0
LINE
  5
3BB
330
1F
100
AcDbEntity
  8
0
  6
SLD-Сплошная
 62
     7
370
    25
100
AcDbLine
 10
266.2993401651
 20
-24.6339994155
 30
0.0
 11
266.2993401651
 21
-20.2682452478
 31
0.0
  0
LINE
  5
3BC
330
1F
100
AcDbEntity
  8
0
  6
SLD-Сплошная
 62
     7
370
    25
100
AcDbLine
 10
248.2993401651
 20
-20.2682452478
 30
0.0
 11
266.2993401651
 21
-20.2682452478
 31
0.0
  0
LINE
  5
3BD
330
1F
100
AcDbEntity
  8
0
  6
SLD-Сплошная
 62
     7
370
    25
100
AcDbLine
 10
248.2993401651
 20
40.1402809932
 30
0.0
 11
266.2993401651
 21
40.1402809932
 31
0.0
  0
LINE
  5
3BE
330
1F
100
AcDbEntity
  8
0
  6
SLD-Сплошная
 62
     7
370
    25
100
AcDbLine
 10
248.2993401651
 20
40.1402809932
 30
0.0
 11
248.2993401651
 21
35.7745268256
 31
0.0
  0
LINE
  5
3BF
330
1F
100
AcDbEntity
  8
0
  6
SLD-Сплошная
 62
     7
370
    25
100
AcDbLine
 10
266.2993401651
 20
35.7745268256
 30
0.0
 11
248.2993401651
 21
35.7745268256
 31
0.0
  0
LINE
  5
3C0
330
1F
100
AcDbEntity
  8
0
  6
SLD-Сплошная
 62
     7
370
    25
100
AcDbLine
 10
266.2993401651
 20
35.7745268256
 30
0.0
 11
266.2993401651
 21
40.1402809932
 31
0.0
  0
LINE
  5
3C1
330
1F
100
AcDbEntity
  8
0
  6
SLD-Сплошная
 62
     7
370
    25
100
AcDbLine
 10
269.2993401651
 20
-29.7468592111
 30
0.0
 11
269.2993401651
 21
45.2531407889
 31
0.0
  0
LINE
  5
3C2
330
1F
100
AcDbEntity
  8
0
  6
SLD-Сплошная
 62
     7
370
    25
100
AcDbLine
 10
248.4993401651
 20
16.9024972842
 30
0.0
 11
248.2993401651
 21
16.9024972842
 31
0.0
  0
SPLINE
  5
3C3
330
1F
100
AcDbEntity
  8
0
  6
SLD-Сплошная
 62
     7
370
    25
100
AcDbSpline
210
0.0
220
0.0
230
1.0
 70
    24
 71
     3
 72
    18
 73
    14
 74
     0
 42
0.00000001
 43
0.00000001
 40
0.0
 40
0.0
 40
0.0
 40
0.0
 40
0.1249999999999973
 40
0.1249999999999973
 40
0.2499999999999946
 40
0.2499999999999946
 40
0.4999999999999976
 40
0.4999999999999976
 40
0.7500000000000006
 40
0.7500000000000006
 40
0.8750000000000002
 40
0.8750000000000002
 40
1.0
 40
1.0
 40
1.0
 40
1.0
 10
248.4993401650849
 20
15.58278574576468
 30
0.0
 10
248.4993401650849
 20
15.58470717347018
 30
0.0
 10
248.4993401650849
 20
15.58961630440186
 30
0.0
 10
248.4993401650849
 20
15.62258228717495
 30
0.0
 10
248.4993401650849
 20
15.64768437985453
 30
0.0
 10
248.499340165085
 20
15.74756050605666
 30
0.0
 10
248.4993401650849
 20
15.8504521336814
 30
0.0
 10
248.4993401650849
 20
16.09761613938121
 30
0.0
 10
248.499340165085
 20
16.24415217825233
 30
0.0
 10
248.4993401650849
 20
16.48305989286714
 30
0.0
 10
248.4993401650849
 20
16.56550991858071
 30
0.0
 10
248.4993401650849
 20
16.73291251408702
 30
0.0
 10
248.4993401650849
 20
16.81775282566108
 30
0.0
 10
248.4993401650849
 20
16.90249728422622
 30
0.0
  0
LINE
  5
3C4
330
1F
100
AcDbEntity
  8
0
  6
SLD-Сплошная
 62
     7
370
    25
100
AcDbLine
 10
248.4993401651
 20
15.5827857458
 30
0.0
 11
248.2993401651
 21
15.5827857458
 31
0.0
  0
LINE
  5
3C5
330
1F
100
AcDbEntity
  8
0
  6
SLD-Сплошная
 62
     7
370
    25
100
AcDbLine
 10
248.4993401651
 20
18.1468883099
 30
0.0
 11
248.2993401651
 21
18.1468883099
 31
0.0
  0
SPLINE
  5
3C6
330
1F
100
AcDbEntity
  8
0
  6
SLD-Сплошная
 62
     7
370
    25
100
AcDbSpline
210
0.0
220
0.0
230
1.0
 70
    24
 71
     3
 72
    18
 73
    14
 74
     0
 42
0.00000001
 43
0.00000001
 40
0.0
 40
0.0
 40
0.0
 40
0.0
 40
0.1250000000000013
 40
0.1250000000000013
 40
0.2500000000000026
 40
0.2500000000000026
 40
0.5000000000000051
 40
0.5000000000000051
 40
0.7500000000000077
 40
0.7500000000000077
 40
0.8750000000000038
 40
0.8750000000000038
 40
1.0
 40
1.0
 40
1.0
 40
1.0
 10
248.4993401650849
 20
16.90249728422622
 30
0.0
 10
248.4993401650849
 20
16.97989548879682
 30
0.0
 10
248.4993401650849
 20
17.05738540250674
 30
0.0
 10
248.4993401650849
 20
17.21039928339698
 30
0.0
 10
248.499340165085
 20
17.28586362749781
 30
0.0
 10
248.4993401650849
 20
17.50496236801083
 30
0.0
 10
248.4993401650849
 20
17.63991968915499
 30
0.0
 10
248.4993401650849
 20
17.86868887180521
 30
0.0
 10
248.4993401650849
 20
17.96268872325659
 30
0.0
 10
248.4993401650849
 20
18.0622370586864
 30
0.0
 10
248.499340165085
 20
18.08772640883916
 30
0.0
 10
248.4993401650849
 20
18.12648517478147
 30
0.0
 10
248.4993401650849
 20
18.13753435015082
 30
0.0
 10
248.4993401650849
 20
18.14688830986725
 30
0.0
  0
LINE
  5
3C7
330
1F
100
AcDbEntity
  8
0
  6
SLD-Сплошная
 62
     7
370
    25
100
AcDbLine
 10
248.4993401651
 20
21.0186831817
 30
0.0
 11
248.2993401651
 21
21.0186831817
 31
0.0
  0
LINE
  5
3C8
330
1F
100
AcDbEntity
  8
0
  6
SLD-Сплошная
 62
     7
370
    25
100
AcDbLine
 10
248.4993401651
 20
18.5571447201
 30
0.0
 11
248.4993401651
 21
21.0186831817
 31
0.0
  0
LINE
  5
3C9
330
1F
100
AcDbEntity
  8
0
  6
SLD-Сплошная
 62
     7
370
    25
100
AcDbLine
 10
248.4993401651
 20
18.5571447201
 30
0.0
 11
248.2993401651
 21
18.5571447201
 31
0.0
  0
LINE
  5
3CA
330
1F
100
AcDbEntity
  8
0
  6
SLD-Сплошная
 62
     7
370
    25
100
AcDbLine
 10
248.4993401651
 20
-2.7970169886
 30
0.0
 11
248.2993401651
 21
-2.7970169886
 31
0.0
  0
LINE
  5
3CB
330
1F
100
AcDbEntity
  8
0
  6
SLD-Сплошная
 62
     7
370
    25
100
AcDbLine
 10
248.4993401651
 20
-2.7970169886
 30
0.0
 11
248.4993401651
 21
-0.335478527
 31
0.0
  0
LINE
  5
3CC
330
1F
100
AcDbEntity
  8
0
  6
SLD-Сплошная
 62
     7
370
    25
100
AcDbLine
 10
248.4993401651
 20
-0.335478527
 30
0.0
 11
248.2993401651
 21
-0.335478527
 31
0.0
  0
LINE
  5
3CD
330
1F
100
AcDbEntity
  8
0
  6
SLD-Сплошная
 62
     7
370
    25
100
AcDbLine
 10
248.4993401651
 20
-3.1047092962
 30
0.0
 11
248.2993401651
 21
-3.1047092962
 31
0.0
  0
LINE
  5
3CE
330
1F
100
AcDbEntity
  8
0
  6
SLD-Сплошная
 62
     7
370
    25
100
AcDbLine
 10
248.4993401651
 20
-5.7200939116
 30
0.0
 11
248.4993401651
 21
-3.1047092962
 31
0.0
  0
LINE
  5
3CF
330
1F
100
AcDbEntity
  8
0
  6
SLD-Сплошная
 62
     7
370
    25
100
AcDbLine
 10
248.4993401651
 20
-5.7200939116
 30
0.0
 11
248.2993401651
 21
-5.7200939116
 31
0.0
  0
LINE
  5
3D0
330
1F
100
AcDbEntity
  8
0
  6
SLD-Сплошная
 62
     7
370
    25
100
AcDbLine
 10
270.7993401651
 20
12.7802216432
 30
0.0
 11
269.2993401651
 21
12.7802216432
 31
0.0
  0
LINE
  5
3D1
330
1F
100
AcDbEntity
  8
0
  6
SLD-Сплошная
 62
     7
370
    25
100
AcDbLine
 10
270.7993401651
 20
24.1802216432
 30
0.0
 11
269.2993401651
 21
24.1802216432
 31
0.0
  0
LINE
  5
3D2
330
1F
100
AcDbEntity
  8
0
  6
SLD-Сплошная
 62
     7
370
    25
100
AcDbLine
 10
270.7993401651
 20
12.7802216432
 30
0.0
 11
270.7993401651
 21
24.1802216432
 31
0.0
  0
LINE
  5
3D3
330
1F
100
AcDbEntity
  8
0
  6
SLD-Сплошная
 62
     7
370
    25
100
AcDbLine
 10
270.7993401651
 20
-8.6739400655
 30
0.0
 11
269.2993401651
 21
-8.6739400655
 31
0.0
  0
LINE
  5
3D4
330
1F
100
AcDbEntity
  8
0
  6
SLD-Сплошная
 62
     7
370
    25
100
AcDbLine
 10
270.7993401651
 20
2.7260599345
 30
0.0
 11
269.2993401651
 21
2.7260599345
 31
0.0
  0
LINE
  5
3D5
330
1F
100
AcDbEntity
  8
0
  6
SLD-Сплошная
 62
     7
370
    25
100
AcDbLine
 10
270.7993401651
 20
-8.6739400655
 30
0.0
 11
270.7993401651
 21
2.7260599345
 31
0.0
  0
SPLINE
  5
3D6
330
1F
100
AcDbEntity
  8
0
  6
SLD-Сплошная
 62
     7
370
    25
100
AcDbSpline
210
0.0
220
0.0
230
1.0
 70
     8
 71
     3
 72
     8
 73
     4
 74
     0
 42
0.00000001
 43
0.00000001
 40
0.0
 40
0.0
 40
0.0
 40
0.0
 40
1.0
 40
1.0
 40
1.0
 40
1.0
 10
206.6716549665854
 20
-28.18275949721932
 30
0.0
 10
204.7140484884715
 20
-28.80058519372032
 30
0.0
 10
202.756946643252
 20
-29.32202953461033
 30
0.0
 10
200.7993401650876
 20
-29.74318598216433
 30
0.0
  0
SPLINE
  5
3D7
330
1F
100
AcDbEntity
  8
0
  6
SLD-Сплошная
 62
     7
370
    25
100
AcDbSpline
210
0.0
220
0.0
230
1.0
 70
     8
 71
     3
 72
     8
 73
     4
 74
     0
 42
0.00000001
 43
0.00000001
 40
0.0
 40
0.0
 40
0.0
 40
0.0
 40
1.0
 40
1.0
 40
1.0
 40
1.0
 10
200.7993401650876
 20
-29.74318598216431
 30
0.0
 10
198.8417336861284
 20
-29.32202953443962
 30
0.0
 10
196.8846318425889
 20
-28.80058519400065
 30
0.0
 10
194.9270253635853
 20
-28.18275949721934
 30
0.0
  0
LINE
  5
3D8
330
1F
100
AcDbEntity
  8
0
  6
SLD-Сплошная
 62
     7
370
    25
100
AcDbLine
 10
199.4616870507
 20
-30.5976984614
 30
0.0
 11
194.9270253636
 21
-30.5976984614
 31
0.0
  0
LINE
  5
3D9
330
1F
100
AcDbEntity
  8
0
  6
SLD-Сплошная
 62
     7
370
    25
100
AcDbLine
 10
206.6716549666
 20
-30.5976984614
 30
0.0
 11
202.2424805833
 21
-30.5976984614
 31
0.0
  0
LINE
  5
3DA
330
1F
100
AcDbEntity
  8
0
  6
SLD-Сплошная
 62
     7
370
    25
100
AcDbLine
 10
248.4993401651
 20
36.9573091459
 30
0.0
 11
248.2993401651
 21
36.9573091459
 31
0.0
  0
LINE
  5
3DB
330
1F
100
AcDbEntity
  8
0
  6
SLD-Сплошная
 62
     7
370
    25
100
AcDbLine
 10
248.4993401651
 20
36.5013796587
 30
0.0
 11
248.2993401651
 21
36.5013796587
 31
0.0
  0
LINE
  5
3DC
330
1F
100
AcDbEntity
  8
0
  6
SLD-Сплошная
 62
     7
370
    25
100
AcDbLine
 10
248.4993401651
 20
36.5013796587
 30
0.0
 11
248.4993401651
 21
36.9573091459
 31
0.0
  0
LINE
  5
3DD
330
1F
100
AcDbEntity
  8
0
  6
SLD-Сплошная
 62
     7
370
    25
100
AcDbLine
 10
248.4993401651
 20
35.7745268256
 30
0.0
 11
248.4993401651
 21
36.5013796587
 31
0.0
  0
LINE
  5
3DE
330
1F
100
AcDbEntity
  8
0
  6
SLD-Сплошная
 62
     7
370
    25
100
AcDbLine
 10
248.4993401651
 20
-21.4517132761
 30
0.0
 11
248.2993401651
 21
-21.4517132761
 31
0.0
  0
LINE
  5
3DF
330
1F
100
AcDbEntity
  8
0
  6
SLD-Сплошная
 62
     7
370
    25
100
AcDbLine
 10
248.4993401651
 20
-21.4517132761
 30
0.0
 11
248.4993401651
 21
-20.2682452478
 31
0.0
  0
LINE
  5
3E0
330
1F
100
AcDbEntity
  8
0
  6
SLD-Сплошная
 62
     7
370
    25
100
AcDbLine
 10
248.4993401651
 20
-21.8940209684
 30
0.0
 11
248.2993401651
 21
-21.8940209684
 31
0.0
  0
LINE
  5
3E1
330
1F
100
AcDbEntity
  8
0
  6
SLD-Сплошная
 62
     7
370
    25
100
AcDbLine
 10
248.4993401651
 20
-21.8940209684
 30
0.0
 11
248.4993401651
 21
-21.4517132761
 31
0.0
  0
SPLINE
  5
3E2
330
1F
100
AcDbEntity
  8
0
  6
SLD-Сплошная
 62
     7
370
    25
100
AcDbSpline
210
0.0
220
0.0
230
1.0
 70
     8
 71
     3
 72
     8
 73
     4
 74
     0
 42
0.00000001
 43
0.00000001
 40
0.0
 40
0.0
 40
0.0
 40
0.0
 40
1.0
 40
1.0
 40
1.0
 40
1.0
 10
200.7993401650876
 20
-29.95010205999098
 30
0.0
 10
198.8419149471384
 20
-29.53129570866223
 30
0.0
 10
196.8848416338779
 20
-29.01281055593266
 30
0.0
 10
194.9270253635853
 20
-28.39860784617886
 30
0.0
  0
LINE
  5
3E3
330
1F
100
AcDbEntity
  8
0
  6
SLD-Сплошная
 62
     7
370
    25
100
AcDbLine
 10
200.7993401651
 20
-29.7431859822
 30
0.0
 11
200.7993401651
 21
-29.95010206
 31
0.0
  0
LINE
  5
3E4
330
1F
100
AcDbEntity
  8
0
  6
SLD-Сплошная
 62
     7
370
    25
100
AcDbLine
 10
194.9270253636
 20
-28.1827594972
 30
0.0
 11
194.9270253636
 21
-28.3986078462
 31
0.0
  0
SPLINE
  5
3E5
330
1F
100
AcDbEntity
  8
0
  6
SLD-Сплошная
 62
     7
370
    25
100
AcDbSpline
210
0.0
220
0.0
230
1.0
 70
     8
 71
     3
 72
     8
 73
     4
 74
     0
 42
0.00000001
 43
0.00000001
 40
0.0
 40
0.0
 40
0.0
 40
0.0
 40
1.0
 40
1.0
 40
1.0
 40
1.0
 10
206.6716549665854
 20
-28.39860784617886
 30
0.0
 10
204.7138386059167
 20
-29.01281058428578
 30
0.0
 10
202.7567654599878
 20
-29.53129569219762
 30
0.0
 10
200.7993401650876
 20
-29.95010205999096
 30
0.0
  0
LINE
  5
3E6
330
1F
100
AcDbEntity
  8
0
  6
SLD-Сплошная
 62
     7
370
    25
100
AcDbLine
 10
206.6716549666
 20
-28.1827594972
 30
0.0
 11
206.6716549666
 21
-28.3986078462
 31
0.0
  0
LINE
  5
3E7
330
1F
100
AcDbEntity
  8
0
  6
SLD-Сплошная
 62
     7
370
    25
100
AcDbLine
 10
194.9270253636
 20
-31.1863519218
 30
0.0
 11
194.9270253636
 21
-30.8000286165
 31
0.0
  0
LINE
  5
3E8
330
1F
100
AcDbEntity
  8
0
  6
SLD-Сплошная
 62
     7
370
    25
100
AcDbLine
 10
200.6493958073
 20
-30.8000286165
 30
0.0
 11
194.9270253636
 21
-30.8000286165
 31
0.0
  0
LINE
  5
3E9
330
1F
100
AcDbEntity
  8
0
  6
SLD-Сплошная
 62
     7
370
    25
100
AcDbLine
 10
200.6493958073
 20
-30.8000286165
 30
0.0
 11
200.6493958073
 21
-30.7808883487
 31
0.0
  0
SPLINE
  5
3EA
330
1F
100
AcDbEntity
  8
0
  6
SLD-Сплошная
 62
     7
370
    25
100
AcDbSpline
210
0.0
220
0.0
230
1.0
 70
     8
 71
     3
 72
     8
 73
     4
 74
     0
 42
0.00000001
 43
0.00000001
 40
0.0
 40
0.0
 40
0.0
 40
0.0
 40
1.0
 40
1.0
 40
1.0
 40
1.0
 10
194.9270253635853
 20
-29.75470551677574
 30
0.0
 10
196.8347637816351
 20
-30.19197118433965
 30
0.0
 10
198.7418881343133
 20
-30.53485939191074
 30
0.0
 10
200.6493958072881
 20
-30.78088834870017
 30
0.0
  0
SPLINE
  5
3EB
330
1F
100
AcDbEntity
  8
0
  6
SLD-Сплошная
 62
     7
370
    25
100
AcDbSpline
210
0.0
220
0.0
230
1.0
 70
     8
 71
     3
 72
     8
 73
     4
 74
     0
 42
0.00000001
 43
0.00000001
 40
0.0
 40
0.0
 40
0.0
 40
0.0
 40
1.0
 40
1.0
 40
1.0
 40
1.0
 10
200.9492845228808
 20
-30.78088834869988
 30
0.0
 10
202.8567921537664
 20
-30.53485939733918
 30
0.0
 10
204.7639166004403
 20
-30.19197117244248
 30
0.0
 10
206.6716549665855
 20
-29.75470551677575
 30
0.0
  0
LINE
  5
3EC
330
1F
100
AcDbEntity
  8
0
  6
SLD-Сплошная
 62
     7
370
    25
100
AcDbLine
 10
200.9492845229
 20
-30.8000286165
 30
0.0
 11
200.9492845229
 21
-30.7808883487
 31
0.0
  0
LINE
  5
3ED
330
1F
100
AcDbEntity
  8
0
  6
SLD-Сплошная
 62
     7
370
    25
100
AcDbLine
 10
206.6716549666
 20
-30.8000286165
 30
0.0
 11
200.9492845229
 21
-30.8000286165
 31
0.0
  0
LINE
  5
3EE
330
1F
100
AcDbEntity
  8
0
  6
SLD-Сплошная
 62
     7
370
    25
100
AcDbLine
 10
206.6716549666
 20
-31.1863519218
 30
0.0
 11
206.6716549666
 21
-30.8000286165
 31
0.0
  0
LINE
  5
3EF
330
1F
100
AcDbEntity
  8
0
  6
SLD-Сплошная
 62
     7
370
    25
100
AcDbLine
 10
194.9270253636
 20
-31.1863519218
 30
0.0
 11
206.6716549666
 21
-31.1863519218
 31
0.0
  0
LINE
  5
3F0
330
1F
100
AcDbEntity
  8
0
  6
SLD-Сплошная
 62
     7
370
    25
100
AcDbLine
 10
194.9270253636
 20
-29.7547055168
 30
0.0
 11
194.9270253636
 21
-28.3986078462
 31
0.0
  0
LINE
  5
3F1
330
1F
100
AcDbEntity
  8
0
  6
SLD-Сплошная
 62
     7
370
    25
100
AcDbLine
 10
206.6716549666
 20
-29.7547055168
 30
0.0
 11
206.6716549666
 21
-28.3986078462
 31
0.0
  0
LINE
  5
3F2
330
1F
100
AcDbEntity
  8
0
  6
SLD-Сплошная
 62
     7
370
    25
100
AcDbLine
 10
206.6716549666
 20
-30.5976984614
 30
0.0
 11
206.6716549666
 21
-30.8000286165
 31
0.0
  0
LINE
  5
3F3
330
1F
100
AcDbEntity
  8
0
  6
SLD-Сплошная
 62
     7
370
    25
100
AcDbLine
 10
194.9270253636
 20
-30.5976984614
 30
0.0
 11
194.9270253636
 21
-30.8000286165
 31
0.0
  0
LINE
  5
3F4
330
1F
100
AcDbEntity
  8
0
  6
SLD-Сплошная
 62
     7
370
    25
100
AcDbLine
 10
270.7993401651
 20
3.5531407889
 30
0.0
 11
269.2993401651
 21
3.5531407889
 31
0.0
  0
LINE
  5
3F5
330
1F
100
AcDbEntity
  8
0
  6
SLD-Сплошная
 62
     7
370
    25
100
AcDbLine
 10
270.7993401651
 20
11.9531407889
 30
0.0
 11
269.2993401651
 21
11.9531407889
 31
0.0
  0
LINE
  5
3F6
330
1F
100
AcDbEntity
  8
0
  6
SLD-Сплошная
 62
     7
370
    25
100
AcDbLine
 10
270.7993401651
 20
3.5531407889
 30
0.0
 11
270.7993401651
 21
11.9531407889
 31
0.0
  0
LINE
  5
3F7
330
1F
100
AcDbEntity
  8
0
  6
SLD-Сплошная
 62
     7
370
    25
100
AcDbLine
 10
202.4008770401
 20
-31.2312048535
 30
0.0
 11
199.1978032901
 21
-31.2312048535
 31
0.0
  0
LINE
  5
3F8
330
1F
100
AcDbEntity
  8
0
  6
SLD-Сплошная
 62
     7
370
    25
100
AcDbLine
 10
202.4008770401
 20
-31.2468592111
 30
0.0
 11
202.4008770401
 21
-31.2312048535
 31
0.0
  0
LINE
  5
3F9
330
1F
100
AcDbEntity
  8
0
  6
SLD-Сплошная
 62
     7
370
    25
100
AcDbLine
 10
203.4685812166
 20
-31.2468592111
 30
0.0
 11
203.4685812166
 21
-31.2312048535
 31
0.0
  0
LINE
  5
3FA
330
1F
100
AcDbEntity
  8
0
  6
SLD-Сплошная
 62
     7
370
    25
100
AcDbLine
 10
206.6716549666
 20
-31.2312048535
 30
0.0
 11
203.4685812166
 21
-31.2312048535
 31
0.0
  0
LINE
  5
3FB
330
1F
100
AcDbEntity
  8
0
  6
SLD-Сплошная
 62
     7
370
    25
100
AcDbLine
 10
206.6716549666
 20
-31.2468592111
 30
0.0
 11
206.6716549666
 21
-31.2312048535
 31
0.0
  0
LINE
  5
3FC
330
1F
100
AcDbEntity
  8
0
  6
SLD-Сплошная
 62
     7
370
    25
100
AcDbLine
 10
199.1978032901
 20
-31.2468592111
 30
0.0
 11
199.1978032901
 21
-31.2312048535
 31
0.0
  0
LINE
  5
3FD
330
1F
100
AcDbEntity
  8
0
  6
SLD-Сплошная
 62
     7
370
    25
100
AcDbLine
 10
198.1300991136
 20
-31.2312048535
 30
0.0
 11
194.9270253636
 21
-31.2312048535
 31
0.0
  0
LINE
  5
3FE
330
1F
100
AcDbEntity
  8
0
  6
SLD-Сплошная
 62
     7
370
    25
100
AcDbLine
 10
198.1300991136
 20
-31.2468592111
 30
0.0
 11
198.1300991136
 21
-31.2312048535
 31
0.0
  0
LINE
  5
3FF
330
1F
100
AcDbEntity
  8
0
  6
SLD-Сплошная
 62
     7
370
    25
100
AcDbLine
 10
194.9270253636
 20
-31.2468592111
 30
0.0
 11
194.9270253636
 21
-31.2312048535
 31
0.0
  0
LINE
  5
400
330
1F
100
AcDbEntity
  8
0
  6
SLD-Сплошная
 62
     7
370
    25
100
AcDbLine
 10
202.4008770401
 20
-31.2312048535
 30
0.0
 11
202.4008770401
 21
-31.1863519218
 31
0.0
  0
LINE
  5
401
330
1F
100
AcDbEntity
  8
0
  6
SLD-Сплошная
 62
     7
370
    25
100
AcDbLine
 10
199.1978032901
 20
-31.2312048535
 30
0.0
 11
199.1978032901
 21
-31.1863519218
 31
0.0
  0
LINE
  5
402
330
1F
100
AcDbEntity
  8
0
  6
SLD-Сплошная
 62
     7
370
    25
100
AcDbLine
 10
203.4685812166
 20
-31.2312048535
 30
0.0
 11
203.4685812166
 21
-31.1863519218
 31
0.0
  0
LINE
  5
403
330
1F
100
AcDbEntity
  8
0
  6
SLD-Сплошная
 62
     7
370
    25
100
AcDbLine
 10
206.6716549666
 20
-31.2312048535
 30
0.0
 11
206.6716549666
 21
-31.1863519218
 31
0.0
  0
LINE
  5
404
330
1F
100
AcDbEntity
  8
0
  6
SLD-Сплошная
 62
     7
370
    25
100
AcDbLine
 10
198.1300991136
 20
-31.1863519218
 30
0.0
 11
198.1300991136
 21
-31.2312048535
 31
0.0
  0
LINE
  5
405
330
1F
100
AcDbEntity
  8
0
  6
SLD-Сплошная
 62
     7
370
    25
100
AcDbLine
 10
194.9270253636
 20
-31.1863519218
 30
0.0
 11
194.9270253636
 21
-31.2312048535
 31
0.0
  0
LINE
  5
406
330
1F
100
AcDbEntity
  8
0
  6
SLD-Сплошная
 62
     7
370
    25
100
AcDbLine
 10
270.7993401651
 20
24.1802216432
 30
0.0
 11
270.7993401651
 21
30.4718276019
 31
0.0
  0
LINE
  5
407
330
1F
100
AcDbEntity
  8
0
  6
SLD-Сплошная
 62
     7
370
    25
100
AcDbLine
 10
270.7993401651
 20
-14.9655460241
 30
0.0
 11
269.2993401651
 21
-14.9655460241
 31
0.0
  0
LINE
  5
408
330
1F
100
AcDbEntity
  8
0
  6
SLD-Сплошная
 62
     7
370
    25
100
AcDbLine
 10
270.7993401651
 20
-14.9655460241
 30
0.0
 11
270.7993401651
 21
-8.6739400655
 31
0.0
  0
LINE
  5
409
330
1F
100
AcDbEntity
  8
0
  6
SLD-Сплошная
 62
     7
370
    25
100
AcDbLine
 10
287.2993401651
 20
12.8542114079
 30
0.0
 11
270.7993401651
 21
12.8542114079
 31
0.0
  0
LINE
  5
40A
330
1F
100
AcDbEntity
  8
0
  6
SLD-Сплошная
 62
     7
370
    25
100
AcDbLine
 10
287.2993401651
 20
18.3028775064
 30
0.0
 11
287.2993401651
 21
12.8542114079
 31
0.0
  0
LINE
  5
40B
330
1F
100
AcDbEntity
  8
0
  6
SLD-Сплошная
 62
     7
370
    25
100
AcDbLine
 10
287.2993401651
 20
18.3028775064
 30
0.0
 11
270.7993401651
 21
18.3028775064
 31
0.0
  0
LINE
  5
40C
330
1F
100
AcDbEntity
  8
0
  6
SLD-Сплошная
 62
     7
370
    25
100
AcDbLine
 10
270.7993401651
 20
20.148393443
 30
0.0
 11
289.2993401651
 21
20.148393443
 31
0.0
  0
LINE
  5
40D
330
1F
100
AcDbEntity
  8
0
  6
SLD-Сплошная
 62
     7
370
    25
100
AcDbLine
 10
289.2993401651
 20
20.148393443
 30
0.0
 11
289.2993401651
 21
11.0086954713
 31
0.0
  0
LINE
  5
40E
330
1F
100
AcDbEntity
  8
0
  6
SLD-Сплошная
 62
     7
370
    25
100
AcDbLine
 10
289.2993401651
 20
11.0086954713
 30
0.0
 11
271.1098056175
 21
11.0086954713
 31
0.0
  0
SPLINE
  5
40F
330
1F
100
AcDbEntity
  8
0
  6
SLD-Сплошная
 62
     7
370
    25
100
AcDbSpline
210
0.0
220
0.0
230
1.0
 70
     8
 71
     3
 72
    11
 73
     7
 74
     0
 42
0.00000001
 43
0.00000001
 40
0.0
 40
0.0
 40
0.0
 40
0.0
 40
0.2444431646936211
 40
0.492824111206035
 40
0.7447348830888053
 40
1.0
 40
1.0
 40
1.0
 40
1.0
 10
271.1098056174595
 20
11.0086954712784
 30
0.0
 10
271.0882600698986
 20
11.04410005900881
 30
0.0
 10
271.0448218934189
 20
11.11547957376321
 30
0.0
 10
270.9697993895645
 20
11.21858074824988
 30
0.0
 10
270.888251109365
 20
11.31983342242186
 30
0.0
 10
270.8291075338605
 20
11.38487692135917
 30
0.0
 10
270.7993401650851
 20
11.41761376222127
 30
0.0
  0
SPLINE
  5
410
330
1F
100
AcDbEntity
  8
0
  6
SLD-Сплошная
 62
     7
370
    25
100
AcDbSpline
210
0.0
220
0.0
230
1.0
 70
     8
 71
     3
 72
    11
 73
     7
 74
     0
 42
0.00000001
 43
0.00000001
 40
0.0
 40
0.0
 40
0.0
 40
0.0
 40
0.2331160595458067
 40
0.4770057445076298
 40
0.7324166961097961
 40
1.0
 40
1.0
 40
1.0
 40
1.0
 10
271.1098056174595
 20
11.0086954712784
 30
0.0
 10
271.0892654582447
 20
10.99036829665551
 30
0.0
 10
271.0472358616664
 20
10.95286694392698
 30
0.0
 10
270.97371003939
 20
10.89775991467988
 30
0.0
 10
270.8913764463456
 20
10.84179165547875
 30
0.0
 10
270.8304912797673
 20
10.80532741536008
 30
0.0
 10
270.7993401650851
 20
10.78667095452455
 30
0.0
  0
LINE
  5
411
330
1F
100
AcDbEntity
  8
0
  6
SLD-Сплошная
 62
     7
370
    25
100
AcDbLine
 10
289.2993401651
 20
6.4517422369
 30
0.0
 11
289.2993401651
 21
11.0086954713
 31
0.0
  0
LINE
  5
412
330
1F
100
AcDbEntity
  8
0
  6
SLD-Сплошная
 62
     7
370
    25
100
AcDbLine
 10
289.2993401651
 20
6.4517422369
 30
0.0
 11
270.7993401651
 21
6.4517422369
 31
0.0
  0
LINE
  5
413
330
1F
100
AcDbEntity
  8
0
  6
SLD-Сплошная
 62
     7
370
    25
100
AcDbLine
 10
287.2993401651
 20
17.8257187461
 30
0.0
 11
270.7993401651
 21
17.8257187461
 31
0.0
  0
LINE
  5
414
330
1F
100
AcDbEntity
  8
0
  6
SLD-Сплошная
 62
     7
370
    25
100
AcDbLine
 10
287.2993401651
 20
13.2072444437
 30
0.0
 11
286.7993401651
 21
13.2072444437
 31
0.0
  0
LINE
  5
415
330
1F
100
AcDbEntity
  8
0
  6
SLD-Сплошная
 62
     7
370
    25
100
AcDbLine
 10
279.7993401651
 20
13.2072444437
 30
0.0
 11
278.7993401651
 21
13.2072444437
 31
0.0
  0
LINE
  5
416
330
1F
100
AcDbEntity
  8
0
  6
SLD-Сплошная
 62
     7
370
    25
100
AcDbLine
 10
271.7993401651
 20
13.2072444437
 30
0.0
 11
270.7993401651
 21
13.2072444437
 31
0.0
  0
LINE
  5
417
330
1F
100
AcDbEntity
  8
0
  6
SLD-Сплошная
 62
     7
370
    25
100
AcDbLine
 10
289.4993401651
 20
9.4770125157
 30
0.0
 11
289.2993401651
 21
9.4770125157
 31
0.0
  0
LINE
  5
418
330
1F
100
AcDbEntity
  8
0
  6
SLD-Сплошная
 62
     7
370
    25
100
AcDbLine
 10
289.4993401651
 20
15.4770125151
 30
0.0
 11
289.2993401651
 21
15.4770125151
 31
0.0
  0
LINE
  5
419
330
1F
100
AcDbEntity
  8
0
  6
SLD-Сплошная
 62
     7
370
    25
100
AcDbLine
 10
289.4993401651
 20
15.4770125151
 30
0.0
 11
289.4993401651
 21
9.4770125157
 31
0.0
  0
LINE
  5
41A
330
1F
100
AcDbEntity
  8
0
  6
SLD-Сплошная
 62
     7
370
    25
100
AcDbLine
 10
289.2993401651
 20
-0.8468592111
 30
0.0
 11
270.7993401651
 21
-0.8468592111
 31
0.0
  0
LINE
  5
41B
330
1F
100
AcDbEntity
  8
0
  6
SLD-Сплошная
 62
     7
370
    25
100
AcDbLine
 10
289.2993401651
 20
6.4517422369
 30
0.0
 11
289.2993401651
 21
-0.8468592111
 31
0.0
  0
LINE
  5
41C
330
1F
100
AcDbEntity
  8
0
  6
SLD-Сплошная
 62
     7
370
    25
100
AcDbLine
 10
290.7993401651
 20
1.6714137807
 30
0.0
 11
289.2993401651
 21
1.6714137807
 31
0.0
  0
LINE
  5
41D
330
1F
100
AcDbEntity
  8
0
  6
SLD-Сплошная
 62
     7
370
    25
100
AcDbLine
 10
290.7993401651
 20
13.0714137807
 30
0.0
 11
289.4993401651
 21
13.0714137807
 31
0.0
  0
LINE
  5
41E
330
1F
100
AcDbEntity
  8
0
  6
SLD-Сплошная
 62
     7
370
    25
100
AcDbLine
 10
290.7993401651
 20
13.0714137807
 30
0.0
 11
290.7993401651
 21
1.6714137807
 31
0.0
  0
ARC
  5
41F
330
1F
100
AcDbEntity
  8
0
  6
SLD-Сплошная
 62
     7
370
    25
100
AcDbCircle
 10
261.2993401651
 20
-2.9739400655
 30
0.0
 40
3.500000000000036
100
AcDbArc
 50
42.6853253669
 51
68.2132107017
  0
LINE
  5
420
330
1F
100
AcDbEntity
  8
0
  6
SLD-Сплошная
 62
     7
370
    25
100
AcDbLine
 10
260.0003020594
 20
0.2760599345
 30
0.0
 11
259.4889442907
 21
0.0214675492
 31
0.0
  0
ARC
  5
421
330
1F
100
AcDbEntity
  8
0
  6
SLD-Сплошная
 62
     7
370
    25
100
AcDbCircle
 10
261.2993401651
 20
-2.9739400655
 30
0.0
 40
3.500000000000036
100
AcDbArc
 50
324.2222843997
 51
42.6853253669
  0
LINE
  5
422
330
1F
100
AcDbEntity
  8
0
  6
SLD-Сплошная
 62
     7
370
    25
100
AcDbLine
 10
264.138859606
 20
-5.020187691
 30
0.0
 11
262.2884819429
 21
-3.0139218541
 31
0.0
  0
LINE
  5
423
330
1F
100
AcDbEntity
  8
0
  6
SLD-Сплошная
 62
     7
370
    25
100
AcDbLine
 10
262.2884819429
 20
-3.0139218541
 30
0.0
 11
263.4278687486
 21
-1.9630661519
 31
0.0
  0
LINE
  5
424
330
1F
100
AcDbEntity
  8
0
  6
SLD-Сплошная
 62
     7
370
    25
100
AcDbLine
 10
263.4278687486
 20
-1.9630661519
 30
0.0
 11
262.4787087595
 21
-0.9339425854
 31
0.0
  0
LINE
  5
425
330
1F
100
AcDbEntity
  8
0
  6
SLD-Сплошная
 62
     7
370
    25
100
AcDbLine
 10
262.4787087595
 20
-0.9339425854
 30
0.0
 11
261.3393219537
 21
-1.9847982877
 31
0.0
  0
LINE
  5
426
330
1F
100
AcDbEntity
  8
0
  6
SLD-Сплошная
 62
     7
370
    25
100
AcDbLine
 10
261.3393219537
 20
-1.9847982877
 30
0.0
 11
259.4889442907
 21
0.0214675492
 31
0.0
  0
LINE
  5
427
330
1F
100
AcDbEntity
  8
0
  6
SLD-Сплошная
 62
     7
370
    25
100
AcDbLine
 10
258.4598207242
 20
-0.92769244
 30
0.0
 11
260.3101983873
 21
-2.9339582768
 31
0.0
  0
LINE
  5
428
330
1F
100
AcDbEntity
  8
0
  6
SLD-Сплошная
 62
     7
370
    25
100
AcDbLine
 10
260.3101983873
 20
-2.9339582768
 30
0.0
 11
259.1708115816
 21
-3.9848139791
 31
0.0
  0
LINE
  5
429
330
1F
100
AcDbEntity
  8
0
  6
SLD-Сплошная
 62
     7
370
    25
100
AcDbLine
 10
259.1708115816
 20
-3.9848139791
 30
0.0
 11
260.1199715707
 21
-5.0139375455
 31
0.0
  0
LINE
  5
42A
330
1F
100
AcDbEntity
  8
0
  6
SLD-Сплошная
 62
     7
370
    25
100
AcDbLine
 10
260.1199715707
 20
-5.0139375455
 30
0.0
 11
261.2593583764
 21
-3.9630818433
 31
0.0
  0
LINE
  5
42B
330
1F
100
AcDbEntity
  8
0
  6
SLD-Сплошная
 62
     7
370
    25
100
AcDbLine
 10
261.2593583764
 20
-3.9630818433
 30
0.0
 11
263.1097360395
 21
-5.9693476801
 31
0.0
  0
ARC
  5
42C
330
1F
100
AcDbEntity
  8
0
  6
SLD-Сплошная
 62
     7
370
    25
100
AcDbCircle
 10
261.2993401651
 20
-2.9739400655
 30
0.0
 40
3.499999999999992
100
AcDbArc
 50
222.6853253669
 51
248.2132107017
  0
LINE
  5
42D
330
1F
100
AcDbEntity
  8
0
  6
SLD-Сплошная
 62
     7
370
    25
100
AcDbLine
 10
262.5983782708
 20
-6.2239400655
 30
0.0
 11
263.1097360395
 21
-5.9693476801
 31
0.0
  0
ARC
  5
42E
330
1F
100
AcDbEntity
  8
0
  6
SLD-Сплошная
 62
     7
370
    25
100
AcDbCircle
 10
261.2993401651
 20
-2.9739400655
 30
0.0
 40
3.499999999999975
100
AcDbArc
 50
144.2222843997
 51
222.6853253669
  0
ARC
  5
42F
330
1F
100
AcDbEntity
  8
0
  6
SLD-Сплошная
 62
     7
370
    25
100
AcDbCircle
 10
261.2993401651
 20
-2.9739400655
 30
0.0
 40
3.500000000000068
100
AcDbArc
 50
301.1483663341
 51
324.2222843997
  0
ARC
  5
430
330
1F
100
AcDbEntity
  8
0
  6
SLD-Сплошная
 62
     7
370
    25
100
AcDbCircle
 10
261.2993401651
 20
-2.9739400655
 30
0.0
 40
3.499999999999958
100
AcDbArc
 50
121.1483663341
 51
144.2222843997
  0
LWPOLYLINE
  5
431
330
1F
100
AcDbEntity
  8
0
  6
SLD-Сплошная
 62
     7
370
    25
100
AcDbPolyline
 90
        3
 70
   128
 43
0.0
 10
279.7993401651
 20
13.526761788
 10
279.8504944866
 20
13.0028043583
 10
279.884031912
 20
12.8542114079
  0
ARC
  5
432
330
1F
100
AcDbEntity
  8
0
  6
SLD-Сплошная
 62
     7
370
    25
100
AcDbCircle
 10
283.0009376486
 20
13.3597804355
 30
0.0
 40
3.205949035557962
100
AcDbArc
 50
97.196136504
 51
177.0144073728
  0
LINE
  5
433
330
1F
100
AcDbEntity
  8
0
  6
SLD-Сплошная
 62
     7
370
    25
100
AcDbLine
 10
282.5993401651
 20
16.5404766926
 30
0.0
 11
282.5993401651
 21
14.1419337669
 31
0.0
  0
LINE
  5
434
330
1F
100
AcDbEntity
  8
0
  6
SLD-Сплошная
 62
     7
370
    25
100
AcDbLine
 10
282.5993401651
 20
14.1419337669
 30
0.0
 11
281.0493401651
 21
14.1419337669
 31
0.0
  0
LINE
  5
435
330
1F
100
AcDbEntity
  8
0
  6
SLD-Сплошная
 62
     7
370
    25
100
AcDbLine
 10
281.0493401651
 20
14.1419337669
 30
0.0
 11
281.0493401651
 21
12.9115898091
 31
0.0
  0
LINE
  5
436
330
1F
100
AcDbEntity
  8
0
  6
SLD-Сплошная
 62
     7
370
    25
100
AcDbLine
 10
281.0493401651
 20
12.9115898091
 30
0.0
 11
282.5993401651
 21
12.9115898091
 31
0.0
  0
LINE
  5
437
330
1F
100
AcDbEntity
  8
0
  6
SLD-Сплошная
 62
     7
370
    25
100
AcDbLine
 10
282.5993401651
 20
12.9115898091
 30
0.0
 11
282.5993401651
 21
12.8542114079
 31
0.0
  0
ARC
  5
438
330
1F
100
AcDbEntity
  8
0
  6
SLD-Сплошная
 62
     7
370
    25
100
AcDbCircle
 10
283.5977426816
 20
13.3597804355
 30
0.0
 40
3.205949035558039
100
AcDbArc
 50
2.9855926272
 51
82.803863496
  0
LWPOLYLINE
  5
439
330
1F
100
AcDbEntity
  8
0
  6
SLD-Сплошная
 62
     7
370
    25
100
AcDbPolyline
 90
        3
 70
   128
 43
0.0
 10
286.7146484182
 20
12.8542114079
 10
286.7481858435
 20
13.0028043583
 10
286.7993401651
 20
13.526761788
  0
LINE
  5
43A
330
1F
100
AcDbEntity
  8
0
  6
SLD-Сплошная
 62
     7
370
    25
100
AcDbLine
 10
283.9993401651
 20
12.8542114079
 30
0.0
 11
283.9993401651
 21
12.9115898091
 31
0.0
  0
LINE
  5
43B
330
1F
100
AcDbEntity
  8
0
  6
SLD-Сплошная
 62
     7
370
    25
100
AcDbLine
 10
283.9993401651
 20
12.9115898091
 30
0.0
 11
285.5493401651
 21
12.9115898091
 31
0.0
  0
LINE
  5
43C
330
1F
100
AcDbEntity
  8
0
  6
SLD-Сплошная
 62
     7
370
    25
100
AcDbLine
 10
285.5493401651
 20
12.9115898091
 30
0.0
 11
285.5493401651
 21
14.1419337669
 31
0.0
  0
LINE
  5
43D
330
1F
100
AcDbEntity
  8
0
  6
SLD-Сплошная
 62
     7
370
    25
100
AcDbLine
 10
285.5493401651
 20
14.1419337669
 30
0.0
 11
283.9993401651
 21
14.1419337669
 31
0.0
  0
LINE
  5
43E
330
1F
100
AcDbEntity
  8
0
  6
SLD-Сплошная
 62
     7
370
    25
100
AcDbLine
 10
283.9993401651
 20
14.1419337669
 30
0.0
 11
283.9993401651
 21
16.5404766926
 31
0.0
  0
LINE
  5
43F
330
1F
100
AcDbEntity
  8
0
  6
SLD-Сплошная
 62
     7
370
    25
100
AcDbLine
 10
286.7993401651
 20
12.8542114079
 30
0.0
 11
286.7993401651
 21
13.526761788
 31
0.0
  0
LINE
  5
440
330
1F
100
AcDbEntity
  8
0
  6
SLD-Сплошная
 62
     7
370
    25
100
AcDbLine
 10
279.7993401651
 20
12.8542114079
 30
0.0
 11
279.7993401651
 21
13.526761788
 31
0.0
  0
LINE
  5
441
330
1F
100
AcDbEntity
  8
0
  6
SLD-Сплошная
 62
     7
370
    25
100
AcDbLine
 10
285.5493401651
 20
13.2830479984
 30
0.0
 11
283.9993401651
 21
13.2830479984
 31
0.0
  0
LINE
  5
442
330
1F
100
AcDbEntity
  8
0
  6
SLD-Сплошная
 62
     7
370
    25
100
AcDbLine
 10
282.5993401651
 20
13.2830479984
 30
0.0
 11
281.0493401651
 21
13.2830479984
 31
0.0
  0
ARC
  5
443
330
1F
100
AcDbEntity
  8
0
  6
SLD-Сплошная
 62
     7
370
    25
100
AcDbCircle
 10
283.2993401651
 20
11.7718005541
 30
0.0
 40
3.971959307093713
100
AcDbArc
 50
79.8494388481
 51
100.1505611519
  0
LINE
  5
444
330
1F
100
AcDbEntity
  8
0
  6
SLD-Сплошная
 62
     7
370
    25
100
AcDbLine
 10
282.5993401651
 20
13.2830479984
 30
0.0
 11
282.5993401651
 21
14.1419337669
 31
0.0
  0
LINE
  5
445
330
1F
100
AcDbEntity
  8
0
  6
SLD-Сплошная
 62
     7
370
    25
100
AcDbLine
 10
283.9993401651
 20
13.2830479984
 30
0.0
 11
283.9993401651
 21
14.1419337669
 31
0.0
  0
ARC
  5
446
330
1F
100
AcDbEntity
  8
0
  6
SLD-Сплошная
 62
     7
370
    25
100
AcDbCircle
 10
253.2993401651
 20
-2.9739400655
 30
0.0
 40
3.500000000000107
100
AcDbArc
 50
42.6853253669
 51
68.2132107017
  0
LINE
  5
447
330
1F
100
AcDbEntity
  8
0
  6
SLD-Сплошная
 62
     7
370
    25
100
AcDbLine
 10
252.0003020594
 20
0.2760599345
 30
0.0
 11
251.4889442907
 21
0.0214675492
 31
0.0
  0
ARC
  5
448
330
1F
100
AcDbEntity
  8
0
  6
SLD-Сплошная
 62
     7
370
    25
100
AcDbCircle
 10
253.2993401651
 20
-2.9739400655
 30
0.0
 40
3.500000000000107
100
AcDbArc
 50
324.2222843997
 51
42.6853253669
  0
LINE
  5
449
330
1F
100
AcDbEntity
  8
0
  6
SLD-Сплошная
 62
     7
370
    25
100
AcDbLine
 10
256.138859606
 20
-5.020187691
 30
0.0
 11
254.2884819429
 21
-3.0139218541
 31
0.0
  0
LINE
  5
44A
330
1F
100
AcDbEntity
  8
0
  6
SLD-Сплошная
 62
     7
370
    25
100
AcDbLine
 10
254.2884819429
 20
-3.0139218541
 30
0.0
 11
255.4278687486
 21
-1.9630661519
 31
0.0
  0
LINE
  5
44B
330
1F
100
AcDbEntity
  8
0
  6
SLD-Сплошная
 62
     7
370
    25
100
AcDbLine
 10
255.4278687486
 20
-1.9630661519
 30
0.0
 11
254.4787087595
 21
-0.9339425854
 31
0.0
  0
LINE
  5
44C
330
1F
100
AcDbEntity
  8
0
  6
SLD-Сплошная
 62
     7
370
    25
100
AcDbLine
 10
254.4787087595
 20
-0.9339425854
 30
0.0
 11
253.3393219537
 21
-1.9847982877
 31
0.0
  0
LINE
  5
44D
330
1F
100
AcDbEntity
  8
0
  6
SLD-Сплошная
 62
     7
370
    25
100
AcDbLine
 10
253.3393219537
 20
-1.9847982877
 30
0.0
 11
251.4889442907
 21
0.0214675492
 31
0.0
  0
LINE
  5
44E
330
1F
100
AcDbEntity
  8
0
  6
SLD-Сплошная
 62
     7
370
    25
100
AcDbLine
 10
250.4598207242
 20
-0.92769244
 30
0.0
 11
252.3101983873
 21
-2.9339582768
 31
0.0
  0
LINE
  5
44F
330
1F
100
AcDbEntity
  8
0
  6
SLD-Сплошная
 62
     7
370
    25
100
AcDbLine
 10
252.3101983873
 20
-2.9339582768
 30
0.0
 11
251.1708115816
 21
-3.9848139791
 31
0.0
  0
LINE
  5
450
330
1F
100
AcDbEntity
  8
0
  6
SLD-Сплошная
 62
     7
370
    25
100
AcDbLine
 10
251.1708115816
 20
-3.9848139791
 30
0.0
 11
252.1199715707
 21
-5.0139375455
 31
0.0
  0
LINE
  5
451
330
1F
100
AcDbEntity
  8
0
  6
SLD-Сплошная
 62
     7
370
    25
100
AcDbLine
 10
252.1199715707
 20
-5.0139375455
 30
0.0
 11
253.2593583764
 21
-3.9630818433
 31
0.0
  0
LINE
  5
452
330
1F
100
AcDbEntity
  8
0
  6
SLD-Сплошная
 62
     7
370
    25
100
AcDbLine
 10
253.2593583764
 20
-3.9630818433
 30
0.0
 11
255.1097360395
 21
-5.9693476801
 31
0.0
  0
ARC
  5
453
330
1F
100
AcDbEntity
  8
0
  6
SLD-Сплошная
 62
     7
370
    25
100
AcDbCircle
 10
253.2993401651
 20
-2.9739400655
 30
0.0
 40
3.500000000000008
100
AcDbArc
 50
222.6853253669
 51
248.2132107017
  0
LINE
  5
454
330
1F
100
AcDbEntity
  8
0
  6
SLD-Сплошная
 62
     7
370
    25
100
AcDbLine
 10
254.5983782708
 20
-6.2239400655
 30
0.0
 11
255.1097360395
 21
-5.9693476801
 31
0.0
  0
ARC
  5
455
330
1F
100
AcDbEntity
  8
0
  6
SLD-Сплошная
 62
     7
370
    25
100
AcDbCircle
 10
253.2993401651
 20
-2.9739400655
 30
0.0
 40
3.499999999999982
100
AcDbArc
 50
144.2222843997
 51
222.6853253669
  0
ARC
  5
456
330
1F
100
AcDbEntity
  8
0
  6
SLD-Сплошная
 62
     7
370
    25
100
AcDbCircle
 10
253.2993401651
 20
-2.9739400655
 30
0.0
 40
3.500000000000091
100
AcDbArc
 50
301.1483663341
 51
324.2222843997
  0
ARC
  5
457
330
1F
100
AcDbEntity
  8
0
  6
SLD-Сплошная
 62
     7
370
    25
100
AcDbCircle
 10
253.2993401651
 20
-2.9739400655
 30
0.0
 40
3.499999999999928
100
AcDbArc
 50
121.1483663341
 51
144.2222843997
  0
LINE
  5
458
330
1F
100
AcDbEntity
  8
0
  6
SLD-Сплошная
 62
     7
370
    25
100
AcDbLine
 10
235.2993401651
 20
64.2531407889
 30
0.0
 11
238.2993401651
 21
64.2531407889
 31
0.0
  0
LINE
  5
459
330
1F
100
AcDbEntity
  8
0
  6
SLD-Сплошная
 62
     7
370
    25
100
AcDbLine
 10
238.2993401651
 20
61.2531407889
 30
0.0
 11
238.2993401651
 21
64.2531407889
 31
0.0
  0
LINE
  5
45A
330
1F
100
AcDbEntity
  8
0
  6
SLD-Сплошная
 62
     7
370
    25
100
AcDbLine
 10
238.2993401651
 20
-45.7468592111
 30
0.0
 11
238.2993401651
 21
61.2531407889
 31
0.0
  0
LINE
  5
45B
330
1F
100
AcDbEntity
  8
0
  6
SLD-Сплошная
 62
     7
370
    25
100
AcDbLine
 10
235.2993401651
 20
-48.7468592111
 30
0.0
 11
238.2993401651
 21
-48.7468592111
 31
0.0
  0
LINE
  5
45C
330
1F
100
AcDbEntity
  8
0
  6
SLD-Сплошная
 62
     7
370
    25
100
AcDbLine
 10
238.2993401651
 20
-48.7468592111
 30
0.0
 11
238.2993401651
 21
-45.7468592111
 31
0.0
  0
ARC
  5
45D
330
1F
100
AcDbEntity
  8
0
  6
SLD-Сплошная
 62
     7
370
    25
100
AcDbCircle
 10
251.7993401651
 20
7.7531407889
 30
0.0
 40
2.249999999999989
100
AcDbArc
 50
129.7534549717
 51
208.2164959388
  0
LINE
  5
45E
330
1F
100
AcDbEntity
  8
0
  6
SLD-Сплошная
 62
     7
370
    25
100
AcDbLine
 10
253.1995375406
 20
9.5031407889
 30
0.0
 11
251.8575332244
 21
8.3868706744
 31
0.0
  0
LINE
  5
45F
330
1F
100
AcDbEntity
  8
0
  6
SLD-Сплошная
 62
     7
370
    25
100
AcDbLine
 10
251.8575332244
 20
8.3868706744
 30
0.0
 11
251.1860735938
 21
9.1941141101
 31
0.0
  0
LINE
  5
460
330
1F
100
AcDbEntity
  8
0
  6
SLD-Сплошная
 62
     7
370
    25
100
AcDbLine
 10
251.1860735938
 20
9.1941141101
 30
0.0
 11
250.4941506489
 21
8.6185772839
 31
0.0
  0
LINE
  5
461
330
1F
100
AcDbEntity
  8
0
  6
SLD-Сплошная
 62
     7
370
    25
100
AcDbLine
 10
250.4941506489
 20
8.6185772839
 30
0.0
 11
251.1656102795
 21
7.8113338482
 31
0.0
  0
LINE
  5
462
330
1F
100
AcDbEntity
  8
0
  6
SLD-Сплошная
 62
     7
370
    25
100
AcDbLine
 10
251.1656102795
 20
7.8113338482
 30
0.0
 11
249.8167135957
 21
6.6893307089
 31
0.0
  0
LINE
  5
463
330
1F
100
AcDbEntity
  8
0
  6
SLD-Сплошная
 62
     7
370
    25
100
AcDbLine
 10
250.3991427896
 20
6.0031407889
 30
0.0
 11
251.7411471057
 21
7.1194109033
 31
0.0
  0
LINE
  5
464
330
1F
100
AcDbEntity
  8
0
  6
SLD-Сплошная
 62
     7
370
    25
100
AcDbLine
 10
251.7411471057
 20
7.1194109033
 30
0.0
 11
252.4126067363
 21
6.3121674676
 31
0.0
  0
LINE
  5
465
330
1F
100
AcDbEntity
  8
0
  6
SLD-Сплошная
 62
     7
370
    25
100
AcDbLine
 10
252.4126067363
 20
6.3121674676
 30
0.0
 11
253.1045296812
 21
6.8877042938
 31
0.0
  0
LINE
  5
466
330
1F
100
AcDbEntity
  8
0
  6
SLD-Сплошная
 62
     7
370
    25
100
AcDbLine
 10
253.1045296812
 20
6.8877042938
 30
0.0
 11
252.4330700506
 21
7.6949477295
 31
0.0
  0
LINE
  5
467
330
1F
100
AcDbEntity
  8
0
  6
SLD-Сплошная
 62
     7
370
    25
100
AcDbLine
 10
252.4330700506
 20
7.6949477295
 30
0.0
 11
253.7819667345
 21
8.8169508688
 31
0.0
  0
ARC
  5
468
330
1F
100
AcDbEntity
  8
0
  6
SLD-Сплошная
 62
     7
370
    25
100
AcDbCircle
 10
251.7993401651
 20
7.7531407889
 30
0.0
 40
2.250000000000093
100
AcDbArc
 50
309.7534549717
 51
28.2164959388
  0
ARC
  5
469
330
1F
100
AcDbEntity
  8
0
  6
SLD-Сплошная
 62
     7
370
    25
100
AcDbCircle
 10
251.7993401651
 20
7.7531407889
 30
0.0
 40
2.249999999983592
100
AcDbArc
 50
208.2164959388
 51
231.2904140046
  0
ARC
  5
46A
330
1F
100
AcDbEntity
  8
0
  6
SLD-Сплошная
 62
     7
370
    25
100
AcDbCircle
 10
251.7993401651
 20
7.7531407889
 30
0.0
 40
2.250000000000391
100
AcDbArc
 50
28.2164959389
 51
51.2904140045
  0
ARC
  5
46B
330
1F
100
AcDbEntity
  8
0
  6
SLD-Сплошная
 62
     7
370
    25
100
AcDbCircle
 10
253.2993401651
 20
18.4802216432
 30
0.0
 40
3.500000000000127
100
AcDbArc
 50
42.6853253669
 51
68.2132107017
  0
LINE
  5
46C
330
1F
100
AcDbEntity
  8
0
  6
SLD-Сплошная
 62
     7
370
    25
100
AcDbLine
 10
252.0003020594
 20
21.7302216432
 30
0.0
 11
251.4889442907
 21
21.4756292578
 31
0.0
  0
ARC
  5
46D
330
1F
100
AcDbEntity
  8
0
  6
SLD-Сплошная
 62
     7
370
    25
100
AcDbCircle
 10
253.2993401651
 20
18.4802216432
 30
0.0
 40
3.500000000000127
100
AcDbArc
 50
324.2222843997
 51
42.6853253669
  0
LINE
  5
46E
330
1F
100
AcDbEntity
  8
0
  6
SLD-Сплошная
 62
     7
370
    25
100
AcDbLine
 10
256.138859606
 20
16.4339740177
 30
0.0
 11
254.2884819429
 21
18.4402398545
 31
0.0
  0
LINE
  5
46F
330
1F
100
AcDbEntity
  8
0
  6
SLD-Сплошная
 62
     7
370
    25
100
AcDbLine
 10
254.2884819429
 20
18.4402398545
 30
0.0
 11
255.4278687486
 21
19.4910955568
 31
0.0
  0
LINE
  5
470
330
1F
100
AcDbEntity
  8
0
  6
SLD-Сплошная
 62
     7
370
    25
100
AcDbLine
 10
255.4278687486
 20
19.4910955568
 30
0.0
 11
254.4787087595
 21
20.5202191233
 31
0.0
  0
LINE
  5
471
330
1F
100
AcDbEntity
  8
0
  6
SLD-Сплошная
 62
     7
370
    25
100
AcDbLine
 10
254.4787087595
 20
20.5202191233
 30
0.0
 11
253.3393219537
 21
19.469363421
 31
0.0
  0
LINE
  5
472
330
1F
100
AcDbEntity
  8
0
  6
SLD-Сплошная
 62
     7
370
    25
100
AcDbLine
 10
253.3393219537
 20
19.469363421
 30
0.0
 11
251.4889442907
 21
21.4756292578
 31
0.0
  0
LINE
  5
473
330
1F
100
AcDbEntity
  8
0
  6
SLD-Сплошная
 62
     7
370
    25
100
AcDbLine
 10
250.4598207242
 20
20.5264692687
 30
0.0
 11
252.3101983873
 21
18.5202034319
 31
0.0
  0
LINE
  5
474
330
1F
100
AcDbEntity
  8
0
  6
SLD-Сплошная
 62
     7
370
    25
100
AcDbLine
 10
252.3101983873
 20
18.5202034319
 30
0.0
 11
251.1708115816
 21
17.4693477296
 31
0.0
  0
LINE
  5
475
330
1F
100
AcDbEntity
  8
0
  6
SLD-Сплошная
 62
     7
370
    25
100
AcDbLine
 10
251.1708115816
 20
17.4693477296
 30
0.0
 11
252.1199715707
 21
16.4402241631
 31
0.0
  0
LINE
  5
476
330
1F
100
AcDbEntity
  8
0
  6
SLD-Сплошная
 62
     7
370
    25
100
AcDbLine
 10
252.1199715707
 20
16.4402241631
 30
0.0
 11
253.2593583764
 21
17.4910798654
 31
0.0
  0
LINE
  5
477
330
1F
100
AcDbEntity
  8
0
  6
SLD-Сплошная
 62
     7
370
    25
100
AcDbLine
 10
253.2593583764
 20
17.4910798654
 30
0.0
 11
255.1097360395
 21
15.4848140286
 31
0.0
  0
ARC
  5
478
330
1F
100
AcDbEntity
  8
0
  6
SLD-Сплошная
 62
     7
370
    25
100
AcDbCircle
 10
253.2993401651
 20
18.4802216432
 30
0.0
 40
3.499999999999999
100
AcDbArc
 50
222.6853253669
 51
248.2132107017
  0
LINE
  5
479
330
1F
100
AcDbEntity
  8
0
  6
SLD-Сплошная
 62
     7
370
    25
100
AcDbLine
 10
254.5983782708
 20
15.2302216432
 30
0.0
 11
255.1097360395
 21
15.4848140286
 31
0.0
  0
ARC
  5
47A
330
1F
100
AcDbEntity
  8
0
  6
SLD-Сплошная
 62
     7
370
    25
100
AcDbCircle
 10
253.2993401651
 20
18.4802216432
 30
0.0
 40
3.499999999999962
100
AcDbArc
 50
144.2222843997
 51
222.6853253669
  0
ARC
  5
47B
330
1F
100
AcDbEntity
  8
0
  6
SLD-Сплошная
 62
     7
370
    25
100
AcDbCircle
 10
253.2993401651
 20
18.4802216432
 30
0.0
 40
3.500000000000084
100
AcDbArc
 50
301.1483663341
 51
324.2222843997
  0
ARC
  5
47C
330
1F
100
AcDbEntity
  8
0
  6
SLD-Сплошная
 62
     7
370
    25
100
AcDbCircle
 10
253.2993401651
 20
18.4802216432
 30
0.0
 40
3.499999999999937
100
AcDbArc
 50
121.1483663341
 51
144.2222843997
  0
ARC
  5
47D
330
1F
100
AcDbEntity
  8
0
  6
SLD-Сплошная
 62
     7
370
    25
100
AcDbCircle
 10
257.7993401651
 20
7.7531407889
 30
0.0
 40
2.24999999999997
100
AcDbArc
 50
129.7534549717
 51
208.2164959388
  0
LINE
  5
47E
330
1F
100
AcDbEntity
  8
0
  6
SLD-Сплошная
 62
     7
370
    25
100
AcDbLine
 10
259.1995375406
 20
9.5031407889
 30
0.0
 11
257.8575332244
 21
8.3868706744
 31
0.0
  0
LINE
  5
47F
330
1F
100
AcDbEntity
  8
0
  6
SLD-Сплошная
 62
     7
370
    25
100
AcDbLine
 10
257.8575332244
 20
8.3868706744
 30
0.0
 11
257.1860735938
 21
9.1941141101
 31
0.0
  0
LINE
  5
480
330
1F
100
AcDbEntity
  8
0
  6
SLD-Сплошная
 62
     7
370
    25
100
AcDbLine
 10
257.1860735938
 20
9.1941141101
 30
0.0
 11
256.4941506489
 21
8.6185772839
 31
0.0
  0
LINE
  5
481
330
1F
100
AcDbEntity
  8
0
  6
SLD-Сплошная
 62
     7
370
    25
100
AcDbLine
 10
256.4941506489
 20
8.6185772839
 30
0.0
 11
257.1656102795
 21
7.8113338482
 31
0.0
  0
LINE
  5
482
330
1F
100
AcDbEntity
  8
0
  6
SLD-Сплошная
 62
     7
370
    25
100
AcDbLine
 10
257.1656102795
 20
7.8113338482
 30
0.0
 11
255.8167135957
 21
6.6893307089
 31
0.0
  0
LINE
  5
483
330
1F
100
AcDbEntity
  8
0
  6
SLD-Сплошная
 62
     7
370
    25
100
AcDbLine
 10
256.3991427896
 20
6.0031407889
 30
0.0
 11
257.7411471057
 21
7.1194109033
 31
0.0
  0
LINE
  5
484
330
1F
100
AcDbEntity
  8
0
  6
SLD-Сплошная
 62
     7
370
    25
100
AcDbLine
 10
257.7411471057
 20
7.1194109033
 30
0.0
 11
258.4126067363
 21
6.3121674676
 31
0.0
  0
LINE
  5
485
330
1F
100
AcDbEntity
  8
0
  6
SLD-Сплошная
 62
     7
370
    25
100
AcDbLine
 10
258.4126067363
 20
6.3121674676
 30
0.0
 11
259.1045296812
 21
6.8877042938
 31
0.0
  0
LINE
  5
486
330
1F
100
AcDbEntity
  8
0
  6
SLD-Сплошная
 62
     7
370
    25
100
AcDbLine
 10
259.1045296812
 20
6.8877042938
 30
0.0
 11
258.4330700506
 21
7.6949477295
 31
0.0
  0
LINE
  5
487
330
1F
100
AcDbEntity
  8
0
  6
SLD-Сплошная
 62
     7
370
    25
100
AcDbLine
 10
258.4330700506
 20
7.6949477295
 30
0.0
 11
259.7819667345
 21
8.8169508688
 31
0.0
  0
ARC
  5
488
330
1F
100
AcDbEntity
  8
0
  6
SLD-Сплошная
 62
     7
370
    25
100
AcDbCircle
 10
257.7993401651
 20
7.7531407889
 30
0.0
 40
2.250000000000093
100
AcDbArc
 50
309.7534549717
 51
28.2164959388
  0
ARC
  5
489
330
1F
100
AcDbEntity
  8
0
  6
SLD-Сплошная
 62
     7
370
    25
100
AcDbCircle
 10
257.7993401651
 20
7.7531407889
 30
0.0
 40
2.249999999983572
100
AcDbArc
 50
208.2164959388
 51
231.2904140046
  0
ARC
  5
48A
330
1F
100
AcDbEntity
  8
0
  6
SLD-Сплошная
 62
     7
370
    25
100
AcDbCircle
 10
257.7993401651
 20
7.7531407889
 30
0.0
 40
2.250000000000401
100
AcDbArc
 50
28.2164959389
 51
51.2904140045
  0
ARC
  5
48B
330
1F
100
AcDbEntity
  8
0
  6
SLD-Сплошная
 62
     7
370
    25
100
AcDbCircle
 10
152.6992747797
 20
8.0995161221
 30
0.0
 40
3.899934615535309
100
AcDbArc
 50
180.0009606343
 51
270.0009606021
  0
LINE
  5
48C
330
1F
100
AcDbEntity
  8
0
  6
SLD-Сплошная
 62
     7
370
    25
100
AcDbLine
 10
148.7993401647
 20
8.0994507349
 30
0.0
 11
148.7993401647
 21
8.2994432352
 31
0.0
  0
ARC
  5
48D
330
1F
100
AcDbEntity
  8
0
  6
SLD-Сплошная
 62
     7
370
    25
100
AcDbCircle
 10
152.6992747797
 20
8.2993786414
 30
0.0
 40
3.899934615533589
100
AcDbArc
 50
89.9990393979
 51
179.999039984
  0
SPLINE
  5
48E
330
1F
100
AcDbEntity
  8
0
  6
SLD-Сплошная
 62
     7
370
    25
100
AcDbSpline
210
0.0
220
0.0
230
1.0
 70
     8
 71
     3
 72
    28
 73
    24
 74
     0
 42
0.00000001
 43
0.00000001
 40
0.0
 40
0.0
 40
0.0
 40
0.0
 40
0.0179573985805537
 40
0.0358193046286728
 40
0.053628360563609
 40
0.0714275886494407
 40
0.0892600822755402
 40
0.1071686946860055
 40
0.125195736284966
 40
0.1876223104483228
 40
0.2502764683828732
 40
0.3126239151236294
 40
0.3753468839535387
 40
0.5000175541184293
 40
0.6245402110120357
 40
0.6871499127880484
 40
0.7494051712061864
 40
0.8119969834989684
 40
0.8743867400803758
 40
0.9059545776126509
 40
0.9372577864056388
 40
0.9685286077150895
 40
1.0
 40
1.0
 40
1.0
 40
1.0
 10
167.7993401647361
 20
11.85213068413398
 30
0.0
 10
167.8559106883238
 20
11.83658955806799
 30
0.0
 10
167.9687509089327
 20
11.80558994939229
 30
0.0
 10
168.1345813488648
 20
11.74888099496478
 30
0.0
 10
168.2971151176756
 20
11.68488063271537
 30
0.0
 10
168.4561582688944
 20
11.61285252413557
 30
0.0
 10
168.6117570902397
 20
11.53299616301435
 30
0.0
 10
168.763903476279
 20
11.44524362102404
 30
0.0
 10
169.0340876611629
 20
11.27154094358873
 30
0.0
 10
169.3999052684082
 20
10.97690634532331
 30
0.0
 10
169.8056731919753
 20
10.51532826580523
 30
0.0
 10
170.1316830897321
 20
9.993024172490353
 30
0.0
 10
170.4442600275687
 20
9.236386503985484
 30
0.0
 10
170.602620462265
 20
8.21218922696958
 30
0.0
 10
170.4444805390663
 20
7.188201649174933
 30
0.0
 10
170.1327252675194
 20
6.432151999368271
 30
0.0
 10
169.8076039011652
 20
5.910039354614016
 30
0.0
 10
169.4026899209148
 20
5.448147224160439
 30
0.0
 10
169.0029447388711
 20
5.125239093499442
 30
0.0
 10
168.6550062790709
 20
4.909288874084318
 30
0.0
 10
168.3803387998626
 20
4.770386848467846
 30
0.0
 10
168.0953938179241
 20
4.654133621340617
 30
0.0
 10
167.8982348049434
 20
4.59769816212062
 30
0.0
 10
167.7993401647234
 20
4.569390227571573
 30
0.0
  0
ARC
  5
48F
330
1F
100
AcDbEntity
  8
0
  6
SLD-Сплошная
 62
     7
370
    25
100
AcDbCircle
 10
166.8993404886
 20
8.0997059847
 30
0.0
 40
3.900124477622304
100
AcDbArc
 50
269.9999952419
 51
283.3419252002
  0
ARC
  5
490
330
1F
100
AcDbEntity
  8
0
  6
SLD-Сплошная
 62
     7
370
    25
100
AcDbCircle
 10
166.8993404886
 20
8.2991887788
 30
0.0
 40
3.900124477622245
100
AcDbArc
 50
76.6580747998
 51
90.0000047581
  0
LINE
  5
491
330
1F
100
AcDbEntity
  8
0
  6
SLD-Сплошная
 62
     7
370
    25
100
AcDbLine
 10
166.8993401647
 20
4.2010736287
 30
0.0
 11
166.8993401647
 21
4.1994493308
 31
0.0
  0
LINE
  5
492
330
1F
100
AcDbEntity
  8
0
  6
SLD-Сплошная
 62
     7
370
    25
100
AcDbLine
 10
152.6993401647
 20
4.2010736287
 30
0.0
 11
152.6993401647
 21
4.1994493308
 31
0.0
  0
LINE
  5
493
330
1F
100
AcDbEntity
  8
0
  6
SLD-Сплошная
 62
     7
370
    25
100
AcDbLine
 10
178.9290628532
 20
17.7531407889
 30
0.0
 11
194.2993401651
 21
17.7531407889
 31
0.0
  0
LINE
  5
494
330
1F
100
AcDbEntity
  8
0
  6
SLD-Сплошная
 62
     7
370
    25
100
AcDbLine
 10
194.2993401651
 20
-2.2468592111
 30
0.0
 11
178.9290628532
 21
-2.2468592111
 31
0.0
  0
SPLINE
  5
495
330
1F
100
AcDbEntity
  8
0
  6
SLD-Сплошная
 62
     7
370
    25
100
AcDbSpline
210
0.0
220
0.0
230
1.0
 70
     8
 71
     3
 72
    14
 73
    10
 74
     0
 42
0.00000001
 43
0.00000001
 40
0.0
 40
0.0
 40
0.0
 40
0.0
 40
0.1588365912376106
 40
0.3177234034736406
 40
0.4766258843044664
 40
0.6355595461045253
 40
0.7943045164411536
 40
0.9529478349080135
 40
1.0
 40
1.0
 40
1.0
 40
1.0
 10
167.7993401647361
 20
-16.62192142448611
 30
0.0
 10
168.1847269755672
 20
-16.75040262384068
 30
0.0
 10
168.9556224489404
 20
-17.00740564577183
 30
0.0
 10
169.8471140532263
 20
-17.80000199135589
 30
0.0
 10
170.4135441369285
 20
-18.77452639503793
 30
0.0
 10
170.6054762838098
 20
-19.85409552442594
 30
0.0
 10
170.4009952606849
 20
-20.89892634122688
 30
0.0
 10
170.0176601179883
 20
-21.66363218662823
 30
0.0
 10
169.6241263277284
 20
-21.96223992182199
 30
0.0
 10
169.5341067679976
 20
-22.0305454587788
 30
0.0
  0
LINE
  5
496
330
1F
100
AcDbEntity
  8
0
  6
SLD-Сплошная
 62
     7
370
    25
100
AcDbLine
 10
167.7993401647
 20
4.5693902276
 30
0.0
 11
167.7993401647
 21
-16.6219214245
 31
0.0
  0
LINE
  5
497
330
1F
100
AcDbEntity
  8
0
  6
SLD-Сплошная
 62
     7
370
    25
100
AcDbLine
 10
167.7993401647
 20
33.522870908
 30
0.0
 11
167.7993401647
 21
11.8521306841
 31
0.0
  0
LINE
  5
498
330
1F
100
AcDbEntity
  8
0
  6
SLD-Сплошная
 62
     7
370
    25
100
AcDbLine
 10
167.7993401647
 20
33.522870908
 30
0.0
 11
170.6379117585
 21
33.522870908
 31
0.0
  0
SPLINE
  5
499
330
1F
100
AcDbEntity
  8
0
  6
SLD-Сплошная
 62
     7
370
    25
100
AcDbSpline
210
0.0
220
0.0
230
1.0
 70
     8
 71
     3
 72
    14
 73
    10
 74
     0
 42
0.00000001
 43
0.00000001
 40
0.0
 40
0.0
 40
0.0
 40
0.0
 40
0.1426221706461689
 40
0.2847025815440967
 40
0.4266136992019028
 40
0.5687293212605512
 40
0.7114216382392005
 40
0.855058357766632
 40
0.9999999999999999
 40
0.9999999999999999
 40
0.9999999999999999
 40
0.9999999999999999
 10
171.7993401647361
 20
33.70671922027213
 30
0.0
 10
171.7461953559175
 20
33.69000361839091
 30
0.0
 10
171.6401076123514
 20
33.65663590994779
 30
0.0
 10
171.4777570800653
 20
33.615789601276
 30
0.0
 10
171.3136396663483
 20
33.58191501569502
 30
0.0
 10
171.1474896911055
 20
33.55561289996294
 30
0.0
 10
170.9793826128544
 20
33.53689432389528
 30
0.0
 10
170.8093027916718
 20
33.52514665263008
 30
0.0
 10
170.6952140688249
 20
33.52363177293066
 30
0.0
 10
170.6379117584616
 20
33.52287090801313
 30
0.0
  0
LINE
  5
49A
330
1F
100
AcDbEntity
  8
0
  6
SLD-Сплошная
 62
     7
370
    25
100
AcDbLine
 10
171.7993401647
 20
33.7067192203
 30
0.0
 11
171.7993401647
 21
-48.24685921
 31
0.0
  0
SPLINE
  5
49B
330
1F
100
AcDbEntity
  8
0
  6
SLD-Сплошная
 62
     7
370
    25
100
AcDbSpline
210
0.0
220
0.0
230
1.0
 70
     8
 71
     3
 72
    12
 73
     8
 74
     0
 42
0.00000001
 43
0.00000001
 40
0.0
 40
0.0
 40
0.0
 40
0.0
 40
0.2491479565665451
 40
0.4983746888045624
 40
0.7476259984925672
 40
0.9969262180363437
 40
1.0
 40
1.0
 40
1.0
 40
1.0
 10
167.7993401647361
 20
-48.09664239531951
 30
0.0
 10
168.1841176006763
 20
-48.10694129371151
 30
0.0
 10
168.9537941315953
 20
-48.12754234680407
 30
0.0
 10
169.8544303210039
 20
-48.18106204367008
 30
0.0
 10
170.3861031272931
 20
-48.22359394880276
 30
0.0
 10
170.6020309412808
 20
-48.24605795866467
 30
0.0
 10
170.5378575473387
 20
-48.24495696963395
 30
0.0
 10
170.5370759493149
 20
-48.24494356016942
 30
0.0
  0
LINE
  5
49C
330
1F
100
AcDbEntity
  8
0
  6
SLD-Сплошная
 62
     7
370
    25
100
AcDbLine
 10
167.7993401647
 20
-43.1152409876
 30
0.0
 11
167.7993401647
 21
-48.0966423953
 31
0.0
  0
SPLINE
  5
49D
330
1F
100
AcDbEntity
  8
0
  6
SLD-Сплошная
 62
     7
370
    25
100
AcDbSpline
210
0.0
220
0.0
230
1.0
 70
     8
 71
     3
 72
    12
 73
     8
 74
     0
 42
0.00000001
 43
0.00000001
 40
0.0
 40
0.0
 40
0.0
 40
0.0
 40
0.2116276157258785
 40
0.4233221439312417
 40
0.6350375483549444
 40
0.8467944970734698
 40
0.9999999999999999
 40
0.9999999999999999
 40
0.9999999999999999
 40
0.9999999999999999
 10
167.7993401647361
 20
-38.56469529727481
 30
0.0
 10
168.1845662572714
 20
-38.64482704864827
 30
0.0
 10
168.955140243237
 20
-38.80511588747505
 30
0.0
 10
169.8490436668459
 20
-39.29351579796008
 30
0.0
 10
170.4063067656982
 20
-39.88111419685088
 30
0.0
 10
170.6117213660367
 20
-40.46337091353864
 30
0.0
 10
170.4649291022363
 20
-40.80483982751336
 30
0.0
 10
170.4033080162865
 20
-40.94818311245533
 30
0.0
  0
LINE
  5
49E
330
1F
100
AcDbEntity
  8
0
  6
SLD-Сплошная
 62
     7
370
    25
100
AcDbLine
 10
167.7993401647
 20
-22.9587802568
 30
0.0
 11
167.7993401647
 21
-38.5646952973
 31
0.0
  0
SPLINE
  5
49F
330
1F
100
AcDbEntity
  8
0
  6
SLD-Сплошная
 62
     7
370
    25
100
AcDbSpline
210
0.0
220
0.0
230
1.0
 70
     8
 71
     3
 72
    23
 73
    19
 74
     0
 42
0.00000001
 43
0.00000001
 40
0.0
 40
0.0
 40
0.0
 40
0.0
 40
0.031251723142634
 40
0.0624344626022908
 40
0.0936235703430636
 40
0.1248943522885099
 40
0.1874758966858576
 40
0.250101501898403
 40
0.3123676673812402
 40
0.3746623197422773
 40
0.4997926814628072
 40
0.6244030802113302
 40
0.6868893174084293
 40
0.7493702563048503
 40
0.8119567398458073
 40
0.874553123215552
 40
0.9372752340590176
 40
0.9999999999999999
 40
0.9999999999999999
 40
0.9999999999999999
 40
0.9999999999999999
 10
152.6993401647361
 20
4.201073628681518
 30
0.0
 10
152.6355531901702
 20
4.201968493122545
 30
0.0
 10
152.5081200416082
 20
4.203756246720081
 30
0.0
 10
152.3174869342334
 20
4.218285644514777
 30
0.0
 10
152.1277328365775
 20
4.241506007060126
 30
0.0
 10
151.8762161685289
 20
4.285098623020215
 30
0.0
 10
151.5658547774642
 20
4.362522202135947
 30
0.0
 10
151.2051147763824
 20
4.4915595554859
 30
0.0
 10
150.8591484211415
 20
4.654787362615709
 30
0.0
 10
150.421447908259
 20
4.916661421444987
 30
0.0
 10
149.9255091714212
 20
5.322610853403874
 30
0.0
 10
149.5184814760327
 20
5.818129594926969
 30
0.0
 10
149.2558361712161
 20
6.255150503532013
 30
0.0
 10
149.0917540745216
 20
6.60155647234158
 30
0.0
 10
148.9619484585798
 20
6.962533920885464
 30
0.0
 10
148.8690514328022
 20
7.335075188643325
 30
0.0
 10
148.8101933747076
 20
7.715257891344772
 30
0.0
 10
148.8029579524395
 20
7.97138425808216
 30
0.0
 10
148.7993401647362
 20
8.099450151922799
 30
0.0
  0
SPLINE
  5
4A0
330
1F
100
AcDbEntity
  8
0
  6
SLD-Сплошная
 62
     7
370
    25
100
AcDbSpline
210
0.0
220
0.0
230
1.0
 70
     8
 71
     3
 72
    12
 73
     8
 74
     0
 42
0.00000001
 43
0.00000001
 40
0.0
 40
0.0
 40
0.0
 40
0.0
 40
0.199518074662225
 40
0.3988445040836289
 40
0.5984129591612968
 40
0.7986555383431786
 40
1.0
 40
1.0
 40
1.0
 40
1.0
 10
167.7993401647362
 20
4.306192141616749
 30
0.0
 10
167.7403857248269
 20
4.293061526856009
 30
0.0
 10
167.6225334731502
 20
4.266812909825061
 30
0.0
 10
167.443623142583
 20
4.237875316005722
 30
0.0
 10
167.2634562876219
 20
4.216838944049468
 30
0.0
 10
167.0818595674184
 20
4.20370163153155
 30
0.0
 10
166.9602911529046
 20
4.201951230559803
 30
0.0
 10
166.8993401647362
 20
4.201073628681504
 30
0.0
  0
SPLINE
  5
4A1
330
1F
100
AcDbEntity
  8
0
  6
SLD-Сплошная
 62
     7
370
    25
100
AcDbSpline
210
0.0
220
0.0
230
1.0
 70
     8
 71
     3
 72
    23
 73
    19
 74
     0
 42
0.00000001
 43
0.00000001
 40
0.0
 40
0.0
 40
0.0
 40
0.0
 40
0.0314925426844364
 40
0.0629104413552928
 40
0.0943306803157888
 40
0.1258302267103286
 40
0.1880639520114254
 40
0.2503161727204562
 40
0.3129060153093884
 40
0.375513881920626
 40
0.5000365643752479
 40
0.6248118547906191
 40
0.6873377073263175
 40
0.7498835151488549
 40
0.8121372546428981
 40
0.8744271799044449
 40
0.937202478385641
 40
1.0
 40
1.0
 40
1.0
 40
1.0
 10
148.7993401647362
 20
8.29944323524049
 30
0.0
 10
148.8002495997196
 20
8.36371818414354
 30
0.0
 10
148.8020663141325
 20
8.492115736672002
 30
0.0
 10
148.8168346589154
 20
8.684160783045215
 30
0.0
 10
148.840436279427
 20
8.8752717757932
 30
0.0
 10
148.8844660479175
 20
9.126900383912266
 30
0.0
 10
148.9621204465749
 20
9.436083290719383
 30
0.0
 10
149.0912657777049
 20
9.795792026347947
 30
0.0
 10
149.2551242355943
 20
10.14191175869165
 30
0.0
 10
149.5177745572117
 20
10.57898950513218
 30
0.0
 10
149.9242868054037
 20
11.07369425123186
 30
0.0
 10
150.4196085080384
 20
11.47927191502963
 30
0.0
 10
150.8574123326212
 20
11.74135125445239
 30
0.0
 10
151.2035835622718
 20
11.90460102061301
 30
0.0
 10
151.5635502853102
 20
12.0334946993698
 30
0.0
 10
151.9349328476494
 20
12.12585752849536
 30
0.0
 10
152.3147379236951
 20
12.18457865186561
 30
0.0
 10
152.5711242931426
 20
12.19180378567841
 30
0.0
 10
152.6993401647361
 20
12.19541699191547
 30
0.0
  0
LINE
  5
4A2
330
1F
100
AcDbEntity
  8
0
  6
SLD-Сплошная
 62
     7
370
    25
100
AcDbLine
 10
167.7993401647
 20
32.761134121
 30
0.0
 11
148.7993401647
 21
32.761134121
 31
0.0
  0
LINE
  5
4A3
330
1F
100
AcDbEntity
  8
0
  6
SLD-Сплошная
 62
     7
370
    25
100
AcDbLine
 10
152.6993401647
 20
-15.5590622135
 30
0.0
 11
166.8993401647
 21
-15.5590622135
 31
0.0
  0
SPLINE
  5
4A4
330
1F
100
AcDbEntity
  8
0
  6
SLD-Сплошная
 62
     7
370
    25
100
AcDbSpline
210
0.0
220
0.0
230
1.0
 70
     8
 71
     3
 72
    23
 73
    19
 74
     0
 42
0.00000001
 43
0.00000001
 40
0.0
 40
0.0
 40
0.0
 40
0.0
 40
0.0314925426924505
 40
0.0629104413659603
 40
0.0943306803237806
 40
0.1258302267103844
 40
0.1880639521269995
 40
0.2503161727213824
 40
0.3129060154236889
 40
0.3755138819205938
 40
0.5000365643751937
 40
0.6248118547905191
 40
0.6873377073153378
 40
0.7498835151489729
 40
0.8121372546695508
 40
0.8744271799046551
 40
0.9372024784048595
 40
1.0
 40
1.0
 40
1.0
 40
1.0
 10
148.7993401647362
 20
-19.02237835987257
 30
0.0
 10
148.8002495997194
 20
-18.96635961036507
 30
0.0
 10
148.8020663141317
 20
-18.85445488769144
 30
0.0
 10
148.8168346589145
 20
-18.6866478601652
 30
0.0
 10
148.8404362794215
 20
-18.51934520247501
 30
0.0
 10
148.8844660479787
 20
-18.29861560357951
 30
0.0
 10
148.9621204465529
 20
-18.02659736811371
 30
0.0
 10
149.091265777886
 20
-17.70891649692584
 30
0.0
 10
149.2551242357837
 20
-17.4021101319805
 30
0.0
 10
149.5177745573163
 20
-17.01331600546013
 30
0.0
 10
149.9242868054166
 20
-16.57100186046213
 30
0.0
 10
150.4196085080269
 20
-16.20632689102241
 30
0.0
 10
150.8574123325889
 20
-15.96995710812568
 30
0.0
 10
151.2035835623034
 20
-15.82244900279538
 30
0.0
 10
151.5635502853582
 20
-15.70580917060138
 30
0.0
 10
151.9349328477409
 20
-15.62213306628168
 30
0.0
 10
152.314737923736
 20
-15.56889266204408
 30
0.0
 10
152.5711242931823
 20
-15.56233941626492
 30
0.0
 10
152.6993401647362
 20
-15.55906221349905
 30
0.0
  0
SPLINE
  5
4A5
330
1F
100
AcDbEntity
  8
0
  6
SLD-Сплошная
 62
     7
370
    25
100
AcDbSpline
210
0.0
220
0.0
230
1.0
 70
     8
 71
     3
 72
    12
 73
     8
 74
     0
 42
0.00000001
 43
0.00000001
 40
0.0
 40
0.0
 40
0.0
 40
0.0
 40
0.2013359503699629
 40
0.4015742139798889
 40
0.6011426226580672
 40
0.8004733214725677
 40
1.0
 40
1.0
 40
1.0
 40
1.0
 10
166.8993401647362
 20
-15.55906221349906
 30
0.0
 10
166.9602886022488
 20
-15.55985658754635
 30
0.0
 10
167.0818531854367
 20
-15.56144100470114
 30
0.0
 10
167.2634461148059
 20
-15.57333978765315
 30
0.0
 10
167.4436129813573
 20
-15.59239032650284
 30
0.0
 10
167.6225271229688
 20
-15.61859214285748
 30
0.0
 10
167.7403831811766
 20
-15.64234788260912
 30
0.0
 10
167.7993401647362
 20
-15.65423158871027
 30
0.0
  0
LINE
  5
4A6
330
1F
100
AcDbEntity
  8
0
  6
SLD-Сплошная
 62
     7
370
    25
100
AcDbLine
 10
145.7993401647
 20
-36.6348023687
 30
0.0
 11
145.7993401647
 21
31.4625334705
 31
0.0
  0
SPLINE
  5
4A7
330
1F
100
AcDbEntity
  8
0
  6
SLD-Сплошная
 62
     7
370
    25
100
AcDbSpline
210
0.0
220
0.0
230
1.0
 70
     8
 71
     3
 72
    15
 73
    11
 74
     0
 42
0.00000001
 43
0.00000001
 40
0.0
 40
0.0
 40
0.0
 40
0.0
 40
0.1300147555518978
 40
0.2575995300933338
 40
0.3832385488622162
 40
0.5074317813725053
 40
0.6306899317984883
 40
0.7535287432189302
 40
0.8764629162064398
 40
1.0
 40
1.0
 40
1.0
 40
1.0
 10
145.9659352580962
 20
31.73817653301172
 30
0.0
 10
145.9517483771724
 20
31.71725062026298
 30
0.0
 10
145.9236397686996
 20
31.67578990091641
 30
0.0
 10
145.8889341196569
 20
31.62205443316164
 30
0.0
 10
145.8600062880366
 20
31.57556419962901
 30
0.0
 10
145.8370841372604
 20
31.53694081126732
 30
0.0
 10
145.8197330167658
 20
31.50607611511501
 30
0.0
 10
145.8078075795843
 20
31.48326477533721
 30
0.0
 10
145.8006086651291
 20
31.4678303302095
 30
0.0
 10
145.7997636871873
 20
31.46430196738934
 30
0.0
 10
145.7993401647362
 20
31.4625334704901
 30
0.0
  0
SPLINE
  5
4A8
330
1F
100
AcDbEntity
  8
0
  6
SLD-Сплошная
 62
     7
370
    25
100
AcDbSpline
210
0.0
220
0.0
230
1.0
 70
     8
 71
     3
 72
    24
 73
    20
 74
     0
 42
0.00000001
 43
0.00000001
 40
0.0
 40
0.0
 40
0.0
 40
0.0
 40
0.0445312901726558
 40
0.0892501225554818
 40
0.1341569154918876
 40
0.1792520803762059
 40
0.2245360209015906
 40
0.2700091323300698
 40
0.315671800792528
 40
0.3615244026264316
 40
0.407567303758899
 40
0.4538008591424487
 40
0.5002254122505784
 40
0.5767029714743855
 40
0.6559068209311639
 40
0.7378378656470331
 40
0.8224967888719008
 40
0.9098840694660656
 40
1.0
 40
1.0
 40
1.0
 40
1.0
 10
148.7993401647362
 20
32.76113412096728
 30
0.0
 10
148.7442769425515
 20
32.76068833353555
 30
0.0
 10
148.6339186010521
 20
32.75979488125155
 30
0.0
 10
148.4685379753527
 20
32.75255756244084
 30
0.0
 10
148.3034820201972
 20
32.74096449252674
 30
0.0
 10
148.1392754123969
 20
32.72457148143741
 30
0.0
 10
147.9764509026864
 20
32.70348844471855
 30
0.0
 10
147.8155475730213
 20
32.6776943536877
 30
0.0
 10
147.6571091910551
 20
32.64722249161655
 30
0.0
 10
147.5016819186503
 20
32.61211065508778
 30
0.0
 10
147.3498140441388
 20
32.57241590219703
 30
0.0
 10
147.2020477732312
 20
32.52820719851016
 30
0.0
 10
147.0282569491142
 20
32.46915548614912
 30
0.0
 10
146.8315301779821
 20
32.39067422868739
 30
0.0
 10
146.6188386868213
 20
32.2875382867711
 30
0.0
 10
146.4206270806896
 20
32.17033035331765
 30
0.0
 10
146.2420257025519
 20
32.03912136986394
 30
0.0
 10
146.0845814881507
 20
31.89495628338871
 30
0.0
 10
146.0058872411992
 20
31.79096929292552
 30
0.0
 10
145.9659352580962
 20
31.73817653301173
 30
0.0
  0
SPLINE
  5
4A9
330
1F
100
AcDbEntity
  8
0
  6
SLD-Сплошная
 62
     7
370
    25
100
AcDbSpline
210
0.0
220
0.0
230
1.0
 70
     8
 71
     3
 72
    14
 73
    10
 74
     0
 42
0.00000001
 43
0.00000001
 40
0.0
 40
0.0
 40
0.0
 40
0.0
 40
0.25
 40
0.25
 40
0.5
 40
0.5
 40
0.75
 40
0.75
 40
1.0
 40
1.0
 40
1.0
 40
1.0
 10
175.2570573902651
 20
34.12105187446654
 30
0.0
 10
175.2570573902651
 20
33.81632356756923
 30
0.0
 10
175.1884858009867
 20
33.48755983902602
 30
0.0
 10
174.8773226032808
 20
32.85097493378571
 30
0.0
 10
174.6336764839247
 20
32.54512722819442
 30
0.0
 10
174.0102955775843
 20
32.040236837971
 30
0.0
 10
173.6326698124568
 20
31.84290229816253
 30
0.0
 10
172.8466875817082
 20
31.59088413925673
 30
0.0
 10
172.4407677324902
 20
31.5353464477476
 30
0.0
 10
172.0645240728373
 20
31.53534644774759
 30
0.0
  0
SPLINE
  5
4AA
330
1F
100
AcDbEntity
  8
0
  6
SLD-Сплошная
 62
     7
370
    25
100
AcDbSpline
210
0.0
220
0.0
230
1.0
 70
     8
 71
     3
 72
     9
 73
     5
 74
     0
 42
0.00000001
 43
0.00000001
 40
0.0
 40
0.0
 40
0.0
 40
0.0
 40
0.3773383233418578
 40
1.0
 40
1.0
 40
1.0
 40
1.0
 10
174.7808317000621
 20
35.4009003362975
 30
0.0
 10
174.8949103250997
 20
35.25722717867772
 30
0.0
 10
175.1972348386219
 20
34.87647296228282
 30
0.0
 10
175.234101766894
 20
34.41092854308382
 30
0.0
 10
175.2570573902651
 20
34.12105187446654
 30
0.0
  0
LINE
  5
4AB
330
1F
100
AcDbEntity
  8
0
  6
SLD-Сплошная
 62
     7
370
    25
100
AcDbLine
 10
171.7993401647
 20
-2.2468592111
 30
0.0
 11
178.9290628532
 21
-2.2468592111
 31
0.0
  0
LINE
  5
4AC
330
1F
100
AcDbEntity
  8
0
  6
SLD-Сплошная
 62
     7
370
    25
100
AcDbLine
 10
171.7993401647
 20
17.7531407889
 30
0.0
 11
178.9290628532
 21
17.7531407889
 31
0.0
  0
LINE
  5
4AD
330
1F
100
AcDbEntity
  8
0
  6
SLD-Сплошная
 62
     7
370
    25
100
AcDbLine
 10
148.7993401647
 20
-19.2094326347
 30
0.0
 11
148.7993401647
 21
-19.0223783599
 31
0.0
  0
LINE
  5
4AE
330
1F
100
AcDbEntity
  8
0
  6
SLD-Сплошная
 62
     7
370
    25
100
AcDbLine
 10
152.6993401647
 20
-37.0670554503
 30
0.0
 11
166.8993401647
 21
-37.0670554503
 31
0.0
  0
SPLINE
  5
4AF
330
1F
100
AcDbEntity
  8
0
  6
SLD-Сплошная
 62
     7
370
    25
100
AcDbSpline
210
0.0
220
0.0
230
1.0
 70
     8
 71
     3
 72
    23
 73
    19
 74
     0
 42
0.00000001
 43
0.00000001
 40
0.0
 40
0.0
 40
0.0
 40
0.0
 40
0.031492542693259
 40
0.0629104413670437
 40
0.0943306803246099
 40
0.1258302267104456
 40
0.1880639520726
 40
0.2503161727209184
 40
0.3129060153525642
 40
0.3755138819205193
 40
0.5000365643751237
 40
0.6248118547904663
 40
0.6873377072840791
 40
0.7498835151486946
 40
0.812137254627621
 40
0.8744271799045135
 40
0.9372024783916477
 40
1.0
 40
1.0
 40
1.0
 40
1.0
 10
148.7993401647362
 20
-39.16972122185207
 30
0.0
 10
148.8002495997194
 20
-39.1369688504472
 30
0.0
 10
148.8020663141317
 20
-39.07154173771877
 30
0.0
 10
148.816834658914
 20
-38.97293648656468
 30
0.0
 10
148.8404362794224
 20
-38.87427077593784
 30
0.0
 10
148.8844660479536
 20
-38.74358450429692
 30
0.0
 10
148.9621204465749
 20
-38.58161800671054
 30
0.0
 10
149.0912657777846
 20
-38.3910873330884
 30
0.0
 10
149.2551242356832
 20
-38.20580285292731
 30
0.0
 10
149.5177745572415
 20
-37.96946941860057
 30
0.0
 10
149.9242868054128
 20
-37.69806359238003
 30
0.0
 10
150.419608507971
 20
-37.47200568085271
 30
0.0
 10
150.8574123325443
 20
-37.32468054697714
 30
0.0
 10
151.2035835621652
 20
-37.23243878017318
 30
0.0
 10
151.563550285272
 20
-37.15930634337968
 30
0.0
 10
151.934932847632
 20
-37.10673790844407
 30
0.0
 10
152.3147379237075
 20
-37.07324394660564
 30
0.0
 10
152.5711242931549
 20
-37.06911852578862
 30
0.0
 10
152.6993401647362
 20
-37.06705545033406
 30
0.0
  0
SPLINE
  5
4B0
330
1F
100
AcDbEntity
  8
0
  6
SLD-Сплошная
 62
     7
370
    25
100
AcDbSpline
210
0.0
220
0.0
230
1.0
 70
     8
 71
     3
 72
    12
 73
     8
 74
     0
 42
0.00000001
 43
0.00000001
 40
0.0
 40
0.0
 40
0.0
 40
0.0
 40
0.2013359503668257
 40
0.4015742139751532
 40
0.6011426226533251
 40
0.8004733214693965
 40
1.0
 40
1.0
 40
1.0
 40
1.0
 10
166.8993401647362
 20
-37.06705545033407
 30
0.0
 10
166.9602886022479
 20
-37.06755544977953
 30
0.0
 10
167.0818531854343
 20
-37.06855272266566
 30
0.0
 10
167.2634461148022
 20
-37.0760412394069
 30
0.0
 10
167.4436129813535
 20
-37.08802647326144
 30
0.0
 10
167.6225271229665
 20
-37.10450517703778
 30
0.0
 10
167.7403831811757
 20
-37.11943261665218
 30
0.0
 10
167.7993401647362
 20
-37.12690000377947
 30
0.0
  0
LINE
  5
4B1
330
1F
100
AcDbEntity
  8
0
  6
SLD-Сплошная
 62
     7
370
    25
100
AcDbLine
 10
172.0645240728
 20
31.5353464477
 30
0.0
 11
171.7993401647
 21
31.5353464477
 31
0.0
  0
LINE
  5
4B2
330
1F
100
AcDbEntity
  8
0
  6
SLD-Сплошная
 62
     7
370
    25
100
AcDbLine
 10
171.7993401647
 20
63.75314079
 30
0.0
 11
171.7993401647
 21
39.6049857682
 31
0.0
  0
LINE
  5
4B3
330
1F
100
AcDbEntity
  8
0
  6
SLD-Сплошная
 62
     7
370
    25
100
AcDbLine
 10
167.7993401647
 20
54.5802473162
 30
0.0
 11
167.7993401647
 21
40.41704076
 31
0.0
  0
SPLINE
  5
4B4
330
1F
100
AcDbEntity
  8
0
  6
SLD-Сплошная
 62
     7
370
    25
100
AcDbSpline
210
0.0
220
0.0
230
1.0
 70
     8
 71
     3
 72
    12
 73
     8
 74
     0
 42
0.00000001
 43
0.00000001
 40
0.0
 40
0.0
 40
0.0
 40
0.0
 40
0.1493537344734707
 40
0.3618267070321013
 40
0.5741636231544875
 40
0.7866592915812108
 40
1.0
 40
1.0
 40
1.0
 40
1.0
 10
170.4071997978684
 20
56.88801869372537
 30
0.0
 10
170.4668001815085
 20
56.75292353622228
 30
0.0
 10
170.6111890086536
 20
56.42563988209973
 30
0.0
 10
170.4062572888845
 20
55.86409602760026
 30
0.0
 10
169.8508326088043
 20
55.29241870160182
 30
0.0
 10
168.9574547390297
 20
54.81554433876044
 30
0.0
 10
168.1858887275774
 20
54.6587833504902
 30
0.0
 10
167.7993401647362
 20
54.58024731620929
 30
0.0
  0
LINE
  5
4B5
330
1F
100
AcDbEntity
  8
0
  6
SLD-Сплошная
 62
     7
370
    25
100
AcDbLine
 10
167.7993401647
 20
63.6625651508
 30
0.0
 11
167.7993401647
 21
59.0678291593
 31
0.0
  0
SPLINE
  5
4B6
330
1F
100
AcDbEntity
  8
0
  6
SLD-Сплошная
 62
     7
370
    25
100
AcDbSpline
210
0.0
220
0.0
230
1.0
 70
     8
 71
     3
 72
    11
 73
     7
 74
     0
 42
0.00000001
 43
0.00000001
 40
0.0
 40
0.0
 40
0.0
 40
0.0
 40
0.1710481470893839
 40
0.4468620709883131
 40
0.7228822053606088
 40
1.0
 40
1.0
 40
1.0
 40
1.0
 10
170.4679584089285
 20
63.7500810523729
 30
0.0
 10
170.4420033894762
 20
63.75025650377689
 30
0.0
 10
170.374196085262
 20
63.75071486932534
 30
0.0
 10
169.8386443880813
 20
63.72436532780002
 30
0.0
 10
168.9605168879454
 20
63.68684005182406
 30
0.0
 10
168.186910793346
 20
63.67066748222566
 30
0.0
 10
167.7993401647362
 20
63.66256515080759
 30
0.0
  0
LINE
  5
4B7
330
1F
100
AcDbEntity
  8
0
  6
SLD-Сплошная
 62
     7
370
    25
100
AcDbLine
 10
145.7993401647
 20
39.4308444261
 30
0.0
 11
145.7993401647
 21
59.25314079
 31
0.0
  0
SPLINE
  5
4B8
330
1F
100
AcDbEntity
  8
0
  6
SLD-Сплошная
 62
     7
370
    25
100
AcDbSpline
210
0.0
220
0.0
230
1.0
 70
     8
 71
     3
 72
    23
 73
    19
 74
     0
 42
0.00000001
 43
0.00000001
 40
0.0
 40
0.0
 40
0.0
 40
0.0
 40
0.0312517231413941
 40
0.0624344626004519
 40
0.0936235703412596
 40
0.1248943522873673
 40
0.187475896665634
 40
0.2501015018959626
 40
0.312367667359242
 40
0.374662319738837
 40
0.4997926814582437
 40
0.6244030801459395
 40
0.6868893173234047
 40
0.7493702563079936
 40
0.8119567399912191
 40
0.8745531233680345
 40
0.937275234117402
 40
1.0
 40
1.0
 40
1.0
 40
1.0
 10
152.6993401647362
 20
53.07513916569058
 30
0.0
 10
152.6355531901723
 20
53.07563724927317
 30
0.0
 10
152.5081200416129
 20
53.0766323169905
 30
0.0
 10
152.31748693424
 20
53.08471730164466
 30
0.0
 10
152.1277328365823
 20
53.09763136247609
 30
0.0
 10
151.8762161685674
 20
53.12185585586732
 30
0.0
 10
151.5658547775052
 20
53.16481959673247
 30
0.0
 10
151.2051147764527
 20
53.23619525764676
 30
0.0
 10
150.8591484211715
 20
53.32610022966833
 30
0.0
 10
150.4214479082824
 20
53.4695858689113
 30
0.0
 10
149.9255091716046
 20
53.69008511462461
 30
0.0
 10
149.5184814759519
 20
53.95489889158388
 30
0.0
 10
149.2558361711476
 20
54.18500047621016
 30
0.0
 10
149.091754074491
 20
54.36552606048725
 30
0.0
 10
148.961948458475
 20
54.55162025706014
 30
0.0
 10
148.8690514326497
 20
54.74145212607813
 30
0.0
 10
148.810193374674
 20
54.93306586601673
 30
0.0
 10
148.8029579524291
 20
55.06017245852765
 30
0.0
 10
148.7993401647363
 20
55.12372709991401
 30
0.0
  0
LINE
  5
4B9
330
1F
100
AcDbEntity
  8
0
  6
SLD-Сплошная
 62
     7
370
    25
100
AcDbLine
 10
166.8993401647
 20
53.0751391657
 30
0.0
 11
152.6993401647
 21
53.0751391657
 31
0.0
  0
SPLINE
  5
4BA
330
1F
100
AcDbEntity
  8
0
  6
SLD-Сплошная
 62
     7
370
    25
100
AcDbSpline
210
0.0
220
0.0
230
1.0
 70
     8
 71
     3
 72
    12
 73
     8
 74
     0
 42
0.00000001
 43
0.00000001
 40
0.0
 40
0.0
 40
0.0
 40
0.0
 40
0.1995180746638578
 40
0.3988445040860794
 40
0.5984129591637287
 40
0.7986555383448001
 40
1.0
 40
1.0
 40
1.0
 40
1.0
 10
167.7993401647362
 20
53.13355599482501
 30
0.0
 10
167.7403857248265
 20
53.12626738210459
 30
0.0
 10
167.622533473149
 20
53.11169715767329
 30
0.0
 10
167.4436231425812
 20
53.09561203593023
 30
0.0
 10
167.26345628762
 20
53.08391246541839
 30
0.0
 10
167.0818595674173
 20
53.07660186391866
 30
0.0
 10
166.9602911529042
 20
53.07562762281395
 30
0.0
 10
166.8993401647362
 20
53.07513916569057
 30
0.0
  0
LINE
  5
4BB
330
1F
100
AcDbEntity
  8
0
  6
SLD-Сплошная
 62
     7
370
    25
100
AcDbLine
 10
148.7993401647
 20
-39.3205077954
 30
0.0
 11
148.7993401647
 21
-39.1697212219
 31
0.0
  0
LINE
  5
4BC
330
1F
100
AcDbEntity
  8
0
  6
SLD-Сплошная
 62
     7
370
    25
100
AcDbLine
 10
148.7993401647
 20
55.1238068416
 30
0.0
 11
148.7993401647
 21
55.2730959671
 31
0.0
  0
LINE
  5
4BD
330
1F
100
AcDbEntity
  8
0
  6
SLD-Сплошная
 62
     7
370
    25
100
AcDbLine
 10
145.7993401647
 20
-43.74685921
 30
0.0
 11
145.7993401647
 21
-36.6348023687
 31
0.0
  0
LINE
  5
4BE
330
1F
100
AcDbEntity
  8
0
  6
SLD-Сплошная
 62
     7
370
    25
100
AcDbLine
 10
152.6993401647
 20
-46.5655133
 30
0.0
 11
166.8993401647
 21
-46.5655133
 31
0.0
  0
SPLINE
  5
4BF
330
1F
100
AcDbEntity
  8
0
  6
SLD-Сплошная
 62
     7
370
    25
100
AcDbSpline
210
0.0
220
0.0
230
1.0
 70
     8
 71
     3
 72
    23
 73
    19
 74
     0
 42
0.00000001
 43
0.00000001
 40
0.0
 40
0.0
 40
0.0
 40
0.0
 40
0.031492542758794
 40
0.062910441454343
 40
0.0943306803901751
 40
0.1258302267113581
 40
0.188063952164136
 40
0.2503161727208839
 40
0.3129060154226113
 40
0.3755138819209336
 40
0.5000365643753758
 40
0.6248118547905659
 40
0.6873377072809761
 40
0.7498835151493402
 40
0.8121372546717185
 40
0.8744271799047634
 40
0.9372024784002413
 40
1.0
 40
1.0
 40
1.0
 40
1.0
 10
148.7993401647362
 20
-46.74412110119696
 30
0.0
 10
148.8002495997179
 20
-46.74341107936271
 30
0.0
 10
148.8020663141259
 20
-46.74199271859781
 30
0.0
 10
148.816834658902
 20
-46.73901044122989
 30
0.0
 10
148.8404362793969
 20
-46.73541907514855
 30
0.0
 10
148.8844660480516
 20
-46.72979341161344
 30
0.0
 10
148.9621204466948
 20
-46.72127744412305
 30
0.0
 10
149.0912657779095
 20
-46.70894950809117
 30
0.0
 10
149.2551242357004
 20
-46.69483373965719
 30
0.0
 10
149.5177745573614
 20
-46.67428635038708
 30
0.0
 10
149.9242868053957
 20
-46.64651181501375
 30
0.0
 10
150.4196085079883
 20
-46.61964299621451
 30
0.0
 10
150.8574123325031
 20
-46.6008381619782
 30
0.0
 10
151.2035835622449
 20
-46.58857884062351
 30
0.0
 10
151.5635502853638
 20
-46.57854957665202
 30
0.0
 10
151.9349328477354
 20
-46.57117448077256
 30
0.0
 10
152.314737923726
 20
-46.56640164139572
 30
0.0
 10
152.5711242931725
 20
-46.56580944870976
 30
0.0
 10
152.6993401647361
 20
-46.56551329996547
 30
0.0
  0
SPLINE
  5
4C0
330
1F
100
AcDbEntity
  8
0
  6
SLD-Сплошная
 62
     7
370
    25
100
AcDbSpline
210
0.0
220
0.0
230
1.0
 70
     8
 71
     3
 72
    12
 73
     8
 74
     0
 42
0.00000001
 43
0.00000001
 40
0.0
 40
0.0
 40
0.0
 40
0.0
 40
0.2013359503668857
 40
0.4015742139752577
 40
0.6011426226534317
 40
0.8004733214694566
 40
1.0
 40
1.0
 40
1.0
 40
1.0
 10
166.8993401647362
 20
-46.56551329996548
 30
0.0
 10
166.9602886022479
 20
-46.56558495036174
 30
0.0
 10
167.0818531854344
 20
-46.56572786051517
 30
0.0
 10
167.2634461148022
 20
-46.5667995690326
 30
0.0
 10
167.4436129813536
 20
-46.56850806415949
 30
0.0
 10
167.6225271229665
 20
-46.57084819998801
 30
0.0
 10
167.7403831811757
 20
-46.57294754407508
 30
0.0
 10
167.7993401647362
 20
-46.57399773187799
 30
0.0
  0
SPLINE
  5
4C1
330
1F
100
AcDbEntity
  8
0
  6
SLD-Сплошная
 62
     7
370
    25
100
AcDbSpline
210
0.0
220
0.0
230
1.0
 70
     8
 71
     3
 72
    11
 73
     7
 74
     0
 42
0.00000001
 43
0.00000001
 40
0.0
 40
0.0
 40
0.0
 40
0.0
 40
0.2653934856250675
 40
0.5305573100182046
 40
0.7955985553683915
 40
1.0
 40
1.0
 40
1.0
 40
1.0
 10
152.6993401647362
 20
62.13726364660278
 30
0.0
 10
152.1878759334944
 20
62.14131990686064
 30
0.0
 10
151.1653900723245
 20
62.14942891724599
 30
0.0
 10
149.8829957675081
 20
62.19985822871973
 30
0.0
 10
149.0301690694159
 20
62.24574830970104
 30
0.0
 10
148.9174596602342
 20
62.24835423235454
 30
0.0
 10
148.8683845195366
 20
62.2494888849252
 30
0.0
  0
LINE
  5
4C2
330
1F
100
AcDbEntity
  8
0
  6
SLD-Сплошная
 62
     7
370
    25
100
AcDbLine
 10
166.8993401647
 20
62.1372636466
 30
0.0
 11
152.6993401647
 21
62.1372636466
 31
0.0
  0
SPLINE
  5
4C3
330
1F
100
AcDbEntity
  8
0
  6
SLD-Сплошная
 62
     7
370
    25
100
AcDbSpline
210
0.0
220
0.0
230
1.0
 70
     8
 71
     3
 72
    12
 73
     8
 74
     0
 42
0.00000001
 43
0.00000001
 40
0.0
 40
0.0
 40
0.0
 40
0.0
 40
0.1995180746636709
 40
0.3988445040858002
 40
0.5984129591634654
 40
0.7986555383446287
 40
1.0
 40
1.0
 40
1.0
 40
1.0
 10
167.7993401647363
 20
62.14402738891463
 30
0.0
 10
167.7403857248266
 20
62.14319218784912
 30
0.0
 10
167.6225334731492
 20
62.1415225879628
 30
0.0
 10
167.4436231425814
 20
62.13965621680754
 30
0.0
 10
167.2634562876203
 20
62.1382920714505
 30
0.0
 10
167.0818595674174
 20
62.13743534688149
 30
0.0
 10
166.9602911529043
 20
62.13732098462548
 30
0.0
 10
166.8993401647363
 20
62.13726364660277
 30
0.0
  0
LINE
  5
4C4
330
1F
100
AcDbEntity
  8
0
  6
SLD-Сплошная
 62
     7
370
    25
100
AcDbLine
 10
166.8993401647
 20
-50.7448976267
 30
0.0
 11
152.6993401647
 21
-50.7448976267
 31
0.0
  0
LINE
  5
4C5
330
1F
100
AcDbEntity
  8
0
  6
SLD-Сплошная
 62
     7
370
    25
100
AcDbLine
 10
148.7993401647
 20
-46.8450317521
 30
0.0
 11
148.7993401647
 21
-46.7441211012
 31
0.0
  0
LINE
  5
4C6
330
1F
100
AcDbEntity
  8
0
  6
SLD-Сплошная
 62
     7
370
    25
100
AcDbLine
 10
166.8993401647
 20
66.2511792067
 30
0.0
 11
152.6993401647
 21
66.2511792067
 31
0.0
  0
LINE
  5
4C7
330
1F
100
AcDbEntity
  8
0
  6
SLD-Сплошная
 62
     7
370
    25
100
AcDbLine
 10
148.7993401647
 20
62.2521322433
 30
0.0
 11
148.7993401647
 21
62.3513133321
 31
0.0
  0
ARC
  5
4C8
330
1F
100
AcDbEntity
  8
0
  6
SLD-Сплошная
 62
     7
370
    25
100
AcDbCircle
 10
275.5977426816
 20
13.3597804355
 30
0.0
 40
3.205949035558196
100
AcDbArc
 50
2.9855926272
 51
82.803863496
  0
LWPOLYLINE
  5
4C9
330
1F
100
AcDbEntity
  8
0
  6
SLD-Сплошная
 62
     7
370
    25
100
AcDbPolyline
 90
        3
 70
   128
 43
0.0
 10
278.7146484182
 20
12.8542114079
 10
278.7481858435
 20
13.0028043583
 10
278.7993401651
 20
13.526761788
  0
LINE
  5
4CA
330
1F
100
AcDbEntity
  8
0
  6
SLD-Сплошная
 62
     7
370
    25
100
AcDbLine
 10
275.9993401651
 20
12.8542114079
 30
0.0
 11
275.9993401651
 21
12.9115898091
 31
0.0
  0
LINE
  5
4CB
330
1F
100
AcDbEntity
  8
0
  6
SLD-Сплошная
 62
     7
370
    25
100
AcDbLine
 10
275.9993401651
 20
12.9115898091
 30
0.0
 11
277.5493401651
 21
12.9115898091
 31
0.0
  0
LINE
  5
4CC
330
1F
100
AcDbEntity
  8
0
  6
SLD-Сплошная
 62
     7
370
    25
100
AcDbLine
 10
277.5493401651
 20
12.9115898091
 30
0.0
 11
277.5493401651
 21
14.1419337669
 31
0.0
  0
LINE
  5
4CD
330
1F
100
AcDbEntity
  8
0
  6
SLD-Сплошная
 62
     7
370
    25
100
AcDbLine
 10
277.5493401651
 20
14.1419337669
 30
0.0
 11
275.9993401651
 21
14.1419337669
 31
0.0
  0
LINE
  5
4CE
330
1F
100
AcDbEntity
  8
0
  6
SLD-Сплошная
 62
     7
370
    25
100
AcDbLine
 10
275.9993401651
 20
14.1419337669
 30
0.0
 11
275.9993401651
 21
16.5404766926
 31
0.0
  0
LWPOLYLINE
  5
4CF
330
1F
100
AcDbEntity
  8
0
  6
SLD-Сплошная
 62
     7
370
    25
100
AcDbPolyline
 90
        3
 70
   128
 43
0.0
 10
271.7993401651
 20
13.526761788
 10
271.8504944866
 20
13.0028043583
 10
271.884031912
 20
12.8542114079
  0
ARC
  5
4D0
330
1F
100
AcDbEntity
  8
0
  6
SLD-Сплошная
 62
     7
370
    25
100
AcDbCircle
 10
275.0009376486
 20
13.3597804355
 30
0.0
 40
3.20594903555797
100
AcDbArc
 50
97.196136504
 51
177.0144073728
  0
LINE
  5
4D1
330
1F
100
AcDbEntity
  8
0
  6
SLD-Сплошная
 62
     7
370
    25
100
AcDbLine
 10
274.5993401651
 20
16.5404766926
 30
0.0
 11
274.5993401651
 21
14.1419337669
 31
0.0
  0
LINE
  5
4D2
330
1F
100
AcDbEntity
  8
0
  6
SLD-Сплошная
 62
     7
370
    25
100
AcDbLine
 10
274.5993401651
 20
14.1419337669
 30
0.0
 11
273.0493401651
 21
14.1419337669
 31
0.0
  0
LINE
  5
4D3
330
1F
100
AcDbEntity
  8
0
  6
SLD-Сплошная
 62
     7
370
    25
100
AcDbLine
 10
273.0493401651
 20
14.1419337669
 30
0.0
 11
273.0493401651
 21
12.9115898091
 31
0.0
  0
LINE
  5
4D4
330
1F
100
AcDbEntity
  8
0
  6
SLD-Сплошная
 62
     7
370
    25
100
AcDbLine
 10
273.0493401651
 20
12.9115898091
 30
0.0
 11
274.5993401651
 21
12.9115898091
 31
0.0
  0
LINE
  5
4D5
330
1F
100
AcDbEntity
  8
0
  6
SLD-Сплошная
 62
     7
370
    25
100
AcDbLine
 10
274.5993401651
 20
12.9115898091
 30
0.0
 11
274.5993401651
 21
12.8542114079
 31
0.0
  0
LINE
  5
4D6
330
1F
100
AcDbEntity
  8
0
  6
SLD-Сплошная
 62
     7
370
    25
100
AcDbLine
 10
278.7993401651
 20
12.8542114079
 30
0.0
 11
278.7993401651
 21
13.526761788
 31
0.0
  0
LINE
  5
4D7
330
1F
100
AcDbEntity
  8
0
  6
SLD-Сплошная
 62
     7
370
    25
100
AcDbLine
 10
271.7993401651
 20
12.8542114079
 30
0.0
 11
271.7993401651
 21
13.526761788
 31
0.0
  0
LINE
  5
4D8
330
1F
100
AcDbEntity
  8
0
  6
SLD-Сплошная
 62
     7
370
    25
100
AcDbLine
 10
277.5493401651
 20
13.2830479984
 30
0.0
 11
275.9993401651
 21
13.2830479984
 31
0.0
  0
LINE
  5
4D9
330
1F
100
AcDbEntity
  8
0
  6
SLD-Сплошная
 62
     7
370
    25
100
AcDbLine
 10
274.5993401651
 20
13.2830479984
 30
0.0
 11
273.0493401651
 21
13.2830479984
 31
0.0
  0
ARC
  5
4DA
330
1F
100
AcDbEntity
  8
0
  6
SLD-Сплошная
 62
     7
370
    25
100
AcDbCircle
 10
275.2993401651
 20
11.7718005541
 30
0.0
 40
3.971959307094204
100
AcDbArc
 50
79.8494388481
 51
100.1505611519
  0
LINE
  5
4DB
330
1F
100
AcDbEntity
  8
0
  6
SLD-Сплошная
 62
     7
370
    25
100
AcDbLine
 10
274.5993401651
 20
13.2830479984
 30
0.0
 11
274.5993401651
 21
14.1419337669
 31
0.0
  0
LINE
  5
4DC
330
1F
100
AcDbEntity
  8
0
  6
SLD-Сплошная
 62
     7
370
    25
100
AcDbLine
 10
275.9993401651
 20
13.2830479984
 30
0.0
 11
275.9993401651
 21
14.1419337669
 31
0.0
  0
ARC
  5
4DD
330
1F
100
AcDbEntity
  8
0
  6
SLD-Сплошная
 62
     7
370
    25
100
AcDbCircle
 10
261.2993401651
 20
18.4802216432
 30
0.0
 40
3.500000000000017
100
AcDbArc
 50
324.2222843997
 51
42.6853253669
  0
LINE
  5
4DE
330
1F
100
AcDbEntity
  8
0
  6
SLD-Сплошная
 62
     7
370
    25
100
AcDbLine
 10
264.138859606
 20
16.4339740177
 30
0.0
 11
262.2884819429
 21
18.4402398545
 31
0.0
  0
LINE
  5
4DF
330
1F
100
AcDbEntity
  8
0
  6
SLD-Сплошная
 62
     7
370
    25
100
AcDbLine
 10
262.2884819429
 20
18.4402398545
 30
0.0
 11
263.4278687486
 21
19.4910955568
 31
0.0
  0
LINE
  5
4E0
330
1F
100
AcDbEntity
  8
0
  6
SLD-Сплошная
 62
     7
370
    25
100
AcDbLine
 10
263.4278687486
 20
19.4910955568
 30
0.0
 11
262.4787087595
 21
20.5202191233
 31
0.0
  0
LINE
  5
4E1
330
1F
100
AcDbEntity
  8
0
  6
SLD-Сплошная
 62
     7
370
    25
100
AcDbLine
 10
262.4787087595
 20
20.5202191233
 30
0.0
 11
261.3393219537
 21
19.469363421
 31
0.0
  0
ARC
  5
4E2
330
1F
100
AcDbEntity
  8
0
  6
SLD-Сплошная
 62
     7
370
    25
100
AcDbCircle
 10
261.2993401651
 20
18.4802216432
 30
0.0
 40
3.500000000000017
100
AcDbArc
 50
42.6853253669
 51
68.2132107017
  0
LINE
  5
4E3
330
1F
100
AcDbEntity
  8
0
  6
SLD-Сплошная
 62
     7
370
    25
100
AcDbLine
 10
260.0003020594
 20
21.7302216432
 30
0.0
 11
259.4889442907
 21
21.4756292578
 31
0.0
  0
LINE
  5
4E4
330
1F
100
AcDbEntity
  8
0
  6
SLD-Сплошная
 62
     7
370
    25
100
AcDbLine
 10
261.3393219537
 20
19.469363421
 30
0.0
 11
259.4889442907
 21
21.4756292578
 31
0.0
  0
LINE
  5
4E5
330
1F
100
AcDbEntity
  8
0
  6
SLD-Сплошная
 62
     7
370
    25
100
AcDbLine
 10
260.3101983873
 20
18.5202034319
 30
0.0
 11
259.1708115816
 21
17.4693477296
 31
0.0
  0
LINE
  5
4E6
330
1F
100
AcDbEntity
  8
0
  6
SLD-Сплошная
 62
     7
370
    25
100
AcDbLine
 10
259.1708115816
 20
17.4693477296
 30
0.0
 11
260.1199715707
 21
16.4402241631
 31
0.0
  0
LINE
  5
4E7
330
1F
100
AcDbEntity
  8
0
  6
SLD-Сплошная
 62
     7
370
    25
100
AcDbLine
 10
260.1199715707
 20
16.4402241631
 30
0.0
 11
261.2593583764
 21
17.4910798654
 31
0.0
  0
LINE
  5
4E8
330
1F
100
AcDbEntity
  8
0
  6
SLD-Сплошная
 62
     7
370
    25
100
AcDbLine
 10
261.2593583764
 20
17.4910798654
 30
0.0
 11
263.1097360395
 21
15.4848140286
 31
0.0
  0
ARC
  5
4E9
330
1F
100
AcDbEntity
  8
0
  6
SLD-Сплошная
 62
     7
370
    25
100
AcDbCircle
 10
261.2993401651
 20
18.4802216432
 30
0.0
 40
3.500000000000003
100
AcDbArc
 50
222.6853253669
 51
248.2132107017
  0
LINE
  5
4EA
330
1F
100
AcDbEntity
  8
0
  6
SLD-Сплошная
 62
     7
370
    25
100
AcDbLine
 10
262.5983782708
 20
15.2302216432
 30
0.0
 11
263.1097360395
 21
15.4848140286
 31
0.0
  0
LINE
  5
4EB
330
1F
100
AcDbEntity
  8
0
  6
SLD-Сплошная
 62
     7
370
    25
100
AcDbLine
 10
258.4598207242
 20
20.5264692687
 30
0.0
 11
260.3101983873
 21
18.5202034319
 31
0.0
  0
ARC
  5
4EC
330
1F
100
AcDbEntity
  8
0
  6
SLD-Сплошная
 62
     7
370
    25
100
AcDbCircle
 10
261.2993401651
 20
18.4802216432
 30
0.0
 40
3.499999999999995
100
AcDbArc
 50
144.2222843997
 51
222.6853253669
  0
ARC
  5
4ED
330
1F
100
AcDbEntity
  8
0
  6
SLD-Сплошная
 62
     7
370
    25
100
AcDbCircle
 10
261.2993401651
 20
18.4802216432
 30
0.0
 40
3.500000000000058
100
AcDbArc
 50
301.1483663341
 51
324.2222843997
  0
ARC
  5
4EE
330
1F
100
AcDbEntity
  8
0
  6
SLD-Сплошная
 62
     7
370
    25
100
AcDbCircle
 10
261.2993401651
 20
18.4802216432
 30
0.0
 40
3.499999999999952
100
AcDbArc
 50
121.1483663341
 51
144.2222843997
  0
ENDSEC
  0
SECTION
  2
OBJECTS
  0
DICTIONARY
  5
C
330
0
100
AcDbDictionary
281
     1
  3
ACAD_GROUP
350
D
  3
ACAD_LAYOUT
350
1A
  3
ACAD_MLINESTYLE
350
17
  3
ACAD_PLOTSETTINGS
350
19
  3
ACAD_PLOTSTYLENAME
350
E
  3
ACAD_SCALELIST
350
47
  3
DWGPROPS
350
4EF
  0
DICTIONARY
  5
D
102
{ACAD_REACTORS
330
C
102
}
330
C
100
AcDbDictionary
281
     1
  0
DICTIONARY
  5
1A
102
{ACAD_REACTORS
330
C
102
}
330
C
100
AcDbDictionary
281
     1
  3
Layout1
350
1E
  3
Layout2
350
26
  3
Model
350
22
  0
DICTIONARY
  5
17
102
{ACAD_REACTORS
330
C
102
}
330
C
100
AcDbDictionary
281
     1
  3
Standard
350
18
  0
DICTIONARY
  5
19
102
{ACAD_REACTORS
330
C
102
}
330
C
100
AcDbDictionary
281
     1
  0
ACDBDICTIONARYWDFLT
  5
E
102
{ACAD_REACTORS
330
C
102
}
330
C
100
AcDbDictionary
281
     1
  3
Normal
350
F
100
AcDbDictionaryWithDefault
340
F
  0
DICTIONARY
  5
47
102
{ACAD_REACTORS
330
C
102
}
330
C
100
AcDbDictionary
281
     1
  3
A0
350
48
  3
A1
350
49
  3
A2
350
4A
  3
A3
350
4B
  3
A4
350
4C
  3
A5
350
4D
  3
A6
350
4E
  3
A7
350
4F
  3
A8
350
50
  3
A9
350
51
  3
B0
350
52
  3
B1
350
53
  3
B2
350
54
  3
B3
350
55
  3
B4
350
56
  3
B5
350
57
  3
B6
350
58
  0
XRECORD
  5
4EF
102
{ACAD_REACTORS
330
C
102
}
330
C
100
AcDbXrecord
280
     1
  1
DWGPROPS COOKIE
  2

  3

  4

  6

  7

  8
inyankin
  9

300
=
301
=
302
=
303
=
304
=
305
=
306
=
307
=
308
=
309
=
 40
0.0
 41
2460927.63456941
 42
2460927.634570232
  1

 90
        0
  0
LAYOUT
  5
1E
102
{ACAD_REACTORS
330
1A
102
}
330
1A
100
AcDbPlotSettings
  1

  2
none_device
  4

  6

 40
0.0
 41
0.0
 42
0.0
 43
0.0
 44
0.0
 45
0.0
 46
0.0
 47
0.0
 48
0.0
 49
0.0
140
0.0
141
0.0
142
1.0
143
1.0
 70
   688
 72
     1
 73
     0
 74
     5
  7

 75
    16
147
1.0
148
0.0
149
0.0
100
AcDbLayout
  1
Layout1
 70
     1
 71
     1
 10
0.0
 20
0.0
 11
420.0
 21
297.0
 12
0.0
 22
0.0
 32
0.0
 14
1.0000000000E+20
 24
1.0000000000E+20
 34
1.0000000000E+20
 15
-1.0000000000E+20
 25
-1.0000000000E+20
 35
-1.0000000000E+20
146
0.0
 13
0.0
 23
0.0
 33
0.0
 16
1.0
 26
0.0
 36
0.0
 17
0.0
 27
1.0
 37
0.0
 76
     0
330
1B
  0
LAYOUT
  5
26
102
{ACAD_REACTORS
330
1A
102
}
330
1A
100
AcDbPlotSettings
  1

  2
none_device
  4

  6

 40
0.0
 41
0.0
 42
0.0
 43
0.0
 44
0.0
 45
0.0
 46
0.0
 47
0.0
 48
0.0
 49
0.0
140
0.0
141
0.0
142
1.0
143
1.0
 70
   688
 72
     1
 73
     0
 74
     5
  7

 75
    16
147
1.0
148
0.0
149
0.0
100
AcDbLayout
  1
Layout2
 70
     1
 71
     2
 10
0.0
 20
0.0
 11
0.0
 21
0.0
 12
0.0
 22
0.0
 32
0.0
 14
0.0
 24
0.0
 34
0.0
 15
0.0
 25
0.0
 35
0.0
146
0.0
 13
0.0
 23
0.0
 33
0.0
 16
1.0
 26
0.0
 36
0.0
 17
0.0
 27
1.0
 37
0.0
 76
     0
330
23
  0
LAYOUT
  5
22
102
{ACAD_REACTORS
330
1A
102
}
330
1A
100
AcDbPlotSettings
  1

  2
none_device
  4
Letter_(8.50_x_11.00_Inches)
  6

 40
6.35
 41
6.35
 42
6.35000508
 43
6.35000508
 44
215.9
 45
279.4
 46
0.0
 47
0.0
 48
0.0
 49
0.0
140
0.0
141
0.0
142
1.0
143
1.0
 70
  1712
 72
     1
 73
     0
 74
     0
  7

 75
     0
147
1.0
148
0.0
149
0.0
100
AcDbLayout
  1
Model
 70
     1
 71
     0
 10
0.0
 20
0.0
 11
431.8
 21
279.4
 12
0.0
 22
0.0
 32
0.0
 14
0.0
 24
0.0
 34
0.0
 15
431.8
 25
279.4
 35
0.0
146
0.0
 13
0.0
 23
0.0
 33
0.0
 16
1.0
 26
0.0
 36
0.0
 17
0.0
 27
1.0
 37
0.0
 76
     0
330
1F
331
29
  0
MLINESTYLE
  5
18
102
{ACAD_REACTORS
330
17
102
}
330
17
100
AcDbMlineStyle
  2
Standard
 70
     0
  3

 62
   256
 51
90.0
 52
90.0
 71
     2
 49
0.5
 62
   256
  6
BYLAYER
 49
-0.5
 62
   256
  6
BYLAYER
  0
ACDBPLACEHOLDER
  5
F
102
{ACAD_REACTORS
330
E
102
}
330
E
  0
SCALE
  5
48
102
{ACAD_REACTORS
330
47
102
}
330
47
100
AcDbScale
 70
     0
300
1:1
140
1.0
141
1.0
290
     1
  0
SCALE
  5
49
102
{ACAD_REACTORS
330
47
102
}
330
47
100
AcDbScale
 70
     0
300
1:2
140
1.0
141
2.0
290
     0
  0
SCALE
  5
4A
102
{ACAD_REACTORS
330
47
102
}
330
47
100
AcDbScale
 70
     0
300
1:4
140
1.0
141
4.0
290
     0
  0
SCALE
  5
4B
102
{ACAD_REACTORS
330
47
102
}
330
47
100
AcDbScale
 70
     0
300
1:5
140
1.0
141
5.0
290
     0
  0
SCALE
  5
4C
102
{ACAD_REACTORS
330
47
102
}
330
47
100
AcDbScale
 70
     0
300
1:8
140
1.0
141
8.0
290
     0
  0
SCALE
  5
4D
102
{ACAD_REACTORS
330
47
102
}
330
47
100
AcDbScale
 70
     0
300
1:10
140
1.0
141
10.0
290
     0
  0
SCALE
  5
4E
102
{ACAD_REACTORS
330
47
102
}
330
47
100
AcDbScale
 70
     0
300
1:16
140
1.0
141
16.0
290
     0
  0
SCALE
  5
4F
102
{ACAD_REACTORS
330
47
102
}
330
47
100
AcDbScale
 70
     0
300
1:20
140
1.0
141
20.0
290
     0
  0
SCALE
  5
50
102
{ACAD_REACTORS
330
47
102
}
330
47
100
AcDbScale
 70
     0
300
1:30
140
1.0
141
30.0
290
     0
  0
SCALE
  5
51
102
{ACAD_REACTORS
330
47
102
}
330
47
100
AcDbScale
 70
     0
300
1:40
140
1.0
141
40.0
290
     0
  0
SCALE
  5
52
102
{ACAD_REACTORS
330
47
102
}
330
47
100
AcDbScale
 70
     0
300
1:50
140
1.0
141
50.0
290
     0
  0
SCALE
  5
53
102
{ACAD_REACTORS
330
47
102
}
330
47
100
AcDbScale
 70
     0
300
1:100
140
1.0
141
100.0
290
     0
  0
SCALE
  5
54
102
{ACAD_REACTORS
330
47
102
}
330
47
100
AcDbScale
 70
     0
300
2:1
140
2.0
141
1.0
290
     0
  0
SCALE
  5
55
102
{ACAD_REACTORS
330
47
102
}
330
47
100
AcDbScale
 70
     0
300
4:1
140
4.0
141
1.0
290
     0
  0
SCALE
  5
56
102
{ACAD_REACTORS
330
47
102
}
330
47
100
AcDbScale
 70
     0
300
8:1
140
8.0
141
1.0
290
     0
  0
SCALE
  5
57
102
{ACAD_REACTORS
330
47
102
}
330
47
100
AcDbScale
 70
     0
300
10:1
140
10.0
141
1.0
290
     0
  0
SCALE
  5
58
102
{ACAD_REACTORS
330
47
102
}
330
47
100
AcDbScale
 70
     0
300
100:1
140
100.0
141
1.0
290
     0
  0
ENDSEC
  0
EOF
