  0
SECTION
  2
HEADER
  9
$ACADVER
  1
AC1015
  9
$ACADMAINTVER
 70
     6
  9
$DWGCODEPAGE
  3
ANSI_1251
  9
$INSBASE
 10
0.0
 20
0.0
 30
0.0
  9
$EXTMIN
 10
0.0
 20
0.0
 30
0.0
  9
$EXTMAX
 10
431.8
 20
279.4
 30
0.0
  9
$LIMMIN
 10
0.0
 20
0.0
  9
$LIMMAX
 10
431.8
 20
279.4
  9
$ORTHOMODE
 70
     0
  9
$REGENMODE
 70
     1
  9
$FILLMODE
 70
     1
  9
$QTEXTMODE
 70
     0
  9
$MIRRTEXT
 70
     1
  9
$LTSCALE
 40
1.0
  9
$ATTMODE
 70
     1
  9
$TEXTSIZE
 40
3.5
  9
$TRACEWID
 40
1.0
  9
$TEXTSTYLE
  7
STANDARD
  9
$CLAYER
  8
0
  9
$CELTYPE
  6
ByLayer
  9
$CECOLOR
 62
   256
  9
$CELTSCALE
 40
1.0
  9
$DISPSILH
 70
     0
  9
$DIMSCALE
 40
1.0
  9
$DIMASZ
 40
5.0
  9
$DIMEXO
 40
0.0
  9
$DIMDLI
 40
3.75
  9
$DIMRND
 40
0.0
  9
$DIMDLE
 40
0.0
  9
$DIMEXE
 40
1.0
  9
$DIMTP
 40
0.0
  9
$DIMTM
 40
0.0
  9
$DIMTXT
 40
3.5
  9
$DIMCEN
 40
2.5
  9
$DIMTSZ
 40
0.0
  9
$DIMTOL
 70
     0
  9
$DIMLIM
 70
     0
  9
$DIMTIH
 70
     1
  9
$DIMTOH
 70
     1
  9
$DIMSE1
 70
     0
  9
$DIMSE2
 70
     0
  9
$DIMTAD
 70
     1
  9
$DIMZIN
 70
     0
  9
$DIMBLK
  1

  9
$DIMASO
 70
     1
  9
$DIMSHO
 70
     1
  9
$DIMPOST
  1

  9
$DIMAPOST
  1

  9
$DIMALT
 70
     0
  9
$DIMALTD
 70
     3
  9
$DIMALTF
 40
0.0393700787
  9
$DIMLFAC
 40
1.0
  9
$DIMTOFL
 70
     1
  9
$DIMTVP
 40
0.0
  9
$DIMTIX
 70
     0
  9
$DIMSOXD
 70
     0
  9
$DIMSAH
 70
     0
  9
$DIMBLK1
  1

  9
$DIMBLK2
  1

  9
$DIMSTYLE
  2
ISO-25
  9
$DIMCLRD
 70
     0
  9
$DIMCLRE
 70
     0
  9
$DIMCLRT
 70
     0
  9
$DIMTFAC
 40
1.0
  9
$DIMGAP
 40
1.5
  9
$DIMJUST
 70
     0
  9
$DIMSD1
 70
     0
  9
$DIMSD2
 70
     0
  9
$DIMTOLJ
 70
     0
  9
$DIMTZIN
 70
     0
  9
$DIMALTZ
 70
     0
  9
$DIMALTTZ
 70
     0
  9
$DIMUPT
 70
     0
  9
$DIMDEC
 70
     1
  9
$DIMTDEC
 70
     3
  9
$DIMALTU
 70
     2
  9
$DIMALTTD
 70
     3
  9
$DIMTXSTY
  7
STANDARD
  9
$DIMAUNIT
 70
     0
  9
$DIMADEC
 70
     2
  9
$DIMALTRND
 40
0.0
  9
$DIMAZIN
 70
     0
  9
$DIMDSEP
 70
    44
  9
$DIMATFIT
 70
     3
  9
$DIMFRAC
 70
     0
  9
$DIMLDRBLK
  1

  9
$DIMLUNIT
 70
     2
  9
$DIMLWD
 70
    -2
  9
$DIMLWE
 70
    -2
  9
$DIMTMOVE
 70
     0
  9
$LUNITS
 70
     2
  9
$LUPREC
 70
     1
  9
$SKETCHINC
 40
1.0
  9
$FILLETRAD
 40
0.0
  9
$AUNITS
 70
     0
  9
$AUPREC
 70
     2
  9
$MENU
  1
.
  9
$ELEVATION
 40
0.0
  9
$PELEVATION
 40
0.0
  9
$THICKNESS
 40
0.0
  9
$LIMCHECK
 70
     0
  9
$CHAMFERA
 40
0.0
  9
$CHAMFERB
 40
0.0
  9
$CHAMFERC
 40
0.0
  9
$CHAMFERD
 40
0.0
  9
$SKPOLY
 70
     0
  9
$TDCREATE
 40
2460934.607286401
  9
$TDUCREATE
 40
2460934.482286401
  9
$TDUPDATE
 40
2460934.607287118
  9
$TDUUPDATE
 40
2460934.482287118
  9
$TDINDWG
 40
0.0000000116
  9
$TDUSRTIMER
 40
0.0000000116
  9
$USRTIMER
 70
     1
  9
$ANGBASE
 50
0.0
  9
$ANGDIR
 70
     0
  9
$PDMODE
 70
     0
  9
$PDSIZE
 40
-1.0
  9
$PLINEWID
 40
0.0
  9
$SPLFRAME
 70
     0
  9
$SPLINETYPE
 70
     6
  9
$SPLINESEGS
 70
     8
  9
$HANDSEED
  5
2DD
  9
$SURFTAB1
 70
     6
  9
$SURFTAB2
 70
     6
  9
$SURFTYPE
 70
     6
  9
$SURFU
 70
     6
  9
$SURFV
 70
     6
  9
$UCSBASE
  2

  9
$UCSNAME
  2

  9
$UCSORG
 10
0.0
 20
0.0
 30
0.0
  9
$UCSXDIR
 10
1.0
 20
0.0
 30
0.0
  9
$UCSYDIR
 10
0.0
 20
1.0
 30
0.0
  9
$UCSORTHOREF
  2

  9
$UCSORTHOVIEW
 70
     0
  9
$UCSORGTOP
 10
0.0
 20
0.0
 30
0.0
  9
$UCSORGBOTTOM
 10
0.0
 20
0.0
 30
0.0
  9
$UCSORGLEFT
 10
0.0
 20
0.0
 30
0.0
  9
$UCSORGRIGHT
 10
0.0
 20
0.0
 30
0.0
  9
$UCSORGFRONT
 10
0.0
 20
0.0
 30
0.0
  9
$UCSORGBACK
 10
0.0
 20
0.0
 30
0.0
  9
$PUCSBASE
  2

  9
$PUCSNAME
  2

  9
$PUCSORG
 10
0.0
 20
0.0
 30
0.0
  9
$PUCSXDIR
 10
1.0
 20
0.0
 30
0.0
  9
$PUCSYDIR
 10
0.0
 20
1.0
 30
0.0
  9
$PUCSORTHOREF
  2

  9
$PUCSORTHOVIEW
 70
     0
  9
$PUCSORGTOP
 10
0.0
 20
0.0
 30
0.0
  9
$PUCSORGBOTTOM
 10
0.0
 20
0.0
 30
0.0
  9
$PUCSORGLEFT
 10
0.0
 20
0.0
 30
0.0
  9
$PUCSORGRIGHT
 10
0.0
 20
0.0
 30
0.0
  9
$PUCSORGFRONT
 10
0.0
 20
0.0
 30
0.0
  9
$PUCSORGBACK
 10
0.0
 20
0.0
 30
0.0
  9
$USERI1
 70
     0
  9
$USERI2
 70
     0
  9
$USERI3
 70
     0
  9
$USERI4
 70
     0
  9
$USERI5
 70
     0
  9
$USERR1
 40
0.0
  9
$USERR2
 40
0.0
  9
$USERR3
 40
0.0
  9
$USERR4
 40
0.0
  9
$USERR5
 40
0.0
  9
$WORLDVIEW
 70
     1
  9
$SHADEDGE
 70
     3
  9
$SHADEDIF
 70
    70
  9
$TILEMODE
 70
     1
  9
$MAXACTVP
 70
    64
  9
$PINSBASE
 10
0.0
 20
0.0
 30
0.0
  9
$PLIMCHECK
 70
     0
  9
$PEXTMIN
 10
1.0000000000E+20
 20
1.0000000000E+20
 30
1.0000000000E+20
  9
$PEXTMAX
 10
-1.0000000000E+20
 20
-1.0000000000E+20
 30
-1.0000000000E+20
  9
$PLIMMIN
 10
0.0
 20
0.0
  9
$PLIMMAX
 10
420.0
 20
297.0
  9
$UNITMODE
 70
     0
  9
$VISRETAIN
 70
     1
  9
$PLINEGEN
 70
     0
  9
$PSLTSCALE
 70
     1
  9
$TREEDEPTH
 70
  3020
  9
$CMLSTYLE
  2
Standard
  9
$CMLJUST
 70
     0
  9
$CMLSCALE
 40
20.0
  9
$PROXYGRAPHICS
 70
     1
  9
$MEASUREMENT
 70
     1
  9
$CELWEIGHT
370
    -1
  9
$ENDCAPS
280
     0
  9
$JOINSTYLE
280
     0
  9
$LWDISPLAY
290
     1
  9
$INSUNITS
 70
     4
  9
$HYPERLINKBASE
  1

  9
$STYLESHEET
  1

  9
$XEDIT
290
     1
  9
$CEPSNTYPE
380
     0
  9
$PSTYLEMODE
290
     1
  9
$FINGERPRINTGUID
  2
{21da69a2-a60d-42a0-8a5b-39ba11774013}
  9
$VERSIONGUID
  2
{FAEB1C32-E019-11D5-929B-00C0DF256EC4}
  9
$EXTNAMES
290
     1
  9
$PSVPSCALE
 40
0.0
  9
$OLESTARTUP
290
     0
  0
ENDSEC
  0
SECTION
  2
CLASSES
  0
CLASS
  1
ACDBDICTIONARYWDFLT
  2
AcDbDictionaryWithDefault
  3
ObjectDBX Classes
 90
        0
280
     0
281
     0
  0
CLASS
  1
VISUALSTYLE
  2
AcDbVisualStyle
  3
ObjectDBX Classes
 90
     4095
280
     0
281
     0
  0
CLASS
  1
MATERIAL
  2
AcDbMaterial
  3
ObjectDBX Classes
 90
     1153
280
     0
281
     0
  0
CLASS
  1
SCALE
  2
AcDbScale
  3
ObjectDBX Classes
 90
     1153
280
     0
281
     0
  0
CLASS
  1
TABLESTYLE
  2
AcDbTableStyle
  3
ObjectDBX Classes
 90
     4095
280
     0
281
     0
  0
CLASS
  1
MLEADERSTYLE
  2
AcDbMLeaderStyle
  3
ACDB_MLEADERSTYLE_CLASS
 90
     4095
280
     0
281
     0
  0
CLASS
  1
SUN
  2
AcDbSun
  3
SCENEOE
 90
     1153
280
     0
281
     0
  0
CLASS
  1
ACDBPLACEHOLDER
  2
AcDbPlaceHolder
  3
ObjectDBX Classes
 90
        0
280
     0
281
     0
  0
CLASS
  1
LAYOUT
  2
AcDbLayout
  3
ObjectDBX Classes
 90
        0
280
     0
281
     0
  0
ENDSEC
  0
SECTION
  2
TABLES
  0
TABLE
  2
VPORT
  5
8
330
0
100
AcDbSymbolTable
 70
     1
  0
VPORT
  5
29
330
8
100
AcDbSymbolTableRecord
100
AcDbViewportTableRecord
  2
*Active
 70
     0
 10
0.0
 20
0.0
 11
1.0
 21
1.0
 12
215.9
 22
139.7
 13
0.0
 23
0.0
 14
10.0
 24
10.0
 15
10.0
 25
10.0
 16
0.0
 26
0.0
 36
1.0
 17
0.0
 27
0.0
 37
0.0
 40
279.4
 41
1.5454545455
 42
50.0
 43
0.0
 44
0.0
 50
0.0
 51
0.0
 71
     0
 72
  2000
 73
     1
 74
     3
 75
     0
 76
     0
 77
     0
 78
     0
281
     0
 65
     1
110
0.0
120
0.0
130
0.0
111
1.0
121
0.0
131
0.0
112
0.0
122
1.0
132
0.0
 79
     0
146
0.0
  0
ENDTAB
  0
TABLE
  2
LTYPE
  5
5
330
0
100
AcDbSymbolTable
 70
     8
  0
LTYPE
  5
14
330
5
100
AcDbSymbolTableRecord
100
AcDbLinetypeTableRecord
  2
ByBlock
 70
     0
  3

 72
    65
 73
     0
 40
0.0
  0
LTYPE
  5
15
330
5
100
AcDbSymbolTableRecord
100
AcDbLinetypeTableRecord
  2
ByLayer
 70
     0
  3

 72
    65
 73
     0
 40
0.0
  0
LTYPE
  5
16
330
5
100
AcDbSymbolTableRecord
100
AcDbLinetypeTableRecord
  2
Continuous
 70
     0
  3
Solid line
 72
    65
 73
     0
 40
0.0
  0
LTYPE
  5
5E
330
5
100
AcDbSymbolTableRecord
100
AcDbLinetypeTableRecord
  2
SLD-Сплошная
 70
     0
  3
SolidWorks Line Style
 72
    65
 73
     0
 40
0.0
  0
LTYPE
  5
5F
330
5
100
AcDbSymbolTableRecord
100
AcDbLinetypeTableRecord
  2
SLD-Штриховая
 70
     0
  3
SolidWorks Line Style
 72
    65
 73
     2
 40
1.905
 49
1.27
 74
     0
 49
-0.635
 74
     0
  0
LTYPE
  5
60
330
5
100
AcDbSymbolTableRecord
100
AcDbLinetypeTableRecord
  2
SLD-Штрихпункт.-с-двумя-точками
 70
     0
  3
SolidWorks Line Style
 72
    65
 73
     6
 40
12.7
 49
6.35
 74
     0
 49
-1.27
 74
     0
 49
1.27
 74
     0
 49
-1.27
 74
     0
 49
1.27
 74
     0
 49
-1.27
 74
     0
  0
LTYPE
  5
61
330
5
100
AcDbSymbolTableRecord
100
AcDbLinetypeTableRecord
  2
SLD-Штрихпункт.-утолщ.
 70
     0
  3
SolidWorks Line Style
 72
    65
 73
     4
 40
10.16
 49
6.35
 74
     0
 49
-1.27
 74
     0
 49
1.27
 74
     0
 49
-1.27
 74
     0
  0
LTYPE
  5
62
330
5
100
AcDbSymbolTableRecord
100
AcDbLinetypeTableRecord
  2
SLD-Осевая
 70
     0
  3
SolidWorks Line Style
 72
    65
 73
     4
 40
19.05
 49
15.24
 74
     0
 49
-1.27
 74
     0
 49
1.27
 74
     0
 49
-1.27
 74
     0
  0
LTYPE
  5
63
330
5
100
AcDbSymbolTableRecord
100
AcDbLinetypeTableRecord
  2
SLD-Сшитая
 70
     0
  3
SolidWorks Line Style
 72
    65
 73
     2
 40
0.635
 49
0.0
 74
     0
 49
-0.635
 74
     0
  0
LTYPE
  5
64
330
5
100
AcDbSymbolTableRecord
100
AcDbLinetypeTableRecord
  2
SLD-Тонкая-Толстая
 70
     0
  3
SolidWorks Line Style
 72
    65
 73
     2
 40
5.080508
 49
0.000508
 74
     0
 49
-5.08
 74
     0
  0
ENDTAB
  0
TABLE
  2
LAYER
  5
2
330
0
100
AcDbSymbolTable
 70
     3
  0
LAYER
  5
10
330
2
100
AcDbSymbolTableRecord
100
AcDbLayerTableRecord
  2
0
 70
     0
 62
     7
  6
Continuous
370
    -3
390
F
  0
LAYER
  5
65
330
2
100
AcDbSymbolTableRecord
100
AcDbLayerTableRecord
  2
ВОДЯНОЙ_ЗНАК
 70
     0
 62
    11
  6
SLD-Сплошная
370
    -3
390
F
  0
LAYER
  5
66
330
2
100
AcDbSymbolTableRecord
100
AcDbLayerTableRecord
  2
ОСНОВНОЙ
 70
     0
 62
     7
  6
SLD-Сплошная
370
    -3
390
F
  0
ENDTAB
  0
TABLE
  2
STYLE
  5
3
330
0
100
AcDbSymbolTable
 70
     1
  0
STYLE
  5
11
330
3
100
AcDbSymbolTableRecord
100
AcDbTextStyleTableRecord
  2
STANDARD
 70
     0
 40
0.0
 41
1.0
 50
0.0
 71
     0
 42
3.5
  3
GOST-TYPE-A.TTF
  4

1001
ACAD
1000
GOST TYPE A
1071
 16777250
  0
ENDTAB
  0
TABLE
  2
VIEW
  5
6
330
0
100
AcDbSymbolTable
 70
     0
  0
ENDTAB
  0
TABLE
  2
UCS
  5
7
330
0
100
AcDbSymbolTable
 70
     0
  0
ENDTAB
  0
TABLE
  2
APPID
  5
9
330
0
100
AcDbSymbolTable
 70
     1
  0
APPID
  5
12
330
9
100
AcDbSymbolTableRecord
100
AcDbRegAppTableRecord
  2
ACAD
 70
     0
  0
ENDTAB
  0
TABLE
  2
DIMSTYLE
  5
A
330
0
100
AcDbSymbolTable
 70
     1
100
AcDbDimStyleTable
  0
DIMSTYLE
105
27
330
A
100
AcDbSymbolTableRecord
100
AcDbDimStyleTableRecord
  2
ISO-25
 70
     0
 41
2.5
 42
0.625
 43
3.75
 44
1.25
 73
     0
 74
     0
 77
     1
 78
     8
140
2.5
141
2.5
143
0.0393700787
147
0.625
171
     3
172
     1
178
     0
271
     2
272
     2
274
     3
278
    44
283
     0
284
     8
340
11
  0
ENDTAB
  0
TABLE
  2
BLOCK_RECORD
  5
1
330
0
100
AcDbSymbolTable
 70
     1
  0
BLOCK_RECORD
  5
1F
330
1
100
AcDbSymbolTableRecord
100
AcDbBlockTableRecord
  2
*Model_Space
340
22
  0
BLOCK_RECORD
  5
1B
330
1
100
AcDbSymbolTableRecord
100
AcDbBlockTableRecord
  2
*Paper_Space
340
1E
  0
BLOCK_RECORD
  5
23
330
1
100
AcDbSymbolTableRecord
100
AcDbBlockTableRecord
  2
*Paper_Space0
340
26
  0
ENDTAB
  0
ENDSEC
  0
SECTION
  2
BLOCKS
  0
BLOCK
  5
20
330
1F
100
AcDbEntity
  8
0
100
AcDbBlockBegin
  2
*Model_Space
 70
     0
 10
0.0
 20
0.0
 30
0.0
  3
*Model_Space
  1

  0
ENDBLK
  5
21
330
1F
100
AcDbEntity
  8
0
100
AcDbBlockEnd
  0
BLOCK
  5
1C
330
1B
100
AcDbEntity
 67
     1
  8
0
100
AcDbBlockBegin
  2
*Paper_Space
 70
     0
 10
0.0
 20
0.0
 30
0.0
  3
*Paper_Space
  1

  0
ENDBLK
  5
1D
330
1B
100
AcDbEntity
 67
     1
  8
0
100
AcDbBlockEnd
  0
BLOCK
  5
24
330
23
100
AcDbEntity
  8
0
100
AcDbBlockBegin
  2
*Paper_Space0
 70
     0
 10
0.0
 20
0.0
 30
0.0
  3
*Paper_Space0
  1

  0
ENDBLK
  5
25
330
23
100
AcDbEntity
  8
0
100
AcDbBlockEnd
  0
ENDSEC
  0
SECTION
  2
ENTITIES
  0
LINE
  5
67
330
1F
100
AcDbEntity
  8
0
  6
SLD-Сплошная
 62
     7
370
    25
100
AcDbLine
 10
228.024786002
 20
185.0380591655
 30
0.0
 11
224.4508604447
 21
185.9956896324
 31
0.0
  0
LINE
  5
68
330
1F
100
AcDbEntity
  8
0
  6
SLD-Сплошная
 62
     7
370
    25
100
AcDbLine
 10
191.3756983406
 20
185.2300841299
 30
0.0
 11
177.8044404812
 21
188.8664917136
 31
0.0
  0
LINE
  5
69
330
1F
100
AcDbEntity
  8
0
  6
SLD-Сплошная
 62
     7
370
    25
100
AcDbLine
 10
175.8019758174
 20
130.3923082197
 30
0.0
 11
176.6230127698
 21
130.1723120314
 31
0.0
  0
LINE
  5
6A
330
1F
100
AcDbEntity
  8
0
  6
SLD-Сплошная
 62
     7
370
    25
100
AcDbLine
 10
222.0438433253
 20
177.0125794479
 30
0.0
 11
214.4613255889
 21
179.0443089519
 31
0.0
  0
LINE
  5
6B
330
1F
100
AcDbEntity
  8
0
  6
SLD-Сплошная
 62
     7
370
    25
100
AcDbLine
 10
199.7086400181
 20
123.9865368534
 30
0.0
 11
207.2911577544
 21
121.9548073494
 31
0.0
  0
LINE
  5
6C
330
1F
100
AcDbEntity
  8
0
  6
SLD-Сплошная
 62
     7
370
    25
100
AcDbLine
 10
214.2413294006
 20
178.2232719996
 30
0.0
 11
191.1557021523
 21
184.4090471775
 31
0.0
  0
LINE
  5
6D
330
1F
100
AcDbEntity
  8
0
  6
SLD-Сплошная
 62
     7
370
    25
100
AcDbLine
 10
176.8430089581
 20
130.9933489837
 30
0.0
 11
199.9286362064
 21
124.8075738058
 31
0.0
  0
LINE
  5
6E
330
1F
100
AcDbEntity
  8
0
  6
SLD-Сплошная
 62
     7
370
    25
100
AcDbLine
 10
203.1759349373
 20
106.5965867114
 30
0.0
 11
206.7498604946
 21
105.6389562445
 31
0.0
  0
LINE
  5
6F
330
1F
100
AcDbEntity
  8
0
  6
SLD-Сплошная
 62
     7
370
    25
100
AcDbLine
 10
161.4486102649
 20
127.8257023464
 30
0.0
 11
174.198831172
 21
124.409290951
 31
0.0
  0
LINE
  5
70
330
1F
100
AcDbEntity
  8
0
  6
SLD-Сплошная
 62
     7
370
    25
100
AcDbLine
 10
314.8446672843
 20
145.642801956
 30
0.0
 11
314.8458307623
 21
145.6713791042
 31
0.0
  0
SPLINE
  5
71
330
1F
100
AcDbEntity
  8
0
  6
SLD-Сплошная
 62
     7
370
    25
100
AcDbSpline
210
0.0
220
0.0
230
1.0
 70
     8
 71
     3
 72
    13
 73
     9
 74
     0
 42
0.00000001
 43
0.00000001
 40
0.0
 40
0.0
 40
0.0
 40
0.0
 40
0.1652109362462097
 40
0.3038552155347609
 40
0.4999732069751595
 40
0.6961460105486342
 40
0.8347311856070924
 40
1.0
 40
1.0
 40
1.0
 40
1.0
 10
314.8462569450783
 20
145.666116551585
 30
0.0
 10
314.7761514084881
 20
146.0628852290277
 30
0.0
 10
314.6472136189277
 20
146.7926204072252
 30
0.0
 10
314.0050951591047
 20
147.8420194509772
 30
0.0
 10
313.0114057082921
 20
148.7003305314458
 30
0.0
 10
311.7666373608853
 20
149.1191093596051
 30
0.0
 10
310.5363916068897
 20
149.1350922096732
 30
0.0
 10
309.8427685800348
 20
148.8745132744218
 30
0.0
 10
309.4655010131653
 20
148.7327821365074
 30
0.0
  0
ARC
  5
72
330
1F
100
AcDbEntity
  8
0
  6
SLD-Сплошная
 62
     7
370
    25
100
AcDbCircle
 10
142.6546180702
 20
-133.5677450068
 30
0.0
 40
328.045
100
AcDbArc
 50
68.8772715544
 51
75.0
  0
ARC
  5
73
330
1F
100
AcDbEntity
  8
0
  6
SLD-Сплошная
 62
     7
370
    25
100
AcDbCircle
 10
142.6546180702
 20
-133.5677450068
 30
0.0
 40
328.0450000000001
100
AcDbArc
 50
59.402168523
 51
66.2682570776
  0
ARC
  5
74
330
1F
100
AcDbEntity
  8
0
  6
SLD-Сплошная
 62
     7
370
    25
100
AcDbCircle
 10
142.6546180702
 20
-133.5677450068
 30
0.0
 40
328.045
100
AcDbArc
 50
58.1024539758
 51
58.336631353
  0
LINE
  5
75
330
1F
100
AcDbEntity
  8
0
  6
SLD-Сплошная
 62
     7
370
    25
100
AcDbLine
 10
315.9931197176
 20
104.575767527
 30
0.0
 11
315.9931197176
 21
97.575767527
 31
0.0
  0
LINE
  5
76
330
1F
100
AcDbEntity
  8
0
  6
SLD-Сплошная
 62
     7
370
    25
100
AcDbLine
 10
315.9931197176
 20
97.575767527
 30
0.0
 11
309.9931197176
 21
97.575767527
 31
0.0
  0
LINE
  5
77
330
1F
100
AcDbEntity
  8
0
  6
SLD-Сплошная
 62
     7
370
    25
100
AcDbLine
 10
309.9931197176
 20
104.575767527
 30
0.0
 11
315.9931197176
 21
104.575767527
 31
0.0
  0
LINE
  5
78
330
1F
100
AcDbEntity
  8
0
  6
SLD-Сплошная
 62
     7
370
    25
100
AcDbLine
 10
190.1174753706
 20
97.575767527
 30
0.0
 11
191.9931197176
 21
104.575767527
 31
0.0
  0
SPLINE
  5
79
330
1F
100
AcDbEntity
  8
0
  6
SLD-Сплошная
 62
     7
370
    25
100
AcDbSpline
210
0.0
220
0.0
230
1.0
 70
    24
 71
     3
 72
    22
 73
    18
 74
     0
 42
0.00000001
 43
0.00000001
 40
0.0
 40
0.0
 40
0.0
 40
0.0
 40
0.125
 40
0.125
 40
0.25
 40
0.25
 40
0.375
 40
0.375
 40
0.5
 40
0.5
 40
0.625
 40
0.625
 40
0.75
 40
0.75
 40
0.875
 40
0.875
 40
1.0
 40
1.0
 40
1.0
 40
1.0
 10
196.3291324530188
 20
97.57576752701382
 30
0.0
 10
195.9631070492344
 20
97.5757675270138
 30
0.0
 10
195.5833935896718
 20
97.57576752701382
 30
0.0
 10
194.8142871498418
 20
97.57576752701388
 30
0.0
 10
194.4249723651932
 20
97.57576752701377
 30
0.0
 10
193.6603363215119
 20
97.57576752701375
 30
0.0
 10
193.2851700496568
 20
97.57576752701377
 30
0.0
 10
192.5749361759682
 20
97.57576752701375
 30
0.0
 10
192.2400529804467
 20
97.57576752701377
 30
0.0
 10
191.6336022347643
 20
97.57576752701377
 30
0.0
 10
191.3621712115144
 20
97.57576752701375
 30
0.0
 10
190.8978355040252
 20
97.5757675270137
 30
0.0
 10
190.7049625859874
 20
97.57576752701377
 30
0.0
 10
190.4022501490834
 20
97.57576752701375
 30
0.0
 10
190.2923392066634
 20
97.57576752701382
 30
0.0
 10
190.1500141874817
 20
97.57576752701388
 30
0.0
 10
190.1174753705583
 20
97.5757675270138
 30
0.0
 10
190.1174753705583
 20
97.57576752701382
 30
0.0
  0
SPLINE
  5
7A
330
1F
100
AcDbEntity
  8
0
  6
SLD-Сплошная
 62
     7
370
    25
100
AcDbSpline
210
0.0
220
0.0
230
1.0
 70
    24
 71
     3
 72
    22
 73
    18
 74
     0
 42
0.00000001
 43
0.00000001
 40
0.0
 40
0.0
 40
0.0
 40
0.0
 40
0.125
 40
0.125
 40
0.25
 40
0.25
 40
0.375
 40
0.375
 40
0.5
 40
0.5
 40
0.625
 40
0.625
 40
0.75
 40
0.75
 40
0.875
 40
0.875
 40
1.0
 40
1.0
 40
1.0
 40
1.0
 10
191.9931197175762
 20
104.5757675270138
 30
0.0
 10
191.9931197175762
 20
104.5757675270138
 30
0.0
 10
192.0256585344997
 20
104.5757675270138
 30
0.0
 10
192.1679835536813
 20
104.5757675270138
 30
0.0
 10
192.2778944961014
 20
104.5757675270138
 30
0.0
 10
192.5806069330054
 20
104.5757675270138
 30
0.0
 10
192.7734798510432
 20
104.5757675270137
 30
0.0
 10
193.2378155585324
 20
104.5757675270137
 30
0.0
 10
193.5092465817823
 20
104.5757675270138
 30
0.0
 10
194.1156973274647
 20
104.5757675270138
 30
0.0
 10
194.4505805229861
 20
104.5757675270138
 30
0.0
 10
195.1608143966748
 20
104.5757675270138
 30
0.0
 10
195.5359806685298
 20
104.5757675270138
 30
0.0
 10
196.3006167122111
 20
104.5757675270138
 30
0.0
 10
196.6899314968597
 20
104.5757675270138
 30
0.0
 10
197.4590379366897
 20
104.5757675270138
 30
0.0
 10
197.8387513962523
 20
104.5757675270138
 30
0.0
 10
198.2047768000367
 20
104.5757675270138
 30
0.0
  0
LINE
  5
7B
330
1F
100
AcDbEntity
  8
0
  6
SLD-Сплошная
 62
     7
370
    25
100
AcDbLine
 10
196.329132453
 20
97.575767527
 30
0.0
 11
309.9931197176
 21
97.575767527
 31
0.0
  0
LINE
  5
7C
330
1F
100
AcDbEntity
  8
0
  6
SLD-Сплошная
 62
     7
370
    25
100
AcDbLine
 10
198.2047768
 20
104.575767527
 30
0.0
 11
309.9931197176
 21
104.575767527
 31
0.0
  0
LINE
  5
7D
330
1F
100
AcDbEntity
  8
0
  6
SLD-Сплошная
 62
     7
370
    25
100
AcDbLine
 10
228.024786002
 20
185.0380591655
 30
0.0
 11
218.2414260971
 21
148.5260629318
 31
0.0
  0
LINE
  5
7E
330
1F
100
AcDbEntity
  8
0
  6
SLD-Сплошная
 62
     7
370
    25
100
AcDbLine
 10
224.4508604447
 20
185.9956896324
 30
0.0
 11
214.6675005399
 21
149.4836933986
 31
0.0
  0
LINE
  5
7F
330
1F
100
AcDbEntity
  8
0
  6
SLD-Сплошная
 62
     7
370
    25
100
AcDbLine
 10
208.7500671662
 20
113.1038291687
 30
0.0
 11
205.1761416089
 21
114.0614596356
 31
0.0
  0
LINE
  5
80
330
1F
100
AcDbEntity
  8
0
  6
SLD-Сплошная
 62
     7
370
    25
100
AcDbLine
 10
214.6675005399
 20
149.4836933986
 30
0.0
 11
205.1761416089
 21
114.0614596356
 31
0.0
  0
LINE
  5
81
330
1F
100
AcDbEntity
  8
0
  6
SLD-Сплошная
 62
     7
370
    25
100
AcDbLine
 10
218.2414260971
 20
148.5260629318
 30
0.0
 11
215.2583751957
 21
137.393165406
 31
0.0
  0
SPLINE
  5
82
330
1F
100
AcDbEntity
  8
0
  6
SLD-Сплошная
 62
     7
370
    25
100
AcDbSpline
210
0.0
220
0.0
230
1.0
 70
     8
 71
     3
 72
    29
 73
    25
 74
     0
 42
0.00000001
 43
0.00000001
 40
0.0
 40
0.0
 40
0.0
 40
0.0
 40
0.0386076270538135
 40
0.0771658373267083
 40
0.1156810387563894
 40
0.1541596607675092
 40
0.1926081511352146
 40
0.2310329728029587
 40
0.2694406006624299
 40
0.3078375183033774
 40
0.3462302147414359
 40
0.3846251811323642
 40
0.4230289074806974
 40
0.4614478793514014
 40
0.4998885745928107
 40
0.5623785516775123
 40
0.6249944899356581
 40
0.6906493553168115
 40
0.7499204893780815
 40
0.7999863901019627
 40
0.8499883708175451
 40
0.8999653321275063
 40
0.949956233038822
 40
1.0
 40
1.0
 40
1.0
 40
1.0
 10
213.9485475887114
 20
132.5048222276428
 30
0.0
 10
214.132757756532
 20
132.7047636800569
 30
0.0
 10
214.5009423078426
 20
133.1043906649102
 30
0.0
 10
215.0626114788646
 20
133.6944129034887
 30
0.0
 10
215.6306658540756
 20
134.2769981434893
 30
0.0
 10
216.2058061176056
 20
134.8515051189706
 30
0.0
 10
216.7878438615587
 20
135.418105554191
 30
0.0
 10
217.3768284361038
 20
135.9767536981164
 30
0.0
 10
217.972745448665
 20
136.5274620314785
 30
0.0
 10
218.5755974671689
 20
137.0702274717252
 30
0.0
 10
219.1853823307925
 20
137.6050511758812
 30
0.0
 10
219.8020992530825
 20
138.1319330635764
 30
0.0
 10
220.4257460570497
 20
138.6508739443382
 30
0.0
 10
221.0563241092943
 20
139.161872490314
 30
0.0
 10
221.8266017734834
 20
139.7697151505952
 30
0.0
 10
222.7426998737716
 20
140.4676192330186
 30
0.0
 10
223.8279649362975
 20
141.259126143483
 30
0.0
 10
224.9116456995108
 20
142.0138562563357
 30
0.0
 10
225.9437090275818
 20
142.687173775794
 30
0.0
 10
226.9031445747478
 20
143.2687498463314
 30
0.0
 10
227.8210337971009
 20
143.7917797120969
 30
0.0
 10
228.7529608775355
 20
144.2880549011298
 30
0.0
 10
229.6977033687771
 20
144.7602216419678
 30
0.0
 10
230.3382770119049
 20
145.0525927426659
 30
0.0
 10
230.6587330977792
 20
145.1988555487579
 30
0.0
  0
SPLINE
  5
83
330
1F
100
AcDbEntity
  8
0
  6
SLD-Сплошная
 62
     7
370
    25
100
AcDbSpline
210
0.0
220
0.0
230
1.0
 70
     8
 71
     3
 72
    27
 73
    23
 74
     0
 42
0.00000001
 43
0.00000001
 40
0.0
 40
0.0
 40
0.0
 40
0.0
 40
0.0215125928558624
 40
0.0447515674363607
 40
0.0697345716042658
 40
0.0964806297459067
 40
0.1250061613776271
 40
0.1729973877456506
 40
0.2497608359154949
 40
0.320514788026967
 40
0.3749802654129705
 40
0.4399774472402923
 40
0.4993540803872567
 40
0.6324857293460615
 40
0.7494496941776772
 40
0.7901967999673232
 40
0.8292735951951828
 40
0.8666795052505986
 40
0.902424142151954
 40
0.9365315438776779
 40
0.9690449044831977
 40
0.9999999999999999
 40
0.9999999999999999
 40
0.9999999999999999
 40
0.9999999999999999
 10
241.6566064611749
 20
142.2519842625764
 30
0.0
 10
241.5853800770228
 20
142.2710510539904
 30
0.0
 10
241.4372114041441
 20
142.3107147434152
 30
0.0
 10
241.2017742571456
 20
142.3736698972273
 30
0.0
 10
240.9454268684624
 20
142.4423231682092
 30
0.0
 10
240.6672644591995
 20
142.5169503052477
 30
0.0
 10
240.3048201598703
 20
142.6143251674336
 30
0.0
 10
239.7579152160838
 20
142.7600666048541
 30
0.0
 10
239.0470143127413
 20
142.9513000955447
 30
0.0
 10
238.2989443687561
 20
143.1520084806901
 30
0.0
 10
237.5855703684783
 20
143.3426875061335
 30
0.0
 10
236.9082850325749
 20
143.5244565541489
 30
0.0
 10
235.9251106576846
 20
143.7874748270781
 30
0.0
 10
234.7317465181432
 20
144.1090615255422
 30
0.0
 10
233.6127199499581
 20
144.4071973085524
 30
0.0
 10
232.8695458665777
 20
144.6065073336079
 30
0.0
 10
232.432477931935
 20
144.7236474125421
 30
0.0
 10
232.0213622233645
 20
144.8338444655177
 30
0.0
 10
231.6372700136575
 20
144.9367774068218
 30
0.0
 10
231.2819369155435
 20
145.0320079858253
 30
0.0
 10
230.9547970019372
 20
145.1196645426324
 30
0.0
 10
230.7557924253848
 20
145.1728941745445
 30
0.0
 10
230.6587330977781
 20
145.1988555487583
 30
0.0
  0
SPLINE
  5
84
330
1F
100
AcDbEntity
  8
0
  6
SLD-Сплошная
 62
     7
370
    25
100
AcDbSpline
210
0.0
220
0.0
230
1.0
 70
     8
 71
     3
 72
    34
 73
    30
 74
     0
 42
0.00000001
 43
0.00000001
 40
0.0
 40
0.0
 40
0.0
 40
0.0
 40
0.013947165331488
 40
0.0278739745233964
 40
0.041785154832951
 40
0.055685449462751
 40
0.0695796127639205
 40
0.0834724053823622
 40
0.0973685893727305
 40
0.1112729233052002
 40
0.1251901573901152
 40
0.1877625999392568
 40
0.2503482463748088
 40
0.281663013779612
 40
0.3129693991881198
 40
0.3442534169804055
 40
0.3590283211806183
 40
0.3754885848669951
 40
0.4380101113776587
 40
0.5004832191224184
 40
0.562902231647758
 40
0.6254763669470442
 40
0.6880629755312881
 40
0.7505161849064383
 40
0.8127988012070679
 40
0.8752152467665617
 40
0.889105042931972
 40
0.9306999610645456
 40
0.9999999999999999
 40
0.9999999999999999
 40
0.9999999999999999
 40
0.9999999999999999
 10
241.6566064611754
 20
142.2519842625761
 30
0.0
 10
241.461706768621
 20
142.2234284578815
 30
0.0
 10
241.0721918431317
 20
142.1663585262046
 30
0.0
 10
240.490297235551
 20
142.0672054059704
 30
0.0
 10
239.9107907693365
 20
141.958218035813
 30
0.0
 10
239.3338055018926
 20
141.8384214996154
 30
0.0
 10
238.7593100339626
 20
141.7080757186933
 30
0.0
 10
238.1873161793929
 20
141.5671098639168
 30
0.0
 10
237.6178265642039
 20
141.4155431722853
 30
0.0
 10
237.0508368167132
 20
141.2533653128985
 30
0.0
 10
235.8289034486796
 20
140.8793523130471
 30
0.0
 10
233.977579132562
 20
140.2085411596585
 30
0.0
 10
231.9645442060187
 20
139.2820901333664
 30
0.0
 10
230.4040761823468
 20
138.4429420811523
 30
0.0
 10
229.2605624995114
 20
137.7656252239671
 30
0.0
 10
228.342508357971
 20
137.1686470187769
 30
0.0
 10
227.6156231834346
 20
136.6642707476171
 30
0.0
 10
226.5345914154053
 20
135.8950095247391
 30
0.0
 10
224.9365612377955
 20
134.6878632775008
 30
0.0
 10
222.8972906951209
 20
132.9901189694671
 30
0.0
 10
220.9389571536862
 20
131.1982895393201
 30
0.0
 10
219.0654173565743
 20
129.3156112445805
 30
0.0
 10
217.2807866566688
 20
127.3476955379596
 30
0.0
 10
215.5933675611251
 20
125.3011438119608
 30
0.0
 10
214.0040890346469
 20
123.1803907184714
 30
0.0
 10
212.9053227736895
 20
121.5543290228998
 30
0.0
 10
212.0039232310195
 20
120.1498058575767
 30
0.0
 10
211.0464396104831
 20
118.6654754393763
 30
0.0
 10
210.1966815686959
 20
117.3456354325087
 30
0.0
 10
209.6656541267046
 20
116.5208462240293
 30
0.0
  0
SPLINE
  5
85
330
1F
100
AcDbEntity
  8
0
  6
SLD-Сплошная
 62
     7
370
    25
100
AcDbSpline
210
0.0
220
0.0
230
1.0
 70
     8
 71
     3
 72
    36
 73
    32
 74
     0
 42
0.00000001
 43
0.00000001
 40
0.0
 40
0.0
 40
0.0
 40
0.0
 40
0.0141581473177405
 40
0.0288682062976394
 40
0.0441393177694518
 40
0.0599762153610994
 40
0.076382666585661
 40
0.0933643498165339
 40
0.1109256737039293
 40
0.1290699643968022
 40
0.147799631692694
 40
0.1671163171903267
 40
0.187021027204388
 40
0.2075142528714896
 40
0.2285960795565554
 40
0.2502662873741148
 40
0.3065175778222897
 40
0.3669110100307667
 40
0.4314314783653827
 40
0.5000608205771747
 40
0.5608689904179811
 40
0.624881431895592
 40
0.6560730712139854
 40
0.6872709529797575
 40
0.749714625548952
 40
0.8159194892906877
 40
0.8749183224068218
 40
0.9095426687502354
 40
0.9419198722763872
 40
0.9720656009247555
 40
1.0
 40
1.0
 40
1.0
 40
1.0
 10
213.9485475887117
 20
132.5048222276429
 30
0.0
 10
213.9306287235269
 20
132.4380035995658
 30
0.0
 10
213.8940924815195
 20
132.301761625488
 30
0.0
 10
213.8366240804993
 20
132.087826345039
 30
0.0
 10
213.7760907678006
 20
131.8621596511603
 30
0.0
 10
213.7123951411174
 20
131.6243606741623
 30
0.0
 10
213.6455283505061
 20
131.374722341065
 30
0.0
 10
213.5755319832561
 20
131.1133534390978
 30
0.0
 10
213.5024310940657
 20
130.8403944821212
 30
0.0
 10
213.4262573750503
 20
130.555974070493
 30
0.0
 10
213.3470433505271
 20
130.2602256975487
 30
0.0
 10
213.2648236474681
 20
129.9532826864856
 30
0.0
 10
213.179633465585
 20
129.6352792335572
 30
0.0
 10
213.0915109059762
 20
129.3063497931246
 30
0.0
 10
213.0004861689553
 20
128.966628543283
 30
0.0
 10
212.8575403318814
 20
128.4330410773039
 30
0.0
 10
212.6565247682671
 20
127.6838281258718
 30
0.0
 10
212.3921157318329
 20
126.6984873032224
 30
0.0
 10
212.1097022222834
 20
125.6435482553455
 30
0.0
 10
211.8269093637163
 20
124.5861776503446
 30
0.0
 10
211.5443528172037
 20
123.5332161741495
 30
0.0
 10
211.3175281024459
 20
122.6855347953638
 30
0.0
 10
211.1337881694242
 20
122.0001400368609
 30
0.0
 10
210.9527988769791
 20
121.3241156344662
 30
0.0
 10
210.7213546600522
 20
120.4610108021106
 30
0.0
 10
210.4514947135924
 20
119.4532818972939
 30
0.0
 10
210.2232116580237
 20
118.6018278514447
 30
0.0
 10
210.0450569693135
 20
117.9365803759181
 30
0.0
 10
209.9090119058069
 20
117.428195924416
 30
0.0
 10
209.7832277902975
 20
116.9592605287911
 30
0.0
 10
209.7038377889531
 20
116.6632272915672
 30
0.0
 10
209.6656541267083
 20
116.5208462240271
 30
0.0
  0
SPLINE
  5
86
330
1F
100
AcDbEntity
  8
0
  6
SLD-Сплошная
 62
     7
370
    25
100
AcDbSpline
210
0.0
220
0.0
230
1.0
 70
     8
 71
     3
 72
     8
 73
     4
 74
     0
 42
0.00000001
 43
0.00000001
 40
0.0
 40
0.0
 40
0.0
 40
0.0
 40
1.0
 40
1.0
 40
1.0
 40
1.0
 10
216.3197033648436
 20
140.1949850652808
 30
0.0
 10
216.2232110723989
 20
140.2212389858052
 30
0.0
 10
216.1266679783929
 20
140.2473070989928
 30
0.0
 10
216.0300752064074
 20
140.2731890542412
 30
0.0
  0
LINE
  5
87
330
1F
100
AcDbEntity
  8
0
  6
SLD-Сплошная
 62
     7
370
    25
100
AcDbLine
 10
218.531203845
 20
148.4484172182
 30
0.0
 11
230.6587330978
 21
145.1988555488
 31
0.0
  0
LINE
  5
88
330
1F
100
AcDbEntity
  8
0
  6
SLD-Сплошная
 62
     7
370
    25
100
AcDbLine
 10
213.9485475887
 20
132.5048222276
 30
0.0
 11
215.2583751957
 21
137.393165406
 31
0.0
  0
LINE
  5
89
330
1F
100
AcDbEntity
  8
0
  6
SLD-Сплошная
 62
     7
370
    25
100
AcDbLine
 10
315.9931197176
 20
122.3335755674
 30
0.0
 11
241.6566064612
 21
142.2519842626
 31
0.0
  0
LINE
  5
8A
330
1F
100
AcDbEntity
  8
0
  6
SLD-Сплошная
 62
     7
370
    25
100
AcDbLine
 10
206.4649799363
 20
104.575767527
 30
0.0
 11
209.6656541267
 21
116.520846224
 31
0.0
  0
SPLINE
  5
8B
330
1F
100
AcDbEntity
  8
0
  6
SLD-Сплошная
 62
     7
370
    25
100
AcDbSpline
210
0.0
220
0.0
230
1.0
 70
    24
 71
     3
 72
     8
 73
     4
 74
     0
 42
0.00000001
 43
0.00000001
 40
0.0
 40
0.0
 40
0.0
 40
0.0
 40
1.0
 40
1.0
 40
1.0
 40
1.0
 10
315.9931197175761
 20
104.5757675270133
 30
0.0
 10
315.9931197175763
 20
110.4803464697834
 30
0.0
 10
315.9931197175763
 20
116.399938410741
 30
0.0
 10
315.9931197175761
 20
122.3335755673778
 30
0.0
  0
LINE
  5
8C
330
1F
100
AcDbEntity
  8
0
  6
SLD-Сплошная
 62
     7
370
    25
100
AcDbLine
 10
218.2414260971
 20
148.5260629318
 30
0.0
 11
218.531203845
 21
148.4484172182
 31
0.0
  0
LINE
  5
8D
330
1F
100
AcDbEntity
  8
0
  6
SLD-Сплошная
 62
     7
370
    25
100
AcDbLine
 10
175.8429558166
 20
130.545247659
 30
0.0
 11
163.0927349096
 21
133.9616590543
 31
0.0
  0
LINE
  5
8E
330
1F
100
AcDbEntity
  8
0
  6
SLD-Сплошная
 62
     7
370
    25
100
AcDbLine
 10
191.3756983406
 20
185.2300841299
 30
0.0
 11
176.6230127698
 21
130.1723120314
 31
0.0
  0
LINE
  5
8F
330
1F
100
AcDbEntity
  8
0
  6
SLD-Сплошная
 62
     7
370
    25
100
AcDbLine
 10
177.8044404812
 20
188.8664917136
 30
0.0
 11
170.4280976958
 21
161.3376056643
 31
0.0
  0
LINE
  5
90
330
1F
100
AcDbEntity
  8
0
  6
SLD-Сплошная
 62
     7
370
    25
100
AcDbLine
 10
170.4280976958
 20
161.3376056643
 30
0.0
 11
163.0927349096
 21
133.9616590543
 31
0.0
  0
LINE
  5
91
330
1F
100
AcDbEntity
  8
0
  6
SLD-Сплошная
 62
     7
370
    25
100
AcDbLine
 10
214.4613255889
 20
179.0443089519
 30
0.0
 11
199.7086400181
 21
123.9865368534
 31
0.0
  0
LINE
  5
92
330
1F
100
AcDbEntity
  8
0
  6
SLD-Сплошная
 62
     7
370
    25
100
AcDbLine
 10
180.3649935267
 20
140.8791845498
 30
0.0
 11
201.7666900845
 21
135.1446172405
 31
0.0
  0
LINE
  5
93
330
1F
100
AcDbEntity
  8
0
  6
SLD-Сплошная
 62
     7
370
    25
100
AcDbLine
 10
210.6737257859
 20
168.3861270229
 30
0.0
 11
201.7666900845
 21
135.1446172405
 31
0.0
  0
LINE
  5
94
330
1F
100
AcDbEntity
  8
0
  6
SLD-Сплошная
 62
     7
370
    25
100
AcDbLine
 10
210.6737257859
 20
168.3861270229
 30
0.0
 11
189.2720292281
 21
174.1206943322
 31
0.0
  0
LINE
  5
95
330
1F
100
AcDbEntity
  8
0
  6
SLD-Сплошная
 62
     7
370
    25
100
AcDbLine
 10
189.2720292281
 20
174.1206943322
 30
0.0
 11
180.3649935267
 21
140.8791845498
 31
0.0
  0
LINE
  5
96
330
1F
100
AcDbEntity
  8
0
  6
SLD-Сплошная
 62
     7
370
    25
100
AcDbLine
 10
190.2545046479
 20
157.1666253735
 30
0.0
 11
187.4506336064
 21
146.7024361886
 31
0.0
  0
LINE
  5
97
330
1F
100
AcDbEntity
  8
0
  6
SLD-Сплошная
 62
     7
370
    25
100
AcDbLine
 10
193.2794083492
 20
156.3561048696
 30
0.0
 11
190.2545046479
 21
157.1666253735
 31
0.0
  0
LINE
  5
98
330
1F
100
AcDbEntity
  8
0
  6
SLD-Сплошная
 62
     7
370
    25
100
AcDbLine
 10
193.2794083492
 20
156.3561048696
 30
0.0
 11
190.4755373077
 21
145.8919156847
 31
0.0
  0
LINE
  5
99
330
1F
100
AcDbEntity
  8
0
  6
SLD-Сплошная
 62
     7
370
    25
100
AcDbLine
 10
187.4506336064
 20
146.7024361886
 30
0.0
 11
190.4755373077
 21
145.8919156847
 31
0.0
  0
LINE
  5
9A
330
1F
100
AcDbEntity
  8
0
  6
SLD-Сплошная
 62
     7
370
    25
100
AcDbLine
 10
197.3126254918
 20
155.2754075933
 30
0.0
 11
194.2877217905
 21
156.0859280973
 31
0.0
  0
LINE
  5
9B
330
1F
100
AcDbEntity
  8
0
  6
SLD-Сплошная
 62
     7
370
    25
100
AcDbLine
 10
196.4208953654
 20
147.91417169
 30
0.0
 11
195.4125819241
 21
148.1843484623
 31
0.0
  0
LINE
  5
9C
330
1F
100
AcDbEntity
  8
0
  6
SLD-Сплошная
 62
     7
370
    25
100
AcDbLine
 10
201.3458426343
 20
154.1947103171
 30
0.0
 11
198.320938933
 21
155.005230821
 31
0.0
  0
LINE
  5
9D
330
1F
100
AcDbEntity
  8
0
  6
SLD-Сплошная
 62
     7
370
    25
100
AcDbLine
 10
191.4838507489
 20
145.6217389124
 30
0.0
 11
198.5419715928
 21
143.7305211322
 31
0.0
  0
LINE
  5
9E
330
1F
100
AcDbEntity
  8
0
  6
SLD-Сплошная
 62
     7
370
    25
100
AcDbLine
 10
197.3126254918
 20
155.2754075933
 30
0.0
 11
195.4125819241
 21
148.1843484623
 31
0.0
  0
LINE
  5
9F
330
1F
100
AcDbEntity
  8
0
  6
SLD-Сплошная
 62
     7
370
    25
100
AcDbLine
 10
201.3458426343
 20
154.1947103171
 30
0.0
 11
198.5419715928
 21
143.7305211322
 31
0.0
  0
LINE
  5
A0
330
1F
100
AcDbEntity
  8
0
  6
SLD-Сплошная
 62
     7
370
    25
100
AcDbLine
 10
194.2877217905
 20
156.0859280973
 30
0.0
 11
191.4838507489
 21
145.6217389124
 31
0.0
  0
LINE
  5
A1
330
1F
100
AcDbEntity
  8
0
  6
SLD-Сплошная
 62
     7
370
    25
100
AcDbLine
 10
198.320938933
 20
155.005230821
 30
0.0
 11
196.4208953654
 21
147.91417169
 31
0.0
  0
LINE
  5
A2
330
1F
100
AcDbEntity
  8
0
  6
SLD-Сплошная
 62
     7
370
    25
100
AcDbLine
 10
191.4591799511
 20
161.6625348118
 30
0.0
 11
190.524191992
 21
158.1731122439
 31
0.0
  0
LINE
  5
A3
330
1F
100
AcDbEntity
  8
0
  6
SLD-Сплошная
 62
     7
370
    25
100
AcDbLine
 10
196.863245198
 20
160.214519893
 30
0.0
 11
191.4591799511
 21
161.6625348118
 31
0.0
  0
LINE
  5
A4
330
1F
100
AcDbEntity
  8
0
  6
SLD-Сплошная
 62
     7
370
    25
100
AcDbLine
 10
196.8942810034
 20
160.3303470957
 30
0.0
 11
196.863245198
 21
160.214519893
 31
0.0
  0
SPLINE
  5
A5
330
1F
100
AcDbEntity
  8
0
  6
SLD-Сплошная
 62
     7
370
    25
100
AcDbSpline
210
0.0
220
0.0
230
1.0
 70
     8
 71
     3
 72
     8
 73
     4
 74
     0
 42
0.00000001
 43
0.00000001
 40
0.0
 40
0.0
 40
0.0
 40
0.0
 40
1.0
 40
1.0
 40
1.0
 40
1.0
 10
192.646256622071
 20
166.0927652601533
 30
0.0
 10
194.0739008505487
 20
164.2128830899098
 30
0.0
 10
195.4875440646837
 20
162.2857504827418
 30
0.0
 10
196.8942810033896
 20
160.3303470956927
 30
0.0
  0
LINE
  5
A6
330
1F
100
AcDbEntity
  8
0
  6
SLD-Сплошная
 62
     7
370
    25
100
AcDbLine
 10
193.5921217469
 20
169.622781963
 30
0.0
 11
192.6462566221
 21
166.0927652602
 31
0.0
  0
SPLINE
  5
A7
330
1F
100
AcDbEntity
  8
0
  6
SLD-Сплошная
 62
     7
370
    25
100
AcDbSpline
210
0.0
220
0.0
230
1.0
 70
     8
 71
     3
 72
     8
 73
     4
 74
     0
 42
0.00000001
 43
0.00000001
 40
0.0
 40
0.0
 40
0.0
 40
0.0
 40
1.0
 40
1.0
 40
1.0
 40
1.0
 10
198.0180288756277
 20
163.9578162643036
 30
0.0
 10
196.5576295559146
 20
165.9008877376374
 30
0.0
 10
195.0848108051939
 20
167.7956410123876
 30
0.0
 10
193.5921217468691
 20
169.6227819630069
 30
0.0
  0
SPLINE
  5
A8
330
1F
100
AcDbEntity
  8
0
  6
SLD-Сплошная
 62
     7
370
    25
100
AcDbSpline
210
0.0
220
0.0
230
1.0
 70
     8
 71
     3
 72
     8
 73
     4
 74
     0
 42
0.00000001
 43
0.00000001
 40
0.0
 40
0.0
 40
0.0
 40
0.0
 40
1.0
 40
1.0
 40
1.0
 40
1.0
 10
204.683459733272
 20
166.6508669065711
 30
0.0
 10
202.4771820161891
 20
165.8148607298666
 30
0.0
 10
200.2543080247351
 20
164.9103660755098
 30
0.0
 10
198.0180288756277
 20
163.9578162643036
 30
0.0
  0
LINE
  5
A9
330
1F
100
AcDbEntity
  8
0
  6
SLD-Сплошная
 62
     7
370
    25
100
AcDbLine
 10
204.6834597333
 20
166.6508669066
 30
0.0
 11
203.7375946085
 21
163.1208502037
 31
0.0
  0
SPLINE
  5
AA
330
1F
100
AcDbEntity
  8
0
  6
SLD-Сплошная
 62
     7
370
    25
100
AcDbSpline
210
0.0
220
0.0
230
1.0
 70
     8
 71
     3
 72
     8
 73
     4
 74
     0
 42
0.00000001
 43
0.00000001
 40
0.0
 40
0.0
 40
0.0
 40
0.0
 40
1.0
 40
1.0
 40
1.0
 40
1.0
 10
197.1774884961245
 20
160.2544618767258
 30
0.0
 10
199.373459855626
 20
161.2445222982593
 30
0.0
 10
201.5612776762331
 20
162.2066467377975
 30
0.0
 10
203.7375946084745
 20
163.1208502037192
 30
0.0
  0
LINE
  5
AB
330
1F
100
AcDbEntity
  8
0
  6
SLD-Сплошная
 62
     7
370
    25
100
AcDbLine
 10
197.1774884961
 20
160.2544618767
 30
0.0
 11
197.1464526907
 21
160.1386346741
 31
0.0
  0
LINE
  5
AC
330
1F
100
AcDbEntity
  8
0
  6
SLD-Сплошная
 62
     7
370
    25
100
AcDbLine
 10
202.5505179375
 20
158.6906197553
 30
0.0
 11
197.1464526907
 21
160.1386346741
 31
0.0
  0
LINE
  5
AD
330
1F
100
AcDbEntity
  8
0
  6
SLD-Сплошная
 62
     7
370
    25
100
AcDbLine
 10
202.5505179375
 20
158.6906197553
 30
0.0
 11
201.6155299784
 21
155.2011971874
 31
0.0
  0
LINE
  5
AE
330
1F
100
AcDbEntity
  8
0
  6
SLD-Сплошная
 62
     7
370
    25
100
AcDbLine
 10
190.524191992
 20
158.1731122439
 30
0.0
 11
201.6155299784
 21
155.2011971874
 31
0.0
  0
LINE
  5
AF
330
1F
100
AcDbEntity
  8
0
  6
SLD-Сплошная
 62
     7
370
    25
100
AcDbLine
 10
191.2331040048
 20
144.6859393235
 30
0.0
 11
190.3893835012
 21
141.5371315366
 31
0.0
  0
LINE
  5
B0
330
1F
100
AcDbEntity
  8
0
  6
SLD-Сплошная
 62
     7
370
    25
100
AcDbLine
 10
190.3893835012
 20
141.5371315366
 30
0.0
 11
197.447504345
 21
139.6459137564
 31
0.0
  0
LINE
  5
B1
330
1F
100
AcDbEntity
  8
0
  6
SLD-Сплошная
 62
     7
370
    25
100
AcDbLine
 10
198.2912248487
 20
142.7947215433
 30
0.0
 11
191.2331040048
 21
144.6859393235
 31
0.0
  0
LINE
  5
B2
330
1F
100
AcDbEntity
  8
0
  6
SLD-Сплошная
 62
     7
370
    25
100
AcDbLine
 10
198.2912248487
 20
142.7947215433
 30
0.0
 11
197.447504345
 21
139.6459137564
 31
0.0
  0
LINE
  5
B3
330
1F
100
AcDbEntity
  8
0
  6
SLD-Сплошная
 62
     7
370
    25
100
AcDbLine
 10
187.1998868623
 20
145.7666365997
 30
0.0
 11
186.3561663586
 21
142.6178288128
 31
0.0
  0
LINE
  5
B4
330
1F
100
AcDbEntity
  8
0
  6
SLD-Сплошная
 62
     7
370
    25
100
AcDbLine
 10
190.2247905636
 20
144.9561160958
 30
0.0
 11
187.1998868623
 21
145.7666365997
 31
0.0
  0
LINE
  5
B5
330
1F
100
AcDbEntity
  8
0
  6
SLD-Сплошная
 62
     7
370
    25
100
AcDbLine
 10
190.2247905636
 20
144.9561160958
 30
0.0
 11
189.3810700599
 21
141.8073083089
 31
0.0
  0
LINE
  5
B6
330
1F
100
AcDbEntity
  8
0
  6
SLD-Сплошная
 62
     7
370
    25
100
AcDbLine
 10
186.3561663586
 20
142.6178288128
 30
0.0
 11
189.3810700599
 21
141.8073083089
 31
0.0
  0
LINE
  5
B7
330
1F
100
AcDbEntity
  8
0
  6
SLD-Сплошная
 62
     7
370
    25
100
AcDbLine
 10
203.1759349373
 20
106.5965867114
 30
0.0
 11
205.1761416089
 21
114.0614596356
 31
0.0
  0
LINE
  5
B8
330
1F
100
AcDbEntity
  8
0
  6
SLD-Сплошная
 62
     7
370
    25
100
AcDbLine
 10
174.198831172
 20
124.409290951
 30
0.0
 11
174.9752883073
 21
127.3070684299
 31
0.0
  0
LINE
  5
B9
330
1F
100
AcDbEntity
  8
0
  6
SLD-Сплошная
 62
     7
370
    25
100
AcDbLine
 10
161.4486102649
 20
127.8257023464
 30
0.0
 11
162.2250674002
 21
130.7234798252
 31
0.0
  0
LINE
  5
BA
330
1F
100
AcDbEntity
  8
0
  6
SLD-Сплошная
 62
     7
370
    25
100
AcDbLine
 10
174.9752883073
 20
127.3070684299
 30
0.0
 11
175.8429558166
 21
130.545247659
 31
0.0
  0
LINE
  5
BB
330
1F
100
AcDbEntity
  8
0
  6
SLD-Сплошная
 62
     7
370
    25
100
AcDbLine
 10
162.2250674002
 20
130.7234798252
 30
0.0
 11
163.0927349096
 21
133.9616590543
 31
0.0
  0
SPLINE
  5
BC
330
1F
100
AcDbEntity
  8
0
  6
SLD-Сплошная
 62
     7
370
    25
100
AcDbSpline
210
0.0
220
0.0
230
1.0
 70
     8
 71
     3
 72
    42
 73
    38
 74
     0
 42
0.00000001
 43
0.00000001
 40
0.0
 40
0.0
 40
0.0
 40
0.0
 40
0.035014724888486
 40
0.0698678722602781
 40
0.0790429681621029
 40
0.0881963275492539
 40
0.0973324165847647
 40
0.1064602512074691
 40
0.1137869411680315
 40
0.1247069761181987
 40
0.1427663189177482
 40
0.1607314705987581
 40
0.178603341237721
 40
0.1963828281485711
 40
0.2140708129957934
 40
0.2316681590032704
 40
0.2491757082655169
 40
0.3332302759445759
 40
0.4166221443230844
 40
0.4981569001155755
 40
0.5292866227549203
 40
0.5604207756153222
 40
0.5916109597236087
 40
0.6227515062347151
 40
0.6540412156702055
 40
0.6852183788446916
 40
0.7164398941887
 40
0.7477056808071524
 40
0.7788424246480192
 40
0.8101275261965656
 40
0.8411788485481494
 40
0.872405208932097
 40
0.9040830524940401
 40
0.9353537335855472
 40
0.966204289636426
 40
0.9966226997183143
 40
1.0
 40
1.0
 40
1.0
 40
1.0
 10
241.6547766767089
 20
142.2524745518502
 30
0.0
 10
242.8171861504389
 20
142.3993800771574
 30
0.0
 10
245.1366410907062
 20
142.692513223546
 30
0.0
 10
247.7822549243226
 20
142.6417977702172
 30
0.0
 10
249.5488464347719
 20
142.4944258940174
 30
0.0
 10
250.4584602172376
 20
142.3901043810983
 30
0.0
 10
251.3626875958421
 20
142.2586114504961
 30
0.0
 10
252.2027646049763
 20
142.1117956577104
 30
0.0
 10
253.0957955013138
 20
141.9262616387423
 30
0.0
 10
254.2760322426634
 20
141.6624552909361
 30
0.0
 10
255.800074314322
 20
141.3158194164155
 30
0.0
 10
257.5453492200597
 20
140.9033523838247
 30
0.0
 10
259.2773905796955
 20
140.4804529935009
 30
0.0
 10
260.996119377217
 20
140.0468669884154
 30
0.0
 10
262.7015915683551
 20
139.6029648519882
 30
0.0
 10
264.3938337825944
 20
139.1489422861289
 30
0.0
 10
268.2030978518173
 20
138.0967979793556
 30
0.0
 10
274.0681421561815
 20
136.3384455361783
 30
0.0
 10
281.8455421262753
 20
133.7079437722632
 30
0.0
 10
287.8546025744207
 20
131.4042435897522
 30
0.0
 10
292.220789278473
 20
129.6652846596866
 30
0.0
 10
294.990355912545
 20
128.3790447242183
 30
0.0
 10
297.9659018373258
 20
127.6568776989059
 30
0.0
 10
301.0254512644547
 20
127.6341530114545
 30
0.0
 10
304.0034048060309
 20
128.2718178584573
 30
0.0
 10
306.7559788442919
 20
129.5073586380253
 30
0.0
 10
309.1492767474029
 20
131.2374554461813
 30
0.0
 10
311.0900423785478
 20
133.3168150979324
 30
0.0
 10
312.5244882085745
 20
135.5897610794012
 30
0.0
 10
313.4721643516949
 20
137.8855774916103
 30
0.0
 10
313.8985939131128
 20
140.1228637985905
 30
0.0
 10
314.2226839183213
 20
142.0588472522506
 30
0.0
 10
314.4952240423974
 20
143.6120220636415
 30
0.0
 10
314.694205662282
 20
144.7616651212028
 30
0.0
 10
314.8095332797428
 20
145.4270590653009
 30
0.0
 10
314.8567794883633
 20
145.7050264853807
 30
0.0
 10
314.8450023937351
 20
145.6367803119838
 30
0.0
 10
314.8438254755825
 20
145.6299602801467
 30
0.0
  0
SPLINE
  5
BD
330
1F
100
AcDbEntity
  8
0
  6
SLD-Сплошная
 62
     7
370
    25
100
AcDbSpline
210
0.0
220
0.0
230
1.0
 70
    24
 71
     3
 72
    26
 73
    22
 74
     0
 42
0.00000001
 43
0.00000001
 40
0.0
 40
0.0
 40
0.0
 40
0.0
 40
0.0302695357670817
 40
0.0607588632282308
 40
0.0914922688638999
 40
0.1224934655239385
 40
0.1537855572756412
 40
0.1853910102465095
 40
0.2173316293426634
 40
0.2496285406261266
 40
0.3756615897574241
 40
0.4986923020529245
 40
0.6271864366178898
 40
0.7488665067051962
 40
0.78905334169959
 40
0.8275634909632232
 40
0.8645237493658298
 40
0.900077497712623
 40
0.934385755570845
 40
0.9676276464386198
 40
1.0
 40
1.0
 40
1.0
 40
1.0
 10
241.654776676708
 20
142.2524745518464
 30
0.0
 10
241.5536822802441
 20
142.2795627137382
 30
0.0
 10
241.3507594255577
 20
142.3339357287773
 30
0.0
 10
241.0390593802154
 20
142.4174555042075
 30
0.0
 10
240.7207535846557
 20
142.5027452850738
 30
0.0
 10
240.3953748264719
 20
142.5899302605635
 30
0.0
 10
240.0630497578982
 20
142.6789764943125
 30
0.0
 10
239.7237479598933
 20
142.7698921370782
 30
0.0
 10
239.3774659218876
 20
142.8626781295152
 30
0.0
 10
238.6839835778659
 20
143.0484961635611
 30
0.0
 10
237.6374778998682
 20
143.3289065148552
 30
0.0
 10
236.2018025649272
 20
143.7135945614459
 30
0.0
 10
234.7654777238773
 20
144.098456642674
 30
0.0
 10
233.6503417574701
 20
144.3972564243237
 30
0.0
 10
232.8945027339859
 20
144.5997828802743
 30
0.0
 10
232.4634490992296
 20
144.7152833536016
 30
0.0
 10
232.0566695324697
 20
144.8242796100125
 30
0.0
 10
231.6739998990528
 20
144.9268156292544
 30
0.0
 10
231.3159691332674
 20
145.0227496838122
 30
0.0
 10
230.9808029463728
 20
145.1125571929207
 30
0.0
 10
230.7746400956656
 20
145.1677983622771
 30
0.0
 10
230.672924732601
 20
145.1950529116681
 30
0.0
  0
SPLINE
  5
BE
330
1F
100
AcDbEntity
  8
0
  6
SLD-Сплошная
 62
     7
370
    25
100
AcDbSpline
210
0.0
220
0.0
230
1.0
 70
     8
 71
     3
 72
    44
 73
    40
 74
     0
 42
0.00000001
 43
0.00000001
 40
0.0
 40
0.0
 40
0.0
 40
0.0
 40
0.0086832743409297
 40
0.0285904732141418
 40
0.0491261533295416
 40
0.0809225672808399
 40
0.1122248047068844
 40
0.1436317577322848
 40
0.1748498361751134
 40
0.1910992771777793
 40
0.2062338865616997
 40
0.2223894074577821
 40
0.237679664678165
 40
0.2534525906148998
 40
0.2690557574659846
 40
0.2848158965878509
 40
0.3004974821899601
 40
0.3162359345588329
 40
0.3319878943196782
 40
0.3375688674648206
 40
0.3431705647585948
 40
0.3482291950967789
 40
0.3489484462906389
 40
0.3513146043563913
 40
0.3557996152174233
 40
0.3637796850772115
 40
0.4047263660387191
 40
0.4472787916123728
 40
0.491446187398937
 40
0.5540672055863073
 40
0.6191072349487574
 40
0.6823169455087642
 40
0.7467693100770475
 40
0.7892125608219888
 40
0.8312419261828439
 40
0.8735596257782716
 40
0.9157284015302595
 40
0.957537225429168
 40
0.9999999999999999
 40
0.9999999999999999
 40
0.9999999999999999
 40
0.9999999999999999
 10
309.6193330212297
 20
148.7789778505408
 30
0.0
 10
309.6204231100351
 20
148.78555305106
 30
0.0
 10
309.6240123269098
 20
148.8072024988307
 30
0.0
 10
309.5909219693144
 20
148.63105621072
 30
0.0
 10
309.5130851033458
 20
148.1940658459238
 30
0.0
 10
309.3511806757412
 20
147.3324032408146
 30
0.0
 10
309.0942386664954
 20
145.9179976530056
 30
0.0
 10
308.7487125930995
 20
144.1077818869685
 30
0.0
 10
308.4420657007132
 20
142.2574187017997
 30
0.0
 10
308.0702726753008
 20
140.6687048271813
 30
0.0
 10
307.6281347122348
 20
139.4545955090984
 30
0.0
 10
307.037548786875
 20
138.274545026766
 30
0.0
 10
306.2577005910389
 20
137.1245651754875
 30
0.0
 10
305.2966414730494
 20
136.0777041525566
 30
0.0
 10
304.1354066486639
 20
135.1590669388308
 30
0.0
 10
302.7942185084712
 20
134.4500015628236
 30
0.0
 10
301.3146258584467
 20
133.9732536960917
 30
0.0
 10
299.7410203292628
 20
133.792335213271
 30
0.0
 10
298.4799332506313
 20
133.8941773166188
 30
0.0
 10
297.5787076845679
 20
134.0905593736638
 30
0.0
 10
297.0423413140188
 20
134.2483990278598
 30
0.0
 10
296.6724368721384
 20
134.382653433186
 30
0.0
 10
296.4118938584559
 20
134.4912095024571
 30
0.0
 10
296.1698403557172
 20
134.5926063697816
 30
0.0
 10
295.6957837236469
 20
134.7921103877186
 30
0.0
 10
293.9855760634533
 20
135.5047238627859
 30
0.0
 10
291.0401295169286
 20
136.6962607422709
 30
0.0
 10
286.8917897573152
 20
138.2861762752994
 30
0.0
 10
281.995885978109
 20
140.0568770324026
 30
0.0
 10
276.3049165360092
 20
141.9684453823762
 30
0.0
 10
269.9120300349106
 20
143.919243605806
 30
0.0
 10
263.3927041969637
 20
145.7225982660511
 30
0.0
 10
257.5808339387856
 20
147.1292753585822
 30
0.0
 10
252.4660762531184
 20
148.32071871929
 30
0.0
 10
248.0185962429785
 20
148.7856653884758
 30
0.0
 10
243.562752095455
 20
148.6989936289994
 30
0.0
 10
239.1530372613624
 20
148.0710532310174
 30
0.0
 10
234.8292711321301
 20
146.9117741348401
 30
0.0
 10
232.06552246254
 20
145.7702460857988
 30
0.0
 10
230.6729247326016
 20
145.19505291167
 30
0.0
  0
SPLINE
  5
BF
330
1F
100
AcDbEntity
  8
0
  6
SLD-Сплошная
 62
     7
370
    25
100
AcDbSpline
210
0.0
220
0.0
230
1.0
 70
     8
 71
     3
 72
    16
 73
    12
 74
     0
 42
0.00000001
 43
0.00000001
 40
0.0
 40
0.0
 40
0.0
 40
0.0
 40
0.2500000000000021
 40
0.3750000000000031
 40
0.4375000000000031
 40
0.4687500000000043
 40
0.4687500000000043
 40
0.484375000000005
 40
0.484375000000005
 40
0.5000000000000056
 40
1.0
 40
1.0
 40
1.0
 40
1.0
 10
260.625441450205
 20
172.3902549982309
 30
0.0
 10
261.8273074124407
 20
171.9263356831864
 30
0.0
 10
263.6263364112734
 20
171.2196542167214
 30
0.0
 10
265.7185951340154
 20
170.3762565082288
 30
0.0
 10
266.7630706496538
 20
169.9498186828021
 30
0.0
 10
267.2103484232374
 20
169.7660435629039
 30
0.0
 10
267.4339281946901
 20
169.6739866123743
 30
0.0
 10
267.5032337084543
 20
169.6454205973408
 30
0.0
 10
267.6468454149178
 20
169.5861696990467
 30
0.0
 10
270.0160125495842
 20
168.6077155086552
 30
0.0
 10
272.3711269211669
 20
167.6023985535936
 30
0.0
 10
274.6417199566564
 20
166.6024005805654
 30
0.0
  0
LINE
  5
C0
330
1F
100
AcDbEntity
  8
0
  6
SLD-Сплошная
 62
     7
370
    25
100
AcDbLine
 10
251.564909785
 20
160.8436012904
 30
0.0
 11
249.1261664601
 21
151.7420872956
 31
0.0
  0
SPLINE
  5
C1
330
1F
100
AcDbEntity
  8
0
  6
SLD-Сплошная
 62
     7
370
    25
100
AcDbSpline
210
0.0
220
0.0
230
1.0
 70
    24
 71
     3
 72
    13
 73
     9
 74
     0
 42
0.00000001
 43
0.00000001
 40
0.0
 40
0.0
 40
0.0
 40
0.0
 40
0.4999999999999986
 40
0.4999999999999986
 40
0.6249999999999977
 40
0.6249999999999977
 40
0.7499999999999968
 40
1.0
 40
1.0
 40
1.0
 40
1.0
 10
249.1261664601438
 20
151.7420872955886
 30
0.0
 10
250.7430172532567
 20
151.3088534312925
 30
0.0
 10
252.3605109744716
 20
150.8754472949305
 30
0.0
 10
254.3831915797749
 20
150.3334716601933
 30
0.0
 10
254.7831074673632
 20
150.2263145210738
 30
0.0
 10
255.5845375964104
 20
150.0115719652055
 30
0.0
 10
256.7861458445095
 20
149.6896020055088
 30
0.0
 10
257.9861430788297
 20
149.368063715653
 30
0.0
 10
258.7854247230344
 20
149.1538968445634
 30
0.0
  0
LINE
  5
C2
330
1F
100
AcDbEntity
  8
0
  6
SLD-Сплошная
 62
     7
370
    25
100
AcDbLine
 10
258.785424723
 20
149.1538968446
 30
0.0
 11
260.7539206045
 21
156.5004234886
 31
0.0
  0
SPLINE
  5
C3
330
1F
100
AcDbEntity
  8
0
  6
SLD-Сплошная
 62
     7
370
    25
100
AcDbSpline
210
0.0
220
0.0
230
1.0
 70
     8
 71
     3
 72
    31
 73
    27
 74
     0
 42
0.00000001
 43
0.00000001
 40
0.0
 40
0.0
 40
0.0
 40
0.0
 40
0.0190231734997511
 40
0.037610442302807
 40
0.0557634849554797
 40
0.0734841034078767
 40
0.0907742348205182
 40
0.1076359647344874
 40
0.1240715417841835
 40
0.1889580503862468
 40
0.2485839807631958
 40
0.3421949201120935
 40
0.4246003028576062
 40
0.4987103978557544
 40
0.5589239757813586
 40
0.6187587807295297
 40
0.6812595188248418
 40
0.7491129654535575
 40
0.7781789790910073
 40
0.8086822052595029
 40
0.8407145086928047
 40
0.8743552298243509
 40
0.903604463955576
 40
0.9342760700527435
 40
0.9663993996524108
 40
1.0
 40
1.0
 40
1.0
 40
1.0
 10
260.7539206044805
 20
156.5004234886109
 30
0.0
 10
260.7806446372648
 20
156.60355341455
 30
0.0
 10
260.8334803375302
 20
156.8074501055662
 30
0.0
 10
260.8999909728972
 20
157.1103874949469
 30
0.0
 10
260.9562429360111
 20
157.406602323033
 30
0.0
 10
261.0017149234293
 20
157.696067276087
 30
0.0
 10
261.0369137433116
 20
157.9786860014714
 30
0.0
 10
261.0620926756333
 20
158.2543950581587
 30
0.0
 10
261.0929211715938
 20
158.7893484560078
 30
0.0
 10
261.0712279553456
 20
159.5572047766805
 30
0.0
 10
260.8548821538454
 20
160.7327833035784
 30
0.0
 10
260.3359360339094
 20
161.9722709452471
 30
0.0
 10
259.3639697716534
 20
163.1732619196136
 30
0.0
 10
258.1810130666099
 20
164.0197634152569
 30
0.0
 10
256.9411561986159
 20
164.5108480549042
 30
0.0
 10
255.744860713878
 20
164.6813539380591
 30
0.0
 10
254.6026441122014
 20
164.5404192756023
 30
0.0
 10
253.8039472203846
 20
164.1831264891421
 30
0.0
 10
253.2668262491474
 20
163.7942383516978
 30
0.0
 10
252.9216433317322
 20
163.4746440461037
 30
0.0
 10
252.6022395080718
 20
163.1014847750738
 30
0.0
 10
252.3281316140328
 20
162.6997756997986
 30
0.0
 10
252.093335621862
 20
162.2770412304619
 30
0.0
 10
251.893417844456
 20
161.8390090848811
 30
0.0
 10
251.712935091273
 20
161.3606684251281
 30
0.0
 10
251.6149854223115
 20
161.0185204780195
 30
0.0
 10
251.5649097849661
 20
160.8436012904455
 30
0.0
  0
LINE
  5
C4
330
1F
100
AcDbEntity
  8
0
  6
SLD-Сплошная
 62
     7
370
    25
100
AcDbLine
 10
230.6729247326
 20
145.1950529117
 30
0.0
 11
218.2414260971
 21
148.5260629318
 31
0.0
  0
SPLINE
  5
C5
330
1F
100
AcDbEntity
  8
0
  6
SLD-Сплошная
 62
     7
370
    25
100
AcDbSpline
210
0.0
220
0.0
230
1.0
 70
    24
 71
     3
 72
    19
 73
    15
 74
     0
 42
0.00000001
 43
0.00000001
 40
0.0
 40
0.0
 40
0.0
 40
0.0
 40
0.0614144079909063
 40
0.1241532550159005
 40
0.1865992744936252
 40
0.249202144069621
 40
0.31160673728431
 40
0.3742315859542646
 40
0.4368253542423778
 40
0.4996668793706573
 40
0.6243972473344233
 40
0.7494392730082028
 40
0.874611799168088
 40
1.0
 40
1.0
 40
1.0
 40
1.0
 10
315.9931197175767
 20
144.9390136190861
 30
0.0
 10
315.9931197175767
 20
144.9184157040767
 30
0.0
 10
315.9931197175767
 20
144.8767756675017
 30
0.0
 10
315.9931197175766
 20
144.5207020926831
 30
0.0
 10
315.9931197175767
 20
143.9556931437568
 30
0.0
 10
315.9931197175766
 20
143.1678726947957
 30
0.0
 10
315.9931197175767
 20
142.1755214123957
 30
0.0
 10
315.9931197175766
 20
140.9877977923415
 30
0.0
 10
315.9931197175766
 20
139.6195902377795
 30
0.0
 10
315.9931197175766
 20
137.5830506691335
 30
0.0
 10
315.9931197175766
 20
134.673795825553
 30
0.0
 10
315.9931197175766
 20
130.7680735680044
 30
0.0
 10
315.9931197175765
 20
126.5908431953065
 30
0.0
 10
315.9931197175766
 20
123.7534788808841
 30
0.0
 10
315.9931197175766
 20
122.3335755673782
 30
0.0
  0
LINE
  5
C6
330
1F
100
AcDbEntity
  8
0
  6
SLD-Сплошная
 62
     7
370
    25
100
AcDbLine
 10
315.9931197176
 20
122.3335755674
 30
0.0
 11
241.6547766767
 21
142.2524745518
 31
0.0
  0
LINE
  5
C7
330
1F
100
AcDbEntity
  8
0
  6
SLD-Сплошная
 62
     7
370
    25
100
AcDbLine
 10
276.6972940504
 20
174.2739075372
 30
0.0
 11
274.2824794847
 21
174.92095515
 31
0.0
  0
LINE
  5
C8
330
1F
100
AcDbEntity
  8
0
  6
SLD-Сплошная
 62
     7
370
    25
100
AcDbLine
 10
274.6417199567
 20
166.6024005806
 30
0.0
 11
276.6972940504
 21
174.2739075372
 31
0.0
  0
LINE
  5
C9
330
1F
100
AcDbEntity
  8
0
  6
SLD-Сплошная
 62
     7
370
    25
100
AcDbLine
 10
274.2824794847
 20
174.92095515
 30
0.0
 11
260.6254414502
 21
172.3902549982
 31
0.0
  0
SPLINE
  5
CA
330
1F
100
AcDbEntity
  8
0
  6
SLD-Сплошная
 62
     7
370
    25
100
AcDbSpline
210
0.0
220
0.0
230
1.0
 70
     8
 71
     3
 72
    16
 73
    12
 74
     0
 42
0.00000001
 43
0.00000001
 40
0.0
 40
0.0
 40
0.0
 40
0.0
 40
0.1133751419098919
 40
0.2241787738986797
 40
0.35630192593801
 40
0.4699627276974956
 40
0.5660710148833498
 40
0.6527824719924352
 40
0.75371182164605
 40
0.8706207503147418
 40
1.0
 40
1.0
 40
1.0
 40
1.0
 10
55.11628103110522
 20
144.3848869592543
 30
0.0
 10
55.05344699657824
 20
143.9082725114398
 30
0.0
 10
54.92920409304505
 20
142.9658539112641
 30
0.0
 10
54.79533313339163
 20
141.1331080362877
 30
0.0
 10
54.70109746704488
 20
139.0452875622086
 30
0.0
 10
54.64249138132107
 20
136.9140043905679
 30
0.0
 10
54.60871212899445
 20
134.9970381753056
 30
0.0
 10
54.58675121565734
 20
133.1254482728197
 30
0.0
 10
54.57081828929558
 20
131.0145230290597
 30
0.0
 10
54.56075905918154
 20
128.5033469709526
 30
0.0
 10
54.55986998462892
 20
126.6069817495293
 30
0.0
 10
54.55940293907563
 20
125.6107897637152
 30
0.0
  0
SPLINE
  5
CB
330
1F
100
AcDbEntity
  8
0
  6
SLD-Сплошная
 62
     7
370
    25
100
AcDbSpline
210
0.0
220
0.0
230
1.0
 70
     8
 71
     3
 72
    17
 73
    13
 74
     0
 42
0.00000001
 43
0.00000001
 40
0.0
 40
0.0
 40
0.0
 40
0.0
 40
0.1003848611921521
 40
0.2736246728053212
 40
0.4263533797630593
 40
0.5589798891629066
 40
0.6715031126696156
 40
0.7517811466154803
 40
0.8164739951086527
 40
0.8788510420711556
 40
0.9538602505481726
 40
1.0
 40
1.0
 40
1.0
 40
1.0
 10
129.458331769044
 20
125.4820303989583
 30
0.0
 10
129.4586910077532
 20
126.2870374766489
 30
0.0
 10
129.459670204946
 20
128.4812906301938
 30
0.0
 10
129.4463076952478
 20
131.6018218384623
 30
0.0
 10
129.4156261920582
 20
134.7653376416588
 30
0.0
 10
129.3689726282078
 20
137.3023415914646
 30
0.0
 10
129.3143000504799
 20
139.2426685454367
 30
0.0
 10
129.257555350135
 20
140.6745965402642
 30
0.0
 10
129.202544768385
 20
141.7155164793598
 30
0.0
 10
129.1335710626886
 20
142.6873084445727
 30
0.0
 10
129.0560942812651
 20
143.5556387273398
 30
0.0
 10
128.9793194286743
 20
144.0606672376184
 30
0.0
 10
128.950079619077
 20
144.2530080495301
 30
0.0
  0
SPLINE
  5
CC
330
1F
100
AcDbEntity
  8
0
  6
SLD-Сплошная
 62
     7
370
    25
100
AcDbSpline
210
0.0
220
0.0
230
1.0
 70
     8
 71
     3
 72
    15
 73
    11
 74
     0
 42
0.00000001
 43
0.00000001
 40
0.0
 40
0.0
 40
0.0
 40
0.0
 40
0.0321474985141217
 40
0.162593579677297
 40
0.2946086800065309
 40
0.4282379248352491
 40
0.5635304470894436
 40
0.7558327948017828
 40
0.9516595936586167
 40
1.0
 40
1.0
 40
1.0
 40
1.0
 10
120.0337405733169
 20
131.2789060533002
 30
0.0
 10
120.0988333487614
 20
131.3840232225859
 30
0.0
 10
120.4280554612073
 20
131.9156781764606
 30
0.0
 10
120.9743367673596
 20
132.8257455467547
 30
0.0
 10
121.6759402807578
 20
134.0082960955538
 30
0.0
 10
122.3342891314562
 20
135.1406256091697
 30
0.0
 10
123.0413466318804
 20
136.3756795499973
 30
0.0
 10
123.7654226023586
 20
137.6694847548577
 30
0.0
 10
124.3218593068988
 20
138.6814790145397
 30
0.0
 10
124.5779911944194
 20
139.1760482994106
 30
0.0
 10
124.6287003775371
 20
139.2739634972162
 30
0.0
  0
SPLINE
  5
CD
330
1F
100
AcDbEntity
  8
0
  6
SLD-Сплошная
 62
     7
370
    25
100
AcDbSpline
210
0.0
220
0.0
230
1.0
 70
     8
 71
     3
 72
    12
 73
     8
 74
     0
 42
0.00000001
 43
0.00000001
 40
0.0
 40
0.0
 40
0.0
 40
0.0
 40
0.2531100388903457
 40
0.5380259518599191
 40
0.7349290133825883
 40
0.9175902809916832
 40
1.0
 40
1.0
 40
1.0
 40
1.0
 10
128.9071484996007
 20
144.3302686758218
 30
0.0
 10
128.8290040985319
 20
144.7563244683492
 30
0.0
 10
128.6628956503964
 20
145.6619743363866
 30
0.0
 10
128.2093783469237
 20
146.752818658953
 30
0.0
 10
127.6093776404723
 20
147.6367200991658
 30
0.0
 10
127.0915886925702
 20
148.1956234581385
 30
0.0
 10
126.6879118082078
 20
148.4404830461397
 30
0.0
 10
126.5624099604387
 20
148.5166091061856
 30
0.0
  0
SPLINE
  5
CE
330
1F
100
AcDbEntity
  8
0
  6
SLD-Сплошная
 62
     7
370
    25
100
AcDbSpline
210
0.0
220
0.0
230
1.0
 70
     8
 71
     3
 72
    35
 73
    31
 74
     0
 42
0.00000001
 43
0.00000001
 40
0.0
 40
0.0
 40
0.0
 40
0.0
 40
0.0084286045717702
 40
0.0247973124242154
 40
0.0400089829505065
 40
0.0542819973726425
 40
0.0687337560107372
 40
0.0985748737438733
 40
0.1295098219070375
 40
0.1614662942815893
 40
0.1943714951938831
 40
0.229224414155563
 40
0.2772451100616937
 40
0.3237829559384299
 40
0.3688463706958073
 40
0.4333708489234163
 40
0.4961671988860612
 40
0.5596262427183332
 40
0.6241441824079593
 40
0.6674795875183488
 40
0.7116150586647785
 40
0.7573844102618015
 40
0.7924083655037959
 40
0.8242855125039288
 40
0.856088589712016
 40
0.8881630557327588
 40
0.9206938412999458
 40
0.9552737402168164
 40
0.9910157802987151
 40
1.0
 40
1.0
 40
1.0
 40
1.0
 10
115.733145202128
 20
134.1640387590894
 30
0.0
 10
115.7416114307859
 20
134.1664384333483
 30
0.0
 10
115.7665194348684
 20
134.1734983768785
 30
0.0
 10
115.6418832584185
 20
134.3200759281347
 30
0.0
 10
115.3989528322774
 20
134.6144979527479
 30
0.0
 10
115.0387373288751
 20
135.0614595187187
 30
0.0
 10
114.5240589389341
 20
135.7318205100541
 30
0.0
 10
113.769511258494
 20
136.7355036233017
 30
0.0
 10
112.6976962188249
 20
138.1216417350743
 30
0.0
 10
111.4430152892079
 20
139.6351597694596
 30
0.0
 10
110.0064994385208
 20
141.221401492237
 30
0.0
 10
108.2133743372032
 20
143.0193855260318
 30
0.0
 10
105.9903159562273
 20
144.7905171573333
 30
0.0
 10
103.363268275113
 20
146.3811713547509
 30
0.0
 10
100.226440771373
 20
147.7843156473104
 30
0.0
 10
96.55632076464401
 20
148.8092937544195
 30
0.0
 10
92.36003528075103
 20
149.227362949889
 30
0.0
 10
88.1528421984707
 20
148.9298843514586
 30
0.0
 10
84.47823640055805
 20
148.0134028997999
 30
0.0
 10
81.38353433158973
 20
146.7419747327216
 30
0.0
 10
78.82551623307077
 20
145.3117236360623
 30
0.0
 10
76.60586656945972
 20
143.6982653395823
 30
0.0
 10
74.78911694122012
 20
142.0228671542629
 30
0.0
 10
73.31190858553438
 20
140.4645841678417
 30
0.0
 10
71.98545854526911
 20
138.9378039735963
 30
0.0
 10
70.76985087986534
 20
137.4202228350473
 30
0.0
 10
69.6780808534914
 20
135.9863073523036
 30
0.0
 10
68.89562449260339
 20
134.9144048733221
 30
0.0
 10
68.49065532932117
 20
134.3710248565771
 30
0.0
 10
68.50737200772005
 20
134.3310455271546
 30
0.0
 10
68.51072990780244
 20
134.3230148292876
 30
0.0
  0
SPLINE
  5
CF
330
1F
100
AcDbEntity
  8
0
  6
SLD-Сплошная
 62
     7
370
    25
100
AcDbSpline
210
0.0
220
0.0
230
1.0
 70
     8
 71
     3
 72
    12
 73
     8
 74
     0
 42
0.00000001
 43
0.00000001
 40
0.0
 40
0.0
 40
0.0
 40
0.0
 40
0.03993949718939
 40
0.2117295481896225
 40
0.404975301414748
 40
0.6954682756967462
 40
1.0
 40
1.0
 40
1.0
 40
1.0
 10
57.45052019563563
 20
148.5221527425488
 30
0.0
 10
57.38871427399955
 20
148.4870340368969
 30
0.0
 10
57.0610651851442
 20
148.3008607446945
 30
0.0
 10
56.60070431838216
 20
147.8427626454748
 30
0.0
 10
55.96779087645851
 20
147.0253171743562
 30
0.0
 10
55.43388685342416
 20
145.8928297852319
 30
0.0
 10
55.22436339547693
 20
144.8788579674452
 30
0.0
 10
55.11712996452462
 20
144.3599104568633
 30
0.0
  0
ARC
  5
D0
330
1F
100
AcDbEntity
  8
0
  6
SLD-Сплошная
 62
     7
370
    25
100
AcDbCircle
 10
105.9902336655
 20
148.526872336
 30
0.0
 40
22.01949271300452
100
AcDbArc
 50
356.4131919537
 51
359.7958555766
  0
LINE
  5
D1
330
1F
100
AcDbEntity
  8
0
  6
SLD-Сплошная
 62
     7
370
    25
100
AcDbLine
 10
128.8563814724
 20
144.4037559328
 30
0.0
 11
128.872207705
 21
144.2431044926
 31
0.0
  0
LWPOLYLINE
  5
D2
330
1F
100
AcDbEntity
  8
0
  6
SLD-Сплошная
 62
     7
370
    25
100
AcDbPolyline
 90
       10
 70
   128
 43
0.0
 10
127.112835948
 20
142.2519842626
 10
126.3514633457
 20
139.9998774155
 10
125.3586906498
 20
137.7538154222
 10
124.1352217117
 20
135.515390685
 10
122.6819239404
 20
133.2861901912
 10
120.999827688
 20
131.0677943888
 10
119.0901255189
 20
128.8617760653
 10
116.9541713645
 20
126.6696992329
 10
114.5934795634
 20
124.4931180195
 10
112.0097237872
 20
122.3335755674
  0
LINE
  5
D3
330
1F
100
AcDbEntity
  8
0
  6
SLD-Сплошная
 62
     7
370
    25
100
AcDbLine
 10
112.0097237872
 20
122.3335755674
 30
0.0
 11
108.0175343808
 21
122.3335755674
 31
0.0
  0
SPLINE
  5
D4
330
1F
100
AcDbEntity
  8
0
  6
SLD-Сплошная
 62
     7
370
    25
100
AcDbSpline
210
0.0
220
0.0
230
1.0
 70
     8
 71
     3
 72
     8
 73
     4
 74
     0
 42
0.00000001
 43
0.00000001
 40
0.0
 40
0.0
 40
0.0
 40
0.0
 40
1.0
 40
1.0
 40
1.0
 40
1.0
 10
110.4815766985863
 20
104.5757675270129
 30
0.0
 10
111.0022549981132
 20
110.4803464697824
 30
0.0
 10
111.5116651218178
 20
116.3999384107403
 30
0.0
 10
112.0097237872343
 20
122.3335755673777
 30
0.0
  0
SPLINE
  5
D5
330
1F
100
AcDbEntity
  8
0
  6
SLD-Сплошная
 62
     7
370
    25
100
AcDbSpline
210
0.0
220
0.0
230
1.0
 70
     8
 71
     3
 72
    32
 73
    28
 74
     0
 42
0.00000001
 43
0.00000001
 40
0.0
 40
0.0
 40
0.0
 40
0.0
 40
0.0693853619586599
 40
0.1111105938943624
 40
0.1251756946435224
 40
0.1564965893885393
 40
0.1877724758794478
 40
0.2190205278769846
 40
0.2502579650487503
 40
0.3126748129021688
 40
0.3752424975983918
 40
0.43778756941897
 40
0.5001926011612404
 40
0.5626988671126077
 40
0.6252701500557482
 40
0.6418086017181508
 40
0.6565361236575257
 40
0.6878275006637196
 40
0.7190903691826637
 40
0.7503764138626579
 40
0.8128539450292303
 40
0.8753298876832648
 40
0.9002658409676656
 40
0.9251734200222065
 40
0.9500800411138892
 40
0.9750131236689134
 40
1.0
 40
1.0
 40
1.0
 40
1.0
 10
128.0097237872351
 20
116.5208462240082
 30
0.0
 10
128.0094963365097
 20
117.3466457633253
 30
0.0
 10
128.0091321071612
 20
118.6690439559856
 30
0.0
 10
128.0071263491362
 20
120.1580919384071
 30
0.0
 10
128.0053807591488
 20
121.195727311067
 30
0.0
 10
128.0034754111334
 20
122.1015147341581
 30
0.0
 10
128.0003732348476
 20
123.1917046652868
 30
0.0
 10
127.9963950119435
 20
124.2631506122121
 30
0.0
 10
127.9897550148726
 20
125.6654172252983
 30
0.0
 10
127.9786108532809
 20
127.3713243399001
 30
0.0
 10
127.9595779512165
 20
129.3374267144535
 30
0.0
 10
127.9337226848422
 20
131.2185139032803
 30
0.0
 10
127.8998013456881
 20
133.0092594192826
 30
0.0
 10
127.8565119012006
 20
134.7066004040927
 30
0.0
 10
127.8156896838597
 20
135.9142029530657
 30
0.0
 10
127.7848716392977
 20
136.6835601938077
 30
0.0
 10
127.7632825473095
 20
137.1876619122569
 30
0.0
 10
127.7342506556123
 20
137.7829196298359
 30
0.0
 10
127.6948202911923
 20
138.4586492617043
 30
0.0
 10
127.6363823147179
 20
139.2950567233679
 30
0.0
 10
127.5516158219845
 20
140.2183609922254
 30
0.0
 10
127.4537023861908
 20
140.9398153486057
 30
0.0
 10
127.3710022158198
 20
141.3924258896989
 30
0.0
 10
127.312340717308
 20
141.6600809416753
 30
0.0
 10
127.2498864135337
 20
141.8929677624448
 30
0.0
 10
127.1838498245034
 20
142.0942225037858
 30
0.0
 10
127.1365242395457
 20
142.1993592445054
 30
0.0
 10
127.1128359480283
 20
142.251984262571
 30
0.0
  0
LINE
  5
D6
330
1F
100
AcDbEntity
  8
0
  6
SLD-Сплошная
 62
     7
370
    25
100
AcDbLine
 10
128.0097237872
 20
104.575767527
 30
0.0
 11
128.0097237872
 21
116.520846224
 31
0.0
  0
LINE
  5
D7
330
1F
100
AcDbEntity
  8
0
  6
SLD-Сплошная
 62
     7
370
    25
100
AcDbLine
 10
76.0019131937
 20
122.3335755674
 30
0.0
 11
72.0097237872
 21
122.3335755674
 31
0.0
  0
LWPOLYLINE
  5
D8
330
1F
100
AcDbEntity
  8
0
  6
SLD-Сплошная
 62
     7
370
    25
100
AcDbPolyline
 90
       10
 70
   128
 43
0.0
 10
72.0097237872
 20
122.3335755674
 10
69.4259680111
 20
124.4931180195
 10
67.0652762099
 20
126.6696992329
 10
64.9293220556
 20
128.8617760653
 10
63.0196198865
 20
131.0677943888
 10
61.337523634
 20
133.2861901912
 10
59.8842258627
 20
135.515390685
 10
58.6607569246
 20
137.7538154223
 10
57.6679842288
 20
139.9998774155
 10
56.9066116264
 20
142.2519842626
  0
SPLINE
  5
D9
330
1F
100
AcDbEntity
  8
0
  6
SLD-Сплошная
 62
     7
370
    25
100
AcDbSpline
210
0.0
220
0.0
230
1.0
 70
     8
 71
     3
 72
     9
 73
     5
 74
     0
 42
0.00000001
 43
0.00000001
 40
0.0
 40
0.0
 40
0.0
 40
0.0
 40
0.6246468107328611
 40
1.0
 40
1.0
 40
1.0
 40
1.0
 10
56.30836061558814
 20
142.6040071483367
 30
0.0
 10
56.07725550501782
 20
142.7193890766274
 30
0.0
 10
55.70727825291408
 20
142.904104545126
 30
0.0
 10
55.57323348033621
 20
143.1084176389627
 30
0.0
 10
55.52291934744455
 20
143.1851072103434
 30
0.0
  0
ARC
  5
DA
330
1F
100
AcDbEntity
  8
0
  6
SLD-Сплошная
 62
     7
370
    25
100
AcDbCircle
 10
78.0286025289
 20
148.5268584586
 30
0.0
 40
22.01888128742745
100
AcDbArc
 50
180.2041139811
 51
183.5463516236
  0
LINE
  5
DB
330
1F
100
AcDbEntity
  8
0
  6
SLD-Сплошная
 62
     7
370
    25
100
AcDbLine
 10
56.0098609636
 20
148.5260629318
 30
0.0
 11
56.0098609636
 21
148.4484172182
 31
0.0
  0
SPLINE
  5
DC
330
1F
100
AcDbEntity
  8
0
  6
SLD-Сплошная
 62
     7
370
    25
100
AcDbSpline
210
0.0
220
0.0
230
1.0
 70
     8
 71
     3
 72
     8
 73
     4
 74
     0
 42
0.00000001
 43
0.00000001
 40
0.0
 40
0.0
 40
0.0
 40
0.0
 40
1.0
 40
1.0
 40
1.0
 40
1.0
 10
73.53787087588229
 20
104.5757675270134
 30
0.0
 10
73.01719257635594
 20
110.4803464697834
 30
0.0
 10
72.50778245265136
 20
116.3999384107411
 30
0.0
 10
72.0097237872348
 20
122.3335755673778
 30
0.0
  0
LINE
  5
DD
330
1F
100
AcDbEntity
  8
0
  6
SLD-Сплошная
 62
     7
370
    25
100
AcDbLine
 10
56.0097237872
 20
104.575767527
 30
0.0
 11
56.0097237872
 21
116.520846224
 31
0.0
  0
SPLINE
  5
DE
330
1F
100
AcDbEntity
  8
0
  6
SLD-Сплошная
 62
     7
370
    25
100
AcDbSpline
210
0.0
220
0.0
230
1.0
 70
     8
 71
     3
 72
    34
 73
    30
 74
     0
 42
0.00000001
 43
0.00000001
 40
0.0
 40
0.0
 40
0.0
 40
0.0
 40
0.013947165331488
 40
0.0278739745233964
 40
0.041785154832951
 40
0.055685449462751
 40
0.0695796127639205
 40
0.0834724053823622
 40
0.0973685893727305
 40
0.1112729233052002
 40
0.1251901573901152
 40
0.1877625999392568
 40
0.2503482463748088
 40
0.281663013779612
 40
0.3129693991881198
 40
0.3442534169804055
 40
0.3590283211806183
 40
0.3754885848669951
 40
0.4380101113776587
 40
0.5004832191224184
 40
0.562902231647758
 40
0.6254763669470442
 40
0.6880629755312881
 40
0.7505161849064383
 40
0.8127988012070679
 40
0.8752152467665617
 40
0.889105042931972
 40
0.9306999610645456
 40
0.9999999999999999
 40
0.9999999999999999
 40
0.9999999999999999
 40
0.9999999999999999
 10
56.90661162643818
 20
142.2519842625761
 30
0.0
 10
56.89329705178786
 20
142.2234284578815
 30
0.0
 10
56.86668733534928
 20
142.1663585262046
 30
0.0
 10
56.82833122899342
 20
142.0672054059704
 30
0.0
 10
56.79112847689918
 20
141.958218035813
 30
0.0
 10
56.75516429664701
 20
141.8384214996154
 30
0.0
 10
56.72038408604899
 20
141.7080757186934
 30
0.0
 10
56.68677093647176
 20
141.5671098639168
 30
0.0
 10
56.65429823617893
 20
141.4155431722854
 30
0.0
 10
56.62294196637663
 20
141.2533653128986
 30
0.0
 10
56.55742867704661
 20
140.8793523130471
 30
0.0
 10
56.466719083858
 20
140.2085411596585
 30
0.0
 10
56.3820041920341
 20
139.2820901333664
 30
0.0
 10
56.32362554718745
 20
138.4429420811523
 30
0.0
 10
56.28427262054458
 20
137.7656252239672
 30
0.0
 10
56.25529738030133
 20
137.1686470187769
 30
0.0
 10
56.23378070032456
 20
136.6642707476171
 30
0.0
 10
56.20306403552711
 20
135.8950095247392
 30
0.0
 10
56.16239001307765
 20
134.6878632775008
 30
0.0
 10
56.11922608933242
 20
132.9901189694671
 30
0.0
 10
56.08539764782858
 20
131.1982895393201
 30
0.0
 10
56.05961709491261
 20
129.3156112445805
 30
0.0
 10
56.04064724115901
 20
127.3476955379596
 30
0.0
 10
56.02734723959765
 20
125.3011438119608
 30
0.0
 10
56.01856819398945
 20
123.1803907184714
 30
0.0
 10
56.01466588260725
 20
121.5543290228998
 30
0.0
 10
56.01230994472164
 20
120.1498058575767
 30
0.0
 10
56.01031355315031
 20
118.6654754393763
 30
0.0
 10
56.00995060152816
 20
117.3456354325087
 30
0.0
 10
56.00972378723279
 20
116.5208462240294
 30
0.0
  0
LINE
  5
DF
330
1F
100
AcDbEntity
  8
0
  6
SLD-Сплошная
 62
     7
370
    25
100
AcDbLine
 10
130.0097237872
 20
104.575767527
 30
0.0
 11
110.4815766986
 21
104.575767527
 31
0.0
  0
LINE
  5
E0
330
1F
100
AcDbEntity
  8
0
  6
SLD-Сплошная
 62
     7
370
    25
100
AcDbLine
 10
130.0097237872
 20
97.575767527
 30
0.0
 11
54.0097237872
 21
97.575767527
 31
0.0
  0
LINE
  5
E1
330
1F
100
AcDbEntity
  8
0
  6
SLD-Сплошная
 62
     7
370
    25
100
AcDbLine
 10
73.5378708759
 20
104.575767527
 30
0.0
 11
54.0097237872
 21
104.575767527
 31
0.0
  0
ARC
  5
E2
330
1F
100
AcDbEntity
  8
0
  6
SLD-Сплошная
 62
     7
370
    25
100
AcDbCircle
 10
92.0097237872
 20
118.3335755674
 30
0.0
 40
12.59999999999999
100
AcDbArc
 50
90.0
 51
270.0
  0
ARC
  5
E3
330
1F
100
AcDbEntity
  8
0
  6
SLD-Сплошная
 62
     7
370
    25
100
AcDbCircle
 10
92.0097237872
 20
118.3335755674
 30
0.0
 40
12.59999999999999
100
AcDbArc
 50
270.0
 51
90.0
  0
ARC
  5
E4
330
1F
100
AcDbEntity
  8
0
  6
SLD-Сплошная
 62
     7
370
    25
100
AcDbCircle
 10
92.0097237872
 20
118.3335755674
 30
0.0
 40
16.50000000000036
100
AcDbArc
 50
14.0296654013
 51
165.9703345987
  0
LINE
  5
E5
330
1F
100
AcDbEntity
  8
0
  6
SLD-Сплошная
 62
     7
370
    25
100
AcDbLine
 10
136.0097237872
 20
104.575767527
 30
0.0
 11
136.0097237872
 21
97.575767527
 31
0.0
  0
LINE
  5
E6
330
1F
100
AcDbEntity
  8
0
  6
SLD-Сплошная
 62
     7
370
    25
100
AcDbLine
 10
136.0097237872
 20
97.575767527
 30
0.0
 11
130.0097237872
 21
97.575767527
 31
0.0
  0
LINE
  5
E7
330
1F
100
AcDbEntity
  8
0
  6
SLD-Сплошная
 62
     7
370
    25
100
AcDbLine
 10
130.0097237872
 20
104.575767527
 30
0.0
 11
136.0097237872
 21
104.575767527
 31
0.0
  0
LINE
  5
E8
330
1F
100
AcDbEntity
  8
0
  6
SLD-Сплошная
 62
     7
370
    25
100
AcDbLine
 10
48.0097237872
 20
97.575767527
 30
0.0
 11
48.0097237872
 21
104.575767527
 31
0.0
  0
LINE
  5
E9
330
1F
100
AcDbEntity
  8
0
  6
SLD-Сплошная
 62
     7
370
    25
100
AcDbLine
 10
54.0097237872
 20
97.575767527
 30
0.0
 11
48.0097237872
 21
97.575767527
 31
0.0
  0
LINE
  5
EA
330
1F
100
AcDbEntity
  8
0
  6
SLD-Сплошная
 62
     7
370
    25
100
AcDbLine
 10
48.0097237872
 20
104.575767527
 30
0.0
 11
54.0097237872
 21
104.575767527
 31
0.0
  0
ARC
  5
EB
330
1F
100
AcDbEntity
  8
0
  6
SLD-Сплошная
 62
     7
370
    25
100
AcDbCircle
 10
92.0097237872
 20
118.3335755674
 30
0.0
 40
12.5
100
AcDbArc
 50
90.0
 51
270.0
  0
ARC
  5
EC
330
1F
100
AcDbEntity
  8
0
  6
SLD-Сплошная
 62
     7
370
    25
100
AcDbCircle
 10
92.0097237872
 20
118.3335755674
 30
0.0
 40
12.5
100
AcDbArc
 50
270.0
 51
90.0
  0
SPLINE
  5
ED
330
1F
100
AcDbEntity
  8
0
  6
SLD-Сплошная
 62
     7
370
    25
100
AcDbSpline
210
0.0
220
0.0
230
1.0
 70
     8
 71
     3
 72
    42
 73
    38
 74
     0
 42
0.00000001
 43
0.00000001
 40
0.0
 40
0.0
 40
0.0
 40
0.0
 40
0.0625000000000015
 40
0.0625000000000015
 40
0.1250000000000029
 40
0.1250000000000029
 40
0.1875000000000044
 40
0.1875000000000044
 40
0.2500000000000058
 40
0.2500000000000058
 40
0.3125000000000073
 40
0.3125000000000073
 40
0.343750000000007
 40
0.343750000000007
 40
0.3750000000000068
 40
0.3750000000000068
 40
0.4375000000000054
 40
0.4375000000000054
 40
0.500000000000004
 40
0.500000000000004
 40
0.5625000000000026
 40
0.5625000000000026
 40
0.6250000000000011
 40
0.6250000000000011
 40
0.6562500000000011
 40
0.6562500000000011
 40
0.687500000000001
 40
0.687500000000001
 40
0.7500000000000008
 40
0.7500000000000008
 40
0.8125000000000007
 40
0.8125000000000007
 40
0.8750000000000004
 40
0.8750000000000004
 40
0.9375000000000002
 40
0.9375000000000002
 40
1.0
 40
1.0
 40
1.0
 40
1.0
 10
92.0097237872343
 20
130.0335755673777
 30
0.0
 10
92.74097378723428
 20
130.0335755673777
 30
0.0
 10
93.49098287312165
 20
129.9644431151455
 30
0.0
 10
94.98778065555516
 20
129.6738747557717
 30
0.0
 10
95.73431135371027
 20
129.4523092089265
 30
0.0
 10
97.17773663532792
 20
128.85927903717
 30
0.0
 10
97.87432450628056
 20
128.4878529302408
 30
0.0
 10
99.17487784700984
 20
127.6160029253199
 30
0.0
 10
99.77860926179407
 20
127.1157856172298
 30
0.0
 10
100.8624766728942
 20
126.021979902608
 30
0.0
 10
101.3425381842827
 20
125.4286792614705
 30
0.0
 10
101.9593840309318
 20
124.5006041294088
 30
0.0
 10
102.146567545529
 20
124.18765753811
 30
0.0
 10
102.4949703663691
 20
123.5379469294993
 30
0.0
 10
102.6558692718471
 20
123.200963161225
 30
0.0
 10
103.0924097896235
 20
122.1586995713229
 30
0.0
 10
103.3214578081357
 20
121.4217337969663
 30
0.0
 10
103.630200275106
 20
119.9009217338047
 30
0.0
 10
103.7097237872343
 20
119.1173269552388
 30
0.0
 10
103.7097237872343
 20
117.5498241795167
 30
0.0
 10
103.630200275106
 20
116.7662294009509
 30
0.0
 10
103.3214578081357
 20
115.2454173377893
 30
0.0
 10
103.0924097896234
 20
114.5084515634327
 30
0.0
 10
102.6558692718471
 20
113.4661879735307
 30
0.0
 10
102.4949703663691
 20
113.1292042052563
 30
0.0
 10
102.146567545529
 20
112.4794935966456
 30
0.0
 10
101.959384030932
 20
112.1665470053469
 30
0.0
 10
101.3425381842827
 20
111.2384718732851
 30
0.0
 10
100.8624766728942
 20
110.6451712321476
 30
0.0
 10
99.77860926179399
 20
109.5513655175258
 30
0.0
 10
99.1748778470098
 20
109.0511482094357
 30
0.0
 10
97.87432450628062
 20
108.1792982045148
 30
0.0
 10
97.17773663532795
 20
107.8078720975855
 30
0.0
 10
95.73431135371032
 20
107.214841925829
 30
0.0
 10
94.98778065555521
 20
106.9932763789839
 30
0.0
 10
93.49098287312165
 20
106.70270801961
 30
0.0
 10
92.74097378723434
 20
106.6335755673778
 30
0.0
 10
92.0097237872343
 20
106.6335755673778
 30
0.0
  0
SPLINE
  5
EE
330
1F
100
AcDbEntity
  8
0
  6
SLD-Сплошная
 62
     7
370
    25
100
AcDbSpline
210
0.0
220
0.0
230
1.0
 70
     8
 71
     3
 72
    42
 73
    38
 74
     0
 42
0.00000001
 43
0.00000001
 40
0.0
 40
0.0
 40
0.0
 40
0.0
 40
0.0625
 40
0.0625
 40
0.1250000000000001
 40
0.1250000000000001
 40
0.1875000000000001
 40
0.1875000000000001
 40
0.2500000000000001
 40
0.2500000000000001
 40
0.3125000000000001
 40
0.3125000000000001
 40
0.3437500000000012
 40
0.3437500000000012
 40
0.3750000000000022
 40
0.3750000000000022
 40
0.437500000000003
 40
0.437500000000003
 40
0.5000000000000038
 40
0.5000000000000038
 40
0.5625000000000046
 40
0.5625000000000046
 40
0.6250000000000054
 40
0.6250000000000054
 40
0.6562500000000058
 40
0.6562500000000058
 40
0.6875000000000061
 40
0.6875000000000061
 40
0.7500000000000049
 40
0.7500000000000049
 40
0.8125000000000037
 40
0.8125000000000037
 40
0.8750000000000026
 40
0.8750000000000026
 40
0.9375000000000013
 40
0.9375000000000013
 40
1.0
 40
1.0
 40
1.0
 40
1.0
 10
92.0097237872343
 20
106.6335755673778
 30
0.0
 10
91.27847378723436
 20
106.6335755673778
 30
0.0
 10
90.52846470134698
 20
106.7027080196101
 30
0.0
 10
89.03166691891352
 20
106.9932763789839
 30
0.0
 10
88.28513622075837
 20
107.214841925829
 30
0.0
 10
86.84171093914084
 20
107.8078720975856
 30
0.0
 10
86.14512306818823
 20
108.1792982045148
 30
0.0
 10
84.84456972745905
 20
109.0511482094357
 30
0.0
 10
84.24083831267484
 20
109.5513655175258
 30
0.0
 10
83.15697090157478
 20
110.6451712321476
 30
0.0
 10
82.67690939018641
 20
111.2384718732851
 30
0.0
 10
82.06006354353725
 20
112.1665470053469
 30
0.0
 10
81.87288002894019
 20
112.4794935966456
 30
0.0
 10
81.52447720809997
 20
113.1292042052562
 30
0.0
 10
81.363578302622
 20
113.4661879735306
 30
0.0
 10
80.9270377848455
 20
114.5084515634326
 30
0.0
 10
80.69798976633328
 20
115.2454173377893
 30
0.0
 10
80.38924729936292
 20
116.7662294009508
 30
0.0
 10
80.30972378723463
 20
117.5498241795167
 30
0.0
 10
80.30972378723462
 20
119.1173269552388
 30
0.0
 10
80.38924729936292
 20
119.9009217338047
 30
0.0
 10
80.6979897663332
 20
121.4217337969664
 30
0.0
 10
80.92703778484547
 20
122.1586995713229
 30
0.0
 10
81.36357830262195
 20
123.200963161225
 30
0.0
 10
81.52447720809997
 20
123.5379469294994
 30
0.0
 10
81.87288002894016
 20
124.1876575381101
 30
0.0
 10
82.06006354353725
 20
124.5006041294088
 30
0.0
 10
82.67690939018648
 20
125.4286792614705
 30
0.0
 10
83.15697090157487
 20
126.0219799026081
 30
0.0
 10
84.2408383126749
 20
127.1157856172298
 30
0.0
 10
84.8445697274591
 20
127.61600292532
 30
0.0
 10
86.1451230681882
 20
128.4878529302409
 30
0.0
 10
86.84171093914081
 20
128.8592790371701
 30
0.0
 10
88.28513622075843
 20
129.4523092089266
 30
0.0
 10
89.03166691891352
 20
129.6738747557717
 30
0.0
 10
90.52846470134703
 20
129.9644431151456
 30
0.0
 10
91.2784737872343
 20
130.0335755673778
 30
0.0
 10
92.0097237872343
 20
130.0335755673779
 30
0.0
  0
LINE
  5
EF
330
1F
100
AcDbEntity
  8
0
  6
SLD-Сплошная
 62
     7
370
    25
100
AcDbLine
 10
92.0097237872
 20
106.6335755674
 30
0.0
 11
92.0097237872
 21
105.8335755674
 31
0.0
  0
SPLINE
  5
F0
330
1F
100
AcDbEntity
  8
0
  6
SLD-Сплошная
 62
     7
370
    25
100
AcDbSpline
210
0.0
220
0.0
230
1.0
 70
     8
 71
     3
 72
    11
 73
     7
 74
     0
 42
0.00000001
 43
0.00000001
 40
0.0
 40
0.0
 40
0.0
 40
0.0
 40
0.1155263808738781
 40
0.4131716347042325
 40
0.7080748909957302
 40
1.0
 40
1.0
 40
1.0
 40
1.0
 10
54.56691377440523
 20
125.6109209901206
 30
0.0
 10
54.56788660894135
 20
125.25511348555
 30
0.0
 10
54.57136588036452
 20
123.9825940212383
 30
0.0
 10
54.77203414383397
 20
121.809482215146
 30
0.0
 10
55.15546439383773
 20
119.1030322973284
 30
0.0
 10
55.72593570123693
 20
117.3786578548939
 30
0.0
 10
56.0097237872344
 20
116.5208462240294
 30
0.0
  0
SPLINE
  5
F1
330
1F
100
AcDbEntity
  8
0
  6
SLD-Сплошная
 62
     7
370
    25
100
AcDbSpline
210
0.0
220
0.0
230
1.0
 70
     8
 71
     3
 72
    12
 73
     8
 74
     0
 42
0.00000001
 43
0.00000001
 40
0.0
 40
0.0
 40
0.0
 40
0.0
 40
0.2254339231748557
 40
0.4492094266536258
 40
0.6721677923591793
 40
0.8952693076746184
 40
0.9999999999999999
 40
0.9999999999999999
 40
0.9999999999999999
 40
0.9999999999999999
 10
128.0097237872343
 20
116.5208462240084
 30
0.0
 10
128.2348098449369
 20
117.170821074825
 30
0.0
 10
128.6833260997415
 20
118.4659891931038
 30
0.0
 10
129.0626142716481
 20
120.4796049996064
 30
0.0
 10
129.312213328981
 20
122.4983942958699
 30
0.0
 10
129.4545254482376
 20
124.1681389388845
 30
0.0
 10
129.4421145129605
 20
125.1638656393416
 30
0.0
 10
129.4381496619981
 20
125.481964789685
 30
0.0
  0
LINE
  5
F2
330
1F
100
AcDbEntity
  8
0
  6
SLD-Сплошная
 62
     7
370
    25
100
AcDbLine
 10
56.0098609636
 20
146.9753248538
 30
0.0
 11
56.0098609636
 21
148.4484172182
 31
0.0
  0
LINE
  5
F3
330
1F
100
AcDbEntity
  8
0
  6
SLD-Сплошная
 62
     7
370
    25
100
AcDbLine
 10
128.0095866109
 20
148.4484172182
 30
0.0
 11
128.0095866109
 21
147.0010798271
 31
0.0
  0
ARC
  5
F4
330
1F
100
AcDbEntity
  8
0
  6
SLD-Сплошная
 62
     7
370
    25
100
AcDbCircle
 10
89.517520027
 20
148.5278945889
 30
0.0
 40
35.30779628727698
100
AcDbArc
 50
180.0029723243
 51
190.5982218992
  0
LWPOLYLINE
  5
F5
330
1F
100
AcDbEntity
  8
0
  6
SLD-Сплошная
 62
     7
370
    25
100
AcDbPolyline
 90
       42
 70
   128
 43
0.0
 10
129.8097237872
 20
148.5260629318
 10
129.698811072
 20
151.321028963
 10
129.3667238061
 20
154.0995930222
 10
128.8154108098
 20
156.8454493907
 10
128.0481074069
 20
159.5424842913
 10
127.0693164389
 20
162.1748704509
 10
125.8847818404
 20
164.7271599808
 10
124.5014549314
 20
167.1843750311
 10
122.9274536242
 20
169.5320956868
 10
121.1720147845
 20
171.7565445897
 10
119.2454400253
 20
173.844667789
 10
117.1590352535
 20
175.7842113475
 10
114.9250443218
 20
177.5637932524
 10
112.5565771773
 20
179.1729702094
 10
110.067532927
 20
180.6022989283
 10
107.4725182723
 20
181.8433915398
 10
104.7867617911
 20
182.888964819
 10
102.0260245703
 20
183.7328829261
 10
99.2065077137
 20
184.3701934141
 10
96.3447572673
 20
184.7971562916
 10
93.4575671207
 20
185.0112659708
 10
90.5618804538
 20
185.0112659708
 10
87.6746903072
 20
184.7971562916
 10
84.8129398608
 20
184.3701934141
 10
81.9934230042
 20
183.7328829261
 10
79.2326857834
 20
182.888964819
 10
76.5469293022
 20
181.8433915398
 10
73.9519146475
 20
180.6022989283
 10
71.4628703972
 20
179.1729702094
 10
69.0944032527
 20
177.5637932524
 10
66.860412321
 20
175.7842113475
 10
64.7740075491
 20
173.844667789
 10
62.84743279
 20
171.7565445897
 10
61.0919939503
 20
169.5320956868
 10
59.5179926431
 20
167.1843750311
 10
58.1346657341
 20
164.7271599808
 10
56.9501311356
 20
162.1748704509
 10
55.9713401676
 20
159.5424842913
 10
55.2040367647
 20
156.8454493907
 10
54.6527237683
 20
154.0995930222
 10
54.3206365025
 20
151.321028963
 10
54.2097237872
 20
148.5260629318
  0
ARC
  5
F6
330
1F
100
AcDbEntity
  8
0
  6
SLD-Сплошная
 62
     7
370
    25
100
AcDbCircle
 10
94.5054733006
 20
148.5275886601
 30
0.0
 40
35.30425051965306
100
AcDbArc
 50
349.514134689
 51
359.9975238734
  0
LINE
  5
F7
330
1F
100
AcDbEntity
  8
0
  6
SLD-Сплошная
 62
     7
370
    25
100
AcDbLine
 10
129.8097237872
 20
149.4836933986
 30
0.0
 11
129.8097237872
 21
148.5260629318
 31
0.0
  0
LINE
  5
F8
330
1F
100
AcDbEntity
  8
0
  6
SLD-Сплошная
 62
     7
370
    25
100
AcDbLine
 10
54.2097237872
 20
149.4836933986
 30
0.0
 11
54.2097237872
 21
148.5260629318
 31
0.0
  0
LWPOLYLINE
  5
F9
330
1F
100
AcDbEntity
  8
0
  6
SLD-Сплошная
 62
     7
370
    25
100
AcDbPolyline
 90
       42
 70
   128
 43
0.0
 10
129.8097237872
 20
149.4836933986
 10
129.698811072
 20
152.2786594299
 10
129.3667238061
 20
155.0572234891
 10
128.8154108098
 20
157.8030798575
 10
128.0481074069
 20
160.5001147582
 10
127.0693164389
 20
163.1325009178
 10
125.8847818404
 20
165.6847904477
 10
124.5014549314
 20
168.142005498
 10
122.9274536242
 20
170.4897261537
 10
121.1720147845
 20
172.7141750566
 10
119.2454400253
 20
174.8022982559
 10
117.1590352535
 20
176.7418418144
 10
114.9250443218
 20
178.5214237193
 10
112.5565771773
 20
180.1306006763
 10
110.067532927
 20
181.5599293952
 10
107.4725182723
 20
182.8010220067
 10
104.7867617911
 20
183.8465952859
 10
102.0260245703
 20
184.690513393
 10
99.2065077137
 20
185.327823881
 10
96.3447572673
 20
185.7547867585
 10
93.4575671207
 20
185.9688964377
 10
90.5618804538
 20
185.9688964377
 10
87.6746903072
 20
185.7547867585
 10
84.8129398608
 20
185.327823881
 10
81.9934230042
 20
184.690513393
 10
79.2326857834
 20
183.8465952859
 10
76.5469293022
 20
182.8010220067
 10
73.9519146475
 20
181.5599293952
 10
71.4628703972
 20
180.1306006763
 10
69.0944032527
 20
178.5214237193
 10
66.860412321
 20
176.7418418144
 10
64.7740075491
 20
174.8022982559
 10
62.84743279
 20
172.7141750566
 10
61.0919939503
 20
170.4897261537
 10
59.5179926431
 20
168.142005498
 10
58.1346657341
 20
165.6847904477
 10
56.9501311356
 20
163.1325009178
 10
55.9713401676
 20
160.5001147582
 10
55.2040367647
 20
157.8030798575
 10
54.6527237683
 20
155.0572234891
 10
54.3206365025
 20
152.2786594299
 10
54.2097237872
 20
149.4836933986
  0
ARC
  5
FA
330
1F
100
AcDbEntity
  8
0
  6
SLD-Сплошная
 62
     7
370
    25
100
AcDbCircle
 10
92.0097237872
 20
159.7572067423
 30
0.0
 40
29.13016942273455
100
AcDbArc
 50
43.1410515334
 51
136.8589484666
  0
LWPOLYLINE
  5
FB
330
1F
100
AcDbEntity
  8
0
  6
SLD-Сплошная
 62
     7
370
    25
100
AcDbPolyline
 90
       10
 70
   128
 43
0.0
 10
112.0097237872
 20
122.3335755674
 10
114.593620426
 20
124.4932415519
 10
116.954427574
 20
126.6699481514
 10
119.0904712872
 20
128.8621519591
 10
121.0002369908
 20
131.0682985798
 10
122.6823705542
 20
133.2868237322
 10
124.1356792507
 20
135.5161543578
 10
125.3591326029
 20
137.7547097364
 10
126.3518631141
 20
140.0009026071
 10
127.1131668827
 20
142.2531402934
  0
SPLINE
  5
FC
330
1F
100
AcDbEntity
  8
0
  6
SLD-Сплошная
 62
     7
370
    25
100
AcDbSpline
210
0.0
220
0.0
230
1.0
 70
     8
 71
     3
 72
    49
 73
    45
 74
     0
 42
0.00000001
 43
0.00000001
 40
0.0
 40
0.0
 40
0.0
 40
0.0
 40
0.0069446150284073
 40
0.0138776640461179
 40
0.0208024311832423
 40
0.0277222123616492
 40
0.034640310629445
 40
0.0415600314446909
 40
0.0484846779418943
 40
0.0554175462151075
 40
0.0623619206511845
 40
0.0936185531302404
 40
0.1248353146845809
 40
0.1560202563919126
 40
0.1871294206653826
 40
0.2184919593018761
 40
0.2497537147646853
 40
0.2809329330125836
 40
0.3120058442849065
 40
0.3433405003136507
 40
0.3745803582288436
 40
0.4058689085673366
 40
0.4370945337101949
 40
0.4682781956925028
 40
0.4994443757880492
 40
0.5307552315611218
 40
0.5620990320859811
 40
0.5932965384300414
 40
0.6245724057645509
 40
0.6557492158958712
 40
0.687036063800943
 40
0.7183073842085412
 40
0.7497024818505816
 40
0.7808421591493212
 40
0.8120979866694853
 40
0.8433259897642075
 40
0.874646783439225
 40
0.905924664379511
 40
0.9372590014877044
 40
0.9498239930914909
 40
0.9623609777427915
 40
0.9748895559408597
 40
0.9874293676044248
 40
1.0
 40
1.0
 40
1.0
 40
1.0
 10
112.0097237872345
 20
122.3335755673787
 30
0.0
 10
112.0218761115852
 20
122.4900691760114
 30
0.0
 10
112.0461605210202
 20
122.8027957587068
 30
0.0
 10
112.0696463932441
 20
123.2724308385935
 30
0.0
 10
112.0836013623457
 20
123.7418568153422
 30
0.0
 10
112.0871040941775
 20
124.2111507946127
 30
0.0
 10
112.0804011281898
 20
124.6802915577378
 30
0.0
 10
112.0634261188966
 20
125.149285072424
 30
0.0
 10
112.0361981425823
 20
125.6181267426514
 30
0.0
 10
111.9987074146183
 20
126.0868270884565
 30
0.0
 10
111.8953125223656
 20
127.1016911037104
 30
0.0
 10
111.6430026498082
 20
128.6531757592835
 30
0.0
 10
111.0964531986408
 20
130.7016517508359
 30
0.0
 10
110.3524419009151
 20
132.6836152889688
 30
0.0
 10
109.4118639994876
 20
134.5838660679044
 30
0.0
 10
108.2851099971078
 20
136.3822288888766
 30
0.0
 10
106.9784852264093
 20
138.0565355448633
 30
0.0
 10
105.5124569915076
 20
139.5842236856953
 30
0.0
 10
103.8936254103395
 20
140.9515647678888
 30
0.0
 10
102.1399201762558
 20
142.1437506646594
 30
0.0
 10
100.2641492676984
 20
143.1433305974302
 30
0.0
 10
98.294879067469
 20
143.9367829972665
 30
0.0
 10
96.25207117844568
 20
144.5105981087346
 30
0.0
 10
94.16207073795759
 20
144.8607577153979
 30
0.0
 10
92.04433264943293
 20
144.9796188358293
 30
0.0
 10
89.92250758087944
 20
144.8683029151598
 30
0.0
 10
87.82520123438273
 20
144.5236015588805
 30
0.0
 10
85.77816625566642
 20
143.9549163041607
 30
0.0
 10
83.80877550758869
 20
143.1680774014096
 30
0.0
 10
81.93248272389204
 20
142.1754772445013
 30
0.0
 10
80.17336654213761
 20
140.9877690578237
 30
0.0
 10
78.54418539468358
 20
139.6197494918265
 30
0.0
 10
77.070224801339
 20
138.0904262574659
 30
0.0
 10
75.76046949781731
 20
136.4189822120901
 30
0.0
 10
74.63083746087118
 20
134.6253980648398
 30
0.0
 10
73.68437290872885
 20
132.7242907507892
 30
0.0
 10
72.93411879911146
 20
130.7370117815335
 30
0.0
 10
72.38275735305957
 20
128.683343307829
 30
0.0
 10
72.10732061011615
 20
127.0035672239203
 30
0.0
 10
71.98760805939489
 20
125.7334289527843
 30
0.0
 10
71.94110744201218
 20
124.8839366241808
 30
0.0
 10
71.92893623944497
 20
124.0339183547974
 30
0.0
 10
71.94807295932343
 20
123.1830994325089
 30
0.0
 10
71.98915670244119
 20
122.6169818079792
 30
0.0
 10
72.00972378723472
 20
122.3335755673784
 30
0.0
  0
LWPOLYLINE
  5
FD
330
1F
100
AcDbEntity
  8
0
  6
SLD-Сплошная
 62
     7
370
    25
100
AcDbPolyline
 90
       10
 70
   128
 43
0.0
 10
72.0097237872
 20
122.3335755674
 10
69.4259082692
 20
124.4931704114
 10
67.0651675474
 20
126.6698048028
 10
64.9291754094
 20
128.8619354873
 10
63.0194462938
 20
131.0680082235
 10
61.3373342164
 20
133.286458885
 10
59.8840318106
 20
135.5157145695
 10
58.6605694815
 20
137.7541947137
 10
57.6678146754
 20
140.0003122139
 10
56.9064712648
 20
142.2524745518
  0
SPLINE
  5
FE
330
1F
100
AcDbEntity
  8
0
  6
SLD-Сплошная
 62
     7
370
    25
100
AcDbSpline
210
0.0
220
0.0
230
1.0
 70
     8
 71
     3
 72
    61
 73
    57
 74
     0
 42
0.00000001
 43
0.00000001
 40
0.0
 40
0.0
 40
0.0
 40
0.0
 40
0.0231526716230998
 40
0.0461985038751178
 40
0.0522653224265111
 40
0.0583177682136437
 40
0.0643587943828409
 40
0.0703943625137483
 40
0.0752389656708888
 40
0.0824595845424976
 40
0.0944009045128411
 40
0.1062799427989988
 40
0.118097301167863
 40
0.1298535729473816
 40
0.1415493411176683
 40
0.1531851764654182
 40
0.1647616358060235
 40
0.2203407617335503
 40
0.2754816931774887
 40
0.3293946521610372
 40
0.3499784564971362
 40
0.370565190213765
 40
0.3911889732885435
 40
0.4117799346578445
 40
0.4324695265380976
 40
0.4530846998235527
 40
0.4737291999485016
 40
0.494402973422957
 40
0.5149914203650954
 40
0.5356779653873872
 40
0.556209929358512
 40
0.5768576331533188
 40
0.5978038696881879
 40
0.6184808795189981
 40
0.6388800914480032
 40
0.6589935569161935
 40
0.6790699087373177
 40
0.6994754921163769
 40
0.7202022815857902
 40
0.741241525507222
 40
0.7548520339196215
 40
0.76871812697824
 40
0.7824291470175418
 40
0.7967612068677798
 40
0.8104482476642044
 40
0.8236770892793026
 40
0.8443008163003933
 40
0.86496449494469
 40
0.8856293438763021
 40
0.9062341386977673
 40
0.9269468823776229
 40
0.9372059303091107
 40
0.9475778172922045
 40
0.9684599039164226
 40
0.9893588219597511
 40
1.0
 40
1.0
 40
1.0
 40
1.0
 10
56.90647126480883
 20
142.2524745518502
 30
0.0
 10
56.9954138250334
 20
142.3993800771574
 30
0.0
 10
57.17288851478355
 20
142.692513223546
 30
0.0
 10
57.44195603214894
 20
142.6417977702172
 30
0.0
 10
57.6295783823223
 20
142.4944258940174
 30
0.0
 10
57.72854498559826
 20
142.3901043810983
 30
0.0
 10
57.82870708885546
 20
142.2586114504962
 30
0.0
 10
57.92335003278342
 20
142.1117956577104
 30
0.0
 10
58.02504315168336
 20
141.9262616387423
 30
0.0
 10
58.16208853398874
 20
141.6624552909361
 30
0.0
 10
58.34596654520835
 20
141.3158194164156
 30
0.0
 10
58.56601495638333
 20
140.9033523838247
 30
0.0
 10
58.79380833736156
 20
140.480452993501
 30
0.0
 10
59.02911050556408
 20
140.0468669884155
 30
0.0
 10
59.27174696858689
 20
139.6029648519882
 30
0.0
 10
59.52154618402319
 20
139.1489422861288
 30
0.0
 10
60.10418752642141
 20
138.0967979793567
 30
0.0
 10
61.09257093948581
 20
136.3384455361564
 30
0.0
 10
62.6098784060791
 20
133.7079437723405
 30
0.0
 10
63.95478238361566
 20
131.4042435895448
 30
0.0
 10
65.02556163461998
 20
129.6652846599543
 30
0.0
 10
65.74829540208927
 20
128.3790447231878
 30
0.0
 10
66.52822188298386
 20
127.6568777027651
 30
0.0
 10
67.33154301839872
 20
127.6341529970468
 30
0.0
 10
68.17652001251092
 20
128.2718179124354
 30
0.0
 10
69.1238057113889
 20
129.5073584372933
 30
0.0
 10
70.25014991921172
 20
131.2374561970414
 30
0.0
 10
71.62485606818386
 20
133.3168122962681
 30
0.0
 10
73.28324334986921
 20
135.5897715077554
 30
0.0
 10
75.22371666307644
 20
137.8855384843359
 30
0.0
 10
77.39739746527441
 20
140.1230084875299
 30
0.0
 10
79.87433496500601
 20
142.0583004225055
 30
0.0
 10
82.62157303105508
 20
143.6140841003178
 30
0.0
 10
85.55726239868908
 20
144.7541262149295
 30
0.0
 10
88.58800046898874
 20
145.4546211215856
 30
0.0
 10
91.65835024758756
 20
145.7198276599134
 30
0.0
 10
94.73613587166685
 20
145.5534276508966
 30
0.0
 10
97.78933001516116
 20
144.9500393093137
 30
0.0
 10
100.768183705954
 20
143.9019062187155
 30
0.0
 10
103.2541871476276
 20
142.5934260787824
 30
0.0
 10
105.2702529127266
 20
141.1993579320612
 30
0.0
 10
106.8552218224468
 20
139.8534653182942
 30
0.0
 10
108.3373245614782
 20
138.3543490552149
 30
0.0
 10
109.7094101709527
 20
136.8220073169546
 30
0.0
 10
110.9429271090919
 20
135.2888755615695
 30
0.0
 10
112.2244410722047
 20
133.5548285530342
 30
0.0
 10
113.489333628824
 20
131.6747476214289
 30
0.0
 10
114.6655060590864
 20
129.8486940691925
 30
0.0
 10
115.6454402205575
 20
128.497424888731
 30
0.0
 10
116.5073463951491
 20
127.7164479972004
 30
0.0
 10
117.1826175608533
 20
127.6173851383699
 30
0.0
 10
117.7099536945906
 20
127.8745300765206
 30
0.0
 10
118.231158577648
 20
128.3556405327118
 30
0.0
 10
118.8455875190526
 20
129.4152837379664
 30
0.0
 10
119.4553446790623
 20
130.4029210280374
 30
0.0
 10
119.7783487439977
 20
130.9529847182658
 30
0.0
 10
119.8873257031545
 20
131.1385683526874
 30
0.0
  0
SPLINE
  5
FF
330
1F
100
AcDbEntity
  8
0
  6
SLD-Сплошная
 62
     7
370
    25
100
AcDbSpline
210
0.0
220
0.0
230
1.0
 70
     8
 71
     3
 72
    12
 73
     8
 74
     0
 42
0.00000001
 43
0.00000001
 40
0.0
 40
0.0
 40
0.0
 40
0.0
 40
0.0499482632577136
 40
0.4604487560474412
 40
0.6409197926260174
 40
0.820164631755245
 40
1.0
 40
1.0
 40
1.0
 40
1.0
 10
124.481580334933
 20
139.124279697003
 30
0.0
 10
124.5415304369778
 20
139.2313093307187
 30
0.0
 10
125.0941812822941
 20
140.217963490251
 30
0.0
 10
125.6856665218788
 20
141.3670576590035
 30
0.0
 10
126.3471700363148
 20
142.5496810563122
 30
0.0
 10
126.7892102202804
 20
142.7456712957477
 30
0.0
 10
127.005063000913
 20
142.4174971949236
 30
0.0
 10
127.1131668827048
 20
142.2531402934345
 30
0.0
  0
ARC
  5
100
330
1F
100
AcDbEntity
  8
0
  6
SLD-Сплошная
 62
     7
370
    25
100
AcDbCircle
 10
92.0097237872
 20
118.3335755674
 30
0.0
 40
16.50000000000001
100
AcDbArc
 50
14.0296654013
 51
90.0
  0
ARC
  5
101
330
1F
100
AcDbEntity
  8
0
  6
SLD-Сплошная
 62
     7
370
    25
100
AcDbCircle
 10
92.0097237872
 20
118.3335755674
 30
0.0
 40
16.50000000000036
100
AcDbArc
 50
90.0
 51
165.9703345987
  0
SPLINE
  5
102
330
1F
100
AcDbEntity
  8
0
  6
SLD-Сплошная
 62
     7
370
    25
100
AcDbSpline
210
0.0
220
0.0
230
1.0
 70
     8
 71
     3
 72
    23
 73
    19
 74
     0
 42
0.00000001
 43
0.00000001
 40
0.0
 40
0.0
 40
0.0
 40
0.0
 40
0.0057025302768614
 40
0.0755411811969103
 40
0.1449657525770696
 40
0.2146676933544531
 40
0.3548390519472812
 40
0.494922853085628
 40
0.6328902239809171
 40
0.6936794533840752
 40
0.7527469812109224
 40
0.8101013374798167
 40
0.8431714364000344
 40
0.8778653870067057
 40
0.9122272905811991
 40
0.9466840216564487
 40
0.9736051616403212
 40
1.0
 40
1.0
 40
1.0
 40
1.0
 10
126.5647135972062
 20
148.5215640567609
 30
0.0
 10
126.549778175589
 20
148.5396218687625
 30
0.0
 10
126.3519292671478
 20
148.7788329526505
 30
0.0
 10
125.9181760135092
 20
148.7623209796349
 30
0.0
 10
125.3284537729646
 20
148.4420381386882
 30
0.0
 10
124.625726270901
 20
147.1883258630087
 30
0.0
 10
123.6423162428422
 20
145.477875303914
 30
0.0
 10
122.3096607240991
 20
143.1253808146457
 30
0.0
 10
121.1093016562016
 20
140.9961092284449
 30
0.0
 10
120.1307990575123
 20
139.2546566741131
 30
0.0
 10
119.4315557228885
 20
138.006369825347
 30
0.0
 10
118.8183414582656
 20
136.915642148763
 30
0.0
 10
118.2925559098132
 20
135.9683266651956
 30
0.0
 10
117.8469339635972
 20
135.2038808546451
 30
0.0
 10
117.4129957078366
 20
134.317549133877
 30
0.0
 10
116.898599753099
 20
133.8406429759836
 30
0.0
 10
116.3297647203496
 20
133.8086353602195
 30
0.0
 10
115.9240444295756
 20
134.03821007972
 30
0.0
 10
115.7231867912665
 20
134.1518643312399
 30
0.0
  0
SPLINE
  5
103
330
1F
100
AcDbEntity
  8
0
  6
SLD-Сплошная
 62
     7
370
    25
100
AcDbSpline
210
0.0
220
0.0
230
1.0
 70
     8
 71
     3
 72
    28
 73
    24
 74
     0
 42
0.00000001
 43
0.00000001
 40
0.0
 40
0.0
 40
0.0
 40
0.0
 40
0.0173950759489599
 40
0.0440542730737275
 40
0.0707363502261369
 40
0.0801899012956594
 40
0.0896785567801948
 40
0.0982473169229458
 40
0.0994656488726145
 40
0.10347365886145
 40
0.1110707710709995
 40
0.1245881265564898
 40
0.1939472740617909
 40
0.2660263752921418
 40
0.3408410573945841
 40
0.4469141342691901
 40
0.5570847484525476
 40
0.6641550050777497
 40
0.7733301801147551
 40
0.8452243512635778
 40
0.9164174463610324
 40
0.9880989477526466
 40
1.0
 40
1.0
 40
1.0
 40
1.0
 10
68.5080833424489
 20
134.3275143802448
 30
0.0
 10
68.36494491240478
 20
134.215541080112
 30
0.0
 10
68.0024366081577
 20
133.9319606947495
 30
0.0
 10
67.50351283548805
 20
133.7990033097421
 30
0.0
 10
67.10908147877656
 20
133.8936097768758
 30
0.0
 10
66.85614746367874
 20
134.0906461836407
 30
0.0
 10
66.71426296865732
 20
134.2483771466848
 30
0.0
 10
66.62187211733048
 20
134.3826540388347
 30
0.0
 10
66.5596939549569
 20
134.491209319758
 30
0.0
 10
66.50218191836093
 20
134.5926065052797
 30
0.0
 10
66.39037921060844
 20
134.7921103037686
 30
0.0
 10
65.99002289189603
 20
135.5047240554904
 30
0.0
 10
65.32253248230319
 20
136.6962598661656
 30
0.0
 10
64.43182243827839
 20
138.2861793585908
 30
0.0
 10
63.43832682752743
 20
140.0568630527653
 30
0.0
 10
62.36332532894567
 20
141.9685234339172
 30
0.0
 10
61.25905983950067
 20
143.9189469413256
 30
0.0
 10
60.23975361401479
 20
145.7236774765721
 30
0.0
 10
59.41933909457589
 20
147.1257516481451
 30
0.0
 10
58.78257807650847
 20
148.3289510984247
 30
0.0
 10
58.17906016279368
 20
148.7547671037578
 30
0.0
 10
57.71241486038567
 20
148.7983905333736
 30
0.0
 10
57.49002516877605
 20
148.5402155317335
 30
0.0
 10
57.45835981250389
 20
148.5034548197223
 30
0.0
  0
SPLINE
  5
104
330
1F
100
AcDbEntity
  8
0
  6
SLD-Сплошная
 62
     7
370
    25
100
AcDbSpline
210
0.0
220
0.0
230
1.0
 70
     8
 71
     3
 72
     9
 73
     5
 74
     0
 42
0.00000001
 43
0.00000001
 40
0.0
 40
0.0
 40
0.0
 40
0.0
 40
0.8133333530430551
 40
0.9999999999999999
 40
0.9999999999999999
 40
0.9999999999999999
 40
0.9999999999999999
 10
56.90647126480564
 20
142.2524745518464
 30
0.0
 10
56.42915956305847
 20
142.4807883040077
 30
0.0
 10
55.84230092759082
 20
142.7615019269116
 30
0.0
 10
55.61314475153301
 20
143.0719499922818
 30
0.0
 10
55.57036893651885
 20
143.1299002916988
 30
0.0
  0
SPLINE
  5
105
330
1F
100
AcDbEntity
  8
0
  6
SLD-Сплошная
 62
     7
370
    25
100
AcDbSpline
210
0.0
220
0.0
230
1.0
 70
     8
 71
     3
 72
     9
 73
     5
 74
     0
 42
0.00000001
 43
0.00000001
 40
0.0
 40
0.0
 40
0.0
 40
0.0
 40
0.1582000203298571
 40
1.0
 40
1.0
 40
1.0
 40
1.0
 10
55.19493048873159
 20
143.5907333657162
 30
0.0
 10
55.16001388874128
 20
143.6300119945003
 30
0.0
 10
54.9393021598962
 20
143.8782965946047
 30
0.0
 10
55.0616148354085
 20
144.1346502366312
 30
0.0
 10
55.16457764316815
 20
144.3504487272775
 30
0.0
  0
SPLINE
  5
106
330
1F
100
AcDbEntity
  8
0
  6
SLD-Сплошная
 62
     7
370
    25
100
AcDbSpline
210
0.0
220
0.0
230
1.0
 70
     8
 71
     3
 72
     9
 73
     5
 74
     0
 42
0.00000001
 43
0.00000001
 40
0.0
 40
0.0
 40
0.0
 40
0.0
 40
0.844887709423841
 40
1.0
 40
1.0
 40
1.0
 40
1.0
 10
128.858145957222
 20
144.321464152661
 30
0.0
 10
128.9565418080093
 20
144.1158467076338
 30
0.0
 10
129.0730020780427
 20
143.8724801126015
 30
0.0
 10
128.864307980536
 20
143.6367332212952
 30
0.0
 10
128.8319369610421
 20
143.6001659809885
 30
0.0
  0
SPLINE
  5
107
330
1F
100
AcDbEntity
  8
0
  6
SLD-Сплошная
 62
     7
370
    25
100
AcDbSpline
210
0.0
220
0.0
230
1.0
 70
     8
 71
     3
 72
     9
 73
     5
 74
     0
 42
0.00000001
 43
0.00000001
 40
0.0
 40
0.0
 40
0.0
 40
0.0
 40
0.1681193725971397
 40
1.0
 40
1.0
 40
1.0
 40
1.0
 10
128.4348118390267
 20
143.1114420296453
 30
0.0
 10
128.3968271016509
 20
143.0603459192659
 30
0.0
 10
128.170888015697
 20
142.7564183611853
 30
0.0
 10
127.5934916956703
 20
142.481685357177
 30
0.0
 10
127.1131668827063
 20
142.2531402934343
 30
0.0
  0
LWPOLYLINE
  5
108
330
1F
100
AcDbEntity
  8
0
  6
SLD-Сплошная
 62
     7
370
    25
100
AcDbPolyline
 90
       41
 70
   128
 43
0.0
 10
128.0097237872
 20
148.5260629318
 10
127.8987478016
 20
151.2543469391
 10
127.5665040487
 20
153.9658101683
 10
127.0150409216
 20
156.6437355469
 10
126.2477583739
 20
159.2716127744
 10
125.2693869576
 20
161.8332401139
 10
124.085958658
 20
164.3128242809
 10
122.704769704
 20
166.6950778146
 10
121.1343355847
 20
168.9653133298
 10
119.3843385488
 20
171.1095340695
 10
117.46556791
 20
173.1145201999
 10
115.3898535271
 20
174.9679103147
 10
113.1699928698
 20
176.6582776476
 10
110.819672117
 20
178.1752005219
 10
108.3533817779
 20
179.5093266036
 10
105.7863273524
 20
180.6524305617
 10
103.1343355847
 20
181.5974647804
 10
100.413756886
 20
182.3386028092
 10
97.6413645287
 20
182.8712752859
 10
94.8342512334
 20
183.1921981076
 10
92.0097237872
 20
183.2993926782
 10
89.185196341
 20
183.1921981076
 10
86.3780830458
 20
182.8712752859
 10
83.6056906884
 20
182.3386028092
 10
80.8851119897
 20
181.5974647804
 10
78.2331202221
 20
180.6524305617
 10
75.6660657966
 20
179.5093266036
 10
73.1997754575
 20
178.1752005219
 10
70.8494547047
 20
176.6582776476
 10
68.6295940473
 20
174.9679103147
 10
66.5538796645
 20
173.1145201999
 10
64.6351090256
 20
171.1095340695
 10
62.8851119897
 20
168.9653133298
 10
61.3146778705
 20
166.6950778146
 10
59.9334889165
 20
164.3128242809
 10
58.7500606168
 20
161.8332401139
 10
57.7716892006
 20
159.2716127744
 10
57.0044066529
 20
156.6437355469
 10
56.4529435258
 20
153.9658101683
 10
56.1206997728
 20
151.2543469391
 10
56.0097237872
 20
148.5260629318
  0
ARC
  5
109
330
1F
100
AcDbEntity
  8
0
  6
SLD-Сплошная
 62
     7
370
    25
100
AcDbCircle
 10
92.0097237872
 20
133.4096028597
 30
0.0
 40
33.32809356290211
100
AcDbArc
 50
84.8355788925
 51
95.1644211075
  0
ARC
  5
10A
330
1F
100
AcDbEntity
  8
0
  6
SLD-Сплошная
 62
     7
370
    25
100
AcDbCircle
 10
90.3975742932
 20
140.7905336431
 30
0.0
 40
33.14278468075005
100
AcDbArc
 50
142.7675041092
 51
160.7047874302
  0
SPLINE
  5
10B
330
1F
100
AcDbEntity
  8
0
  6
SLD-Сплошная
 62
     7
370
    25
100
AcDbSpline
210
0.0
220
0.0
230
1.0
 70
     8
 71
     3
 72
    13
 73
     9
 74
     0
 42
0.00000001
 43
0.00000001
 40
0.0
 40
0.0
 40
0.0
 40
0.0
 40
0.4999999999999986
 40
0.4999999999999986
 40
0.6249999999999977
 40
0.6249999999999977
 40
0.7499999999999968
 40
1.0
 40
1.0
 40
1.0
 40
1.0
 10
59.11646739155641
 20
151.7420872955886
 30
0.0
 10
59.27325539767997
 20
151.3088534312925
 30
0.0
 10
59.4438996290863
 20
150.8754472949305
 30
0.0
 10
59.6747362703906
 20
150.3334716601933
 30
0.0
 10
59.72124061883466
 20
150.2263145210738
 30
0.0
 10
59.81613910253578
 20
150.0115719652055
 30
0.0
 10
59.96099732509122
 20
149.6896020055088
 30
0.0
 10
60.11338786792344
 20
149.368063715653
 30
0.0
 10
60.21833162631982
 20
149.1538968445635
 30
0.0
  0
ARC
  5
10C
330
1F
100
AcDbEntity
  8
0
  6
SLD-Сплошная
 62
     7
370
    25
100
AcDbCircle
 10
90.4016429514
 20
138.2285004345
 30
0.0
 40
32.09979079781497
100
AcDbArc
 50
145.3039741523
 51
160.1013590531
  0
SPLINE
  5
10D
330
1F
100
AcDbEntity
  8
0
  6
SLD-Сплошная
 62
     7
370
    25
100
AcDbSpline
210
0.0
220
0.0
230
1.0
 70
     8
 71
     3
 72
    31
 73
    27
 74
     0
 42
0.00000001
 43
0.00000001
 40
0.0
 40
0.0
 40
0.0
 40
0.0
 40
0.0190231734997511
 40
0.037610442302807
 40
0.0557634849554797
 40
0.0734841034078767
 40
0.0907742348205182
 40
0.1076359647344874
 40
0.1240715417841835
 40
0.1889580503862468
 40
0.2485839807631958
 40
0.3421949201120935
 40
0.4246003028576062
 40
0.4987103978557544
 40
0.5589239757813586
 40
0.6187587807295297
 40
0.6812595188248418
 40
0.7491129654535575
 40
0.7781789790910073
 40
0.8086822052595029
 40
0.8407145086928047
 40
0.8743552298243509
 40
0.903604463955576
 40
0.9342760700527435
 40
0.9663993996524108
 40
1.0
 40
1.0
 40
1.0
 40
1.0
 10
64.00972378723452
 20
156.5004234886109
 30
0.0
 10
64.08128374892367
 20
156.6035534145501
 30
0.0
 10
64.22276391837784
 20
156.8074501055662
 30
0.0
 10
64.43575958848652
 20
157.110387494947
 30
0.0
 10
64.64575237263954
 20
157.406602323033
 30
0.0
 10
64.85263989507328
 20
157.6960672760871
 30
0.0
 10
65.05603228866075
 20
157.9786860014714
 30
0.0
 10
65.2556560493237
 20
158.2543950581587
 30
0.0
 10
65.6450008801279
 20
158.7893484560078
 30
0.0
 10
66.21008006116347
 20
159.5572047766805
 30
0.0
 10
67.07327788305398
 20
160.7327833035784
 30
0.0
 10
67.95670579647766
 20
161.9722709452471
 30
0.0
 10
68.69714232625648
 20
163.1732619196136
 30
0.0
 10
69.03844500807557
 20
164.0197634152569
 30
0.0
 10
69.00355086578699
 20
164.5108480549042
 30
0.0
 10
68.66553066587072
 20
164.6813539380591
 30
0.0
 10
68.05365836475048
 20
164.5404192756024
 30
0.0
 10
67.4041930254218
 20
164.1831264891422
 30
0.0
 10
66.85612722495223
 20
163.7942383516978
 30
0.0
 10
66.45391674706013
 20
163.4746440461037
 30
0.0
 10
66.02887254008097
 20
163.1014847750738
 30
0.0
 10
65.61120740021786
 20
162.6997756997986
 30
0.0
 10
65.20491375506381
 20
162.2770412304619
 30
0.0
 10
64.81234629897192
 20
161.8390090848811
 30
0.0
 10
64.40963704033592
 20
161.3606684251281
 30
0.0
 10
64.14501086436722
 20
161.0185204780195
 30
0.0
 10
64.00972378723452
 20
160.8436012904455
 30
0.0
  0
SPLINE
  5
10E
330
1F
100
AcDbEntity
  8
0
  6
SLD-Сплошная
 62
     7
370
    25
100
AcDbSpline
210
0.0
220
0.0
230
1.0
 70
     8
 71
     3
 72
    38
 73
    34
 74
     0
 42
0.00000001
 43
0.00000001
 40
0.0
 40
0.0
 40
0.0
 40
0.0
 40
0.0188257975853617
 40
0.0377817256683042
 40
0.056891182673944
 40
0.0761770082310337
 40
0.0956614217605724
 40
0.1153659708943303
 40
0.1353114898232098
 40
0.155518067389001
 40
0.1760050244911372
 40
0.1967909001880915
 40
0.2178934457330187
 40
0.2393296256926954
 40
0.2611156252532579
 40
0.2832668628088241
 40
0.3057980069527479
 40
0.328722997038372
 40
0.3520550665397664
 40
0.3758067685168887
 40
0.3999900025686381
 40
0.4246160427373931
 40
0.4496955659063783
 40
0.4752386803048478
 40
0.5012549538035981
 40
0.5594898647660379
 40
0.6204223988823097
 40
0.6841258952525592
 40
0.7506645310395831
 40
0.8088347246906832
 40
0.8697643347429149
 40
0.9334787060824824
 40
1.0
 40
1.0
 40
1.0
 40
1.0
 10
115.0097237872343
 20
164.2180659992414
 30
0.0
 10
115.0104735384953
 20
164.191475535915
 30
0.0
 10
115.0119782235603
 20
164.1381108066793
 30
0.0
 10
115.0240737147999
 20
164.0496179701782
 30
0.0
 10
115.0433535527339
 20
163.9547666085711
 30
0.0
 10
115.0705208063132
 20
163.8530275914192
 30
0.0
 10
115.1053514667051
 20
163.7446462728254
 30
0.0
 10
115.1478577146051
 20
163.6296575095772
 30
0.0
 10
115.1979720843403
 20
163.5081529451608
 30
0.0
 10
115.2556334302162
 20
163.3802081355362
 30
0.0
 10
115.3207635953144
 20
163.2459022267887
 30
0.0
 10
115.3932738807716
 20
163.1053124202699
 30
0.0
 10
115.4730634036442
 20
162.9585153221254
 30
0.0
 10
115.5600196905044
 20
162.8055864167852
 30
0.0
 10
115.6540186795164
 20
162.6466000578955
 30
0.0
 10
115.7549249049734
 20
162.4816293212341
 30
0.0
 10
115.8625916524399
 20
162.3107458992401
 30
0.0
 10
115.9768611444339
 20
162.1340199852738
 30
0.0
 10
116.0975647352729
 20
161.9515201701781
 30
0.0
 10
116.2245231417675
 20
161.7633133116616
 30
0.0
 10
116.3575466241379
 20
161.5694645140726
 30
0.0
 10
116.4964354418164
 20
161.3700366945127
 30
0.0
 10
116.6409793404715
 20
161.165091744119
 30
0.0
 10
116.7909608398813
 20
160.9546855801172
 30
0.0
 10
117.0092377132254
 20
160.6511480742998
 30
0.0
 10
117.3040721768218
 20
160.2457147137559
 30
0.0
 10
117.682172033422
 20
159.730366585574
 30
0.0
 10
118.0810123428341
 20
159.1883151328596
 30
0.0
 10
118.4743520634142
 20
158.6521880328893
 30
0.0
 10
118.8593693309465
 20
158.1231852765628
 30
0.0
 10
119.2344546064749
 20
157.6023336732118
 30
0.0
 10
119.6215244847711
 20
157.0583780835683
 30
0.0
 10
119.8784780106882
 20
156.6890616021472
 30
0.0
 10
120.0097237872344
 20
156.5004234886112
 30
0.0
  0
ARC
  5
10F
330
1F
100
AcDbEntity
  8
0
  6
SLD-Сплошная
 62
     7
370
    25
100
AcDbCircle
 10
93.6178046231
 20
138.2285004345
 30
0.0
 40
32.09979079781744
100
AcDbArc
 50
19.8986409469
 51
34.6960258477
  0
SPLINE
  5
110
330
1F
100
AcDbEntity
  8
0
  6
SLD-Сплошная
 62
     7
370
    25
100
AcDbSpline
210
0.0
220
0.0
230
1.0
 70
     8
 71
     3
 72
    13
 73
     9
 74
     0
 42
0.00000001
 43
0.00000001
 40
0.0
 40
0.0
 40
0.0
 40
0.0
 40
0.5000000000000019
 40
0.5000000000000019
 40
0.6250000000000019
 40
0.6250000000000019
 40
0.7500000000000019
 40
1.0
 40
1.0
 40
1.0
 40
1.0
 10
124.9029801829103
 20
151.742087295589
 30
0.0
 10
124.7461921767893
 20
151.3088534312936
 30
0.0
 10
124.5755479453837
 20
150.8754472949327
 30
0.0
 10
124.3447113040798
 20
150.3334716601966
 30
0.0
 10
124.2982069556363
 20
150.2263145210773
 30
0.0
 10
124.2033084719348
 20
150.0115719652096
 30
0.0
 10
124.0584502493798
 20
149.6896020055137
 30
0.0
 10
123.9060597065483
 20
149.3680637156584
 30
0.0
 10
123.8011159481493
 20
149.1538968445695
 30
0.0
  0
ARC
  5
111
330
1F
100
AcDbEntity
  8
0
  6
SLD-Сплошная
 62
     7
370
    25
100
AcDbCircle
 10
93.6218732813
 20
140.7905336431
 30
0.0
 40
33.14278468075116
100
AcDbArc
 50
19.2952125698
 51
37.2324958908
  0
SPLINE
  5
112
330
1F
100
AcDbEntity
  8
0
  6
SLD-Сплошная
 62
     7
370
    25
100
AcDbSpline
210
0.0
220
0.0
230
1.0
 70
     8
 71
     3
 72
    30
 73
    26
 74
     0
 42
0.00000001
 43
0.00000001
 40
0.0
 40
0.0
 40
0.0
 40
0.0
 40
0.0381218873661
 40
0.0753397260717414
 40
0.1116610560615708
 40
0.1470939896069174
 40
0.1816472647115666
 40
0.215330303990333
 40
0.2481532795373222
 40
0.3150401521759533
 40
0.3788874091463976
 40
0.4398275527663569
 40
0.4980129493672817
 40
0.5452258474691583
 40
0.5909349211284888
 40
0.6352714664435826
 40
0.6783793225035113
 40
0.7204149434156405
 40
0.76154702049043
 40
0.8019555625452124
 40
0.841830378467582
 40
0.881368964505651
 40
0.9207738727530761
 40
0.9602497130733381
 40
1.0
 40
1.0
 40
1.0
 40
1.0
 10
120.0097237872344
 20
160.8436012904458
 30
0.0
 10
119.9365078830552
 20
160.9390930910751
 30
0.0
 10
119.7918123670127
 20
161.1278121340862
 30
0.0
 10
119.5727572214118
 20
161.4007161392287
 30
0.0
 10
119.3560283818426
 20
161.6618353101891
 30
0.0
 10
119.1416813744925
 20
161.9107697172738
 30
0.0
 10
118.9301832203465
 20
162.1476921611141
 30
0.0
 10
118.721868964356
 20
162.3726382928214
 30
0.0
 10
118.4445124393707
 20
162.661181986918
 30
0.0
 10
118.1005722705764
 20
162.998489842784
 30
0.0
 10
117.6948820843786
 20
163.3641863456669
 30
0.0
 10
117.3087405013377
 20
163.6820192335317
 30
0.0
 10
116.9624894118137
 20
163.9395441706205
 30
0.0
 10
116.6555678909319
 20
164.1442280900581
 30
0.0
 10
116.3859125610812
 20
164.3040804953105
 30
0.0
 10
116.1362035600334
 20
164.4321029444016
 30
0.0
 10
115.9079978123201
 20
164.5286574442923
 30
0.0
 10
115.7027536615998
 20
164.5941383125273
 30
0.0
 10
115.521819551819
 20
164.6289648224506
 30
0.0
 10
115.3664014302534
 20
164.6336013763267
 30
0.0
 10
115.237634755754
 20
164.6084863422957
 30
0.0
 10
115.1362646436703
 20
164.5542934431403
 30
0.0
 10
115.0637733401015
 20
164.4709654293854
 30
0.0
 10
115.0181352689644
 20
164.3613030150337
 30
0.0
 10
115.0125340821535
 20
164.2659218076032
 30
0.0
 10
115.0097237872343
 20
164.2180659992414
 30
0.0
  0
ARC
  5
113
330
1F
100
AcDbEntity
  8
0
  6
SLD-Сплошная
 62
     7
370
    25
100
AcDbCircle
 10
78.0247064476
 20
148.5266986467
 30
0.0
 40
22.01498266954895
100
AcDbArc
 50
180.0016544997
 51
183.5354497342
  0
ARC
  5
114
330
1F
100
AcDbEntity
  8
0
  6
SLD-Сплошная
 62
     7
370
    25
100
AcDbCircle
 10
105.9941689658
 20
148.5267099395
 30
0.0
 40
22.01555483096587
100
AcDbArc
 50
356.4253116056
 51
359.9983161536
  0
LINE
  5
115
330
1F
100
AcDbEntity
  8
0
  6
SLD-Сплошная
 62
     7
370
    25
100
AcDbLine
 10
95.0097237872
 20
174.2739075372
 30
0.0
 11
89.0097237872
 21
174.2739075372
 31
0.0
  0
LINE
  5
116
330
1F
100
AcDbEntity
  8
0
  6
SLD-Сплошная
 62
     7
370
    25
100
AcDbLine
 10
95.0097237872
 20
166.6024005806
 30
0.0
 11
95.0097237872
 21
174.2739075372
 31
0.0
  0
LINE
  5
117
330
1F
100
AcDbEntity
  8
0
  6
SLD-Сплошная
 62
     7
370
    25
100
AcDbLine
 10
89.0097237872
 20
166.6024005806
 30
0.0
 11
89.0097237872
 21
174.2739075372
 31
0.0
  0
LINE
  5
118
330
1F
100
AcDbEntity
  8
0
  6
SLD-Сплошная
 62
     7
370
    25
100
AcDbLine
 10
95.0097237872
 20
174.2739075372
 30
0.0
 11
95.0097237872
 21
174.92095515
 31
0.0
  0
LINE
  5
119
330
1F
100
AcDbEntity
  8
0
  6
SLD-Сплошная
 62
     7
370
    25
100
AcDbLine
 10
89.0097237872
 20
174.2739075372
 30
0.0
 11
89.0097237872
 21
174.92095515
 31
0.0
  0
LINE
  5
11A
330
1F
100
AcDbEntity
  8
0
  6
SLD-Сплошная
 62
     7
370
    25
100
AcDbLine
 10
95.0097237872
 20
174.92095515
 30
0.0
 11
89.0097237872
 21
174.92095515
 31
0.0
  0
LINE
  5
11B
330
1F
100
AcDbEntity
  8
0
  6
SLD-Сплошная
 62
     7
370
    25
100
AcDbLine
 10
122.7347659815
 20
151.7420872956
 30
0.0
 11
124.9029801829
 21
151.7420872956
 31
0.0
  0
LWPOLYLINE
  5
11C
330
1F
100
AcDbEntity
  8
0
  6
SLD-Сплошная
 62
     7
370
    25
100
AcDbPolyline
 90
        3
 70
   128
 43
0.0
 10
123.3803453677
 20
150.2039722144
 10
123.3904641792
 20
150.2135365267
 10
123.5097237872
 20
150.4479920701
  0
LWPOLYLINE
  5
11D
330
1F
100
AcDbEntity
  8
0
  6
SLD-Сплошная
 62
     7
370
    25
100
AcDbPolyline
 90
        3
 70
   128
 43
0.0
 10
123.5097237872
 20
150.4479920701
 10
123.3904641792
 20
150.6824476135
 10
123.1286336242
 20
150.8590502855
  0
LINE
  5
11E
330
1F
100
AcDbEntity
  8
0
  6
SLD-Сплошная
 62
     7
370
    25
100
AcDbLine
 10
59.1164673916
 20
151.7420872956
 30
0.0
 11
61.284681593
 21
151.7420872956
 31
0.0
  0
LWPOLYLINE
  5
11F
330
1F
100
AcDbEntity
  8
0
  6
SLD-Сплошная
 62
     7
370
    25
100
AcDbPolyline
 90
        3
 70
   128
 43
0.0
 10
60.5097237872
 20
150.4479920701
 10
60.6289833952
 20
150.2135365267
 10
60.6391022068
 20
150.2039722144
  0
LWPOLYLINE
  5
120
330
1F
100
AcDbEntity
  8
0
  6
SLD-Сплошная
 62
     7
370
    25
100
AcDbPolyline
 90
        3
 70
   128
 43
0.0
 10
60.8908139503
 20
150.8590502855
 10
60.6289833952
 20
150.6824476135
 10
60.5097237872
 20
150.4479920701
  0
LINE
  5
121
330
1F
100
AcDbEntity
  8
0
  6
SLD-Сплошная
 62
     7
370
    25
100
AcDbLine
 10
426.1361828039
 20
157.7011980806
 30
0.0
 11
426.1361828039
 21
158.4979293745
 31
0.0
  0
SPLINE
  5
122
330
1F
100
AcDbEntity
  8
0
  6
SLD-Сплошная
 62
     7
370
    25
100
AcDbSpline
210
0.0
220
0.0
230
1.0
 70
     8
 71
     3
 72
     9
 73
     5
 74
     0
 42
0.00000001
 43
0.00000001
 40
0.0
 40
0.0
 40
0.0
 40
0.0
 40
0.5101882378007573
 40
1.0
 40
1.0
 40
1.0
 40
1.0
 10
393.849365441535
 20
149.7979062315176
 30
0.0
 10
393.7860955212562
 20
149.5937833344413
 30
0.0
 10
393.6620826264243
 20
149.1936900317101
 30
0.0
 10
393.6589757612178
 20
148.775252794452
 30
0.0
 10
393.6574539820962
 20
148.5702973139009
 30
0.0
  0
SPLINE
  5
123
330
1F
100
AcDbEntity
  8
0
  6
SLD-Сплошная
 62
     7
370
    25
100
AcDbSpline
210
0.0
220
0.0
230
1.0
 70
     8
 71
     3
 72
    21
 73
    17
 74
     0
 42
0.00000001
 43
0.00000001
 40
0.0
 40
0.0
 40
0.0
 40
0.0
 40
0.0238639215742756
 40
0.1025525141856256
 40
0.1810820312817063
 40
0.2595941965568482
 40
0.3382368442214341
 40
0.4171244768526371
 40
0.4963202215661868
 40
0.575830349154199
 40
0.6556075687463111
 40
0.7355374451522536
 40
0.8154856020070113
 40
0.8953149882504285
 40
0.9749045582317174
 40
1.0
 40
1.0
 40
1.0
 40
1.0
 10
401.6149116257727
 20
148.4944407527
 30
0.0
 10
401.6218354438383
 20
148.5828308822016
 30
0.0
 10
401.6515897718597
 20
148.9626775047012
 30
0.0
 10
401.5022104928497
 20
149.6312042536508
 30
0.0
 10
401.1709143541052
 20
150.4441535402291
 30
0.0
 10
400.6518468146225
 20
151.1618605100155
 30
0.0
 10
399.9887483066532
 20
151.7498507954714
 30
0.0
 10
399.2081486816157
 20
152.1801948230637
 30
0.0
 10
398.3483334318786
 20
152.4313515678506
 30
0.0
 10
397.4503421580587
 20
152.4895843818633
 30
0.0
 10
396.5586466794766
 20
152.3500994402896
 30
0.0
 10
395.7187611735438
 20
152.0180791211037
 30
0.0
 10
394.9737009648097
 20
151.509332737731
 30
0.0
 10
394.3649650319045
 20
150.8491748323896
 30
0.0
 10
394.0172193770546
 20
150.2496044013449
 30
0.0
 10
393.8818230925158
 20
149.88525039476
 30
0.0
 10
393.849365441535
 20
149.7979062315176
 30
0.0
  0
LINE
  5
124
330
1F
100
AcDbEntity
  8
0
  6
SLD-Сплошная
 62
     7
370
    25
100
AcDbLine
 10
393.6361828039
 20
148.5323690333
 30
0.0
 11
393.6361828039
 21
137.40962057
 31
0.0
  0
LINE
  5
125
330
1F
100
AcDbEntity
  8
0
  6
SLD-Сплошная
 62
     7
370
    25
100
AcDbLine
 10
401.6361828039
 20
137.40962057
 30
0.0
 11
401.6361828039
 21
148.5323690333
 31
0.0
  0
SPLINE
  5
126
330
1F
100
AcDbEntity
  8
0
  6
SLD-Сплошная
 62
     7
370
    25
100
AcDbSpline
210
0.0
220
0.0
230
1.0
 70
     8
 71
     3
 72
     9
 73
     5
 74
     0
 42
0.00000001
 43
0.00000001
 40
0.0
 40
0.0
 40
0.0
 40
0.0
 40
0.5404934458409371
 40
1.0
 40
1.0
 40
1.0
 40
1.0
 10
407.3836751783672
 20
161.7899813328159
 30
0.0
 10
407.3070742653558
 20
161.592387251518
 30
0.0
 10
407.1653502285502
 20
161.2268063498098
 30
0.0
 10
407.1600090018119
 20
160.835648354153
 30
0.0
 10
407.1575546731185
 20
160.655908691437
 30
0.0
  0
SPLINE
  5
127
330
1F
100
AcDbEntity
  8
0
  6
SLD-Сплошная
 62
     7
370
    25
100
AcDbSpline
210
0.0
220
0.0
230
1.0
 70
     8
 71
     3
 72
    19
 73
    15
 74
     0
 42
0.00000001
 43
0.00000001
 40
0.0
 40
0.0
 40
0.0
 40
0.0
 40
0.0281034095064734
 40
0.1215201674104423
 40
0.2145896738455572
 40
0.3075748216919708
 40
0.4007626447196211
 40
0.4943787916542741
 40
0.5885404517972984
 40
0.6832352352835372
 40
0.778292062005844
 40
0.8734512055730543
 40
0.9684294601397762
 40
1.0
 40
1.0
 40
1.0
 40
1.0
 10
413.1148109347493
 20
160.5699159846451
 30
0.0
 10
413.1220088601652
 20
160.6460865420962
 30
0.0
 10
413.153132952114
 20
160.9754508098399
 30
0.0
 10
413.0060834906934
 20
161.5553738692374
 30
0.0
 10
412.6805005984572
 20
162.2450857283084
 30
0.0
 10
412.1754217730953
 20
162.8268829059602
 30
0.0
 10
411.5415506805699
 20
163.2641726098435
 30
0.0
 10
410.8131991913766
 20
163.5293291935329
 30
0.0
 10
410.0371528465799
 20
163.603557336189
 30
0.0
 10
409.2635746027285
 20
163.4790541138245
 30
0.0
 10
408.544439292147
 20
163.1612999619852
 30
0.0
 10
407.9329241227994
 20
162.669434691055
 30
0.0
 10
407.5672427376626
 20
162.1787796574276
 30
0.0
 10
407.4203267806138
 20
161.8676098724254
 30
0.0
 10
407.3836751783672
 20
161.7899813328159
 30
0.0
  0
SPLINE
  5
128
330
1F
100
AcDbEntity
  8
0
  6
SLD-Сплошная
 62
     7
370
    25
100
AcDbSpline
210
0.0
220
0.0
230
1.0
 70
     8
 71
     3
 72
    19
 73
    15
 74
     0
 42
0.00000001
 43
0.00000001
 40
0.0
 40
0.0
 40
0.0
 40
0.0
 40
0.0844157283854151
 40
0.1720647041468774
 40
0.2596433257776957
 40
0.3474206961650381
 40
0.4356066683042755
 40
0.5243079601244385
 40
0.6135089776508587
 40
0.7030436146120005
 40
0.7926664648926508
 40
0.8821107294670163
 40
0.9711491087563907
 40
1.0
 40
1.0
 40
1.0
 40
1.0
 10
388.1225748359246
 20
160.8525359268417
 30
0.0
 10
388.0862968479318
 20
161.0946216768297
 30
0.0
 10
388.0123513712958
 20
161.5880654194422
 30
0.0
 10
387.6620239563956
 20
162.2651150441202
 30
0.0
 10
387.1586479704865
 20
162.8430367658791
 30
0.0
 10
386.5194862024509
 20
163.2752482067941
 30
0.0
 10
385.7893584082679
 20
163.5346467828099
 30
0.0
 10
385.0125125913682
 20
163.602670672704
 30
0.0
 10
384.2397504713038
 20
163.4719573478475
 30
0.0
 10
383.5237158643134
 20
163.1482660252578
 30
0.0
 10
382.9142782169515
 20
162.6517835645567
 30
0.0
 10
382.4574732363153
 20
162.0166590761245
 30
0.0
 10
382.2386176826958
 20
161.4505662634312
 30
0.0
 10
382.1807729680116
 20
161.1154182796166
 30
0.0
 10
382.1666167045551
 20
161.0333979397855
 30
0.0
  0
LINE
  5
129
330
1F
100
AcDbEntity
  8
0
  6
SLD-Сплошная
 62
     7
370
    25
100
AcDbLine
 10
382.1361828039
 20
160.612912338
 30
0.0
 11
382.1361828039
 21
150.7260248151
 31
0.0
  0
LINE
  5
12A
330
1F
100
AcDbEntity
  8
0
  6
SLD-Сплошная
 62
     7
370
    25
100
AcDbLine
 10
407.1361828039
 20
160.612912338
 30
0.0
 11
407.1361828039
 21
150.7260248151
 31
0.0
  0
LINE
  5
12B
330
1F
100
AcDbEntity
  8
0
  6
SLD-Сплошная
 62
     7
370
    25
100
AcDbLine
 10
413.1361828039
 20
150.7260248151
 30
0.0
 11
413.1361828039
 21
160.612912338
 31
0.0
  0
LINE
  5
12C
330
1F
100
AcDbEntity
  8
0
  6
SLD-Сплошная
 62
     7
370
    25
100
AcDbLine
 10
388.1361828039
 20
150.7260248151
 30
0.0
 11
388.1361828039
 21
160.612912338
 31
0.0
  0
SPLINE
  5
12D
330
1F
100
AcDbEntity
  8
0
  6
SLD-Сплошная
 62
     7
370
    25
100
AcDbSpline
210
0.0
220
0.0
230
1.0
 70
     8
 71
     3
 72
     9
 73
     5
 74
     0
 42
0.00000001
 43
0.00000001
 40
0.0
 40
0.0
 40
0.0
 40
0.0
 40
0.7824890959878152
 40
1.0
 40
1.0
 40
1.0
 40
1.0
 10
394.7289535588832
 20
173.417276053708
 30
0.0
 10
394.6790662398614
 20
173.2096765680755
 30
0.0
 10
394.6153115891224
 20
172.9443700140328
 30
0.0
 10
394.6476181879153
 20
172.6766807362449
 30
0.0
 10
394.6546452254244
 20
172.6184553994389
 30
0.0
  0
SPLINE
  5
12E
330
1F
100
AcDbEntity
  8
0
  6
SLD-Сплошная
 62
     7
370
    25
100
AcDbSpline
210
0.0
220
0.0
230
1.0
 70
     8
 71
     3
 72
    19
 73
    15
 74
     0
 42
0.00000001
 43
0.00000001
 40
0.0
 40
0.0
 40
0.0
 40
0.0
 40
0.068923192860086
 40
0.1581766356529095
 40
0.2472430150495266
 40
0.3364021619701509
 40
0.4258994016636495
 40
0.5158903569195225
 40
0.6064115392209104
 40
0.6973623153087851
 40
0.7885078714614963
 40
0.879583845585898
 40
0.9703324494371415
 40
1.0
 40
1.0
 40
1.0
 40
1.0
 10
400.6177203824433
 20
172.7555149338701
 30
0.0
 10
400.6086645906178
 20
172.9516686209939
 30
0.0
 10
400.5878818232403
 20
173.4018353792741
 30
0.0
 10
400.3238680061414
 20
174.0660287955669
 30
0.0
 10
399.8864851719359
 20
174.6940237900542
 30
0.0
 10
399.2968775225421
 20
175.1901628962859
 30
0.0
 10
398.5997407203725
 20
175.5238477957331
 30
0.0
 10
397.836173200008
 20
175.6725662699538
 30
0.0
 10
397.0554129012818
 20
175.6241299752537
 30
0.0
 10
396.3096172282531
 20
175.3786059181626
 30
0.0
 10
395.650085948521
 20
174.9502233308155
 30
0.0
 10
395.1264000148439
 20
174.367352232951
 30
0.0
 10
394.8463369182234
 20
173.8266017074882
 30
0.0
 10
394.7521571221814
 20
173.4981888318945
 30
0.0
 10
394.7289535588832
 20
173.417276053708
 30
0.0
  0
LINE
  5
12F
330
1F
100
AcDbEntity
  8
0
  6
SLD-Сплошная
 62
     7
370
    25
100
AcDbLine
 10
394.6361828039
 20
172.6869851667
 30
0.0
 11
394.6361828039
 21
162.8000976437
 31
0.0
  0
LINE
  5
130
330
1F
100
AcDbEntity
  8
0
  6
SLD-Сплошная
 62
     7
370
    25
100
AcDbLine
 10
400.6361828039
 20
162.8000976437
 30
0.0
 11
400.6361828039
 21
172.6869851667
 31
0.0
  0
LINE
  5
131
330
1F
100
AcDbEntity
  8
0
  6
SLD-Сплошная
 62
     7
370
    25
100
AcDbLine
 10
426.1361828039
 20
150.7333580214
 30
0.0
 11
426.1361828039
 21
151.5154229027
 31
0.0
  0
SPLINE
  5
132
330
1F
100
AcDbEntity
  8
0
  6
SLD-Сплошная
 62
     7
370
    25
100
AcDbSpline
210
0.0
220
0.0
230
1.0
 70
     8
 71
     3
 72
    15
 73
    11
 74
     0
 42
0.00000001
 43
0.00000001
 40
0.0
 40
0.0
 40
0.0
 40
0.0
 40
0.1557381316164385
 40
0.2964653205932951
 40
0.4179573556650302
 40
0.5223348377787377
 40
0.6380235986549446
 40
0.7748409085953784
 40
0.9338819672808831
 40
1.0
 40
1.0
 40
1.0
 40
1.0
 10
435.0865036520931
 20
125.6107897637152
 30
0.0
 10
435.086037390335
 20
126.6069861982676
 30
0.0
 10
435.0851498078262
 20
128.5033598883724
 30
0.0
 10
435.0750806685202
 20
131.0144797029625
 30
0.0
 10
435.0591783163195
 20
133.1255784824011
 30
0.0
 10
435.0371185240875
 20
134.9966071588216
 30
0.0
 10
435.0037597773093
 20
136.9159601187436
 30
0.0
 10
434.9431565353644
 20
139.0359076446055
 30
0.0
 10
434.8707683748517
 20
140.8367645649795
 30
0.0
 10
434.7951652220789
 20
141.7720798767702
 30
0.0
 10
434.7729643342643
 20
142.0467354902827
 30
0.0
  0
SPLINE
  5
133
330
1F
100
AcDbEntity
  8
0
  6
SLD-Сплошная
 62
     7
370
    25
100
AcDbSpline
210
0.0
220
0.0
230
1.0
 70
     8
 71
     3
 72
    16
 73
    12
 74
     0
 42
0.00000001
 43
0.00000001
 40
0.0
 40
0.0
 40
0.0
 40
0.0
 40
0.0321882354089531
 40
0.1090967430432535
 40
0.2045333164883653
 40
0.3177288423756925
 40
0.4485026168614227
 40
0.5967991279135475
 40
0.7627987068480943
 40
0.9469961926167245
 40
1.0
 40
1.0
 40
1.0
 40
1.0
 10
360.4741876628239
 20
142.1126574336859
 30
0.0
 10
360.4646907044989
 20
141.9824621700337
 30
0.0
 10
360.4325023223494
 20
141.5411866840168
 30
0.0
 10
360.3890201728162
 20
140.6732852772514
 30
0.0
 10
360.335173400025
 20
139.3394819567428
 30
0.0
 10
360.2862566195676
 20
137.646244559185
 30
0.0
 10
360.2436828219435
 20
135.5739755863391
 30
0.0
 10
360.2117816373346
 20
133.0701459925707
 30
0.0
 10
360.1923166026656
 20
130.0689531284982
 30
0.0
 10
360.1853385020616
 20
127.5317837678237
 30
0.0
 10
360.1865252322236
 20
125.9170546679579
 30
0.0
 10
360.186790412974
 20
125.5562354285339
 30
0.0
  0
LINE
  5
134
330
1F
100
AcDbEntity
  8
0
  6
SLD-Сплошная
 62
     7
370
    25
100
AcDbLine
 10
391.0540871101
 20
151.100258684
 30
0.0
 11
390.7823580224
 21
152.0283663862
 31
0.0
  0
LINE
  5
135
330
1F
100
AcDbEntity
  8
0
  6
SLD-Сплошная
 62
     7
370
    25
100
AcDbLine
 10
379.4900075855
 20
152.0283663862
 30
0.0
 11
379.2182784977
 21
151.100258684
 31
0.0
  0
LINE
  5
136
330
1F
100
AcDbEntity
  8
0
  6
SLD-Сплошная
 62
     7
370
    25
100
AcDbLine
 10
416.0540871101
 20
151.100258684
 30
0.0
 11
415.7823580224
 21
152.0283663862
 31
0.0
  0
LINE
  5
137
330
1F
100
AcDbEntity
  8
0
  6
SLD-Сплошная
 62
     7
370
    25
100
AcDbLine
 10
404.4900075855
 20
152.0283663862
 30
0.0
 11
404.2182784977
 21
151.100258684
 31
0.0
  0
LINE
  5
138
330
1F
100
AcDbEntity
  8
0
  6
SLD-Сплошная
 62
     7
370
    25
100
AcDbLine
 10
391.9900075855
 20
164.1024392148
 30
0.0
 11
391.7182784977
 21
163.1743315126
 31
0.0
  0
LINE
  5
139
330
1F
100
AcDbEntity
  8
0
  6
SLD-Сплошная
 62
     7
370
    25
100
AcDbLine
 10
403.5540871101
 20
163.1743315126
 30
0.0
 11
403.2823580224
 21
164.1024392148
 31
0.0
  0
ARC
  5
13A
330
1F
100
AcDbEntity
  8
0
  6
SLD-Сплошная
 62
     7
370
    25
100
AcDbCircle
 10
397.6361828039
 20
127.38634323
 30
0.0
 40
3.001047232873246
100
AcDbArc
 50
181.5136848982
 51
358.4863151018
  0
LINE
  5
13B
330
1F
100
AcDbEntity
  8
0
  6
SLD-Сплошная
 62
     7
370
    25
100
AcDbLine
 10
394.6361828039
 20
127.3070684299
 30
0.0
 11
394.6361828039
 21
130.7234798252
 31
0.0
  0
ARC
  5
13C
330
1F
100
AcDbEntity
  8
0
  6
SLD-Сплошная
 62
     7
370
    25
100
AcDbCircle
 10
397.6361828039
 20
130.8027546254
 30
0.0
 40
3.001047232873189
100
AcDbArc
 50
181.5136848982
 51
358.4863151018
  0
LINE
  5
13D
330
1F
100
AcDbEntity
  8
0
  6
SLD-Сплошная
 62
     7
370
    25
100
AcDbLine
 10
400.6361828039
 20
127.3070684299
 30
0.0
 11
400.6361828039
 21
130.7234798252
 31
0.0
  0
LWPOLYLINE
  5
13E
330
1F
100
AcDbEntity
  8
0
  6
SLD-Сплошная
 62
     7
370
    25
100
AcDbPolyline
 90
       36
 70
   128
 43
0.0
 10
369.1361828039
 20
161.3376056643
 10
369.2509154251
 20
163.8052759847
 10
369.5941895289
 20
166.2530780745
 10
370.1632412741
 20
168.6613036708
 10
370.9534889907
 20
171.010563157
 10
371.9585700687
 20
173.2819416771
 10
373.1703921863
 20
175.4571514268
 10
374.5791984642
 20
177.5186788961
 10
376.1736460228
 20
179.4499258781
 10
377.9408973078
 20
181.2353431076
 10
379.866723451
 20
182.8605554549
 10
381.9356188325
 20
184.3124776658
 10
384.1309259235
 20
185.5794197163
 10
386.4349694018
 20
186.651180934
 10
388.8291984642
 20
187.5191321278
 10
391.2943361862
 20
188.176285065
 10
393.8105347281
 20
188.6173487366
 10
396.3575351389
 20
188.8387719571
 10
398.9148304689
 20
188.8387719571
 10
401.4618308797
 20
188.6173487366
 10
403.9780294217
 20
188.176285065
 10
406.4431671436
 20
187.5191321278
 10
408.8373962061
 20
186.651180934
 10
411.1414396844
 20
185.5794197163
 10
413.3367467753
 20
184.3124776658
 10
415.4056421569
 20
182.8605554549
 10
417.3314683001
 20
181.2353431076
 10
419.098719585
 20
179.4499258781
 10
420.6931671436
 20
177.5186788961
 10
422.1019734216
 20
175.4571514268
 10
423.3137955392
 20
173.2819416771
 10
424.3188766172
 20
171.010563157
 10
425.1091243338
 20
168.6613036708
 10
425.678176079
 20
166.2530780745
 10
426.0214501828
 20
163.8052759847
 10
426.1361828039
 20
161.3376056643
  0
ARC
  5
13F
330
1F
100
AcDbEntity
  8
0
  6
SLD-Сплошная
 62
     7
370
    25
100
AcDbCircle
 10
398.2351002484
 20
161.7624815211
 30
0.0
 40
27.90431735890899
100
AcDbArc
 50
274.9362336561
 51
359.127571056
  0
LINE
  5
140
330
1F
100
AcDbEntity
  8
0
  6
SLD-Сплошная
 62
     7
370
    25
100
AcDbLine
 10
400.6361828039
 20
130.7234798252
 30
0.0
 11
400.6361828039
 21
133.9616590543
 31
0.0
  0
LINE
  5
141
330
1F
100
AcDbEntity
  8
0
  6
SLD-Сплошная
 62
     7
370
    25
100
AcDbLine
 10
394.6361828039
 20
133.9616590543
 30
0.0
 11
394.6361828039
 21
130.7234798252
 31
0.0
  0
ARC
  5
142
330
1F
100
AcDbEntity
  8
0
  6
SLD-Сплошная
 62
     7
370
    25
100
AcDbCircle
 10
397.0372653595
 20
161.7624815211
 30
0.0
 40
27.90431735890916
100
AcDbArc
 50
180.872428944
 51
265.0637663439
  0
LWPOLYLINE
  5
143
330
1F
100
AcDbEntity
  8
0
  6
SLD-Сплошная
 62
     7
370
    25
100
AcDbPolyline
 90
       34
 70
   128
 43
0.0
 10
422.8361828039
 20
161.3376056643
 10
422.7220752528
 20
159.0238150676
 10
422.380785975
 20
156.7309785168
 10
421.815405739
 20
154.4798602948
 10
421.0310547159
 20
152.2908468768
 10
420.03483611
 20
150.1837623073
 10
418.8357718313
 20
148.1776886705
 10
417.4447207915
 20
146.2907932798
 10
415.8742805642
 20
144.5401641522
 10
414.1386732994
 20
142.941655256
 10
412.2536169251
 20
141.5097429354
 10
410.2361828039
 20
140.2573948101
 10
408.1046411316
 20
139.1959523387
 10
405.8782954795
 20
138.3350281085
 10
403.5773079788
 20
137.6824187826
 10
401.2225167284
 20
137.2440344923
 10
398.8352470827
 20
137.0238453135
 10
396.4371185252
 20
137.0238453135
 10
394.0498488794
 20
137.2440344923
 10
391.6950576291
 20
137.6824187826
 10
389.3940701283
 20
138.3350281085
 10
387.1677244763
 20
139.1959523387
 10
385.0361828039
 20
140.2573948101
 10
383.0187486827
 20
141.5097429354
 10
381.1336923085
 20
142.941655256
 10
379.3980850437
 20
144.5401641522
 10
377.8276448164
 20
146.2907932798
 10
376.4365937766
 20
148.1776886705
 10
375.2375294978
 20
150.1837623073
 10
374.2413108919
 20
152.2908468768
 10
373.4569598688
 20
154.4798602948
 10
372.8915796329
 20
156.7309785168
 10
372.5502903551
 20
159.0238150676
 10
372.4361828039
 20
161.3376056643
  0
LWPOLYLINE
  5
144
330
1F
100
AcDbEntity
  8
0
  6
SLD-Сплошная
 62
     7
370
    25
100
AcDbPolyline
 90
       34
 70
   128
 43
0.0
 10
372.4361828039
 20
161.3376056643
 10
372.5502903551
 20
163.6513962611
 10
372.8915796329
 20
165.9442328119
 10
373.4569598688
 20
168.1953510339
 10
374.2413108919
 20
170.3843644519
 10
375.2375294978
 20
172.4914490213
 10
376.4365937766
 20
174.4975226582
 10
377.8276448164
 20
176.3844180488
 10
379.3980850437
 20
178.1350471765
 10
381.1336923085
 20
179.7335560726
 10
383.0187486827
 20
181.1654683932
 10
385.0361828039
 20
182.4178165185
 10
387.1677244763
 20
183.47925899
 10
389.3940701283
 20
184.3401832202
 10
391.6950576291
 20
184.992792546
 10
394.0498488794
 20
185.4311768363
 10
396.4371185252
 20
185.6513660152
 10
398.8352470827
 20
185.6513660152
 10
401.2225167284
 20
185.4311768363
 10
403.5773079788
 20
184.992792546
 10
405.8782954795
 20
184.3401832202
 10
408.1046411316
 20
183.47925899
 10
410.2361828039
 20
182.4178165185
 10
412.2536169251
 20
181.1654683932
 10
414.1386732994
 20
179.7335560726
 10
415.8742805642
 20
178.1350471765
 10
417.4447207915
 20
176.3844180488
 10
418.8357718313
 20
174.4975226582
 10
420.03483611
 20
172.4914490213
 10
421.0310547159
 20
170.3843644519
 10
421.815405739
 20
168.1953510339
 10
422.380785975
 20
165.9442328119
 10
422.7220752528
 20
163.6513962611
 10
422.8361828039
 20
161.3376056643
  0
LINE
  5
145
330
1F
100
AcDbEntity
  8
0
  6
SLD-Сплошная
 62
     7
370
    25
100
AcDbLine
 10
426.1361828039
 20
161.3376056643
 30
0.0
 11
426.1361828039
 21
158.4979293745
 31
0.0
  0
LINE
  5
146
330
1F
100
AcDbEntity
  8
0
  6
SLD-Сплошная
 62
     7
370
    25
100
AcDbLine
 10
369.1361828039
 20
161.3376056643
 30
0.0
 11
369.1361828039
 21
157.7011980806
 31
0.0
  0
ARC
  5
147
330
1F
100
AcDbEntity
  8
0
  6
SLD-Сплошная
 62
     7
370
    25
100
AcDbCircle
 10
398.2206902484
 20
158.1394964869
 30
0.0
 40
27.91893318358918
100
AcDbArc
 50
274.9633262062
 51
359.1004785059
  0
ARC
  5
148
330
1F
100
AcDbEntity
  8
0
  6
SLD-Сплошная
 62
     7
370
    25
100
AcDbCircle
 10
397.0405379283
 20
158.1291222522
 30
0.0
 40
27.90763612355012
100
AcDbArc
 50
180.8785842613
 51
265.0576110266
  0
ARC
  5
149
330
1F
100
AcDbEntity
  8
0
  6
SLD-Сплошная
 62
     7
370
    25
100
AcDbCircle
 10
398.0202944024
 20
148.8570992834
 30
0.0
 40
24.93409428394838
100
AcDbArc
 50
15.2383419734
 51
84.3476384691
  0
ARC
  5
14A
330
1F
100
AcDbEntity
  8
0
  6
SLD-Сплошная
 62
     7
370
    25
100
AcDbCircle
 10
397.2523832967
 20
148.8569056487
 30
0.0
 40
24.93444629647115
100
AcDbArc
 50
95.6247993879
 51
164.7614172154
  0
LINE
  5
14B
330
1F
100
AcDbEntity
  8
0
  6
SLD-Сплошная
 62
     7
370
    25
100
AcDbLine
 10
393.6376594619
 20
137.3046449048
 30
0.0
 11
393.6361828039
 21
137.40962057
 31
0.0
  0
LINE
  5
14C
330
1F
100
AcDbEntity
  8
0
  6
SLD-Сплошная
 62
     7
370
    25
100
AcDbLine
 10
401.6361828039
 20
137.40962057
 30
0.0
 11
401.634706146
 21
137.3046449048
 31
0.0
  0
LINE
  5
14D
330
1F
100
AcDbEntity
  8
0
  6
SLD-Сплошная
 62
     7
370
    25
100
AcDbLine
 10
382.1456867263
 20
160.3824358583
 30
0.0
 11
382.1653785977
 21
161.0162050157
 31
0.0
  0
LINE
  5
14E
330
1F
100
AcDbEntity
  8
0
  6
SLD-Сплошная
 62
     7
370
    25
100
AcDbLine
 10
388.1266788816
 20
160.8433888178
 30
0.0
 11
388.1069870102
 21
160.2096196604
 31
0.0
  0
ARC
  5
14F
330
1F
100
AcDbEntity
  8
0
  6
SLD-Сплошная
 62
     7
370
    25
100
AcDbCircle
 10
385.1407589706
 20
150.8082531552
 30
0.0
 40
3.005701156340966
100
AcDbArc
 50
181.5676624115
 51
350.7040906647
  0
ARC
  5
150
330
1F
100
AcDbEntity
  8
0
  6
SLD-Сплошная
 62
     7
370
    25
100
AcDbCircle
 10
410.1460135426
 20
150.8166949843
 30
0.0
 40
3.011196133591627
100
AcDbArc
 50
181.7254948346
 51
336.0383552604
  0
LWPOLYLINE
  5
151
330
1F
100
AcDbEntity
  8
0
  6
SLD-Сплошная
 62
     7
370
    25
100
AcDbPolyline
 90
        3
 70
   128
 43
0.0
 10
413.1361828039
 20
150.7260248151
 10
413.1160816607
 20
150.3911356659
 10
412.8976973643
 20
149.5937729507
  0
LINE
  5
152
330
1F
100
AcDbEntity
  8
0
  6
SLD-Сплошная
 62
     7
370
    25
100
AcDbLine
 10
388.1361828039
 20
150.7260248151
 30
0.0
 11
388.1069870102
 21
150.3227321375
 31
0.0
  0
LINE
  5
153
330
1F
100
AcDbEntity
  8
0
  6
SLD-Сплошная
 62
     7
370
    25
100
AcDbLine
 10
394.6369444349
 20
172.6216925394
 30
0.0
 11
394.6361828039
 21
172.6869851667
 31
0.0
  0
LINE
  5
154
330
1F
100
AcDbEntity
  8
0
  6
SLD-Сплошная
 62
     7
370
    25
100
AcDbLine
 10
400.6354211729
 20
172.7522777939
 30
0.0
 11
400.6361828039
 21
172.6869851667
 31
0.0
  0
ARC
  5
155
330
1F
100
AcDbEntity
  8
0
  6
SLD-Сплошная
 62
     7
370
    25
100
AcDbCircle
 10
397.6429217583
 20
162.8820841877
 30
0.0
 40
3.007856534673501
100
AcDbArc
 50
181.5619311521
 51
344.9106109637
  0
LINE
  5
156
330
1F
100
AcDbEntity
  8
0
  6
SLD-Сплошная
 62
     7
370
    25
100
AcDbLine
 10
400.6361828039
 20
162.8000976437
 30
0.0
 11
400.5470699828
 21
162.099061823
 31
0.0
  0
ARC
  5
157
330
1F
100
AcDbEntity
  8
0
  6
SLD-Сплошная
 62
     7
370
    25
100
AcDbCircle
 10
398.1422436917
 20
151.9867625498
 30
0.0
 40
27.156577443799
100
AcDbArc
 50
272.2952620011
 51
357.9364166188
  0
ARC
  5
158
330
1F
100
AcDbEntity
  8
0
  6
SLD-Сплошная
 62
     7
370
    25
100
AcDbCircle
 10
397.1101774916
 20
151.966898609
 30
0.0
 40
27.13593742716121
100
AcDbArc
 50
182.0231855188
 51
267.745135862
  0
LINE
  5
159
330
1F
100
AcDbEntity
  8
0
  6
SLD-Сплошная
 62
     7
370
    25
100
AcDbLine
 10
419.2936292029
 20
139.8066559297
 30
0.0
 11
419.2936292029
 21
135.1446172405
 31
0.0
  0
ARC
  5
15A
330
1F
100
AcDbEntity
  8
0
  6
SLD-Сплошная
 62
     7
370
    25
100
AcDbCircle
 10
399.1404613402
 20
151.8038035516
 30
0.0
 40
26.14724963460169
100
AcDbArc
 50
320.42188863
 51
358.2044222638
  0
ARC
  5
15B
330
1F
100
AcDbEntity
  8
0
  6
SLD-Сплошная
 62
     7
370
    25
100
AcDbCircle
 10
399.0457806871
 20
151.8453574712
 30
0.0
 40
26.04894734535102
100
AcDbArc
 50
321.0140324874
 51
353.1030805867
  0
LINE
  5
15C
330
1F
100
AcDbEntity
  8
0
  6
SLD-Сплошная
 62
     7
370
    25
100
AcDbLine
 10
421.2716827712
 20
142.3186013493
 30
0.0
 11
421.2716827712
 21
141.8073083089
 31
0.0
  0
LINE
  5
15D
330
1F
100
AcDbEntity
  8
0
  6
SLD-Сплошная
 62
     7
370
    25
100
AcDbLine
 10
421.4346646496
 20
141.8073083089
 30
0.0
 11
421.2716827712
 21
141.5371315366
 31
0.0
  0
LINE
  5
15E
330
1F
100
AcDbEntity
  8
0
  6
SLD-Сплошная
 62
     7
370
    25
100
AcDbLine
 10
421.2716827712
 20
141.5371315366
 30
0.0
 11
421.2716827712
 21
139.6459137564
 31
0.0
  0
LINE
  5
15F
330
1F
100
AcDbEntity
  8
0
  6
SLD-Сплошная
 62
     7
370
    25
100
AcDbLine
 10
423.4078851811
 20
145.8919156847
 30
0.0
 11
423.3035816006
 21
145.6217389124
 31
0.0
  0
LINE
  5
160
330
1F
100
AcDbEntity
  8
0
  6
SLD-Сплошная
 62
     7
370
    25
100
AcDbLine
 10
423.3035816006
 20
145.6217389124
 30
0.0
 11
423.3035816006
 21
143.7305211322
 31
0.0
  0
LINE
  5
161
330
1F
100
AcDbEntity
  8
0
  6
SLD-Сплошная
 62
     7
370
    25
100
AcDbLine
 10
421.503668191
 20
142.6178288128
 30
0.0
 11
421.503668191
 21
141.8073083089
 31
0.0
  0
LINE
  5
162
330
1F
100
AcDbEntity
  8
0
  6
SLD-Сплошная
 62
     7
370
    25
100
AcDbLine
 10
421.2716827712
 20
141.8073083089
 30
0.0
 11
421.503668191
 21
141.8073083089
 31
0.0
  0
LINE
  5
163
330
1F
100
AcDbEntity
  8
0
  6
SLD-Сплошная
 62
     7
370
    25
100
AcDbLine
 10
421.4774837332
 20
142.6178288128
 30
0.0
 11
421.503668191
 21
142.6178288128
 31
0.0
  0
LINE
  5
164
330
1F
100
AcDbEntity
  8
0
  6
SLD-Сплошная
 62
     7
370
    25
100
AcDbLine
 10
421.720305092
 20
142.9821538012
 30
0.0
 11
421.503668191
 21
142.6178288128
 31
0.0
  0
LINE
  5
165
330
1F
100
AcDbEntity
  8
0
  6
SLD-Сплошная
 62
     7
370
    25
100
AcDbLine
 10
423.132109654
 20
144.9561160958
 30
0.0
 11
423.132109654
 21
145.3990902304
 31
0.0
  0
ARC
  5
166
330
1F
100
AcDbEntity
  8
0
  6
SLD-Сплошная
 62
     7
370
    25
100
AcDbCircle
 10
398.9602599102
 20
155.4613735014
 30
0.0
 40
26.35600032616783
100
AcDbArc
 50
328.7975978234
 51
336.5098922865
  0
LINE
  5
167
330
1F
100
AcDbEntity
  8
0
  6
SLD-Сплошная
 62
     7
370
    25
100
AcDbLine
 10
423.5173605397
 20
146.1740706357
 30
0.0
 11
423.5173605397
 21
145.8919156847
 31
0.0
  0
LINE
  5
168
330
1F
100
AcDbEntity
  8
0
  6
SLD-Сплошная
 62
     7
370
    25
100
AcDbLine
 10
423.3806605179
 20
145.8919156847
 30
0.0
 11
423.5173605397
 21
145.8919156847
 31
0.0
  0
LWPOLYLINE
  5
169
330
1F
100
AcDbEntity
  8
0
  6
SLD-Сплошная
 62
     7
370
    25
100
AcDbPolyline
 90
        3
 70
   128
 43
0.0
 10
424.0058195557
 20
147.2579245962
 10
423.9708383282
 20
147.1515625347
 10
423.5173605397
 20
145.8919156847
  0
LINE
  5
16A
330
1F
100
AcDbEntity
  8
0
  6
SLD-Сплошная
 62
     7
370
    25
100
AcDbLine
 10
441.6361828039
 20
104.575767527
 30
0.0
 11
441.6361828039
 21
97.575767527
 31
0.0
  0
SPLINE
  5
16B
330
1F
100
AcDbEntity
  8
0
  6
SLD-Сплошная
 62
     7
370
    25
100
AcDbSpline
210
0.0
220
0.0
230
1.0
 70
    24
 71
     3
 72
    22
 73
    18
 74
     0
 42
0.00000001
 43
0.00000001
 40
0.0
 40
0.0
 40
0.0
 40
0.0
 40
0.125
 40
0.125
 40
0.25
 40
0.25
 40
0.375
 40
0.375
 40
0.5
 40
0.5
 40
0.625
 40
0.625
 40
0.75
 40
0.75
 40
0.875
 40
0.875
 40
1.0
 40
1.0
 40
1.0
 40
1.0
 10
441.6361828039342
 20
97.57576752701385
 30
0.0
 10
441.6361828039342
 20
97.57576752701382
 30
0.0
 10
441.604752720311
 20
97.57576752701385
 30
0.0
 10
441.4672773085564
 20
97.57576752701391
 30
0.0
 10
441.361111490681
 20
97.5757675270138
 30
0.0
 10
441.0687137299366
 20
97.57576752701377
 30
0.0
 10
440.8824127972121
 20
97.5757675270138
 30
0.0
 10
440.4338989452801
 20
97.57576752701377
 30
0.0
 10
440.1717167098669
 20
97.5757675270138
 30
0.0
 10
439.58593027224
 20
97.5757675270138
 30
0.0
 10
439.2624579448956
 20
97.57576752701377
 30
0.0
 10
438.5764247035944
 20
97.57576752701372
 30
0.0
 10
438.214041912457
 20
97.5757675270138
 30
0.0
 10
437.4754602101537
 20
97.57576752701377
 30
0.0
 10
437.0994110051055
 20
97.57576752701385
 30
0.0
 10
436.3565112317085
 20
97.57576752701391
 30
0.0
 10
435.9897361945273
 20
97.57576752701382
 30
0.0
 10
435.6361828039341
 20
97.57576752701385
 30
0.0
  0
SPLINE
  5
16C
330
1F
100
AcDbEntity
  8
0
  6
SLD-Сплошная
 62
     7
370
    25
100
AcDbSpline
210
0.0
220
0.0
230
1.0
 70
    24
 71
     3
 72
    22
 73
    18
 74
     0
 42
0.00000001
 43
0.00000001
 40
0.0
 40
0.0
 40
0.0
 40
0.0
 40
0.125
 40
0.125
 40
0.25
 40
0.25
 40
0.375
 40
0.375
 40
0.5
 40
0.5
 40
0.625
 40
0.625
 40
0.75
 40
0.75
 40
0.875
 40
0.875
 40
1.0
 40
1.0
 40
1.0
 40
1.0
 10
435.6361828039343
 20
104.5757675270139
 30
0.0
 10
435.9897361945275
 20
104.5757675270139
 30
0.0
 10
436.3565112317086
 20
104.5757675270138
 30
0.0
 10
437.0994110051057
 20
104.5757675270138
 30
0.0
 10
437.4754602101539
 20
104.5757675270138
 30
0.0
 10
438.2140419124572
 20
104.5757675270138
 30
0.0
 10
438.5764247035945
 20
104.5757675270138
 30
0.0
 10
439.2624579448957
 20
104.5757675270138
 30
0.0
 10
439.5859302722401
 20
104.5757675270138
 30
0.0
 10
440.171716709867
 20
104.5757675270138
 30
0.0
 10
440.4338989452802
 20
104.5757675270138
 30
0.0
 10
440.8824127972122
 20
104.5757675270138
 30
0.0
 10
441.0687137299366
 20
104.5757675270138
 30
0.0
 10
441.3611114906811
 20
104.5757675270138
 30
0.0
 10
441.4672773085564
 20
104.5757675270138
 30
0.0
 10
441.604752720311
 20
104.5757675270138
 30
0.0
 10
441.6361828039342
 20
104.5757675270139
 30
0.0
 10
441.6361828039342
 20
104.5757675270139
 30
0.0
  0
LINE
  5
16D
330
1F
100
AcDbEntity
  8
0
  6
SLD-Сплошная
 62
     7
370
    25
100
AcDbLine
 10
359.6361828039
 20
104.575767527
 30
0.0
 11
435.6361828039
 21
104.575767527
 31
0.0
  0
LINE
  5
16E
330
1F
100
AcDbEntity
  8
0
  6
SLD-Сплошная
 62
     7
370
    25
100
AcDbLine
 10
359.6361828039
 20
97.575767527
 30
0.0
 11
435.6361828039
 21
97.575767527
 31
0.0
  0
LINE
  5
16F
330
1F
100
AcDbEntity
  8
0
  6
SLD-Сплошная
 62
     7
370
    25
100
AcDbLine
 10
353.6361828039
 20
97.575767527
 30
0.0
 11
353.6361828039
 21
104.575767527
 31
0.0
  0
SPLINE
  5
170
330
1F
100
AcDbEntity
  8
0
  6
SLD-Сплошная
 62
     7
370
    25
100
AcDbSpline
210
0.0
220
0.0
230
1.0
 70
    24
 71
     3
 72
    22
 73
    18
 74
     0
 42
0.00000001
 43
0.00000001
 40
0.0
 40
0.0
 40
0.0
 40
0.0
 40
0.125
 40
0.125
 40
0.25
 40
0.25
 40
0.375
 40
0.375
 40
0.5
 40
0.5
 40
0.625
 40
0.625
 40
0.75
 40
0.75
 40
0.875
 40
0.875
 40
1.0
 40
1.0
 40
1.0
 40
1.0
 10
353.6361828039338
 20
104.5757675270139
 30
0.0
 10
353.6361828039339
 20
104.5757675270139
 30
0.0
 10
353.667612887557
 20
104.5757675270138
 30
0.0
 10
353.8050882993118
 20
104.5757675270138
 30
0.0
 10
353.9112541171871
 20
104.5757675270138
 30
0.0
 10
354.2036518779316
 20
104.5757675270138
 30
0.0
 10
354.389952810656
 20
104.5757675270138
 30
0.0
 10
354.838466662588
 20
104.5757675270138
 30
0.0
 10
355.1006488980012
 20
104.5757675270138
 30
0.0
 10
355.6864353356282
 20
104.5757675270138
 30
0.0
 10
356.0099076629725
 20
104.5757675270138
 30
0.0
 10
356.6959409042738
 20
104.5757675270138
 30
0.0
 10
357.0583236954112
 20
104.5757675270138
 30
0.0
 10
357.7969053977146
 20
104.5757675270138
 30
0.0
 10
358.1729546027628
 20
104.5757675270138
 30
0.0
 10
358.9158543761599
 20
104.5757675270139
 30
0.0
 10
359.2826294133411
 20
104.5757675270139
 30
0.0
 10
359.6361828039344
 20
104.5757675270139
 30
0.0
  0
SPLINE
  5
171
330
1F
100
AcDbEntity
  8
0
  6
SLD-Сплошная
 62
     7
370
    25
100
AcDbSpline
210
0.0
220
0.0
230
1.0
 70
    24
 71
     3
 72
    22
 73
    18
 74
     0
 42
0.00000001
 43
0.00000001
 40
0.0
 40
0.0
 40
0.0
 40
0.0
 40
0.125
 40
0.125
 40
0.25
 40
0.25
 40
0.375
 40
0.375
 40
0.5
 40
0.5
 40
0.625
 40
0.625
 40
0.75
 40
0.75
 40
0.875
 40
0.875
 40
1.0
 40
1.0
 40
1.0
 40
1.0
 10
359.6361828039344
 20
97.57576752701385
 30
0.0
 10
359.2826294133411
 20
97.57576752701388
 30
0.0
 10
358.91585437616
 20
97.5757675270138
 30
0.0
 10
358.1729546027628
 20
97.57576752701377
 30
0.0
 10
357.7969053977146
 20
97.57576752701375
 30
0.0
 10
357.0583236954112
 20
97.57576752701372
 30
0.0
 10
356.6959409042739
 20
97.57576752701375
 30
0.0
 10
356.0099076629726
 20
97.57576752701377
 30
0.0
 10
355.6864353356282
 20
97.57576752701375
 30
0.0
 10
355.1006488980012
 20
97.57576752701377
 30
0.0
 10
354.838466662588
 20
97.57576752701377
 30
0.0
 10
354.389952810656
 20
97.57576752701377
 30
0.0
 10
354.2036518779316
 20
97.57576752701375
 30
0.0
 10
353.9112541171871
 20
97.57576752701377
 30
0.0
 10
353.8050882993117
 20
97.57576752701377
 30
0.0
 10
353.667612887557
 20
97.5757675270138
 30
0.0
 10
353.6361828039339
 20
97.57576752701385
 30
0.0
 10
353.6361828039338
 20
97.57576752701385
 30
0.0
  0
ARC
  5
172
330
1F
100
AcDbEntity
  8
0
  6
SLD-Сплошная
 62
     7
370
    25
100
AcDbCircle
 10
398.9602599102
 20
155.1911967291
 30
0.0
 40
26.3560003261735
100
AcDbArc
 50
328.7975978234
 51
336.5098922865
  0
LINE
  5
173
330
1F
100
AcDbEntity
  8
0
  6
SLD-Сплошная
 62
     7
370
    25
100
AcDbLine
 10
423.132109654
 20
142.7947215433
 30
0.0
 11
423.132109654
 21
144.6859393235
 31
0.0
  0
ARC
  5
174
330
1F
100
AcDbEntity
  8
0
  6
SLD-Сплошная
 62
     7
370
    25
100
AcDbCircle
 10
398.9602599102
 20
153.2999789489
 30
0.0
 40
26.35600032615561
100
AcDbArc
 50
328.7975978234
 51
336.5098922865
  0
LINE
  5
175
330
1F
100
AcDbEntity
  8
0
  6
SLD-Сплошная
 62
     7
370
    25
100
AcDbLine
 10
421.503668191
 20
141.5371315366
 30
0.0
 11
421.503668191
 21
139.6459137564
 31
0.0
  0
LINE
  5
176
330
1F
100
AcDbEntity
  8
0
  6
SLD-Сплошная
 62
     7
370
    25
100
AcDbLine
 10
421.2716827712
 20
139.6459137564
 30
0.0
 11
421.503668191
 21
139.6459137564
 31
0.0
  0
LINE
  5
177
330
1F
100
AcDbEntity
  8
0
  6
SLD-Сплошная
 62
     7
370
    25
100
AcDbLine
 10
421.2716827712
 20
141.5371315366
 30
0.0
 11
421.503668191
 21
141.5371315366
 31
0.0
  0
LINE
  5
178
330
1F
100
AcDbEntity
  8
0
  6
SLD-Сплошная
 62
     7
370
    25
100
AcDbLine
 10
423.0129155189
 20
144.6859393235
 30
0.0
 11
423.132109654
 21
144.6859393235
 31
0.0
  0
LWPOLYLINE
  5
179
330
1F
100
AcDbEntity
  8
0
  6
SLD-Сплошная
 62
     7
370
    25
100
AcDbPolyline
 90
        3
 70
   128
 43
0.0
 10
424.8670215939
 20
149.5775712944
 10
424.7666784545
 20
149.0574877601
 10
424.5731878206
 20
148.1843484623
  0
LINE
  5
17A
330
1F
100
AcDbEntity
  8
0
  6
SLD-Сплошная
 62
     7
370
    25
100
AcDbLine
 10
424.5731878206
 20
147.91417169
 30
0.0
 11
424.5731878206
 21
148.1843484623
 31
0.0
  0
ARC
  5
17B
330
1F
100
AcDbEntity
  8
0
  6
SLD-Сплошная
 62
     7
370
    25
100
AcDbCircle
 10
399.393768544
 20
153.9521497457
 30
0.0
 40
25.89324881331876
100
AcDbArc
 50
346.5152027265
 51
350.9980266528
  0
ARC
  5
17C
330
1F
100
AcDbEntity
  8
0
  6
SLD-Сплошная
 62
     7
370
    25
100
AcDbCircle
 10
399.344659528
 20
153.1489594347
 30
0.0
 40
25.9427534054659
100
AcDbArc
 50
338.7125600981
 51
354.2393832796
  0
LINE
  5
17D
330
1F
100
AcDbEntity
  8
0
  6
SLD-Сплошная
 62
     7
370
    25
100
AcDbLine
 10
423.5173605397
 20
145.6217389124
 30
0.0
 11
423.5173605397
 21
143.7305211322
 31
0.0
  0
LWPOLYLINE
  5
17E
330
1F
100
AcDbEntity
  8
0
  6
SLD-Сплошная
 62
     7
370
    25
100
AcDbPolyline
 90
        3
 70
   128
 43
0.0
 10
424.3288929923
 20
148.0540590293
 10
423.9708383282
 20
146.8813857624
 10
423.5173605397
 20
145.6217389124
  0
LINE
  5
17F
330
1F
100
AcDbEntity
  8
0
  6
SLD-Сплошная
 62
     7
370
    25
100
AcDbLine
 10
423.3035816006
 20
145.6217389124
 30
0.0
 11
423.5173605397
 21
145.6217389124
 31
0.0
  0
LINE
  5
180
330
1F
100
AcDbEntity
  8
0
  6
SLD-Сплошная
 62
     7
370
    25
100
AcDbLine
 10
423.3035816006
 20
143.7305211322
 30
0.0
 11
423.5173605397
 21
143.7305211322
 31
0.0
  0
LWPOLYLINE
  5
181
330
1F
100
AcDbEntity
  8
0
  6
SLD-Сплошная
 62
     7
370
    25
100
AcDbPolyline
 90
        3
 70
   128
 43
0.0
 10
369.1361828039
 20
151.5154229027
 10
369.2477083748
 20
153.9484287312
 10
369.3166269848
 20
154.6083104917
  0
LWPOLYLINE
  5
182
330
1F
100
AcDbEntity
  8
0
  6
SLD-Сплошная
 62
     7
370
    25
100
AcDbPolyline
 90
       39
 70
   128
 43
0.0
 10
425.955738623
 20
154.6083104917
 10
426.1082877598
 20
152.7331176643
 10
426.1082877598
 20
150.2977281411
 10
425.8854549346
 20
147.8718687305
 10
425.4415332532
 20
145.4745250713
 10
424.7799970046
 20
143.1244596283
 10
423.906023607
 20
140.8400648498
 10
422.8264530872
 20
138.6392192222
 10
421.5497345481
 20
136.5391473466
 10
420.0858600435
 20
134.5562851328
 10
418.446286376
 20
132.7061511662
 10
416.6438454328
 20
131.0032252534
 10
414.6926437579
 20
129.4608350987
 10
412.60795215
 20
128.0910519962
 10
410.4060861476
 20
126.9045963561
 10
408.1042783374
 20
125.9107538023
 10
405.7205434865
 20
125.1173025002
 10
403.273537552
 20
124.5304522822
 10
400.7824116733
 20
124.1547960469
 10
398.2666622878
 20
123.9932738137
 10
395.7459785455
 20
124.047149713
 10
393.2400882144
 20
124.3160020928
 10
390.7686032839
 20
124.7977268189
 10
388.3508664746
 20
125.4885537419
 10
386.005799855
 20
126.3830762047
 10
383.7517567511
 20
127.4742933561
 10
381.6063781062
 20
128.7536649424
 10
379.5864544171
 20
130.2111781462
 10
377.7077943253
 20
131.8354259507
 10
375.9851008933
 20
133.6136964144
 10
374.4318565329
 20
135.5320721599
 10
373.0602174871
 20
137.575539296
 10
371.8809186913
 20
139.7281049217
 10
370.9031897574
 20
141.9729222925
 10
370.13468274
 20
144.2924226687
 10
369.5814122486
 20
146.6684528151
 10
369.2477083748
 20
149.0824170742
 10
369.1361828039
 20
151.5154229027
 10
369.1361828039
 20
151.5154229027
  0
LINE
  5
183
330
1F
100
AcDbEntity
  8
0
  6
SLD-Сплошная
 62
     7
370
    25
100
AcDbLine
 10
426.1361828039
 20
150.7333580214
 30
0.0
 11
426.1361828039
 21
149.4836933986
 31
0.0
  0
LWPOLYLINE
  5
184
330
1F
100
AcDbEntity
  8
0
  6
SLD-Сплошная
 62
     7
370
    25
100
AcDbPolyline
 90
       36
 70
   128
 43
0.0
 10
426.1361828039
 20
149.4836933986
 10
426.0214501828
 20
147.0160230783
 10
425.678176079
 20
144.5682209884
 10
425.1091243338
 20
142.1599953921
 10
424.3188766172
 20
139.8107359059
 10
423.3137955392
 20
137.5393573858
 10
422.1019734216
 20
135.3641476362
 10
420.6931671436
 20
133.3026201669
 10
419.098719585
 20
131.3713731849
 10
417.3314683001
 20
129.5859559554
 10
415.4056421569
 20
127.9607436081
 10
413.3367467753
 20
126.5088213972
 10
411.1414396844
 20
125.2418793467
 10
408.8373962061
 20
124.170118129
 10
406.4431671436
 20
123.3021669352
 10
403.9780294217
 20
122.645013998
 10
401.4618308797
 20
122.2039503264
 10
398.9148304689
 20
121.9825271058
 10
396.3575351389
 20
121.9825271058
 10
393.8105347281
 20
122.2039503264
 10
391.2943361862
 20
122.645013998
 10
388.8291984642
 20
123.3021669352
 10
386.4349694018
 20
124.170118129
 10
384.1309259235
 20
125.2418793467
 10
381.9356188325
 20
126.5088213972
 10
379.866723451
 20
127.9607436081
 10
377.9408973078
 20
129.5859559554
 10
376.1736460228
 20
131.3713731849
 10
374.5791984642
 20
133.3026201669
 10
373.1703921863
 20
135.3641476362
 10
371.9585700687
 20
137.5393573858
 10
370.9534889907
 20
139.8107359059
 10
370.1632412741
 20
142.1599953921
 10
369.5941895289
 20
144.5682209884
 10
369.2509154251
 20
147.0160230783
 10
369.1361828039
 20
149.4836933986
  0
LINE
  5
185
330
1F
100
AcDbEntity
  8
0
  6
SLD-Сплошная
 62
     7
370
    25
100
AcDbLine
 10
369.1361828039
 20
151.5154229027
 30
0.0
 11
369.1361828039
 21
149.4836933986
 31
0.0
  0
ARC
  5
186
330
1F
100
AcDbEntity
  8
0
  6
SLD-Сплошная
 62
     7
370
    25
100
AcDbCircle
 10
396.0552211809
 20
149.2661390553
 30
0.0
 40
36.21969175528145
100
AcDbArc
 50
122.901717859
 51
179.6558496211
  0
ARC
  5
187
330
1F
100
AcDbEntity
  8
0
  6
SLD-Сплошная
 62
     7
370
    25
100
AcDbCircle
 10
399.240951708
 20
149.2791846214
 30
0.0
 40
36.19580884474932
100
AcDbArc
 50
0.3237267664
 51
57.1187057536
  0
ARC
  5
188
330
1F
100
AcDbEntity
  8
0
  6
SLD-Сплошная
 62
     7
370
    25
100
AcDbCircle
 10
398.642224234
 20
149.9420544177
 30
0.0
 40
36.79681347715992
100
AcDbArc
 50
282.8126033233
 51
359.2862743099
  0
ARC
  5
189
330
1F
100
AcDbEntity
  8
0
  6
SLD-Сплошная
 62
     7
370
    25
100
AcDbCircle
 10
397.6361828039
 20
115.8947829501
 30
0.0
 40
9.347755626696156
100
AcDbArc
 50
191.3104175872
 51
348.6895824128
  0
ARC
  5
18A
330
1F
100
AcDbEntity
  8
0
  6
SLD-Сплошная
 62
     7
370
    25
100
AcDbCircle
 10
396.6049794036
 20
149.9217145796
 30
0.0
 40
36.77140554750299
100
AcDbArc
 50
180.682523776
 51
257.2185985908
  0
LINE
  5
18B
330
1F
100
AcDbEntity
  8
0
  6
SLD-Сплошная
 62
     7
370
    25
100
AcDbLine
 10
406.8023958105
 20
113.1038291687
 30
0.0
 11
406.8023958105
 21
114.0614596356
 31
0.0
  0
ARC
  5
18C
330
1F
100
AcDbEntity
  8
0
  6
SLD-Сплошная
 62
     7
370
    25
100
AcDbCircle
 10
397.6361828039
 20
114.9371524832
 30
0.0
 40
9.347755626696118
100
AcDbArc
 50
191.3104175872
 51
348.6895824128
  0
LINE
  5
18D
330
1F
100
AcDbEntity
  8
0
  6
SLD-Сплошная
 62
     7
370
    25
100
AcDbLine
 10
388.4699697974
 20
114.0614596356
 30
0.0
 11
388.4699697974
 21
113.1038291687
 31
0.0
  0
SPLINE
  5
18E
330
1F
100
AcDbEntity
  8
0
  6
SLD-Сплошная
 62
     7
370
    25
100
AcDbSpline
210
0.0
220
0.0
230
1.0
 70
     8
 71
     3
 72
    36
 73
    32
 74
     0
 42
0.00000001
 43
0.00000001
 40
0.0
 40
0.0
 40
0.0
 40
0.0
 40
0.0141581473177405
 40
0.0288682062976394
 40
0.0441393177694518
 40
0.0599762153610994
 40
0.076382666585661
 40
0.0933643498165339
 40
0.1109256737039293
 40
0.1290699643968022
 40
0.147799631692694
 40
0.1671163171903267
 40
0.187021027204388
 40
0.2075142528714896
 40
0.2285960795565554
 40
0.2502662873741148
 40
0.3065175778222897
 40
0.3669110100307667
 40
0.4314314783653827
 40
0.5000608205771747
 40
0.5608689904179811
 40
0.624881431895592
 40
0.6560730712139854
 40
0.6872709529797575
 40
0.749714625548952
 40
0.8159194892906877
 40
0.8749183224068218
 40
0.9095426687502354
 40
0.9419198722763872
 40
0.9720656009247555
 40
1.0
 40
1.0
 40
1.0
 40
1.0
 10
433.636182803927
 20
132.5048222276429
 30
0.0
 10
433.6761545976366
 20
132.4380035995659
 30
0.0
 10
433.757656362027
 20
132.3017616254881
 30
0.0
 10
433.8716852283636
 20
132.087826345039
 30
0.0
 10
433.9824399733362
 20
131.8621596511604
 30
0.0
 10
434.0887516446774
 20
131.6243606741623
 30
0.0
 10
434.1906340904314
 20
131.374722341065
 30
0.0
 10
434.2878833417827
 20
131.1133534390979
 30
0.0
 10
434.3803650783906
 20
130.8403944821212
 30
0.0
 10
434.4679244884055
 20
130.555974070493
 30
0.0
 10
434.5504096723151
 20
130.2602256975487
 30
0.0
 10
434.6276651426243
 20
129.9532826864856
 30
0.0
 10
434.6995337245827
 20
129.6352792335572
 30
0.0
 10
434.76585612196
 20
129.3063497931246
 30
0.0
 10
434.8264709759245
 20
128.9666285432831
 30
0.0
 10
434.9098406440008
 20
128.4330410773039
 30
0.0
 10
434.9986758654293
 20
127.6838281258719
 30
0.0
 10
435.0679675342274
 20
126.6984873032224
 30
0.0
 10
435.0944077425427
 20
125.6435482553455
 30
0.0
 10
435.0750399576364
 20
124.5861776503446
 30
0.0
 10
435.0181522458618
 20
123.5332161741495
 30
0.0
 10
434.9464623167302
 20
122.6855347953638
 30
0.0
 10
434.8744840300375
 20
122.0001400368609
 30
0.0
 10
434.7944792658819
 20
121.3241156344663
 30
0.0
 10
434.6708736006613
 20
120.4610108021106
 30
0.0
 10
434.4884139492266
 20
119.4532818972939
 30
0.0
 10
434.2967537381302
 20
118.6018278514447
 30
0.0
 10
434.1197413090481
 20
117.9365803759181
 30
0.0
 10
433.9661760465514
 20
117.428195924416
 30
0.0
 10
433.8081603007446
 20
116.9592605287911
 30
0.0
 10
433.692034858312
 20
116.6632272915672
 30
0.0
 10
433.6361828039375
 20
116.5208462240271
 30
0.0
  0
SPLINE
  5
18F
330
1F
100
AcDbEntity
  8
0
  6
SLD-Сплошная
 62
     7
370
    25
100
AcDbSpline
210
0.0
220
0.0
230
1.0
 70
     8
 71
     3
 72
    32
 73
    28
 74
     0
 42
0.00000001
 43
0.00000001
 40
0.0
 40
0.0
 40
0.0
 40
0.0
 40
0.0184579223402186
 40
0.0379042702372757
 40
0.0583466117483737
 40
0.0797904719210269
 40
0.1022396973363226
 40
0.1257002253020764
 40
0.184478410836932
 40
0.2504086644709132
 40
0.3125445565792309
 40
0.3435981742729436
 40
0.3746510650568945
 40
0.4384289095899351
 40
0.4989710067270947
 40
0.5677349049020707
 40
0.6323774762330591
 40
0.6928802442200552
 40
0.74922805642559
 40
0.7868497762632066
 40
0.8226630156546153
 40
0.8566685497727418
 40
0.8888714943472386
 40
0.9192832786055154
 40
0.9479240096928515
 40
0.9748201094484005
 40
1.0
 40
1.0
 40
1.0
 40
1.0
 10
361.6361828039341
 20
116.5208462240085
 30
0.0
 10
361.5988816012178
 20
116.6147736661016
 30
0.0
 10
361.522281708669
 20
116.807658384228
 30
0.0
 10
361.4144335874445
 20
117.1081334629679
 30
0.0
 10
361.3081978074871
 20
117.4262775679261
 30
0.0
 10
361.2048135505277
 20
117.7624507973197
 30
0.0
 10
361.1044390186618
 20
118.1165532487871
 30
0.0
 10
360.9601556543337
 20
118.6698875302503
 30
0.0
 10
360.7828132334486
 20
119.4593055471574
 30
0.0
 10
360.6012714416781
 20
120.4627208038529
 30
0.0
 10
360.478212199098
 20
121.3218878609651
 30
0.0
 10
360.398497804684
 20
121.9946935311348
 30
0.0
 10
360.3267036864042
 20
122.6772616333604
 30
0.0
 10
360.2550775524899
 20
123.5214421000989
 30
0.0
 10
360.1978518686633
 20
124.572367011433
 30
0.0
 10
360.1778996876117
 20
125.6296621448663
 30
0.0
 10
360.2038196469878
 20
126.6865961513142
 30
0.0
 10
360.2727265421931
 20
127.6737459822116
 30
0.0
 10
360.37152207746
 20
128.5104960387395
 30
0.0
 10
360.4857456174511
 20
129.209339266961
 30
0.0
 10
360.6027283408542
 20
129.784055261983
 30
0.0
 10
360.7364818109971
 20
130.3250542927811
 30
0.0
 10
360.8862256998856
 20
130.8315896570973
 30
0.0
 10
361.0509044426402
 20
131.3030904075308
 30
0.0
 10
361.230503476122
 20
131.7384057370955
 30
0.0
 10
361.4214878123767
 20
132.1382446463834
 30
0.0
 10
361.5662075951953
 20
132.3853441597886
 30
0.0
 10
361.6361828039342
 20
132.5048222276314
 30
0.0
  0
ARC
  5
190
330
1F
100
AcDbEntity
  8
0
  6
SLD-Сплошная
 62
     7
370
    25
100
AcDbCircle
 10
400.0610473618
 20
148.5336566544
 30
0.0
 40
35.37513625720325
100
AcDbArc
 50
341.6437539932
 51
359.9877007325
  0
ARC
  5
191
330
1F
100
AcDbEntity
  8
0
  6
SLD-Сплошная
 62
     7
370
    25
100
AcDbCircle
 10
398.3490749959
 20
149.4097451122
 30
0.0
 40
37.27704609127547
100
AcDbArc
 50
283.1069903943
 51
341.1943714769
  0
LINE
  5
192
330
1F
100
AcDbEntity
  8
0
  6
SLD-Сплошная
 62
     7
370
    25
100
AcDbLine
 10
435.4361828039
 20
149.4836933986
 30
0.0
 11
435.4361828039
 21
148.5260629318
 31
0.0
  0
ARC
  5
193
330
1F
100
AcDbEntity
  8
0
  6
SLD-Сплошная
 62
     7
370
    25
100
AcDbCircle
 10
396.9232906119
 20
149.4097451122
 30
0.0
 40
37.27704609127555
100
AcDbArc
 50
198.8056285231
 51
256.8930096057
  0
ARC
  5
194
330
1F
100
AcDbEntity
  8
0
  6
SLD-Сплошная
 62
     7
370
    25
100
AcDbCircle
 10
395.2113182461
 20
148.5336566544
 30
0.0
 40
35.37513625719438
100
AcDbArc
 50
180.0122992675
 51
198.3562460068
  0
LINE
  5
195
330
1F
100
AcDbEntity
  8
0
  6
SLD-Сплошная
 62
     7
370
    25
100
AcDbLine
 10
359.8361828039
 20
149.4836933986
 30
0.0
 11
359.8361828039
 21
148.5260629318
 31
0.0
  0
LINE
  5
196
330
1F
100
AcDbEntity
  8
0
  6
SLD-Сплошная
 62
     7
370
    25
100
AcDbLine
 10
361.6361828039
 20
104.575767527
 30
0.0
 11
361.6361828039
 21
116.520846224
 31
0.0
  0
LINE
  5
197
330
1F
100
AcDbEntity
  8
0
  6
SLD-Сплошная
 62
     7
370
    25
100
AcDbLine
 10
433.6361828039
 20
104.575767527
 30
0.0
 11
433.6361828039
 21
116.520846224
 31
0.0
  0
LINE
  5
198
330
1F
100
AcDbEntity
  8
0
  6
SLD-Сплошная
 62
     7
370
    25
100
AcDbLine
 10
433.6361828039
 20
132.5048222276
 30
0.0
 11
433.6361828039
 21
137.393165406
 31
0.0
  0
LINE
  5
199
330
1F
100
AcDbEntity
  8
0
  6
SLD-Сплошная
 62
     7
370
    25
100
AcDbLine
 10
361.6361828039
 20
132.5048222276
 30
0.0
 11
361.6361828039
 21
137.393165406
 31
0.0
  0
LWPOLYLINE
  5
19A
330
1F
100
AcDbEntity
  8
0
  6
SLD-Сплошная
 62
     7
370
    25
100
AcDbPolyline
 90
        3
 70
   128
 43
0.0
 10
416.2861828039
 20
149.4836933986
 10
416.1680122784
 20
150.6426164987
 10
416.0540871101
 20
151.100258684
  0
LWPOLYLINE
  5
19B
330
1F
100
AcDbEntity
  8
0
  6
SLD-Сплошная
 62
     7
370
    25
100
AcDbPolyline
 90
        3
 70
   128
 43
0.0
 10
404.2182784977
 20
151.100258684
 10
404.1043533295
 20
150.6426164987
 10
403.9861828039
 20
149.4836933986
  0
ARC
  5
19C
330
1F
100
AcDbEntity
  8
0
  6
SLD-Сплошная
 62
     7
370
    25
100
AcDbCircle
 10
410.1361828039
 20
149.6553056282
 30
0.0
 40
6.152393904599456
100
AcDbArc
 50
181.5983911499
 51
358.4016088501
  0
ARC
  5
19D
330
1F
100
AcDbEntity
  8
0
  6
SLD-Сплошная
 62
     7
370
    25
100
AcDbCircle
 10
397.4892511907
 20
161.5979241336
 30
0.0
 40
5.982406376014522
100
AcDbArc
 50
164.7217285265
 51
271.4073614186
  0
ARC
  5
19E
330
1F
100
AcDbEntity
  8
0
  6
SLD-Сплошная
 62
     7
370
    25
100
AcDbCircle
 10
397.7831144171
 20
161.5979241336
 30
0.0
 40
5.982406376015128
100
AcDbArc
 50
268.5926385814
 51
15.2782714735
  0
ARC
  5
19F
330
1F
100
AcDbEntity
  8
0
  6
SLD-Сплошная
 62
     7
370
    25
100
AcDbCircle
 10
385.1361828039
 20
149.6553056282
 30
0.0
 40
6.152393904599456
100
AcDbArc
 50
181.5983911499
 51
358.4016088501
  0
LWPOLYLINE
  5
1A0
330
1F
100
AcDbEntity
  8
0
  6
SLD-Сплошная
 62
     7
370
    25
100
AcDbPolyline
 90
        3
 70
   128
 43
0.0
 10
391.2861828039
 20
149.4836933986
 10
391.1680122784
 20
150.6426164987
 10
391.0540871101
 20
151.100258684
  0
LWPOLYLINE
  5
1A1
330
1F
100
AcDbEntity
  8
0
  6
SLD-Сплошная
 62
     7
370
    25
100
AcDbPolyline
 90
        3
 70
   128
 43
0.0
 10
379.2182784977
 20
151.100258684
 10
379.1043533295
 20
150.6426164987
 10
378.9861828039
 20
149.4836933986
  0
LWPOLYLINE
  5
1A2
330
1F
100
AcDbEntity
  8
0
  6
SLD-Сплошная
 62
     7
370
    25
100
AcDbPolyline
 90
        3
 70
   128
 43
0.0
 10
416.0037967086
 20
150.4860280209
 10
415.8910521527
 20
149.3803185419
 10
415.7009298088
 20
148.6886573641
  0
LWPOLYLINE
  5
1A3
330
1F
100
AcDbEntity
  8
0
  6
SLD-Сплошная
 62
     7
370
    25
100
AcDbPolyline
 90
        3
 70
   128
 43
0.0
 10
404.6247217339
 20
148.5414943835
 10
404.3813134551
 20
149.3803185419
 10
404.2685688993
 20
150.4860280209
  0
LWPOLYLINE
  5
1A4
330
1F
100
AcDbEntity
  8
0
  6
SLD-Сплошная
 62
     7
370
    25
100
AcDbPolyline
 90
        3
 70
   128
 43
0.0
 10
391.0037967086
 20
150.4860280209
 10
390.8910521527
 20
149.3803185419
 10
390.7009298088
 20
148.6886573641
  0
LWPOLYLINE
  5
1A5
330
1F
100
AcDbEntity
  8
0
  6
SLD-Сплошная
 62
     7
370
    25
100
AcDbPolyline
 90
        3
 70
   128
 43
0.0
 10
379.6247217339
 20
148.5414943835
 10
379.3813134551
 20
149.3803185419
 10
379.2685688993
 20
150.4860280209
  0
ARC
  5
1A6
330
1F
100
AcDbEntity
  8
0
  6
SLD-Сплошная
 62
     7
370
    25
100
AcDbCircle
 10
409.9150042435
 20
150.4413848223
 30
0.0
 40
5.646611825857963
100
AcDbArc
 50
119.4801447273
 51
179.5470038332
  0
ARC
  5
1A7
330
1F
100
AcDbEntity
  8
0
  6
SLD-Сплошная
 62
     7
370
    25
100
AcDbCircle
 10
410.3573613644
 20
150.4413848223
 30
0.0
 40
5.646611825857394
100
AcDbArc
 50
0.4529961668
 51
60.5198552727
  0
ARC
  5
1A8
330
1F
100
AcDbEntity
  8
0
  6
SLD-Сплошная
 62
     7
370
    25
100
AcDbCircle
 10
384.9150042435
 20
150.4413848223
 30
0.0
 40
5.646611825857562
100
AcDbArc
 50
119.4801447273
 51
179.5470038332
  0
ARC
  5
1A9
330
1F
100
AcDbEntity
  8
0
  6
SLD-Сплошная
 62
     7
370
    25
100
AcDbCircle
 10
385.3573613644
 20
150.4413848223
 30
0.0
 40
5.646611825857846
100
AcDbArc
 50
0.4529961668
 51
60.5198552727
  0
ARC
  5
1AA
330
1F
100
AcDbEntity
  8
0
  6
SLD-Сплошная
 62
     7
370
    25
100
AcDbCircle
 10
397.3548433222
 20
162.5631339885
 30
0.0
 40
5.575576759379701
100
AcDbArc
 50
119.1830675806
 51
211.0235076683
  0
ARC
  5
1AB
330
1F
100
AcDbEntity
  8
0
  6
SLD-Сплошная
 62
     7
370
    25
100
AcDbCircle
 10
397.9237429802
 20
162.5644934882
 30
0.0
 40
5.571358645444019
100
AcDbArc
 50
329.9369391908
 51
60.865968366
  0
SPLINE
  5
1AC
330
1F
100
AcDbEntity
  8
0
  6
SLD-Сплошная
 62
     7
370
    25
100
AcDbSpline
210
0.0
220
0.0
230
1.0
 70
     8
 71
     3
 72
    10
 73
     6
 74
     0
 42
0.00000001
 43
0.00000001
 40
0.0
 40
0.0
 40
0.0
 40
0.0
 40
0.1771230825187036
 40
0.3964821352695895
 40
1.0
 40
1.0
 40
1.0
 40
1.0
 10
197.2091011584887
 20
294.6766971668994
 30
0.0
 10
197.2165304161564
 20
294.6814261802605
 30
0.0
 10
197.2331604787191
 20
294.6920118661489
 30
0.0
 10
197.6284422537206
 20
294.7445631439927
 30
0.0
 10
198.1196537047084
 20
294.6826188689587
 30
0.0
 10
198.4799200820164
 20
294.6371874371049
 30
0.0
  0
SPLINE
  5
1AD
330
1F
100
AcDbEntity
  8
0
  6
SLD-Сплошная
 62
     7
370
    25
100
AcDbSpline
210
0.0
220
0.0
230
1.0
 70
     8
 71
     3
 72
    10
 73
     6
 74
     0
 42
0.00000001
 43
0.00000001
 40
0.0
 40
0.0
 40
0.0
 40
0.0
 40
0.6035219415257261
 40
0.822880941771797
 40
1.0
 40
1.0
 40
1.0
 40
1.0
 10
310.4799200834983
 20
213.5043831423928
 30
0.0
 10
310.1196689743862
 20
213.4589539604897
 30
0.0
 10
309.6284792569237
 20
213.3970128686814
 30
0.0
 10
309.233278536771
 20
213.4495502296355
 30
0.0
 10
309.2166566553412
 20
213.4601303121165
 30
0.0
 10
309.2092311448448
 20
213.464856763442
 30
0.0
  0
SPLINE
  5
1AE
330
1F
100
AcDbEntity
  8
0
  6
SLD-Сплошная
 62
     7
370
    25
100
AcDbSpline
210
0.0
220
0.0
230
1.0
 70
     8
 71
     3
 72
    10
 73
     6
 74
     0
 42
0.00000001
 43
0.00000001
 40
0.0
 40
0.0
 40
0.0
 40
0.0
 40
0.17712308251647
 40
0.3964821352667995
 40
1.0
 40
1.0
 40
1.0
 40
1.0
 10
197.2091011584794
 20
218.6766971668979
 30
0.0
 10
197.2165304161469
 20
218.681426180259
 30
0.0
 10
197.233160478709
 20
218.6920118661475
 30
0.0
 10
197.6284422537142
 20
218.7445631439934
 30
0.0
 10
198.1196537047062
 20
218.682618868959
 30
0.0
 10
198.4799200820179
 20
218.6371874371046
 30
0.0
  0
SPLINE
  5
1AF
330
1F
100
AcDbEntity
  8
0
  6
SLD-Сплошная
 62
     7
370
    25
100
AcDbSpline
210
0.0
220
0.0
230
1.0
 70
     8
 71
     3
 72
    10
 73
     6
 74
     0
 42
0.00000001
 43
0.00000001
 40
0.0
 40
0.0
 40
0.0
 40
0.0
 40
0.1771230825185007
 40
0.3964821353169071
 40
1.0
 40
1.0
 40
1.0
 40
1.0
 10
309.2091011589571
 20
294.6766971669709
 30
0.0
 10
309.2165304166009
 20
294.6814261803219
 30
0.0
 10
309.2331604791116
 20
294.692011866189
 30
0.0
 10
309.628442253577
 20
294.7445631439516
 30
0.0
 10
310.119653704212
 20
294.6826188690169
 30
0.0
 10
310.4799200812329
 20
294.6371874372394
 30
0.0
  0
LINE
  5
1B0
330
1F
100
AcDbEntity
  8
0
  6
SLD-Сплошная
 62
     7
370
    25
100
AcDbLine
 10
184.813953002
 20
281.7207852896
 30
0.0
 11
183.9993555552
 21
281.7207852896
 31
0.0
  0
LINE
  5
1B1
330
1F
100
AcDbEntity
  8
0
  6
SLD-Сплошная
 62
     7
370
    25
100
AcDbLine
 10
183.9993555552
 20
282.5707852896
 30
0.0
 11
181.0259138866
 21
282.5707852896
 31
0.0
  0
LINE
  5
1B2
330
1F
100
AcDbEntity
  8
0
  6
SLD-Сплошная
 62
     7
370
    25
100
AcDbLine
 10
189.1099466121
 20
281.5207852896
 30
0.0
 11
184.813953002
 21
281.5207852896
 31
0.0
  0
LINE
  5
1B3
330
1F
100
AcDbEntity
  8
0
  6
SLD-Сплошная
 62
     7
370
    25
100
AcDbLine
 10
190.1174753706
 20
281.7207852896
 30
0.0
 11
189.9691322877
 21
281.7207852896
 31
0.0
  0
LINE
  5
1B4
330
1F
100
AcDbEntity
  8
0
  6
SLD-Сплошная
 62
     7
370
    25
100
AcDbLine
 10
196.329132453
 20
298.0707852896
 30
0.0
 11
309.9931197176
 21
298.0707852896
 31
0.0
  0
ARC
  5
1B5
330
1F
100
AcDbEntity
  8
0
  6
SLD-Сплошная
 62
     7
370
    25
100
AcDbCircle
 10
309.9931197176
 20
292.0707852896
 30
0.0
 40
6.0
100
AcDbArc
 50
0.0
 51
90.0
  0
LINE
  5
1B6
330
1F
100
AcDbEntity
  8
0
  6
SLD-Сплошная
 62
     7
370
    25
100
AcDbLine
 10
315.9931197176
 20
216.0707852896
 30
0.0
 11
315.9931197176
 21
292.0707852896
 31
0.0
  0
ARC
  5
1B7
330
1F
100
AcDbEntity
  8
0
  6
SLD-Сплошная
 62
     7
370
    25
100
AcDbCircle
 10
309.9931197176
 20
216.0707852896
 30
0.0
 40
6.000000000000028
100
AcDbArc
 50
270.0
 51
0.0
  0
LINE
  5
1B8
330
1F
100
AcDbEntity
  8
0
  6
SLD-Сплошная
 62
     7
370
    25
100
AcDbLine
 10
309.9931197176
 20
210.0707852896
 30
0.0
 11
196.329132453
 21
210.0707852896
 31
0.0
  0
SPLINE
  5
1B9
330
1F
100
AcDbEntity
  8
0
  6
SLD-Сплошная
 62
     7
370
    25
100
AcDbSpline
210
0.0
220
0.0
230
1.0
 70
     8
 71
     3
 72
    22
 73
    18
 74
     0
 42
0.00000001
 43
0.00000001
 40
0.0
 40
0.0
 40
0.0
 40
0.0
 40
0.125
 40
0.125
 40
0.25
 40
0.25
 40
0.375
 40
0.375
 40
0.5
 40
0.5
 40
0.625
 40
0.625
 40
0.75
 40
0.75
 40
0.875
 40
0.875
 40
1.0
 40
1.0
 40
1.0
 40
1.0
 10
190.1174753705583
 20
216.0707852896217
 30
0.0
 10
190.1174753705583
 20
215.7172318990284
 30
0.0
 10
190.1500141874818
 20
215.3504568618473
 30
0.0
 10
190.2923392066634
 20
214.6075570884502
 30
0.0
 10
190.4022501490835
 20
214.2315078834019
 30
0.0
 10
190.7049625859875
 20
213.4929261810985
 30
0.0
 10
190.8978355040253
 20
213.1305433899612
 30
0.0
 10
191.3621712115144
 20
212.44451014866
 30
0.0
 10
191.6336022347644
 20
212.1210378213155
 30
0.0
 10
192.2400529804468
 20
211.5352513836886
 30
0.0
 10
192.5749361759682
 20
211.2730691482754
 30
0.0
 10
193.2851700496569
 20
210.8245552963434
 30
0.0
 10
193.6603363215119
 20
210.6382543636189
 30
0.0
 10
194.4249723651932
 20
210.3458566028744
 30
0.0
 10
194.8142871498418
 20
210.2396907849991
 30
0.0
 10
195.5833935896718
 20
210.1022153732443
 30
0.0
 10
195.9631070492344
 20
210.0707852896212
 30
0.0
 10
196.3291324530188
 20
210.0707852896212
 30
0.0
  0
LINE
  5
1BA
330
1F
100
AcDbEntity
  8
0
  6
SLD-Сплошная
 62
     7
370
    25
100
AcDbLine
 10
190.1174753706
 20
216.0707852896
 30
0.0
 11
190.1174753706
 21
292.0707852896
 31
0.0
  0
SPLINE
  5
1BB
330
1F
100
AcDbEntity
  8
0
  6
SLD-Сплошная
 62
     7
370
    25
100
AcDbSpline
210
0.0
220
0.0
230
1.0
 70
     8
 71
     3
 72
    22
 73
    18
 74
     0
 42
0.00000001
 43
0.00000001
 40
0.0
 40
0.0
 40
0.0
 40
0.0
 40
0.125
 40
0.125
 40
0.25
 40
0.25
 40
0.375
 40
0.375
 40
0.5
 40
0.5
 40
0.625
 40
0.625
 40
0.75
 40
0.75
 40
0.875
 40
0.875
 40
1.0
 40
1.0
 40
1.0
 40
1.0
 10
196.3291324530188
 20
298.0707852896216
 30
0.0
 10
195.9631070492344
 20
298.0707852896216
 30
0.0
 10
195.5833935896718
 20
298.0393552059983
 30
0.0
 10
194.8142871498418
 20
297.9018797942438
 30
0.0
 10
194.4249723651932
 20
297.7957139763684
 30
0.0
 10
193.6603363215119
 20
297.5033162156239
 30
0.0
 10
193.2851700496568
 20
297.3170152828994
 30
0.0
 10
192.5749361759682
 20
296.8685014309675
 30
0.0
 10
192.2400529804467
 20
296.6063191955542
 30
0.0
 10
191.6336022347643
 20
296.0205327579274
 30
0.0
 10
191.3621712115144
 20
295.697060430583
 30
0.0
 10
190.8978355040252
 20
295.0110271892817
 30
0.0
 10
190.7049625859874
 20
294.6486443981444
 30
0.0
 10
190.4022501490834
 20
293.9100626958411
 30
0.0
 10
190.2923392066634
 20
293.5340134907929
 30
0.0
 10
190.1500141874817
 20
292.7911137173958
 30
0.0
 10
190.1174753705583
 20
292.4243386802146
 30
0.0
 10
190.1174753705583
 20
292.0707852896214
 30
0.0
  0
SPLINE
  5
1BC
330
1F
100
AcDbEntity
  8
0
  6
SLD-Сплошная
 62
     7
370
    25
100
AcDbSpline
210
0.0
220
0.0
230
1.0
 70
     8
 71
     3
 72
    15
 73
    11
 74
     0
 42
0.00000001
 43
0.00000001
 40
0.0
 40
0.0
 40
0.0
 40
0.0
 40
0.125
 40
0.25
 40
0.375
 40
0.5
 40
0.625
 40
0.75
 40
0.875
 40
1.0
 40
1.0
 40
1.0
 40
1.0
 10
308.1174753705131
 20
294.7207852896216
 30
0.0
 10
307.7775339708455
 20
294.7207852896218
 30
0.0
 10
307.0924117869714
 20
294.5883311203849
 30
0.0
 10
306.2071249493284
 20
294.0063226612961
 30
0.0
 10
305.6084601271471
 20
293.1220451485161
 30
0.0
 10
305.396819112021
 20
292.070785289549
 30
0.0
 10
305.6084601272009
 20
291.0195254305923
 30
0.0
 10
306.2071249494284
 20
290.1352479178415
 30
0.0
 10
307.0924117870622
 20
289.5532394588236
 30
0.0
 10
307.7775339708912
 20
289.4207852896212
 30
0.0
 10
308.1174753706501
 20
289.4207852896216
 30
0.0
  0
LINE
  5
1BD
330
1F
100
AcDbEntity
  8
0
  6
SLD-Сплошная
 62
     7
370
    25
100
AcDbLine
 10
308.1174753707
 20
289.4207852896
 30
0.0
 11
309.9931197176
 21
289.4207852896
 31
0.0
  0
SPLINE
  5
1BE
330
1F
100
AcDbEntity
  8
0
  6
SLD-Сплошная
 62
     7
370
    25
100
AcDbSpline
210
0.0
220
0.0
230
1.0
 70
     8
 71
     3
 72
    15
 73
    11
 74
     0
 42
0.00000001
 43
0.00000001
 40
0.0
 40
0.0
 40
0.0
 40
0.0
 40
0.125
 40
0.25
 40
0.375
 40
0.5
 40
0.625
 40
0.75
 40
0.875
 40
1.0
 40
1.0
 40
1.0
 40
1.0
 10
309.9931197175761
 20
289.4207852896216
 30
0.0
 10
310.3330611173091
 20
289.4207852896217
 30
0.0
 10
311.0181833012398
 20
289.5532394588786
 30
0.0
 10
311.9034701389409
 20
290.1352479180622
 30
0.0
 10
312.5021349611114
 20
291.0195254309916
 30
0.0
 10
312.7137759761248
 20
292.0707852901004
 30
0.0
 10
312.502134960743
 20
293.1220451491332
 30
0.0
 10
311.903470138266
 20
294.0063226618496
 30
0.0
 10
311.0181833006313
 20
294.5883311205494
 30
0.0
 10
310.3330611170074
 20
294.7207852896216
 30
0.0
 10
309.9931197175761
 20
294.7207852896216
 30
0.0
  0
LINE
  5
1BF
330
1F
100
AcDbEntity
  8
0
  6
SLD-Сплошная
 62
     7
370
    25
100
AcDbLine
 10
309.9931197176
 20
294.7207852896
 30
0.0
 11
308.1174753705
 21
294.7207852896
 31
0.0
  0
SPLINE
  5
1C0
330
1F
100
AcDbEntity
  8
0
  6
SLD-Сплошная
 62
     7
370
    25
100
AcDbSpline
210
0.0
220
0.0
230
1.0
 70
     8
 71
     3
 72
    28
 73
    24
 74
     0
 42
0.00000001
 43
0.00000001
 40
0.0
 40
0.0
 40
0.0
 40
0.0
 40
0.0207510104797978
 40
0.0413180931841718
 40
0.0617869994997411
 40
0.0822447154107047
 40
0.1027783691182898
 40
0.1234741297620419
 40
0.1858319500745746
 40
0.2481887377492394
 40
0.3110287356918632
 40
0.3738626285560505
 40
0.4369474764775736
 40
0.5000321277271731
 40
0.5631121921459982
 40
0.6262016342674243
 40
0.6890318258547574
 40
0.7518755527178507
 40
0.8142297173662243
 40
0.8765901761324263
 40
0.9177972865005397
 40
0.9587020923578256
 40
1.0
 40
1.0
 40
1.0
 40
1.0
 10
197.9931197175762
 20
294.7207852896212
 30
0.0
 10
198.050645943597
 20
294.7197263028692
 30
0.0
 10
198.165188508624
 20
294.7176177157554
 30
0.0
 10
198.3357799372486
 20
294.7006222509557
 30
0.0
 10
198.5041438661302
 20
294.6734572461642
 30
0.0
 10
198.6702663882176
 20
294.6351608472276
 30
0.0
 10
198.8341573184353
 20
294.5859775931686
 30
0.0
 10
199.1033761286912
 20
294.4858838288528
 30
0.0
 10
199.4630302374798
 20
294.2975118827493
 30
0.0
 10
199.8683318814497
 20
293.9668614908077
 30
0.0
 10
200.2045073972635
 20
293.5641210153569
 30
0.0
 10
200.4534401573746
 20
293.1000825064447
 30
0.0
 10
200.609393186524
 20
292.5963529537606
 30
0.0
 10
200.6601454741597
 20
292.070797935178
 30
0.0
 10
200.6093961755674
 20
291.5452307120042
 30
0.0
 10
200.4534495093309
 20
291.0415084533265
 30
0.0
 10
200.2045118762982
 20
290.5774609684815
 30
0.0
 10
199.8683560723703
 20
290.174707991035
 30
0.0
 10
199.4629925130721
 20
289.8441128736475
 30
0.0
 10
199.0527939607139
 20
289.6289546124943
 30
0.0
 10
198.6723561146686
 20
289.5016456832607
 30
0.0
 10
198.3356775274905
 20
289.4332488362159
 30
0.0
 10
198.1076691074107
 20
289.4249530289524
 30
0.0
 10
197.9931197175762
 20
289.4207852896212
 30
0.0
  0
LINE
  5
1C1
330
1F
100
AcDbEntity
  8
0
  6
SLD-Сплошная
 62
     7
370
    25
100
AcDbLine
 10
196.1174753706
 20
294.7207852896
 30
0.0
 11
197.9931197176
 21
294.7207852896
 31
0.0
  0
SPLINE
  5
1C2
330
1F
100
AcDbEntity
  8
0
  6
SLD-Сплошная
 62
     7
370
    25
100
AcDbSpline
210
0.0
220
0.0
230
1.0
 70
     8
 71
     3
 72
    28
 73
    24
 74
     0
 42
0.00000001
 43
0.00000001
 40
0.0
 40
0.0
 40
0.0
 40
0.0
 40
0.0207510079009648
 40
0.0413180890580494
 40
0.0617869948517961
 40
0.0822447112473145
 40
0.102778366413909
 40
0.1234741294473615
 40
0.1858319406663216
 40
0.2481887374445724
 40
0.3110287260333301
 40
0.3738626282618306
 40
0.4369474666306266
 40
0.5000321274461312
 40
0.5631121822355994
 40
0.6262016340021422
 40
0.6890318160694872
 40
0.7518755524732034
 40
0.814229707777807
 40
0.8765901759062003
 40
0.917797282273622
 40
0.958702088136108
 40
1.0
 40
1.0
 40
1.0
 40
1.0
 10
196.1174753705583
 20
289.4207852896212
 30
0.0
 10
196.0599491516876
 20
289.4218442764069
 30
0.0
 10
195.945406598101
 20
289.4239528636396
 30
0.0
 10
195.7748151824464
 20
289.4409483287154
 30
0.0
 10
195.6064512580991
 20
289.4681133337332
 30
0.0
 10
195.44032873198
 20
289.5064097326905
 30
0.0
 10
195.2764377896283
 20
289.5555929875387
 30
0.0
 10
195.0072189870817
 20
289.6556867313416
 30
0.0
 10
194.647564874349
 20
289.8440586844786
 30
0.0
 10
194.242263243104
 20
290.1747090513021
 30
0.0
 10
193.9060877067491
 20
290.5774495413781
 30
0.0
 10
193.6571549510554
 20
291.0414880239304
 30
0.0
 10
193.5012019073738
 20
291.5452175979719
 30
0.0
 10
193.4504496139305
 20
292.0707725905274
 30
0.0
 10
193.5011989070236
 20
292.5963398395747
 30
0.0
 10
193.6571455582661
 20
293.1000620766669
 30
0.0
 10
193.9060831959678
 20
293.5641095880331
 30
0.0
 10
194.2422389786864
 20
293.9668625508492
 30
0.0
 10
194.6476025517664
 20
294.297457692471
 30
0.0
 10
195.0578010946225
 20
294.5126159479256
 30
0.0
 10
195.4382389478242
 20
294.6399249021866
 30
0.0
 10
195.7749175373345
 20
294.7083217444091
 30
0.0
 10
196.0029259690557
 20
294.7166175506114
 30
0.0
 10
196.1174753705583
 20
294.7207852896212
 30
0.0
  0
LINE
  5
1C3
330
1F
100
AcDbEntity
  8
0
  6
SLD-Сплошная
 62
     7
370
    25
100
AcDbLine
 10
197.9931197176
 20
289.4207852896
 30
0.0
 11
196.1174753706
 21
289.4207852896
 31
0.0
  0
SPLINE
  5
1C4
330
1F
100
AcDbEntity
  8
0
  6
SLD-Сплошная
 62
     7
370
    25
100
AcDbSpline
210
0.0
220
0.0
230
1.0
 70
     8
 71
     3
 72
    15
 73
    11
 74
     0
 42
0.00000001
 43
0.00000001
 40
0.0
 40
0.0
 40
0.0
 40
0.0
 40
0.125
 40
0.25
 40
0.375
 40
0.5
 40
0.625
 40
0.75
 40
0.875
 40
1.0
 40
1.0
 40
1.0
 40
1.0
 10
197.9931197176215
 20
213.4207852896217
 30
0.0
 10
198.3330611172845
 20
213.4207852896218
 30
0.0
 10
199.0181833011507
 20
213.5532394588555
 30
0.0
 10
199.903470138787
 20
214.1352479179312
 30
0.0
 10
200.5021349609709
 20
215.0195254306944
 30
0.0
 10
200.7137759761111
 20
216.0707852896457
 30
0.0
 10
200.5021349609547
 20
217.122045148594
 30
0.0
 10
199.9034701387563
 20
218.0063226613493
 30
0.0
 10
199.0181833011218
 20
218.5883311204041
 30
0.0
 10
198.3330611172694
 20
218.7207852896217
 30
0.0
 10
197.9931197175762
 20
218.7207852896217
 30
0.0
  0
LINE
  5
1C5
330
1F
100
AcDbEntity
  8
0
  6
SLD-Сплошная
 62
     7
370
    25
100
AcDbLine
 10
197.9931197176
 20
218.7207852896
 30
0.0
 11
196.1174753706
 21
218.7207852896
 31
0.0
  0
SPLINE
  5
1C6
330
1F
100
AcDbEntity
  8
0
  6
SLD-Сплошная
 62
     7
370
    25
100
AcDbSpline
210
0.0
220
0.0
230
1.0
 70
     8
 71
     3
 72
    15
 73
    11
 74
     0
 42
0.00000001
 43
0.00000001
 40
0.0
 40
0.0
 40
0.0
 40
0.0
 40
0.125
 40
0.25
 40
0.375
 40
0.5
 40
0.625
 40
0.75
 40
0.875
 40
1.0
 40
1.0
 40
1.0
 40
1.0
 10
196.1174753705583
 20
218.7207852896217
 30
0.0
 10
195.7775339708255
 20
218.7207852896218
 30
0.0
 10
195.0924117868945
 20
218.5883311203646
 30
0.0
 10
194.2071249491936
 20
218.0063226611811
 30
0.0
 10
193.6084601270232
 20
217.1220451482513
 30
0.0
 10
193.3968191120097
 20
216.0707852891429
 30
0.0
 10
193.6084601273916
 20
215.0195254301097
 30
0.0
 10
194.2071249498687
 20
214.1352479173932
 30
0.0
 10
195.092411787503
 20
213.5532394586933
 30
0.0
 10
195.7775339711272
 20
213.4207852896217
 30
0.0
 10
196.1174753706497
 20
213.4207852896217
 30
0.0
  0
LINE
  5
1C7
330
1F
100
AcDbEntity
  8
0
  6
SLD-Сплошная
 62
     7
370
    25
100
AcDbLine
 10
196.1174753706
 20
213.4207852896
 30
0.0
 11
197.9931197176
 21
213.4207852896
 31
0.0
  0
LINE
  5
1C8
330
1F
100
AcDbEntity
  8
0
  6
SLD-Сплошная
 62
     7
370
    25
100
AcDbLine
 10
309.9931197176
 20
213.4207852896
 30
0.0
 11
308.1174753705
 21
213.4207852896
 31
0.0
  0
SPLINE
  5
1C9
330
1F
100
AcDbEntity
  8
0
  6
SLD-Сплошная
 62
     7
370
    25
100
AcDbSpline
210
0.0
220
0.0
230
1.0
 70
     8
 71
     3
 72
    15
 73
    11
 74
     0
 42
0.00000001
 43
0.00000001
 40
0.0
 40
0.0
 40
0.0
 40
0.0
 40
0.125
 40
0.25
 40
0.375
 40
0.5
 40
0.625
 40
0.75
 40
0.875
 40
1.0
 40
1.0
 40
1.0
 40
1.0
 10
309.9931197175811
 20
213.4207852896217
 30
0.0
 10
310.3330611172728
 20
213.4207852896217
 30
0.0
 10
311.0181833011285
 20
213.5532394588485
 30
0.0
 10
311.9034701387648
 20
214.1352479179087
 30
0.0
 10
312.5021349609615
 20
215.0195254306696
 30
0.0
 10
312.7137759761117
 20
216.0707852896242
 30
0.0
 10
312.5021349609618
 20
217.1220451485794
 30
0.0
 10
311.9034701387643
 20
218.0063226613423
 30
0.0
 10
311.0181833011272
 20
218.5883311204029
 30
0.0
 10
310.3330611172712
 20
218.7207852896217
 30
0.0
 10
309.9931197175761
 20
218.7207852896217
 30
0.0
  0
LINE
  5
1CA
330
1F
100
AcDbEntity
  8
0
  6
SLD-Сплошная
 62
     7
370
    25
100
AcDbLine
 10
308.1174753706
 20
218.7207852896
 30
0.0
 11
309.9931197176
 21
218.7207852896
 31
0.0
  0
SPLINE
  5
1CB
330
1F
100
AcDbEntity
  8
0
  6
SLD-Сплошная
 62
     7
370
    25
100
AcDbSpline
210
0.0
220
0.0
230
1.0
 70
     8
 71
     3
 72
    15
 73
    11
 74
     0
 42
0.00000001
 43
0.00000001
 40
0.0
 40
0.0
 40
0.0
 40
0.0
 40
0.125
 40
0.25
 40
0.375
 40
0.5
 40
0.625
 40
0.75
 40
0.875
 40
1.0
 40
1.0
 40
1.0
 40
1.0
 10
308.1174753705581
 20
218.7207852896217
 30
0.0
 10
307.7775339711302
 20
218.7207852896217
 30
0.0
 10
307.0924117875111
 20
218.5883311205531
 30
0.0
 10
306.2071249498804
 20
218.0063226618634
 30
0.0
 10
305.6084601273992
 20
217.1220451491591
 30
0.0
 10
305.3968191120056
 20
216.0707852901364
 30
0.0
 10
305.6084601270005
 20
215.0195254310303
 30
0.0
 10
306.2071249491515
 20
214.1352479180938
 30
0.0
 10
307.0924117868555
 20
213.5532394588812
 30
0.0
 10
307.7775339708058
 20
213.4207852896217
 30
0.0
 10
308.1174753704906
 20
213.4207852896217
 30
0.0
  0
SPLINE
  5
1CC
330
1F
100
AcDbEntity
  8
0
  6
SLD-Сплошная
 62
     7
370
    25
100
AcDbSpline
210
0.0
220
0.0
230
1.0
 70
     8
 71
     3
 72
    38
 73
    34
 74
     0
 42
0.00000001
 43
0.00000001
 40
0.0
 40
0.0
 40
0.0
 40
0.0
 40
0.0625
 40
0.0625
 40
0.125
 40
0.125
 40
0.1875
 40
0.1875
 40
0.25
 40
0.25
 40
0.3125
 40
0.3125
 40
0.375
 40
0.375
 40
0.4375
 40
0.4375
 40
0.5
 40
0.5
 40
0.5625
 40
0.5625
 40
0.625
 40
0.625
 40
0.6875
 40
0.6875
 40
0.75
 40
0.75
 40
0.8125
 40
0.8125
 40
0.875
 40
0.875
 40
0.9375
 40
0.9375
 40
1.0
 40
1.0
 40
1.0
 40
1.0
 10
282.1823893267467
 20
254.0707852896217
 30
0.0
 10
282.1823893267466
 20
253.4770352896217
 30
0.0
 10
282.144262721387
 20
252.8458068261556
 30
0.0
 10
281.9594064529763
 20
251.51257791238
 30
0.0
 10
281.8125886751041
 20
250.8103852896217
 30
0.0
 10
281.3719751327216
 20
249.3511852896218
 30
0.0
 10
281.0779400724214
 20
248.5939831181787
 30
0.0
 10
280.3031493644968
 20
247.0588234161209
 30
0.0
 10
279.8219596354117
 20
246.2807852896217
 30
0.0
 10
278.6417447897442
 20
244.7607852896217
 30
0.0
 10
277.9421572508083
 20
244.0190401216727
 30
0.0
 10
276.3180422445729
 20
242.6499277178446
 30
0.0
 10
275.3930911228636
 20
242.0232074349504
 30
0.0
 10
273.351196926207
 20
240.9713043207635
 30
0.0
 10
272.2343653761351
 20
240.5470574789708
 30
0.0
 10
269.8879027243939
 20
239.9714361771957
 30
0.0
 10
268.6590942201399
 20
239.8207852896217
 30
0.0
 10
266.200313291666
 20
239.8207852896217
 30
0.0
 10
264.9715047874121
 20
239.9714361771957
 30
0.0
 10
262.6250421356708
 20
240.5470574789708
 30
0.0
 10
261.5082105855989
 20
240.9713043207636
 30
0.0
 10
259.4663163889423
 20
242.0232074349504
 30
0.0
 10
258.5413652672331
 20
242.6499277178446
 30
0.0
 10
256.9172502609977
 20
244.0190401216728
 30
0.0
 10
256.2176627220617
 20
244.7607852896217
 30
0.0
 10
255.0374478763942
 20
246.2807852896217
 30
0.0
 10
254.5562581473091
 20
247.0588234161209
 30
0.0
 10
253.7814674393844
 20
248.5939831181787
 30
0.0
 10
253.4874323790842
 20
249.3511852896218
 30
0.0
 10
253.0468188367017
 20
250.8103852896217
 30
0.0
 10
252.9000010588295
 20
251.5125779123799
 30
0.0
 10
252.7151447904189
 20
252.8458068261555
 30
0.0
 10
252.6770181850593
 20
253.4770352896217
 30
0.0
 10
252.6770181850592
 20
254.0707852896217
 30
0.0
  0
SPLINE
  5
1CD
330
1F
100
AcDbEntity
  8
0
  6
SLD-Сплошная
 62
     7
370
    25
100
AcDbSpline
210
0.0
220
0.0
230
1.0
 70
     8
 71
     3
 72
    38
 73
    34
 74
     0
 42
0.00000001
 43
0.00000001
 40
0.0
 40
0.0
 40
0.0
 40
0.0
 40
0.0625000000000003
 40
0.0625000000000003
 40
0.1250000000000007
 40
0.1250000000000007
 40
0.187500000000001
 40
0.187500000000001
 40
0.2500000000000013
 40
0.2500000000000013
 40
0.3125000000000017
 40
0.3125000000000017
 40
0.375000000000002
 40
0.375000000000002
 40
0.4375000000000023
 40
0.4375000000000023
 40
0.5000000000000027
 40
0.5000000000000027
 40
0.5625000000000023
 40
0.5625000000000023
 40
0.625000000000002
 40
0.625000000000002
 40
0.6875000000000017
 40
0.6875000000000017
 40
0.7500000000000013
 40
0.7500000000000013
 40
0.812500000000001
 40
0.812500000000001
 40
0.8750000000000007
 40
0.8750000000000007
 40
0.9375000000000003
 40
0.9375000000000003
 40
1.0
 40
1.0
 40
1.0
 40
1.0
 10
252.6770181850592
 20
254.0707852896217
 30
0.0
 10
252.6770181850592
 20
254.6645352896217
 30
0.0
 10
252.7151447904189
 20
255.295763753088
 30
0.0
 10
252.9000010588295
 20
256.6289926668634
 30
0.0
 10
253.0468188367017
 20
257.3311852896217
 30
0.0
 10
253.4874323790842
 20
258.7903852896217
 30
0.0
 10
253.7814674393845
 20
259.5475874610647
 30
0.0
 10
254.5562581473091
 20
261.0827471631225
 30
0.0
 10
255.0374478763943
 20
261.8607852896216
 30
0.0
 10
256.2176627220617
 20
263.3807852896216
 30
0.0
 10
256.9172502609975
 20
264.1225304575706
 30
0.0
 10
258.541365267233
 20
265.4916428613987
 30
0.0
 10
259.4663163889423
 20
266.1183631442929
 30
0.0
 10
261.5082105855989
 20
267.1702662584797
 30
0.0
 10
262.6250421356708
 20
267.5945131002725
 30
0.0
 10
264.9715047874121
 20
268.1701344020477
 30
0.0
 10
266.200313291666
 20
268.3207852896217
 30
0.0
 10
268.6590942201399
 20
268.3207852896217
 30
0.0
 10
269.8879027243938
 20
268.1701344020477
 30
0.0
 10
272.2343653761351
 20
267.5945131002726
 30
0.0
 10
273.351196926207
 20
267.1702662584798
 30
0.0
 10
275.3930911228636
 20
266.1183631442929
 30
0.0
 10
276.3180422445729
 20
265.4916428613987
 30
0.0
 10
277.9421572508083
 20
264.1225304575706
 30
0.0
 10
278.6417447897442
 20
263.3807852896216
 30
0.0
 10
279.8219596354117
 20
261.8607852896216
 30
0.0
 10
280.3031493644968
 20
261.0827471631225
 30
0.0
 10
281.0779400724214
 20
259.5475874610647
 30
0.0
 10
281.3719751327216
 20
258.7903852896217
 30
0.0
 10
281.8125886751041
 20
257.3311852896217
 30
0.0
 10
281.9594064529764
 20
256.6289926668634
 30
0.0
 10
282.144262721387
 20
255.2957637530879
 30
0.0
 10
282.1823893267467
 20
254.6645352896217
 30
0.0
 10
282.1823893267467
 20
254.0707852896217
 30
0.0
  0
SPLINE
  5
1CE
330
1F
100
AcDbEntity
  8
0
  6
SLD-Сплошная
 62
     7
370
    25
100
AcDbSpline
210
0.0
220
0.0
230
1.0
 70
     8
 71
     3
 72
    14
 73
    10
 74
     0
 42
0.00000001
 43
0.00000001
 40
0.0
 40
0.0
 40
0.0
 40
0.0
 40
0.1443023576537235
 40
0.2866753443661229
 40
0.4281614352687337
 40
0.5694543666440302
 40
0.7113397556144466
 40
0.8548162742768617
 40
1.0
 40
1.0
 40
1.0
 40
1.0
 10
197.1090274919698
 20
289.5726097680412
 30
0.0
 10
196.7981209793939
 20
289.7243840949993
 30
0.0
 10
196.1804648786375
 20
290.0259034752376
 30
0.0
 10
195.5590509560649
 20
290.8741335266729
 30
0.0
 10
195.2850882601721
 20
291.8631503618831
 30
0.0
 10
195.4045287875051
 20
292.8894391417125
 30
0.0
 10
195.89695685806
 20
293.7932491165764
 30
0.0
 10
196.7012816787848
 20
294.4826130096684
 30
0.0
 10
197.3789728058121
 20
294.6261175018867
 30
0.0
 10
197.719822384599
 20
294.6982941082726
 30
0.0
  0
LINE
  5
1CF
330
1F
100
AcDbEntity
  8
0
  6
SLD-Сплошная
 62
     7
370
    25
100
AcDbLine
 10
198.1044487066
 20
289.4464448911
 30
0.0
 11
197.109027492
 21
289.572609768
 31
0.0
  0
SPLINE
  5
1D0
330
1F
100
AcDbEntity
  8
0
  6
SLD-Сплошная
 62
     7
370
    25
100
AcDbSpline
210
0.0
220
0.0
230
1.0
 70
     8
 71
     3
 72
     9
 73
     5
 74
     0
 42
0.00000001
 43
0.00000001
 40
0.0
 40
0.0
 40
0.0
 40
0.0
 40
0.4382851994074787
 40
1.0
 40
1.0
 40
1.0
 40
1.0
 10
310.1015844875119
 20
218.7083224574165
 30
0.0
 10
309.953445076452
 20
218.7126760957753
 30
0.0
 10
309.615447326904
 20
218.7226094413793
 30
0.0
 10
309.2911756770856
 20
218.6242248771046
 30
0.0
 10
309.1090274919701
 20
218.5689608112017
 30
0.0
  0
SPLINE
  5
1D1
330
1F
100
AcDbEntity
  8
0
  6
SLD-Сплошная
 62
     7
370
    25
100
AcDbSpline
210
0.0
220
0.0
230
1.0
 70
     8
 71
     3
 72
    15
 73
    11
 74
     0
 42
0.00000001
 43
0.00000001
 40
0.0
 40
0.0
 40
0.0
 40
0.0
 40
0.1445020582096282
 40
0.2870720754144052
 40
0.4287539694310681
 40
0.5702424366062455
 40
0.7123241812807561
 40
0.8559992576173996
 40
0.9319313040575151
 40
1.0
 40
1.0
 40
1.0
 40
1.0
 10
309.1090274919701
 20
218.5689608112017
 30
0.0
 10
308.7981187435439
 20
218.4171758604176
 30
0.0
 10
308.1804582009809
 20
218.1156353745718
 30
0.0
 10
307.5590771824145
 20
217.2675616692245
 30
0.0
 10
307.2849906078865
 20
216.2779562145051
 30
0.0
 10
307.4048935344014
 20
215.2538645623594
 30
0.0
 10
307.8955826431686
 20
214.3417917677645
 30
0.0
 10
308.5758691422296
 20
213.7897556975135
 30
0.0
 10
309.2057231058576
 20
213.5161335060433
 30
0.0
 10
309.5437130096331
 20
213.4657661350116
 30
0.0
 10
309.7034797692418
 20
213.4419576378646
 30
0.0
  0
SPLINE
  5
1D2
330
1F
100
AcDbEntity
  8
0
  6
SLD-Сплошная
 62
     7
370
    25
100
AcDbSpline
210
0.0
220
0.0
230
1.0
 70
     8
 71
     3
 72
     9
 73
     5
 74
     0
 42
0.00000001
 43
0.00000001
 40
0.0
 40
0.0
 40
0.0
 40
0.0
 40
0.5617052494688985
 40
1.0
 40
1.0
 40
1.0
 40
1.0
 10
197.1090274919699
 20
213.5726097680412
 30
0.0
 10
197.2911834082296
 20
213.5174712701852
 30
0.0
 10
197.6154743356011
 20
213.4193085809313
 30
0.0
 10
197.9534380293336
 20
213.4290326040328
 30
0.0
 10
198.1015657421666
 20
213.4332945923123
 30
0.0
  0
SPLINE
  5
1D3
330
1F
100
AcDbEntity
  8
0
  6
SLD-Сплошная
 62
     7
370
    25
100
AcDbSpline
210
0.0
220
0.0
230
1.0
 70
     8
 71
     3
 72
    15
 73
    11
 74
     0
 42
0.00000001
 43
0.00000001
 40
0.0
 40
0.0
 40
0.0
 40
0.0
 40
0.067905082190327
 40
0.1439940238376778
 40
0.287670227847614
 40
0.4297530876896757
 40
0.5712426653759219
 40
0.7129256714217902
 40
0.855496807626453
 40
1.0
 40
1.0
 40
1.0
 40
1.0
 10
197.7034221269419
 20
218.6996125771412
 30
0.0
 10
197.5440403913935
 20
218.6758813175327
 30
0.0
 10
197.2060683768171
 20
218.6255587282427
 30
0.0
 10
196.5761601162663
 20
218.3520487254831
 30
0.0
 10
195.895583634791
 20
217.7997803678215
 30
0.0
 10
195.404893271203
 20
216.8877056037952
 30
0.0
 10
195.2849906783516
 20
215.8636144753315
 30
0.0
 10
195.5590771634901
 20
214.8740088803156
 30
0.0
 10
196.1804582057995
 20
214.0259352122332
 30
0.0
 10
196.7981187451572
 20
213.7243947213572
 30
0.0
 10
197.1090274919699
 20
213.5726097680412
 30
0.0
  0
SPLINE
  5
1D4
330
1F
100
AcDbEntity
  8
0
  6
SLD-Сплошная
 62
     7
370
    25
100
AcDbSpline
210
0.0
220
0.0
230
1.0
 70
     8
 71
     3
 72
    14
 73
    10
 74
     0
 42
0.00000001
 43
0.00000001
 40
0.0
 40
0.0
 40
0.0
 40
0.0
 40
0.1443023576522009
 40
0.2866753443631916
 40
0.4281614352643591
 40
0.5694543666382265
 40
0.7113397556071908
 40
0.854816274268179
 40
1.0
 40
1.0
 40
1.0
 40
1.0
 10
309.1090274919696
 20
289.5726097680412
 30
0.0
 10
308.798120979394
 20
289.7243840949993
 30
0.0
 10
308.1804648786376
 20
290.0259034752376
 30
0.0
 10
307.5590509560648
 20
290.8741335266728
 30
0.0
 10
307.2850882601724
 20
291.8631503618831
 30
0.0
 10
307.4045287875052
 20
292.8894391417122
 30
0.0
 10
307.8969568580595
 20
293.7932491165772
 30
0.0
 10
308.7012816788052
 20
294.4826130096815
 30
0.0
 10
309.3789728058571
 20
294.6261175019033
 30
0.0
 10
309.7198223846682
 20
294.6982941082935
 30
0.0
  0
LINE
  5
1D5
330
1F
100
AcDbEntity
  8
0
  6
SLD-Сплошная
 62
     7
370
    25
100
AcDbLine
 10
310.1044487063
 20
289.4464448911
 30
0.0
 11
309.109027492
 21
289.572609768
 31
0.0
  0
ARC
  5
1D6
330
1F
100
AcDbEntity
  8
0
  6
SLD-Сплошная
 62
     7
370
    25
100
AcDbCircle
 10
269.6090201193
 20
253.8559533248
 30
0.0
 40
14.06033280899803
100
AcDbArc
 50
179.1245268487
 51
263.9505512157
  0
ARC
  5
1D7
330
1F
100
AcDbEntity
  8
0
  6
SLD-Сплошная
 62
     7
370
    25
100
AcDbCircle
 10
269.5771191172
 20
254.3051613639
 30
0.0
 40
14.02874844926262
100
AcDbArc
 50
93.5591537053
 51
180.9572760327
  0
ARC
  5
1D8
330
1F
100
AcDbEntity
  8
0
  6
SLD-Сплошная
 62
     7
370
    25
100
AcDbCircle
 10
269.3147716712
 20
253.7362191606
 30
0.0
 40
12.27181947320306
100
AcDbArc
 50
178.4377538599
 51
1.5622461401
  0
ARC
  5
1D9
330
1F
100
AcDbEntity
  8
0
  6
SLD-Сплошная
 62
     7
370
    25
100
AcDbCircle
 10
269.3147716712
 20
254.4053514186
 30
0.0
 40
12.27181947320306
100
AcDbArc
 50
358.4377538599
 51
181.5622461401
  0
ARC
  5
1DA
330
1F
100
AcDbEntity
  8
0
  6
SLD-Сплошная
 62
     7
370
    25
100
AcDbCircle
 10
269.918893234
 20
253.8507316881
 30
0.0
 40
12.48509039626711
100
AcDbArc
 50
178.9900917724
 51
268.118082431
  0
ARC
  5
1DB
330
1F
100
AcDbEntity
  8
0
  6
SLD-Сплошная
 62
     7
370
    25
100
AcDbCircle
 10
269.918893234
 20
254.2908388911
 30
0.0
 40
12.48509039628902
100
AcDbArc
 50
91.8819175727
 51
181.0099082276
  0
ARC
  5
1DC
330
1F
100
AcDbEntity
  8
0
  6
SLD-Сплошная
 62
     7
370
    25
100
AcDbCircle
 10
269.7030002388
 20
254.3686251406
 30
0.0
 40
11.16041825116855
100
AcDbArc
 50
358.4707568908
 51
181.5292431092
  0
ARC
  5
1DD
330
1F
100
AcDbEntity
  8
0
  6
SLD-Сплошная
 62
     7
370
    25
100
AcDbCircle
 10
269.7030002388
 20
253.7729454386
 30
0.0
 40
11.16041825116855
100
AcDbArc
 50
178.4707568908
 51
1.5292431092
  0
ARC
  5
1DE
330
1F
100
AcDbEntity
  8
0
  6
SLD-Сплошная
 62
     7
370
    25
100
AcDbCircle
 10
271.1575386533
 20
253.9022712485
 30
0.0
 40
11.39577820731301
100
AcDbArc
 50
179.152712954
 51
265.740976916
  0
ARC
  5
1DF
330
1F
100
AcDbEntity
  8
0
  6
SLD-Сплошная
 62
     7
370
    25
100
AcDbCircle
 10
271.1185602797
 20
254.2749499613
 30
0.0
 40
11.35738904105356
100
AcDbArc
 50
94.0762843561
 51
181.0300258348
  0
LWPOLYLINE
  5
1E0
330
1F
100
AcDbEntity
  8
0
  6
SLD-Сплошная
 62
     7
370
    25
100
AcDbPolyline
 90
       12
 70
   128
 43
0.0
 10
174.9752883073
 20
251.0707852896
 10
174.7565350533
 20
251.1923063688
 10
174.5555038869
 20
251.5470246911
 10
174.3884811577
 20
252.1062030878
 10
174.268998054
 20
252.8245402506
 10
174.206734386
 20
253.6438407748
 10
174.206734386
 20
254.4977298044
 10
174.268998054
 20
255.3170303286
 10
174.3884811577
 20
256.0353674915
 10
174.5555038869
 20
256.5945458881
 10
174.7565350533
 20
256.9492642105
 10
174.9752883073
 20
257.0707852896
  0
LINE
  5
1E1
330
1F
100
AcDbEntity
  8
0
  6
SLD-Сплошная
 62
     7
370
    25
100
AcDbLine
 10
174.9752883073
 20
257.0707852896
 30
0.0
 11
175.8429558166
 21
257.0707852896
 31
0.0
  0
ARC
  5
1E2
330
1F
100
AcDbEntity
  8
0
  6
SLD-Сплошная
 62
     7
370
    25
100
AcDbCircle
 10
285.5845332451
 20
254.0707852896
 30
0.0
 40
109.7825751952163
100
AcDbArc
 50
178.4340981412
 51
181.5659018588
  0
LINE
  5
1E3
330
1F
100
AcDbEntity
  8
0
  6
SLD-Сплошная
 62
     7
370
    25
100
AcDbLine
 10
175.8429558166
 20
251.0707852896
 30
0.0
 11
174.9752883073
 21
251.0707852896
 31
0.0
  0
LINE
  5
1E4
330
1F
100
AcDbEntity
  8
0
  6
SLD-Сплошная
 62
     7
370
    25
100
AcDbLine
 10
174.9752883073
 20
251.0707852896
 30
0.0
 11
162.2250674002
 21
251.0707852896
 31
0.0
  0
LWPOLYLINE
  5
1E5
330
1F
100
AcDbEntity
  8
0
  6
SLD-Сплошная
 62
     7
370
    25
100
AcDbPolyline
 90
       12
 70
   128
 43
0.0
 10
162.2250674002
 20
251.0707852896
 10
162.0063141462
 20
251.1923063688
 10
161.8052829799
 20
251.5470246911
 10
161.6382602507
 20
252.1062030878
 10
161.5187771469
 20
252.8245402506
 10
161.456513479
 20
253.6438407748
 10
161.456513479
 20
254.4977298044
 10
161.5187771469
 20
255.3170303286
 10
161.6382602507
 20
256.0353674915
 10
161.8052829799
 20
256.5945458881
 10
162.0063141462
 20
256.9492642105
 10
162.2250674002
 20
257.0707852896
  0
LINE
  5
1E6
330
1F
100
AcDbEntity
  8
0
  6
SLD-Сплошная
 62
     7
370
    25
100
AcDbLine
 10
174.9752883073
 20
257.0707852896
 30
0.0
 11
162.2250674002
 21
257.0707852896
 31
0.0
  0
LWPOLYLINE
  5
1E7
330
1F
100
AcDbEntity
  8
0
  6
SLD-Сплошная
 62
     7
370
    25
100
AcDbPolyline
 90
       36
 70
   128
 43
0.0
 10
183.9993555552
 20
281.7207852896
 10
183.3578655919
 20
281.6094745186
 10
182.7215405287
 20
281.2764384144
 10
182.0955036807
 20
280.7243583879
 10
181.4847955286
 20
279.9576794628
 10
180.8943331352
 20
278.9825744871
 10
180.3288705567
 20
277.8068944327
 10
179.7929605651
 20
276.4401051841
 10
179.2909179927
 20
274.8932113246
 10
178.826784991
 20
273.1786675341
 10
178.4042984861
 20
271.310278311
 10
178.0268600909
 20
269.3030868268
 10
177.6975087174
 20
267.173253807
 10
177.4188961092
 20
264.9379274149
 10
177.1932654912
 20
262.6151051841
 10
177.0224335084
 20
260.2234891135
 10
176.9077755997
 20
257.7823350895
 10
176.8502149229
 20
255.3112978488
 10
176.8502149229
 20
252.8302727304
 10
176.9077755997
 20
250.3592354898
 10
177.0224335084
 20
247.9180814657
 10
177.1932654912
 20
245.5264653952
 10
177.4188961092
 20
243.2036431644
 10
177.6975087174
 20
240.9683167722
 10
178.0268600909
 20
238.8384837525
 10
178.4042984861
 20
236.8312922682
 10
178.826784991
 20
234.9629030451
 10
179.2909179927
 20
233.2483592546
 10
179.7929605651
 20
231.7014653952
 10
180.3288705567
 20
230.3346761465
 10
180.8943331352
 20
229.1589960921
 10
181.4847955286
 20
228.1838911164
 10
182.0955036807
 20
227.4172121914
 10
182.7215405287
 20
226.8651321649
 10
183.3578655919
 20
226.5320960607
 10
183.9993555552
 20
226.4207852896
  0
LINE
  5
1E8
330
1F
100
AcDbEntity
  8
0
  6
SLD-Сплошная
 62
     7
370
    25
100
AcDbLine
 10
183.9993555552
 20
226.4207852896
 30
0.0
 11
190.1174753706
 21
226.4207852896
 31
0.0
  0
LWPOLYLINE
  5
1E9
330
1F
100
AcDbEntity
  8
0
  6
SLD-Сплошная
 62
     7
370
    25
100
AcDbPolyline
 90
       10
 70
   128
 43
0.0
 10
185.6731386776
 20
281.5207852896
 10
185.1401245105
 20
281.6920510193
 10
184.4994166738
 20
281.6940654451
 10
183.8612300436
 20
281.4746618956
 10
183.2306800876
 20
281.0355990282
 10
182.6128210604
 20
280.3803962081
 10
182.0126054911
 20
279.5143052983
 10
181.4348444851
 20
278.4442685626
 10
180.8841691605
 20
277.1788630187
 10
180.3649935267
 20
275.7282316886
  0
LINE
  5
1EA
330
1F
100
AcDbEntity
  8
0
  6
SLD-Сплошная
 62
     7
370
    25
100
AcDbLine
 10
180.3649935267
 20
275.7282316886
 30
0.0
 11
190.1174753706
 21
275.7282316886
 31
0.0
  0
ARC
  5
1EB
330
1F
100
AcDbEntity
  8
0
  6
SLD-Сплошная
 62
     7
370
    25
100
AcDbCircle
 10
183.8372525272
 20
228.2174524248
 30
0.0
 40
2.651626730135037
100
AcDbArc
 50
273.5048727696
 51
317.3458255225
  0
LWPOLYLINE
  5
1EC
330
1F
100
AcDbEntity
  8
0
  6
SLD-Сплошная
 62
     7
370
    25
100
AcDbPolyline
 90
       41
 70
   128
 43
0.0
 10
185.9831237613
 20
281.5207852896
 10
185.6180092506
 20
281.8761357389
 10
184.9756429532
 20
282.3200574203
 10
184.3256358832
 20
282.5428902454
 10
183.6730752272
 20
282.5428902454
 10
183.0230681572
 20
282.3200574203
 10
182.3807018597
 20
281.8761357389
 10
181.7510037221
 20
281.2145994903
 10
181.138901986
 20
280.3406260927
 10
180.5491871774
 20
279.2610555729
 10
179.9864746143
 20
277.9843370338
 10
179.4551682854
 20
276.5204625292
 10
178.9594263832
 20
274.8808888617
 10
178.5031287601
 20
273.0784479185
 10
178.0898465637
 20
271.1272462436
 10
177.7228142876
 20
269.0425546357
 10
177.404904457
 20
266.8406886333
 10
177.1386051472
 20
264.5388808231
 10
176.9260005116
 20
262.1551459721
 10
176.7687544696
 20
259.7081400377
 10
176.6680976848
 20
257.217014159
 10
176.6248179328
 20
254.7012647735
 10
176.6392539365
 20
252.1805810312
 10
176.7112927146
 20
249.6746907001
 10
176.8403704659
 20
247.2032057696
 10
177.025476982
 20
244.7854689603
 10
177.2651635536
 20
242.4404023407
 10
177.557554308
 20
240.1863592367
 10
177.9003608914
 20
238.0409805919
 10
178.2909003773
 20
236.0210569028
 10
178.7261162648
 20
234.142396811
 10
179.2026023995
 20
232.419703379
 10
179.7166296313
 20
230.8664590186
 10
180.2641750002
 20
229.4948199728
 10
180.8409532212
 20
228.315521177
 10
181.4424502229
 20
227.3377922431
 10
182.0639584756
 20
226.5692852257
 10
182.7006138345
 20
226.0160147343
 10
183.3474336083
 20
225.6823108605
 10
183.9993555552
 20
225.5707852896
 10
183.9993555552
 20
225.5707852896
  0
LINE
  5
1ED
330
1F
100
AcDbEntity
  8
0
  6
SLD-Сплошная
 62
     7
370
    25
100
AcDbLine
 10
170.4280976958
 20
282.5707852896
 30
0.0
 11
181.0259138866
 21
282.5707852896
 31
0.0
  0
LINE
  5
1EE
330
1F
100
AcDbEntity
  8
0
  6
SLD-Сплошная
 62
     7
370
    25
100
AcDbLine
 10
170.4280976958
 20
225.5707852896
 30
0.0
 11
183.9993555552
 21
225.5707852896
 31
0.0
  0
LWPOLYLINE
  5
1EF
330
1F
100
AcDbEntity
  8
0
  6
SLD-Сплошная
 62
     7
370
    25
100
AcDbPolyline
 90
       17
 70
   128
 43
0.0
 10
170.4280976958
 20
282.5707852896
 10
169.753489552
 20
282.4513461054
 10
169.0845357693
 20
282.0940296558
 10
168.4268433158
 20
281.501830859
 10
167.7859247704
 20
280.6797133461
 10
167.1671521182
 20
279.634567857
 10
166.5757117242
 20
278.3751544846
 10
166.0165608628
 20
276.9120292506
 10
165.494386167
 20
275.2574556274
 10
165.013564347
 20
273.42530175
 10
164.5781255056
 20
271.4309241773
 10
164.1917193595
 20
269.2910391783
 10
163.8575846478
 20
267.0235826207
 10
163.5785219865
 20
264.6475596388
 10
163.3568703943
 20
262.1828853376
 10
163.1944876878
 20
259.6502178707
 10
163.0927349096
 20
257.0707852896
  0
LWPOLYLINE
  5
1F0
330
1F
100
AcDbEntity
  8
0
  6
SLD-Сплошная
 62
     7
370
    25
100
AcDbPolyline
 90
       17
 70
   128
 43
0.0
 10
163.0927349096
 20
251.0707852896
 10
163.1944876878
 20
248.4913527086
 10
163.3568703943
 20
245.9586852416
 10
163.5785219865
 20
243.4940109404
 10
163.8575846478
 20
241.1179879585
 10
164.1917193595
 20
238.850531401
 10
164.5781255056
 20
236.7106464019
 10
165.013564347
 20
234.7162688293
 10
165.494386167
 20
232.8841149519
 10
166.0165608628
 20
231.2295413287
 10
166.5757117242
 20
229.7664160946
 10
167.1671521182
 20
228.5070027223
 10
167.7859247704
 20
227.4618572332
 10
168.4268433158
 20
226.6397397202
 10
169.0845357693
 20
226.0475409235
 10
169.753489552
 20
225.6902244739
 10
170.4280976958
 20
225.5707852896
  0
LWPOLYLINE
  5
1F1
330
1F
100
AcDbEntity
  8
0
  6
SLD-Сплошная
 62
     7
370
    25
100
AcDbPolyline
 90
        9
 70
   128
 43
0.0
 10
184.813953002
 20
281.5207852896
 10
184.499013708
 20
281.4938015334
 10
183.8600142262
 20
281.2722162664
 10
183.2287938318
 20
280.8288114116
 10
182.6104999394
 20
280.1672028039
 10
182.0101745521
 20
279.2927856649
 10
181.432713145
 20
278.2126906065
 10
180.8828247444
 20
276.9357254831
 10
180.4487450587
 20
275.7282316886
  0
LINE
  5
1F2
330
1F
100
AcDbEntity
  8
0
  6
SLD-Сплошная
 62
     7
370
    25
100
AcDbLine
 10
186.3561663586
 20
277.7062852568
 30
0.0
 11
189.3810700599
 21
277.7062852568
 31
0.0
  0
ARC
  5
1F3
330
1F
100
AcDbEntity
  8
0
  6
SLD-Сплошная
 62
     7
370
    25
100
AcDbCircle
 10
202.2844421925
 20
272.1322796658
 30
0.0
 40
14.05583689151129
100
AcDbArc
 50
149.9531964617
 51
156.6365954152
  0
LINE
  5
1F4
330
1F
100
AcDbEntity
  8
0
  6
SLD-Сплошная
 62
     7
370
    25
100
AcDbLine
 10
187.4506336064
 20
279.7381840863
 30
0.0
 11
190.1174753706
 21
279.7381840863
 31
0.0
  0
LINE
  5
1F5
330
1F
100
AcDbEntity
  8
0
  6
SLD-Сплошная
 62
     7
370
    25
100
AcDbLine
 10
186.3561663586
 20
277.9382706767
 30
0.0
 11
189.3810700599
 21
277.9382706767
 31
0.0
  0
LINE
  5
1F6
330
1F
100
AcDbEntity
  8
0
  6
SLD-Сплошная
 62
     7
370
    25
100
AcDbLine
 10
189.3810700599
 20
277.7062852568
 30
0.0
 11
189.3810700599
 21
277.9382706767
 31
0.0
  0
LINE
  5
1F7
330
1F
100
AcDbEntity
  8
0
  6
SLD-Сплошная
 62
     7
370
    25
100
AcDbLine
 10
186.3561663586
 20
277.7062852568
 30
0.0
 11
186.3561663586
 21
277.9382706767
 31
0.0
  0
ARC
  5
1F8
330
1F
100
AcDbEntity
  8
0
  6
SLD-Сплошная
 62
     7
370
    25
100
AcDbCircle
 10
202.1497663797
 20
272.3676372406
 30
0.0
 40
13.93095698736817
100
AcDbArc
 50
149.7355996021
 51
156.4296714914
  0
ARC
  5
1F9
330
1F
100
AcDbEntity
  8
0
  6
SLD-Сплошная
 62
     7
370
    25
100
AcDbCircle
 10
198.8210807292
 20
272.5128003189
 30
0.0
 40
13.59447751364396
100
AcDbArc
 50
148.7427999504
 51
156.4784663671
  0
LINE
  5
1FA
330
1F
100
AcDbEntity
  8
0
  6
SLD-Сплошная
 62
     7
370
    25
100
AcDbLine
 10
190.1174753706
 20
279.5667121397
 30
0.0
 11
187.1998868623
 21
279.5667121397
 31
0.0
  0
ARC
  5
1FB
330
1F
100
AcDbEntity
  8
0
  6
SLD-Сплошная
 62
     7
370
    25
100
AcDbCircle
 10
190.3626476333
 20
278.4831215063
 30
0.0
 40
3.261490625631816
100
AcDbArc
 50
96.9299094213
 51
153.2332833577
  0
LINE
  5
1FC
330
1F
100
AcDbEntity
  8
0
  6
SLD-Сплошная
 62
     7
370
    25
100
AcDbLine
 10
187.4506336064
 20
279.9519630254
 30
0.0
 11
190.1174753706
 21
279.9519630254
 31
0.0
  0
LINE
  5
1FD
330
1F
100
AcDbEntity
  8
0
  6
SLD-Сплошная
 62
     7
370
    25
100
AcDbLine
 10
187.4506336064
 20
279.7381840863
 30
0.0
 11
187.4506336064
 21
279.9519630254
 31
0.0
  0
LINE
  5
1FE
330
1F
100
AcDbEntity
  8
0
  6
SLD-Сплошная
 62
     7
370
    25
100
AcDbLine
 10
181.0259138866
 20
-4.9466588035
 30
0.0
 11
183.9993555552
 21
-4.9466588035
 31
0.0
  0
LINE
  5
1FF
330
1F
100
AcDbEntity
  8
0
  6
SLD-Сплошная
 62
     7
370
    25
100
AcDbLine
 10
206.2156495598
 20
-4.0966588035
 30
0.0
 11
207.0849828035
 21
-4.0966588035
 31
0.0
  0
LINE
  5
200
330
1F
100
AcDbEntity
  8
0
  6
SLD-Сплошная
 62
     7
370
    25
100
AcDbLine
 10
207.0849828035
 20
-4.9466588035
 30
0.0
 11
210.0036886753
 21
-4.9466588035
 31
0.0
  0
SPLINE
  5
201
330
1F
100
AcDbEntity
  8
0
  6
SLD-Сплошная
 62
     7
370
    25
100
AcDbSpline
210
0.0
220
0.0
230
1.0
 70
     8
 71
     3
 72
    10
 73
     6
 74
     0
 42
0.00000001
 43
0.00000001
 40
0.0
 40
0.0
 40
0.0
 40
0.0
 40
0.3490878444253961
 40
0.7348443421369217
 40
1.0
 40
1.0
 40
1.0
 40
1.0
 10
175.0439897740784
 20
21.0926473269355
 30
0.0
 10
175.1741434435989
 20
20.9856579031279
 30
0.0
 10
175.4481222978698
 20
20.76044074358208
 30
0.0
 10
175.9173305571717
 20
20.57404671160182
 30
0.0
 10
176.2371891411273
 20
20.57349568898356
 30
0.0
 10
176.3674867742649
 20
20.57327122434025
 30
0.0
  0
LINE
  5
202
330
1F
100
AcDbEntity
  8
0
  6
SLD-Сплошная
 62
     7
370
    25
100
AcDbLine
 10
176.3679280732
 20
20.5533411965
 30
0.0
 11
176.9039550219
 21
20.5533411965
 31
0.0
  0
LINE
  5
203
330
1F
100
AcDbEntity
  8
0
  6
SLD-Сплошная
 62
     7
370
    25
100
AcDbLine
 10
201.9196559497
 20
-3.8966588035
 30
0.0
 11
206.2156495598
 21
-3.8966588035
 31
0.0
  0
LINE
  5
204
330
1F
100
AcDbEntity
  8
0
  6
SLD-Сплошная
 62
     7
370
    25
100
AcDbLine
 10
185.9831237613
 20
-3.8966588035
 30
0.0
 11
189.9691322877
 21
-3.8966588035
 31
0.0
  0
SPLINE
  5
205
330
1F
100
AcDbEntity
  8
0
  6
SLD-Сплошная
 62
     7
370
    25
100
AcDbSpline
210
0.0
220
0.0
230
1.0
 70
     8
 71
     3
 72
    20
 73
    16
 74
     0
 42
0.00000001
 43
0.00000001
 40
0.0
 40
0.0
 40
0.0
 40
0.0
 40
0.0273178867233177
 40
0.1098532855083282
 40
0.1815994620600833
 40
0.2477364751360811
 40
0.3124677792146538
 40
0.3819946066077603
 40
0.4687517918379531
 40
0.5614136566080913
 40
0.656952228955674
 40
0.7547629789651169
 40
0.8712793577614296
 40
0.9493966172129417
 40
1.0
 40
1.0
 40
1.0
 40
1.0
 10
176.3683693721448
 20
26.53341116865973
 30
0.0
 10
176.3044791974244
 20
26.53898927321355
 30
0.0
 10
176.0475579474089
 20
26.56142047802659
 30
0.0
 10
175.6293817044755
 20
26.42401453321372
 30
0.0
 10
175.186003957224
 20
26.16496691132242
 30
0.0
 10
174.8556773906811
 20
25.83091954866237
 30
0.0
 10
174.6144834963933
 20
25.45276388199222
 30
0.0
 10
174.4376530575798
 20
25.01325422325701
 30
0.0
 10
174.3177546995313
 20
24.49310451835326
 30
0.0
 10
174.252797652891
 20
23.86025960949151
 30
0.0
 10
174.2561649180002
 20
23.1712553526025
 30
0.0
 10
174.3383474415695
 20
22.46541492768142
 30
0.0
 10
174.5048415762925
 20
21.87189002248594
 30
0.0
 10
174.7639756628725
 20
21.39221298839211
 30
0.0
 10
174.9649726917153
 20
21.17718165430396
 30
0.0
 10
175.0439897740784
 20
21.09264732693547
 30
0.0
  0
LINE
  5
206
330
1F
100
AcDbEntity
  8
0
  6
SLD-Сплошная
 62
     7
370
    25
100
AcDbLine
 10
176.9039550219
 20
26.5533411965
 30
0.0
 11
176.3679280732
 21
26.5533411965
 31
0.0
  0
SPLINE
  5
207
330
1F
100
AcDbEntity
  8
0
  6
SLD-Сплошная
 62
     7
370
    25
100
AcDbSpline
210
0.0
220
0.0
230
1.0
 70
     8
 71
     3
 72
     9
 73
     5
 74
     0
 42
0.00000001
 43
0.00000001
 40
0.0
 40
0.0
 40
0.0
 40
0.0
 40
0.5969043791311854
 40
1.0
 40
1.0
 40
1.0
 40
1.0
 10
172.2305154613336
 20
33.28318346244477
 30
0.0
 10
172.401567439927
 20
33.2030140054948
 30
0.0
 10
172.6881325658898
 20
33.0687052958373
 30
0.0
 10
173.0038874954132
 20
33.0723774039372
 30
0.0
 10
173.1311669247718
 20
33.07385761463158
 30
0.0
  0
SPLINE
  5
208
330
1F
100
AcDbEntity
  8
0
  6
SLD-Сплошная
 62
     7
370
    25
100
AcDbSpline
210
0.0
220
0.0
230
1.0
 70
     8
 71
     3
 72
    11
 73
     7
 74
     0
 42
0.00000001
 43
0.00000001
 40
0.0
 40
0.0
 40
0.0
 40
0.0
 40
0.2737919704371966
 40
0.5363062812903342
 40
0.8164338783018871
 40
1.0
 40
1.0
 40
1.0
 40
1.0
 10
171.4744911384536
 20
9.011660648288677
 30
0.0
 10
171.5771906489184
 20
8.866020478888792
 30
0.0
 10
171.7783594138744
 20
8.580739148203287
 30
0.0
 10
172.2281950524495
 20
8.25993965563146
 30
0.0
 10
172.6919709386317
 20
8.07070924676767
 30
0.0
 10
173.006670340343
 20
8.073175886580325
 30
0.0
 10
173.1312528963319
 20
8.074152374908216
 30
0.0
  0
LINE
  5
209
330
1F
100
AcDbEntity
  8
0
  6
SLD-Сплошная
 62
     7
370
    25
100
AcDbLine
 10
173.1326900094
 20
33.0533411965
 30
0.0
 11
176.4691249376
 21
33.0533411965
 31
0.0
  0
LINE
  5
20A
330
1F
100
AcDbEntity
  8
0
  6
SLD-Сплошная
 62
     7
370
    25
100
AcDbLine
 10
173.1326900094
 20
8.0533411965
 30
0.0
 11
175.5706569244
 21
8.0533411965
 31
0.0
  0
SPLINE
  5
20B
330
1F
100
AcDbEntity
  8
0
  6
SLD-Сплошная
 62
     7
370
    25
100
AcDbSpline
210
0.0
220
0.0
230
1.0
 70
     8
 71
     3
 72
    19
 73
    15
 74
     0
 42
0.00000001
 43
0.00000001
 40
0.0
 40
0.0
 40
0.0
 40
0.0
 40
0.032456166848326
 40
0.1216836591154405
 40
0.1993627304996978
 40
0.2710777568669979
 40
0.3414059828148613
 40
0.4171912267825281
 40
0.5122070898231965
 40
0.6125597195581213
 40
0.7161827745698516
 40
0.8225541891201172
 40
0.9502290488606904
 40
0.9999999999999999
 40
0.9999999999999999
 40
0.9999999999999999
 40
0.9999999999999999
 10
173.1341271225147
 20
14.03253001809177
 30
0.0
 10
173.0641630452248
 20
14.03815823532137
 30
0.0
 10
172.8018558858165
 20
14.05925937366567
 30
0.0
 10
172.3803638667576
 20
13.91829656264865
 30
0.0
 10
171.9403578211717
 20
13.65654445666514
 30
0.0
 10
171.6127837759927
 20
13.32119871515436
 30
0.0
 10
171.3736886443852
 20
12.94175909754042
 30
0.0
 10
171.1982434763717
 20
12.49984018093894
 30
0.0
 10
171.0798626479278
 20
11.9768493064995
 30
0.0
 10
171.0168582909484
 20
11.34169249825453
 30
0.0
 10
171.02159900636
 20
10.65300065171637
 30
0.0
 10
171.1082136254968
 20
9.947969404964285
 30
0.0
 10
171.2522370764893
 20
9.413862559107255
 30
0.0
 10
171.4258072475283
 20
9.099761418115666
 30
0.0
 10
171.4744911384536
 20
9.011660648288677
 30
0.0
  0
LINE
  5
20C
330
1F
100
AcDbEntity
  8
0
  6
SLD-Сплошная
 62
     7
370
    25
100
AcDbLine
 10
176.4691249376
 20
14.0533411965
 30
0.0
 11
173.1326900094
 21
14.0533411965
 31
0.0
  0
SPLINE
  5
20D
330
1F
100
AcDbEntity
  8
0
  6
SLD-Сплошная
 62
     7
370
    25
100
AcDbSpline
210
0.0
220
0.0
230
1.0
 70
     8
 71
     3
 72
    21
 73
    17
 74
     0
 42
0.00000001
 43
0.00000001
 40
0.0
 40
0.0
 40
0.0
 40
0.0
 40
0.0269368686564576
 40
0.1034577228522822
 40
0.1700369022903029
 40
0.2314685619886521
 40
0.2916670363890175
 40
0.3564553018126858
 40
0.4375366630478915
 40
0.523539754499626
 40
0.6122948405298977
 40
0.7033102774972683
 40
0.8122338052227634
 40
0.8844067219724949
 40
0.9558029186889795
 40
0.9999999999999999
 40
0.9999999999999999
 40
0.9999999999999999
 40
0.9999999999999999
 10
173.1342130940749
 20
39.03282477836847
 30
0.0
 10
173.0664118242981
 20
39.03846101286842
 30
0.0
 10
172.8060042369481
 20
39.06010836892404
 30
0.0
 10
172.385620762937
 20
38.92050420766716
 30
0.0
 10
171.9443277663523
 20
38.65976784621644
 30
0.0
 10
171.6157032732617
 20
38.32492037821567
 30
0.0
 10
171.3758082505267
 20
37.94597194776492
 30
0.0
 10
171.1998332008954
 20
37.5049811126495
 30
0.0
 10
171.0808849359158
 20
36.98309305542727
 30
0.0
 10
171.0170841281615
 20
36.34881684216559
 30
0.0
 10
171.0214811917695
 20
35.66005343563336
 30
0.0
 10
171.1056300683289
 20
34.95454443196338
 30
0.0
 10
171.2719498132676
 20
34.35871612633132
 30
0.0
 10
171.5684112010367
 20
33.83517845466585
 30
0.0
 10
171.8895350794935
 20
33.49186853976224
 30
0.0
 10
172.1362022767082
 20
33.34090453753832
 30
0.0
 10
172.2305154613336
 20
33.2831834624448
 30
0.0
  0
LINE
  5
20E
330
1F
100
AcDbEntity
  8
0
  6
SLD-Сплошная
 62
     7
370
    25
100
AcDbLine
 10
175.5706569244
 20
39.0533411965
 30
0.0
 11
173.1326900094
 21
39.0533411965
 31
0.0
  0
LINE
  5
20F
330
1F
100
AcDbEntity
  8
0
  6
SLD-Сплошная
 62
     7
370
    25
100
AcDbLine
 10
189.9691322877
 20
-4.0966588035
 30
0.0
 11
192.994035989
 21
-4.0966588035
 31
0.0
  0
LINE
  5
210
330
1F
100
AcDbEntity
  8
0
  6
SLD-Сплошная
 62
     7
370
    25
100
AcDbLine
 10
198.0355665728
 20
-4.0966588035
 30
0.0
 11
201.0604702741
 21
-4.0966588035
 31
0.0
  0
LINE
  5
211
330
1F
100
AcDbEntity
  8
0
  6
SLD-Сплошная
 62
     7
370
    25
100
AcDbLine
 10
194.0023494303
 20
-4.0966588035
 30
0.0
 11
197.0272531316
 21
-4.0966588035
 31
0.0
  0
SPLINE
  5
212
330
1F
100
AcDbEntity
  8
0
  6
SLD-Сплошная
 62
     7
370
    25
100
AcDbSpline
210
0.0
220
0.0
230
1.0
 70
     8
 71
     3
 72
    11
 73
     7
 74
     0
 42
0.00000001
 43
0.00000001
 40
0.0
 40
0.0
 40
0.0
 40
0.0
 40
0.3031982894634795
 40
0.5974470161770761
 40
0.9002289366941794
 40
1.0
 40
1.0
 40
1.0
 40
1.0
 10
168.2462800106254
 20
20.39935738655871
 30
0.0
 10
168.3719661908046
 20
20.25668526073607
 30
0.0
 10
168.6196286477914
 20
19.9755522899161
 30
0.0
 10
169.1371926470484
 20
19.68884894913117
 30
0.0
 10
169.5883918811651
 20
19.54280540332551
 30
0.0
 10
169.8536604746017
 20
19.56948247354168
 30
0.0
 10
169.9194061793719
 20
19.57609427315143
 30
0.0
  0
LINE
  5
213
330
1F
100
AcDbEntity
  8
0
  6
SLD-Сплошная
 62
     7
370
    25
100
AcDbLine
 10
169.9216000913
 20
19.5533411965
 30
0.0
 11
176.8676486911
 21
19.5533411965
 31
0.0
  0
SPLINE
  5
214
330
1F
100
AcDbEntity
  8
0
  6
SLD-Сплошная
 62
     7
370
    25
100
AcDbSpline
210
0.0
220
0.0
230
1.0
 70
     8
 71
     3
 72
    21
 73
    17
 74
     0
 42
0.00000001
 43
0.00000001
 40
0.0
 40
0.0
 40
0.0
 40
0.0
 40
0.0520252713642496
 40
0.1159959694907364
 40
0.1743728048086615
 40
0.2312527106808777
 40
0.2910694037460063
 40
0.3614126449375748
 40
0.455138306901215
 40
0.5384967032157751
 40
0.6250843247823663
 40
0.7105879773499678
 40
0.7987462073197514
 40
0.8971535109736353
 40
0.9743693655471063
 40
1.0
 40
1.0
 40
1.0
 40
1.0
 10
169.9237940032262
 20
27.5305881198476
 30
0.0
 10
169.7664473419954
 20
27.52943339331121
 30
0.0
 10
169.415625942376
 20
27.52685880560471
 30
0.0
 10
168.9250856589926
 20
27.31822466300004
 30
0.0
 10
168.4971046960801
 20
27.00983852800859
 30
0.0
 10
168.1711577685543
 20
26.63187535801939
 30
0.0
 10
167.9215977006015
 20
26.19521033873304
 30
0.0
 10
167.719375553554
 20
25.65097856932949
 30
0.0
 10
167.5754284022694
 20
24.99325590484738
 30
0.0
 10
167.4892529360542
 20
24.21332352122438
 30
0.0
 10
167.4682765090333
 20
23.41538551159536
 30
0.0
 10
167.5118253604684
 20
22.6122383691201
 30
0.0
 10
167.6248635086061
 20
21.8332719459112
 30
0.0
 10
167.8097560044433
 20
21.16570733315859
 30
0.0
 10
168.0369133832496
 20
20.68613591481855
 30
0.0
 10
168.204512267485
 20
20.45656847151855
 30
0.0
 10
168.2462800106254
 20
20.39935738655871
 30
0.0
  0
LINE
  5
215
330
1F
100
AcDbEntity
  8
0
  6
SLD-Сплошная
 62
     7
370
    25
100
AcDbLine
 10
176.8676486911
 20
27.5533411965
 30
0.0
 11
169.9216000913
 21
27.5533411965
 31
0.0
  0
SPLINE
  5
216
330
1F
100
AcDbEntity
  8
0
  6
SLD-Сплошная
 62
     7
370
    25
100
AcDbSpline
210
0.0
220
0.0
230
1.0
 70
     8
 71
     3
 72
     9
 73
     5
 74
     0
 42
0.00000001
 43
0.00000001
 40
0.0
 40
0.0
 40
0.0
 40
0.0
 40
0.7194790633771554
 40
1.0
 40
1.0
 40
1.0
 40
1.0
 10
212.057999964389
 20
-13.89606794840972
 30
0.0
 10
212.3755864600456
 20
-13.89674449176981
 30
0.0
 10
212.8169981866994
 20
-13.89768481567152
 30
0.0
 10
213.3341571776999
 20
-13.89590016687248
 30
0.0
 10
213.4792311022383
 20
-13.89539953551985
 30
0.0
  0
SPLINE
  5
217
330
1F
100
AcDbEntity
  8
0
  6
SLD-Сплошная
 62
     7
370
    25
100
AcDbSpline
210
0.0
220
0.0
230
1.0
 70
     8
 71
     3
 72
    12
 73
     8
 74
     0
 42
0.00000001
 43
0.00000001
 40
0.0
 40
0.0
 40
0.0
 40
0.0
 40
0.1090643131032589
 40
0.2738336840989927
 40
0.5277858125030688
 40
0.7873542973255094
 40
1.0
 40
1.0
 40
1.0
 40
1.0
 10
219.4762063308086
 20
-13.85898859893253
 30
0.0
 10
219.9851318354167
 20
-13.85358517944713
 30
0.0
 10
221.2629186924875
 20
-13.84001852118533
 30
0.0
 10
223.884299713307
 20
-13.79765051061035
 30
0.0
 10
227.3893659727252
 20
-13.72017876217715
 30
0.0
 10
231.469165966842
 20
-13.59734490272815
 30
0.0
 10
234.3317154845494
 20
-13.46462047653455
 30
0.0
 10
235.6207679309827
 20
-13.40485251611043
 30
0.0
  0
SPLINE
  5
218
330
1F
100
AcDbEntity
  8
0
  6
SLD-Сплошная
 62
     7
370
    25
100
AcDbSpline
210
0.0
220
0.0
230
1.0
 70
     8
 71
     3
 72
    14
 73
    10
 74
     0
 42
0.00000001
 43
0.00000001
 40
0.0
 40
0.0
 40
0.0
 40
0.0
 40
0.0508389465442335
 40
0.144137467422213
 40
0.2700966689208644
 40
0.429866496387809
 40
0.6231439577422131
 40
0.8481501883503134
 40
1.0
 40
1.0
 40
1.0
 40
1.0
 10
235.5453348160814
 20
60.51888776165715
 30
0.0
 10
235.2376547428964
 20
60.53382690049516
 30
0.0
 10
234.3653269403018
 20
60.5761820196302
 30
0.0
 10
232.76674347451
 20
60.64365848632477
 30
0.0
 10
230.5711526198421
 20
60.72696719130635
 30
0.0
 10
227.8977281060455
 20
60.810827318455
 30
0.0
 10
224.8743759528229
 20
60.88438049264966
 30
0.0
 10
222.0024895702773
 20
60.93782846573676
 30
0.0
 10
220.2624605293604
 20
60.95589043905495
 30
0.0
 10
219.5613358225753
 20
60.96316830364737
 30
0.0
  0
SPLINE
  5
219
330
1F
100
AcDbEntity
  8
0
  6
SLD-Сплошная
 62
     7
370
    25
100
AcDbSpline
210
0.0
220
0.0
230
1.0
 70
     8
 71
     3
 72
     9
 73
     5
 74
     0
 42
0.00000001
 43
0.00000001
 40
0.0
 40
0.0
 40
0.0
 40
0.0
 40
0.6375532930094596
 40
1.0
 40
1.0
 40
1.0
 40
1.0
 10
213.4423431868662
 20
61.00171939943802
 30
0.0
 10
213.1299365307302
 20
61.00270433187649
 30
0.0
 10
212.6399278372431
 20
61.00424919479109
 30
0.0
 10
212.2191445726609
 20
61.00352210362755
 30
0.0
 10
212.0666330640563
 20
61.00325857182973
 30
0.0
  0
LINE
  5
21A
330
1F
100
AcDbEntity
  8
0
  6
SLD-Сплошная
 62
     7
370
    25
100
AcDbLine
 10
199.2807449758
 20
59.294466319
 30
0.0
 11
198.4794709615
 21
58.9868619219
 31
0.0
  0
LINE
  5
21B
330
1F
100
AcDbEntity
  8
0
  6
SLD-Сплошная
 62
     7
370
    25
100
AcDbLine
 10
198.479920082
 20
58.986939049
 30
0.0
 11
197.7034221269
 21
58.924513909
 31
0.0
  0
LINE
  5
21C
330
1F
100
AcDbEntity
  8
0
  6
SLD-Сплошная
 62
     7
370
    25
100
AcDbLine
 10
310.4794709614
 20
64.1198204711
 30
0.0
 11
311.2807436432
 21
63.8122168643
 31
0.0
  0
LINE
  5
21D
330
1F
100
AcDbEntity
  8
0
  6
SLD-Сплошная
 62
     7
370
    25
100
AcDbLine
 10
309.7034797692
 20
64.1821688483
 30
0.0
 11
310.4799200835
 21
64.1197433437
 31
0.0
  0
LINE
  5
21E
330
1F
100
AcDbEntity
  8
0
  6
SLD-Сплошная
 62
     7
370
    25
100
AcDbLine
 10
199.2807449758
 20
-16.705533681
 30
0.0
 11
198.4794709615
 21
-17.0131380781
 31
0.0
  0
LINE
  5
21F
330
1F
100
AcDbEntity
  8
0
  6
SLD-Сплошная
 62
     7
370
    25
100
AcDbLine
 10
311.2807449759
 20
-16.705533681
 30
0.0
 11
310.4794709615
 21
-17.0131380781
 31
0.0
  0
SPLINE
  5
220
330
1F
100
AcDbEntity
  8
0
  6
SLD-Сплошная
 62
     7
370
    25
100
AcDbSpline
210
0.0
220
0.0
230
1.0
 70
     8
 71
     3
 72
     9
 73
     5
 74
     0
 42
0.00000001
 43
0.00000001
 40
0.0
 40
0.0
 40
0.0
 40
0.0
 40
0.3388233521273287
 40
1.0
 40
1.0
 40
1.0
 40
1.0
 10
231.2896959477393
 20
59.2526810317511
 30
0.0
 10
230.1547715272555
 20
59.30754277595915
 30
0.0
 10
226.8051664502794
 20
59.46946120296126
 30
0.0
 10
223.4511396557185
 20
59.50349185437837
 30
0.0
 10
221.2335354628156
 20
59.52599212640725
 30
0.0
  0
SPLINE
  5
221
330
1F
100
AcDbEntity
  8
0
  6
SLD-Сплошная
 62
     7
370
    25
100
AcDbSpline
210
0.0
220
0.0
230
1.0
 70
     8
 71
     3
 72
     9
 73
     5
 74
     0
 42
0.00000001
 43
0.00000001
 40
0.0
 40
0.0
 40
0.0
 40
0.0
 40
0.306956951899992
 40
1.0
 40
1.0
 40
1.0
 40
1.0
 10
221.1632484188428
 20
-12.40900922836077
 30
0.0
 10
222.1999204162343
 20
-12.40593835032614
 30
0.0
 10
225.577175731596
 20
-12.39593408746248
 30
0.0
 10
228.9516547387929
 20
-12.25740595224423
 30
0.0
 10
231.2903139556901
 20
-12.16139999116497
 30
0.0
  0
SPLINE
  5
222
330
1F
100
AcDbEntity
  8
0
  6
SLD-Сплошная
 62
     7
370
    25
100
AcDbSpline
210
0.0
220
0.0
230
1.0
 70
     8
 71
     3
 72
     9
 73
     5
 74
     0
 42
0.00000001
 43
0.00000001
 40
0.0
 40
0.0
 40
0.0
 40
0.0
 40
0.4894066802213392
 40
1.0
 40
1.0
 40
1.0
 40
1.0
 10
316.0161707311302
 20
43.5951854332082
 30
0.0
 10
314.9776540318368
 20
43.95323252021688
 30
0.0
 10
312.8556627692253
 20
44.68482671677892
 30
0.0
 10
310.7036053069583
 20
45.3350221613947
 30
0.0
 10
309.6047791429449
 20
45.66700761196601
 30
0.0
  0
SPLINE
  5
223
330
1F
100
AcDbEntity
  8
0
  6
SLD-Сплошная
 62
     7
370
    25
100
AcDbSpline
210
0.0
220
0.0
230
1.0
 70
     8
 71
     3
 72
     9
 73
     5
 74
     0
 42
0.00000001
 43
0.00000001
 40
0.0
 40
0.0
 40
0.0
 40
0.0
 40
0.9177353050482704
 40
0.9999999999999999
 40
0.9999999999999999
 40
0.9999999999999999
 40
0.9999999999999999
 10
309.5347256392737
 20
1.406632118696655
 30
0.0
 10
311.5296552533496
 20
2.019050829344588
 30
0.0
 10
313.703407971701
 20
2.686366020641234
 30
0.0
 10
315.8468067130565
 20
3.433236749830593
 30
0.0
 10
316.023132756674
 20
3.494677842535765
 30
0.0
  0
SPLINE
  5
224
330
1F
100
AcDbEntity
  8
0
  6
SLD-Сплошная
 62
     7
370
    25
100
AcDbSpline
210
0.0
220
0.0
230
1.0
 70
     8
 71
     3
 72
    33
 73
    29
 74
     0
 42
0.00000001
 43
0.00000001
 40
0.0
 40
0.0
 40
0.0
 40
0.0
 40
0.0130647818533805
 40
0.0353419605964536
 40
0.0565117473960572
 40
0.0827125106290265
 40
0.1094984817161513
 40
0.1349886364544413
 40
0.1585107629471746
 40
0.1800616981208956
 40
0.201475639253067
 40
0.2237404554078314
 40
0.2470413099860324
 40
0.271151826045761
 40
0.3052441366619374
 40
0.3416995911072267
 40
0.3838764158198101
 40
0.4325576137051174
 40
0.4877374970297695
 40
0.5494375508547814
 40
0.6177255004921535
 40
0.6927136471718587
 40
0.7745745723979977
 40
0.8179266445761424
 40
0.862702652104607
 40
0.909478028875244
 40
0.9579410292356593
 40
1.0
 40
1.0
 40
1.0
 40
1.0
 10
313.6439946571669
 20
39.24337601530034
 30
0.0
 10
313.5870268749084
 20
39.53351632255397
 30
0.0
 10
313.4329214992167
 20
40.31838417733161
 30
0.0
 10
312.9476271009916
 20
41.5527362411143
 30
0.0
 10
312.1313884572055
 20
43.05973905822527
 30
0.0
 10
310.9914524383558
 20
44.50009877408606
 30
0.0
 10
309.5174419524657
 20
45.81357214896456
 30
0.0
 10
307.8889847332514
 20
46.89038903296025
 30
0.0
 10
306.1980245698497
 20
47.75464737012991
 30
0.0
 10
304.4972495007974
 20
48.46707434771194
 30
0.0
 10
302.734760617856
 20
49.09895913019438
 30
0.0
 10
300.8559576748959
 20
49.69570870276343
 30
0.0
 10
298.878435047769
 20
50.26874396079126
 30
0.0
 10
296.5915923738053
 20
50.88706175947369
 30
0.0
 10
294.0976306301898
 20
51.50296538211499
 30
0.0
 10
291.0771001790712
 20
52.22325109686896
 30
0.0
 10
287.6497262593148
 20
52.99874428432147
 30
0.0
 10
283.6847181113269
 20
53.8457698485125
 30
0.0
 10
279.1521810153478
 20
54.75030601533607
 30
0.0
 10
274.0370390087093
 20
55.69530836045752
 30
0.0
 10
268.3225482020751
 20
56.66094749011502
 30
0.0
 10
261.9856949368979
 20
57.62152482553304
 30
0.0
 10
256.3001186298898
 20
58.37434250373105
 30
0.0
 10
251.4343126107499
 20
58.94802708922276
 30
0.0
 10
247.491149992126
 20
59.42231204565748
 30
0.0
 10
243.3857619625768
 20
59.88341196995342
 30
0.0
 10
239.3746967614968
 20
60.28953823863295
 30
0.0
 10
236.8152161652091
 20
60.43336727611326
 30
0.0
 10
235.6260118401862
 20
60.50019416031918
 30
0.0
  0
SPLINE
  5
225
330
1F
100
AcDbEntity
  8
0
  6
SLD-Сплошная
 62
     7
370
    25
100
AcDbSpline
210
0.0
220
0.0
230
1.0
 70
     8
 71
     3
 72
    35
 73
    31
 74
     0
 42
0.00000001
 43
0.00000001
 40
0.0
 40
0.0
 40
0.0
 40
0.0
 40
0.0327287390928484
 40
0.0772141336064401
 40
0.1201142474894303
 40
0.1661535761363263
 40
0.2107632877719429
 40
0.2541224954683942
 40
0.2957549604120314
 40
0.3356980756551727
 40
0.3739808844591999
 40
0.4577721574884444
 40
0.5326821163580426
 40
0.5994504240974378
 40
0.657301649277617
 40
0.7062066808310851
 40
0.7368359008523763
 40
0.7623819367421037
 40
0.7829982836463715
 40
0.801704283220592
 40
0.8202003190446309
 40
0.8384819271416075
 40
0.8566948674191324
 40
0.8777062413610276
 40
0.9026667070738313
 40
0.9323675619404123
 40
0.9535181133099537
 40
0.9710953239232918
 40
0.984866983656385
 40
1.0
 40
1.0
 40
1.0
 40
1.0
 10
235.6361009998244
 20
-13.39115474383423
 30
0.0
 10
236.5594938443379
 20
-13.3428664361791
 30
0.0
 10
238.7379761337175
 20
-13.22894393435789
 30
0.0
 10
242.2419861495438
 20
-12.89536415887585
 30
0.0
 10
246.1566751489204
 20
-12.47039116115992
 30
0.0
 10
250.0809866197734
 20
-12.0045226817774
 30
0.0
 10
253.9555534735072
 20
-11.5443441734013
 30
0.0
 10
257.6511563926571
 20
-11.08895448921132
 30
0.0
 10
261.2056310358225
 20
-10.60873515580357
 30
0.0
 10
264.597014927154
 20
-10.11843225866388
 30
0.0
 10
269.1596157898621
 20
-9.414995169255452
 30
0.0
 10
274.662249867787
 20
-8.484586002147188
 30
0.0
 10
280.8895560466143
 20
-7.311305416308755
 30
0.0
 10
286.3349699692295
 20
-6.185425105503767
 30
0.0
 10
291.0293671980024
 20
-5.13154430749882
 30
0.0
 10
294.6821209509343
 20
-4.258113833562977
 30
0.0
 10
297.5165859262408
 20
-3.536878027448287
 30
0.0
 10
299.704025899268
 20
-2.928245348471109
 30
0.0
 10
301.5422422891901
 20
-2.376212068423145
 30
0.0
 10
303.1500329443828
 20
-1.84796848808777
 30
0.0
 10
304.6424987532124
 20
-1.299463784876997
 30
0.0
 10
306.0560490103579
 20
-0.7039189095078002
 30
0.0
 10
307.4405187641729
 20
-0.0211106801832339
 30
0.0
 10
308.8891192278116
 20
0.8482958762843218
 30
0.0
 10
310.4215352685588
 20
2.037076720521336
 30
0.0
 10
311.6945351700853
 20
3.432162108812614
 30
0.0
 10
312.598210209848
 20
4.852124263919566
 30
0.0
 10
313.1242454144102
 20
5.998112660355492
 30
0.0
 10
313.4877570500149
 20
7.032141409711507
 30
0.0
 10
313.6208205305587
 20
7.671242649987253
 30
0.0
 10
313.6904857923476
 20
8.005843511406734
 30
0.0
  0
LWPOLYLINE
  5
226
330
1F
100
AcDbEntity
  8
0
  6
SLD-Сплошная
 62
     7
370
    25
100
AcDbPolyline
 90
       17
 70
   128
 43
0.0
 10
163.0927349096
 20
26.5533411965
 10
163.1944876878
 20
29.1327737776
 10
163.3568703943
 20
31.6654412445
 10
163.5785219865
 20
34.1301155457
 10
163.8575846478
 20
36.5061385276
 10
164.1917193595
 20
38.7735950851
 10
164.5781255056
 20
40.9134800842
 10
165.013564347
 20
42.9078576569
 10
165.494386167
 20
44.7400115342
 10
166.0165608628
 20
46.3945851575
 10
166.5757117242
 20
47.8577103915
 10
167.1671521182
 20
49.1171237638
 10
167.7859247704
 20
50.1622692529
 10
168.4268433158
 20
50.9843867659
 10
169.0845357693
 20
51.5765855626
 10
169.753489552
 20
51.9339020123
 10
170.4280976958
 20
52.0533411965
  0
LWPOLYLINE
  5
227
330
1F
100
AcDbEntity
  8
0
  6
SLD-Сплошная
 62
     7
370
    25
100
AcDbPolyline
 90
       17
 70
   128
 43
0.0
 10
170.4280976958
 20
-4.9466588035
 10
169.753489552
 20
-4.8272196193
 10
169.0845357693
 20
-4.4699031696
 10
168.4268433158
 20
-3.8777043729
 10
167.7859247704
 20
-3.0555868599
 10
167.1671521182
 20
-2.0104413708
 10
166.5757117242
 20
-0.7510279985
 10
166.0165608628
 20
0.7120972355
 10
165.494386167
 20
2.3666708588
 10
165.013564347
 20
4.1988247361
 10
164.5781255056
 20
6.1932023088
 10
164.1917193595
 20
8.3330873079
 10
163.8575846478
 20
10.6005438654
 10
163.5785219865
 20
12.9765668473
 10
163.3568703943
 20
15.4412411485
 10
163.1944876878
 20
17.9739086154
 10
163.0927349096
 20
20.5533411965
  0
LINE
  5
228
330
1F
100
AcDbEntity
  8
0
  6
SLD-Сплошная
 62
     7
370
    25
100
AcDbLine
 10
170.4280976958
 20
-4.9466588035
 30
0.0
 11
181.0259138866
 21
-4.9466588035
 31
0.0
  0
LWPOLYLINE
  5
229
330
1F
100
AcDbEntity
  8
0
  6
SLD-Сплошная
 62
     7
370
    25
100
AcDbPolyline
 90
       36
 70
   128
 43
0.0
 10
170.4280976958
 20
52.0533411965
 10
171.0893079653
 20
51.9386085754
 10
171.7451945585
 20
51.5953344716
 10
172.3904766623
 20
51.0262827263
 10
173.0199588444
 20
50.2360350097
 10
173.6285728846
 20
49.2309539317
 10
174.2114185804
 20
48.0191318142
 10
174.7638032009
 20
46.6103255362
 10
175.2812792701
 20
45.0158779776
 10
175.7596803749
 20
43.2486266926
 10
176.1951547109
 20
41.3228005495
 10
176.5841960948
 20
39.2539051679
 10
176.9236721941
 20
37.058598077
 10
177.2108497469
 20
34.7545545986
 10
177.4434165683
 20
32.3603255362
 10
177.6195001671
 20
29.8951878143
 10
177.7376828217
 20
27.3789892723
 10
177.7970129949
 20
24.8319888615
 10
177.7970129949
 20
22.2746935315
 10
177.7376828217
 20
19.7276931207
 10
177.6195001671
 20
17.2114945787
 10
177.4434165683
 20
14.7463568568
 10
177.2108497469
 20
12.3521277944
 10
176.9236721941
 20
10.048084316
 10
176.5841960948
 20
7.8527772251
 10
176.1951547109
 20
5.7838818435
 10
175.7596803749
 20
3.8580557004
 10
175.2812792701
 20
2.0908044154
 10
174.7638032009
 20
0.4963568568
 10
174.2114185804
 20
-0.9124494212
 10
173.6285728846
 20
-2.1242715387
 10
173.0199588444
 20
-3.1293526167
 10
172.3904766623
 20
-3.9196003333
 10
171.7451945585
 20
-4.4886520786
 10
171.0893079653
 20
-4.8319261824
 10
170.4280976958
 20
-4.9466588035
  0
LINE
  5
22A
330
1F
100
AcDbEntity
  8
0
  6
SLD-Сплошная
 62
     7
370
    25
100
AcDbLine
 10
170.4280976958
 20
52.0533411965
 30
0.0
 11
183.9993555552
 21
52.0533411965
 31
0.0
  0
LWPOLYLINE
  5
22B
330
1F
100
AcDbEntity
  8
0
  6
SLD-Сплошная
 62
     7
370
    25
100
AcDbPolyline
 90
       37
 70
   128
 43
0.0
 10
183.9993555552
 20
52.0533411965
 10
184.6512775021
 20
51.9418156256
 10
185.2980972759
 20
51.6081117518
 10
185.9347526348
 20
51.0548412604
 10
186.5562608874
 20
50.286334243
 10
187.1577578891
 20
49.3086053092
 10
187.7345361102
 20
48.1293065133
 10
188.2820814791
 20
46.7576674676
 10
188.7961087108
 20
45.2044231071
 10
189.2725948455
 20
43.4817296751
 10
189.707810733
 20
41.6030695834
 10
190.0983502189
 20
39.5831458943
 10
190.4411568023
 20
37.4377672494
 10
190.7335475568
 20
35.1837241454
 10
190.9732341283
 20
32.8386575259
 10
191.1583406445
 20
30.4209207165
 10
191.2874183958
 20
27.949435786
 10
191.3594571738
 20
25.4435454549
 10
191.3738931775
 20
22.9228617126
 10
191.3306134256
 20
20.4071123272
 10
191.2299566407
 20
17.9159864484
 10
191.0727105987
 20
15.468980514
 10
190.8601059631
 20
13.0852456631
 10
190.5938066534
 20
10.7834378529
 10
190.2758968228
 20
8.5815718504
 10
189.9088645467
 20
6.4968802425
 10
189.4955823503
 20
4.5456785677
 10
189.0392847272
 20
2.7432376244
 10
188.5435428249
 20
1.1036639569
 10
188.0122364961
 20
-0.3602105477
 10
187.4495239329
 20
-1.6369290867
 10
186.8598091244
 20
-2.7164996066
 10
186.2477073883
 20
-3.5904730042
 10
185.6180092506
 20
-4.2520092527
 10
184.9756429532
 20
-4.6959309341
 10
184.3256358832
 20
-4.9187637593
 10
183.9993555552
 20
-4.9466588035
  0
LINE
  5
22C
330
1F
100
AcDbEntity
  8
0
  6
SLD-Сплошная
 62
     7
370
    25
100
AcDbLine
 10
162.2250674002
 20
20.5533411965
 30
0.0
 11
163.0927349096
 21
20.5533411965
 31
0.0
  0
LWPOLYLINE
  5
22D
330
1F
100
AcDbEntity
  8
0
  6
SLD-Сплошная
 62
     7
370
    25
100
AcDbPolyline
 90
       12
 70
   128
 43
0.0
 10
162.2250674002
 20
26.5533411965
 10
162.0063141462
 20
26.4318201173
 10
161.8052829799
 20
26.077101795
 10
161.6382602507
 20
25.5179233983
 10
161.5187771469
 20
24.7995862355
 10
161.456513479
 20
23.9802857113
 10
161.456513479
 20
23.1263966817
 10
161.5187771469
 20
22.3070961575
 10
161.6382602507
 20
21.5887589947
 10
161.8052829799
 20
21.029580598
 10
162.0063141462
 20
20.6748622757
 10
162.2250674002
 20
20.5533411965
  0
LINE
  5
22E
330
1F
100
AcDbEntity
  8
0
  6
SLD-Сплошная
 62
     7
370
    25
100
AcDbLine
 10
163.0927349096
 20
26.5533411965
 30
0.0
 11
162.2250674002
 21
26.5533411965
 31
0.0
  0
LWPOLYLINE
  5
22F
330
1F
100
AcDbEntity
  8
0
  6
SLD-Сплошная
 62
     7
370
    25
100
AcDbPolyline
 90
       34
 70
   128
 43
0.0
 10
170.4280976958
 20
-1.6466588035
 10
169.808119374
 20
-1.5325512523
 10
169.1937556718
 20
-1.1912619745
 10
168.5905703621
 20
-0.6258817386
 10
168.0040259846
 20
0.1584692845
 10
167.4394343758
 20
1.1546878904
 10
166.9019085649
 20
2.3537521692
 10
166.3963164687
 20
3.744803209
 10
165.9272368077
 20
5.3152434363
 10
165.4989176399
 20
7.0508507011
 10
165.11523789
 20
8.9359070753
 10
164.7796722212
 20
10.9533411965
 10
164.4952595681
 20
13.0848828689
 10
164.2645756159
 20
15.3112285209
 10
164.0897094741
 20
17.6122160217
 10
163.9722447575
 20
19.967007272
 10
163.9132452448
 20
22.3542769177
 10
163.9132452448
 20
24.7524054753
 10
163.9722447575
 20
27.139675121
 10
164.0897094741
 20
29.4944663713
 10
164.2645756159
 20
31.7954538721
 10
164.4952595681
 20
34.0217995241
 10
164.7796722212
 20
36.1533411965
 10
165.11523789
 20
38.1707753177
 10
165.4989176399
 20
40.0558316919
 10
165.9272368077
 20
41.7914389567
 10
166.3963164687
 20
43.361879184
 10
166.9019085649
 20
44.7529302238
 10
167.4394343758
 20
45.9519945026
 10
168.0040259846
 20
46.9482131085
 10
168.5905703621
 20
47.7325641316
 10
169.1937556718
 20
48.2979443675
 10
169.808119374
 20
48.6392336453
 10
170.4280976958
 20
48.7533411965
  0
LWPOLYLINE
  5
230
330
1F
100
AcDbEntity
  8
0
  6
SLD-Сплошная
 62
     7
370
    25
100
AcDbPolyline
 90
       34
 70
   128
 43
0.0
 10
170.4280976958
 20
48.7533411965
 10
171.0480760177
 20
48.6392336453
 10
171.6624397198
 20
48.2979443675
 10
172.2656250295
 20
47.7325641316
 10
172.8521694071
 20
46.9482131085
 10
173.4167610158
 20
45.9519945026
 10
173.9542868268
 20
44.7529302238
 10
174.4598789229
 20
43.361879184
 10
174.9289585839
 20
41.7914389567
 10
175.3572777517
 20
40.0558316919
 10
175.7409575017
 20
38.1707753177
 10
176.0765231705
 20
36.1533411965
 10
176.3609358235
 20
34.0217995241
 10
176.5916197757
 20
31.7954538721
 10
176.7664859176
 20
29.4944663713
 10
176.8839506341
 20
27.139675121
 10
176.9429501468
 20
24.7524054753
 10
176.9429501468
 20
22.3542769177
 10
176.8839506341
 20
19.967007272
 10
176.7664859176
 20
17.6122160217
 10
176.5916197757
 20
15.3112285209
 10
176.3609358235
 20
13.0848828689
 10
176.0765231705
 20
10.9533411965
 10
175.7409575017
 20
8.9359070753
 10
175.3572777517
 20
7.0508507011
 10
174.9289585839
 20
5.3152434363
 10
174.4598789229
 20
3.744803209
 10
173.9542868268
 20
2.3537521692
 10
173.4167610158
 20
1.1546878904
 10
172.8521694071
 20
0.1584692845
 10
172.2656250295
 20
-0.6258817386
 10
171.6624397198
 20
-1.1912619745
 10
171.0480760177
 20
-1.5325512523
 10
170.4280976958
 20
-1.6466588035
  0
LINE
  5
231
330
1F
100
AcDbEntity
  8
0
  6
SLD-Сплошная
 62
     7
370
    25
100
AcDbLine
 10
214.6675005399
 20
61.3533411965
 30
0.0
 11
218.2414260971
 21
61.3533411965
 31
0.0
  0
LWPOLYLINE
  5
232
330
1F
100
AcDbEntity
  8
0
  6
SLD-Сплошная
 62
     7
370
    25
100
AcDbPolyline
 90
       42
 70
   128
 43
0.0
 10
218.2414260971
 20
61.3533411965
 10
218.9903349881
 20
61.2424284812
 10
219.7348489839
 20
60.9103412154
 10
220.4705989803
 20
60.3590282191
 10
221.1932673039
 20
59.5917248162
 10
221.8986130495
 20
58.6129338482
 10
222.5824969679
 20
57.4283992496
 10
223.2409057563
 20
56.0450723406
 10
223.86997561
 20
54.4710710335
 10
224.4660148972
 20
52.7156321938
 10
225.0255258221
 20
50.7890574346
 10
225.5452249523
 20
48.7026526628
 10
226.0220624866
 20
46.468661731
 10
226.4532401527
 20
44.1001945865
 10
226.8362276286
 20
41.6111503363
 10
227.1687773916
 20
39.0161356816
 10
227.4489379074
 20
36.3303792003
 10
227.6750650827
 20
33.5696419795
 10
227.8458319133
 20
30.7501251229
 10
227.9602362715
 20
27.8883746766
 10
228.0176067871
 20
25.00118453
 10
228.0176067871
 20
22.105497863
 10
227.9602362715
 20
19.2183077164
 10
227.8458319133
 20
16.3565572701
 10
227.6750650827
 20
13.5370404135
 10
227.4489379074
 20
10.7763031927
 10
227.1687773916
 20
8.0905467114
 10
226.8362276286
 20
5.4955320567
 10
226.4532401527
 20
3.0064878065
 10
226.0220624866
 20
0.638020662
 10
225.5452249523
 20
-1.5959702698
 10
225.0255258221
 20
-3.6823750416
 10
224.4660148972
 20
-5.6089498008
 10
223.86997561
 20
-7.3643886405
 10
223.2409057563
 20
-8.9383899476
 10
222.5824969679
 20
-10.3217168566
 10
221.8986130495
 20
-11.5062514552
 10
221.1932673039
 20
-12.4850424232
 10
220.4705989803
 20
-13.2523458261
 10
219.7348489839
 20
-13.8036588224
 10
218.9903349881
 20
-14.1357460882
 10
218.2414260971
 20
-14.2466588035
  0
LINE
  5
233
330
1F
100
AcDbEntity
  8
0
  6
SLD-Сплошная
 62
     7
370
    25
100
AcDbLine
 10
214.6675005399
 20
-14.2466588035
 30
0.0
 11
218.2414260971
 21
-14.2466588035
 31
0.0
  0
LWPOLYLINE
  5
234
330
1F
100
AcDbEntity
  8
0
  6
SLD-Сплошная
 62
     7
370
    25
100
AcDbPolyline
 90
       42
 70
   128
 43
0.0
 10
214.6675005399
 20
61.3533411965
 10
215.4164094308
 20
61.2424284812
 10
216.1609234266
 20
60.9103412154
 10
216.896673423
 20
60.3590282191
 10
217.6193417466
 20
59.5917248162
 10
218.3246874923
 20
58.6129338482
 10
219.0085714106
 20
57.4283992496
 10
219.666980199
 20
56.0450723406
 10
220.2960500528
 20
54.4710710335
 10
220.8920893399
 20
52.7156321938
 10
221.4516002648
 20
50.7890574346
 10
221.971299395
 20
48.7026526628
 10
222.4481369293
 20
46.468661731
 10
222.8793145954
 20
44.1001945865
 10
223.2623020714
 20
41.6111503363
 10
223.5948518343
 20
39.0161356816
 10
223.8750123501
 20
36.3303792003
 10
224.1011395254
 20
33.5696419795
 10
224.271906356
 20
30.7501251229
 10
224.3863107142
 20
27.8883746766
 10
224.4436812298
 20
25.00118453
 10
224.4436812298
 20
22.105497863
 10
224.3863107142
 20
19.2183077164
 10
224.271906356
 20
16.3565572701
 10
224.1011395254
 20
13.5370404135
 10
223.8750123501
 20
10.7763031927
 10
223.5948518343
 20
8.0905467114
 10
223.2623020714
 20
5.4955320567
 10
222.8793145954
 20
3.0064878065
 10
222.4481369293
 20
0.638020662
 10
221.971299395
 20
-1.5959702698
 10
221.4516002648
 20
-3.6823750416
 10
220.8920893399
 20
-5.6089498008
 10
220.2960500528
 20
-7.3643886405
 10
219.666980199
 20
-8.9383899476
 10
219.0085714106
 20
-10.3217168566
 10
218.3246874923
 20
-11.5062514552
 10
217.6193417466
 20
-12.4850424232
 10
216.896673423
 20
-13.2523458261
 10
216.1609234266
 20
-13.8036588224
 10
215.4164094308
 20
-14.1357460882
 10
214.6675005399
 20
-14.2466588035
  0
LWPOLYLINE
  5
235
330
1F
100
AcDbEntity
  8
0
  6
SLD-Сплошная
 62
     7
370
    25
100
AcDbPolyline
 90
       11
 70
   128
 43
0.0
 10
214.6675005399
 20
-14.2466588035
 10
213.9052510728
 20
-14.1317533624
 10
213.147635818
 20
-13.7877356244
 10
212.3992608133
 20
-13.2166970978
 10
211.6646759189
 20
-12.4221094988
 10
210.9483471562
 20
-11.4088036442
 10
210.2546295553
 20
-10.182940082
 10
209.5877406787
 20
-8.7519716372
 10
208.9517349791
 20
-7.1245981014
 10
208.3504791506
 20
-5.3107133408
 10
208.2407052156
 20
-4.9466588035
  0
LWPOLYLINE
  5
236
330
1F
100
AcDbEntity
  8
0
  6
SLD-Сплошная
 62
     7
370
    25
100
AcDbPolyline
 90
       11
 70
   128
 43
0.0
 10
208.2407052156
 20
52.0533411965
 10
208.3504791506
 20
52.4173957338
 10
208.9517349791
 20
54.2312804944
 10
209.5877406787
 20
55.8586540302
 10
210.2546295553
 20
57.289622475
 10
210.9483471562
 20
58.5154860372
 10
211.6646759189
 20
59.5287918918
 10
212.3992608133
 20
60.3233794908
 10
213.147635818
 20
60.8944180174
 10
213.9052510728
 20
61.2384357554
 10
214.6675005399
 20
61.3533411965
  0
LWPOLYLINE
  5
237
330
1F
100
AcDbEntity
  8
0
  6
SLD-Сплошная
 62
     7
370
    25
100
AcDbPolyline
 90
       36
 70
   128
 43
0.0
 10
214.6675005399
 20
52.0533411965
 10
215.3287108094
 20
51.9386085754
 10
215.9845974026
 20
51.5953344716
 10
216.6298795063
 20
51.0262827263
 10
217.2593616884
 20
50.2360350097
 10
217.8679757286
 20
49.2309539317
 10
218.4508214244
 20
48.0191318142
 10
219.003206045
 20
46.6103255362
 10
219.5206821142
 20
45.0158779776
 10
219.999083219
 20
43.2486266926
 10
220.434557555
 20
41.3228005495
 10
220.8235989388
 20
39.2539051679
 10
221.1630750381
 20
37.058598077
 10
221.4502525909
 20
34.7545545986
 10
221.6828194124
 20
32.3603255362
 10
221.8589030112
 20
29.8951878143
 10
221.9770856658
 20
27.3789892723
 10
222.0364158389
 20
24.8319888615
 10
222.0364158389
 20
22.2746935315
 10
221.9770856658
 20
19.7276931207
 10
221.8589030112
 20
17.2114945787
 10
221.6828194124
 20
14.7463568568
 10
221.4502525909
 20
12.3521277944
 10
221.1630750381
 20
10.048084316
 10
220.8235989388
 20
7.8527772251
 10
220.434557555
 20
5.7838818435
 10
219.999083219
 20
3.8580557004
 10
219.5206821142
 20
2.0908044154
 10
219.003206045
 20
0.4963568568
 10
218.4508214244
 20
-0.9124494212
 10
217.8679757286
 20
-2.1242715387
 10
217.2593616884
 20
-3.1293526167
 10
216.6298795063
 20
-3.9196003333
 10
215.9845974026
 20
-4.4886520786
 10
215.3287108094
 20
-4.8319261824
 10
214.6675005399
 20
-4.9466588035
  0
LINE
  5
238
330
1F
100
AcDbEntity
  8
0
  6
SLD-Сплошная
 62
     7
370
    25
100
AcDbLine
 10
185.7874093213
 20
51.2033411965
 30
0.0
 11
207.0849828035
 21
51.2033411965
 31
0.0
  0
LWPOLYLINE
  5
239
330
1F
100
AcDbEntity
  8
0
  6
SLD-Сплошная
 62
     7
370
    25
100
AcDbPolyline
 90
       37
 70
   128
 43
0.0
 10
207.0849828035
 20
51.2033411965
 10
207.7264727667
 20
51.0920304255
 10
208.36279783
 20
50.7589943213
 10
208.988834678
 20
50.2069142947
 10
209.5995428301
 20
49.4402353697
 10
210.1900052234
 20
48.465130394
 10
210.755467802
 20
47.2894503396
 10
211.2913777935
 20
45.922661091
 10
211.793420366
 20
44.3757672315
 10
212.2575533676
 20
42.661223441
 10
212.6800398725
 20
40.7928342179
 10
213.0574782678
 20
38.7856427337
 10
213.3868296413
 20
36.6558097139
 10
213.6654422495
 20
34.4204833217
 10
213.8910728675
 20
32.097661091
 10
214.0619048502
 20
29.7060450204
 10
214.176562759
 20
27.2648909964
 10
214.2341234357
 20
24.7938537557
 10
214.2341234357
 20
22.3128286373
 10
214.176562759
 20
19.8417913966
 10
214.0619048502
 20
17.4006373726
 10
213.8910728675
 20
15.009021302
 10
213.6654422495
 20
12.6861990713
 10
213.3868296413
 20
10.4508726791
 10
213.0574782678
 20
8.3210396593
 10
212.6800398725
 20
6.3138481751
 10
212.2575533676
 20
4.445458952
 10
211.793420366
 20
2.7309151615
 10
211.2913777935
 20
1.184021302
 10
210.755467802
 20
-0.1827679466
 10
210.1900052234
 20
-1.358448001
 10
209.5995428301
 20
-2.3335529767
 10
208.988834678
 20
-3.1002319017
 10
208.36279783
 20
-3.6523119283
 10
207.7264727667
 20
-3.9853480325
 10
207.0849828035
 20
-4.0966588035
 10
207.0849828035
 20
-4.0966588035
  0
ARC
  5
23A
330
1F
100
AcDbEntity
  8
0
  6
SLD-Сплошная
 62
     7
370
    25
100
AcDbCircle
 10
177.9124379696
 20
4.6103744937
 30
0.0
 40
11.67293723583373
100
AcDbArc
 50
316.4242493774
 51
346.69435466
  0
LWPOLYLINE
  5
23B
330
1F
100
AcDbEntity
  8
0
  6
SLD-Сплошная
 62
     7
370
    25
100
AcDbPolyline
 90
       10
 70
   128
 43
0.0
 10
210.6737257859
 20
1.9238990794
 10
210.1551618808
 20
0.4700050308
 10
209.605020305
 20
-0.7988615508
 10
209.0277107897
 20
-1.8725299011
 10
208.4278608338
 20
-2.7423938926
 10
207.8102786122
 20
-3.4014810179
 10
207.1799144352
 20
-3.8445082788
 10
206.5418210683
 20
-4.0679245332
 10
205.9011132316
 20
-4.069938959
 10
205.3564638842
 20
-3.8966588035
  0
LINE
  5
23C
330
1F
100
AcDbEntity
  8
0
  6
SLD-Сплошная
 62
     7
370
    25
100
AcDbLine
 10
210.6737257859
 20
1.9238990794
 30
0.0
 11
189.2720292281
 21
1.9238990794
 31
0.0
  0
LWPOLYLINE
  5
23D
330
1F
100
AcDbEntity
  8
0
  6
SLD-Сплошная
 62
     7
370
    25
100
AcDbPolyline
 90
       40
 70
   128
 43
0.0
 10
207.0849828035
 20
52.0533411965
 10
207.7369047504
 20
51.9418156256
 10
208.3837245242
 20
51.6081117518
 10
209.0203798831
 20
51.0548412604
 10
209.6418881358
 20
50.286334243
 10
210.2433851374
 20
49.3086053092
 10
210.8201633585
 20
48.1293065133
 10
211.3677087274
 20
46.7576674676
 10
211.8817359592
 20
45.2044231071
 10
212.3582220938
 20
43.4817296751
 10
212.7934379813
 20
41.6030695834
 10
213.1839774673
 20
39.5831458943
 10
213.5267840506
 20
37.4377672494
 10
213.8191748051
 20
35.1837241454
 10
214.0588613766
 20
32.8386575259
 10
214.2439678928
 20
30.4209207165
 10
214.3730456441
 20
27.949435786
 10
214.4450844221
 20
25.4435454549
 10
214.4595204258
 20
22.9228617126
 10
214.4162406739
 20
20.4071123272
 10
214.315583889
 20
17.9159864484
 10
214.158337847
 20
15.468980514
 10
213.9457332114
 20
13.0852456631
 10
213.6794339017
 20
10.7834378529
 10
213.3615240711
 20
8.5815718504
 10
212.994491795
 20
6.4968802425
 10
212.5812095986
 20
4.5456785677
 10
212.1249119755
 20
2.7432376244
 10
211.6291700732
 20
1.1036639569
 10
211.0978637444
 20
-0.3602105477
 10
210.5351511813
 20
-1.6369290867
 10
209.9454363727
 20
-2.7164996066
 10
209.3333346366
 20
-3.5904730042
 10
208.703636499
 20
-4.2520092527
 10
208.0612702015
 20
-4.6959309341
 10
207.4112631315
 20
-4.9187637593
 10
206.7587024755
 20
-4.9187637593
 10
206.1086954055
 20
-4.6959309341
 10
205.466329108
 20
-4.2520092527
 10
205.1012145974
 20
-3.8966588035
  0
ARC
  5
23E
330
1F
100
AcDbEntity
  8
0
  6
SLD-Сплошная
 62
     7
370
    25
100
AcDbCircle
 10
207.2470858315
 20
49.4066740613
 30
0.0
 40
2.651626730135427
100
AcDbArc
 50
93.5048727696
 51
137.3458255225
  0
LINE
  5
23F
330
1F
100
AcDbEntity
  8
0
  6
SLD-Сплошная
 62
     7
370
    25
100
AcDbLine
 10
210.0036886753
 20
-4.9466588035
 30
0.0
 11
214.6675005399
 21
-4.9466588035
 31
0.0
  0
LINE
  5
240
330
1F
100
AcDbEntity
  8
0
  6
SLD-Сплошная
 62
     7
370
    25
100
AcDbLine
 10
207.0849828035
 20
52.0533411965
 30
0.0
 11
214.6675005399
 21
52.0533411965
 31
0.0
  0
LINE
  5
241
330
1F
100
AcDbEntity
  8
0
  6
SLD-Сплошная
 62
     7
370
    25
100
AcDbLine
 10
175.0021674264
 20
21.1344720883
 30
0.0
 11
175.0404464923
 21
21.0960713352
 31
0.0
  0
LWPOLYLINE
  5
242
330
1F
100
AcDbEntity
  8
0
  6
SLD-Сплошная
 62
     7
370
    25
100
AcDbPolyline
 90
        9
 70
   128
 43
0.0
 10
210.5901488011
 20
1.9238990794
 10
210.1565190806
 20
0.7134474219
 10
209.6071757552
 20
-0.5670151388
 10
209.0301755414
 20
-1.6507833599
 10
208.4302237044
 20
-2.5290194337
 10
207.8122126732
 20
-3.1945616059
 10
207.1811821442
 20
-3.6419825779
 10
206.5422779839
 20
-3.8676337644
 10
206.2156495598
 20
-3.8966588035
  0
LINE
  5
243
330
1F
100
AcDbEntity
  8
0
  6
SLD-Сплошная
 62
     7
370
    25
100
AcDbLine
 10
190.2545046479
 20
-3.8745057147
 30
0.0
 11
189.9691322877
 21
-3.8966588035
 31
0.0
  0
LINE
  5
244
330
1F
100
AcDbEntity
  8
0
  6
SLD-Сплошная
 62
     7
370
    25
100
AcDbLine
 10
190.524191992
 20
-3.8745057147
 30
0.0
 11
190.2545046479
 21
-3.8745057147
 31
0.0
  0
SPLINE
  5
245
330
1F
100
AcDbEntity
  8
0
  6
SLD-Сплошная
 62
     7
370
    25
100
AcDbSpline
210
0.0
220
0.0
230
1.0
 70
     8
 71
     3
 72
     8
 73
     4
 74
     0
 42
0.00000001
 43
0.00000001
 40
0.0
 40
0.0
 40
0.0
 40
0.0
 40
1.0
 40
1.0
 40
1.0
 40
1.0
 10
204.683459733272
 20
-0.0592427125161443
 30
0.0
 10
202.4782881574998
 20
-0.8760714332965713
 30
0.0
 10
200.2545704885662
 20
-1.571978178651623
 30
0.0
 10
198.0180288756277
 20
-2.1363486293694
 30
0.0
  0
SPLINE
  5
246
330
1F
100
AcDbEntity
  8
0
  6
SLD-Сплошная
 62
     7
370
    25
100
AcDbSpline
210
0.0
220
0.0
230
1.0
 70
     8
 71
     3
 72
     8
 73
     4
 74
     0
 42
0.00000001
 43
0.00000001
 40
0.0
 40
0.0
 40
0.0
 40
0.0
 40
1.0
 40
1.0
 40
1.0
 40
1.0
 10
198.0180288756277
 20
-2.1363486293694
 30
0.0
 10
196.5574578264319
 20
-1.571978178651817
 30
0.0
 10
195.0840628332312
 20
-0.8760714332970987
 30
0.0
 10
193.5921217468691
 20
-0.0592427125170325
 30
0.0
  0
ARC
  5
247
330
1F
100
AcDbEntity
  8
0
  6
SLD-Сплошная
 62
     7
370
    25
100
AcDbCircle
 10
181.3266007623
 20
5.1826340926
 30
0.0
 40
13.3386760011528
100
AcDbArc
 50
328.0634204349
 51
336.8597436335
  0
LINE
  5
248
330
1F
100
AcDbEntity
  8
0
  6
SLD-Сплошная
 62
     7
370
    25
100
AcDbLine
 10
196.256820986
 20
-3.2861497751
 30
0.0
 11
191.4591799511
 21
-3.2861497751
 31
0.0
  0
ARC
  5
249
330
1F
100
AcDbEntity
  8
0
  6
SLD-Сплошная
 62
     7
370
    25
100
AcDbCircle
 10
189.6854005517
 20
-1.2301443455
 30
0.0
 40
2.715410039932665
100
AcDbArc
 50
287.9929802666
 51
310.7853548685
  0
LINE
  5
24A
330
1F
100
AcDbEntity
  8
0
  6
SLD-Сплошная
 62
     7
370
    25
100
AcDbLine
 10
202.5505179375
 20
-3.2861497751
 30
0.0
 11
198.2551455126
 21
-3.2861497751
 31
0.0
  0
SPLINE
  5
24B
330
1F
100
AcDbEntity
  8
0
  6
SLD-Сплошная
 62
     7
370
    25
100
AcDbSpline
210
0.0
220
0.0
230
1.0
 70
     8
 71
     3
 72
     8
 73
     4
 74
     0
 42
0.00000001
 43
0.00000001
 40
0.0
 40
0.0
 40
0.0
 40
0.0
 40
1.0
 40
1.0
 40
1.0
 40
1.0
 10
198.0180288756277
 20
-2.349943601945514
 30
0.0
 10
196.5576295559146
 20
-1.790292683189004
 30
0.0
 10
195.0848108051939
 20
-1.100730781414622
 30
0.0
 10
193.5921217468691
 20
-0.291451083164973
 30
0.0
  0
LINE
  5
24C
330
1F
100
AcDbEntity
  8
0
  6
SLD-Сплошная
 62
     7
370
    25
100
AcDbLine
 10
193.5921217469
 20
-0.0592427125
 30
0.0
 11
193.5921217469
 21
-0.2914510832
 31
0.0
  0
LINE
  5
24D
330
1F
100
AcDbEntity
  8
0
  6
SLD-Сплошная
 62
     7
370
    25
100
AcDbLine
 10
198.0180288756
 20
-2.1363486294
 30
0.0
 11
198.0180288756
 21
-2.3499436019
 31
0.0
  0
ARC
  5
24E
330
1F
100
AcDbEntity
  8
0
  6
SLD-Сплошная
 62
     7
370
    25
100
AcDbCircle
 10
181.4522028506
 20
4.9487197942
 30
0.0
 40
13.22259511717928
100
AcDbArc
 50
327.8421803954
 51
336.6526572345
  0
LINE
  5
24F
330
1F
100
AcDbEntity
  8
0
  6
SLD-Сплошная
 62
     7
370
    25
100
AcDbLine
 10
192.6462566221
 20
-1.8732619298
 30
0.0
 11
192.6462566221
 21
-2.0890484453
 31
0.0
  0
ARC
  5
250
330
1F
100
AcDbEntity
  8
0
  6
SLD-Сплошная
 62
     7
370
    25
100
AcDbCircle
 10
189.6895128069
 20
-1.4227280946
 30
0.0
 40
2.721779782972182
100
AcDbArc
 50
287.8584638406
 51
310.5557387195
  0
LINE
  5
251
330
1F
100
AcDbEntity
  8
0
  6
SLD-Сплошная
 62
     7
370
    25
100
AcDbLine
 10
196.863245198
 20
-3.4906650825
 30
0.0
 11
191.4591799511
 21
-3.4906650825
 31
0.0
  0
ARC
  5
252
330
1F
100
AcDbEntity
  8
0
  6
SLD-Сплошная
 62
     7
370
    25
100
AcDbCircle
 10
194.4450770624
 20
-0.5507733256
 30
0.0
 40
3.806639026021022
100
AcDbArc
 50
309.4385424983
 51
310.0460623401
  0
SPLINE
  5
253
330
1F
100
AcDbEntity
  8
0
  6
SLD-Сплошная
 62
     7
370
    25
100
AcDbSpline
210
0.0
220
0.0
230
1.0
 70
     8
 71
     3
 72
     8
 73
     4
 74
     0
 42
0.00000001
 43
0.00000001
 40
0.0
 40
0.0
 40
0.0
 40
0.0
 40
1.0
 40
1.0
 40
1.0
 40
1.0
 10
192.646256622071
 20
-2.089048445345631
 30
0.0
 10
194.0739008505487
 20
-2.672466380708754
 30
0.0
 10
195.4875440646837
 20
-3.133209685481614
 30
0.0
 10
196.8942810033896
 20
-3.464859928549224
 30
0.0
  0
SPLINE
  5
254
330
1F
100
AcDbEntity
  8
0
  6
SLD-Сплошная
 62
     7
370
    25
100
AcDbSpline
210
0.0
220
0.0
230
1.0
 70
     8
 71
     3
 72
     8
 73
     4
 74
     0
 42
0.00000001
 43
0.00000001
 40
0.0
 40
0.0
 40
0.0
 40
0.0
 40
1.0
 40
1.0
 40
1.0
 40
1.0
 10
204.683459733272
 20
-0.2914510831640849
 30
0.0
 10
202.4771820161891
 20
-1.100731000513527
 30
0.0
 10
200.2543080247351
 20
-1.790292557583256
 30
0.0
 10
198.0180288756277
 20
-2.349943601945514
 30
0.0
  0
ARC
  5
255
330
1F
100
AcDbEntity
  8
0
  6
SLD-Сплошная
 62
     7
370
    25
100
AcDbCircle
 10
192.5435408369
 20
4.9487197942
 30
0.0
 40
13.22259511719324
100
AcDbArc
 50
327.8421803954
 51
336.6526572345
  0
SPLINE
  5
256
330
1F
100
AcDbEntity
  8
0
  6
SLD-Сплошная
 62
     7
370
    25
100
AcDbSpline
210
0.0
220
0.0
230
1.0
 70
     8
 71
     3
 72
     8
 73
     4
 74
     0
 42
0.00000001
 43
0.00000001
 40
0.0
 40
0.0
 40
0.0
 40
0.0
 40
1.0
 40
1.0
 40
1.0
 40
1.0
 10
197.1774884961245
 20
-3.464859928548836
 30
0.0
 10
199.373459855626
 20
-3.133209724655056
 30
0.0
 10
201.5612776762331
 20
-2.672466294304621
 30
0.0
 10
203.7375946084745
 20
-2.089048445344299
 30
0.0
  0
ARC
  5
257
330
1F
100
AcDbEntity
  8
0
  6
SLD-Сплошная
 62
     7
370
    25
100
AcDbCircle
 10
194.7282845557
 20
-0.5507733265
 30
0.0
 40
3.80663902488177
100
AcDbArc
 50
309.4385425005
 51
310.0460623425
  0
LINE
  5
258
330
1F
100
AcDbEntity
  8
0
  6
SLD-Сплошная
 62
     7
370
    25
100
AcDbLine
 10
202.5505179375
 20
-3.4906650825
 30
0.0
 11
197.1464526907
 21
-3.4906650825
 31
0.0
  0
ARC
  5
259
330
1F
100
AcDbEntity
  8
0
  6
SLD-Сплошная
 62
     7
370
    25
100
AcDbCircle
 10
200.7808507933
 20
-1.4227280946
 30
0.0
 40
2.721779782973123
100
AcDbArc
 50
287.8584638406
 51
310.5557387195
  0
LINE
  5
25A
330
1F
100
AcDbEntity
  8
0
  6
SLD-Сплошная
 62
     7
370
    25
100
AcDbLine
 10
190.524191992
 20
-4.01336428
 30
0.0
 11
201.6155299784
 21
-4.01336428
 31
0.0
  0
LINE
  5
25B
330
1F
100
AcDbEntity
  8
0
  6
SLD-Сплошная
 62
     7
370
    25
100
AcDbLine
 10
204.6834597333
 20
-0.0592427125
 30
0.0
 11
204.6834597333
 21
-0.2914510832
 31
0.0
  0
LINE
  5
25C
330
1F
100
AcDbEntity
  8
0
  6
SLD-Сплошная
 62
     7
370
    25
100
AcDbLine
 10
191.4591799511
 20
-3.2861497751
 30
0.0
 11
191.4591799511
 21
-3.4906650825
 31
0.0
  0
LINE
  5
25D
330
1F
100
AcDbEntity
  8
0
  6
SLD-Сплошная
 62
     7
370
    25
100
AcDbLine
 10
190.524191992
 20
-3.8127555443
 30
0.0
 11
190.524191992
 21
-4.01336428
 31
0.0
  0
LINE
  5
25E
330
1F
100
AcDbEntity
  8
0
  6
SLD-Сплошная
 62
     7
370
    25
100
AcDbLine
 10
202.5505179375
 20
-3.2861497751
 30
0.0
 11
202.5505179375
 21
-3.4906650825
 31
0.0
  0
ARC
  5
25F
330
1F
100
AcDbEntity
  8
0
  6
SLD-Сплошная
 62
     7
370
    25
100
AcDbCircle
 10
189.9744185986
 20
-2.1069088719
 30
0.0
 40
1.987590660299906
100
AcDbArc
 50
244.2188663469
 51
278.1009339872
  0
LINE
  5
260
330
1F
100
AcDbEntity
  8
0
  6
SLD-Сплошная
 62
     7
370
    25
100
AcDbLine
 10
193.2794083492
 20
-4.074666082
 30
0.0
 11
190.2545046479
 21
-4.074666082
 31
0.0
  0
LINE
  5
261
330
1F
100
AcDbEntity
  8
0
  6
SLD-Сплошная
 62
     7
370
    25
100
AcDbLine
 10
193.2794083492
 20
-4.074666082
 30
0.0
 11
192.994035989
 21
-4.0966588035
 31
0.0
  0
LINE
  5
262
330
1F
100
AcDbEntity
  8
0
  6
SLD-Сплошная
 62
     7
370
    25
100
AcDbLine
 10
190.2545046479
 20
-3.8745057147
 30
0.0
 11
190.2545046479
 21
-4.074666082
 31
0.0
  0
LINE
  5
263
330
1F
100
AcDbEntity
  8
0
  6
SLD-Сплошная
 62
     7
370
    25
100
AcDbLine
 10
193.2794083492
 20
-4.01336428
 30
0.0
 11
193.2794083492
 21
-4.074666082
 31
0.0
  0
LINE
  5
264
330
1F
100
AcDbEntity
  8
0
  6
SLD-Сплошная
 62
     7
370
    25
100
AcDbLine
 10
197.3126254918
 20
-4.074666082
 30
0.0
 11
194.2877217905
 21
-4.074666082
 31
0.0
  0
LWPOLYLINE
  5
265
330
1F
100
AcDbEntity
  8
0
  6
SLD-Сплошная
 62
     7
370
    25
100
AcDbPolyline
 90
        3
 70
   128
 43
0.0
 10
197.3126254918
 20
-4.074666082
 10
197.0734329967
 20
-4.0960831088
 10
197.0272531316
 20
-4.0966588035
  0
ARC
  5
266
330
1F
100
AcDbEntity
  8
0
  6
SLD-Сплошная
 62
     7
370
    25
100
AcDbCircle
 10
198.0352819019
 20
-2.1992456077
 30
0.0
 40
1.897050841418833
100
AcDbArc
 50
252.9958612187
 51
278.6605128678
  0
LINE
  5
267
330
1F
100
AcDbEntity
  8
0
  6
SLD-Сплошная
 62
     7
370
    25
100
AcDbLine
 10
201.3458426343
 20
-4.074666082
 30
0.0
 11
198.320938933
 21
-4.074666082
 31
0.0
  0
LINE
  5
268
330
1F
100
AcDbEntity
  8
0
  6
SLD-Сплошная
 62
     7
370
    25
100
AcDbLine
 10
201.3458426343
 20
-4.074666082
 30
0.0
 11
201.0604702741
 21
-4.0966588035
 31
0.0
  0
ARC
  5
269
330
1F
100
AcDbEntity
  8
0
  6
SLD-Сплошная
 62
     7
370
    25
100
AcDbCircle
 10
194.0023845391
 20
-2.1948615097
 30
0.0
 40
1.901337049861641
100
AcDbArc
 50
253.0252811681
 51
278.6310929184
  0
LINE
  5
26A
330
1F
100
AcDbEntity
  8
0
  6
SLD-Сплошная
 62
     7
370
    25
100
AcDbLine
 10
194.2877217905
 20
-4.01336428
 30
0.0
 11
194.2877217905
 21
-4.074666082
 31
0.0
  0
LINE
  5
26B
330
1F
100
AcDbEntity
  8
0
  6
SLD-Сплошная
 62
     7
370
    25
100
AcDbLine
 10
197.3126254918
 20
-4.01336428
 30
0.0
 11
197.3126254918
 21
-4.074666082
 31
0.0
  0
LINE
  5
26C
330
1F
100
AcDbEntity
  8
0
  6
SLD-Сплошная
 62
     7
370
    25
100
AcDbLine
 10
198.320938933
 20
-4.01336428
 30
0.0
 11
198.320938933
 21
-4.074666082
 31
0.0
  0
LINE
  5
26D
330
1F
100
AcDbEntity
  8
0
  6
SLD-Сплошная
 62
     7
370
    25
100
AcDbLine
 10
201.3458426343
 20
-4.01336428
 30
0.0
 11
201.3458426343
 21
-4.074666082
 31
0.0
  0
LINE
  5
26E
330
1F
100
AcDbEntity
  8
0
  6
SLD-Сплошная
 62
     7
370
    25
100
AcDbLine
 10
168.2146994554
 20
20.4416103097
 30
0.0
 11
168.2502690828
 21
20.3942220802
 31
0.0
  0
LINE
  5
26F
330
1F
100
AcDbEntity
  8
0
  6
SLD-Сплошная
 62
     7
370
    25
100
AcDbLine
 10
206.4649799363
 20
59.5533411965
 30
0.0
 11
209.6656541267
 21
59.5533411965
 31
0.0
  0
LINE
  5
270
330
1F
100
AcDbEntity
  8
0
  6
SLD-Сплошная
 62
     7
370
    25
100
AcDbLine
 10
206.4649799363
 20
-12.4466588035
 30
0.0
 11
209.6656541267
 21
-12.4466588035
 31
0.0
  0
LINE
  5
271
330
1F
100
AcDbEntity
  8
0
  6
SLD-Сплошная
 62
     7
370
    25
100
AcDbLine
 10
230.6587330978
 20
59.3013585152
 30
0.0
 11
231.8696355249
 21
59.9730005514
 31
0.0
  0
SPLINE
  5
272
330
1F
100
AcDbEntity
  8
0
  6
SLD-Сплошная
 62
     7
370
    25
100
AcDbSpline
210
0.0
220
0.0
230
1.0
 70
     8
 71
     3
 72
     9
 73
     5
 74
     0
 42
0.00000001
 43
0.00000001
 40
0.0
 40
0.0
 40
0.0
 40
0.0
 40
0.5531743791666482
 40
1.0
 40
1.0
 40
1.0
 40
1.0
 10
235.5448296966009
 20
60.4506469057865
 30
0.0
 10
235.7648797783855
 20
60.47086761581302
 30
0.0
 10
236.1626749223255
 20
60.50742156839662
 30
0.0
 10
236.5480564166906
 20
60.40235292468371
 30
0.0
 10
236.720254742168
 20
60.35540556272656
 30
0.0
  0
SPLINE
  5
273
330
1F
100
AcDbEntity
  8
0
  6
SLD-Сплошная
 62
     7
370
    25
100
AcDbSpline
210
0.0
220
0.0
230
1.0
 70
     8
 71
     3
 72
     9
 73
     5
 74
     0
 42
0.00000001
 43
0.00000001
 40
0.0
 40
0.0
 40
0.0
 40
0.0
 40
0.4981970280916601
 40
1.0
 40
1.0
 40
1.0
 40
1.0
 10
236.7750675584058
 20
-13.23722239639461
 30
0.0
 10
236.5863959773736
 20
-13.28993002058754
 30
0.0
 10
236.2076872127812
 20
-13.39572676609371
 30
0.0
 10
235.8167418196499
 20
-13.36222579103435
 30
0.0
 10
235.6205642595228
 20
-13.34541490218774
 30
0.0
  0
LINE
  5
274
330
1F
100
AcDbEntity
  8
0
  6
SLD-Сплошная
 62
     7
370
    25
100
AcDbLine
 10
231.8660313518
 20
-12.8655537608
 30
0.0
 11
230.6587330978
 21
-12.1946761222
 31
0.0
  0
SPLINE
  5
275
330
1F
100
AcDbEntity
  8
0
  6
SLD-Сплошная
 62
     7
370
    25
100
AcDbSpline
210
0.0
220
0.0
230
1.0
 70
     8
 71
     3
 72
    14
 73
    10
 74
     0
 42
0.00000001
 43
0.00000001
 40
0.0
 40
0.0
 40
0.0
 40
0.0
 40
0.0239956079251509
 40
0.1263364956422703
 40
0.2346418679506292
 40
0.349281086804666
 40
0.5682626278048382
 40
0.7852268450319938
 40
1.0
 40
1.0
 40
1.0
 40
1.0
 10
212.9867979965011
 20
-13.63337583802351
 30
0.0
 10
212.9603645238635
 20
-13.65293759112943
 30
0.0
 10
212.821192709125
 20
-13.75592991137936
 30
0.0
 10
212.5583639840631
 20
-13.84069208214333
 30
0.0
 10
212.1940927085897
 20
-13.90905867726788
 30
0.0
 10
211.6981291618696
 20
-13.88315090071968
 30
0.0
 10
211.0827498034656
 20
-13.68874038005052
 30
0.0
 10
210.3575463550021
 20
-13.29983733218293
 30
0.0
 10
209.8955032482982
 20
-12.7300878222979
 30
0.0
 10
209.6656541267049
 20
-12.44665880350041
 30
0.0
  0
SPLINE
  5
276
330
1F
100
AcDbEntity
  8
0
  6
SLD-Сплошная
 62
     7
370
    25
100
AcDbSpline
210
0.0
220
0.0
230
1.0
 70
     8
 71
     3
 72
    14
 73
    10
 74
     0
 42
0.00000001
 43
0.00000001
 40
0.0
 40
0.0
 40
0.0
 40
0.0
 40
0.1618517164780289
 40
0.3225127600055444
 40
0.4825871342805731
 40
0.6427642837269109
 40
0.8108761778629173
 40
0.9651595705466243
 40
1.0
 40
1.0
 40
1.0
 40
1.0
 10
209.6656541266993
 20
59.5533411964995
 30
0.0
 10
209.8398132427394
 20
59.77853603663053
 30
0.0
 10
210.1868502616632
 20
60.22726905602685
 30
0.0
 10
210.7264136194868
 20
60.60494262405653
 30
0.0
 10
211.2672836982326
 20
60.86064748146924
 30
0.0
 10
211.8200592017342
 20
61.01320813514924
 30
0.0
 10
212.3665833531387
 20
60.99737098300831
 30
0.0
 10
212.773034500869
 20
60.91392056930178
 30
0.0
 10
212.9825443599699
 20
60.73732734128257
 30
0.0
 10
213.0211403093501
 20
60.70479530045755
 30
0.0
  0
LINE
  5
277
330
1F
100
AcDbEntity
  8
0
  6
SLD-Сплошная
 62
     7
370
    25
100
AcDbLine
 10
206.4649799363
 20
-12.4466588035
 30
0.0
 11
206.4649799363
 21
-4.8458057203
 31
0.0
  0
LINE
  5
278
330
1F
100
AcDbEntity
  8
0
  6
SLD-Сплошная
 62
     7
370
    25
100
AcDbLine
 10
206.4649799363
 20
51.9524881133
 30
0.0
 11
206.4649799363
 21
59.5533411965
 31
0.0
  0
SPLINE
  5
279
330
1F
100
AcDbEntity
  8
0
  6
SLD-Сплошная
 62
     7
370
    25
100
AcDbSpline
210
0.0
220
0.0
230
1.0
 70
     8
 71
     3
 72
    30
 73
    26
 74
     0
 42
0.00000001
 43
0.00000001
 40
0.0
 40
0.0
 40
0.0
 40
0.0
 40
0.0196750912109119
 40
0.0391653304331845
 40
0.0585433023955718
 40
0.0778828559441553
 40
0.0972582792219059
 40
0.1167434501109519
 40
0.1364110097869402
 40
0.2013156489961578
 40
0.2662193463264821
 40
0.3277896330428069
 40
0.3893552774369342
 40
0.4499567677338188
 40
0.5111283905954892
 40
0.5719082993346284
 40
0.6323849616002883
 40
0.6929797823639959
 40
0.7537970170739311
 40
0.8147226556533838
 40
0.8759956562090678
 40
0.9072526736779949
 40
0.9381422931916901
 40
0.9689591622200403
 40
1.0
 40
1.0
 40
1.0
 40
1.0
 10
197.1090274919699
 20
64.05151671808015
 30
0.0
 10
197.1607634500054
 20
64.06881934671968
 30
0.0
 10
197.2637492949001
 20
64.10326204183936
 30
0.0
 10
197.4212682434488
 20
64.14287489101864
 30
0.0
 10
197.5798174310521
 20
64.17320197636548
 30
0.0
 10
197.7396801039971
 20
64.19342560230737
 30
0.0
 10
197.9007667816725
 20
64.20376615593351
 30
0.0
 10
198.0631124029741
 20
64.20414878403047
 30
0.0
 10
198.3511373965324
 20
64.18743169230697
 30
0.0
 10
198.7615454845734
 20
64.11001343470313
 30
0.0
 10
199.253911020723
 20
63.90300067806643
 30
0.0
 10
199.6894770270703
 20
63.61101890226925
 30
0.0
 10
200.0514638277788
 20
63.24825682389443
 30
0.0
 10
200.3381234804463
 20
62.82478183947723
 30
0.0
 10
200.5348172243387
 20
62.35522100408125
 30
0.0
 10
200.6427880248565
 20
61.85813963263448
 30
0.0
 10
200.6514624645891
 20
61.35100361600862
 30
0.0
 10
200.5655543716839
 20
60.85113797068609
 30
0.0
 10
200.3849237926341
 20
60.37586715400597
 30
0.0
 10
200.118201580545
 20
59.94066353043609
 30
0.0
 10
199.8261838249676
 20
59.62741593405207
 30
0.0
 10
199.5602622008618
 20
59.4115159345267
 30
0.0
 10
199.3449037069898
 20
59.26938985347247
 30
0.0
 10
199.1176832249861
 20
59.1478223171075
 30
0.0
 10
198.9575622875533
 20
59.08612568416574
 30
0.0
 10
198.8772119431826
 20
59.05516567491983
 30
0.0
  0
ARC
  5
27A
330
1F
100
AcDbEntity
  8
0
  6
SLD-Сплошная
 62
     7
370
    25
100
AcDbCircle
 10
309.9931197176
 20
61.5533411965
 30
0.0
 40
6.000000000000036
100
AcDbArc
 50
0.0
 51
90.0
  0
ARC
  5
27B
330
1F
100
AcDbEntity
  8
0
  6
SLD-Сплошная
 62
     7
370
    25
100
AcDbCircle
 10
309.9931197176
 20
-14.4466588035
 30
0.0
 40
6.0
100
AcDbArc
 50
270.0
 51
0.0
  0
LINE
  5
27C
330
1F
100
AcDbEntity
  8
0
  6
SLD-Сплошная
 62
     7
370
    25
100
AcDbLine
 10
198.2047768
 20
-20.4466588035
 30
0.0
 11
309.9931197176
 21
-20.4466588035
 31
0.0
  0
SPLINE
  5
27D
330
1F
100
AcDbEntity
  8
0
  6
SLD-Сплошная
 62
     7
370
    25
100
AcDbSpline
210
0.0
220
0.0
230
1.0
 70
     8
 71
     3
 72
    22
 73
    18
 74
     0
 42
0.00000001
 43
0.00000001
 40
0.0
 40
0.0
 40
0.0
 40
0.0
 40
0.125
 40
0.125
 40
0.25
 40
0.25
 40
0.375
 40
0.375
 40
0.5
 40
0.5
 40
0.625
 40
0.625
 40
0.75
 40
0.75
 40
0.875
 40
0.875
 40
1.0
 40
1.0
 40
1.0
 40
1.0
 10
191.9931197175762
 20
-14.44665880350041
 30
0.0
 10
191.9931197175762
 20
-14.80021219409366
 30
0.0
 10
192.0256585344997
 20
-15.16698723127469
 30
0.0
 10
192.1679835536813
 20
-15.9098870046718
 30
0.0
 10
192.2778944961014
 20
-16.28593620971999
 30
0.0
 10
192.5806069330054
 20
-17.02451791202328
 30
0.0
 10
192.7734798510432
 20
-17.38690070316057
 30
0.0
 10
193.2378155585324
 20
-18.07293394446186
 30
0.0
 10
193.5092465817823
 20
-18.39640627180619
 30
0.0
 10
194.1156973274647
 20
-18.9821927094331
 30
0.0
 10
194.4505805229861
 20
-19.24437494484629
 30
0.0
 10
195.1608143966748
 20
-19.69288879677833
 30
0.0
 10
195.5359806685298
 20
-19.87918972950273
 30
0.0
 10
196.3006167122111
 20
-20.17158749024722
 30
0.0
 10
196.6899314968597
 20
-20.27775330812248
 30
0.0
 10
197.4590379366897
 20
-20.41522871987714
 30
0.0
 10
197.8387513962523
 20
-20.44665880350036
 30
0.0
 10
198.2047768000367
 20
-20.44665880350038
 30
0.0
  0
LINE
  5
27E
330
1F
100
AcDbEntity
  8
0
  6
SLD-Сплошная
 62
     7
370
    25
100
AcDbLine
 10
191.9931197176
 20
61.5533411965
 30
0.0
 11
191.9931197176
 21
51.2033411965
 31
0.0
  0
LINE
  5
27F
330
1F
100
AcDbEntity
  8
0
  6
SLD-Сплошная
 62
     7
370
    25
100
AcDbLine
 10
191.9931197176
 20
-4.0966588035
 30
0.0
 11
191.9931197176
 21
-14.4466588035
 31
0.0
  0
SPLINE
  5
280
330
1F
100
AcDbEntity
  8
0
  6
SLD-Сплошная
 62
     7
370
    25
100
AcDbSpline
210
0.0
220
0.0
230
1.0
 70
     8
 71
     3
 72
    22
 73
    18
 74
     0
 42
0.00000001
 43
0.00000001
 40
0.0
 40
0.0
 40
0.0
 40
0.0
 40
0.125
 40
0.125
 40
0.25
 40
0.25
 40
0.375
 40
0.375
 40
0.5
 40
0.5
 40
0.625
 40
0.625
 40
0.75
 40
0.75
 40
0.875
 40
0.875
 40
1.0
 40
1.0
 40
1.0
 40
1.0
 10
198.2047768000368
 20
67.55334119650003
 30
0.0
 10
197.8387513962524
 20
67.55334119649994
 30
0.0
 10
197.4590379366898
 20
67.52191111287684
 30
0.0
 10
196.6899314968597
 20
67.38443570112207
 30
0.0
 10
196.3006167122112
 20
67.27826988324678
 30
0.0
 10
195.5359806685298
 20
66.98587212250234
 30
0.0
 10
195.1608143966749
 20
66.79957118977792
 30
0.0
 10
194.4505805229862
 20
66.35105733784586
 30
0.0
 10
194.1156973274647
 20
66.0888751024327
 30
0.0
 10
193.5092465817823
 20
65.50308866480576
 30
0.0
 10
193.2378155585324
 20
65.17961633746138
 30
0.0
 10
192.7734798510432
 20
64.4935830961601
 30
0.0
 10
192.5806069330054
 20
64.13120030502267
 30
0.0
 10
192.2778944961015
 20
63.39261860271927
 30
0.0
 10
192.1679835536814
 20
63.01656939767108
 30
0.0
 10
192.0256585344997
 20
62.273669624274
 30
0.0
 10
191.9931197175763
 20
61.90689458709284
 30
0.0
 10
191.9931197175763
 20
61.5533411964995
 30
0.0
  0
LINE
  5
281
330
1F
100
AcDbEntity
  8
0
  6
SLD-Сплошная
 62
     7
370
    25
100
AcDbLine
 10
309.9931197176
 20
67.5533411965
 30
0.0
 11
198.2047768
 21
67.5533411965
 31
0.0
  0
SPLINE
  5
282
330
1F
100
AcDbEntity
  8
0
  6
SLD-Сплошная
 62
     7
370
    25
100
AcDbSpline
210
0.0
220
0.0
230
1.0
 70
     8
 71
     3
 72
    26
 73
    22
 74
     0
 42
0.00000001
 43
0.00000001
 40
0.0
 40
0.0
 40
0.0
 40
0.0
 40
0.1250000000000022
 40
0.1250000000000022
 40
0.2500000000000044
 40
0.2500000000000044
 40
0.3750000000000067
 40
0.3750000000000067
 40
0.5000000000000089
 40
0.5000000000000089
 40
0.6250000000000111
 40
0.6250000000000111
 40
0.7500000000000133
 40
0.7500000000000133
 40
0.81250000000001
 40
0.81250000000001
 40
0.8750000000000067
 40
0.8750000000000067
 40
0.9375000000000033
 40
0.9375000000000033
 40
1.0
 40
1.0
 40
1.0
 40
1.0
 10
309.1090274919696
 20
-11.94848328192
 30
0.0
 10
308.7820170834177
 20
-12.06421068271576
 30
0.0
 10
308.4821682702042
 20
-12.2442053513202
 30
0.0
 10
307.9726032368218
 20
-12.69841259049184
 30
0.0
 10
307.764015227069
 20
-12.97318856335808
 30
0.0
 10
307.4667614997565
 20
-13.57963567686213
 30
0.0
 10
307.3764063643598
 20
-13.91046316118275
 30
0.0
 10
307.324576746495
 20
-14.58128787322327
 30
0.0
 10
307.3646781652378
 20
-14.92128510094321
 30
0.0
 10
307.5671229392258
 20
-15.56441118804477
 30
0.0
 10
307.7294539610421
 20
-15.86735047494875
 30
0.0
 10
308.161527094543
 20
-16.39117637709395
 30
0.0
 10
308.4297623751508
 20
-16.61281546905591
 30
0.0
 10
308.88355631529
 20
-16.85912584316765
 30
0.0
 10
309.040698787521
 20
-16.92599130727893
 30
0.0
 10
309.3808549529841
 20
-17.03108272930007
 30
0.0
 10
309.5671953341237
 20
-17.06931460802227
 30
0.0
 10
309.953640128853
 20
-17.10345068949853
 30
0.0
 10
310.1526027654414
 20
-17.09871081376063
 30
0.0
 10
310.5331356949899
 20
-17.04818445592579
 30
0.0
 10
310.7137067389064
 20
-17.0026980254786
 30
0.0
 10
310.8772119431826
 20
-16.94483432508037
 30
0.0
  0
SPLINE
  5
283
330
1F
100
AcDbEntity
  8
0
  6
SLD-Сплошная
 62
     7
370
    25
100
AcDbSpline
210
0.0
220
0.0
230
1.0
 70
     8
 71
     3
 72
    26
 73
    22
 74
     0
 42
0.00000001
 43
0.00000001
 40
0.0
 40
0.0
 40
0.0
 40
0.0
 40
0.1250000000000022
 40
0.1250000000000022
 40
0.2500000000000044
 40
0.2500000000000044
 40
0.3750000000000067
 40
0.3750000000000067
 40
0.5000000000000089
 40
0.5000000000000089
 40
0.6250000000000111
 40
0.6250000000000111
 40
0.7500000000000133
 40
0.7500000000000133
 40
0.81250000000001
 40
0.81250000000001
 40
0.8750000000000067
 40
0.8750000000000067
 40
0.9375000000000033
 40
0.9375000000000033
 40
1.0
 40
1.0
 40
1.0
 40
1.0
 10
310.8772119431826
 20
-16.94483432508037
 30
0.0
 10
311.2042223517358
 20
-16.8291069242846
 30
0.0
 10
311.5040711649486
 20
-16.64911225568011
 30
0.0
 10
312.0136361983306
 20
-16.19490501650875
 30
0.0
 10
312.2222242080834
 20
-15.92012904364251
 30
0.0
 10
312.5194779353961
 20
-15.31368193013852
 30
0.0
 10
312.609833070793
 20
-14.98285444581793
 30
0.0
 10
312.6616626886577
 20
-14.31202973377746
 30
0.0
 10
312.621561269915
 20
-13.97203250605744
 30
0.0
 10
312.4191164959268
 20
-13.32890641895579
 30
0.0
 10
312.2567854741102
 20
-13.02596713205198
 30
0.0
 10
311.8247123406094
 20
-12.50214122990648
 30
0.0
 10
311.5564770600016
 20
-12.2805021379446
 30
0.0
 10
311.1026831198628
 20
-12.03419176383288
 30
0.0
 10
310.9455406476319
 20
-11.96732629972164
 30
0.0
 10
310.6053844821686
 20
-11.86223487770049
 30
0.0
 10
310.4190441010286
 20
-11.82400299897829
 30
0.0
 10
310.0325993062996
 20
-11.7898669175022
 30
0.0
 10
309.8336366697113
 20
-11.79460679323988
 30
0.0
 10
309.4531037401632
 20
-11.84513315107466
 30
0.0
 10
309.2725326962477
 20
-11.89061958152202
 30
0.0
 10
309.1090274919696
 20
-11.94848328192
 30
0.0
  0
SPLINE
  5
284
330
1F
100
AcDbEntity
  8
0
  6
SLD-Сплошная
 62
     7
370
    25
100
AcDbSpline
210
0.0
220
0.0
230
1.0
 70
     8
 71
     3
 72
    26
 73
    22
 74
     0
 42
0.00000001
 43
0.00000001
 40
0.0
 40
0.0
 40
0.0
 40
0.0
 40
0.1250000000000006
 40
0.1250000000000006
 40
0.2500000000000011
 40
0.2500000000000011
 40
0.3750000000000017
 40
0.3750000000000017
 40
0.5000000000000022
 40
0.5000000000000022
 40
0.6250000000000028
 40
0.6250000000000028
 40
0.7500000000000033
 40
0.7500000000000033
 40
0.8125000000000024
 40
0.8125000000000024
 40
0.8750000000000017
 40
0.8750000000000017
 40
0.9375000000000008
 40
0.9375000000000008
 40
1.0
 40
1.0
 40
1.0
 40
1.0
 10
198.8772119431826
 20
-16.94483432508037
 30
0.0
 10
199.2042223517348
 20
-16.8291069242851
 30
0.0
 10
199.5040711649482
 20
-16.64911225568058
 30
0.0
 10
200.0136361983307
 20
-16.19490501650889
 30
0.0
 10
200.2222242080834
 20
-15.92012904364251
 30
0.0
 10
200.519477935396
 20
-15.31368193013849
 30
0.0
 10
200.6098330707929
 20
-14.98285444581793
 30
0.0
 10
200.6616626886575
 20
-14.31202973377749
 30
0.0
 10
200.6215612699149
 20
-13.97203250605747
 30
0.0
 10
200.4191164959267
 20
-13.32890641895582
 30
0.0
 10
200.2567854741102
 20
-13.02596713205198
 30
0.0
 10
199.8247123406094
 20
-12.50214122990645
 30
0.0
 10
199.5564770600017
 20
-12.28050213794463
 30
0.0
 10
199.1026831198627
 20
-12.03419176383288
 30
0.0
 10
198.9455406476316
 20
-11.96732629972169
 30
0.0
 10
198.6053844821683
 20
-11.86223487770044
 30
0.0
 10
198.4190441010286
 20
-11.82400299897818
 30
0.0
 10
198.0325993062996
 20
-11.78986691750206
 30
0.0
 10
197.8336366697111
 20
-11.79460679323993
 30
0.0
 10
197.4531037401626
 20
-11.8451331510748
 30
0.0
 10
197.2725326962464
 20
-11.89061958152207
 30
0.0
 10
197.1090274919698
 20
-11.94848328192
 30
0.0
  0
SPLINE
  5
285
330
1F
100
AcDbEntity
  8
0
  6
SLD-Сплошная
 62
     7
370
    25
100
AcDbSpline
210
0.0
220
0.0
230
1.0
 70
     8
 71
     3
 72
    26
 73
    22
 74
     0
 42
0.00000001
 43
0.00000001
 40
0.0
 40
0.0
 40
0.0
 40
0.0
 40
0.1250000000000006
 40
0.1250000000000006
 40
0.2500000000000011
 40
0.2500000000000011
 40
0.3750000000000017
 40
0.3750000000000017
 40
0.5000000000000022
 40
0.5000000000000022
 40
0.6250000000000028
 40
0.6250000000000028
 40
0.7500000000000033
 40
0.7500000000000033
 40
0.8125000000000024
 40
0.8125000000000024
 40
0.8750000000000017
 40
0.8750000000000017
 40
0.9375000000000008
 40
0.9375000000000008
 40
1.0
 40
1.0
 40
1.0
 40
1.0
 10
197.1090274919698
 20
-11.94848328192
 30
0.0
 10
196.7820170834168
 20
-12.06421068271604
 30
0.0
 10
196.4821682702039
 20
-12.24420535132051
 30
0.0
 10
195.9726032368218
 20
-12.6984125904919
 30
0.0
 10
195.7640152270691
 20
-12.97318856335811
 30
0.0
 10
195.4667614997564
 20
-13.57963567686216
 30
0.0
 10
195.3764063643596
 20
-13.91046316118272
 30
0.0
 10
195.3245767464948
 20
-14.58128787322341
 30
0.0
 10
195.3646781652376
 20
-14.92128510094323
 30
0.0
 10
195.5671229392258
 20
-15.5644111880448
 30
0.0
 10
195.7294539610423
 20
-15.86735047494867
 30
0.0
 10
196.1615270945431
 20
-16.39117637709406
 30
0.0
 10
196.4297623751508
 20
-16.61281546905588
 30
0.0
 10
196.8835563152898
 20
-16.8591258431677
 30
0.0
 10
197.0406987875208
 20
-16.92599130727884
 30
0.0
 10
197.380854952984
 20
-17.03108272930021
 30
0.0
 10
197.5671953341238
 20
-17.06931460802236
 30
0.0
 10
197.9536401288529
 20
-17.10345068949845
 30
0.0
 10
198.1526027654412
 20
-17.09871081376066
 30
0.0
 10
198.5331356949892
 20
-17.0481844559261
 30
0.0
 10
198.713706738905
 20
-17.00269802547888
 30
0.0
 10
198.8772119431826
 20
-16.94483432508037
 30
0.0
  0
SPLINE
  5
286
330
1F
100
AcDbEntity
  8
0
  6
SLD-Сплошная
 62
     7
370
    25
100
AcDbSpline
210
0.0
220
0.0
230
1.0
 70
     8
 71
     3
 72
    30
 73
    26
 74
     0
 42
0.00000001
 43
0.00000001
 40
0.0
 40
0.0
 40
0.0
 40
0.0
 40
0.0196520062752104
 40
0.0391264609021184
 40
0.0584963354381717
 40
0.0778357852809561
 40
0.0972193150176414
 40
0.1167209240291184
 40
0.1364132805963854
 40
0.2013156955682115
 40
0.2662208556000238
 40
0.3277875690709815
 40
0.3893561320280224
 40
0.4499542829507867
 40
0.5111285919300664
 40
0.5719051784362327
 40
0.6323845130753165
 40
0.6929759985327868
 40
0.7537959179591632
 40
0.8147183154480664
 40
0.8759939015359516
 40
0.9072872435147669
 40
0.9381887350786122
 40
0.9689936446556513
 40
1.0
 40
1.0
 40
1.0
 40
1.0
 10
198.8772119431826
 20
59.05516567491981
 30
0.0
 10
198.8255455226866
 20
59.03785564612157
 30
0.0
 10
198.7226794766869
 20
59.0033919809109
 30
0.0
 10
198.5652951747655
 20
58.96377025991006
 30
0.0
 10
198.4068134422989
 20
58.93343832933187
 30
0.0
 10
198.246949530521
 20
58.91321694134
 30
0.0
 10
198.085793411194
 20
58.90288408147307
 30
0.0
 10
197.9233101667897
 20
58.90251683564021
 30
0.0
 10
197.6351761730937
 20
58.91924537474197
 30
0.0
 10
197.2247001461467
 20
58.99666880275406
 30
0.0
 10
196.73234062327
 20
59.20367519890099
 30
0.0
 10
196.2967694432793
 20
59.49565731395163
 30
0.0
 10
195.9347866315966
 20
59.858412233528
 30
0.0
 10
195.648120072174
 20
60.28189290242395
 30
0.0
 10
195.4514272124622
 20
60.75144554156614
 30
0.0
 10
195.3434523636472
 20
61.24853420786874
 30
0.0
 10
195.3347757810031
 20
61.75566214200651
 30
0.0
 10
195.4206824972324
 20
62.25553636310524
 30
0.0
 10
195.601309320089
 20
62.73079947527219
 30
0.0
 10
195.8680293809043
 20
63.16601617990042
 30
0.0
 10
196.1601289337034
 20
63.47932392614511
 30
0.0
 10
196.4261455756618
 20
63.69533270134561
 30
0.0
 10
196.6415744250846
 20
63.837536765331
 30
0.0
 10
196.868719446033
 20
63.95905297102431
 30
0.0
 10
197.0287509599592
 20
64.02062857648083
 30
0.0
 10
197.1090274919699
 20
64.05151671808015
 30
0.0
  0
SPLINE
  5
287
330
1F
100
AcDbEntity
  8
0
  6
SLD-Сплошная
 62
     7
370
    25
100
AcDbSpline
210
0.0
220
0.0
230
1.0
 70
     8
 71
     3
 72
    30
 73
    26
 74
     0
 42
0.00000001
 43
0.00000001
 40
0.0
 40
0.0
 40
0.0
 40
0.0
 40
0.017740665615745
 40
0.0353823498524809
 40
0.0529801012791227
 40
0.0705893804859994
 40
0.0882655395553111
 40
0.1060633065795169
 40
0.1240362987900126
 40
0.1851862724392259
 40
0.2462354954058702
 40
0.3069255775838521
 40
0.3676481637404617
 40
0.4280019886823292
 40
0.4889054022663176
 40
0.5499558775873646
 40
0.6106791160687026
 40
0.6721194781655333
 40
0.7338156170308697
 40
0.7985877215635673
 40
0.8636180284663748
 40
0.8979073384797696
 40
0.9318015674948099
 40
0.9656995526354503
 40
1.0
 40
1.0
 40
1.0
 40
1.0
 10
310.8772119431826
 20
64.05151671808012
 30
0.0
 10
310.9233193947754
 20
64.03438704269455
 30
0.0
 10
311.0152770483604
 20
64.00022326437416
 30
0.0
 10
311.1491073110209
 20
63.93948875859784
 30
0.0
 10
311.2792114320906
 20
63.87204142488456
 30
0.0
 10
311.4053428969004
 20
63.79719464825095
 30
0.0
 10
311.527563675921
 20
63.71514258378272
 30
0.0
 10
311.6458513058363
 20
63.6258090527008
 30
0.0
 10
311.8512288801105
 20
63.45254426279351
 30
0.0
 10
312.1179734230753
 20
63.16623307381908
 30
0.0
 10
312.384620773598
 20
62.73145510419412
 30
0.0
 10
312.5654575211925
 20
62.25589334249781
 30
0.0
 10
312.6514091942963
 20
61.75637092460873
 30
0.0
 10
312.6428338328798
 20
61.24889413835965
 30
0.0
 10
312.5350198114452
 20
60.75210646559204
 30
0.0
 10
312.338289032002
 20
60.28220861601333
 30
0.0
 10
312.0518990709083
 20
59.85895319464851
 30
0.0
 10
311.6897512204453
 20
59.49589219145501
 30
0.0
 10
311.2545482576232
 20
59.20403407781755
 30
0.0
 10
310.761883131602
 20
58.99673175606882
 30
0.0
 10
310.3115108529149
 20
58.91189530254953
 30
0.0
 10
309.9419338081569
 20
58.89815759876926
 30
0.0
 10
309.6592540768577
 20
58.91876542035496
 30
0.0
 10
309.3797875692689
 20
58.9682068378248
 30
0.0
 10
309.1996352312116
 20
59.02606558115825
 30
0.0
 10
309.1090274919698
 20
59.05516567491972
 30
0.0
  0
SPLINE
  5
288
330
1F
100
AcDbEntity
  8
0
  6
SLD-Сплошная
 62
     7
370
    25
100
AcDbSpline
210
0.0
220
0.0
230
1.0
 70
     8
 71
     3
 72
    29
 73
    25
 74
     0
 42
0.00000001
 43
0.00000001
 40
0.0
 40
0.0
 40
0.0
 40
0.0
 40
0.0207107886511601
 40
0.0412895684491093
 40
0.0618234854895192
 40
0.0824002558799999
 40
0.1031070511417668
 40
0.1240294176415946
 40
0.1851784700255344
 40
0.2462300523075873
 40
0.3069212848949065
 40
0.3676440685156543
 40
0.4279969244259403
 40
0.4889025757696642
 40
0.5499500623592463
 40
0.610677641242496
 40
0.6721170494263444
 40
0.7338155873238645
 40
0.7985888111965476
 40
0.8636194405073725
 40
0.89787114474721
 40
0.9317532350902773
 40
0.9656638157556068
 40
1.0
 40
1.0
 40
1.0
 40
1.0
 10
309.1090274919698
 20
59.05516567491972
 30
0.0
 10
309.0552596920805
 20
59.07533412126612
 30
0.0
 10
308.9480668038095
 20
59.11554246195058
 30
0.0
 10
308.7929134285098
 20
59.18871878284682
 30
0.0
 10
308.642905319775
 20
59.27098883843454
 30
0.0
 10
308.4983788200454
 20
59.36326744869277
 30
0.0
 10
308.359254642497
 20
59.46533719980504
 30
0.0
 10
308.1406145367993
 20
59.6481262043779
 30
0.0
 10
307.8682684022082
 20
59.94043646284538
 30
0.0
 10
307.6016196799621
 20
60.3752263961701
 30
0.0
 10
307.4207819332161
 20
60.850789715019
 30
0.0
 10
307.3348295193977
 20
61.35030856181148
 30
0.0
 10
307.3434107832922
 20
61.85778299283321
 30
0.0
 10
307.4512143479481
 20
62.35456218121277
 30
0.0
 10
307.6479455479007
 20
62.82446468389843
 30
0.0
 10
307.934331522047
 20
63.24771723397923
 30
0.0
 10
308.2964808709649
 20
63.61079125371744
 30
0.0
 10
308.7316885811833
 20
63.90264705866036
 30
0.0
 10
309.2243574566984
 20
64.10994632156722
 30
0.0
 10
309.6746244776219
 20
64.19478254922498
 30
0.0
 10
310.0440615534856
 20
64.20849344510555
 30
0.0
 10
310.3266335784836
 20
64.18786359747583
 30
0.0
 10
310.6061931977184
 20
64.13841670600887
 30
0.0
 10
310.7864975539525
 20
64.0806035597138
 30
0.0
 10
310.8772119431826
 20
64.05151671808012
 30
0.0
  0
LINE
  5
289
330
1F
100
AcDbEntity
  8
0
  6
SLD-Сплошная
 62
     7
370
    25
100
AcDbLine
 10
315.9931197176
 20
61.5533411965
 30
0.0
 11
315.9931197176
 21
43.637885773
 31
0.0
  0
LINE
  5
28A
330
1F
100
AcDbEntity
  8
0
  6
SLD-Сплошная
 62
     7
370
    25
100
AcDbLine
 10
315.9931197176
 20
3.4699094572
 30
0.0
 11
315.9931197176
 21
-14.4466588035
 31
0.0
  0
SPLINE
  5
28B
330
1F
100
AcDbEntity
  8
0
  6
SLD-Сплошная
 62
     7
370
    25
100
AcDbSpline
210
0.0
220
0.0
230
1.0
 70
     8
 71
     3
 72
    22
 73
    18
 74
     0
 42
0.00000001
 43
0.00000001
 40
0.0
 40
0.0
 40
0.0
 40
0.0
 40
0.125
 40
0.125
 40
0.25
 40
0.25
 40
0.375
 40
0.375
 40
0.5
 40
0.5
 40
0.625
 40
0.625
 40
0.75
 40
0.75
 40
0.875
 40
0.875
 40
1.0
 40
1.0
 40
1.0
 40
1.0
 10
190.1174753705583
 20
61.5533411964995
 30
0.0
 10
190.1174753705583
 20
61.90689458709284
 30
0.0
 10
190.1500141874818
 20
62.27366962427391
 30
0.0
 10
190.2923392066634
 20
63.01656939767106
 30
0.0
 10
190.4022501490835
 20
63.39261860271933
 30
0.0
 10
190.7049625859875
 20
64.13120030502267
 30
0.0
 10
190.8978355040253
 20
64.49358309616
 30
0.0
 10
191.3621712115144
 20
65.17961633746128
 30
0.0
 10
191.6336022347644
 20
65.50308866480573
 30
0.0
 10
192.2400529804468
 20
66.08887510243264
 30
0.0
 10
192.5749361759682
 20
66.35105733784586
 30
0.0
 10
193.2851700496569
 20
66.79957118977784
 30
0.0
 10
193.6603363215119
 20
66.98587212250234
 30
0.0
 10
194.4249723651932
 20
67.27826988324681
 30
0.0
 10
194.8142871498418
 20
67.38443570112216
 30
0.0
 10
195.5833935896718
 20
67.52191111287686
 30
0.0
 10
195.9631070492344
 20
67.5533411965
 30
0.0
 10
196.3291324530188
 20
67.55334119650003
 30
0.0
  0
LINE
  5
28C
330
1F
100
AcDbEntity
  8
0
  6
SLD-Сплошная
 62
     7
370
    25
100
AcDbLine
 10
196.329132453
 20
67.5533411965
 30
0.0
 11
198.2047768
 21
67.5533411965
 31
0.0
  0
LINE
  5
28D
330
1F
100
AcDbEntity
  8
0
  6
SLD-Сплошная
 62
     7
370
    25
100
AcDbLine
 10
190.1174753706
 20
61.5533411965
 30
0.0
 11
190.1174753706
 21
51.2033411965
 31
0.0
  0
LINE
  5
28E
330
1F
100
AcDbEntity
  8
0
  6
SLD-Сплошная
 62
     7
370
    25
100
AcDbLine
 10
190.1174753706
 20
-4.0966588035
 30
0.0
 11
190.1174753706
 21
-14.4466588035
 31
0.0
  0
LINE
  5
28F
330
1F
100
AcDbEntity
  8
0
  6
SLD-Сплошная
 62
     7
370
    25
100
AcDbLine
 10
198.2047768
 20
-20.4466588035
 30
0.0
 11
196.329132453
 21
-20.4466588035
 31
0.0
  0
SPLINE
  5
290
330
1F
100
AcDbEntity
  8
0
  6
SLD-Сплошная
 62
     7
370
    25
100
AcDbSpline
210
0.0
220
0.0
230
1.0
 70
     8
 71
     3
 72
    22
 73
    18
 74
     0
 42
0.00000001
 43
0.00000001
 40
0.0
 40
0.0
 40
0.0
 40
0.0
 40
0.125
 40
0.125
 40
0.25
 40
0.25
 40
0.375
 40
0.375
 40
0.5
 40
0.5
 40
0.625
 40
0.625
 40
0.75
 40
0.75
 40
0.875
 40
0.875
 40
1.0
 40
1.0
 40
1.0
 40
1.0
 10
196.3291324530188
 20
-20.44665880350038
 30
0.0
 10
195.9631070492344
 20
-20.44665880350038
 30
0.0
 10
195.5833935896718
 20
-20.41522871987714
 30
0.0
 10
194.8142871498418
 20
-20.27775330812251
 30
0.0
 10
194.4249723651932
 20
-20.17158749024717
 30
0.0
 10
193.6603363215119
 20
-19.8791897295027
 30
0.0
 10
193.2851700496568
 20
-19.69288879677822
 30
0.0
 10
192.5749361759682
 20
-19.24437494484624
 30
0.0
 10
192.2400529804467
 20
-18.98219270943299
 30
0.0
 10
191.6336022347643
 20
-18.39640627180611
 30
0.0
 10
191.3621712115144
 20
-18.07293394446177
 30
0.0
 10
190.8978355040252
 20
-17.38690070316054
 30
0.0
 10
190.7049625859874
 20
-17.02451791202317
 30
0.0
 10
190.4022501490834
 20
-16.28593620971983
 30
0.0
 10
190.2923392066634
 20
-15.90988700467166
 30
0.0
 10
190.1500141874817
 20
-15.16698723127458
 30
0.0
 10
190.1174753705583
 20
-14.80021219409344
 30
0.0
 10
190.1174753705583
 20
-14.44665880350021
 30
0.0
  0
SPLINE
  5
291
330
1F
100
AcDbEntity
  8
0
  6
SLD-Сплошная
 62
     7
370
    25
100
AcDbSpline
210
0.0
220
0.0
230
1.0
 70
     8
 71
     3
 72
    75
 73
    71
 74
     0
 42
0.00000001
 43
0.00000001
 40
0.0
 40
0.0
 40
0.0
 40
0.0
 40
0.0176923909267455
 40
0.0380537326696682
 40
0.0585723668953333
 40
0.0791418881491774
 40
0.0995894508917339
 40
0.1201187070180573
 40
0.1614032636607124
 40
0.2026620320772613
 40
0.2432974500096106
 40
0.2612016524783056
 40
0.278598763577105
 40
0.2954912956454026
 40
0.3052314050782849
 40
0.3154497862323069
 40
0.3255703698430532
 40
0.3357188829207431
 40
0.343647944461607
 40
0.3515395286862398
 40
0.3594974774086925
 40
0.3674098283128061
 40
0.3751514654034298
 40
0.3832636271056256
 40
0.3909592538883384
 40
0.3991235647309846
 40
0.4096161825305649
 40
0.4202391515489859
 40
0.4306875390073626
 40
0.446629211036577
 40
0.4621634751673255
 40
0.4778420453492908
 40
0.4936090150392199
 40
0.5044105808724038
 40
0.5144257144644955
 40
0.5247570313448903
 40
0.5407535226393141
 40
0.5565013981465539
 40
0.5723019551346691
 40
0.5880074910106403
 40
0.5961824393534482
 40
0.6037965258861373
 40
0.6119242238638681
 40
0.6196166154300992
 40
0.6275518333078456
 40
0.6354016469088737
 40
0.6433304318544965
 40
0.6512196972273502
 40
0.659137571761629
 40
0.6670622417439239
 40
0.6698699793858928
 40
0.6726881431615659
 40
0.6752330948121015
 40
0.675594943650738
 40
0.6767853365975028
 40
0.6790417054227352
 40
0.6830564071509402
 40
0.7036563158871755
 40
0.7250640603670455
 40
0.7472842819077296
 40
0.7787883557261333
 40
0.8115094124175913
 40
0.8433096521001203
 40
0.8757350598929848
 40
0.8970878794935983
 40
0.9182324770615773
 40
0.9395221330025001
 40
0.960736866690594
 40
0.9817705118228206
 40
1.0
 40
1.0
 40
1.0
 40
1.0
 10
231.2901995696401
 20
59.26259603820913
 30
0.0
 10
232.4440042404207
 20
59.20231036215712
 30
0.0
 10
234.925668515006
 20
59.07264473302923
 30
0.0
 10
238.9027115827843
 20
58.62558659633898
 30
0.0
 10
243.1619674843078
 20
58.07126497064208
 30
0.0
 10
247.4676074395066
 20
57.46596075366006
 30
0.0
 10
251.7659970429166
 20
56.87097737864013
 30
0.0
 10
257.3981571107032
 20
56.16998008175864
 30
0.0
 10
264.3931739260626
 20
55.18571665854455
 30
0.0
 10
272.6549964983105
 20
53.85333701034089
 30
0.0
 10
279.2584162393161
 20
52.65291207138961
 30
0.0
 10
284.2289424594175
 20
51.67441857126709
 30
0.0
 10
287.6215028394545
 20
50.97516904501951
 30
0.0
 10
290.464379598585
 20
50.3619702438074
 30
0.0
 10
292.8273485619561
 20
49.83614987130286
 30
0.0
 10
294.7559098517862
 20
49.3906450173221
 30
0.0
 10
296.6695190213472
 20
48.95626706311382
 30
0.0
 10
298.5518965235838
 20
48.44339320432609
 30
0.0
 10
300.3041471549702
 20
47.86746703535649
 30
0.0
 10
301.8537879587081
 20
47.26825177058366
 30
0.0
 10
303.2919282069111
 20
46.59684613191276
 30
0.0
 10
304.568727940078
 20
45.85530146763847
 30
0.0
 10
305.6647164684635
 20
45.03299985733947
 30
0.0
 10
306.5586464732092
 20
44.14287032294561
 30
0.0
 10
307.278089820901
 20
43.16308472644198
 30
0.0
 10
307.873480685793
 20
42.00894097629981
 30
0.0
 10
308.3044174490619
 20
40.63297165837756
 30
0.0
 10
308.5590733769741
 20
39.0409883275406
 30
0.0
 10
308.8642609037477
 20
36.99948530493494
 30
0.0
 10
309.1464412740029
 20
34.47986987510338
 30
0.0
 10
309.3906171617827
 20
31.42433419952281
 30
0.0
 10
309.5530733525392
 20
28.22176672844432
 30
0.0
 10
309.6243063344141
 20
25.25586053713391
 30
0.0
 10
309.6271163442967
 20
22.67153044770484
 30
0.0
 10
309.5923805907361
 20
20.47920112633875
 30
0.0
 10
309.5124417924702
 20
17.95289366078001
 30
0.0
 10
309.3513799455247
 20
15.10414108255229
 30
0.0
 10
309.0941853373338
 20
12.06255626894076
 30
0.0
 10
308.7487271086232
 20
9.27031458435748
 30
0.0
 10
308.4420638164819
 20
7.179800513592044
 30
0.0
 10
308.0702730097146
 20
5.668592231678843
 30
0.0
 10
307.6281346186113
 20
4.579286815951128
 30
0.0
 10
307.0375488110955
 20
3.577851482105071
 30
0.0
 10
306.2577005844749
 20
2.63344835555307
 30
0.0
 10
305.2966414748094
 20
1.772483695246574
 30
0.0
 10
304.1354066481892
 20
0.9786876552809465
 30
0.0
 10
302.7942185085982
 20
0.2627992602682871
 30
0.0
 10
301.3146258584126
 20
-0.3825333314211865
 30
0.0
 10
299.7410203292722
 20
-0.9547402782289494
 30
0.0
 10
298.4799332506304
 20
-1.347141906683641
 30
0.0
 10
297.5787076845681
 20
-1.600259478841293
 30
0.0
 10
297.0423413140188
 20
-1.742113484009766
 30
0.0
 10
296.6724368721385
 20
-1.834510643295401
 30
0.0
 10
296.4118938584559
 20
-1.89668858453107
 30
0.0
 10
296.1698403557169
 20
-1.954200710306442
 30
0.0
 10
295.6957837236499
 20
-2.066003357331148
 30
0.0
 10
293.9855760633952
 20
-2.466359738163476
 30
0.0
 10
291.0401295182003
 20
-3.133850185042336
 30
0.0
 10
286.8917897525053
 20
-4.024559798172234
 30
0.0
 10
281.9958860000364
 20
-5.01805739984984
 30
0.0
 10
276.3049164135226
 20
-6.09304810857031
 30
0.0
 10
269.9120305004805
 20
-7.197357544832666
 30
0.0
 10
263.3927025033034
 20
-8.216502403210008
 30
0.0
 10
257.5808394687256
 20
-9.037456769210195
 30
0.0
 10
252.4660633336224
 20
-9.672838992061338
 30
0.0
 10
248.0186447332458
 20
-10.28094628665072
 30
0.0
 10
243.562569776224
 20
-10.90981856129475
 30
0.0
 10
239.1537124862759
 20
-11.48913831292478
 30
0.0
 10
235.0398819778624
 20
-11.95766659132796
 30
0.0
 10
232.4790327502946
 20
-12.09276700672335
 30
0.0
 10
231.2900555398003
 20
-12.15549280615902
 30
0.0
  0
SPLINE
  5
292
330
1F
100
AcDbEntity
  8
0
  6
SLD-Сплошная
 62
     7
370
    25
100
AcDbSpline
210
0.0
220
0.0
230
1.0
 70
     8
 71
     3
 72
     8
 73
     4
 74
     0
 42
0.00000001
 43
0.00000001
 40
0.0
 40
0.0
 40
0.0
 40
0.0
 40
1.0
 40
1.0
 40
1.0
 40
1.0
 10
260.625441450205
 20
26.55334119649949
 30
0.0
 10
260.7351161556596
 20
25.88667452982349
 30
0.0
 10
260.8079946070332
 20
25.22000786314752
 30
0.0
 10
260.844434138756
 20
24.55334119647101
 30
0.0
  0
ARC
  5
293
330
1F
100
AcDbEntity
  8
0
  6
SLD-Сплошная
 62
     7
370
    25
100
AcDbCircle
 10
129.0935854503
 20
23.5536927122
 30
0.0
 40
131.7715650142812
100
AcDbArc
 50
0.2302631902
 51
0.4346627327
  0
SPLINE
  5
294
330
1F
100
AcDbEntity
  8
0
  6
SLD-Сплошная
 62
     7
370
    25
100
AcDbSpline
210
0.0
220
0.0
230
1.0
 70
     8
 71
     3
 72
     8
 73
     4
 74
     0
 42
0.00000001
 43
0.00000001
 40
0.0
 40
0.0
 40
0.0
 40
0.0
 40
1.0
 40
1.0
 40
1.0
 40
1.0
 10
260.8640863341112
 20
24.08326154819449
 30
0.0
 10
260.8743692415776
 20
23.72814756786251
 30
0.0
 10
260.8742635889138
 20
23.37488617438702
 30
0.0
 10
260.8640863341112
 20
23.02342084480452
 30
0.0
  0
ARC
  5
295
330
1F
100
AcDbEntity
  8
0
  6
SLD-Сплошная
 62
     7
370
    25
100
AcDbCircle
 10
129.0935853907
 20
23.5529896812
 30
0.0
 40
131.771565073915
100
AcDbArc
 50
359.5653372674
 51
359.7697368097
  0
SPLINE
  5
296
330
1F
100
AcDbEntity
  8
0
  6
SLD-Сплошная
 62
     7
370
    25
100
AcDbSpline
210
0.0
220
0.0
230
1.0
 70
     8
 71
     3
 72
     8
 73
     4
 74
     0
 42
0.00000001
 43
0.00000001
 40
0.0
 40
0.0
 40
0.0
 40
0.0
 40
1.0
 40
1.0
 40
1.0
 40
1.0
 10
260.8444341387547
 20
22.55334119649949
 30
0.0
 10
260.807994607031
 20
21.88667452983301
 30
0.0
 10
260.7351161556578
 20
21.2200078631665
 30
0.0
 10
260.625441450205
 20
20.55334119649948
 30
0.0
  0
ARC
  5
297
330
1F
100
AcDbEntity
  8
0
  6
SLD-Сплошная
 62
     7
370
    25
100
AcDbCircle
 10
234.309292485
 20
1.0989954056
 30
0.0
 40
18.12486162730456
100
AcDbArc
 50
324.834211578
 51
342.1835012763
  0
SPLINE
  5
298
330
1F
100
AcDbEntity
  8
0
  6
SLD-Сплошная
 62
     7
370
    25
100
AcDbSpline
210
0.0
220
0.0
230
1.0
 70
     8
 71
     3
 72
    13
 73
     9
 74
     0
 42
0.00000001
 43
0.00000001
 40
0.0
 40
0.0
 40
0.0
 40
0.0
 40
0.4999999999999986
 40
0.4999999999999986
 40
0.6249999999999977
 40
0.6249999999999977
 40
0.7499999999999968
 40
1.0
 40
1.0
 40
1.0
 40
1.0
 10
249.1261664601438
 20
-9.3399151991784
 30
0.0
 10
250.7430172532567
 20
-9.183127193054835
 30
0.0
 10
252.3605109744716
 20
-9.0124829616485
 30
0.0
 10
254.3831915797749
 20
-8.7816463203442
 30
0.0
 10
254.7831074673632
 20
-8.735141971900145
 30
0.0
 10
255.5845375964104
 20
-8.64024348819903
 30
0.0
 10
256.7861458445095
 20
-8.495385265643584
 30
0.0
 10
257.9861430788297
 20
-8.342994722811358
 30
0.0
 10
258.7854247230344
 20
-8.238050964414988
 30
0.0
  0
ARC
  5
299
330
1F
100
AcDbEntity
  8
0
  6
SLD-Сплошная
 62
     7
370
    25
100
AcDbCircle
 10
245.3282241453
 20
1.1556645042
 30
0.0
 40
16.41152453903964
100
AcDbArc
 50
325.0832716599
 51
340.0399289114
  0
SPLINE
  5
29A
330
1F
100
AcDbEntity
  8
0
  6
SLD-Сплошная
 62
     7
370
    25
100
AcDbSpline
210
0.0
220
0.0
230
1.0
 70
     8
 71
     3
 72
    31
 73
    27
 74
     0
 42
0.00000001
 43
0.00000001
 40
0.0
 40
0.0
 40
0.0
 40
0.0
 40
0.0190231734997511
 40
0.037610442302807
 40
0.0557634849554797
 40
0.0734841034078767
 40
0.0907742348205182
 40
0.1076359647344874
 40
0.1240715417841835
 40
0.1889580503862468
 40
0.2485839807631958
 40
0.3421949201120935
 40
0.4246003028576062
 40
0.4987103978557544
 40
0.5589239757813586
 40
0.6187587807295297
 40
0.6812595188248418
 40
0.7491129654535575
 40
0.7781789790910073
 40
0.8086822052595029
 40
0.8407145086928047
 40
0.8743552298243509
 40
0.903604463955576
 40
0.9342760700527435
 40
0.9663993996524108
 40
1.0
 40
1.0
 40
1.0
 40
1.0
 10
260.7539206044805
 20
-4.446658803500286
 30
0.0
 10
260.7806446372648
 20
-4.375098841811143
 30
0.0
 10
260.8334803375302
 20
-4.23361867235697
 30
0.0
 10
260.8999909728972
 20
-4.020623002248286
 30
0.0
 10
260.9562429360111
 20
-3.810630218095273
 30
0.0
 10
261.0017149234293
 20
-3.603742695661522
 30
0.0
 10
261.0369137433116
 20
-3.400350302074057
 30
0.0
 10
261.0620926756333
 20
-3.200726541411098
 30
0.0
 10
261.0929211715938
 20
-2.811381710606908
 30
0.0
 10
261.0712279553456
 20
-2.246302529571337
 30
0.0
 10
260.8548821538454
 20
-1.383104707680827
 30
0.0
 10
260.3359360339094
 20
-0.4996767942571367
 30
0.0
 10
259.3639697716534
 20
0.2407597355216784
 30
0.0
 10
258.1810130666099
 20
0.5820624173407674
 30
0.0
 10
256.9411561986159
 20
0.54716827505219
 30
0.0
 10
255.744860713878
 20
0.2091480751359176
 30
0.0
 10
254.6026441122014
 20
-0.4027242259843355
 30
0.0
 10
253.8039472203846
 20
-1.052189565313
 30
0.0
 10
253.2668262491474
 20
-1.600255365782566
 30
0.0
 10
252.9216433317322
 20
-2.002465843674667
 30
0.0
 10
252.6022395080718
 20
-2.427510050653836
 30
0.0
 10
252.3281316140328
 20
-2.845175190516941
 30
0.0
 10
252.093335621862
 20
-3.251468835670984
 30
0.0
 10
251.893417844456
 20
-3.644036291762881
 30
0.0
 10
251.712935091273
 20
-4.046745550398883
 30
0.0
 10
251.6149854223115
 20
-4.311371726367586
 30
0.0
 10
251.5649097849661
 20
-4.446658803500286
 30
0.0
  0
SPLINE
  5
29B
330
1F
100
AcDbEntity
  8
0
  6
SLD-Сплошная
 62
     7
370
    25
100
AcDbSpline
210
0.0
220
0.0
230
1.0
 70
     8
 71
     3
 72
    38
 73
    34
 74
     0
 42
0.00000001
 43
0.00000001
 40
0.0
 40
0.0
 40
0.0
 40
0.0
 40
0.0188257975853617
 40
0.0377817256683042
 40
0.056891182673944
 40
0.0761770082310337
 40
0.0956614217605724
 40
0.1153659708943303
 40
0.1353114898232098
 40
0.155518067389001
 40
0.1760050244911372
 40
0.1967909001880915
 40
0.2178934457330187
 40
0.2393296256926954
 40
0.2611156252532579
 40
0.2832668628088241
 40
0.3057980069527479
 40
0.328722997038372
 40
0.3520550665397664
 40
0.3758067685168887
 40
0.3999900025686381
 40
0.4246160427373931
 40
0.4496955659063783
 40
0.4752386803048478
 40
0.5012549538035981
 40
0.5594898647660379
 40
0.6204223988823097
 40
0.6841258952525592
 40
0.7506645310395831
 40
0.8088347246906832
 40
0.8697643347429149
 40
0.9334787060824824
 40
1.0
 40
1.0
 40
1.0
 40
1.0
 10
257.6454757806258
 20
46.55334119649954
 30
0.0
 10
257.7063290356121
 20
46.55409094776053
 30
0.0
 10
257.8284561845677
 20
46.55559563282552
 30
0.0
 10
258.0082913277726
 20
46.56769112406509
 30
0.0
 10
258.185984512611
 20
46.58697096199907
 30
0.0
 10
258.3609807903009
 20
46.61413821557841
 30
0.0
 10
258.5330548974629
 20
46.64896887597031
 30
0.0
 10
258.7018931496028
 20
46.69147512387026
 30
0.0
 10
258.8672075554611
 20
46.74158949360552
 30
0.0
 10
259.0287053542568
 20
46.79925083948142
 30
0.0
 10
259.1860978831486
 20
46.8643810045796
 30
0.0
 10
259.3390987243691
 20
46.93689129003678
 30
0.0
 10
259.4874247741771
 20
47.01668081290939
 30
0.0
 10
259.6307965107995
 20
47.10363709976964
 30
0.0
 10
259.7689384788293
 20
47.19763608878158
 30
0.0
 10
259.9015797116337
 20
47.29854231423861
 30
0.0
 10
260.0284541674221
 20
47.40620906170515
 30
0.0
 10
260.149301158337
 20
47.52047855369912
 30
0.0
 10
260.2638657744784
 20
47.64118214453813
 30
0.0
 10
260.3718993124563
 20
47.76814055103274
 30
0.0
 10
260.4731596621032
 20
47.90116403340311
 30
0.0
 10
260.5674118263519
 20
48.04005285108157
 30
0.0
 10
260.6544278982121
 20
48.18459674973671
 30
0.0
 10
260.7339890834976
 20
48.33457824914645
 30
0.0
 10
260.8351088555009
 20
48.55285512249063
 30
0.0
 10
260.9418972446106
 20
48.84768958608696
 30
0.0
 10
261.0318253196988
 20
49.22578944268724
 30
0.0
 10
261.0808380669377
 20
49.62462975209933
 30
0.0
 10
261.0864111188768
 20
50.01796947267942
 30
0.0
 10
261.0550435399562
 20
50.40298674021165
 30
0.0
 10
260.9914479394294
 20
50.77807201574009
 30
0.0
 10
260.8944484239902
 20
51.16514189403626
 30
0.0
 10
260.8014314647034
 20
51.42209541995338
 30
0.0
 10
260.7539206044808
 20
51.55334119649959
 30
0.0
  0
ARC
  5
29C
330
1F
100
AcDbEntity
  8
0
  6
SLD-Сплошная
 62
     7
370
    25
100
AcDbCircle
 10
245.3282241453
 20
45.9510178888
 30
0.0
 40
16.41152453904517
100
AcDbArc
 50
19.9600710886
 51
34.9167283401
  0
SPLINE
  5
29D
330
1F
100
AcDbEntity
  8
0
  6
SLD-Сплошная
 62
     7
370
    25
100
AcDbSpline
210
0.0
220
0.0
230
1.0
 70
     8
 71
     3
 72
    13
 73
     9
 74
     0
 42
0.00000001
 43
0.00000001
 40
0.0
 40
0.0
 40
0.0
 40
0.0
 40
0.5000000000000019
 40
0.5000000000000019
 40
0.6250000000000019
 40
0.6250000000000019
 40
0.7500000000000019
 40
1.0
 40
1.0
 40
1.0
 40
1.0
 10
249.1261664601438
 20
56.44659759217552
 30
0.0
 10
250.7430172532536
 20
56.28980958605448
 30
0.0
 10
252.3605109744653
 20
56.11916535464886
 30
0.0
 10
254.3831915797644
 20
55.88832871334501
 30
0.0
 10
254.7831074673517
 20
55.84182436490151
 30
0.0
 10
255.584537596397
 20
55.74692588120003
 30
0.0
 10
256.7861458444931
 20
55.60206765864501
 30
0.0
 10
257.9861430788113
 20
55.44967711581353
 30
0.0
 10
258.7854247230136
 20
55.34473335741452
 30
0.0
  0
ARC
  5
29E
330
1F
100
AcDbEntity
  8
0
  6
SLD-Сплошная
 62
     7
370
    25
100
AcDbCircle
 10
234.309292485
 20
46.0076869874
 30
0.0
 40
18.12486162731311
100
AcDbArc
 50
17.8164987237
 51
35.165788422
  0
SPLINE
  5
29F
330
1F
100
AcDbEntity
  8
0
  6
SLD-Сплошная
 62
     7
370
    25
100
AcDbSpline
210
0.0
220
0.0
230
1.0
 70
     8
 71
     3
 72
    30
 73
    26
 74
     0
 42
0.00000001
 43
0.00000001
 40
0.0
 40
0.0
 40
0.0
 40
0.0
 40
0.0381218873661
 40
0.0753397260717414
 40
0.1116610560615708
 40
0.1470939896069174
 40
0.1816472647115666
 40
0.215330303990333
 40
0.2481532795373222
 40
0.3150401521759533
 40
0.3788874091463976
 40
0.4398275527663569
 40
0.4980129493672817
 40
0.5452258474691583
 40
0.5909349211284888
 40
0.6352714664435826
 40
0.6783793225035113
 40
0.7204149434156405
 40
0.76154702049043
 40
0.8019555625452124
 40
0.841830378467582
 40
0.881368964505651
 40
0.9207738727530761
 40
0.9602497130733381
 40
1.0
 40
1.0
 40
1.0
 40
1.0
 10
251.5649097849663
 20
51.55334119649957
 30
0.0
 10
251.5914461023698
 20
51.48012529232043
 30
0.0
 10
251.6438894366921
 20
51.33542977627786
 30
0.0
 10
251.7324443436438
 20
51.116374630677
 30
0.0
 10
251.8269118078283
 20
50.89964579110781
 30
0.0
 10
251.9278299882788
 20
50.68529878375766
 30
0.0
 10
252.034796247711
 20
50.47380062961171
 30
0.0
 10
252.1476366232552
 20
50.26548637362121
 30
0.0
 10
252.3080866684267
 20
49.98812984863591
 30
0.0
 10
252.5270225110948
 20
49.64418967984163
 30
0.0
 10
252.8207023625713
 20
49.23849949364381
 30
0.0
 10
253.1375862886307
 20
48.85235791060294
 30
0.0
 10
253.4594695728941
 20
48.50610682107887
 30
0.0
 10
253.7802717776078
 20
48.19918530019709
 30
0.0
 10
254.0949072418142
 20
47.92952997034636
 30
0.0
 10
254.4219136908369
 20
47.67982096929862
 30
0.0
 10
254.7598687669065
 20
47.45161522158525
 30
0.0
 10
255.1072218973943
 20
47.24637107086499
 30
0.0
 10
255.4623027555199
 20
47.06543696108423
 30
0.0
 10
255.8233345761777
 20
46.91001883951856
 30
0.0
 10
256.188412422141
 20
46.78125216501916
 30
0.0
 10
256.5556250855287
 20
46.67988205293547
 30
0.0
 10
256.9226568398661
 20
46.60739074936674
 30
0.0
 10
257.2883328471715
 20
46.56175267822957
 30
0.0
 10
257.5261535252255
 20
46.55615149141865
 30
0.0
 10
257.6454757806258
 20
46.55334119649954
 30
0.0
  0
SPLINE
  5
2A0
330
1F
100
AcDbEntity
  8
0
  6
SLD-Сплошная
 62
     7
370
    25
100
AcDbSpline
210
0.0
220
0.0
230
1.0
 70
    24
 71
     3
 72
    32
 73
    28
 74
     0
 42
0.00000001
 43
0.00000001
 40
0.0
 40
0.0
 40
0.0
 40
0.0
 40
0.037888524879018
 40
0.103807267128673
 40
0.1367523982303203
 40
0.1696174747493248
 40
0.2356897465058543
 40
0.2686288310955934
 40
0.3014556083646961
 40
0.3345589041983163
 40
0.3675620511745664
 40
0.4006166389482482
 40
0.4336047498037031
 40
0.4665485289480795
 40
0.499473839465621
 40
0.5325519916722075
 40
0.5656649481499358
 40
0.5986233530812459
 40
0.6316645419769394
 40
0.6646010825274077
 40
0.6976538717762505
 40
0.7306902571002523
 40
0.7638574060875106
 40
0.829688887564845
 40
0.8956848589663173
 40
0.9617497072617978
 40
1.0
 40
1.0
 40
1.0
 40
1.0
 10
315.9931197175766
 20
43.52772730208318
 30
0.0
 10
315.9931197175766
 20
43.54146019066727
 30
0.0
 10
315.9931197175767
 20
43.57908566271343
 30
0.0
 10
315.9931197175767
 20
42.87712938338187
 30
0.0
 10
315.9931197175766
 20
41.89792411978194
 30
0.0
 10
315.9931197175767
 20
40.64214266229116
 30
0.0
 10
315.9931197175767
 20
39.01246762428404
 30
0.0
 10
315.9931197175767
 20
37.05607847266101
 30
0.0
 10
315.9931197175767
 20
35.43724171979753
 30
0.0
 10
315.9931197175767
 20
33.68353788022546
 30
0.0
 10
315.9931197175767
 20
31.80776659804102
 30
0.0
 10
315.9931197175767
 20
29.83849649753292
 30
0.0
 10
315.9931197175767
 20
27.7956885833267
 30
0.0
 10
315.9931197175767
 20
25.70568814401503
 30
0.0
 10
315.9931197175767
 20
23.58795007593012
 30
0.0
 10
315.9931197175766
 20
21.46612492405284
 30
0.0
 10
315.9931197175767
 20
19.36881889044862
 30
0.0
 10
315.9931197175766
 20
17.32178274761245
 30
0.0
 10
315.9931197175767
 20
15.35239634586477
 30
0.0
 10
315.9931197175767
 20
13.47608736292855
 30
0.0
 10
315.9931197175767
 20
11.71703179262751
 30
0.0
 10
315.9931197175766
 20
10.08762407787595
 30
0.0
 10
315.9931197175767
 20
8.124950036428213
 30
0.0
 10
315.9931197175765
 20
6.071526936539034
 30
0.0
 10
315.9931197175766
 20
4.399887230791849
 30
0.0
 10
315.9931197175765
 20
3.530545857455186
 30
0.0
 10
315.9931197175766
 20
3.566781161167154
 30
0.0
 10
315.9931197175766
 20
3.580067928176306
 30
0.0
  0
SPLINE
  5
2A1
330
1F
100
AcDbEntity
  8
0
  6
SLD-Сплошная
 62
     7
370
    25
100
AcDbSpline
210
0.0
220
0.0
230
1.0
 70
     8
 71
     3
 72
    20
 73
    16
 74
     0
 42
0.00000001
 43
0.00000001
 40
0.0
 40
0.0
 40
0.0
 40
0.0
 40
0.0342679780089235
 40
0.1252349832776867
 40
0.2175172258051783
 40
0.3086133438488053
 40
0.3984855755248102
 40
0.487098902091328
 40
0.5755487181115027
 40
0.6654490203050052
 40
0.7567644510960488
 40
0.8494564536388701
 40
0.9094198860265768
 40
0.970509340469339
 40
1.0
 40
1.0
 40
1.0
 40
1.0
 10
313.6935978497835
 20
8.161682958568118
 30
0.0
 10
313.7588256158782
 20
8.432058794553276
 30
0.0
 10
313.9972055457935
 20
9.420168256088408
 30
0.0
 10
314.2107328515049
 20
11.42879636750221
 30
0.0
 10
314.4987289342744
 20
14.16230738613819
 30
0.0
 10
314.6920888509235
 20
17.10163759160471
 30
0.0
 10
314.814462715967
 20
20.13141684087658
 30
0.0
 10
314.8591362761239
 20
23.20202948660122
 30
0.0
 10
314.8305434550469
 20
26.27970483358272
 30
0.0
 10
314.7268214355219
 20
29.33308173488033
 30
0.0
 10
314.5440538232741
 20
32.31130207443034
 30
0.0
 10
314.3209341265184
 20
34.79941096219036
 30
0.0
 10
314.0703066480513
 20
36.81014799426172
 30
0.0
 10
313.9033076386359
 20
38.14005283454533
 30
0.0
 10
313.7403559224875
 20
38.86082252612835
 30
0.0
 10
313.6873028474795
 20
39.09548742819211
 30
0.0
  0
LINE
  5
2A2
330
1F
100
AcDbEntity
  8
0
  6
SLD-Сплошная
 62
     7
370
    25
100
AcDbLine
 10
260.8640863341
 20
22.5533411965
 30
0.0
 11
260.8640863341
 21
23.0234208448
 31
0.0
  0
LINE
  5
2A3
330
1F
100
AcDbEntity
  8
0
  6
SLD-Сплошная
 62
     7
370
    25
100
AcDbLine
 10
260.8640863341
 20
24.0832615482
 30
0.0
 11
260.8640863341
 21
24.5533411965
 31
0.0
  0
LINE
  5
2A4
330
1F
100
AcDbEntity
  8
0
  6
SLD-Сплошная
 62
     7
370
    25
100
AcDbLine
 10
260.8640863341
 20
24.5533411965
 30
0.0
 11
260.8444341388
 21
24.5533411965
 31
0.0
  0
LINE
  5
2A5
330
1F
100
AcDbEntity
  8
0
  6
SLD-Сплошная
 62
     7
370
    25
100
AcDbLine
 10
274.2824794847
 20
26.5533411965
 30
0.0
 11
260.6254414502
 21
26.5533411965
 31
0.0
  0
LINE
  5
2A6
330
1F
100
AcDbEntity
  8
0
  6
SLD-Сплошная
 62
     7
370
    25
100
AcDbLine
 10
274.2824794847
 20
26.5533411965
 30
0.0
 11
274.2824794847
 21
20.5533411965
 31
0.0
  0
LINE
  5
2A7
330
1F
100
AcDbEntity
  8
0
  6
SLD-Сплошная
 62
     7
370
    25
100
AcDbLine
 10
274.2824794847
 20
20.5533411965
 30
0.0
 11
260.6254414502
 21
20.5533411965
 31
0.0
  0
LINE
  5
2A8
330
1F
100
AcDbEntity
  8
0
  6
SLD-Сплошная
 62
     7
370
    25
100
AcDbLine
 10
260.8444341388
 20
22.5533411965
 30
0.0
 11
260.8640863341
 21
22.5533411965
 31
0.0
  0
LINE
  5
2A9
330
1F
100
AcDbEntity
  8
0
  6
SLD-Сплошная
 62
     7
370
    25
100
AcDbLine
 10
276.6972940504
 20
26.5533411965
 30
0.0
 11
276.6972940504
 21
20.5533411965
 31
0.0
  0
LINE
  5
2AA
330
1F
100
AcDbEntity
  8
0
  6
SLD-Сплошная
 62
     7
370
    25
100
AcDbLine
 10
276.6972940504
 20
20.5533411965
 30
0.0
 11
274.2824794847
 21
20.5533411965
 31
0.0
  0
LINE
  5
2AB
330
1F
100
AcDbEntity
  8
0
  6
SLD-Сплошная
 62
     7
370
    25
100
AcDbLine
 10
276.6972940504
 20
26.5533411965
 30
0.0
 11
274.2824794847
 21
26.5533411965
 31
0.0
  0
ARC
  5
2AC
330
1F
100
AcDbEntity
  8
0
  6
SLD-Сплошная
 62
     7
370
    25
100
AcDbCircle
 10
253.796983315
 20
-4.3950292625
 30
0.0
 40
4.988708579486269
100
AcDbArc
 50
359.4070193593
 51
66.9632681414
  0
ARC
  5
2AD
330
1F
100
AcDbEntity
  8
0
  6
SLD-Сплошная
 62
     7
370
    25
100
AcDbCircle
 10
253.8092536334
 20
51.4932045346
 30
0.0
 40
4.9765344499587
100
AcDbArc
 50
293.6243853526
 51
0.6923815797
  0
LINE
  5
2AE
330
1F
100
AcDbEntity
  8
0
  6
SLD-Сплошная
 62
     7
370
    25
100
AcDbLine
 10
258.785424723
 20
55.3447333574
 30
0.0
 11
258.785424723
 21
51.5533411965
 31
0.0
  0
LINE
  5
2AF
330
1F
100
AcDbEntity
  8
0
  6
SLD-Сплошная
 62
     7
370
    25
100
AcDbLine
 10
258.785424723
 20
-4.4466588035
 30
0.0
 11
258.785424723
 21
-8.2380509644
 31
0.0
  0
ARC
  5
2B0
330
1F
100
AcDbEntity
  8
0
  6
SLD-Сплошная
 62
     7
370
    25
100
AcDbCircle
 10
253.8581300951
 20
51.5533411965
 30
0.0
 40
3.501362384731384
100
AcDbArc
 50
271.5983911499
 51
88.4016088501
  0
ARC
  5
2B1
330
1F
100
AcDbEntity
  8
0
  6
SLD-Сплошная
 62
     7
370
    25
100
AcDbCircle
 10
253.9908031867
 20
51.6687428889
 30
0.0
 40
3.384779348148506
100
AcDbArc
 50
90.5926008776
 51
154.0061751969
  0
ARC
  5
2B2
330
1F
100
AcDbEntity
  8
0
  6
SLD-Сплошная
 62
     7
370
    25
100
AcDbCircle
 10
253.8581300951
 20
-4.4466588035
 30
0.0
 40
3.50136238473138
100
AcDbArc
 50
271.5983911499
 51
88.4016088501
  0
ARC
  5
2B3
330
1F
100
AcDbEntity
  8
0
  6
SLD-Сплошная
 62
     7
370
    25
100
AcDbCircle
 10
253.9856682257
 20
-4.570183393
 30
0.0
 40
3.376607553697707
100
AcDbArc
 50
205.9081226866
 51
269.493101239
  0
LINE
  5
2B4
330
1F
100
AcDbEntity
  8
0
  6
SLD-Сплошная
 62
     7
370
    25
100
AcDbLine
 10
253.3210087691
 20
54.9910897144
 30
0.0
 11
253.3210087691
 21
52.1033411965
 31
0.0
  0
LINE
  5
2B5
330
1F
100
AcDbEntity
  8
0
  6
SLD-Сплошная
 62
     7
370
    25
100
AcDbLine
 10
253.3210087691
 20
52.1033411965
 30
0.0
 11
251.8721200297
 21
52.1033411965
 31
0.0
  0
LINE
  5
2B6
330
1F
100
AcDbEntity
  8
0
  6
SLD-Сплошная
 62
     7
370
    25
100
AcDbLine
 10
251.8721200297
 20
52.1033411965
 30
0.0
 11
251.8721200297
 21
51.0033411965
 31
0.0
  0
LINE
  5
2B7
330
1F
100
AcDbEntity
  8
0
  6
SLD-Сплошная
 62
     7
370
    25
100
AcDbLine
 10
251.8721200297
 20
51.0033411965
 30
0.0
 11
253.3210087691
 21
51.0033411965
 31
0.0
  0
LINE
  5
2B8
330
1F
100
AcDbEntity
  8
0
  6
SLD-Сплошная
 62
     7
370
    25
100
AcDbLine
 10
253.3210087691
 20
51.0033411965
 30
0.0
 11
253.3210087691
 21
48.6990032661
 31
0.0
  0
LINE
  5
2B9
330
1F
100
AcDbEntity
  8
0
  6
SLD-Сплошная
 62
     7
370
    25
100
AcDbLine
 10
253.3210087691
 20
-1.5603220069
 30
0.0
 11
253.3210087691
 21
-3.8966588035
 31
0.0
  0
LINE
  5
2BA
330
1F
100
AcDbEntity
  8
0
  6
SLD-Сплошная
 62
     7
370
    25
100
AcDbLine
 10
253.3210087691
 20
-3.8966588035
 30
0.0
 11
251.8721200297
 21
-3.8966588035
 31
0.0
  0
LINE
  5
2BB
330
1F
100
AcDbEntity
  8
0
  6
SLD-Сплошная
 62
     7
370
    25
100
AcDbLine
 10
251.8721200297
 20
-3.8966588035
 30
0.0
 11
251.8721200297
 21
-4.9966588035
 31
0.0
  0
LINE
  5
2BC
330
1F
100
AcDbEntity
  8
0
  6
SLD-Сплошная
 62
     7
370
    25
100
AcDbLine
 10
251.8721200297
 20
-4.9966588035
 30
0.0
 11
253.3210087691
 21
-4.9966588035
 31
0.0
  0
LINE
  5
2BD
330
1F
100
AcDbEntity
  8
0
  6
SLD-Сплошная
 62
     7
370
    25
100
AcDbLine
 10
253.3210087691
 20
-4.9966588035
 30
0.0
 11
253.3210087691
 21
-7.8844073214
 31
0.0
  0
LINE
  5
2BE
330
1F
100
AcDbEntity
  8
0
  6
SLD-Сплошная
 62
     7
370
    25
100
AcDbLine
 10
253.9952986104
 20
48.09682561
 30
0.0
 11
254.383527178
 21
48.09682561
 31
0.0
  0
ARC
  5
2BF
330
1F
100
AcDbEntity
  8
0
  6
SLD-Сплошная
 62
     7
370
    25
100
AcDbCircle
 10
253.7355094855
 20
51.5533411965
 30
0.0
 40
3.51673526580391
100
AcDbArc
 50
280.618390548
 51
79.381609452
  0
LINE
  5
2C0
330
1F
100
AcDbEntity
  8
0
  6
SLD-Сплошная
 62
     7
370
    25
100
AcDbLine
 10
254.383527178
 20
55.009856783
 30
0.0
 11
253.9952986104
 21
55.009856783
 31
0.0
  0
ARC
  5
2C1
330
1F
100
AcDbEntity
  8
0
  6
SLD-Сплошная
 62
     7
370
    25
100
AcDbCircle
 10
253.4637098809
 20
51.7832813685
 30
0.0
 40
3.270072703029585
100
AcDbArc
 50
80.6443794595
 51
85.6820472591
  0
LINE
  5
2C2
330
1F
100
AcDbEntity
  8
0
  6
SLD-Сплошная
 62
     7
370
    25
100
AcDbLine
 10
253.9952986104
 20
-7.90317439
 30
0.0
 11
254.383527178
 21
-7.90317439
 31
0.0
  0
ARC
  5
2C3
330
1F
100
AcDbEntity
  8
0
  6
SLD-Сплошная
 62
     7
370
    25
100
AcDbCircle
 10
253.7355094855
 20
-4.4466588035
 30
0.0
 40
3.516735265804099
100
AcDbArc
 50
280.618390548
 51
79.381609452
  0
LINE
  5
2C4
330
1F
100
AcDbEntity
  8
0
  6
SLD-Сплошная
 62
     7
370
    25
100
AcDbLine
 10
254.383527178
 20
-0.990143217
 30
0.0
 11
253.9952986104
 21
-0.990143217
 31
0.0
  0
ARC
  5
2C5
330
1F
100
AcDbEntity
  8
0
  6
SLD-Сплошная
 62
     7
370
    25
100
AcDbCircle
 10
253.4636895101
 20
-4.6764290693
 30
0.0
 40
3.270243660659915
100
AcDbArc
 50
274.3180844994
 51
279.3554887793
  0
LINE
  5
2C6
330
1F
100
AcDbEntity
  8
0
  6
SLD-Сплошная
 62
     7
370
    25
100
AcDbLine
 10
253.9952986104
 20
52.1033411965
 30
0.0
 11
254.383527178
 21
52.1033411965
 31
0.0
  0
LINE
  5
2C7
330
1F
100
AcDbEntity
  8
0
  6
SLD-Сплошная
 62
     7
370
    25
100
AcDbLine
 10
253.9952986104
 20
52.1033411965
 30
0.0
 11
253.9952986104
 21
55.009856783
 31
0.0
  0
LINE
  5
2C8
330
1F
100
AcDbEntity
  8
0
  6
SLD-Сплошная
 62
     7
370
    25
100
AcDbLine
 10
254.383527178
 20
52.1033411965
 30
0.0
 11
254.383527178
 21
55.009856783
 31
0.0
  0
LINE
  5
2C9
330
1F
100
AcDbEntity
  8
0
  6
SLD-Сплошная
 62
     7
370
    25
100
AcDbLine
 10
254.383527178
 20
48.09682561
 30
0.0
 11
254.383527178
 21
51.0033411965
 31
0.0
  0
LINE
  5
2CA
330
1F
100
AcDbEntity
  8
0
  6
SLD-Сплошная
 62
     7
370
    25
100
AcDbLine
 10
254.383527178
 20
51.0033411965
 30
0.0
 11
255.8324159174
 21
51.0033411965
 31
0.0
  0
LINE
  5
2CB
330
1F
100
AcDbEntity
  8
0
  6
SLD-Сплошная
 62
     7
370
    25
100
AcDbLine
 10
255.8324159174
 20
51.0033411965
 30
0.0
 11
255.8324159174
 21
52.1033411965
 31
0.0
  0
LINE
  5
2CC
330
1F
100
AcDbEntity
  8
0
  6
SLD-Сплошная
 62
     7
370
    25
100
AcDbLine
 10
255.8324159174
 20
52.1033411965
 30
0.0
 11
254.383527178
 21
52.1033411965
 31
0.0
  0
LINE
  5
2CD
330
1F
100
AcDbEntity
  8
0
  6
SLD-Сплошная
 62
     7
370
    25
100
AcDbLine
 10
253.9952986104
 20
48.09682561
 30
0.0
 11
253.9952986104
 21
51.0033411965
 31
0.0
  0
LINE
  5
2CE
330
1F
100
AcDbEntity
  8
0
  6
SLD-Сплошная
 62
     7
370
    25
100
AcDbLine
 10
253.9952986104
 20
51.0033411965
 30
0.0
 11
254.383527178
 21
51.0033411965
 31
0.0
  0
LINE
  5
2CF
330
1F
100
AcDbEntity
  8
0
  6
SLD-Сплошная
 62
     7
370
    25
100
AcDbLine
 10
254.383527178
 20
-7.90317439
 30
0.0
 11
254.383527178
 21
-4.9966588035
 31
0.0
  0
LINE
  5
2D0
330
1F
100
AcDbEntity
  8
0
  6
SLD-Сплошная
 62
     7
370
    25
100
AcDbLine
 10
254.383527178
 20
-4.9966588035
 30
0.0
 11
255.8324159174
 21
-4.9966588035
 31
0.0
  0
LINE
  5
2D1
330
1F
100
AcDbEntity
  8
0
  6
SLD-Сплошная
 62
     7
370
    25
100
AcDbLine
 10
255.8324159174
 20
-4.9966588035
 30
0.0
 11
255.8324159174
 21
-3.8966588035
 31
0.0
  0
LINE
  5
2D2
330
1F
100
AcDbEntity
  8
0
  6
SLD-Сплошная
 62
     7
370
    25
100
AcDbLine
 10
255.8324159174
 20
-3.8966588035
 30
0.0
 11
254.383527178
 21
-3.8966588035
 31
0.0
  0
LINE
  5
2D3
330
1F
100
AcDbEntity
  8
0
  6
SLD-Сплошная
 62
     7
370
    25
100
AcDbLine
 10
254.383527178
 20
-3.8966588035
 30
0.0
 11
254.383527178
 21
-0.990143217
 31
0.0
  0
LINE
  5
2D4
330
1F
100
AcDbEntity
  8
0
  6
SLD-Сплошная
 62
     7
370
    25
100
AcDbLine
 10
253.9952986104
 20
-3.8966588035
 30
0.0
 11
254.383527178
 21
-3.8966588035
 31
0.0
  0
LINE
  5
2D5
330
1F
100
AcDbEntity
  8
0
  6
SLD-Сплошная
 62
     7
370
    25
100
AcDbLine
 10
253.9952986104
 20
-3.8966588035
 30
0.0
 11
253.9952986104
 21
-0.990143217
 31
0.0
  0
LINE
  5
2D6
330
1F
100
AcDbEntity
  8
0
  6
SLD-Сплошная
 62
     7
370
    25
100
AcDbLine
 10
253.9952986104
 20
-7.90317439
 30
0.0
 11
253.9952986104
 21
-4.9966588035
 31
0.0
  0
LINE
  5
2D7
330
1F
100
AcDbEntity
  8
0
  6
SLD-Сплошная
 62
     7
370
    25
100
AcDbLine
 10
253.9952986104
 20
-4.9966588035
 30
0.0
 11
254.383527178
 21
-4.9966588035
 31
0.0
  0
LINE
  5
2D8
330
1F
100
AcDbEntity
  8
0
  6
SLD-Сплошная
 62
     7
370
    25
100
AcDbLine
 10
255.4441873498
 20
51.0033411965
 30
0.0
 11
255.4441873498
 21
52.1033411965
 31
0.0
  0
LINE
  5
2D9
330
1F
100
AcDbEntity
  8
0
  6
SLD-Сплошная
 62
     7
370
    25
100
AcDbLine
 10
255.4441873498
 20
-4.9966588035
 30
0.0
 11
255.4441873498
 21
-3.8966588035
 31
0.0
  0
SPLINE
  5
2DA
330
1F
100
AcDbEntity
  8
0
  6
SLD-Сплошная
 62
     7
370
    25
100
AcDbSpline
210
0.0
220
0.0
230
1.0
 70
     8
 71
     3
 72
    10
 73
     6
 74
     0
 42
0.00000001
 43
0.00000001
 40
0.0
 40
0.0
 40
0.0
 40
0.0
 40
0.4424748942214755
 40
0.7392223139445373
 40
1.0
 40
1.0
 40
1.0
 40
1.0
 10
235.6354036375047
 20
-13.34155674827012
 30
0.0
 10
234.8688314446416
 20
-13.36461638209047
 30
0.0
 10
233.588154783402
 20
-13.40314104437978
 30
0.0
 10
231.8856620432287
 20
-12.95625759456268
 30
0.0
 10
231.0594012701548
 20
-12.43698499214135
 30
0.0
 10
230.672924732601
 20
-12.19409959328141
 30
0.0
  0
SPLINE
  5
2DB
330
1F
100
AcDbEntity
  8
0
  6
SLD-Сплошная
 62
     7
370
    25
100
AcDbSpline
210
0.0
220
0.0
230
1.0
 70
     8
 71
     3
 72
    10
 73
     6
 74
     0
 42
0.00000001
 43
0.00000001
 40
0.0
 40
0.0
 40
0.0
 40
0.0
 40
0.2614192956824959
 40
0.5589737566597802
 40
1.0
 40
1.0
 40
1.0
 40
1.0
 10
230.6738860165268
 20
59.30074291069551
 30
0.0
 10
231.0604796980083
 20
59.54367963872414
 30
0.0
 10
231.8871046870876
 20
60.06313347300318
 30
0.0
 10
233.5859294504973
 20
60.50913688806922
 30
0.0
 10
234.8626966345839
 20
60.47119284862856
 30
0.0
 10
235.6250883834153
 20
60.44853545035939
 30
0.0
  0
ENDSEC
  0
SECTION
  2
OBJECTS
  0
DICTIONARY
  5
C
330
0
100
AcDbDictionary
281
     1
  3
ACAD_GROUP
350
D
  3
ACAD_LAYOUT
350
1A
  3
ACAD_MLINESTYLE
350
17
  3
ACAD_PLOTSETTINGS
350
19
  3
ACAD_PLOTSTYLENAME
350
E
  3
ACAD_SCALELIST
350
47
  3
DWGPROPS
350
2DC
  0
DICTIONARY
  5
D
102
{ACAD_REACTORS
330
C
102
}
330
C
100
AcDbDictionary
281
     1
  0
DICTIONARY
  5
1A
102
{ACAD_REACTORS
330
C
102
}
330
C
100
AcDbDictionary
281
     1
  3
Layout1
350
1E
  3
Layout2
350
26
  3
Model
350
22
  0
DICTIONARY
  5
17
102
{ACAD_REACTORS
330
C
102
}
330
C
100
AcDbDictionary
281
     1
  3
Standard
350
18
  0
DICTIONARY
  5
19
102
{ACAD_REACTORS
330
C
102
}
330
C
100
AcDbDictionary
281
     1
  0
ACDBDICTIONARYWDFLT
  5
E
102
{ACAD_REACTORS
330
C
102
}
330
C
100
AcDbDictionary
281
     1
  3
Normal
350
F
100
AcDbDictionaryWithDefault
340
F
  0
DICTIONARY
  5
47
102
{ACAD_REACTORS
330
C
102
}
330
C
100
AcDbDictionary
281
     1
  3
A0
350
48
  3
A1
350
49
  3
A2
350
4A
  3
A3
350
4B
  3
A4
350
4C
  3
A5
350
4D
  3
A6
350
4E
  3
A7
350
4F
  3
A8
350
50
  3
A9
350
51
  3
B0
350
52
  3
B1
350
53
  3
B2
350
54
  3
B3
350
55
  3
B4
350
56
  3
B5
350
57
  3
B6
350
58
  0
XRECORD
  5
2DC
102
{ACAD_REACTORS
330
C
102
}
330
C
100
AcDbXrecord
280
     1
  1
DWGPROPS COOKIE
  2

  3

  4

  6

  7

  8
inyankin
  9

300
=
301
=
302
=
303
=
304
=
305
=
306
=
307
=
308
=
309
=
 40
0.0
 41
2460934.482286401
 42
2460934.482287118
  1

 90
        0
  0
LAYOUT
  5
1E
102
{ACAD_REACTORS
330
1A
102
}
330
1A
100
AcDbPlotSettings
  1

  2
none_device
  4

  6

 40
0.0
 41
0.0
 42
0.0
 43
0.0
 44
0.0
 45
0.0
 46
0.0
 47
0.0
 48
0.0
 49
0.0
140
0.0
141
0.0
142
1.0
143
1.0
 70
   688
 72
     1
 73
     0
 74
     5
  7

 75
    16
147
1.0
148
0.0
149
0.0
100
AcDbLayout
  1
Layout1
 70
     1
 71
     1
 10
0.0
 20
0.0
 11
420.0
 21
297.0
 12
0.0
 22
0.0
 32
0.0
 14
1.0000000000E+20
 24
1.0000000000E+20
 34
1.0000000000E+20
 15
-1.0000000000E+20
 25
-1.0000000000E+20
 35
-1.0000000000E+20
146
0.0
 13
0.0
 23
0.0
 33
0.0
 16
1.0
 26
0.0
 36
0.0
 17
0.0
 27
1.0
 37
0.0
 76
     0
330
1B
  0
LAYOUT
  5
26
102
{ACAD_REACTORS
330
1A
102
}
330
1A
100
AcDbPlotSettings
  1

  2
none_device
  4

  6

 40
0.0
 41
0.0
 42
0.0
 43
0.0
 44
0.0
 45
0.0
 46
0.0
 47
0.0
 48
0.0
 49
0.0
140
0.0
141
0.0
142
1.0
143
1.0
 70
   688
 72
     1
 73
     0
 74
     5
  7

 75
    16
147
1.0
148
0.0
149
0.0
100
AcDbLayout
  1
Layout2
 70
     1
 71
     2
 10
0.0
 20
0.0
 11
0.0
 21
0.0
 12
0.0
 22
0.0
 32
0.0
 14
0.0
 24
0.0
 34
0.0
 15
0.0
 25
0.0
 35
0.0
146
0.0
 13
0.0
 23
0.0
 33
0.0
 16
1.0
 26
0.0
 36
0.0
 17
0.0
 27
1.0
 37
0.0
 76
     0
330
23
  0
LAYOUT
  5
22
102
{ACAD_REACTORS
330
1A
102
}
330
1A
100
AcDbPlotSettings
  1

  2
none_device
  4
Letter_(8.50_x_11.00_Inches)
  6

 40
6.35
 41
6.35
 42
6.35000508
 43
6.35000508
 44
215.9
 45
279.4
 46
0.0
 47
0.0
 48
0.0
 49
0.0
140
0.0
141
0.0
142
1.0
143
1.0
 70
  1712
 72
     1
 73
     0
 74
     0
  7

 75
     0
147
1.0
148
0.0
149
0.0
100
AcDbLayout
  1
Model
 70
     1
 71
     0
 10
0.0
 20
0.0
 11
431.8
 21
279.4
 12
0.0
 22
0.0
 32
0.0
 14
0.0
 24
0.0
 34
0.0
 15
431.8
 25
279.4
 35
0.0
146
0.0
 13
0.0
 23
0.0
 33
0.0
 16
1.0
 26
0.0
 36
0.0
 17
0.0
 27
1.0
 37
0.0
 76
     0
330
1F
331
29
  0
MLINESTYLE
  5
18
102
{ACAD_REACTORS
330
17
102
}
330
17
100
AcDbMlineStyle
  2
Standard
 70
     0
  3

 62
   256
 51
90.0
 52
90.0
 71
     2
 49
0.5
 62
   256
  6
BYLAYER
 49
-0.5
 62
   256
  6
BYLAYER
  0
ACDBPLACEHOLDER
  5
F
102
{ACAD_REACTORS
330
E
102
}
330
E
  0
SCALE
  5
48
102
{ACAD_REACTORS
330
47
102
}
330
47
100
AcDbScale
 70
     0
300
1:1
140
1.0
141
1.0
290
     1
  0
SCALE
  5
49
102
{ACAD_REACTORS
330
47
102
}
330
47
100
AcDbScale
 70
     0
300
1:2
140
1.0
141
2.0
290
     0
  0
SCALE
  5
4A
102
{ACAD_REACTORS
330
47
102
}
330
47
100
AcDbScale
 70
     0
300
1:4
140
1.0
141
4.0
290
     0
  0
SCALE
  5
4B
102
{ACAD_REACTORS
330
47
102
}
330
47
100
AcDbScale
 70
     0
300
1:5
140
1.0
141
5.0
290
     0
  0
SCALE
  5
4C
102
{ACAD_REACTORS
330
47
102
}
330
47
100
AcDbScale
 70
     0
300
1:8
140
1.0
141
8.0
290
     0
  0
SCALE
  5
4D
102
{ACAD_REACTORS
330
47
102
}
330
47
100
AcDbScale
 70
     0
300
1:10
140
1.0
141
10.0
290
     0
  0
SCALE
  5
4E
102
{ACAD_REACTORS
330
47
102
}
330
47
100
AcDbScale
 70
     0
300
1:16
140
1.0
141
16.0
290
     0
  0
SCALE
  5
4F
102
{ACAD_REACTORS
330
47
102
}
330
47
100
AcDbScale
 70
     0
300
1:20
140
1.0
141
20.0
290
     0
  0
SCALE
  5
50
102
{ACAD_REACTORS
330
47
102
}
330
47
100
AcDbScale
 70
     0
300
1:30
140
1.0
141
30.0
290
     0
  0
SCALE
  5
51
102
{ACAD_REACTORS
330
47
102
}
330
47
100
AcDbScale
 70
     0
300
1:40
140
1.0
141
40.0
290
     0
  0
SCALE
  5
52
102
{ACAD_REACTORS
330
47
102
}
330
47
100
AcDbScale
 70
     0
300
1:50
140
1.0
141
50.0
290
     0
  0
SCALE
  5
53
102
{ACAD_REACTORS
330
47
102
}
330
47
100
AcDbScale
 70
     0
300
1:100
140
1.0
141
100.0
290
     0
  0
SCALE
  5
54
102
{ACAD_REACTORS
330
47
102
}
330
47
100
AcDbScale
 70
     0
300
2:1
140
2.0
141
1.0
290
     0
  0
SCALE
  5
55
102
{ACAD_REACTORS
330
47
102
}
330
47
100
AcDbScale
 70
     0
300
4:1
140
4.0
141
1.0
290
     0
  0
SCALE
  5
56
102
{ACAD_REACTORS
330
47
102
}
330
47
100
AcDbScale
 70
     0
300
8:1
140
8.0
141
1.0
290
     0
  0
SCALE
  5
57
102
{ACAD_REACTORS
330
47
102
}
330
47
100
AcDbScale
 70
     0
300
10:1
140
10.0
141
1.0
290
     0
  0
SCALE
  5
58
102
{ACAD_REACTORS
330
47
102
}
330
47
100
AcDbScale
 70
     0
300
100:1
140
100.0
141
1.0
290
     0
  0
ENDSEC
  0
EOF
