ISO-10303-21;
HEADER;
FILE_DESCRIPTION (( 'STEP AP203' ),
    '1' );
FILE_NAME ('CTR10-025-K41-040I-D2 Òðóáà ãëàäêàÿ æåñòêàÿ ÏÂÕ d25 ÈÝÊ ñåðàÿ (40ì),2ì.STEP',
    '2016-04-27T08:20:20',
    ( '' ),
    ( '' ),
    'SwSTEP 2.0',
    'SolidWorks 2014',
    '' );
FILE_SCHEMA (( 'CONFIG_CONTROL_DESIGN' ));
ENDSEC;

DATA;
#1 = SECURITY_CLASSIFICATION ( '', '', #120 ) ;
#2 = CALENDAR_DATE ( 2016, 27, 4 ) ;
#3 = AXIS2_PLACEMENT_3D ( 'NONE', #105, #23, #118 ) ;
#4 = DATE_AND_TIME ( #53, #84 ) ;
#5 = PLANE ( 'NONE',  #3 ) ;
#6 = DIRECTION ( 'NONE',  ( 0.0000000000000000000, 0.0000000000000000000, 1.000000000000000000 ) ) ;
#7 =( NAMED_UNIT ( * ) SI_UNIT ( $, .STERADIAN. ) SOLID_ANGLE_UNIT ( ) );
#8 = CLOSED_SHELL ( 'NONE', ( #41, #106, #44, #146 ) ) ;
#9 = CC_DESIGN_PERSON_AND_ORGANIZATION_ASSIGNMENT ( #128, #52, ( #1 ) ) ;
#10 = VERTEX_POINT ( 'NONE', #148 ) ;
#11 = ORIENTED_EDGE ( 'NONE', *, *, #37, .F. ) ;
#12 = AXIS2_PLACEMENT_3D ( 'NONE', #79, #162, #90 ) ;
#13 = APPROVAL_ROLE ( '' ) ;
#14 = ADVANCED_BREP_SHAPE_REPRESENTATION ( 'CTR10-025-K41-040I-D2 T¨ºñð óûðôúð  öõ¸ªúð  ¦T- d25 L¦¦ ¸õ¨ð  (40ü),2ü', ( #153, #74 ), #38 ) ;
#15 = PERSON ( 'UNSPECIFIED', 'UNSPECIFIED', 'UNSPECIFIED', ('UNSPECIFIED'), ('UNSPECIFIED'), ('UNSPECIFIED') ) ;
#16 = AXIS2_PLACEMENT_3D ( 'NONE', #56, #135, #68 ) ;
#17 = VERTEX_POINT ( 'NONE', #45 ) ;
#18 = CC_DESIGN_DATE_AND_TIME_ASSIGNMENT ( #155, #131, ( #1 ) ) ;
#19 = AXIS2_PLACEMENT_3D ( 'NONE', #89, #104, #20 ) ;
#20 = DIRECTION ( 'NONE',  ( 0.0000000000000000000, 0.0000000000000000000, -1.000000000000000000 ) ) ;
#21 = LOCAL_TIME ( 11, 20, 20.00000000000000000, #64 ) ;
#22 = FACE_OUTER_BOUND ( 'NONE', #136, .T. ) ;
#23 = DIRECTION ( 'NONE',  ( 1.000000000000000000, 0.0000000000000000000, 0.0000000000000000000 ) ) ;
#24 = DIRECTION ( 'NONE',  ( -1.000000000000000000, -0.0000000000000000000, -0.0000000000000000000 ) ) ;
#25 = APPLICATION_CONTEXT ( 'configuration controlled 3d designs of mechanical parts and assemblies' ) ;
#26 = AXIS2_PLACEMENT_3D ( 'NONE', #80, #57, #93 ) ;
#27 = AXIS2_PLACEMENT_3D ( 'NONE', #40, #145, #39 ) ;
#28 = CALENDAR_DATE ( 2016, 27, 4 ) ;
#29 = CIRCLE ( 'NONE', #16, 11.50000000000000000 ) ;
#30 = EDGE_CURVE ( 'NONE', #17, #17, #129, .T. ) ;
#31 = EDGE_CURVE ( 'NONE', #58, #58, #67, .T. ) ;
#32 = PERSON_AND_ORGANIZATION_ROLE ( 'design_supplier' ) ;
#33 = APPROVAL ( #62, 'UNSPECIFIED' ) ;
#34 = EDGE_CURVE ( 'NONE', #10, #10, #29, .T. ) ;
#35 = PERSON_AND_ORGANIZATION ( #15, #111 ) ;
#36 = EDGE_LOOP ( 'NONE', ( #114 ) ) ;
#37 = EDGE_CURVE ( 'NONE', #143, #143, #156, .T. ) ;
#38 =( GEOMETRIC_REPRESENTATION_CONTEXT ( 3 ) GLOBAL_UNCERTAINTY_ASSIGNED_CONTEXT ( ( #164 ) ) GLOBAL_UNIT_ASSIGNED_CONTEXT ( ( #163, #94, #7 ) ) REPRESENTATION_CONTEXT ( 'NONE', 'WORKASPACE' ) );
#39 = DIRECTION ( 'NONE',  ( 0.0000000000000000000, 0.0000000000000000000, -1.000000000000000000 ) ) ;
#40 = CARTESIAN_POINT ( 'NONE',  ( 0.0000000000000000000, 0.0000000000000000000, 0.0000000000000000000 ) ) ;
#41 = ADVANCED_FACE ( 'NONE', ( #144, #98 ), #5, .T. ) ;
#42 = COORDINATED_UNIVERSAL_TIME_OFFSET ( 3, 0, .AHEAD. ) ;
#43 = CARTESIAN_POINT ( 'NONE',  ( 2000.000000000000000, 0.0000000000000000000, 0.0000000000000000000 ) ) ;
#44 = ADVANCED_FACE ( 'NONE', ( #161, #22 ), #123, .T. ) ;
#45 = CARTESIAN_POINT ( 'NONE',  ( 0.0000000000000000000, 0.0000000000000000000, -12.50000000000000000 ) ) ;
#46 = PERSON_AND_ORGANIZATION ( #15, #111 ) ;
#47 = CC_DESIGN_APPROVAL ( #33, ( #1 ) ) ;
#48 = LOCAL_TIME ( 11, 20, 20.00000000000000000, #78 ) ;
#49 = MECHANICAL_CONTEXT ( 'NONE', #25, 'mechanical' ) ;
#50 = ORIENTED_EDGE ( 'NONE', *, *, #37, .T. ) ;
#51 = AXIS2_PLACEMENT_3D ( 'NONE', #107, #24, #6 ) ;
#52 = PERSON_AND_ORGANIZATION_ROLE ( 'classification_officer' ) ;
#53 = CALENDAR_DATE ( 2016, 27, 4 ) ;
#54 = ORIENTED_EDGE ( 'NONE', *, *, #30, .T. ) ;
#55 = CC_DESIGN_SECURITY_CLASSIFICATION ( #1, ( #127 ) ) ;
#56 = CARTESIAN_POINT ( 'NONE',  ( 0.0000000000000000000, 0.0000000000000000000, 0.0000000000000000000 ) ) ;
#57 = DIRECTION ( 'NONE',  ( 1.000000000000000000, 0.0000000000000000000, 0.0000000000000000000 ) ) ;
#58 = VERTEX_POINT ( 'NONE', #59 ) ;
#59 = CARTESIAN_POINT ( 'NONE',  ( 2000.000000000000000, 0.0000000000000000000, -12.50000000000000000 ) ) ;
#60 = EDGE_LOOP ( 'NONE', ( #11 ) ) ;
#61 = APPLICATION_CONTEXT ( 'configuration controlled 3d designs of mechanical parts and assemblies' ) ;
#62 = APPROVAL_STATUS ( 'not_yet_approved' ) ;
#63 = PRODUCT_RELATED_PRODUCT_CATEGORY ( 'detail', '', ( #85 ) ) ;
#64 = COORDINATED_UNIVERSAL_TIME_OFFSET ( 3, 0, .AHEAD. ) ;
#65 = FACE_OUTER_BOUND ( 'NONE', #86, .T. ) ;
#66 = LOCAL_TIME ( 11, 20, 20.00000000000000000, #101 ) ;
#67 = CIRCLE ( 'NONE', #19, 12.50000000000000000 ) ;
#68 = DIRECTION ( 'NONE',  ( 0.0000000000000000000, 0.0000000000000000000, -1.000000000000000000 ) ) ;
#69 = PLANE ( 'NONE',  #26 ) ;
#70 = DIRECTION ( 'NONE',  ( 0.0000000000000000000, 0.0000000000000000000, 1.000000000000000000 ) ) ;
#71 = ORIENTED_EDGE ( 'NONE', *, *, #31, .F. ) ;
#72 = APPROVAL_DATE_TIME ( #103, #133 ) ;
#73 = APPROVAL_STATUS ( 'not_yet_approved' ) ;
#74 = AXIS2_PLACEMENT_3D ( 'NONE', #126, #70, #158 ) ;
#75 = APPROVAL_PERSON_ORGANIZATION ( #109, #133, #13 ) ;
#76 = PERSON_AND_ORGANIZATION ( #15, #111 ) ;
#77 = APPLICATION_PROTOCOL_DEFINITION ( 'international standard', 'config_control_design', 1994, #25 ) ;
#78 = COORDINATED_UNIVERSAL_TIME_OFFSET ( 3, 0, .AHEAD. ) ;
#79 = CARTESIAN_POINT ( 'NONE',  ( 2000.000000000000000, 0.0000000000000000000, 0.0000000000000000000 ) ) ;
#80 = CARTESIAN_POINT ( 'NONE',  ( 0.0000000000000000000, 0.0000000000000000000, 0.0000000000000000000 ) ) ;
#81 = ORIENTED_EDGE ( 'NONE', *, *, #30, .F. ) ;
#82 = EDGE_LOOP ( 'NONE', ( #149 ) ) ;
#83 = CC_DESIGN_PERSON_AND_ORGANIZATION_ASSIGNMENT ( #76, #130, ( #85 ) ) ;
#84 = LOCAL_TIME ( 11, 20, 20.00000000000000000, #116 ) ;
#85 = PRODUCT ( 'CTR10-025-K41-040I-D2 Òðóáà ãëàäêàÿ æåñòêàÿ ÏÂÕ d25 ÈÝÊ ñåðàÿ (40ì),2ì', 'CTR10-025-K41-040I-D2 Òðóáà ãëàäêàÿ æåñòêàÿ ÏÂÕ d25 ÈÝÊ ñåðàÿ (40ì),2ì', '', ( #49 ) ) ;
#86 = EDGE_LOOP ( 'NONE', ( #81 ) ) ;
#87 = PERSON_AND_ORGANIZATION_ROLE ( 'creator' ) ;
#88 = PRODUCT_DEFINITION ( 'UNKNOWN', '', #127, #159 ) ;
#89 = CARTESIAN_POINT ( 'NONE',  ( 2000.000000000000000, 0.0000000000000000000, 0.0000000000000000000 ) ) ;
#90 = DIRECTION ( 'NONE',  ( 0.0000000000000000000, 0.0000000000000000000, -1.000000000000000000 ) ) ;
#91 = APPROVAL_DATE_TIME ( #122, #33 ) ;
#92 = SHAPE_DEFINITION_REPRESENTATION ( #96, #14 ) ;
#93 = DIRECTION ( 'NONE',  ( 0.0000000000000000000, 0.0000000000000000000, -1.000000000000000000 ) ) ;
#94 =( NAMED_UNIT ( * ) PLANE_ANGLE_UNIT ( ) SI_UNIT ( $, .RADIAN. ) );
#95 = EDGE_LOOP ( 'NONE', ( #167 ) ) ;
#96 = PRODUCT_DEFINITION_SHAPE ( 'NONE', 'NONE',  #88 ) ;
#97 = APPROVAL_PERSON_ORGANIZATION ( #124, #33, #141 ) ;
#98 = FACE_BOUND ( 'NONE', #60, .T. ) ;
#99 = APPROVAL_STATUS ( 'not_yet_approved' ) ;
#100 = APPROVAL ( #73, 'UNSPECIFIED' ) ;
#101 = COORDINATED_UNIVERSAL_TIME_OFFSET ( 3, 0, .AHEAD. ) ;
#102 = FACE_OUTER_BOUND ( 'NONE', #95, .T. ) ;
#103 = DATE_AND_TIME ( #132, #165 ) ;
#104 = DIRECTION ( 'NONE',  ( 1.000000000000000000, 0.0000000000000000000, 0.0000000000000000000 ) ) ;
#105 = CARTESIAN_POINT ( 'NONE',  ( 2000.000000000000000, 0.0000000000000000000, 0.0000000000000000000 ) ) ;
#106 = ADVANCED_FACE ( 'NONE', ( #65, #152 ), #69, .F. ) ;
#107 = CARTESIAN_POINT ( 'NONE',  ( 2000.000000000000000, 0.0000000000000000000, 0.0000000000000000000 ) ) ;
#108 = CC_DESIGN_APPROVAL ( #100, ( #88 ) ) ;
#109 = PERSON_AND_ORGANIZATION ( #15, #111 ) ;
#110 = EDGE_LOOP ( 'NONE', ( #71 ) ) ;
#111 = ORGANIZATION ( 'UNSPECIFIED', 'UNSPECIFIED', '' ) ;
#112 = PERSON_AND_ORGANIZATION_ROLE ( 'creator' ) ;
#113 = PERSON_AND_ORGANIZATION ( #15, #111 ) ;
#114 = ORIENTED_EDGE ( 'NONE', *, *, #31, .T. ) ;
#115 = CC_DESIGN_PERSON_AND_ORGANIZATION_ASSIGNMENT ( #113, #87, ( #88 ) ) ;
#116 = COORDINATED_UNIVERSAL_TIME_OFFSET ( 3, 0, .AHEAD. ) ;
#117 = DIRECTION ( 'NONE',  ( -1.000000000000000000, -0.0000000000000000000, -0.0000000000000000000 ) ) ;
#118 = DIRECTION ( 'NONE',  ( 0.0000000000000000000, 0.0000000000000000000, -1.000000000000000000 ) ) ;
#119 = CYLINDRICAL_SURFACE ( 'NONE', #51, 11.50000000000000000 ) ;
#120 = SECURITY_CLASSIFICATION_LEVEL ( 'unclassified' ) ;
#121 = CC_DESIGN_DATE_AND_TIME_ASSIGNMENT ( #134, #169, ( #88 ) ) ;
#122 = DATE_AND_TIME ( #151, #21 ) ;
#123 = CYLINDRICAL_SURFACE ( 'NONE', #166, 12.50000000000000000 ) ;
#124 = PERSON_AND_ORGANIZATION ( #15, #111 ) ;
#125 = FACE_OUTER_BOUND ( 'NONE', #140, .T. ) ;
#126 = CARTESIAN_POINT ( 'NONE',  ( 0.0000000000000000000, 0.0000000000000000000, 0.0000000000000000000 ) ) ;
#127 = PRODUCT_DEFINITION_FORMATION_WITH_SPECIFIED_SOURCE ( 'ANY', '', #85, .NOT_KNOWN. ) ;
#128 = PERSON_AND_ORGANIZATION ( #15, #111 ) ;
#129 = CIRCLE ( 'NONE', #27, 12.50000000000000000 ) ;
#130 = PERSON_AND_ORGANIZATION_ROLE ( 'design_owner' ) ;
#131 = DATE_TIME_ROLE ( 'classification_date' ) ;
#132 = CALENDAR_DATE ( 2016, 27, 4 ) ;
#133 = APPROVAL ( #99, 'UNSPECIFIED' ) ;
#134 = DATE_AND_TIME ( #2, #48 ) ;
#135 = DIRECTION ( 'NONE',  ( 1.000000000000000000, 0.0000000000000000000, 0.0000000000000000000 ) ) ;
#136 = EDGE_LOOP ( 'NONE', ( #54 ) ) ;
#137 = CARTESIAN_POINT ( 'NONE',  ( 2000.000000000000000, 0.0000000000000000000, -11.50000000000000000 ) ) ;
#138 = APPROVAL_DATE_TIME ( #4, #100 ) ;
#139 = APPLICATION_PROTOCOL_DEFINITION ( 'international standard', 'config_control_design', 1994, #61 ) ;
#140 = EDGE_LOOP ( 'NONE', ( #50 ) ) ;
#141 = APPROVAL_ROLE ( '' ) ;
#142 = CC_DESIGN_APPROVAL ( #133, ( #127 ) ) ;
#143 = VERTEX_POINT ( 'NONE', #137 ) ;
#144 = FACE_OUTER_BOUND ( 'NONE', #36, .T. ) ;
#145 = DIRECTION ( 'NONE',  ( 1.000000000000000000, 0.0000000000000000000, 0.0000000000000000000 ) ) ;
#146 = ADVANCED_FACE ( 'NONE', ( #125, #102 ), #119, .F. ) ;
#147 = DIRECTION ( 'NONE',  ( 0.0000000000000000000, 0.0000000000000000000, 1.000000000000000000 ) ) ;
#148 = CARTESIAN_POINT ( 'NONE',  ( 0.0000000000000000000, 0.0000000000000000000, -11.50000000000000000 ) ) ;
#149 = ORIENTED_EDGE ( 'NONE', *, *, #34, .T. ) ;
#150 = CC_DESIGN_PERSON_AND_ORGANIZATION_ASSIGNMENT ( #35, #112, ( #127 ) ) ;
#151 = CALENDAR_DATE ( 2016, 27, 4 ) ;
#152 = FACE_BOUND ( 'NONE', #82, .T. ) ;
#153 = MANIFOLD_SOLID_BREP ( 'Áîáûøêà-Âûòÿíóòü1', #8 ) ;
#154 = APPROVAL_ROLE ( '' ) ;
#155 = DATE_AND_TIME ( #28, #66 ) ;
#156 = CIRCLE ( 'NONE', #12, 11.50000000000000000 ) ;
#157 = CC_DESIGN_PERSON_AND_ORGANIZATION_ASSIGNMENT ( #160, #32, ( #127 ) ) ;
#158 = DIRECTION ( 'NONE',  ( 1.000000000000000000, 0.0000000000000000000, 0.0000000000000000000 ) ) ;
#159 = DESIGN_CONTEXT ( 'detailed design', #61, 'design' ) ;
#160 = PERSON_AND_ORGANIZATION ( #15, #111 ) ;
#161 = FACE_OUTER_BOUND ( 'NONE', #110, .T. ) ;
#162 = DIRECTION ( 'NONE',  ( 1.000000000000000000, 0.0000000000000000000, 0.0000000000000000000 ) ) ;
#163 =( LENGTH_UNIT ( ) NAMED_UNIT ( * ) SI_UNIT ( .MILLI., .METRE. ) );
#164 = UNCERTAINTY_MEASURE_WITH_UNIT (LENGTH_MEASURE( 1.000000000000000100E-005 ), #163, 'distance_accuracy_value', 'NONE');
#165 = LOCAL_TIME ( 11, 20, 20.00000000000000000, #42 ) ;
#166 = AXIS2_PLACEMENT_3D ( 'NONE', #43, #117, #147 ) ;
#167 = ORIENTED_EDGE ( 'NONE', *, *, #34, .F. ) ;
#168 = APPROVAL_PERSON_ORGANIZATION ( #46, #100, #154 ) ;
#169 = DATE_TIME_ROLE ( 'creation_date' ) ;
ENDSEC;
END-ISO-10303-21;
